  0
SECTION
  2
HEADER
  9
$ACADVER
  1
AC1024
  9
$ACADMAINTVER
 70
   226
  9
$DWGCODEPAGE
  3
ANSI_932
  9
$INSBASE
 10
0.0
 20
0.0
 30
0.0
  9
$EXTMIN
 10
1.000000000000000E+20
 20
1.000000000000000E+20
 30
1.000000000000000E+20
  9
$EXTMAX
 10
-1.000000000000000E+20
 20
-1.000000000000000E+20
 30
-1.000000000000000E+20
  9
$LIMMIN
 10
0.0
 20
0.0
  9
$LIMMAX
 10
12.0
 20
9.0
  9
$ORTHOMODE
 70
     0
  9
$REGENMODE
 70
     1
  9
$FILLMODE
 70
     1
  9
$QTEXTMODE
 70
     0
  9
$MIRRTEXT
 70
     0
  9
$LTSCALE
 40
1.0
  9
$ATTMODE
 70
     1
  9
$TEXTSIZE
 40
0.2
  9
$TRACEWID
 40
0.05
  9
$TEXTSTYLE
  7
Standard
  9
$CLAYER
  8
0
  9
$CELTYPE
  6
ByLayer
  9
$CECOLOR
 62
   256
  9
$CELTSCALE
 40
1.0
  9
$DISPSILH
 70
     0
  9
$DIMSCALE
 40
1.0
  9
$DIMASZ
 40
0.18
  9
$DIMEXO
 40
0.0625
  9
$DIMDLI
 40
0.38
  9
$DIMRND
 40
0.0
  9
$DIMDLE
 40
0.0
  9
$DIMEXE
 40
0.18
  9
$DIMTP
 40
0.0
  9
$DIMTM
 40
0.0
  9
$DIMTXT
 40
0.18
  9
$DIMCEN
 40
0.09
  9
$DIMTSZ
 40
0.0
  9
$DIMTOL
 70
     0
  9
$DIMLIM
 70
     0
  9
$DIMTIH
 70
     1
  9
$DIMTOH
 70
     1
  9
$DIMSE1
 70
     0
  9
$DIMSE2
 70
     0
  9
$DIMTAD
 70
     0
  9
$DIMZIN
 70
     0
  9
$DIMBLK
  1

  9
$DIMASO
 70
     1
  9
$DIMSHO
 70
     1
  9
$DIMPOST
  1

  9
$DIMAPOST
  1

  9
$DIMALT
 70
     0
  9
$DIMALTD
 70
     2
  9
$DIMALTF
 40
25.4
  9
$DIMLFAC
 40
1.0
  9
$DIMTOFL
 70
     0
  9
$DIMTVP
 40
0.0
  9
$DIMTIX
 70
     0
  9
$DIMSOXD
 70
     0
  9
$DIMSAH
 70
     0
  9
$DIMBLK1
  1

  9
$DIMBLK2
  1

  9
$DIMSTYLE
  2
Standard
  9
$DIMCLRD
 70
     0
  9
$DIMCLRE
 70
     0
  9
$DIMCLRT
 70
     0
  9
$DIMTFAC
 40
1.0
  9
$DIMGAP
 40
0.09
  9
$DIMJUST
 70
     0
  9
$DIMSD1
 70
     0
  9
$DIMSD2
 70
     0
  9
$DIMTOLJ
 70
     1
  9
$DIMTZIN
 70
     0
  9
$DIMALTZ
 70
     0
  9
$DIMALTTZ
 70
     0
  9
$DIMUPT
 70
     0
  9
$DIMDEC
 70
     4
  9
$DIMTDEC
 70
     4
  9
$DIMALTU
 70
     2
  9
$DIMALTTD
 70
     2
  9
$DIMTXSTY
  7
Standard
  9
$DIMAUNIT
 70
     0
  9
$DIMADEC
 70
     0
  9
$DIMALTRND
 40
0.0
  9
$DIMAZIN
 70
     0
  9
$DIMDSEP
 70
    46
  9
$DIMATFIT
 70
     3
  9
$DIMFRAC
 70
     0
  9
$DIMLDRBLK
  1

  9
$DIMLUNIT
 70
     2
  9
$DIMLWD
 70
    -2
  9
$DIMLWE
 70
    -2
  9
$DIMTMOVE
 70
     0
  9
$DIMFXL
 40
1.0
  9
$DIMFXLON
 70
     0
  9
$DIMJOGANG
 40
0.7853981633974483
  9
$DIMTFILL
 70
     0
  9
$DIMTFILLCLR
 70
     0
  9
$DIMARCSYM
 70
     0
  9
$DIMLTYPE
  6

  9
$DIMLTEX1
  6

  9
$DIMLTEX2
  6

  9
$DIMTXTDIRECTION
 70
     0
  9
$LUNITS
 70
     2
  9
$LUPREC
 70
     4
  9
$SKETCHINC
 40
0.1
  9
$FILLETRAD
 40
0.0
  9
$AUNITS
 70
     0
  9
$AUPREC
 70
     0
  9
$MENU
  1
.
  9
$ELEVATION
 40
0.0
  9
$PELEVATION
 40
0.0
  9
$THICKNESS
 40
0.0
  9
$LIMCHECK
 70
     0
  9
$CHAMFERA
 40
0.0
  9
$CHAMFERB
 40
0.0
  9
$CHAMFERC
 40
0.0
  9
$CHAMFERD
 40
0.0
  9
$SKPOLY
 70
     0
  9
$TDCREATE
 40
2459569.489016204
  9
$TDUCREATE
 40
2459569.114016204
  9
$TDUPDATE
 40
2459569.489016204
  9
$TDUUPDATE
 40
2459569.114016204
  9
$TDINDWG
 40
0.0000000000
  9
$TDUSRTIMER
 40
0.0000000000
  9
$USRTIMER
 70
     1
  9
$ANGBASE
 50
0.0
  9
$ANGDIR
 70
     0
  9
$PDMODE
 70
     0
  9
$PDSIZE
 40
0.0
  9
$PLINEWID
 40
0.0
  9
$SPLFRAME
 70
     0
  9
$SPLINETYPE
 70
     6
  9
$SPLINESEGS
 70
     8
  9
$HANDSEED
  5
121
  9
$SURFTAB1
 70
     6
  9
$SURFTAB2
 70
     6
  9
$SURFTYPE
 70
     6
  9
$SURFU
 70
     6
  9
$SURFV
 70
     6
  9
$UCSBASE
  2

  9
$UCSNAME
  2

  9
$UCSORG
 10
0.0
 20
0.0
 30
0.0
  9
$UCSXDIR
 10
1.0
 20
0.0
 30
0.0
  9
$UCSYDIR
 10
0.0
 20
1.0
 30
0.0
  9
$UCSORTHOREF
  2

  9
$UCSORTHOVIEW
 70
     0
  9
$UCSORGTOP
 10
0.0
 20
0.0
 30
0.0
  9
$UCSORGBOTTOM
 10
0.0
 20
0.0
 30
0.0
  9
$UCSORGLEFT
 10
0.0
 20
0.0
 30
0.0
  9
$UCSORGRIGHT
 10
0.0
 20
0.0
 30
0.0
  9
$UCSORGFRONT
 10
0.0
 20
0.0
 30
0.0
  9
$UCSORGBACK
 10
0.0
 20
0.0
 30
0.0
  9
$PUCSBASE
  2

  9
$PUCSNAME
  2

  9
$PUCSORG
 10
0.0
 20
0.0
 30
0.0
  9
$PUCSXDIR
 10
1.0
 20
0.0
 30
0.0
  9
$PUCSYDIR
 10
0.0
 20
1.0
 30
0.0
  9
$PUCSORTHOREF
  2

  9
$PUCSORTHOVIEW
 70
     0
  9
$PUCSORGTOP
 10
0.0
 20
0.0
 30
0.0
  9
$PUCSORGBOTTOM
 10
0.0
 20
0.0
 30
0.0
  9
$PUCSORGLEFT
 10
0.0
 20
0.0
 30
0.0
  9
$PUCSORGRIGHT
 10
0.0
 20
0.0
 30
0.0
  9
$PUCSORGFRONT
 10
0.0
 20
0.0
 30
0.0
  9
$PUCSORGBACK
 10
0.0
 20
0.0
 30
0.0
  9
$USERI1
 70
     0
  9
$USERI2
 70
     0
  9
$USERI3
 70
     0
  9
$USERI4
 70
     0
  9
$USERI5
 70
     0
  9
$USERR1
 40
0.0
  9
$USERR2
 40
0.0
  9
$USERR3
 40
0.0
  9
$USERR4
 40
0.0
  9
$USERR5
 40
0.0
  9
$WORLDVIEW
 70
     1
  9
$SHADEDGE
 70
     3
  9
$SHADEDIF
 70
    70
  9
$TILEMODE
 70
     1
  9
$MAXACTVP
 70
    64
  9
$PINSBASE
 10
0.0
 20
0.0
 30
0.0
  9
$PLIMCHECK
 70
     0
  9
$PEXTMIN
 10
1.000000000000000E+20
 20
1.000000000000000E+20
 30
1.000000000000000E+20
  9
$PEXTMAX
 10
-1.000000000000000E+20
 20
-1.000000000000000E+20
 30
-1.000000000000000E+20
  9
$PLIMMIN
 10
0.0
 20
0.0
  9
$PLIMMAX
 10
12.0
 20
9.0
  9
$UNITMODE
 70
     0
  9
$VISRETAIN
 70
     1
  9
$PLINEGEN
 70
     0
  9
$PSLTSCALE
 70
     1
  9
$TREEDEPTH
 70
  3020
  9
$CMLSTYLE
  2
Standard
  9
$CMLJUST
 70
     0
  9
$CMLSCALE
 40
1.0
  9
$PROXYGRAPHICS
 70
     1
  9
$MEASUREMENT
 70
     0
  9
$CELWEIGHT
370
    -1
  9
$ENDCAPS
280
     0
  9
$JOINSTYLE
280
     0
  9
$LWDISPLAY
290
     1
  9
$INSUNITS
 70
     4
  9
$HYPERLINKBASE
  1

  9
$STYLESHEET
  1

  9
$XEDIT
290
     1
  9
$CEPSNTYPE
380
     0
  9
$PSTYLEMODE
290
     1
  9
$FINGERPRINTGUID
  2
{3559C165-C4A2-2F48-BDBD-1B2819ECB78F}
  9
$VERSIONGUID
  2
{8C1372DE-2B73-0A41-9437-17A3CFD3908E}
  9
$EXTNAMES
290
     1
  9
$PSVPSCALE
 40
0.0
  9
$OLESTARTUP
290
     0
  9
$SORTENTS
280
   127
  9
$INDEXCTL
280
     0
  9
$HIDETEXT
280
     1
  9
$XCLIPFRAME
280
     2
  9
$HALOGAP
280
     0
  9
$OBSCOLOR
 70
   257
  9
$OBSLTYPE
280
     0
  9
$INTERSECTIONDISPLAY
280
     0
  9
$INTERSECTIONCOLOR
 70
   257
  9
$DIMASSOC
280
     2
  9
$PROJECTNAME
  1

  9
$CAMERADISPLAY
290
     0
  9
$LENSLENGTH
 40
50.0
  9
$CAMERAHEIGHT
 40
0.0
  9
$STEPSPERSEC
 40
2.0
  9
$STEPSIZE
 40
6.0
  9
$3DDWFPREC
 40
2.0
  9
$PSOLWIDTH
 40
0.25
  9
$PSOLHEIGHT
 40
4.0
  9
$LOFTANG1
 40
1.570796326794896
  9
$LOFTANG2
 40
1.570796326794896
  9
$LOFTMAG1
 40
0.0
  9
$LOFTMAG2
 40
0.0
  9
$LOFTPARAM
 70
     7
  9
$LOFTNORMALS
280
     1
  9
$LATITUDE
 40
37.795
  9
$LONGITUDE
 40
-122.394
  9
$NORTHDIRECTION
 40
0.0
  9
$TIMEZONE
 70
 -8000
  9
$LIGHTGLYPHDISPLAY
280
     1
  9
$TILEMODELIGHTSYNCH
280
     1
  9
$CMATERIAL
347
11
  9
$SOLIDHIST
280
     0
  9
$SHOWHIST
280
     1
  9
$DWFFRAME
280
     2
  9
$DGNFRAME
280
     0
  9
$REALWORLDSCALE
290
     1
  9
$INTERFERECOLOR
 62
     1
  9
$INTERFEREOBJVS
345
33
  9
$INTERFEREVPVS
346
30
  9
$CSHADOW
280
     0
  9
$SHADOWPLANELOCATION
 40
0.0
  0
ENDSEC
  0
SECTION
  2
CLASSES
  0
CLASS
  1
ACDBDICTIONARYWDFLT
  2
AcDbDictionaryWithDefault
  3
ObjectDBX Classes
 90
        0
 91
        1
280
     0
281
     0
  0
CLASS
  1
MATERIAL
  2
AcDbMaterial
  3
ObjectDBX Classes
 90
     1153
 91
        3
280
     0
281
     0
  0
CLASS
  1
VISUALSTYLE
  2
AcDbVisualStyle
  3
ObjectDBX Classes
 90
     4095
 91
       24
280
     0
281
     0
  0
CLASS
  1
SCALE
  2
AcDbScale
  3
ObjectDBX Classes
 90
     1153
 91
       17
280
     0
281
     0
  0
CLASS
  1
TABLESTYLE
  2
AcDbTableStyle
  3
ObjectDBX Classes
 90
     4095
 91
        1
280
     0
281
     0
  0
CLASS
  1
MLEADERSTYLE
  2
AcDbMLeaderStyle
  3
ACDB_MLEADERSTYLE_CLASS
 90
     4095
 91
        1
280
     0
281
     0
  0
CLASS
  1
ACDBSECTIONVIEWSTYLE
  2
AcDbSectionViewStyle
  3
ObjectDBX Classes
 90
     1025
 91
        1
280
     0
281
     0
  0
CLASS
  1
ACDBDETAILVIEWSTYLE
  2
AcDbDetailViewStyle
  3
ObjectDBX Classes
 90
     1025
 91
        1
280
     0
281
     0
  0
CLASS
  1
DICTIONARYVAR
  2
AcDbDictionaryVar
  3
ObjectDBX Classes
 90
        0
 91
        5
280
     0
281
     0
  0
CLASS
  1
CELLSTYLEMAP
  2
AcDbCellStyleMap
  3
ObjectDBX Classes
 90
     1152
 91
        1
280
     0
281
     0
  0
ENDSEC
  0
SECTION
  2
TABLES
  0
TABLE
  2
VPORT
  5
8
330
0
100
AcDbSymbolTable
 70
     1
  0
VPORT
  5
57
330
8
100
AcDbSymbolTableRecord
100
AcDbViewportTableRecord
  2
*Active
 70
     0
 10
0.0
 20
0.0
 11
1.0
 21
1.0
 12
0.0
 22
0.0
 13
0.0
 23
0.0
 14
1.0
 24
1.0
 15
0.0
 25
0.0
 16
0.0
 26
0.0
 36
1.0
 17
104.9999999737534
 27
-148.4999999628701
 37
0.0
 40
302.939999924255
 41
0.7070707070707534
 42
50.0
 43
0.0
 44
0.0
 50
0.0
 51
0.0
 71
     0
 72
   100
 73
     1
 74
     0
 75
     1
 76
     0
 77
     0
 78
     0
281
     0
 65
     1
110
0.0
120
0.0
130
0.0
111
1.0
121
0.0
131
0.0
112
0.0
122
1.0
132
0.0
 79
     0
146
0.0
 60
     3
 61
     5
292
     1
282
     1
141
0.0
142
0.0
 63
   250
421
  3355443
  0
ENDTAB
  0
TABLE
  2
LTYPE
  5
5
330
0
100
AcDbSymbolTable
 70
     2
  0
LTYPE
  5
5B
330
5
100
AcDbSymbolTableRecord
100
AcDbLinetypeTableRecord
  2
ByBlock
 70
     0
  3

 72
    65
 73
     0
 40
0.0
  0
LTYPE
  5
5C
330
5
100
AcDbSymbolTableRecord
100
AcDbLinetypeTableRecord
  2
ByLayer
 70
     0
  3

 72
    65
 73
     0
 40
0.0
  0
LTYPE
  5
5D
330
5
100
AcDbSymbolTableRecord
100
AcDbLinetypeTableRecord
  2
Continuous
 70
     0
  3
Solid line
 72
    65
 73
     0
 40
0.0
  0
LTYPE
  5
BD
330
5
100
AcDbSymbolTableRecord
100
AcDbLinetypeTableRecord
  2
AI-Linetype-0
 70
     0
  3
Adobe Illustrator Linetype No. 0
 72
    65
 73
     2
 40
1.411111110758333
 49
0.7055555553791667
 74
     0
 49
-0.7055555553791667
 74
     0
  0
ENDTAB
  0
TABLE
  2
LAYER
  5
2
330
0
100
AcDbSymbolTable
 70
     2
  0
LAYER
  5
54
330
2
100
AcDbSymbolTableRecord
100
AcDbLayerTableRecord
  2
0
 70
     0
 62
     7
  6
Continuous
370
    -3
390
F
347
21
  0
LAYER
  5
78
330
2
100
AcDbSymbolTableRecord
100
AcDbLayerTableRecord
  2
レイヤー 1
 70
     0
 62
     7
  6
Continuous
370
     0
390
F
347
21
  0
ENDTAB
  0
TABLE
  2
STYLE
  5
3
330
0
100
AcDbSymbolTable
 70
     2
  0
STYLE
  5
55
330
3
100
AcDbSymbolTableRecord
100
AcDbTextStyleTableRecord
  2
Standard
 70
     0
 40
0.0
 41
1.0
 50
0.0
 71
     0
 42
0.2
  3
txt
  4

  0
STYLE
  5
5A
330
3
100
AcDbSymbolTableRecord
100
AcDbTextStyleTableRecord
  2
Annotative
 70
     0
 40
0.0
 41
1.0
 50
0.0
 71
     0
 42
0.2
  3
txt
  4

1001
AcadAnnotative
1000
AnnotativeData
1002
{
1070
     1
1070
     1
1002
}
  0
ENDTAB
  0
TABLE
  2
VIEW
  5
6
330
0
100
AcDbSymbolTable
 70
     0
  0
ENDTAB
  0
TABLE
  2
UCS
  5
7
330
0
100
AcDbSymbolTable
 70
     0
  0
ENDTAB
  0
TABLE
  2
APPID
  5
9
330
0
100
AcDbSymbolTable
 70
     2
  0
APPID
  5
56
330
9
100
AcDbSymbolTableRecord
100
AcDbRegAppTableRecord
  2
ACAD
 70
     0
  0
APPID
  5
5E
330
9
100
AcDbSymbolTableRecord
100
AcDbRegAppTableRecord
  2
AcadAnnotative
 70
     0
  0
ENDTAB
  0
TABLE
  2
DIMSTYLE
  5
A
330
0
100
AcDbSymbolTable
 70
     2
100
AcDbDimStyleTable
 71
     0
  0
DIMSTYLE
105
58
330
A
100
AcDbSymbolTableRecord
100
AcDbDimStyleTableRecord
  2
Standard
 70
     0
340
55
  0
DIMSTYLE
105
59
330
A
100
AcDbSymbolTableRecord
100
AcDbDimStyleTableRecord
  2
Annotative
 70
     0
340
55
1001
AcadAnnotative
1000
AnnotativeData
1002
{
1070
     1
1070
     1
1002
}
  0
ENDTAB
  0
TABLE
  2
BLOCK_RECORD
  5
1
330
0
100
AcDbSymbolTable
 70
    10
  0
BLOCK_RECORD
  5
70
330
1
100
AcDbSymbolTableRecord
100
AcDbBlockTableRecord
  2
*Model_Space
340
73
 70
     0
280
     1
281
     0
  0
BLOCK_RECORD
  5
6C
330
1
100
AcDbSymbolTableRecord
100
AcDbBlockTableRecord
  2
*Paper_Space
340
6F
 70
     0
280
     1
281
     0
  0
BLOCK_RECORD
  5
74
330
1
100
AcDbSymbolTableRecord
100
AcDbBlockTableRecord
  2
*Paper_Space0
340
77
 70
     0
280
     1
281
     0
  0
BLOCK_RECORD
  5
7E
330
1
100
AcDbSymbolTableRecord
100
AcDbBlockTableRecord
  2
Block_0
340
0
102
{BLKREFS
331
7F
102
}
 70
     0
280
     1
281
     0
  0
BLOCK_RECORD
  5
8D
330
1
100
AcDbSymbolTableRecord
100
AcDbBlockTableRecord
  2
Block_1
340
0
102
{BLKREFS
331
8E
102
}
 70
     0
280
     1
281
     0
  0
BLOCK_RECORD
  5
91
330
1
100
AcDbSymbolTableRecord
100
AcDbBlockTableRecord
  2
Block_2
340
0
102
{BLKREFS
331
92
102
}
 70
     0
280
     1
281
     0
  0
BLOCK_RECORD
  5
A0
330
1
100
AcDbSymbolTableRecord
100
AcDbBlockTableRecord
  2
Block_3
340
0
102
{BLKREFS
331
A1
102
}
 70
     0
280
     1
281
     0
  0
BLOCK_RECORD
  5
A4
330
1
100
AcDbSymbolTableRecord
100
AcDbBlockTableRecord
  2
Block_4
340
0
102
{BLKREFS
331
A5
102
}
 70
     0
280
     1
281
     0
  0
BLOCK_RECORD
  5
AF
330
1
100
AcDbSymbolTableRecord
100
AcDbBlockTableRecord
  2
Block_5
340
0
102
{BLKREFS
331
B0
102
}
 70
     0
280
     1
281
     0
  0
BLOCK_RECORD
  5
B3
330
1
100
AcDbSymbolTableRecord
100
AcDbBlockTableRecord
  2
Block_6
340
0
102
{BLKREFS
331
B4
102
}
 70
     0
280
     1
281
     0
  0
BLOCK_RECORD
  5
BF
330
1
100
AcDbSymbolTableRecord
100
AcDbBlockTableRecord
  2
Block_7
340
0
102
{BLKREFS
331
C0
102
}
 70
     0
280
     1
281
     0
  0
BLOCK_RECORD
  5
C3
330
1
100
AcDbSymbolTableRecord
100
AcDbBlockTableRecord
  2
Block_8
340
0
102
{BLKREFS
331
C4
102
}
 70
     0
280
     1
281
     0
  0
ENDTAB
  0
ENDSEC
  0
SECTION
  2
BLOCKS
  0
BLOCK
  5
71
330
70
100
AcDbEntity
  8
0
100
AcDbBlockBegin
  2
*Model_Space
 70
     0
 10
0.0
 20
0.0
 30
0.0
  3
*Model_Space
  1

  0
ENDBLK
  5
72
330
70
100
AcDbEntity
  8
0
100
AcDbBlockEnd
  0
BLOCK
  5
6D
330
6C
100
AcDbEntity
 67
     1
  8
0
100
AcDbBlockBegin
  2
*Paper_Space
 70
     0
 10
0.0
 20
0.0
 30
0.0
  3
*Paper_Space
  1

  0
ENDBLK
  5
6E
330
6C
100
AcDbEntity
 67
     1
  8
0
100
AcDbBlockEnd
  0
BLOCK
  5
75
330
74
100
AcDbEntity
 67
     1
  8
0
100
AcDbBlockBegin
  2
*Paper_Space0
 70
     0
 10
0.0
 20
0.0
 30
0.0
  3
*Paper_Space0
  1

  0
ENDBLK
  5
76
330
74
100
AcDbEntity
 67
     1
  8
0
100
AcDbBlockEnd
  0
BLOCK
  5
80
330
7E
100
AcDbEntity
  8
0
100
AcDbBlockBegin
  2
Block_0
 70
     0
 10
0.0
 20
0.0
 30
0.0
  3
Block_0
  1

  0
SPLINE
  5
82
330
7E
100
AcDbEntity
  8
レイヤー 1
100
AcDbSpline
210
0.0
220
0.0
230
1.0
 70
     9
 71
     3
 72
    17
 73
    13
 74
     0
 42
0.0000000001
 43
0.0000000001
 40
0.0
 40
0.0
 40
0.0
 40
0.0
 40
1.0
 40
1.0
 40
1.0
 40
2.0
 40
2.0
 40
2.0
 40
3.0
 40
3.0
 40
3.0
 40
4.0
 40
4.0
 40
4.0
 40
4.0
 10
96.39618324413014
 20
-160.3433566222405
 30
0.0
 10
96.27767195943754
 20
-160.3433566222405
 30
0.0
 10
96.10214434446405
 20
-160.4005452072957
 30
0.0
 10
96.10214434446405
 20
-160.6861436230229
 30
0.0
 10
96.10214434446405
 20
-160.9124863964038
 30
0.0
 10
96.24167071161666
 20
-161.0075710317967
 30
0.0
 10
96.37706296418699
 20
-161.0075710317967
 30
0.0
 10
96.63940698538876
 20
-161.0075710317967
 30
0.0
 10
96.67747529050078
 20
-160.7981092262935
 30
0.0
 10
96.67747529050078
 20
-160.6816649988921
 30
0.0
 10
96.67747529050078
 20
-160.5063096386929
 30
0.0
 10
96.58239065510787
 20
-160.3433566222405
 30
0.0
 10
96.39618324413014
 20
-160.3433566222405
 30
0.0
  0
SPLINE
  5
83
330
7E
100
AcDbEntity
  8
レイヤー 1
100
AcDbSpline
210
0.0
220
0.0
230
1.0
 70
     9
 71
     3
 72
    32
 73
    28
 74
     0
 42
0.0000000001
 43
0.0000000001
 40
0.0
 40
0.0
 40
0.0
 40
0.0
 40
1.0
 40
1.0
 40
1.0
 40
2.0
 40
2.0
 40
2.0
 40
3.0
 40
3.0
 40
3.0
 40
4.0
 40
4.0
 40
4.0
 40
5.0
 40
5.0
 40
5.0
 40
6.0
 40
6.0
 40
6.0
 40
7.0
 40
7.0
 40
7.0
 40
8.0
 40
8.0
 40
8.0
 40
9.0
 40
9.0
 40
9.0
 40
9.0
 10
96.3558756269527
 20
-161.7944308406278
 30
0.0
 10
96.18241506927038
 20
-161.7944308406278
 30
0.0
 10
95.93712427072059
 20
-161.7248399118257
 30
0.0
 10
95.89905596560857
 20
-161.3927327070476
 30
0.0
 10
95.89905596560857
 20
-161.3927327070476
 30
0.0
 10
96.11265188569406
 20
-161.3927327070476
 30
0.0
 10
96.11265188569406
 20
-161.3927327070476
 30
0.0
 10
96.12333168169833
 20
-161.4519883493939
 30
0.0
 10
96.15502656016264
 20
-161.5997829457112
 30
0.0
 10
96.35811493901812
 20
-161.5997829457112
 30
0.0
 10
96.65008678139304
 20
-161.5997829457112
 30
0.0
 10
96.68815508650505
 20
-161.2697427982242
 30
0.0
 10
96.70072968502623
 20
-161.0647596168518
 30
0.0
 10
96.60977916421561
 20
-161.1450303416582
 30
0.0
 10
96.54208303793046
 20
-161.2022189267133
 30
0.0
 10
96.36018199630926
 20
-161.2022189267133
 30
0.0
 10
96.18034801197921
 20
-161.2022189267133
 30
0.0
 10
95.87786862837429
 20
-161.0964544953161
 30
0.0
 10
95.87786862837429
 20
-160.6902777376052
 30
0.0
 10
95.87786862837429
 20
-160.3709173861225
 30
0.0
 10
96.07665063787321
 20
-160.1507757846151
 30
0.0
 10
96.39411618683897
 20
-160.1507757846151
 30
0.0
 10
96.90812443323826
 20
-160.1507757846151
 30
0.0
 10
96.91863197446828
 20
-160.7050916481918
 30
0.0
 10
96.91863197446828
 20
-160.9186875682772
 30
0.0
 10
96.91863197446828
 20
-161.1491644562405
 30
0.0
 10
96.89968394929939
 20
-161.7944308406278
 30
0.0
 10
96.3558756269527
 20
-161.7944308406278
 30
0.0
  0
HATCH
  5
84
330
7E
100
AcDbEntity
  8
レイヤー 1
 62
    18
420
        0
440
 33554687
100
AcDbHatch
 10
0.0
 20
0.0
 30
0.0
210
0.0
220
0.0
230
1.0
  2
SOLID
 70
     1
 71
     1
 91
        2
 92
        1
 93
        1
 72
     4
 94
        3
 73
     0
 74
     0
 95
       17
 96
       13
 40
0.0
 40
0.0
 40
0.0
 40
0.0
 40
1.0
 40
1.0
 40
1.0
 40
2.0
 40
2.0
 40
2.0
 40
3.0
 40
3.0
 40
3.0
 40
4.0
 40
4.0
 40
4.0
 40
4.0
 10
96.39618324413014
 20
-160.3433566222405
 10
96.27767195943754
 20
-160.3433566222405
 10
96.10214434446405
 20
-160.4005452072957
 10
96.10214434446405
 20
-160.6861436230229
 10
96.10214434446405
 20
-160.9124863964038
 10
96.24167071161666
 20
-161.0075710317967
 10
96.37706296418699
 20
-161.0075710317967
 10
96.63940698538876
 20
-161.0075710317967
 10
96.67747529050078
 20
-160.7981092262935
 10
96.67747529050078
 20
-160.6816649988921
 10
96.67747529050078
 20
-160.5063096386929
 10
96.58239065510787
 20
-160.3433566222405
 10
96.39618324413014
 20
-160.3433566222405
 97
        0
 97
        1
330
82
 92
        1
 93
        1
 72
     4
 94
        3
 73
     0
 74
     0
 95
       32
 96
       28
 40
0.0
 40
0.0
 40
0.0
 40
0.0
 40
1.0
 40
1.0
 40
1.0
 40
2.0
 40
2.0
 40
2.0
 40
3.0
 40
3.0
 40
3.0
 40
4.0
 40
4.0
 40
4.0
 40
5.0
 40
5.0
 40
5.0
 40
6.0
 40
6.0
 40
6.0
 40
7.0
 40
7.0
 40
7.0
 40
8.0
 40
8.0
 40
8.0
 40
9.0
 40
9.0
 40
9.0
 40
9.0
 10
96.3558756269527
 20
-161.7944308406278
 10
96.18241506927038
 20
-161.7944308406278
 10
95.93712427072059
 20
-161.7248399118257
 10
95.89905596560857
 20
-161.3927327070476
 10
95.89905596560857
 20
-161.3927327070476
 10
96.11265188569406
 20
-161.3927327070476
 10
96.11265188569406
 20
-161.3927327070476
 10
96.12333168169833
 20
-161.4519883493939
 10
96.15502656016264
 20
-161.5997829457112
 10
96.35811493901812
 20
-161.5997829457112
 10
96.65008678139304
 20
-161.5997829457112
 10
96.68815508650505
 20
-161.2697427982242
 10
96.70072968502623
 20
-161.0647596168518
 10
96.60977916421561
 20
-161.1450303416582
 10
96.54208303793046
 20
-161.2022189267133
 10
96.36018199630926
 20
-161.2022189267133
 10
96.18034801197921
 20
-161.2022189267133
 10
95.87786862837429
 20
-161.0964544953161
 10
95.87786862837429
 20
-160.6902777376052
 10
95.87786862837429
 20
-160.3709173861225
 10
96.07665063787321
 20
-160.1507757846151
 10
96.39411618683897
 20
-160.1507757846151
 10
96.90812443323826
 20
-160.1507757846151
 10
96.91863197446828
 20
-160.7050916481918
 10
96.91863197446828
 20
-160.9186875682772
 10
96.91863197446828
 20
-161.1491644562405
 10
96.89968394929939
 20
-161.7944308406278
 10
96.3558756269527
 20
-161.7944308406278
 97
        0
 97
        1
330
83
 75
     2
 76
     1
 98
        1
 10
0.0
 20
0.0
450
        0
451
        0
460
0.0
461
0.0
452
        0
462
0.0
453
        0
470

  0
ENDBLK
  5
81
330
7E
100
AcDbEntity
  8
0
100
AcDbBlockEnd
  0
BLOCK
  5
8F
330
8D
100
AcDbEntity
  8
0
100
AcDbBlockBegin
  2
Block_1
 70
     0
 10
0.0
 20
0.0
 30
0.0
  3
Block_1
  1

  0
INSERT
  5
92
330
8D
100
AcDbEntity
  8
レイヤー 1
100
AcDbBlockReference
  2
Block_2
 10
0.0
 20
0.0
 30
0.0
  0
ENDBLK
  5
90
330
8D
100
AcDbEntity
  8
0
100
AcDbBlockEnd
  0
BLOCK
  5
93
330
91
100
AcDbEntity
  8
0
100
AcDbBlockBegin
  2
Block_2
 70
     0
 10
0.0
 20
0.0
 30
0.0
  3
Block_2
  1

  0
SPLINE
  5
95
330
91
100
AcDbEntity
  8
レイヤー 1
100
AcDbSpline
210
0.0
220
0.0
230
1.0
 70
    11
 71
     3
 72
    26
 73
    22
 74
     0
 42
0.0000000001
 43
0.0000000001
 40
0.0
 40
0.0
 40
0.0
 40
0.0
 40
1.0
 40
1.0
 40
1.0
 40
2.0
 40
2.0
 40
2.0
 40
3.0
 40
3.0
 40
3.0
 40
4.0
 40
4.0
 40
4.0
 40
5.0
 40
5.0
 40
5.0
 40
6.0
 40
6.0
 40
6.0
 40
7.0
 40
7.0
 40
7.0
 40
7.0
 10
123.8405028987274
 20
-141.1707112277281
 30
0.0
 10
123.8405028987274
 20
-141.1707112277281
 30
0.0
 10
122.7363497957048
 20
-141.1707112277281
 30
0.0
 10
122.7363497957048
 20
-141.1707112277281
 30
0.0
 10
122.7363497957048
 20
-141.1707112277281
 30
0.0
 10
122.7363497957048
 20
-141.5007513752151
 30
0.0
 10
122.7363497957048
 20
-141.5007513752151
 30
0.0
 10
122.7363497957048
 20
-141.5007513752151
 30
0.0
 10
122.588210689839
 20
-141.5007513752151
 30
0.0
 10
122.588210689839
 20
-141.5007513752151
 30
0.0
 10
122.5733967792525
 20
-141.168644170437
 30
0.0
 10
122.4104437628001
 20
-141.1221353813861
 30
0.0
 10
122.2960665926899
 20
-141.092507560213
 30
0.0
 10
122.2960665926899
 20
-141.092507560213
 30
0.0
 10
122.2960665926899
 20
-140.9464355116384
 30
0.0
 10
122.2960665926899
 20
-140.9464355116384
 30
0.0
 10
122.2960665926899
 20
-140.9464355116384
 30
0.0
 10
123.8405028987274
 20
-140.9464355116384
 30
0.0
 10
123.8405028987274
 20
-140.9464355116384
 30
0.0
 10
123.8405028987274
 20
-140.9464355116384
 30
0.0
 10
123.8405028987274
 20
-141.1707112277281
 30
0.0
 10
123.8405028987274
 20
-141.1707112277281
 30
0.0
  0
HATCH
  5
96
330
91
100
AcDbEntity
  8
レイヤー 1
 62
    18
420
        0
440
 33554687
100
AcDbHatch
 10
0.0
 20
0.0
 30
0.0
210
0.0
220
0.0
230
1.0
  2
SOLID
 70
     1
 71
     1
 91
        1
 92
        1
 93
        1
 72
     4
 94
        3
 73
     0
 74
     0
 95
       26
 96
       22
 40
0.0
 40
0.0
 40
0.0
 40
0.0
 40
1.0
 40
1.0
 40
1.0
 40
2.0
 40
2.0
 40
2.0
 40
3.0
 40
3.0
 40
3.0
 40
4.0
 40
4.0
 40
4.0
 40
5.0
 40
5.0
 40
5.0
 40
6.0
 40
6.0
 40
6.0
 40
7.0
 40
7.0
 40
7.0
 40
7.0
 10
123.8405028987274
 20
-141.1707112277281
 10
123.8405028987274
 20
-141.1707112277281
 10
122.7363497957048
 20
-141.1707112277281
 10
122.7363497957048
 20
-141.1707112277281
 10
122.7363497957048
 20
-141.1707112277281
 10
122.7363497957048
 20
-141.5007513752151
 10
122.7363497957048
 20
-141.5007513752151
 10
122.7363497957048
 20
-141.5007513752151
 10
122.588210689839
 20
-141.5007513752151
 10
122.588210689839
 20
-141.5007513752151
 10
122.5733967792525
 20
-141.168644170437
 10
122.4104437628001
 20
-141.1221353813861
 10
122.2960665926899
 20
-141.092507560213
 10
122.2960665926899
 20
-141.092507560213
 10
122.2960665926899
 20
-140.9464355116384
 10
122.2960665926899
 20
-140.9464355116384
 10
122.2960665926899
 20
-140.9464355116384
 10
123.8405028987274
 20
-140.9464355116384
 10
123.8405028987274
 20
-140.9464355116384
 10
123.8405028987274
 20
-140.9464355116384
 10
123.8405028987274
 20
-141.1707112277281
 10
123.8405028987274
 20
-141.1707112277281
 97
        0
 97
        1
330
95
 75
     2
 76
     1
 98
        1
 10
0.0
 20
0.0
450
        0
451
        0
460
0.0
461
0.0
452
        0
462
0.0
453
        0
470

  0
SPLINE
  5
97
330
91
100
AcDbEntity
  8
レイヤー 1
100
AcDbSpline
210
0.0
220
0.0
230
1.0
 70
     9
 71
     3
 72
    44
 73
    40
 74
     0
 42
0.0000000001
 43
0.0000000001
 40
0.0
 40
0.0
 40
0.0
 40
0.0
 40
1.0
 40
1.0
 40
1.0
 40
2.0
 40
2.0
 40
2.0
 40
3.0
 40
3.0
 40
3.0
 40
4.0
 40
4.0
 40
4.0
 40
5.0
 40
5.0
 40
5.0
 40
6.0
 40
6.0
 40
6.0
 40
7.0
 40
7.0
 40
7.0
 40
8.0
 40
8.0
 40
8.0
 40
9.0
 40
9.0
 40
9.0
 40
10.0
 40
10.0
 40
10.0
 40
11.0
 40
11.0
 40
11.0
 40
12.0
 40
12.0
 40
12.0
 40
13.0
 40
13.0
 40
13.0
 40
13.0
 10
123.2586262712687
 20
-139.852273185523
 30
0.0
 10
123.4174451731387
 20
-140.0700032201908
 30
0.0
 10
123.4915147260716
 20
-140.1630207982926
 30
0.0
 10
123.6351752078065
 20
-140.2119411541831
 30
0.0
 10
123.6351752078065
 20
-140.2119411541831
 30
0.0
 10
123.6351752078065
 20
-139.4333495745167
 30
0.0
 10
123.6351752078065
 20
-139.4333495745167
 30
0.0
 10
123.6351752078065
 20
-139.4333495745167
 30
0.0
 10
123.8405028987274
 20
-139.4333495745167
 30
0.0
 10
123.8405028987274
 20
-139.4333495745167
 30
0.0
 10
123.8405028987274
 20
-139.4333495745167
 30
0.0
 10
123.8405028987274
 20
-140.4613660673152
 30
0.0
 10
123.8405028987274
 20
-140.4613660673152
 30
0.0
 10
123.4829019873584
 20
-140.4296711888509
 30
0.0
 10
123.4046983198433
 20
-140.3642143746312
 30
0.0
 10
123.1063530508206
 20
-139.9790526993802
 30
0.0
 10
122.9075710413217
 20
-139.7230821048262
 30
0.0
 10
122.8397026602623
 20
-139.6576252906064
 30
0.0
 10
122.7022433504008
 20
-139.6576252906064
 30
0.0
 10
122.5837320657082
 20
-139.6576252906064
 30
0.0
 10
122.4528184372687
 20
-139.7296277862481
 30
0.0
 10
122.4528184372687
 20
-139.9263427384559
 30
0.0
 10
122.4528184372687
 20
-140.1864474475923
 30
0.0
 10
122.6832953252319
 20
-140.1950601863054
 30
0.0
 10
122.7997395526334
 20
-140.1991943008877
 30
0.0
 10
122.7997395526334
 20
-140.1991943008877
 30
0.0
 10
122.7997395526334
 20
-140.4234700169774
 30
0.0
 10
122.7997395526334
 20
-140.4234700169774
 30
0.0
 10
122.6726155292277
 20
-140.4148572782643
 30
0.0
 10
122.560649925957
 20
-140.4041774822601
 30
0.0
 10
122.4421386412644
 20
-140.3239067574537
 30
0.0
 10
122.2812526821033
 20
-140.2140082114743
 30
0.0
 10
122.2474907463478
 20
-140.0276285457223
 30
0.0
 10
122.2474907463478
 20
-139.9115288278693
 30
0.0
 10
122.2474907463478
 20
-139.6341986413067
 30
0.0
 10
122.4314588452602
 20
-139.4268038930947
 30
0.0
 10
122.704310407692
 20
-139.4268038930947
 30
0.0
 10
122.9330647479125
 20
-139.4268038930947
 30
0.0
 10
123.0322834978877
 20
-139.5432481204961
 30
0.0
 10
123.2586262712687
 20
-139.852273185523
 30
0.0
  0
HATCH
  5
98
330
91
100
AcDbEntity
  8
レイヤー 1
 62
    18
420
        0
440
 33554687
100
AcDbHatch
 10
0.0
 20
0.0
 30
0.0
210
0.0
220
0.0
230
1.0
  2
SOLID
 70
     1
 71
     1
 91
        1
 92
        1
 93
        1
 72
     4
 94
        3
 73
     0
 74
     0
 95
       44
 96
       40
 40
0.0
 40
0.0
 40
0.0
 40
0.0
 40
1.0
 40
1.0
 40
1.0
 40
2.0
 40
2.0
 40
2.0
 40
3.0
 40
3.0
 40
3.0
 40
4.0
 40
4.0
 40
4.0
 40
5.0
 40
5.0
 40
5.0
 40
6.0
 40
6.0
 40
6.0
 40
7.0
 40
7.0
 40
7.0
 40
8.0
 40
8.0
 40
8.0
 40
9.0
 40
9.0
 40
9.0
 40
10.0
 40
10.0
 40
10.0
 40
11.0
 40
11.0
 40
11.0
 40
12.0
 40
12.0
 40
12.0
 40
13.0
 40
13.0
 40
13.0
 40
13.0
 10
123.2586262712687
 20
-139.852273185523
 10
123.4174451731387
 20
-140.0700032201908
 10
123.4915147260716
 20
-140.1630207982926
 10
123.6351752078065
 20
-140.2119411541831
 10
123.6351752078065
 20
-140.2119411541831
 10
123.6351752078065
 20
-139.4333495745167
 10
123.6351752078065
 20
-139.4333495745167
 10
123.6351752078065
 20
-139.4333495745167
 10
123.8405028987274
 20
-139.4333495745167
 10
123.8405028987274
 20
-139.4333495745167
 10
123.8405028987274
 20
-139.4333495745167
 10
123.8405028987274
 20
-140.4613660673152
 10
123.8405028987274
 20
-140.4613660673152
 10
123.4829019873584
 20
-140.4296711888509
 10
123.4046983198433
 20
-140.3642143746312
 10
123.1063530508206
 20
-139.9790526993802
 10
122.9075710413217
 20
-139.7230821048262
 10
122.8397026602623
 20
-139.6576252906064
 10
122.7022433504008
 20
-139.6576252906064
 10
122.5837320657082
 20
-139.6576252906064
 10
122.4528184372687
 20
-139.7296277862481
 10
122.4528184372687
 20
-139.9263427384559
 10
122.4528184372687
 20
-140.1864474475923
 10
122.6832953252319
 20
-140.1950601863054
 10
122.7997395526334
 20
-140.1991943008877
 10
122.7997395526334
 20
-140.1991943008877
 10
122.7997395526334
 20
-140.4234700169774
 10
122.7997395526334
 20
-140.4234700169774
 10
122.6726155292277
 20
-140.4148572782643
 10
122.560649925957
 20
-140.4041774822601
 10
122.4421386412644
 20
-140.3239067574537
 10
122.2812526821033
 20
-140.2140082114743
 10
122.2474907463478
 20
-140.0276285457223
 10
122.2474907463478
 20
-139.9115288278693
 10
122.2474907463478
 20
-139.6341986413067
 10
122.4314588452602
 20
-139.4268038930947
 10
122.704310407692
 20
-139.4268038930947
 10
122.9330647479125
 20
-139.4268038930947
 10
123.0322834978877
 20
-139.5432481204961
 10
123.2586262712687
 20
-139.852273185523
 97
        0
 97
        1
330
97
 75
     2
 76
     1
 98
        1
 10
0.0
 20
0.0
450
        0
451
        0
460
0.0
461
0.0
452
        0
462
0.0
453
        0
470

  0
SPLINE
  5
99
330
91
100
AcDbEntity
  8
レイヤー 1
100
AcDbSpline
210
0.0
220
0.0
230
1.0
 70
    11
 71
     3
 72
    17
 73
    13
 74
     0
 42
0.0000000001
 43
0.0000000001
 40
0.0
 40
0.0
 40
0.0
 40
0.0
 40
1.0
 40
1.0
 40
1.0
 40
2.0
 40
2.0
 40
2.0
 40
3.0
 40
3.0
 40
3.0
 40
4.0
 40
4.0
 40
4.0
 40
4.0
 10
123.8405028987274
 20
-139.2083848393298
 30
0.0
 10
123.8405028987274
 20
-139.2083848393298
 30
0.0
 10
123.5886664187556
 20
-139.2083848393298
 30
0.0
 10
123.5886664187556
 20
-139.2083848393298
 30
0.0
 10
123.5886664187556
 20
-139.2083848393298
 30
0.0
 10
123.5886664187556
 20
-138.9565483593581
 30
0.0
 10
123.5886664187556
 20
-138.9565483593581
 30
0.0
 10
123.5886664187556
 20
-138.9565483593581
 30
0.0
 10
123.8405028987274
 20
-138.9565483593581
 30
0.0
 10
123.8405028987274
 20
-138.9565483593581
 30
0.0
 10
123.8405028987274
 20
-138.9565483593581
 30
0.0
 10
123.8405028987274
 20
-139.2083848393298
 30
0.0
 10
123.8405028987274
 20
-139.2083848393298
 30
0.0
  0
HATCH
  5
9A
330
91
100
AcDbEntity
  8
レイヤー 1
 62
    18
420
        0
440
 33554687
100
AcDbHatch
 10
0.0
 20
0.0
 30
0.0
210
0.0
220
0.0
230
1.0
  2
SOLID
 70
     1
 71
     1
 91
        1
 92
        1
 93
        1
 72
     4
 94
        3
 73
     0
 74
     0
 95
       17
 96
       13
 40
0.0
 40
0.0
 40
0.0
 40
0.0
 40
1.0
 40
1.0
 40
1.0
 40
2.0
 40
2.0
 40
2.0
 40
3.0
 40
3.0
 40
3.0
 40
4.0
 40
4.0
 40
4.0
 40
4.0
 10
123.8405028987274
 20
-139.2083848393298
 10
123.8405028987274
 20
-139.2083848393298
 10
123.5886664187556
 20
-139.2083848393298
 10
123.5886664187556
 20
-139.2083848393298
 10
123.5886664187556
 20
-139.2083848393298
 10
123.5886664187556
 20
-138.9565483593581
 10
123.5886664187556
 20
-138.9565483593581
 10
123.5886664187556
 20
-138.9565483593581
 10
123.8405028987274
 20
-138.9565483593581
 10
123.8405028987274
 20
-138.9565483593581
 10
123.8405028987274
 20
-138.9565483593581
 10
123.8405028987274
 20
-139.2083848393298
 10
123.8405028987274
 20
-139.2083848393298
 97
        0
 97
        1
330
99
 75
     2
 76
     1
 98
        1
 10
0.0
 20
0.0
450
        0
451
        0
460
0.0
461
0.0
452
        0
462
0.0
453
        0
470

  0
SPLINE
  5
9B
330
91
100
AcDbEntity
  8
レイヤー 1
100
AcDbSpline
210
0.0
220
0.0
230
1.0
 70
     9
 71
     3
 72
    53
 73
    49
 74
     0
 42
0.0000000001
 43
0.0000000001
 40
0.0
 40
0.0
 40
0.0
 40
0.0
 40
1.0
 40
1.0
 40
1.0
 40
2.0
 40
2.0
 40
2.0
 40
3.0
 40
3.0
 40
3.0
 40
4.0
 40
4.0
 40
4.0
 40
5.0
 40
5.0
 40
5.0
 40
6.0
 40
6.0
 40
6.0
 40
7.0
 40
7.0
 40
7.0
 40
8.0
 40
8.0
 40
8.0
 40
9.0
 40
9.0
 40
9.0
 40
10.0
 40
10.0
 40
10.0
 40
11.0
 40
11.0
 40
11.0
 40
12.0
 40
12.0
 40
12.0
 40
13.0
 40
13.0
 40
13.0
 40
14.0
 40
14.0
 40
14.0
 40
15.0
 40
15.0
 40
15.0
 40
16.0
 40
16.0
 40
16.0
 40
16.0
 10
123.8911458023605
 20
-138.2392794793291
 30
0.0
 10
123.8911458023605
 20
-138.3174831468442
 30
0.0
 10
123.8742648344828
 20
-138.4191134636591
 30
0.0
 10
123.8108750775542
 20
-138.520743780474
 30
0.0
 10
123.7009765315747
 20
-138.694032083382
 30
0.0
 10
123.5697183935867
 20
-138.7153916753906
 30
0.0
 10
123.4618869048984
 20
-138.7343397005595
 30
0.0
 10
123.4618869048984
 20
-138.7343397005595
 30
0.0
 10
123.4618869048984
 20
-138.5121310417608
 30
0.0
 10
123.4618869048984
 20
-138.5121310417608
 30
0.0
 10
123.6606689143973
 20
-138.4573540235453
 30
0.0
 10
123.6902967355705
 20
-138.3302300001396
 30
0.0
 10
123.6902967355705
 20
-138.2372124220379
 30
0.0
 10
123.6902967355705
 20
-138.0976860548853
 30
0.0
 10
123.5907334760467
 20
-137.9454128344372
 30
0.0
 10
123.3581895307924
 20
-137.9454128344372
 30
0.0
 10
123.1022189362383
 20
-137.9454128344372
 30
0.0
 10
123.0322834978877
 20
-138.1252468187673
 30
0.0
 10
123.0322834978877
 20
-138.245825160751
 30
0.0
 10
123.0322834978877
 20
-138.2775200392153
 30
0.0
 10
123.0322834978877
 20
-138.4191134636591
 30
0.0
 10
123.1614745785846
 20
-138.5079969271785
 30
0.0
 10
123.1614745785846
 20
-138.5079969271785
 30
0.0
 10
123.1425265534157
 20
-138.6836967969263
 30
0.0
 10
123.1425265534157
 20
-138.6836967969263
 30
0.0
 10
123.1425265534157
 20
-138.6836967969263
 30
0.0
 10
122.2960665926899
 20
-138.5631184549425
 30
0.0
 10
122.2960665926899
 20
-138.5631184549425
 30
0.0
 10
122.2960665926899
 20
-138.5631184549425
 30
0.0
 10
122.2960665926899
 20
-137.7845268752761
 30
0.0
 10
122.2960665926899
 20
-137.7845268752761
 30
0.0
 10
122.2960665926899
 20
-137.7845268752761
 30
0.0
 10
122.4907144876065
 20
-137.7845268752761
 30
0.0
 10
122.4907144876065
 20
-137.7845268752761
 30
0.0
 10
122.4907144876065
 20
-137.7845268752761
 30
0.0
 10
122.4907144876065
 20
-138.4001654384902
 30
0.0
 10
122.4907144876065
 20
-138.4001654384902
 30
0.0
 10
122.4907144876065
 20
-138.4001654384902
 30
0.0
 10
122.9137722131951
 20
-138.4656222527099
 30
0.0
 10
122.9137722131951
 20
-138.4656222527099
 30
0.0
 10
122.8800102774397
 20
-138.4042995530725
 30
0.0
 10
122.8397026602623
 20
-138.321961770975
 30
0.0
 10
122.8397026602623
 20
-138.2034504862824
 30
0.0
 10
122.8397026602623
 20
-137.9495469490195
 30
0.0
 10
123.0260823260143
 20
-137.7125243796343
 30
0.0
 10
123.3392415056235
 20
-137.7125243796343
 30
0.0
 10
123.656534799815
 20
-137.7125243796343
 30
0.0
 10
123.8911458023605
 20
-137.9368000957241
 30
0.0
 10
123.8911458023605
 20
-138.2392794793291
 30
0.0
  0
HATCH
  5
9C
330
91
100
AcDbEntity
  8
レイヤー 1
 62
    18
420
        0
440
 33554687
100
AcDbHatch
 10
0.0
 20
0.0
 30
0.0
210
0.0
220
0.0
230
1.0
  2
SOLID
 70
     1
 71
     1
 91
        1
 92
        1
 93
        1
 72
     4
 94
        3
 73
     0
 74
     0
 95
       53
 96
       49
 40
0.0
 40
0.0
 40
0.0
 40
0.0
 40
1.0
 40
1.0
 40
1.0
 40
2.0
 40
2.0
 40
2.0
 40
3.0
 40
3.0
 40
3.0
 40
4.0
 40
4.0
 40
4.0
 40
5.0
 40
5.0
 40
5.0
 40
6.0
 40
6.0
 40
6.0
 40
7.0
 40
7.0
 40
7.0
 40
8.0
 40
8.0
 40
8.0
 40
9.0
 40
9.0
 40
9.0
 40
10.0
 40
10.0
 40
10.0
 40
11.0
 40
11.0
 40
11.0
 40
12.0
 40
12.0
 40
12.0
 40
13.0
 40
13.0
 40
13.0
 40
14.0
 40
14.0
 40
14.0
 40
15.0
 40
15.0
 40
15.0
 40
16.0
 40
16.0
 40
16.0
 40
16.0
 10
123.8911458023605
 20
-138.2392794793291
 10
123.8911458023605
 20
-138.3174831468442
 10
123.8742648344828
 20
-138.4191134636591
 10
123.8108750775542
 20
-138.520743780474
 10
123.7009765315747
 20
-138.694032083382
 10
123.5697183935867
 20
-138.7153916753906
 10
123.4618869048984
 20
-138.7343397005595
 10
123.4618869048984
 20
-138.7343397005595
 10
123.4618869048984
 20
-138.5121310417608
 10
123.4618869048984
 20
-138.5121310417608
 10
123.6606689143973
 20
-138.4573540235453
 10
123.6902967355705
 20
-138.3302300001396
 10
123.6902967355705
 20
-138.2372124220379
 10
123.6902967355705
 20
-138.0976860548853
 10
123.5907334760467
 20
-137.9454128344372
 10
123.3581895307924
 20
-137.9454128344372
 10
123.1022189362383
 20
-137.9454128344372
 10
123.0322834978877
 20
-138.1252468187673
 10
123.0322834978877
 20
-138.245825160751
 10
123.0322834978877
 20
-138.2775200392153
 10
123.0322834978877
 20
-138.4191134636591
 10
123.1614745785846
 20
-138.5079969271785
 10
123.1614745785846
 20
-138.5079969271785
 10
123.1425265534157
 20
-138.6836967969263
 10
123.1425265534157
 20
-138.6836967969263
 10
123.1425265534157
 20
-138.6836967969263
 10
122.2960665926899
 20
-138.5631184549425
 10
122.2960665926899
 20
-138.5631184549425
 10
122.2960665926899
 20
-138.5631184549425
 10
122.2960665926899
 20
-137.7845268752761
 10
122.2960665926899
 20
-137.7845268752761
 10
122.2960665926899
 20
-137.7845268752761
 10
122.4907144876065
 20
-137.7845268752761
 10
122.4907144876065
 20
-137.7845268752761
 10
122.4907144876065
 20
-137.7845268752761
 10
122.4907144876065
 20
-138.4001654384902
 10
122.4907144876065
 20
-138.4001654384902
 10
122.4907144876065
 20
-138.4001654384902
 10
122.9137722131951
 20
-138.4656222527099
 10
122.9137722131951
 20
-138.4656222527099
 10
122.8800102774397
 20
-138.4042995530725
 10
122.8397026602623
 20
-138.321961770975
 10
122.8397026602623
 20
-138.2034504862824
 10
122.8397026602623
 20
-137.9495469490195
 10
123.0260823260143
 20
-137.7125243796343
 10
123.3392415056235
 20
-137.7125243796343
 10
123.656534799815
 20
-137.7125243796343
 10
123.8911458023605
 20
-137.9368000957241
 10
123.8911458023605
 20
-138.2392794793291
 97
        0
 97
        1
330
9B
 75
     2
 76
     1
 98
        1
 10
0.0
 20
0.0
450
        0
451
        0
460
0.0
461
0.0
452
        0
462
0.0
453
        0
470

  0
ENDBLK
  5
94
330
91
100
AcDbEntity
  8
0
100
AcDbBlockEnd
  0
BLOCK
  5
A2
330
A0
100
AcDbEntity
  8
0
100
AcDbBlockBegin
  2
Block_3
 70
     0
 10
0.0
 20
0.0
 30
0.0
  3
Block_3
  1

  0
INSERT
  5
A5
330
A0
100
AcDbEntity
  8
レイヤー 1
100
AcDbBlockReference
  2
Block_4
 10
0.0
 20
0.0
 30
0.0
  0
ENDBLK
  5
A3
330
A0
100
AcDbEntity
  8
0
100
AcDbBlockEnd
  0
BLOCK
  5
A6
330
A4
100
AcDbEntity
  8
0
100
AcDbBlockBegin
  2
Block_4
 70
     0
 10
0.0
 20
0.0
 30
0.0
  3
Block_4
  1

  0
SPLINE
  5
A8
330
A4
100
AcDbEntity
  8
レイヤー 1
100
AcDbSpline
210
0.0
220
0.0
230
1.0
 70
     9
 71
     3
 72
    44
 73
    40
 74
     0
 42
0.0000000001
 43
0.0000000001
 40
0.0
 40
0.0
 40
0.0
 40
0.0
 40
1.0
 40
1.0
 40
1.0
 40
2.0
 40
2.0
 40
2.0
 40
3.0
 40
3.0
 40
3.0
 40
4.0
 40
4.0
 40
4.0
 40
5.0
 40
5.0
 40
5.0
 40
6.0
 40
6.0
 40
6.0
 40
7.0
 40
7.0
 40
7.0
 40
8.0
 40
8.0
 40
8.0
 40
9.0
 40
9.0
 40
9.0
 40
10.0
 40
10.0
 40
10.0
 40
11.0
 40
11.0
 40
11.0
 40
12.0
 40
12.0
 40
12.0
 40
13.0
 40
13.0
 40
13.0
 40
13.0
 10
85.61906329239732
 20
-146.4169026326666
 30
0.0
 10
85.77770993949307
 20
-146.6346326673344
 30
0.0
 10
85.85177949242595
 20
-146.7276502454361
 30
0.0
 10
85.99561222893512
 20
-146.7765706013267
 30
0.0
 10
85.99561222893512
 20
-146.7765706013267
 30
0.0
 10
85.99561222893512
 20
-145.9979790216602
 30
0.0
 10
85.99561222893512
 20
-145.9979790216602
 30
0.0
 10
85.99561222893512
 20
-145.9979790216602
 30
0.0
 10
86.20076766508175
 20
-145.9979790216602
 30
0.0
 10
86.20076766508175
 20
-145.9979790216602
 30
0.0
 10
86.20076766508175
 20
-145.9979790216602
 30
0.0
 10
86.20076766508175
 20
-147.0259955144588
 30
0.0
 10
86.20076766508175
 20
-147.0259955144588
 30
0.0
 10
85.84316675371281
 20
-146.9943006359945
 30
0.0
 10
85.76496308619764
 20
-146.9288438217747
 30
0.0
 10
85.46661781717501
 20
-146.5436821465238
 30
0.0
 10
85.26783580767611
 20
-146.2877115519697
 30
0.0
 10
85.20013968139094
 20
-146.22225473775
 30
0.0
 10
85.06268037152947
 20
-146.22225473775
 30
0.0
 10
84.94416908683687
 20
-146.22225473775
 30
0.0
 10
84.81308320362312
 20
-146.2942572333917
 30
0.0
 10
84.81308320362312
 20
-146.4909721855994
 30
0.0
 10
84.81308320362312
 20
-146.7510768947358
 30
0.0
 10
85.04356009158632
 20
-146.7596896334489
 30
0.0
 10
85.16000431898778
 20
-146.7638237480313
 30
0.0
 10
85.16000431898778
 20
-146.7638237480313
 30
0.0
 10
85.16000431898778
 20
-146.988099464121
 30
0.0
 10
85.16000431898778
 20
-146.988099464121
 30
0.0
 10
85.03305255035632
 20
-146.9794867254079
 30
0.0
 10
84.92091469231144
 20
-146.9688069294036
 30
0.0
 10
84.80240340761886
 20
-146.8885362045973
 30
0.0
 10
84.64168970323195
 20
-146.7786376586178
 30
0.0
 10
84.60775551270222
 20
-146.5922579928658
 30
0.0
 10
84.60775551270222
 20
-146.4761582750129
 30
0.0
 10
84.60775551270222
 20
-146.1988280884503
 30
0.0
 10
84.79189586638884
 20
-145.9914333402382
 30
0.0
 10
85.06474742882062
 20
-145.9914333402382
 30
0.0
 10
85.29315725949269
 20
-145.9914333402382
 30
0.0
 10
85.3927205190164
 20
-146.1078775676397
 30
0.0
 10
85.61906329239732
 20
-146.4169026326666
 30
0.0
  0
HATCH
  5
A9
330
A4
100
AcDbEntity
  8
レイヤー 1
 62
    18
420
        0
440
 33554687
100
AcDbHatch
 10
0.0
 20
0.0
 30
0.0
210
0.0
220
0.0
230
1.0
  2
SOLID
 70
     1
 71
     1
 91
        1
 92
        1
 93
        1
 72
     4
 94
        3
 73
     0
 74
     0
 95
       44
 96
       40
 40
0.0
 40
0.0
 40
0.0
 40
0.0
 40
1.0
 40
1.0
 40
1.0
 40
2.0
 40
2.0
 40
2.0
 40
3.0
 40
3.0
 40
3.0
 40
4.0
 40
4.0
 40
4.0
 40
5.0
 40
5.0
 40
5.0
 40
6.0
 40
6.0
 40
6.0
 40
7.0
 40
7.0
 40
7.0
 40
8.0
 40
8.0
 40
8.0
 40
9.0
 40
9.0
 40
9.0
 40
10.0
 40
10.0
 40
10.0
 40
11.0
 40
11.0
 40
11.0
 40
12.0
 40
12.0
 40
12.0
 40
13.0
 40
13.0
 40
13.0
 40
13.0
 10
85.61906329239732
 20
-146.4169026326666
 10
85.77770993949307
 20
-146.6346326673344
 10
85.85177949242595
 20
-146.7276502454361
 10
85.99561222893512
 20
-146.7765706013267
 10
85.99561222893512
 20
-146.7765706013267
 10
85.99561222893512
 20
-145.9979790216602
 10
85.99561222893512
 20
-145.9979790216602
 10
85.99561222893512
 20
-145.9979790216602
 10
86.20076766508175
 20
-145.9979790216602
 10
86.20076766508175
 20
-145.9979790216602
 10
86.20076766508175
 20
-145.9979790216602
 10
86.20076766508175
 20
-147.0259955144588
 10
86.20076766508175
 20
-147.0259955144588
 10
85.84316675371281
 20
-146.9943006359945
 10
85.76496308619764
 20
-146.9288438217747
 10
85.46661781717501
 20
-146.5436821465238
 10
85.26783580767611
 20
-146.2877115519697
 10
85.20013968139094
 20
-146.22225473775
 10
85.06268037152947
 20
-146.22225473775
 10
84.94416908683687
 20
-146.22225473775
 10
84.81308320362312
 20
-146.2942572333917
 10
84.81308320362312
 20
-146.4909721855994
 10
84.81308320362312
 20
-146.7510768947358
 10
85.04356009158632
 20
-146.7596896334489
 10
85.16000431898778
 20
-146.7638237480313
 10
85.16000431898778
 20
-146.7638237480313
 10
85.16000431898778
 20
-146.988099464121
 10
85.16000431898778
 20
-146.988099464121
 10
85.03305255035632
 20
-146.9794867254079
 10
84.92091469231144
 20
-146.9688069294036
 10
84.80240340761886
 20
-146.8885362045973
 10
84.64168970323195
 20
-146.7786376586178
 10
84.60775551270222
 20
-146.5922579928658
 10
84.60775551270222
 20
-146.4761582750129
 10
84.60775551270222
 20
-146.1988280884503
 10
84.79189586638884
 20
-145.9914333402382
 10
85.06474742882062
 20
-145.9914333402382
 10
85.29315725949269
 20
-145.9914333402382
 10
85.3927205190164
 20
-146.1078775676397
 10
85.61906329239732
 20
-146.4169026326666
 97
        0
 97
        1
330
A8
 75
     2
 76
     1
 98
        1
 10
0.0
 20
0.0
450
        0
451
        0
460
0.0
461
0.0
452
        0
462
0.0
453
        0
470

  0
SPLINE
  5
AA
330
A4
100
AcDbEntity
  8
レイヤー 1
100
AcDbSpline
210
0.0
220
0.0
230
1.0
 70
     9
 71
     3
 72
    53
 73
    49
 74
     0
 42
0.0000000001
 43
0.0000000001
 40
0.0
 40
0.0
 40
0.0
 40
0.0
 40
1.0
 40
1.0
 40
1.0
 40
2.0
 40
2.0
 40
2.0
 40
3.0
 40
3.0
 40
3.0
 40
4.0
 40
4.0
 40
4.0
 40
5.0
 40
5.0
 40
5.0
 40
6.0
 40
6.0
 40
6.0
 40
7.0
 40
7.0
 40
7.0
 40
8.0
 40
8.0
 40
8.0
 40
9.0
 40
9.0
 40
9.0
 40
10.0
 40
10.0
 40
10.0
 40
11.0
 40
11.0
 40
11.0
 40
12.0
 40
12.0
 40
12.0
 40
13.0
 40
13.0
 40
13.0
 40
14.0
 40
14.0
 40
14.0
 40
15.0
 40
15.0
 40
15.0
 40
16.0
 40
16.0
 40
16.0
 40
16.0
 10
86.25158282348918
 20
-145.3520236181758
 30
0.0
 10
86.25158282348918
 20
-145.4302272856911
 30
0.0
 10
86.23452960083721
 20
-145.5318576025059
 30
0.0
 10
86.1711398439086
 20
-145.6334879193208
 30
0.0
 10
86.06106904315486
 20
-145.8067762222289
 30
0.0
 10
85.92998315994112
 20
-145.8281358142374
 30
0.0
 10
85.8221516712528
 20
-145.8470838394062
 30
0.0
 10
85.8221516712528
 20
-145.8470838394062
 30
0.0
 10
85.8221516712528
 20
-145.6248751806077
 30
0.0
 10
85.8221516712528
 20
-145.6248751806077
 30
0.0
 10
86.02093368075172
 20
-145.5700981623922
 30
0.0
 10
86.05056150192487
 20
-145.4429741389865
 30
0.0
 10
86.05056150192487
 20
-145.3499565608847
 30
0.0
 10
86.05056150192487
 20
-145.2104301937321
 30
0.0
 10
85.95117049717542
 20
-145.0581569732841
 30
0.0
 10
85.71845429714677
 20
-145.0581569732841
 30
0.0
 10
85.46248370259272
 20
-145.0581569732841
 30
0.0
 10
85.3927205190164
 20
-145.2379909576141
 30
0.0
 10
85.3927205190164
 20
-145.3585692995978
 30
0.0
 10
85.3927205190164
 20
-145.3902641780621
 30
0.0
 10
85.3927205190164
 20
-145.5318576025059
 30
0.0
 10
85.521739344939
 20
-145.6207410660254
 30
0.0
 10
85.521739344939
 20
-145.6207410660254
 30
0.0
 10
85.50261906499589
 20
-145.7964409357731
 30
0.0
 10
85.50261906499589
 20
-145.7964409357731
 30
0.0
 10
85.50261906499589
 20
-145.7964409357731
 30
0.0
 10
84.65650361381852
 20
-145.6758625937894
 30
0.0
 10
84.65650361381852
 20
-145.6758625937894
 30
0.0
 10
84.65650361381852
 20
-145.6758625937894
 30
0.0
 10
84.65650361381852
 20
-144.8972710141229
 30
0.0
 10
84.65650361381852
 20
-144.8972710141229
 30
0.0
 10
84.65650361381852
 20
-144.8972710141229
 30
0.0
 10
84.85115150873513
 20
-144.8972710141229
 30
0.0
 10
84.85115150873513
 20
-144.8972710141229
 30
0.0
 10
84.85115150873513
 20
-144.8972710141229
 30
0.0
 10
84.85115150873513
 20
-145.512909577337
 30
0.0
 10
84.85115150873513
 20
-145.512909577337
 30
0.0
 10
84.85115150873513
 20
-145.512909577337
 30
0.0
 10
85.2742092343238
 20
-145.5783663915568
 30
0.0
 10
85.2742092343238
 20
-145.5783663915568
 30
0.0
 10
85.24027504379409
 20
-145.5170436919193
 30
0.0
 10
85.20013968139094
 20
-145.4347059098219
 30
0.0
 10
85.20013968139094
 20
-145.3161946251293
 30
0.0
 10
85.20013968139094
 20
-145.0622910878664
 30
0.0
 10
85.3863470923687
 20
-144.8252685184812
 30
0.0
 10
85.69933401720364
 20
-144.8252685184812
 30
0.0
 10
86.01679956616941
 20
-144.8252685184812
 30
0.0
 10
86.25158282348918
 20
-145.0495442345709
 30
0.0
 10
86.25158282348918
 20
-145.3520236181758
 30
0.0
  0
HATCH
  5
AB
330
A4
100
AcDbEntity
  8
レイヤー 1
 62
    18
420
        0
440
 33554687
100
AcDbHatch
 10
0.0
 20
0.0
 30
0.0
210
0.0
220
0.0
230
1.0
  2
SOLID
 70
     1
 71
     1
 91
        1
 92
        1
 93
        1
 72
     4
 94
        3
 73
     0
 74
     0
 95
       53
 96
       49
 40
0.0
 40
0.0
 40
0.0
 40
0.0
 40
1.0
 40
1.0
 40
1.0
 40
2.0
 40
2.0
 40
2.0
 40
3.0
 40
3.0
 40
3.0
 40
4.0
 40
4.0
 40
4.0
 40
5.0
 40
5.0
 40
5.0
 40
6.0
 40
6.0
 40
6.0
 40
7.0
 40
7.0
 40
7.0
 40
8.0
 40
8.0
 40
8.0
 40
9.0
 40
9.0
 40
9.0
 40
10.0
 40
10.0
 40
10.0
 40
11.0
 40
11.0
 40
11.0
 40
12.0
 40
12.0
 40
12.0
 40
13.0
 40
13.0
 40
13.0
 40
14.0
 40
14.0
 40
14.0
 40
15.0
 40
15.0
 40
15.0
 40
16.0
 40
16.0
 40
16.0
 40
16.0
 10
86.25158282348918
 20
-145.3520236181758
 10
86.25158282348918
 20
-145.4302272856911
 10
86.23452960083721
 20
-145.5318576025059
 10
86.1711398439086
 20
-145.6334879193208
 10
86.06106904315486
 20
-145.8067762222289
 10
85.92998315994112
 20
-145.8281358142374
 10
85.8221516712528
 20
-145.8470838394062
 10
85.8221516712528
 20
-145.8470838394062
 10
85.8221516712528
 20
-145.6248751806077
 10
85.8221516712528
 20
-145.6248751806077
 10
86.02093368075172
 20
-145.5700981623922
 10
86.05056150192487
 20
-145.4429741389865
 10
86.05056150192487
 20
-145.3499565608847
 10
86.05056150192487
 20
-145.2104301937321
 10
85.95117049717542
 20
-145.0581569732841
 10
85.71845429714677
 20
-145.0581569732841
 10
85.46248370259272
 20
-145.0581569732841
 10
85.3927205190164
 20
-145.2379909576141
 10
85.3927205190164
 20
-145.3585692995978
 10
85.3927205190164
 20
-145.3902641780621
 10
85.3927205190164
 20
-145.5318576025059
 10
85.521739344939
 20
-145.6207410660254
 10
85.521739344939
 20
-145.6207410660254
 10
85.50261906499589
 20
-145.7964409357731
 10
85.50261906499589
 20
-145.7964409357731
 10
85.50261906499589
 20
-145.7964409357731
 10
84.65650361381852
 20
-145.6758625937894
 10
84.65650361381852
 20
-145.6758625937894
 10
84.65650361381852
 20
-145.6758625937894
 10
84.65650361381852
 20
-144.8972710141229
 10
84.65650361381852
 20
-144.8972710141229
 10
84.65650361381852
 20
-144.8972710141229
 10
84.85115150873513
 20
-144.8972710141229
 10
84.85115150873513
 20
-144.8972710141229
 10
84.85115150873513
 20
-144.8972710141229
 10
84.85115150873513
 20
-145.512909577337
 10
84.85115150873513
 20
-145.512909577337
 10
84.85115150873513
 20
-145.512909577337
 10
85.2742092343238
 20
-145.5783663915568
 10
85.2742092343238
 20
-145.5783663915568
 10
85.24027504379409
 20
-145.5170436919193
 10
85.20013968139094
 20
-145.4347059098219
 10
85.20013968139094
 20
-145.3161946251293
 10
85.20013968139094
 20
-145.0622910878664
 10
85.3863470923687
 20
-144.8252685184812
 10
85.69933401720364
 20
-144.8252685184812
 10
86.01679956616941
 20
-144.8252685184812
 10
86.25158282348918
 20
-145.0495442345709
 10
86.25158282348918
 20
-145.3520236181758
 97
        0
 97
        1
330
AA
 75
     2
 76
     1
 98
        1
 10
0.0
 20
0.0
450
        0
451
        0
460
0.0
461
0.0
452
        0
462
0.0
453
        0
470

  0
ENDBLK
  5
A7
330
A4
100
AcDbEntity
  8
0
100
AcDbBlockEnd
  0
BLOCK
  5
B1
330
AF
100
AcDbEntity
  8
0
100
AcDbBlockBegin
  2
Block_5
 70
     0
 10
0.0
 20
0.0
 30
0.0
  3
Block_5
  1

  0
INSERT
  5
B4
330
AF
100
AcDbEntity
  8
レイヤー 1
100
AcDbBlockReference
  2
Block_6
 10
0.0
 20
0.0
 30
0.0
  0
ENDBLK
  5
B2
330
AF
100
AcDbEntity
  8
0
100
AcDbBlockEnd
  0
BLOCK
  5
B5
330
B3
100
AcDbEntity
  8
0
100
AcDbBlockBegin
  2
Block_6
 70
     0
 10
0.0
 20
0.0
 30
0.0
  3
Block_6
  1

  0
SPLINE
  5
B7
330
B3
100
AcDbEntity
  8
レイヤー 1
100
AcDbSpline
210
0.0
220
0.0
230
1.0
 70
     9
 71
     3
 72
    44
 73
    40
 74
     0
 42
0.0000000001
 43
0.0000000001
 40
0.0
 40
0.0
 40
0.0
 40
0.0
 40
1.0
 40
1.0
 40
1.0
 40
2.0
 40
2.0
 40
2.0
 40
3.0
 40
3.0
 40
3.0
 40
4.0
 40
4.0
 40
4.0
 40
5.0
 40
5.0
 40
5.0
 40
6.0
 40
6.0
 40
6.0
 40
7.0
 40
7.0
 40
7.0
 40
8.0
 40
8.0
 40
8.0
 40
9.0
 40
9.0
 40
9.0
 40
10.0
 40
10.0
 40
10.0
 40
11.0
 40
11.0
 40
11.0
 40
12.0
 40
12.0
 40
12.0
 40
13.0
 40
13.0
 40
13.0
 40
13.0
 10
110.4018744298648
 20
-161.1619113095359
 30
0.0
 10
110.184144395197
 20
-161.3207302114059
 30
0.0
 10
110.0911268170952
 20
-161.3947997643388
 30
0.0
 10
110.0422064612047
 20
-161.5384602460737
 30
0.0
 10
110.0422064612047
 20
-161.5384602460737
 30
0.0
 10
110.8207980408712
 20
-161.5384602460737
 30
0.0
 10
110.8207980408712
 20
-161.5384602460737
 30
0.0
 10
110.8207980408712
 20
-161.5384602460737
 30
0.0
 10
110.8207980408712
 20
-161.7437879369946
 30
0.0
 10
110.8207980408712
 20
-161.7437879369946
 30
0.0
 10
110.8207980408712
 20
-161.7437879369946
 30
0.0
 10
109.7927815480726
 20
-161.7437879369946
 30
0.0
 10
109.7927815480726
 20
-161.7437879369946
 30
0.0
 10
109.8244764265369
 20
-161.3861870256257
 30
0.0
 10
109.8899332407567
 20
-161.3079833581105
 30
0.0
 10
110.2750949160076
 20
-161.0096380890879
 30
0.0
 10
110.5310655105617
 20
-160.810856079589
 30
0.0
 10
110.5965223247814
 20
-160.7429876985295
 30
0.0
 10
110.5965223247814
 20
-160.605528388668
 30
0.0
 10
110.5965223247814
 20
-160.4870171039755
 30
0.0
 10
110.5245198291397
 20
-160.3561034755359
 30
0.0
 10
110.3278048769319
 20
-160.3561034755359
 30
0.0
 10
110.0677001677956
 20
-160.3561034755359
 30
0.0
 10
110.0590874290824
 20
-160.5865803634992
 30
0.0
 10
110.0549533145001
 20
-160.7030245909006
 30
0.0
 10
110.0549533145001
 20
-160.7030245909006
 30
0.0
 10
109.8306775984104
 20
-160.7030245909006
 30
0.0
 10
109.8306775984104
 20
-160.7030245909006
 30
0.0
 10
109.8392903371235
 20
-160.5759005674949
 30
0.0
 10
109.8499701331278
 20
-160.4639349642243
 30
0.0
 10
109.9302408579341
 20
-160.3454236795317
 30
0.0
 10
110.0401394039136
 20
-160.1845377203705
 30
0.0
 10
110.2265190696656
 20
-160.1507757846151
 30
0.0
 10
110.3426187875185
 20
-160.1507757846151
 30
0.0
 10
110.6199489740811
 20
-160.1507757846151
 30
0.0
 10
110.8269992127446
 20
-160.3347438835274
 30
0.0
 10
110.8269992127446
 20
-160.6075954459592
 30
0.0
 10
110.8269992127446
 20
-160.8363497861798
 30
0.0
 10
110.7108994948917
 20
-160.935568536155
 30
0.0
 10
110.4018744298648
 20
-161.1619113095359
 30
0.0
  0
HATCH
  5
B8
330
B3
100
AcDbEntity
  8
レイヤー 1
 62
    18
420
        0
440
 33554687
100
AcDbHatch
 10
0.0
 20
0.0
 30
0.0
210
0.0
220
0.0
230
1.0
  2
SOLID
 70
     1
 71
     1
 91
        1
 92
        1
 93
        1
 72
     4
 94
        3
 73
     0
 74
     0
 95
       44
 96
       40
 40
0.0
 40
0.0
 40
0.0
 40
0.0
 40
1.0
 40
1.0
 40
1.0
 40
2.0
 40
2.0
 40
2.0
 40
3.0
 40
3.0
 40
3.0
 40
4.0
 40
4.0
 40
4.0
 40
5.0
 40
5.0
 40
5.0
 40
6.0
 40
6.0
 40
6.0
 40
7.0
 40
7.0
 40
7.0
 40
8.0
 40
8.0
 40
8.0
 40
9.0
 40
9.0
 40
9.0
 40
10.0
 40
10.0
 40
10.0
 40
11.0
 40
11.0
 40
11.0
 40
12.0
 40
12.0
 40
12.0
 40
13.0
 40
13.0
 40
13.0
 40
13.0
 10
110.4018744298648
 20
-161.1619113095359
 10
110.184144395197
 20
-161.3207302114059
 10
110.0911268170952
 20
-161.3947997643388
 10
110.0422064612047
 20
-161.5384602460737
 10
110.0422064612047
 20
-161.5384602460737
 10
110.8207980408712
 20
-161.5384602460737
 10
110.8207980408712
 20
-161.5384602460737
 10
110.8207980408712
 20
-161.5384602460737
 10
110.8207980408712
 20
-161.7437879369946
 10
110.8207980408712
 20
-161.7437879369946
 10
110.8207980408712
 20
-161.7437879369946
 10
109.7927815480726
 20
-161.7437879369946
 10
109.7927815480726
 20
-161.7437879369946
 10
109.8244764265369
 20
-161.3861870256257
 10
109.8899332407567
 20
-161.3079833581105
 10
110.2750949160076
 20
-161.0096380890879
 10
110.5310655105617
 20
-160.810856079589
 10
110.5965223247814
 20
-160.7429876985295
 10
110.5965223247814
 20
-160.605528388668
 10
110.5965223247814
 20
-160.4870171039755
 10
110.5245198291397
 20
-160.3561034755359
 10
110.3278048769319
 20
-160.3561034755359
 10
110.0677001677956
 20
-160.3561034755359
 10
110.0590874290824
 20
-160.5865803634992
 10
110.0549533145001
 20
-160.7030245909006
 10
110.0549533145001
 20
-160.7030245909006
 10
109.8306775984104
 20
-160.7030245909006
 10
109.8306775984104
 20
-160.7030245909006
 10
109.8392903371235
 20
-160.5759005674949
 10
109.8499701331278
 20
-160.4639349642243
 10
109.9302408579341
 20
-160.3454236795317
 10
110.0401394039136
 20
-160.1845377203705
 10
110.2265190696656
 20
-160.1507757846151
 10
110.3426187875185
 20
-160.1507757846151
 10
110.6199489740811
 20
-160.1507757846151
 10
110.8269992127446
 20
-160.3347438835274
 10
110.8269992127446
 20
-160.6075954459592
 10
110.8269992127446
 20
-160.8363497861798
 10
110.7108994948917
 20
-160.935568536155
 10
110.4018744298648
 20
-161.1619113095359
 97
        0
 97
        1
330
B7
 75
     2
 76
     1
 98
        1
 10
0.0
 20
0.0
450
        0
451
        0
460
0.0
461
0.0
452
        0
462
0.0
453
        0
470

  0
SPLINE
  5
B9
330
B3
100
AcDbEntity
  8
レイヤー 1
100
AcDbSpline
210
0.0
220
0.0
230
1.0
 70
     9
 71
     3
 72
    17
 73
    13
 74
     0
 42
0.0000000001
 43
0.0000000001
 40
0.0
 40
0.0
 40
0.0
 40
0.0
 40
1.0
 40
1.0
 40
1.0
 40
2.0
 40
2.0
 40
2.0
 40
3.0
 40
3.0
 40
3.0
 40
4.0
 40
4.0
 40
4.0
 40
4.0
 10
111.4857014695244
 20
-160.3433566222405
 30
0.0
 10
111.2359320468438
 20
-160.3433566222405
 30
0.0
 10
111.1894232577929
 20
-160.6268879806766
 30
0.0
 10
111.1894232577929
 20
-160.9717420387501
 30
0.0
 10
111.1894232577929
 20
-161.2911023902328
 30
0.0
 10
111.225596760388
 20
-161.5997829457112
 30
0.0
 10
111.4857014695244
 20
-161.5997829457112
 30
0.0
 10
111.7334038349139
 20
-161.5997829457112
 30
0.0
 10
111.7819796812559
 20
-161.3186631541148
 30
0.0
 10
111.7819796812559
 20
-160.9717420387501
 30
0.0
 10
111.7819796812559
 20
-160.6520371777189
 30
0.0
 10
111.7437391213696
 20
-160.3433566222405
 30
0.0
 10
111.4857014695244
 20
-160.3433566222405
 30
0.0
  0
SPLINE
  5
BA
330
B3
100
AcDbEntity
  8
レイヤー 1
100
AcDbSpline
210
0.0
220
0.0
230
1.0
 70
     9
 71
     3
 72
    29
 73
    25
 74
     0
 42
0.0000000001
 43
0.0000000001
 40
0.0
 40
0.0
 40
0.0
 40
0.0
 40
1.0
 40
1.0
 40
1.0
 40
2.0
 40
2.0
 40
2.0
 40
3.0
 40
3.0
 40
3.0
 40
4.0
 40
4.0
 40
4.0
 40
5.0
 40
5.0
 40
5.0
 40
6.0
 40
6.0
 40
6.0
 40
7.0
 40
7.0
 40
7.0
 40
8.0
 40
8.0
 40
8.0
 40
8.0
 10
111.8836099980707
 20
-161.5660210099557
 30
0.0
 10
111.7754339998339
 20
-161.7754828154589
 30
0.0
 10
111.6021456969258
 20
-161.7944308406278
 30
0.0
 10
111.4857014695244
 20
-161.7944308406278
 30
0.0
 10
111.3248155103632
 20
-161.7944308406278
 30
0.0
 10
111.1832220859195
 20
-161.7479220515769
 30
0.0
 10
111.0881374505266
 20
-161.5660210099557
 30
0.0
 10
110.9844400764205
 20
-161.3713731150391
 30
0.0
 10
110.9651475417031
 20
-161.1346950552024
 30
0.0
 10
110.9651475417031
 20
-160.9717420387501
 30
0.0
 10
110.9651475417031
 20
-160.8277370474667
 30
0.0
 10
110.9823730191294
 20
-160.5759005674949
 30
0.0
 10
111.0881374505266
 20
-160.377118557996
 30
0.0
 10
111.1959689392149
 20
-160.1742024339148
 30
0.0
 10
111.3568548983761
 20
-160.1507757846151
 30
0.0
 10
111.4857014695244
 20
-160.1507757846151
 30
0.0
 10
111.6445203713944
 20
-160.1507757846151
 30
0.0
 10
111.7881808531293
 20
-160.1952175163748
 30
0.0
 10
111.8836099980707
 20
-160.377118557996
 30
0.0
 10
111.9828287480459
 20
-160.5696993956215
 30
0.0
 10
112.0062553973456
 20
-160.7981092262935
 30
0.0
 10
112.0062553973456
 20
-160.9717420387501
 30
0.0
 10
112.0062553973456
 20
-161.142963284367
 30
0.0
 10
111.9848958053371
 20
-161.3734401723302
 30
0.0
 10
111.8836099980707
 20
-161.5660210099557
 30
0.0
  0
HATCH
  5
BB
330
B3
100
AcDbEntity
  8
レイヤー 1
 62
    18
420
        0
440
 33554687
100
AcDbHatch
 10
0.0
 20
0.0
 30
0.0
210
0.0
220
0.0
230
1.0
  2
SOLID
 70
     1
 71
     1
 91
        2
 92
        1
 93
        1
 72
     4
 94
        3
 73
     0
 74
     0
 95
       17
 96
       13
 40
0.0
 40
0.0
 40
0.0
 40
0.0
 40
1.0
 40
1.0
 40
1.0
 40
2.0
 40
2.0
 40
2.0
 40
3.0
 40
3.0
 40
3.0
 40
4.0
 40
4.0
 40
4.0
 40
4.0
 10
111.4857014695244
 20
-160.3433566222405
 10
111.2359320468438
 20
-160.3433566222405
 10
111.1894232577929
 20
-160.6268879806766
 10
111.1894232577929
 20
-160.9717420387501
 10
111.1894232577929
 20
-161.2911023902328
 10
111.225596760388
 20
-161.5997829457112
 10
111.4857014695244
 20
-161.5997829457112
 10
111.7334038349139
 20
-161.5997829457112
 10
111.7819796812559
 20
-161.3186631541148
 10
111.7819796812559
 20
-160.9717420387501
 10
111.7819796812559
 20
-160.6520371777189
 10
111.7437391213696
 20
-160.3433566222405
 10
111.4857014695244
 20
-160.3433566222405
 97
        0
 97
        1
330
B9
 92
        1
 93
        1
 72
     4
 94
        3
 73
     0
 74
     0
 95
       29
 96
       25
 40
0.0
 40
0.0
 40
0.0
 40
0.0
 40
1.0
 40
1.0
 40
1.0
 40
2.0
 40
2.0
 40
2.0
 40
3.0
 40
3.0
 40
3.0
 40
4.0
 40
4.0
 40
4.0
 40
5.0
 40
5.0
 40
5.0
 40
6.0
 40
6.0
 40
6.0
 40
7.0
 40
7.0
 40
7.0
 40
8.0
 40
8.0
 40
8.0
 40
8.0
 10
111.8836099980707
 20
-161.5660210099557
 10
111.7754339998339
 20
-161.7754828154589
 10
111.6021456969258
 20
-161.7944308406278
 10
111.4857014695244
 20
-161.7944308406278
 10
111.3248155103632
 20
-161.7944308406278
 10
111.1832220859195
 20
-161.7479220515769
 10
111.0881374505266
 20
-161.5660210099557
 10
110.9844400764205
 20
-161.3713731150391
 10
110.9651475417031
 20
-161.1346950552024
 10
110.9651475417031
 20
-160.9717420387501
 10
110.9651475417031
 20
-160.8277370474667
 10
110.9823730191294
 20
-160.5759005674949
 10
111.0881374505266
 20
-160.377118557996
 10
111.1959689392149
 20
-160.1742024339148
 10
111.3568548983761
 20
-160.1507757846151
 10
111.4857014695244
 20
-160.1507757846151
 10
111.6445203713944
 20
-160.1507757846151
 10
111.7881808531293
 20
-160.1952175163748
 10
111.8836099980707
 20
-160.377118557996
 10
111.9828287480459
 20
-160.5696993956215
 10
112.0062553973456
 20
-160.7981092262935
 10
112.0062553973456
 20
-160.9717420387501
 10
112.0062553973456
 20
-161.142963284367
 10
111.9848958053371
 20
-161.3734401723302
 10
111.8836099980707
 20
-161.5660210099557
 97
        0
 97
        1
330
BA
 75
     2
 76
     1
 98
        1
 10
0.0
 20
0.0
450
        0
451
        0
460
0.0
461
0.0
452
        0
462
0.0
453
        0
470

  0
ENDBLK
  5
B6
330
B3
100
AcDbEntity
  8
0
100
AcDbBlockEnd
  0
BLOCK
  5
C1
330
BF
100
AcDbEntity
  8
0
100
AcDbBlockBegin
  2
Block_7
 70
     0
 10
0.0
 20
0.0
 30
0.0
  3
Block_7
  1

  0
INSERT
  5
C4
330
BF
100
AcDbEntity
  8
レイヤー 1
100
AcDbBlockReference
  2
Block_8
 10
0.0
 20
0.0
 30
0.0
  0
ENDBLK
  5
C2
330
BF
100
AcDbEntity
  8
0
100
AcDbBlockEnd
  0
BLOCK
  5
C5
330
C3
100
AcDbEntity
  8
0
100
AcDbBlockBegin
  2
Block_8
 70
     0
 10
0.0
 20
0.0
 30
0.0
  3
Block_8
  1

  0
SPLINE
  5
C7
330
C3
100
AcDbEntity
  8
レイヤー 1
100
AcDbSpline
210
0.0
220
0.0
230
1.0
 70
     9
 71
     3
 72
    59
 73
    55
 74
     0
 42
0.0000000001
 43
0.0000000001
 40
0.0
 40
0.0
 40
0.0
 40
0.0
 40
1.0
 40
1.0
 40
1.0
 40
2.0
 40
2.0
 40
2.0
 40
3.0
 40
3.0
 40
3.0
 40
4.0
 40
4.0
 40
4.0
 40
5.0
 40
5.0
 40
5.0
 40
6.0
 40
6.0
 40
6.0
 40
7.0
 40
7.0
 40
7.0
 40
8.0
 40
8.0
 40
8.0
 40
9.0
 40
9.0
 40
9.0
 40
10.0
 40
10.0
 40
10.0
 40
11.0
 40
11.0
 40
11.0
 40
12.0
 40
12.0
 40
12.0
 40
13.0
 40
13.0
 40
13.0
 40
14.0
 40
14.0
 40
14.0
 40
15.0
 40
15.0
 40
15.0
 40
16.0
 40
16.0
 40
16.0
 40
17.0
 40
17.0
 40
17.0
 40
18.0
 40
18.0
 40
18.0
 40
18.0
 10
103.7430216211996
 20
-152.9102186032655
 30
0.0
 10
103.575934490165
 20
-153.3970105953313
 30
0.0
 10
103.3265095770329
 20
-153.9192870708952
 30
0.0
 10
102.7277519816965
 20
-154.2365803650867
 30
0.0
 10
102.7277519816965
 20
-154.2365803650867
 30
0.0
 10
102.5393052586534
 20
-154.0843071446386
 30
0.0
 10
102.5393052586534
 20
-154.0843071446386
 30
0.0
 10
102.7001912178145
 20
-154.0147162158366
 30
0.0
 10
102.9454820163643
 20
-153.9044731603086
 30
0.0
 10
103.1973184963361
 20
-153.5744330128217
 30
0.0
 10
103.4343410657213
 20
-153.261618342761
 30
0.0
 10
103.4915296507764
 20
-153.0056477482069
 30
0.0
 10
103.5187459051099
 20
-152.8785237248012
 30
0.0
 10
103.5187459051099
 20
-152.8785237248012
 30
0.0
 10
102.8714124634314
 20
-152.8785237248012
 30
0.0
 10
102.8714124634314
 20
-152.8785237248012
 30
0.0
 10
102.7677150893254
 20
-153.0394096839624
 30
0.0
 10
102.6471367473417
 20
-153.206496814997
 30
0.0
 10
102.4549004192647
 20
-153.3777180606139
 30
0.0
 10
102.4549004192647
 20
-153.3777180606139
 30
0.0
 10
102.2812676068081
 20
-153.255072661339
 30
0.0
 10
102.2812676068081
 20
-153.255072661339
 30
0.0
 10
102.3405232491544
 20
-153.2085638722881
 30
0.0
 10
102.4886623550202
 20
-153.0965982690175
 30
0.0
 10
102.6536824287636
 20
-152.8468288463369
 30
0.0
 10
102.7298190389877
 20
-152.7283175616443
 30
0.0
 10
102.8335164130937
 20
-152.5591633733185
 30
0.0
 10
102.8590101196845
 20
-152.4365179740436
 30
0.0
 10
102.8590101196845
 20
-152.4365179740436
 30
0.0
 10
103.0894870076477
 20
-152.53780378131
 30
0.0
 10
103.0894870076477
 20
-152.53780378131
 30
0.0
 10
103.1043009182343
 20
-152.544349462732
 30
0.0
 10
103.1191148288209
 20
-152.5526176918966
 30
0.0
 10
103.1191148288209
 20
-152.5674316024831
 30
0.0
 10
103.1191148288209
 20
-152.5887911944917
 30
0.0
 10
103.0936211222301
 20
-152.6015380477871
 30
0.0
 10
103.0853528930655
 20
-152.6036051050782
 30
0.0
 10
103.0577921291834
 20
-152.6118733342428
 30
0.0
 10
103.0491793904703
 20
-152.6098062769517
 30
0.0
 10
103.0236856838795
 20
-152.6352999835426
 30
0.0
 10
102.9985364868372
 20
-152.6607936901334
 30
0.0
 10
103.0006035441283
 20
-152.669061919298
 30
0.0
 10
102.968908665664
 20
-152.7221163897708
 30
0.0
 10
102.968908665664
 20
-152.7221163897708
 30
0.0
 10
103.3030829277332
 20
-152.7221163897708
 30
0.0
 10
103.3030829277332
 20
-152.7221163897708
 30
0.0
 10
103.5590535222873
 20
-152.7221163897708
 30
0.0
 10
103.5907484007516
 20
-152.7093695364754
 30
0.0
 10
103.6479369858067
 20
-152.6797417153023
 30
0.0
 10
103.6479369858067
 20
-152.6797417153023
 30
0.0
 10
103.8043443208371
 20
-152.8447617890457
 30
0.0
 10
103.8043443208371
 20
-152.8447617890457
 30
0.0
 10
103.7705823850816
 20
-152.8805907820923
 30
0.0
 10
103.7685153277905
 20
-152.8826578393835
 30
0.0
 10
103.7430216211996
 20
-152.9102186032655
 30
0.0
  0
HATCH
  5
C8
330
C3
100
AcDbEntity
  8
レイヤー 1
 62
   250
420
  2299925
440
 33554687
100
AcDbHatch
 10
0.0
 20
0.0
 30
0.0
210
0.0
220
0.0
230
1.0
  2
SOLID
 70
     1
 71
     1
 91
        1
 92
        1
 93
        1
 72
     4
 94
        3
 73
     0
 74
     0
 95
       59
 96
       55
 40
0.0
 40
0.0
 40
0.0
 40
0.0
 40
1.0
 40
1.0
 40
1.0
 40
2.0
 40
2.0
 40
2.0
 40
3.0
 40
3.0
 40
3.0
 40
4.0
 40
4.0
 40
4.0
 40
5.0
 40
5.0
 40
5.0
 40
6.0
 40
6.0
 40
6.0
 40
7.0
 40
7.0
 40
7.0
 40
8.0
 40
8.0
 40
8.0
 40
9.0
 40
9.0
 40
9.0
 40
10.0
 40
10.0
 40
10.0
 40
11.0
 40
11.0
 40
11.0
 40
12.0
 40
12.0
 40
12.0
 40
13.0
 40
13.0
 40
13.0
 40
14.0
 40
14.0
 40
14.0
 40
15.0
 40
15.0
 40
15.0
 40
16.0
 40
16.0
 40
16.0
 40
17.0
 40
17.0
 40
17.0
 40
18.0
 40
18.0
 40
18.0
 40
18.0
 10
103.7430216211996
 20
-152.9102186032655
 10
103.575934490165
 20
-153.3970105953313
 10
103.3265095770329
 20
-153.9192870708952
 10
102.7277519816965
 20
-154.2365803650867
 10
102.7277519816965
 20
-154.2365803650867
 10
102.5393052586534
 20
-154.0843071446386
 10
102.5393052586534
 20
-154.0843071446386
 10
102.7001912178145
 20
-154.0147162158366
 10
102.9454820163643
 20
-153.9044731603086
 10
103.1973184963361
 20
-153.5744330128217
 10
103.4343410657213
 20
-153.261618342761
 10
103.4915296507764
 20
-153.0056477482069
 10
103.5187459051099
 20
-152.8785237248012
 10
103.5187459051099
 20
-152.8785237248012
 10
102.8714124634314
 20
-152.8785237248012
 10
102.8714124634314
 20
-152.8785237248012
 10
102.7677150893254
 20
-153.0394096839624
 10
102.6471367473417
 20
-153.206496814997
 10
102.4549004192647
 20
-153.3777180606139
 10
102.4549004192647
 20
-153.3777180606139
 10
102.2812676068081
 20
-153.255072661339
 10
102.2812676068081
 20
-153.255072661339
 10
102.3405232491544
 20
-153.2085638722881
 10
102.4886623550202
 20
-153.0965982690175
 10
102.6536824287636
 20
-152.8468288463369
 10
102.7298190389877
 20
-152.7283175616443
 10
102.8335164130937
 20
-152.5591633733185
 10
102.8590101196845
 20
-152.4365179740436
 10
102.8590101196845
 20
-152.4365179740436
 10
103.0894870076477
 20
-152.53780378131
 10
103.0894870076477
 20
-152.53780378131
 10
103.1043009182343
 20
-152.544349462732
 10
103.1191148288209
 20
-152.5526176918966
 10
103.1191148288209
 20
-152.5674316024831
 10
103.1191148288209
 20
-152.5887911944917
 10
103.0936211222301
 20
-152.6015380477871
 10
103.0853528930655
 20
-152.6036051050782
 10
103.0577921291834
 20
-152.6118733342428
 10
103.0491793904703
 20
-152.6098062769517
 10
103.0236856838795
 20
-152.6352999835426
 10
102.9985364868372
 20
-152.6607936901334
 10
103.0006035441283
 20
-152.669061919298
 10
102.968908665664
 20
-152.7221163897708
 10
102.968908665664
 20
-152.7221163897708
 10
103.3030829277332
 20
-152.7221163897708
 10
103.3030829277332
 20
-152.7221163897708
 10
103.5590535222873
 20
-152.7221163897708
 10
103.5907484007516
 20
-152.7093695364754
 10
103.6479369858067
 20
-152.6797417153023
 10
103.6479369858067
 20
-152.6797417153023
 10
103.8043443208371
 20
-152.8447617890457
 10
103.8043443208371
 20
-152.8447617890457
 10
103.7705823850816
 20
-152.8805907820923
 10
103.7685153277905
 20
-152.8826578393835
 10
103.7430216211996
 20
-152.9102186032655
 97
        0
 97
        1
330
C7
 75
     2
 76
     1
 98
        1
 10
0.0
 20
0.0
450
        0
451
        0
460
0.0
461
0.0
452
        0
462
0.0
453
        0
470

  0
SPLINE
  5
C9
330
C3
100
AcDbEntity
  8
レイヤー 1
100
AcDbSpline
210
0.0
220
0.0
230
1.0
 70
    11
 71
     3
 72
    17
 73
    13
 74
     0
 42
0.0000000001
 43
0.0000000001
 40
0.0
 40
0.0
 40
0.0
 40
0.0
 40
1.0
 40
1.0
 40
1.0
 40
2.0
 40
2.0
 40
2.0
 40
3.0
 40
3.0
 40
3.0
 40
4.0
 40
4.0
 40
4.0
 40
4.0
 10
105.3856431485667
 20
-152.8192680824549
 30
0.0
 10
105.3856431485667
 20
-152.8192680824549
 30
0.0
 10
104.3448798024728
 20
-152.8192680824549
 30
0.0
 10
104.3448798024728
 20
-152.8192680824549
 30
0.0
 10
104.3448798024728
 20
-152.8192680824549
 30
0.0
 10
104.3448798024728
 20
-153.7077582081008
 30
0.0
 10
104.3448798024728
 20
-153.7077582081008
 30
0.0
 10
104.3448798024728
 20
-153.7077582081008
 30
0.0
 10
105.3856431485667
 20
-153.7077582081008
 30
0.0
 10
105.3856431485667
 20
-153.7077582081008
 30
0.0
 10
105.3856431485667
 20
-153.7077582081008
 30
0.0
 10
105.3856431485667
 20
-152.8192680824549
 30
0.0
 10
105.3856431485667
 20
-152.8192680824549
 30
0.0
  0
SPLINE
  5
CA
330
C3
100
AcDbEntity
  8
レイヤー 1
100
AcDbSpline
210
0.0
220
0.0
230
1.0
 70
     9
 71
     3
 72
    53
 73
    49
 74
     0
 42
0.0000000001
 43
0.0000000001
 40
0.0
 40
0.0
 40
0.0
 40
0.0
 40
1.0
 40
1.0
 40
1.0
 40
2.0
 40
2.0
 40
2.0
 40
3.0
 40
3.0
 40
3.0
 40
4.0
 40
4.0
 40
4.0
 40
5.0
 40
5.0
 40
5.0
 40
6.0
 40
6.0
 40
6.0
 40
7.0
 40
7.0
 40
7.0
 40
8.0
 40
8.0
 40
8.0
 40
9.0
 40
9.0
 40
9.0
 40
10.0
 40
10.0
 40
10.0
 40
11.0
 40
11.0
 40
11.0
 40
12.0
 40
12.0
 40
12.0
 40
13.0
 40
13.0
 40
13.0
 40
14.0
 40
14.0
 40
14.0
 40
15.0
 40
15.0
 40
15.0
 40
16.0
 40
16.0
 40
16.0
 40
16.0
 10
105.3625610088156
 20
-154.0229844450012
 30
0.0
 10
105.3708292379802
 20
-153.9785427132415
 30
0.0
 10
105.3708292379802
 20
-153.9702744840769
 30
0.0
 10
105.3773749194022
 20
-153.896204931144
 30
0.0
 10
105.3773749194022
 20
-153.896204931144
 30
0.0
 10
104.3469468597639
 20
-153.896204931144
 30
0.0
 10
104.3469468597639
 20
-153.896204931144
 30
0.0
 10
104.3469468597639
 20
-153.9278998096083
 30
0.0
 10
104.3469468597639
 20
-153.9830213373723
 30
0.0
 10
104.3514254838947
 20
-154.0188503304189
 30
0.0
 10
104.3514254838947
 20
-154.0188503304189
 30
0.0
 10
104.1102687999273
 20
-154.0188503304189
 30
0.0
 10
104.1102687999273
 20
-154.0188503304189
 30
0.0
 10
104.1164699718007
 20
-153.9637288026549
 30
0.0
 10
104.127149767805
 20
-153.8727782818443
 30
0.0
 10
104.127149767805
 20
-153.7439317106959
 30
0.0
 10
104.1292168250961
 20
-153.5386040197751
 30
0.0
 10
104.1292168250961
 20
-153.5151773704754
 30
0.0
 10
104.1292168250961
 20
-153.4920952307242
 30
0.0
 10
104.1292168250961
 20
-153.4920952307242
 30
0.0
 10
104.1292168250961
 20
-153.0521565372578
 30
0.0
 10
104.1292168250961
 20
-153.0521565372578
 30
0.0
 10
104.1292168250961
 20
-152.9863552134895
 30
0.0
 10
104.1226711436742
 20
-152.6628607474245
 30
0.0
 10
104.1185370290919
 20
-152.6077392196605
 30
0.0
 10
104.2432494856579
 20
-152.620486072956
 30
0.0
 10
104.5078328189251
 20
-152.6246201875383
 30
0.0
 10
104.6390909569131
 20
-152.6246201875383
 30
0.0
 10
104.6390909569131
 20
-152.6246201875383
 30
0.0
 10
105.0938435609661
 20
-152.6246201875383
 30
0.0
 10
105.0938435609661
 20
-152.6246201875383
 30
0.0
 10
105.244049724123
 20
-152.6246201875383
 30
0.0
 10
105.4683254402128
 20
-152.6225531302471
 30
0.0
 10
105.6142252340131
 20
-152.6142849010825
 30
0.0
 10
105.6056124953
 20
-152.724183447062
 30
0.0
 10
105.6014783807177
 20
-152.9736083601941
 30
0.0
 10
105.6014783807177
 20
-153.0921196448867
 30
0.0
 10
105.6014783807177
 20
-153.0921196448867
 30
0.0
 10
105.6014783807177
 20
-153.511043255893
 30
0.0
 10
105.6014783807177
 20
-153.511043255893
 30
0.0
 10
105.6014783807177
 20
-153.5534179303616
 30
0.0
 10
105.6076795525911
 20
-153.7353189719828
 30
0.0
 10
105.6076795525911
 20
-153.7735595318691
 30
0.0
 10
105.6097466098823
 20
-153.923765695026
 30
0.0
 10
105.6183593485954
 20
-153.9744085986592
 30
0.0
 10
105.62662757776
 20
-154.0229844450012
 30
0.0
 10
105.62662757776
 20
-154.0229844450012
 30
0.0
 10
105.3625610088156
 20
-154.0229844450012
 30
0.0
 10
105.3625610088156
 20
-154.0229844450012
 30
0.0
  0
HATCH
  5
CB
330
C3
100
AcDbEntity
  8
レイヤー 1
 62
   250
420
  2299925
440
 33554687
100
AcDbHatch
 10
0.0
 20
0.0
 30
0.0
210
0.0
220
0.0
230
1.0
  2
SOLID
 70
     1
 71
     1
 91
        2
 92
        1
 93
        1
 72
     4
 94
        3
 73
     0
 74
     0
 95
       17
 96
       13
 40
0.0
 40
0.0
 40
0.0
 40
0.0
 40
1.0
 40
1.0
 40
1.0
 40
2.0
 40
2.0
 40
2.0
 40
3.0
 40
3.0
 40
3.0
 40
4.0
 40
4.0
 40
4.0
 40
4.0
 10
105.3856431485667
 20
-152.8192680824549
 10
105.3856431485667
 20
-152.8192680824549
 10
104.3448798024728
 20
-152.8192680824549
 10
104.3448798024728
 20
-152.8192680824549
 10
104.3448798024728
 20
-152.8192680824549
 10
104.3448798024728
 20
-153.7077582081008
 10
104.3448798024728
 20
-153.7077582081008
 10
104.3448798024728
 20
-153.7077582081008
 10
105.3856431485667
 20
-153.7077582081008
 10
105.3856431485667
 20
-153.7077582081008
 10
105.3856431485667
 20
-153.7077582081008
 10
105.3856431485667
 20
-152.8192680824549
 10
105.3856431485667
 20
-152.8192680824549
 97
        0
 97
        1
330
C9
 92
        1
 93
        1
 72
     4
 94
        3
 73
     0
 74
     0
 95
       53
 96
       49
 40
0.0
 40
0.0
 40
0.0
 40
0.0
 40
1.0
 40
1.0
 40
1.0
 40
2.0
 40
2.0
 40
2.0
 40
3.0
 40
3.0
 40
3.0
 40
4.0
 40
4.0
 40
4.0
 40
5.0
 40
5.0
 40
5.0
 40
6.0
 40
6.0
 40
6.0
 40
7.0
 40
7.0
 40
7.0
 40
8.0
 40
8.0
 40
8.0
 40
9.0
 40
9.0
 40
9.0
 40
10.0
 40
10.0
 40
10.0
 40
11.0
 40
11.0
 40
11.0
 40
12.0
 40
12.0
 40
12.0
 40
13.0
 40
13.0
 40
13.0
 40
14.0
 40
14.0
 40
14.0
 40
15.0
 40
15.0
 40
15.0
 40
16.0
 40
16.0
 40
16.0
 40
16.0
 10
105.3625610088156
 20
-154.0229844450012
 10
105.3708292379802
 20
-153.9785427132415
 10
105.3708292379802
 20
-153.9702744840769
 10
105.3773749194022
 20
-153.896204931144
 10
105.3773749194022
 20
-153.896204931144
 10
104.3469468597639
 20
-153.896204931144
 10
104.3469468597639
 20
-153.896204931144
 10
104.3469468597639
 20
-153.9278998096083
 10
104.3469468597639
 20
-153.9830213373723
 10
104.3514254838947
 20
-154.0188503304189
 10
104.3514254838947
 20
-154.0188503304189
 10
104.1102687999273
 20
-154.0188503304189
 10
104.1102687999273
 20
-154.0188503304189
 10
104.1164699718007
 20
-153.9637288026549
 10
104.127149767805
 20
-153.8727782818443
 10
104.127149767805
 20
-153.7439317106959
 10
104.1292168250961
 20
-153.5386040197751
 10
104.1292168250961
 20
-153.5151773704754
 10
104.1292168250961
 20
-153.4920952307242
 10
104.1292168250961
 20
-153.4920952307242
 10
104.1292168250961
 20
-153.0521565372578
 10
104.1292168250961
 20
-153.0521565372578
 10
104.1292168250961
 20
-152.9863552134895
 10
104.1226711436742
 20
-152.6628607474245
 10
104.1185370290919
 20
-152.6077392196605
 10
104.2432494856579
 20
-152.620486072956
 10
104.5078328189251
 20
-152.6246201875383
 10
104.6390909569131
 20
-152.6246201875383
 10
104.6390909569131
 20
-152.6246201875383
 10
105.0938435609661
 20
-152.6246201875383
 10
105.0938435609661
 20
-152.6246201875383
 10
105.244049724123
 20
-152.6246201875383
 10
105.4683254402128
 20
-152.6225531302471
 10
105.6142252340131
 20
-152.6142849010825
 10
105.6056124953
 20
-152.724183447062
 10
105.6014783807177
 20
-152.9736083601941
 10
105.6014783807177
 20
-153.0921196448867
 10
105.6014783807177
 20
-153.0921196448867
 10
105.6014783807177
 20
-153.511043255893
 10
105.6014783807177
 20
-153.511043255893
 10
105.6014783807177
 20
-153.5534179303616
 10
105.6076795525911
 20
-153.7353189719828
 10
105.6076795525911
 20
-153.7735595318691
 10
105.6097466098823
 20
-153.923765695026
 10
105.6183593485954
 20
-153.9744085986592
 10
105.62662757776
 20
-154.0229844450012
 10
105.62662757776
 20
-154.0229844450012
 10
105.3625610088156
 20
-154.0229844450012
 10
105.3625610088156
 20
-154.0229844450012
 97
        0
 97
        1
330
CA
 75
     2
 76
     1
 98
        1
 10
0.0
 20
0.0
450
        0
451
        0
460
0.0
461
0.0
452
        0
462
0.0
453
        0
470

  0
SPLINE
  5
CC
330
C3
100
AcDbEntity
  8
レイヤー 1
100
AcDbSpline
210
0.0
220
0.0
230
1.0
 70
     9
 71
     3
 72
    56
 73
    52
 74
     0
 42
0.0000000001
 43
0.0000000001
 40
0.0
 40
0.0
 40
0.0
 40
0.0
 40
1.0
 40
1.0
 40
1.0
 40
2.0
 40
2.0
 40
2.0
 40
3.0
 40
3.0
 40
3.0
 40
4.0
 40
4.0
 40
4.0
 40
5.0
 40
5.0
 40
5.0
 40
6.0
 40
6.0
 40
6.0
 40
7.0
 40
7.0
 40
7.0
 40
8.0
 40
8.0
 40
8.0
 40
9.0
 40
9.0
 40
9.0
 40
10.0
 40
10.0
 40
10.0
 40
11.0
 40
11.0
 40
11.0
 40
12.0
 40
12.0
 40
12.0
 40
13.0
 40
13.0
 40
13.0
 40
14.0
 40
14.0
 40
14.0
 40
15.0
 40
15.0
 40
15.0
 40
16.0
 40
16.0
 40
16.0
 40
17.0
 40
17.0
 40
17.0
 40
17.0
 10
107.3732909887816
 20
-154.0887857687694
 30
0.0
 10
107.1807101511562
 20
-153.7797607037425
 30
0.0
 10
106.922672499311
 20
-153.5744330128217
 30
0.0
 10
106.8317219785004
 20
-153.5089761986019
 30
0.0
 10
106.5375108240601
 20
-153.847629084802
 30
0.0
 10
106.2477782937505
 20
-153.99990230525
 30
0.0
 10
106.0489962842516
 20
-154.0929198833518
 30
0.0
 10
106.0489962842516
 20
-154.0929198833518
 30
0.0
 10
105.8901773823816
 20
-153.9044731603086
 30
0.0
 10
105.8901773823816
 20
-153.9044731603086
 30
0.0
 10
105.9938747564876
 20
-153.868644167262
 30
0.0
 10
106.2074706765731
 20
-153.792507557038
 30
0.0
 10
106.440359131376
 20
-153.6064724008345
 30
0.0
 10
106.7045979550947
 20
-153.3945990284916
 30
0.0
 10
106.8909776208467
 20
-153.1069335554732
 30
0.0
 10
107.0136230201216
 20
-152.7941188854126
 30
0.0
 10
107.0136230201216
 20
-152.7941188854126
 30
0.0
 10
106.6370740835838
 20
-152.7941188854126
 30
0.0
 10
106.6370740835838
 20
-152.7941188854126
 30
0.0
 10
106.4848008631357
 20
-152.7941188854126
 30
0.0
 10
106.2753390576325
 20
-152.7982529999949
 30
0.0
 10
106.1251328944756
 20
-152.8172010251637
 30
0.0
 10
106.1251328944756
 20
-152.8172010251637
 30
0.0
 10
106.1251328944756
 20
-152.6056721623694
 30
0.0
 10
106.1251328944756
 20
-152.6056721623694
 30
0.0
 10
106.1926567659865
 20
-152.6118733342428
 30
0.0
 10
106.4531059846714
 20
-152.6225531302471
 30
0.0
 10
106.5395778813512
 20
-152.6225531302471
 30
0.0
 10
106.5395778813512
 20
-152.6225531302471
 30
0.0
 10
106.8506700036693
 20
-152.6225531302471
 30
0.0
 10
106.8506700036693
 20
-152.6225531302471
 30
0.0
 10
107.0580647518813
 20
-152.6225531302471
 30
0.0
 10
107.0811468916325
 20
-152.6163519583737
 30
0.0
 10
107.1045735409322
 20
-152.6118733342428
 30
0.0
 10
107.1490152726919
 20
-152.6056721623694
 30
0.0
 10
107.1869113230296
 20
-152.5801784557785
 30
0.0
 10
107.2082709150382
 20
-152.5632974879008
 30
0.0
 10
107.2082709150382
 20
-152.5632974879008
 30
0.0
 10
107.3646782500685
 20
-152.7369303003574
 30
0.0
 10
107.3646782500685
 20
-152.7369303003574
 30
0.0
 10
107.3247151424396
 20
-152.7644910642394
 30
0.0
 10
107.3119682891442
 20
-152.7748263506952
 30
0.0
 10
107.2630479332537
 20
-152.8109998532903
 30
0.0
 10
107.1342013621053
 20
-153.0583577091312
 30
0.0
 10
107.053930637299
 20
-153.2085638722881
 30
0.0
 10
106.950233263193
 20
-153.3546359208627
 30
0.0
 10
107.2630479332537
 20
-153.5723659555305
 30
0.0
 10
107.4918022734743
 20
-153.8579643712577
 30
0.0
 10
107.5445122343986
 20
-153.9361680387729
 30
0.0
 10
107.5445122343986
 20
-153.9361680387729
 30
0.0
 10
107.3732909887816
 20
-154.0887857687694
 30
0.0
 10
107.3732909887816
 20
-154.0887857687694
 30
0.0
  0
HATCH
  5
CD
330
C3
100
AcDbEntity
  8
レイヤー 1
 62
   250
420
  2299925
440
 33554687
100
AcDbHatch
 10
0.0
 20
0.0
 30
0.0
210
0.0
220
0.0
230
1.0
  2
SOLID
 70
     1
 71
     1
 91
        1
 92
        1
 93
        1
 72
     4
 94
        3
 73
     0
 74
     0
 95
       56
 96
       52
 40
0.0
 40
0.0
 40
0.0
 40
0.0
 40
1.0
 40
1.0
 40
1.0
 40
2.0
 40
2.0
 40
2.0
 40
3.0
 40
3.0
 40
3.0
 40
4.0
 40
4.0
 40
4.0
 40
5.0
 40
5.0
 40
5.0
 40
6.0
 40
6.0
 40
6.0
 40
7.0
 40
7.0
 40
7.0
 40
8.0
 40
8.0
 40
8.0
 40
9.0
 40
9.0
 40
9.0
 40
10.0
 40
10.0
 40
10.0
 40
11.0
 40
11.0
 40
11.0
 40
12.0
 40
12.0
 40
12.0
 40
13.0
 40
13.0
 40
13.0
 40
14.0
 40
14.0
 40
14.0
 40
15.0
 40
15.0
 40
15.0
 40
16.0
 40
16.0
 40
16.0
 40
17.0
 40
17.0
 40
17.0
 40
17.0
 10
107.3732909887816
 20
-154.0887857687694
 10
107.1807101511562
 20
-153.7797607037425
 10
106.922672499311
 20
-153.5744330128217
 10
106.8317219785004
 20
-153.5089761986019
 10
106.5375108240601
 20
-153.847629084802
 10
106.2477782937505
 20
-153.99990230525
 10
106.0489962842516
 20
-154.0929198833518
 10
106.0489962842516
 20
-154.0929198833518
 10
105.8901773823816
 20
-153.9044731603086
 10
105.8901773823816
 20
-153.9044731603086
 10
105.9938747564876
 20
-153.868644167262
 10
106.2074706765731
 20
-153.792507557038
 10
106.440359131376
 20
-153.6064724008345
 10
106.7045979550947
 20
-153.3945990284916
 10
106.8909776208467
 20
-153.1069335554732
 10
107.0136230201216
 20
-152.7941188854126
 10
107.0136230201216
 20
-152.7941188854126
 10
106.6370740835838
 20
-152.7941188854126
 10
106.6370740835838
 20
-152.7941188854126
 10
106.4848008631357
 20
-152.7941188854126
 10
106.2753390576325
 20
-152.7982529999949
 10
106.1251328944756
 20
-152.8172010251637
 10
106.1251328944756
 20
-152.8172010251637
 10
106.1251328944756
 20
-152.6056721623694
 10
106.1251328944756
 20
-152.6056721623694
 10
106.1926567659865
 20
-152.6118733342428
 10
106.4531059846714
 20
-152.6225531302471
 10
106.5395778813512
 20
-152.6225531302471
 10
106.5395778813512
 20
-152.6225531302471
 10
106.8506700036693
 20
-152.6225531302471
 10
106.8506700036693
 20
-152.6225531302471
 10
107.0580647518813
 20
-152.6225531302471
 10
107.0811468916325
 20
-152.6163519583737
 10
107.1045735409322
 20
-152.6118733342428
 10
107.1490152726919
 20
-152.6056721623694
 10
107.1869113230296
 20
-152.5801784557785
 10
107.2082709150382
 20
-152.5632974879008
 10
107.2082709150382
 20
-152.5632974879008
 10
107.3646782500685
 20
-152.7369303003574
 10
107.3646782500685
 20
-152.7369303003574
 10
107.3247151424396
 20
-152.7644910642394
 10
107.3119682891442
 20
-152.7748263506952
 10
107.2630479332537
 20
-152.8109998532903
 10
107.1342013621053
 20
-153.0583577091312
 10
107.053930637299
 20
-153.2085638722881
 10
106.950233263193
 20
-153.3546359208627
 10
107.2630479332537
 20
-153.5723659555305
 10
107.4918022734743
 20
-153.8579643712577
 10
107.5445122343986
 20
-153.9361680387729
 10
107.5445122343986
 20
-153.9361680387729
 10
107.3732909887816
 20
-154.0887857687694
 10
107.3732909887816
 20
-154.0887857687694
 97
        0
 97
        1
330
CC
 75
     2
 76
     1
 98
        1
 10
0.0
 20
0.0
450
        0
451
        0
460
0.0
461
0.0
452
        0
462
0.0
453
        0
470

  0
SPLINE
  5
CE
330
C3
100
AcDbEntity
  8
レイヤー 1
100
AcDbSpline
210
0.0
220
0.0
230
1.0
 70
    11
 71
     3
 72
    17
 73
    13
 74
     0
 42
0.0000000001
 43
0.0000000001
 40
0.0
 40
0.0
 40
0.0
 40
0.0
 40
1.0
 40
1.0
 40
1.0
 40
2.0
 40
2.0
 40
2.0
 40
3.0
 40
3.0
 40
3.0
 40
4.0
 40
4.0
 40
4.0
 40
4.0
 10
109.2550021428251
 20
-153.1114121796041
 30
0.0
 10
109.2550021428251
 20
-153.1114121796041
 30
0.0
 10
108.7957709146413
 20
-153.1114121796041
 30
0.0
 10
108.7957709146413
 20
-153.1114121796041
 30
0.0
 10
108.7957709146413
 20
-153.1114121796041
 30
0.0
 10
108.7957709146413
 20
-153.4200927350824
 30
0.0
 10
108.7957709146413
 20
-153.4200927350824
 30
0.0
 10
108.7957709146413
 20
-153.4200927350824
 30
0.0
 10
109.2550021428251
 20
-153.4200927350824
 30
0.0
 10
109.2550021428251
 20
-153.4200927350824
 30
0.0
 10
109.2550021428251
 20
-153.4200927350824
 30
0.0
 10
109.2550021428251
 20
-153.1114121796041
 30
0.0
 10
109.2550021428251
 20
-153.1114121796041
 30
0.0
  0
SPLINE
  5
CF
330
C3
100
AcDbEntity
  8
レイヤー 1
100
AcDbSpline
210
0.0
220
0.0
230
1.0
 70
    11
 71
     3
 72
    17
 73
    13
 74
     0
 42
0.0000000001
 43
0.0000000001
 40
0.0
 40
0.0
 40
0.0
 40
0.0
 40
1.0
 40
1.0
 40
1.0
 40
2.0
 40
2.0
 40
2.0
 40
3.0
 40
3.0
 40
3.0
 40
4.0
 40
4.0
 40
4.0
 40
4.0
 10
109.2550021428251
 20
-152.6394340981248
 30
0.0
 10
109.2550021428251
 20
-152.6394340981248
 30
0.0
 10
108.7957709146413
 20
-152.6394340981248
 30
0.0
 10
108.7957709146413
 20
-152.6394340981248
 30
0.0
 10
108.7957709146413
 20
-152.6394340981248
 30
0.0
 10
108.7957709146413
 20
-152.9439805390209
 30
0.0
 10
108.7957709146413
 20
-152.9439805390209
 30
0.0
 10
108.7957709146413
 20
-152.9439805390209
 30
0.0
 10
109.2550021428251
 20
-152.9439805390209
 30
0.0
 10
109.2550021428251
 20
-152.9439805390209
 30
0.0
 10
109.2550021428251
 20
-152.9439805390209
 30
0.0
 10
109.2550021428251
 20
-152.6394340981248
 30
0.0
 10
109.2550021428251
 20
-152.6394340981248
 30
0.0
  0
SPLINE
  5
D0
330
C3
100
AcDbEntity
  8
レイヤー 1
100
AcDbSpline
210
0.0
220
0.0
230
1.0
 70
    11
 71
     3
 72
    17
 73
    13
 74
     0
 42
0.0000000001
 43
0.0000000001
 40
0.0
 40
0.0
 40
0.0
 40
0.0
 40
1.0
 40
1.0
 40
1.0
 40
2.0
 40
2.0
 40
2.0
 40
3.0
 40
3.0
 40
3.0
 40
4.0
 40
4.0
 40
4.0
 40
4.0
 10
108.6056016438555
 20
-153.1114121796041
 30
0.0
 10
108.6056016438555
 20
-153.1114121796041
 30
0.0
 10
108.1677300076803
 20
-153.1114121796041
 30
0.0
 10
108.1677300076803
 20
-153.1114121796041
 30
0.0
 10
108.1677300076803
 20
-153.1114121796041
 30
0.0
 10
108.1677300076803
 20
-153.4200927350824
 30
0.0
 10
108.1677300076803
 20
-153.4200927350824
 30
0.0
 10
108.1677300076803
 20
-153.4200927350824
 30
0.0
 10
108.6056016438555
 20
-153.4200927350824
 30
0.0
 10
108.6056016438555
 20
-153.4200927350824
 30
0.0
 10
108.6056016438555
 20
-153.4200927350824
 30
0.0
 10
108.6056016438555
 20
-153.1114121796041
 30
0.0
 10
108.6056016438555
 20
-153.1114121796041
 30
0.0
  0
SPLINE
  5
D1
330
C3
100
AcDbEntity
  8
レイヤー 1
100
AcDbSpline
210
0.0
220
0.0
230
1.0
 70
    11
 71
     3
 72
    17
 73
    13
 74
     0
 42
0.0000000001
 43
0.0000000001
 40
0.0
 40
0.0
 40
0.0
 40
0.0
 40
1.0
 40
1.0
 40
1.0
 40
2.0
 40
2.0
 40
2.0
 40
3.0
 40
3.0
 40
3.0
 40
4.0
 40
4.0
 40
4.0
 40
4.0
 10
108.6056016438555
 20
-152.6394340981248
 30
0.0
 10
108.6056016438555
 20
-152.6394340981248
 30
0.0
 10
108.1677300076803
 20
-152.6394340981248
 30
0.0
 10
108.1677300076803
 20
-152.6394340981248
 30
0.0
 10
108.1677300076803
 20
-152.6394340981248
 30
0.0
 10
108.1677300076803
 20
-152.9439805390209
 30
0.0
 10
108.1677300076803
 20
-152.9439805390209
 30
0.0
 10
108.1677300076803
 20
-152.9439805390209
 30
0.0
 10
108.6056016438555
 20
-152.9439805390209
 30
0.0
 10
108.6056016438555
 20
-152.9439805390209
 30
0.0
 10
108.6056016438555
 20
-152.9439805390209
 30
0.0
 10
108.6056016438555
 20
-152.6394340981248
 30
0.0
 10
108.6056016438555
 20
-152.6394340981248
 30
0.0
  0
SPLINE
  5
D2
330
C3
100
AcDbEntity
  8
レイヤー 1
100
AcDbSpline
210
0.0
220
0.0
230
1.0
 70
     9
 71
     3
 72
    77
 73
    73
 74
     0
 42
0.0000000001
 43
0.0000000001
 40
0.0
 40
0.0
 40
0.0
 40
0.0
 40
1.0
 40
1.0
 40
1.0
 40
2.0
 40
2.0
 40
2.0
 40
3.0
 40
3.0
 40
3.0
 40
4.0
 40
4.0
 40
4.0
 40
5.0
 40
5.0
 40
5.0
 40
6.0
 40
6.0
 40
6.0
 40
7.0
 40
7.0
 40
7.0
 40
8.0
 40
8.0
 40
8.0
 40
9.0
 40
9.0
 40
9.0
 40
10.0
 40
10.0
 40
10.0
 40
11.0
 40
11.0
 40
11.0
 40
12.0
 40
12.0
 40
12.0
 40
13.0
 40
13.0
 40
13.0
 40
14.0
 40
14.0
 40
14.0
 40
15.0
 40
15.0
 40
15.0
 40
16.0
 40
16.0
 40
16.0
 40
17.0
 40
17.0
 40
17.0
 40
18.0
 40
18.0
 40
18.0
 40
19.0
 40
19.0
 40
19.0
 40
20.0
 40
20.0
 40
20.0
 40
21.0
 40
21.0
 40
21.0
 40
22.0
 40
22.0
 40
22.0
 40
23.0
 40
23.0
 40
23.0
 40
24.0
 40
24.0
 40
24.0
 40
24.0
 10
109.3903943953954
 20
-154.2262450786309
 30
0.0
 10
109.3438856063446
 20
-154.2513942756732
 30
0.0
 10
109.2191731497785
 20
-154.2641411289687
 30
0.0
 10
109.1406249727148
 20
-154.2641411289687
 30
0.0
 10
109.1282226289679
 20
-154.2641411289687
 30
0.0
 10
109.1027289223771
 20
-154.2641411289687
 30
0.0
 10
109.0689669866216
 20
-154.2600070143864
 30
0.0
 10
109.0689669866216
 20
-154.2600070143864
 30
0.0
 10
108.9714707843891
 20
-154.0336642410055
 30
0.0
 10
108.9714707843891
 20
-154.0336642410055
 30
0.0
 10
109.0010986055622
 20
-154.0398654128789
 30
0.0
 10
109.0582871906174
 20
-154.048478151592
 30
0.0
 10
109.1747314180188
 20
-154.048478151592
 30
0.0
 10
109.252935085534
 20
-154.048478151592
 30
0.0
 10
109.2550021428251
 20
-154.0061034771234
 30
0.0
 10
109.2550021428251
 20
-153.9489148920683
 30
0.0
 10
109.2550021428251
 20
-153.9489148920683
 30
0.0
 10
109.2550021428251
 20
-153.5999267194125
 30
0.0
 10
109.2550021428251
 20
-153.5999267194125
 30
0.0
 10
109.2550021428251
 20
-153.5999267194125
 30
0.0
 10
108.7957709146413
 20
-153.5999267194125
 30
0.0
 10
108.7957709146413
 20
-153.5999267194125
 30
0.0
 10
108.798182481481
 20
-153.737386029274
 30
0.0
 10
108.8002495387721
 20
-153.9361680387729
 30
0.0
 10
108.8064507106456
 20
-154.0694932340521
 30
0.0
 10
108.8085177679367
 20
-154.097053997934
 30
0.0
 10
108.8085177679367
 20
-154.1414957296938
 30
0.0
 10
108.8212646212322
 20
-154.2028184293312
 30
0.0
 10
108.8212646212322
 20
-154.2028184293312
 30
0.0
 10
108.5801079372647
 20
-154.2028184293312
 30
0.0
 10
108.5801079372647
 20
-154.2028184293312
 30
0.0
 10
108.6056016438555
 20
-154.0781059727652
 30
0.0
 10
108.6056016438555
 20
-153.737386029274
 30
0.0
 10
108.6056016438555
 20
-153.5999267194125
 30
0.0
 10
108.6056016438555
 20
-153.5999267194125
 30
0.0
 10
108.1632513835494
 20
-153.5999267194125
 30
0.0
 10
108.1632513835494
 20
-153.5999267194125
 30
0.0
 10
108.1401692437983
 20
-153.8073214676245
 30
0.0
 10
108.0747124295785
 20
-154.076038915474
 30
0.0
 10
107.8776529678222
 20
-154.2600070143864
 30
0.0
 10
107.8776529678222
 20
-154.2600070143864
 30
0.0
 10
107.6895507543276
 20
-154.1373616151115
 30
0.0
 10
107.6895507543276
 20
-154.1373616151115
 30
0.0
 10
107.9434542915905
 20
-153.917220013604
 30
0.0
 10
107.9751491700548
 20
-153.5851128088259
 30
0.0
 10
107.9751491700548
 20
-153.2530056040478
 30
0.0
 10
107.9751491700548
 20
-153.2530056040478
 30
0.0
 10
107.9751491700548
 20
-152.8172010251637
 30
0.0
 10
107.9751491700548
 20
-152.8172010251637
 30
0.0
 10
107.9751491700548
 20
-152.7813720321171
 30
0.0
 10
107.9730821127637
 20
-152.5484835773142
 30
0.0
 10
107.9644693740505
 20
-152.4468532604994
 30
0.0
 10
108.1043402507517
 20
-152.4575330565037
 30
0.0
 10
108.3454969347191
 20
-152.4575330565037
 30
0.0
 10
108.4891574164541
 20
-152.4575330565037
 30
0.0
 10
108.4891574164541
 20
-152.4575330565037
 30
0.0
 10
108.9483886446379
 20
-152.4575330565037
 30
0.0
 10
108.9483886446379
 20
-152.4575330565037
 30
0.0
 10
108.9632025552245
 20
-152.4575330565037
 30
0.0
 10
109.3121907278803
 20
-152.4575330565037
 30
0.0
 10
109.4706651202018
 20
-152.4468532604994
 30
0.0
 10
109.4685980629106
 20
-152.4999077309722
 30
0.0
 10
109.4623968910372
 20
-152.6607936901334
 30
0.0
 10
109.4623968910372
 20
-152.7114365937666
 30
0.0
 10
109.4623968910372
 20
-152.7114365937666
 30
0.0
 10
109.4623968910372
 20
-153.3184624182676
 30
0.0
 10
109.4623968910372
 20
-153.3184624182676
 30
0.0
 10
109.4623968910372
 20
-153.337754952985
 30
0.0
 10
109.4727321774929
 20
-153.9089517844394
 30
0.0
 10
109.4727321774929
 20
-154.02091738771
 30
0.0
 10
109.4727321774929
 20
-154.0781059727652
 30
0.0
 10
109.4727321774929
 20
-154.17973628958
 30
0.0
 10
109.3903943953954
 20
-154.2262450786309
 30
0.0
  0
HATCH
  5
D3
330
C3
100
AcDbEntity
  8
レイヤー 1
 62
   250
420
  2299925
440
 33554687
100
AcDbHatch
 10
0.0
 20
0.0
 30
0.0
210
0.0
220
0.0
230
1.0
  2
SOLID
 70
     1
 71
     1
 91
        5
 92
        1
 93
        1
 72
     4
 94
        3
 73
     0
 74
     0
 95
       17
 96
       13
 40
0.0
 40
0.0
 40
0.0
 40
0.0
 40
1.0
 40
1.0
 40
1.0
 40
2.0
 40
2.0
 40
2.0
 40
3.0
 40
3.0
 40
3.0
 40
4.0
 40
4.0
 40
4.0
 40
4.0
 10
109.2550021428251
 20
-153.1114121796041
 10
109.2550021428251
 20
-153.1114121796041
 10
108.7957709146413
 20
-153.1114121796041
 10
108.7957709146413
 20
-153.1114121796041
 10
108.7957709146413
 20
-153.1114121796041
 10
108.7957709146413
 20
-153.4200927350824
 10
108.7957709146413
 20
-153.4200927350824
 10
108.7957709146413
 20
-153.4200927350824
 10
109.2550021428251
 20
-153.4200927350824
 10
109.2550021428251
 20
-153.4200927350824
 10
109.2550021428251
 20
-153.4200927350824
 10
109.2550021428251
 20
-153.1114121796041
 10
109.2550021428251
 20
-153.1114121796041
 97
        0
 97
        1
330
CE
 92
        1
 93
        1
 72
     4
 94
        3
 73
     0
 74
     0
 95
       17
 96
       13
 40
0.0
 40
0.0
 40
0.0
 40
0.0
 40
1.0
 40
1.0
 40
1.0
 40
2.0
 40
2.0
 40
2.0
 40
3.0
 40
3.0
 40
3.0
 40
4.0
 40
4.0
 40
4.0
 40
4.0
 10
109.2550021428251
 20
-152.6394340981248
 10
109.2550021428251
 20
-152.6394340981248
 10
108.7957709146413
 20
-152.6394340981248
 10
108.7957709146413
 20
-152.6394340981248
 10
108.7957709146413
 20
-152.6394340981248
 10
108.7957709146413
 20
-152.9439805390209
 10
108.7957709146413
 20
-152.9439805390209
 10
108.7957709146413
 20
-152.9439805390209
 10
109.2550021428251
 20
-152.9439805390209
 10
109.2550021428251
 20
-152.9439805390209
 10
109.2550021428251
 20
-152.9439805390209
 10
109.2550021428251
 20
-152.6394340981248
 10
109.2550021428251
 20
-152.6394340981248
 97
        0
 97
        1
330
CF
 92
        1
 93
        1
 72
     4
 94
        3
 73
     0
 74
     0
 95
       17
 96
       13
 40
0.0
 40
0.0
 40
0.0
 40
0.0
 40
1.0
 40
1.0
 40
1.0
 40
2.0
 40
2.0
 40
2.0
 40
3.0
 40
3.0
 40
3.0
 40
4.0
 40
4.0
 40
4.0
 40
4.0
 10
108.6056016438555
 20
-153.1114121796041
 10
108.6056016438555
 20
-153.1114121796041
 10
108.1677300076803
 20
-153.1114121796041
 10
108.1677300076803
 20
-153.1114121796041
 10
108.1677300076803
 20
-153.1114121796041
 10
108.1677300076803
 20
-153.4200927350824
 10
108.1677300076803
 20
-153.4200927350824
 10
108.1677300076803
 20
-153.4200927350824
 10
108.6056016438555
 20
-153.4200927350824
 10
108.6056016438555
 20
-153.4200927350824
 10
108.6056016438555
 20
-153.4200927350824
 10
108.6056016438555
 20
-153.1114121796041
 10
108.6056016438555
 20
-153.1114121796041
 97
        0
 97
        1
330
D0
 92
        1
 93
        1
 72
     4
 94
        3
 73
     0
 74
     0
 95
       17
 96
       13
 40
0.0
 40
0.0
 40
0.0
 40
0.0
 40
1.0
 40
1.0
 40
1.0
 40
2.0
 40
2.0
 40
2.0
 40
3.0
 40
3.0
 40
3.0
 40
4.0
 40
4.0
 40
4.0
 40
4.0
 10
108.6056016438555
 20
-152.6394340981248
 10
108.6056016438555
 20
-152.6394340981248
 10
108.1677300076803
 20
-152.6394340981248
 10
108.1677300076803
 20
-152.6394340981248
 10
108.1677300076803
 20
-152.6394340981248
 10
108.1677300076803
 20
-152.9439805390209
 10
108.1677300076803
 20
-152.9439805390209
 10
108.1677300076803
 20
-152.9439805390209
 10
108.6056016438555
 20
-152.9439805390209
 10
108.6056016438555
 20
-152.9439805390209
 10
108.6056016438555
 20
-152.9439805390209
 10
108.6056016438555
 20
-152.6394340981248
 10
108.6056016438555
 20
-152.6394340981248
 97
        0
 97
        1
330
D1
 92
        1
 93
        1
 72
     4
 94
        3
 73
     0
 74
     0
 95
       77
 96
       73
 40
0.0
 40
0.0
 40
0.0
 40
0.0
 40
1.0
 40
1.0
 40
1.0
 40
2.0
 40
2.0
 40
2.0
 40
3.0
 40
3.0
 40
3.0
 40
4.0
 40
4.0
 40
4.0
 40
5.0
 40
5.0
 40
5.0
 40
6.0
 40
6.0
 40
6.0
 40
7.0
 40
7.0
 40
7.0
 40
8.0
 40
8.0
 40
8.0
 40
9.0
 40
9.0
 40
9.0
 40
10.0
 40
10.0
 40
10.0
 40
11.0
 40
11.0
 40
11.0
 40
12.0
 40
12.0
 40
12.0
 40
13.0
 40
13.0
 40
13.0
 40
14.0
 40
14.0
 40
14.0
 40
15.0
 40
15.0
 40
15.0
 40
16.0
 40
16.0
 40
16.0
 40
17.0
 40
17.0
 40
17.0
 40
18.0
 40
18.0
 40
18.0
 40
19.0
 40
19.0
 40
19.0
 40
20.0
 40
20.0
 40
20.0
 40
21.0
 40
21.0
 40
21.0
 40
22.0
 40
22.0
 40
22.0
 40
23.0
 40
23.0
 40
23.0
 40
24.0
 40
24.0
 40
24.0
 40
24.0
 10
109.3903943953954
 20
-154.2262450786309
 10
109.3438856063446
 20
-154.2513942756732
 10
109.2191731497785
 20
-154.2641411289687
 10
109.1406249727148
 20
-154.2641411289687
 10
109.1282226289679
 20
-154.2641411289687
 10
109.1027289223771
 20
-154.2641411289687
 10
109.0689669866216
 20
-154.2600070143864
 10
109.0689669866216
 20
-154.2600070143864
 10
108.9714707843891
 20
-154.0336642410055
 10
108.9714707843891
 20
-154.0336642410055
 10
109.0010986055622
 20
-154.0398654128789
 10
109.0582871906174
 20
-154.048478151592
 10
109.1747314180188
 20
-154.048478151592
 10
109.252935085534
 20
-154.048478151592
 10
109.2550021428251
 20
-154.0061034771234
 10
109.2550021428251
 20
-153.9489148920683
 10
109.2550021428251
 20
-153.9489148920683
 10
109.2550021428251
 20
-153.5999267194125
 10
109.2550021428251
 20
-153.5999267194125
 10
109.2550021428251
 20
-153.5999267194125
 10
108.7957709146413
 20
-153.5999267194125
 10
108.7957709146413
 20
-153.5999267194125
 10
108.798182481481
 20
-153.737386029274
 10
108.8002495387721
 20
-153.9361680387729
 10
108.8064507106456
 20
-154.0694932340521
 10
108.8085177679367
 20
-154.097053997934
 10
108.8085177679367
 20
-154.1414957296938
 10
108.8212646212322
 20
-154.2028184293312
 10
108.8212646212322
 20
-154.2028184293312
 10
108.5801079372647
 20
-154.2028184293312
 10
108.5801079372647
 20
-154.2028184293312
 10
108.6056016438555
 20
-154.0781059727652
 10
108.6056016438555
 20
-153.737386029274
 10
108.6056016438555
 20
-153.5999267194125
 10
108.6056016438555
 20
-153.5999267194125
 10
108.1632513835494
 20
-153.5999267194125
 10
108.1632513835494
 20
-153.5999267194125
 10
108.1401692437983
 20
-153.8073214676245
 10
108.0747124295785
 20
-154.076038915474
 10
107.8776529678222
 20
-154.2600070143864
 10
107.8776529678222
 20
-154.2600070143864
 10
107.6895507543276
 20
-154.1373616151115
 10
107.6895507543276
 20
-154.1373616151115
 10
107.9434542915905
 20
-153.917220013604
 10
107.9751491700548
 20
-153.5851128088259
 10
107.9751491700548
 20
-153.2530056040478
 10
107.9751491700548
 20
-153.2530056040478
 10
107.9751491700548
 20
-152.8172010251637
 10
107.9751491700548
 20
-152.8172010251637
 10
107.9751491700548
 20
-152.7813720321171
 10
107.9730821127637
 20
-152.5484835773142
 10
107.9644693740505
 20
-152.4468532604994
 10
108.1043402507517
 20
-152.4575330565037
 10
108.3454969347191
 20
-152.4575330565037
 10
108.4891574164541
 20
-152.4575330565037
 10
108.4891574164541
 20
-152.4575330565037
 10
108.9483886446379
 20
-152.4575330565037
 10
108.9483886446379
 20
-152.4575330565037
 10
108.9632025552245
 20
-152.4575330565037
 10
109.3121907278803
 20
-152.4575330565037
 10
109.4706651202018
 20
-152.4468532604994
 10
109.4685980629106
 20
-152.4999077309722
 10
109.4623968910372
 20
-152.6607936901334
 10
109.4623968910372
 20
-152.7114365937666
 10
109.4623968910372
 20
-152.7114365937666
 10
109.4623968910372
 20
-153.3184624182676
 10
109.4623968910372
 20
-153.3184624182676
 10
109.4623968910372
 20
-153.337754952985
 10
109.4727321774929
 20
-153.9089517844394
 10
109.4727321774929
 20
-154.02091738771
 10
109.4727321774929
 20
-154.0781059727652
 10
109.4727321774929
 20
-154.17973628958
 10
109.3903943953954
 20
-154.2262450786309
 97
        0
 97
        1
330
D2
 75
     2
 76
     1
 98
        1
 10
0.0
 20
0.0
450
        0
451
        0
460
0.0
461
0.0
452
        0
462
0.0
453
        0
470

  0
SPLINE
  5
D4
330
C3
100
AcDbEntity
  8
レイヤー 1
100
AcDbSpline
210
0.0
220
0.0
230
1.0
 70
     9
 71
     3
 72
    17
 73
    13
 74
     0
 42
0.0000000001
 43
0.0000000001
 40
0.0
 40
0.0
 40
0.0
 40
0.0
 40
1.0
 40
1.0
 40
1.0
 40
2.0
 40
2.0
 40
2.0
 40
3.0
 40
3.0
 40
3.0
 40
4.0
 40
4.0
 40
4.0
 40
4.0
 10
111.4750216735201
 20
-152.4468532604994
 30
0.0
 10
111.4202446553046
 20
-152.4468532604994
 30
0.0
 10
111.3758029235449
 20
-152.4912949922591
 30
0.0
 10
111.3758029235449
 20
-152.5464165200231
 30
0.0
 10
111.3758029235449
 20
-152.6036051050782
 30
0.0
 10
111.4202446553046
 20
-152.6521809514203
 30
0.0
 10
111.4791557881024
 20
-152.6521809514203
 30
0.0
 10
111.5384114304487
 20
-152.6521809514203
 30
0.0
 10
111.5787190476261
 20
-152.6015380477871
 30
0.0
 10
111.5787190476261
 20
-152.5484835773142
 30
0.0
 10
111.5787190476261
 20
-152.4912949922591
 30
0.0
 10
111.5322102585753
 20
-152.4468532604994
 30
0.0
 10
111.4750216735201
 20
-152.4468532604994
 30
0.0
  0
SPLINE
  5
D5
330
C3
100
AcDbEntity
  8
レイヤー 1
100
AcDbSpline
210
0.0
220
0.0
230
1.0
 70
     9
 71
     3
 72
    17
 73
    13
 74
     0
 42
0.0000000001
 43
0.0000000001
 40
0.0
 40
0.0
 40
0.0
 40
0.0
 40
1.0
 40
1.0
 40
1.0
 40
2.0
 40
2.0
 40
2.0
 40
3.0
 40
3.0
 40
3.0
 40
4.0
 40
4.0
 40
4.0
 40
4.0
 10
111.4770887308113
 20
-152.7768934079863
 30
0.0
 10
111.3503092169541
 20
-152.7768934079863
 30
0.0
 10
111.2486789001392
 20
-152.67560760072
 30
0.0
 10
111.2486789001392
 20
-152.5484835773142
 30
0.0
 10
111.2486789001392
 20
-152.421704063457
 30
0.0
 10
111.3503092169541
 20
-152.318006689351
 30
0.0
 10
111.4770887308113
 20
-152.318006689351
 30
0.0
 10
111.604212754217
 20
-152.318006689351
 30
0.0
 10
111.707910128323
 20
-152.421704063457
 30
0.0
 10
111.707910128323
 20
-152.5484835773142
 30
0.0
 10
111.707910128323
 20
-152.67560760072
 30
0.0
 10
111.604212754217
 20
-152.7768934079863
 30
0.0
 10
111.4770887308113
 20
-152.7768934079863
 30
0.0
  0
SPLINE
  5
D6
330
C3
100
AcDbEntity
  8
レイヤー 1
100
AcDbSpline
210
0.0
220
0.0
230
1.0
 70
     9
 71
     3
 72
    44
 73
    40
 74
     0
 42
0.0000000001
 43
0.0000000001
 40
0.0
 40
0.0
 40
0.0
 40
0.0
 40
1.0
 40
1.0
 40
1.0
 40
2.0
 40
2.0
 40
2.0
 40
3.0
 40
3.0
 40
3.0
 40
4.0
 40
4.0
 40
4.0
 40
5.0
 40
5.0
 40
5.0
 40
6.0
 40
6.0
 40
6.0
 40
7.0
 40
7.0
 40
7.0
 40
8.0
 40
8.0
 40
8.0
 40
9.0
 40
9.0
 40
9.0
 40
10.0
 40
10.0
 40
10.0
 40
11.0
 40
11.0
 40
11.0
 40
12.0
 40
12.0
 40
12.0
 40
13.0
 40
13.0
 40
13.0
 40
13.0
 10
111.2676269253081
 20
-152.9760199270338
 30
0.0
 10
111.1556613220374
 20
-153.3439561248584
 30
0.0
 10
111.1050184184043
 20
-153.5027750267284
 30
0.0
 10
110.9083034661965
 20
-153.7521999398605
 30
0.0
 10
110.7239908577356
 20
-153.9830213373723
 30
0.0
 10
110.487312797899
 20
-154.1690564935758
 30
0.0
 10
110.2079155540452
 20
-154.2620740716775
 30
0.0
 10
110.2079155540452
 20
-154.2620740716775
 30
0.0
 10
110.0153347164198
 20
-154.0822400873475
 30
0.0
 10
110.0153347164198
 20
-154.0822400873475
 30
0.0
 10
110.6564669862247
 20
-153.9299668668994
 30
0.0
 10
110.9865071337117
 20
-153.3735839460316
 30
0.0
 10
111.0498968906403
 20
-152.9336452525652
 30
0.0
 10
111.0498968906403
 20
-152.9336452525652
 30
0.0
 10
110.2840521642692
 20
-152.9336452525652
 30
0.0
 10
110.2840521642692
 20
-152.9336452525652
 30
0.0
 10
110.1910345861675
 20
-152.9336452525652
 30
0.0
 10
110.0070664872552
 20
-152.9377793671475
 30
0.0
 10
109.8503146426763
 20
-152.9567273923163
 30
0.0
 10
109.8503146426763
 20
-152.9567273923163
 30
0.0
 10
109.8503146426763
 20
-152.7369303003574
 30
0.0
 10
109.8503146426763
 20
-152.7369303003574
 30
0.0
 10
109.9371310489046
 20
-152.7579453828174
 30
0.0
 10
110.1889675288763
 20
-152.7579453828174
 30
0.0
 10
110.2881862788515
 20
-152.7579453828174
 30
0.0
 10
110.2881862788515
 20
-152.7579453828174
 30
0.0
 10
110.7198567431533
 20
-152.7579453828174
 30
0.0
 10
110.7198567431533
 20
-152.7579453828174
 30
0.0
 10
110.7622314176219
 20
-152.7579453828174
 30
0.0
 10
110.9968424201674
 20
-152.7558783255263
 30
0.0
 10
111.0350829800537
 20
-152.7496771536528
 30
0.0
 10
111.0774576545223
 20
-152.7431314722309
 30
0.0
 10
111.0795247118134
 20
-152.7410644149397
 30
0.0
 10
111.1408474114509
 20
-152.7007567977623
 30
0.0
 10
111.1408474114509
 20
-152.7007567977623
 30
0.0
 10
111.3289496249455
 20
-152.85544158505
 30
0.0
 10
111.3289496249455
 20
-152.85544158505
 30
0.0
 10
111.2996663133209
 20
-152.8850694062232
 30
0.0
 10
111.2848524027343
 20
-152.9167642846875
 30
0.0
 10
111.2676269253081
 20
-152.9760199270338
 30
0.0
  0
HATCH
  5
D7
330
C3
100
AcDbEntity
  8
レイヤー 1
 62
   250
420
  2299925
440
 33554687
100
AcDbHatch
 10
0.0
 20
0.0
 30
0.0
210
0.0
220
0.0
230
1.0
  2
SOLID
 70
     1
 71
     1
 91
        3
 92
        1
 93
        1
 72
     4
 94
        3
 73
     0
 74
     0
 95
       17
 96
       13
 40
0.0
 40
0.0
 40
0.0
 40
0.0
 40
1.0
 40
1.0
 40
1.0
 40
2.0
 40
2.0
 40
2.0
 40
3.0
 40
3.0
 40
3.0
 40
4.0
 40
4.0
 40
4.0
 40
4.0
 10
111.4750216735201
 20
-152.4468532604994
 10
111.4202446553046
 20
-152.4468532604994
 10
111.3758029235449
 20
-152.4912949922591
 10
111.3758029235449
 20
-152.5464165200231
 10
111.3758029235449
 20
-152.6036051050782
 10
111.4202446553046
 20
-152.6521809514203
 10
111.4791557881024
 20
-152.6521809514203
 10
111.5384114304487
 20
-152.6521809514203
 10
111.5787190476261
 20
-152.6015380477871
 10
111.5787190476261
 20
-152.5484835773142
 10
111.5787190476261
 20
-152.4912949922591
 10
111.5322102585753
 20
-152.4468532604994
 10
111.4750216735201
 20
-152.4468532604994
 97
        0
 97
        1
330
D4
 92
        1
 93
        1
 72
     4
 94
        3
 73
     0
 74
     0
 95
       17
 96
       13
 40
0.0
 40
0.0
 40
0.0
 40
0.0
 40
1.0
 40
1.0
 40
1.0
 40
2.0
 40
2.0
 40
2.0
 40
3.0
 40
3.0
 40
3.0
 40
4.0
 40
4.0
 40
4.0
 40
4.0
 10
111.4770887308113
 20
-152.7768934079863
 10
111.3503092169541
 20
-152.7768934079863
 10
111.2486789001392
 20
-152.67560760072
 10
111.2486789001392
 20
-152.5484835773142
 10
111.2486789001392
 20
-152.421704063457
 10
111.3503092169541
 20
-152.318006689351
 10
111.4770887308113
 20
-152.318006689351
 10
111.604212754217
 20
-152.318006689351
 10
111.707910128323
 20
-152.421704063457
 10
111.707910128323
 20
-152.5484835773142
 10
111.707910128323
 20
-152.67560760072
 10
111.604212754217
 20
-152.7768934079863
 10
111.4770887308113
 20
-152.7768934079863
 97
        0
 97
        1
330
D5
 92
        1
 93
        1
 72
     4
 94
        3
 73
     0
 74
     0
 95
       44
 96
       40
 40
0.0
 40
0.0
 40
0.0
 40
0.0
 40
1.0
 40
1.0
 40
1.0
 40
2.0
 40
2.0
 40
2.0
 40
3.0
 40
3.0
 40
3.0
 40
4.0
 40
4.0
 40
4.0
 40
5.0
 40
5.0
 40
5.0
 40
6.0
 40
6.0
 40
6.0
 40
7.0
 40
7.0
 40
7.0
 40
8.0
 40
8.0
 40
8.0
 40
9.0
 40
9.0
 40
9.0
 40
10.0
 40
10.0
 40
10.0
 40
11.0
 40
11.0
 40
11.0
 40
12.0
 40
12.0
 40
12.0
 40
13.0
 40
13.0
 40
13.0
 40
13.0
 10
111.2676269253081
 20
-152.9760199270338
 10
111.1556613220374
 20
-153.3439561248584
 10
111.1050184184043
 20
-153.5027750267284
 10
110.9083034661965
 20
-153.7521999398605
 10
110.7239908577356
 20
-153.9830213373723
 10
110.487312797899
 20
-154.1690564935758
 10
110.2079155540452
 20
-154.2620740716775
 10
110.2079155540452
 20
-154.2620740716775
 10
110.0153347164198
 20
-154.0822400873475
 10
110.0153347164198
 20
-154.0822400873475
 10
110.6564669862247
 20
-153.9299668668994
 10
110.9865071337117
 20
-153.3735839460316
 10
111.0498968906403
 20
-152.9336452525652
 10
111.0498968906403
 20
-152.9336452525652
 10
110.2840521642692
 20
-152.9336452525652
 10
110.2840521642692
 20
-152.9336452525652
 10
110.1910345861675
 20
-152.9336452525652
 10
110.0070664872552
 20
-152.9377793671475
 10
109.8503146426763
 20
-152.9567273923163
 10
109.8503146426763
 20
-152.9567273923163
 10
109.8503146426763
 20
-152.7369303003574
 10
109.8503146426763
 20
-152.7369303003574
 10
109.9371310489046
 20
-152.7579453828174
 10
110.1889675288763
 20
-152.7579453828174
 10
110.2881862788515
 20
-152.7579453828174
 10
110.2881862788515
 20
-152.7579453828174
 10
110.7198567431533
 20
-152.7579453828174
 10
110.7198567431533
 20
-152.7579453828174
 10
110.7622314176219
 20
-152.7579453828174
 10
110.9968424201674
 20
-152.7558783255263
 10
111.0350829800537
 20
-152.7496771536528
 10
111.0774576545223
 20
-152.7431314722309
 10
111.0795247118134
 20
-152.7410644149397
 10
111.1408474114509
 20
-152.7007567977623
 10
111.1408474114509
 20
-152.7007567977623
 10
111.3289496249455
 20
-152.85544158505
 10
111.3289496249455
 20
-152.85544158505
 10
111.2996663133209
 20
-152.8850694062232
 10
111.2848524027343
 20
-152.9167642846875
 10
111.2676269253081
 20
-152.9760199270338
 97
        0
 97
        1
330
D6
 75
     2
 76
     1
 98
        1
 10
0.0
 20
0.0
450
        0
451
        0
460
0.0
461
0.0
452
        0
462
0.0
453
        0
470

  0
SPLINE
  5
D8
330
C3
100
AcDbEntity
  8
レイヤー 1
100
AcDbSpline
210
0.0
220
0.0
230
1.0
 70
     9
 71
     3
 72
    29
 73
    25
 74
     0
 42
0.0000000001
 43
0.0000000001
 40
0.0
 40
0.0
 40
0.0
 40
0.0
 40
1.0
 40
1.0
 40
1.0
 40
2.0
 40
2.0
 40
2.0
 40
3.0
 40
3.0
 40
3.0
 40
4.0
 40
4.0
 40
4.0
 40
5.0
 40
5.0
 40
5.0
 40
6.0
 40
6.0
 40
6.0
 40
7.0
 40
7.0
 40
7.0
 40
8.0
 40
8.0
 40
8.0
 40
8.0
 10
112.7793348242357
 20
-152.6587266328423
 30
0.0
 10
112.7793348242357
 20
-152.6587266328423
 30
0.0
 10
112.4386148807445
 20
-152.6587266328423
 30
0.0
 10
112.4386148807445
 20
-152.6587266328423
 30
0.0
 10
112.3245822201827
 20
-152.6587266328423
 30
0.0
 10
112.2081379927813
 20
-152.6628607474245
 30
0.0
 10
112.093760822671
 20
-152.6776746580111
 30
0.0
 10
112.093760822671
 20
-152.6776746580111
 30
0.0
 10
112.093760822671
 20
-152.4682128525079
 30
0.0
 10
112.093760822671
 20
-152.4682128525079
 30
0.0
 10
112.2122721073636
 20
-152.4830267630945
 30
0.0
 10
112.3859049198202
 20
-152.4871608776768
 30
0.0
 10
112.4386148807445
 20
-152.4871608776768
 30
0.0
 10
112.4386148807445
 20
-152.4871608776768
 30
0.0
 10
112.7793348242357
 20
-152.4871608776768
 30
0.0
 10
112.7793348242357
 20
-152.4871608776768
 30
0.0
 10
112.8957790516372
 20
-152.4871608776768
 30
0.0
 10
113.0118787694901
 20
-152.4830267630945
 30
0.0
 10
113.1283229968915
 20
-152.4682128525079
 30
0.0
 10
113.1283229968915
 20
-152.4682128525079
 30
0.0
 10
113.1283229968915
 20
-152.6776746580111
 30
0.0
 10
113.1283229968915
 20
-152.6776746580111
 30
0.0
 10
112.9781168337346
 20
-152.6587266328423
 30
0.0
 10
112.7941487348223
 20
-152.6587266328423
 30
0.0
 10
112.7793348242357
 20
-152.6587266328423
 30
0.0
  0
SPLINE
  5
D9
330
C3
100
AcDbEntity
  8
レイヤー 1
100
AcDbSpline
210
0.0
220
0.0
230
1.0
 70
     9
 71
     3
 72
    50
 73
    46
 74
     0
 42
0.0000000001
 43
0.0000000001
 40
0.0
 40
0.0
 40
0.0
 40
0.0
 40
1.0
 40
1.0
 40
1.0
 40
2.0
 40
2.0
 40
2.0
 40
3.0
 40
3.0
 40
3.0
 40
4.0
 40
4.0
 40
4.0
 40
5.0
 40
5.0
 40
5.0
 40
6.0
 40
6.0
 40
6.0
 40
7.0
 40
7.0
 40
7.0
 40
8.0
 40
8.0
 40
8.0
 40
9.0
 40
9.0
 40
9.0
 40
10.0
 40
10.0
 40
10.0
 40
11.0
 40
11.0
 40
11.0
 40
12.0
 40
12.0
 40
12.0
 40
13.0
 40
13.0
 40
13.0
 40
14.0
 40
14.0
 40
14.0
 40
15.0
 40
15.0
 40
15.0
 40
15.0
 10
113.272327988175
 20
-153.2847004825121
 30
0.0
 10
113.1937798111113
 20
-153.462467409551
 30
0.0
 10
113.0583875585409
 20
-153.6698621577631
 30
0.0
 10
112.9209282486795
 20
-153.8093885249157
 30
0.0
 10
112.7517740603537
 20
-153.9806097705326
 30
0.0
 10
112.5888210439014
 20
-154.0694932340521
 30
0.0
 10
112.2694606924187
 20
-154.2114311680444
 30
0.0
 10
112.2694606924187
 20
-154.2114311680444
 30
0.0
 10
112.100306504093
 20
-154.0229844450012
 30
0.0
 10
112.100306504093
 20
-154.0229844450012
 30
0.0
 10
112.2863416602964
 20
-153.99990230525
 30
0.0
 10
112.4575629059134
 20
-153.9130858990217
 30
0.0
 10
112.6101806359099
 20
-153.8073214676245
 30
0.0
 10
112.8723524023374
 20
-153.6254204260034
 30
0.0
 10
113.0628661826718
 20
-153.3122612463941
 30
0.0
 10
113.1114420290138
 20
-153.130360204773
 30
0.0
 10
113.1114420290138
 20
-153.130360204773
 30
0.0
 10
112.4406819380356
 20
-153.130360204773
 30
0.0
 10
112.4406819380356
 20
-153.130360204773
 30
0.0
 10
112.2822075457142
 20
-153.130360204773
 30
0.0
 10
111.990063448565
 20
-153.1386284339376
 30
0.0
 10
111.8377902281169
 20
-153.1558539113638
 30
0.0
 10
111.8377902281169
 20
-153.1558539113638
 30
0.0
 10
111.8377902281169
 20
-152.9270995711432
 30
0.0
 10
111.8377902281169
 20
-152.9270995711432
 30
0.0
 10
111.8718966734209
 20
-152.9336452525652
 30
0.0
 10
111.8970458704632
 20
-152.9398464244386
 30
0.0
 10
111.9501003409361
 20
-152.9439805390209
 30
0.0
 10
112.0513861482024
 20
-152.9505262204429
 30
0.0
 10
112.2484456099587
 20
-152.9525932777341
 30
0.0
 10
112.3328504493473
 20
-152.9525932777341
 30
0.0
 10
112.3328504493473
 20
-152.9525932777341
 30
0.0
 10
112.838590466582
 20
-152.9525932777341
 30
0.0
 10
112.838590466582
 20
-152.9525932777341
 30
0.0
 10
112.9061143380929
 20
-152.9525932777341
 30
0.0
 10
113.0521863866675
 20
-152.9484591631517
 30
0.0
 10
113.1135090863049
 20
-152.9419134817298
 30
0.0
 10
113.1855115819467
 20
-152.9336452525652
 30
0.0
 10
113.2130723458287
 20
-152.9188313419786
 30
0.0
 10
113.2468342815841
 20
-152.8954046926789
 30
0.0
 10
113.2468342815841
 20
-152.8954046926789
 30
0.0
 10
113.4118543553276
 20
-153.0624918237135
 30
0.0
 10
113.4118543553276
 20
-153.0624918237135
 30
0.0
 10
113.341918916977
 20
-153.130360204773
 30
0.0
 10
113.2954101279261
 20
-153.234057578879
 30
0.0
 10
113.272327988175
 20
-153.2847004825121
 30
0.0
  0
HATCH
  5
DA
330
C3
100
AcDbEntity
  8
レイヤー 1
 62
   250
420
  2299925
440
 33554687
100
AcDbHatch
 10
0.0
 20
0.0
 30
0.0
210
0.0
220
0.0
230
1.0
  2
SOLID
 70
     1
 71
     1
 91
        2
 92
        1
 93
        1
 72
     4
 94
        3
 73
     0
 74
     0
 95
       29
 96
       25
 40
0.0
 40
0.0
 40
0.0
 40
0.0
 40
1.0
 40
1.0
 40
1.0
 40
2.0
 40
2.0
 40
2.0
 40
3.0
 40
3.0
 40
3.0
 40
4.0
 40
4.0
 40
4.0
 40
5.0
 40
5.0
 40
5.0
 40
6.0
 40
6.0
 40
6.0
 40
7.0
 40
7.0
 40
7.0
 40
8.0
 40
8.0
 40
8.0
 40
8.0
 10
112.7793348242357
 20
-152.6587266328423
 10
112.7793348242357
 20
-152.6587266328423
 10
112.4386148807445
 20
-152.6587266328423
 10
112.4386148807445
 20
-152.6587266328423
 10
112.3245822201827
 20
-152.6587266328423
 10
112.2081379927813
 20
-152.6628607474245
 10
112.093760822671
 20
-152.6776746580111
 10
112.093760822671
 20
-152.6776746580111
 10
112.093760822671
 20
-152.4682128525079
 10
112.093760822671
 20
-152.4682128525079
 10
112.2122721073636
 20
-152.4830267630945
 10
112.3859049198202
 20
-152.4871608776768
 10
112.4386148807445
 20
-152.4871608776768
 10
112.4386148807445
 20
-152.4871608776768
 10
112.7793348242357
 20
-152.4871608776768
 10
112.7793348242357
 20
-152.4871608776768
 10
112.8957790516372
 20
-152.4871608776768
 10
113.0118787694901
 20
-152.4830267630945
 10
113.1283229968915
 20
-152.4682128525079
 10
113.1283229968915
 20
-152.4682128525079
 10
113.1283229968915
 20
-152.6776746580111
 10
113.1283229968915
 20
-152.6776746580111
 10
112.9781168337346
 20
-152.6587266328423
 10
112.7941487348223
 20
-152.6587266328423
 10
112.7793348242357
 20
-152.6587266328423
 97
        0
 97
        1
330
D8
 92
        1
 93
        1
 72
     4
 94
        3
 73
     0
 74
     0
 95
       50
 96
       46
 40
0.0
 40
0.0
 40
0.0
 40
0.0
 40
1.0
 40
1.0
 40
1.0
 40
2.0
 40
2.0
 40
2.0
 40
3.0
 40
3.0
 40
3.0
 40
4.0
 40
4.0
 40
4.0
 40
5.0
 40
5.0
 40
5.0
 40
6.0
 40
6.0
 40
6.0
 40
7.0
 40
7.0
 40
7.0
 40
8.0
 40
8.0
 40
8.0
 40
9.0
 40
9.0
 40
9.0
 40
10.0
 40
10.0
 40
10.0
 40
11.0
 40
11.0
 40
11.0
 40
12.0
 40
12.0
 40
12.0
 40
13.0
 40
13.0
 40
13.0
 40
14.0
 40
14.0
 40
14.0
 40
15.0
 40
15.0
 40
15.0
 40
15.0
 10
113.272327988175
 20
-153.2847004825121
 10
113.1937798111113
 20
-153.462467409551
 10
113.0583875585409
 20
-153.6698621577631
 10
112.9209282486795
 20
-153.8093885249157
 10
112.7517740603537
 20
-153.9806097705326
 10
112.5888210439014
 20
-154.0694932340521
 10
112.2694606924187
 20
-154.2114311680444
 10
112.2694606924187
 20
-154.2114311680444
 10
112.100306504093
 20
-154.0229844450012
 10
112.100306504093
 20
-154.0229844450012
 10
112.2863416602964
 20
-153.99990230525
 10
112.4575629059134
 20
-153.9130858990217
 10
112.6101806359099
 20
-153.8073214676245
 10
112.8723524023374
 20
-153.6254204260034
 10
113.0628661826718
 20
-153.3122612463941
 10
113.1114420290138
 20
-153.130360204773
 10
113.1114420290138
 20
-153.130360204773
 10
112.4406819380356
 20
-153.130360204773
 10
112.4406819380356
 20
-153.130360204773
 10
112.2822075457142
 20
-153.130360204773
 10
111.990063448565
 20
-153.1386284339376
 10
111.8377902281169
 20
-153.1558539113638
 10
111.8377902281169
 20
-153.1558539113638
 10
111.8377902281169
 20
-152.9270995711432
 10
111.8377902281169
 20
-152.9270995711432
 10
111.8718966734209
 20
-152.9336452525652
 10
111.8970458704632
 20
-152.9398464244386
 10
111.9501003409361
 20
-152.9439805390209
 10
112.0513861482024
 20
-152.9505262204429
 10
112.2484456099587
 20
-152.9525932777341
 10
112.3328504493473
 20
-152.9525932777341
 10
112.3328504493473
 20
-152.9525932777341
 10
112.838590466582
 20
-152.9525932777341
 10
112.838590466582
 20
-152.9525932777341
 10
112.9061143380929
 20
-152.9525932777341
 10
113.0521863866675
 20
-152.9484591631517
 10
113.1135090863049
 20
-152.9419134817298
 10
113.1855115819467
 20
-152.9336452525652
 10
113.2130723458287
 20
-152.9188313419786
 10
113.2468342815841
 20
-152.8954046926789
 10
113.2468342815841
 20
-152.8954046926789
 10
113.4118543553276
 20
-153.0624918237135
 10
113.4118543553276
 20
-153.0624918237135
 10
113.341918916977
 20
-153.130360204773
 10
113.2954101279261
 20
-153.234057578879
 10
113.272327988175
 20
-153.2847004825121
 97
        0
 97
        1
330
D9
 75
     2
 76
     1
 98
        1
 10
0.0
 20
0.0
450
        0
451
        0
460
0.0
461
0.0
452
        0
462
0.0
453
        0
470

  0
SPLINE
  5
DB
330
C3
100
AcDbEntity
  8
レイヤー 1
100
AcDbSpline
210
0.0
220
0.0
230
1.0
 70
     9
 71
     3
 72
    50
 73
    46
 74
     0
 42
0.0000000001
 43
0.0000000001
 40
0.0
 40
0.0
 40
0.0
 40
0.0
 40
1.0
 40
1.0
 40
1.0
 40
2.0
 40
2.0
 40
2.0
 40
3.0
 40
3.0
 40
3.0
 40
4.0
 40
4.0
 40
4.0
 40
5.0
 40
5.0
 40
5.0
 40
6.0
 40
6.0
 40
6.0
 40
7.0
 40
7.0
 40
7.0
 40
8.0
 40
8.0
 40
8.0
 40
9.0
 40
9.0
 40
9.0
 40
10.0
 40
10.0
 40
10.0
 40
11.0
 40
11.0
 40
11.0
 40
12.0
 40
12.0
 40
12.0
 40
13.0
 40
13.0
 40
13.0
 40
14.0
 40
14.0
 40
14.0
 40
15.0
 40
15.0
 40
15.0
 40
15.0
 10
114.982473387053
 20
-152.6439127222557
 30
0.0
 10
114.7730115815498
 20
-152.8575086423411
 30
0.0
 10
114.7013535954566
 20
-152.9295111379829
 30
0.0
 10
114.5594156614643
 20
-153.047677913127
 30
0.0
 10
114.5594156614643
 20
-153.047677913127
 30
0.0
 10
114.5594156614643
 20
-153.6147406299991
 30
0.0
 10
114.5594156614643
 20
-153.6147406299991
 30
0.0
 10
114.5594156614643
 20
-153.764946793156
 30
0.0
 10
114.5659613428863
 20
-153.7838948183248
 30
0.0
 10
114.5700954574686
 20
-153.9616617453637
 30
0.0
 10
114.5721625147597
 20
-154.0929198833518
 30
0.0
 10
114.5783636866332
 20
-154.1414957296938
 30
0.0
 10
114.5849093680551
 20
-154.2007513720401
 30
0.0
 10
114.5849093680551
 20
-154.2007513720401
 30
0.0
 10
114.3585665946742
 20
-154.2007513720401
 30
0.0
 10
114.3585665946742
 20
-154.2007513720401
 30
0.0
 10
114.3627007092565
 20
-154.1563096402803
 30
0.0
 10
114.3668348238388
 20
-154.1098008512295
 30
0.0
 10
114.3668348238388
 20
-154.1011881125164
 30
0.0
 10
114.3668348238388
 20
-154.02091738771
 30
0.0
 10
114.3713134479697
 20
-153.6698621577631
 30
0.0
 10
114.3713134479697
 20
-153.5978596621214
 30
0.0
 10
114.3713134479697
 20
-153.5978596621214
 30
0.0
 10
114.3713134479697
 20
-153.1916829044104
 30
0.0
 10
114.3713134479697
 20
-153.1916829044104
 30
0.0
 10
114.1894124063485
 20
-153.3163953609764
 30
0.0
 10
113.9947645114318
 20
-153.4266384165044
 30
0.0
 10
113.7915038778021
 20
-153.5131103131842
 30
0.0
 10
113.7915038778021
 20
-153.5131103131842
 30
0.0
 10
113.5885877537209
 20
-153.3501572967319
 30
0.0
 10
113.5885877537209
 20
-153.3501572967319
 30
0.0
 10
113.7112331529958
 20
-153.3143283036853
 30
0.0
 10
113.9672037475498
 20
-153.2402587507524
 30
0.0
 10
114.3120578056234
 20
-152.9842881561983
 30
0.0
 10
114.527720783
 20
-152.8258137638769
 30
0.0
 10
114.7203016206255
 20
-152.6373670408337
 30
0.0
 10
114.8725748410735
 20
-152.4172254393262
 30
0.0
 10
114.8725748410735
 20
-152.4172254393262
 30
0.0
 10
115.065155678699
 20
-152.5612304306097
 30
0.0
 10
115.065155678699
 20
-152.5612304306097
 30
0.0
 10
115.0779025319944
 20
-152.5719102266139
 30
0.0
 10
115.086170761159
 20
-152.5867241372005
 30
0.0
 10
115.086170761159
 20
-152.599470990496
 30
0.0
 10
115.086170761159
 20
-152.6394340981248
 30
0.0
 10
115.0482747108213
 20
-152.6394340981248
 30
0.0
 10
114.982473387053
 20
-152.6439127222557
 30
0.0
  0
HATCH
  5
DC
330
C3
100
AcDbEntity
  8
レイヤー 1
 62
   250
420
  2299925
440
 33554687
100
AcDbHatch
 10
0.0
 20
0.0
 30
0.0
210
0.0
220
0.0
230
1.0
  2
SOLID
 70
     1
 71
     1
 91
        1
 92
        1
 93
        1
 72
     4
 94
        3
 73
     0
 74
     0
 95
       50
 96
       46
 40
0.0
 40
0.0
 40
0.0
 40
0.0
 40
1.0
 40
1.0
 40
1.0
 40
2.0
 40
2.0
 40
2.0
 40
3.0
 40
3.0
 40
3.0
 40
4.0
 40
4.0
 40
4.0
 40
5.0
 40
5.0
 40
5.0
 40
6.0
 40
6.0
 40
6.0
 40
7.0
 40
7.0
 40
7.0
 40
8.0
 40
8.0
 40
8.0
 40
9.0
 40
9.0
 40
9.0
 40
10.0
 40
10.0
 40
10.0
 40
11.0
 40
11.0
 40
11.0
 40
12.0
 40
12.0
 40
12.0
 40
13.0
 40
13.0
 40
13.0
 40
14.0
 40
14.0
 40
14.0
 40
15.0
 40
15.0
 40
15.0
 40
15.0
 10
114.982473387053
 20
-152.6439127222557
 10
114.7730115815498
 20
-152.8575086423411
 10
114.7013535954566
 20
-152.9295111379829
 10
114.5594156614643
 20
-153.047677913127
 10
114.5594156614643
 20
-153.047677913127
 10
114.5594156614643
 20
-153.6147406299991
 10
114.5594156614643
 20
-153.6147406299991
 10
114.5594156614643
 20
-153.764946793156
 10
114.5659613428863
 20
-153.7838948183248
 10
114.5700954574686
 20
-153.9616617453637
 10
114.5721625147597
 20
-154.0929198833518
 10
114.5783636866332
 20
-154.1414957296938
 10
114.5849093680551
 20
-154.2007513720401
 10
114.5849093680551
 20
-154.2007513720401
 10
114.3585665946742
 20
-154.2007513720401
 10
114.3585665946742
 20
-154.2007513720401
 10
114.3627007092565
 20
-154.1563096402803
 10
114.3668348238388
 20
-154.1098008512295
 10
114.3668348238388
 20
-154.1011881125164
 10
114.3668348238388
 20
-154.02091738771
 10
114.3713134479697
 20
-153.6698621577631
 10
114.3713134479697
 20
-153.5978596621214
 10
114.3713134479697
 20
-153.5978596621214
 10
114.3713134479697
 20
-153.1916829044104
 10
114.3713134479697
 20
-153.1916829044104
 10
114.1894124063485
 20
-153.3163953609764
 10
113.9947645114318
 20
-153.4266384165044
 10
113.7915038778021
 20
-153.5131103131842
 10
113.7915038778021
 20
-153.5131103131842
 10
113.5885877537209
 20
-153.3501572967319
 10
113.5885877537209
 20
-153.3501572967319
 10
113.7112331529958
 20
-153.3143283036853
 10
113.9672037475498
 20
-153.2402587507524
 10
114.3120578056234
 20
-152.9842881561983
 10
114.527720783
 20
-152.8258137638769
 10
114.7203016206255
 20
-152.6373670408337
 10
114.8725748410735
 20
-152.4172254393262
 10
114.8725748410735
 20
-152.4172254393262
 10
115.065155678699
 20
-152.5612304306097
 10
115.065155678699
 20
-152.5612304306097
 10
115.0779025319944
 20
-152.5719102266139
 10
115.086170761159
 20
-152.5867241372005
 10
115.086170761159
 20
-152.599470990496
 10
115.086170761159
 20
-152.6394340981248
 10
115.0482747108213
 20
-152.6394340981248
 10
114.982473387053
 20
-152.6439127222557
 97
        0
 97
        1
330
DB
 75
     2
 76
     1
 98
        1
 10
0.0
 20
0.0
450
        0
451
        0
460
0.0
461
0.0
452
        0
462
0.0
453
        0
470

  0
SPLINE
  5
DD
330
C3
100
AcDbEntity
  8
レイヤー 1
100
AcDbSpline
210
0.0
220
0.0
230
1.0
 70
     9
 71
     3
 72
    50
 73
    46
 74
     0
 42
0.0000000001
 43
0.0000000001
 40
0.0
 40
0.0
 40
0.0
 40
0.0
 40
1.0
 40
1.0
 40
1.0
 40
2.0
 40
2.0
 40
2.0
 40
3.0
 40
3.0
 40
3.0
 40
4.0
 40
4.0
 40
4.0
 40
5.0
 40
5.0
 40
5.0
 40
6.0
 40
6.0
 40
6.0
 40
7.0
 40
7.0
 40
7.0
 40
8.0
 40
8.0
 40
8.0
 40
9.0
 40
9.0
 40
9.0
 40
10.0
 40
10.0
 40
10.0
 40
11.0
 40
11.0
 40
11.0
 40
12.0
 40
12.0
 40
12.0
 40
13.0
 40
13.0
 40
13.0
 40
14.0
 40
14.0
 40
14.0
 40
15.0
 40
15.0
 40
15.0
 40
15.0
 10
116.6908962381884
 20
-153.1706678219504
 30
0.0
 10
116.6295735385509
 20
-153.2423258080436
 30
0.0
 10
116.369124319866
 20
-153.5596191022351
 30
0.0
 10
116.3122802443594
 20
-153.6233533687122
 30
0.0
 10
116.396685083748
 20
-153.7205050613962
 30
0.0
 10
116.4476724969297
 20
-153.7838948183248
 30
0.0
 10
116.5131293111495
 20
-153.8748453391354
 30
0.0
 10
116.5131293111495
 20
-153.8748453391354
 30
0.0
 10
116.3291612122371
 20
-154.0126491585454
 30
0.0
 10
116.3291612122371
 20
-154.0126491585454
 30
0.0
 10
116.1937689596668
 20
-153.8007757862026
 30
0.0
 10
116.0222032045014
 20
-153.5768445796613
 30
0.0
 10
115.7283365596096
 20
-153.3777180606139
 30
0.0
 10
115.7283365596096
 20
-153.3777180606139
 30
0.0
 10
115.8764756654753
 20
-153.2233777828747
 30
0.0
 10
115.8764756654753
 20
-153.2233777828747
 30
0.0
 10
115.9863742114548
 20
-153.303648507681
 30
0.0
 10
116.0900715855608
 20
-153.3925319712005
 30
0.0
 10
116.1872232782448
 20
-153.4879611161419
 30
0.0
 10
116.2550916593042
 20
-153.4118245059179
 30
0.0
 10
116.4580077833855
 20
-153.1682562551107
 30
0.0
 10
116.5913329786646
 20
-152.9398464244386
 30
0.0
 10
116.5913329786646
 20
-152.9398464244386
 30
0.0
 10
115.9185058303954
 20
-152.9398464244386
 30
0.0
 10
115.9185058303954
 20
-152.9398464244386
 30
0.0
 10
115.7937933738293
 20
-152.9398464244386
 30
0.0
 10
115.5419568938576
 20
-152.9484591631517
 30
0.0
 10
115.3324950883543
 20
-152.9587944496075
 30
0.0
 10
115.3324950883543
 20
-152.9587944496075
 30
0.0
 10
115.3324950883543
 20
-152.7389973576486
 30
0.0
 10
115.3324950883543
 20
-152.7389973576486
 30
0.0
 10
115.5168076968152
 20
-152.7579453828174
 30
0.0
 10
115.7217908781876
 20
-152.7620794973997
 30
0.0
 10
115.9102376012308
 20
-152.7620794973997
 30
0.0
 10
115.9102376012308
 20
-152.7620794973997
 30
0.0
 10
116.4135660516258
 20
-152.7620794973997
 30
0.0
 10
116.4135660516258
 20
-152.7620794973997
 30
0.0
 10
116.7522189378258
 20
-152.7620794973997
 30
0.0
 10
116.7966606695855
 20
-152.7472655868132
 30
0.0
 10
116.878998451683
 20
-152.7073024791843
 30
0.0
 10
116.878998451683
 20
-152.7073024791843
 30
0.0
 10
117.0460855827176
 20
-152.8657768715057
 30
0.0
 10
117.0460855827176
 20
-152.8657768715057
 30
0.0
 10
116.8938123622696
 20
-152.9377793671475
 30
0.0
 10
116.7501518805347
 20
-153.1007323835998
 30
0.0
 10
116.6908962381884
 20
-153.1706678219504
 30
0.0
  0
HATCH
  5
DE
330
C3
100
AcDbEntity
  8
レイヤー 1
 62
   250
420
  2299925
440
 33554687
100
AcDbHatch
 10
0.0
 20
0.0
 30
0.0
210
0.0
220
0.0
230
1.0
  2
SOLID
 70
     1
 71
     1
 91
        1
 92
        1
 93
        1
 72
     4
 94
        3
 73
     0
 74
     0
 95
       50
 96
       46
 40
0.0
 40
0.0
 40
0.0
 40
0.0
 40
1.0
 40
1.0
 40
1.0
 40
2.0
 40
2.0
 40
2.0
 40
3.0
 40
3.0
 40
3.0
 40
4.0
 40
4.0
 40
4.0
 40
5.0
 40
5.0
 40
5.0
 40
6.0
 40
6.0
 40
6.0
 40
7.0
 40
7.0
 40
7.0
 40
8.0
 40
8.0
 40
8.0
 40
9.0
 40
9.0
 40
9.0
 40
10.0
 40
10.0
 40
10.0
 40
11.0
 40
11.0
 40
11.0
 40
12.0
 40
12.0
 40
12.0
 40
13.0
 40
13.0
 40
13.0
 40
14.0
 40
14.0
 40
14.0
 40
15.0
 40
15.0
 40
15.0
 40
15.0
 10
116.6908962381884
 20
-153.1706678219504
 10
116.6295735385509
 20
-153.2423258080436
 10
116.369124319866
 20
-153.5596191022351
 10
116.3122802443594
 20
-153.6233533687122
 10
116.396685083748
 20
-153.7205050613962
 10
116.4476724969297
 20
-153.7838948183248
 10
116.5131293111495
 20
-153.8748453391354
 10
116.5131293111495
 20
-153.8748453391354
 10
116.3291612122371
 20
-154.0126491585454
 10
116.3291612122371
 20
-154.0126491585454
 10
116.1937689596668
 20
-153.8007757862026
 10
116.0222032045014
 20
-153.5768445796613
 10
115.7283365596096
 20
-153.3777180606139
 10
115.7283365596096
 20
-153.3777180606139
 10
115.8764756654753
 20
-153.2233777828747
 10
115.8764756654753
 20
-153.2233777828747
 10
115.9863742114548
 20
-153.303648507681
 10
116.0900715855608
 20
-153.3925319712005
 10
116.1872232782448
 20
-153.4879611161419
 10
116.2550916593042
 20
-153.4118245059179
 10
116.4580077833855
 20
-153.1682562551107
 10
116.5913329786646
 20
-152.9398464244386
 10
116.5913329786646
 20
-152.9398464244386
 10
115.9185058303954
 20
-152.9398464244386
 10
115.9185058303954
 20
-152.9398464244386
 10
115.7937933738293
 20
-152.9398464244386
 10
115.5419568938576
 20
-152.9484591631517
 10
115.3324950883543
 20
-152.9587944496075
 10
115.3324950883543
 20
-152.9587944496075
 10
115.3324950883543
 20
-152.7389973576486
 10
115.3324950883543
 20
-152.7389973576486
 10
115.5168076968152
 20
-152.7579453828174
 10
115.7217908781876
 20
-152.7620794973997
 10
115.9102376012308
 20
-152.7620794973997
 10
115.9102376012308
 20
-152.7620794973997
 10
116.4135660516258
 20
-152.7620794973997
 10
116.4135660516258
 20
-152.7620794973997
 10
116.7522189378258
 20
-152.7620794973997
 10
116.7966606695855
 20
-152.7472655868132
 10
116.878998451683
 20
-152.7073024791843
 10
116.878998451683
 20
-152.7073024791843
 10
117.0460855827176
 20
-152.8657768715057
 10
117.0460855827176
 20
-152.8657768715057
 10
116.8938123622696
 20
-152.9377793671475
 10
116.7501518805347
 20
-153.1007323835998
 10
116.6908962381884
 20
-153.1706678219504
 97
        0
 97
        1
330
DD
 75
     2
 76
     1
 98
        1
 10
0.0
 20
0.0
450
        0
451
        0
460
0.0
461
0.0
452
        0
462
0.0
453
        0
470

  0
SPLINE
  5
DF
330
C3
100
AcDbEntity
  8
レイヤー 1
100
AcDbSpline
210
0.0
220
0.0
230
1.0
 70
     9
 71
     3
 72
    29
 73
    25
 74
     0
 42
0.0000000001
 43
0.0000000001
 40
0.0
 40
0.0
 40
0.0
 40
0.0
 40
1.0
 40
1.0
 40
1.0
 40
2.0
 40
2.0
 40
2.0
 40
3.0
 40
3.0
 40
3.0
 40
4.0
 40
4.0
 40
4.0
 40
5.0
 40
5.0
 40
5.0
 40
6.0
 40
6.0
 40
6.0
 40
7.0
 40
7.0
 40
7.0
 40
8.0
 40
8.0
 40
8.0
 40
8.0
 10
118.3145697403866
 20
-153.413891563209
 30
0.0
 10
118.3145697403866
 20
-153.413891563209
 30
0.0
 10
117.8301893151605
 20
-153.413891563209
 30
0.0
 10
117.8301893151605
 20
-153.413891563209
 30
0.0
 10
117.8026285512785
 20
-153.413891563209
 30
0.0
 10
117.485335257087
 20
-153.413891563209
 30
0.0
 10
117.2738063942926
 20
-153.4390407602513
 30
0.0
 10
117.2738063942926
 20
-153.4390407602513
 30
0.0
 10
117.2738063942926
 20
-153.2085638722881
 30
0.0
 10
117.2738063942926
 20
-153.2085638722881
 30
0.0
 10
117.4322807866141
 20
-153.2319905215878
 30
0.0
 10
117.6227945669484
 20
-153.234057578879
 30
0.0
 10
117.8301893151605
 20
-153.234057578879
 30
0.0
 10
117.8301893151605
 20
-153.234057578879
 30
0.0
 10
118.3145697403866
 20
-153.234057578879
 30
0.0
 10
118.3145697403866
 20
-153.234057578879
 30
0.0
 10
118.5006048965901
 20
-153.234057578879
 30
0.0
 10
118.6869845623421
 20
-153.2319905215878
 30
0.0
 10
118.8709526612545
 20
-153.2085638722881
 30
0.0
 10
118.8709526612545
 20
-153.2085638722881
 30
0.0
 10
118.8709526612545
 20
-153.4390407602513
 30
0.0
 10
118.8709526612545
 20
-153.4390407602513
 30
0.0
 10
118.6869845623421
 20
-153.4159586205002
 30
0.0
 10
118.4392821969527
 20
-153.413891563209
 30
0.0
 10
118.3145697403866
 20
-153.413891563209
 30
0.0
  0
HATCH
  5
E0
330
C3
100
AcDbEntity
  8
レイヤー 1
 62
   250
420
  2299925
440
 33554687
100
AcDbHatch
 10
0.0
 20
0.0
 30
0.0
210
0.0
220
0.0
230
1.0
  2
SOLID
 70
     1
 71
     1
 91
        1
 92
        1
 93
        1
 72
     4
 94
        3
 73
     0
 74
     0
 95
       29
 96
       25
 40
0.0
 40
0.0
 40
0.0
 40
0.0
 40
1.0
 40
1.0
 40
1.0
 40
2.0
 40
2.0
 40
2.0
 40
3.0
 40
3.0
 40
3.0
 40
4.0
 40
4.0
 40
4.0
 40
5.0
 40
5.0
 40
5.0
 40
6.0
 40
6.0
 40
6.0
 40
7.0
 40
7.0
 40
7.0
 40
8.0
 40
8.0
 40
8.0
 40
8.0
 10
118.3145697403866
 20
-153.413891563209
 10
118.3145697403866
 20
-153.413891563209
 10
117.8301893151605
 20
-153.413891563209
 10
117.8301893151605
 20
-153.413891563209
 10
117.8026285512785
 20
-153.413891563209
 10
117.485335257087
 20
-153.413891563209
 10
117.2738063942926
 20
-153.4390407602513
 10
117.2738063942926
 20
-153.4390407602513
 10
117.2738063942926
 20
-153.2085638722881
 10
117.2738063942926
 20
-153.2085638722881
 10
117.4322807866141
 20
-153.2319905215878
 10
117.6227945669484
 20
-153.234057578879
 10
117.8301893151605
 20
-153.234057578879
 10
117.8301893151605
 20
-153.234057578879
 10
118.3145697403866
 20
-153.234057578879
 10
118.3145697403866
 20
-153.234057578879
 10
118.5006048965901
 20
-153.234057578879
 10
118.6869845623421
 20
-153.2319905215878
 10
118.8709526612545
 20
-153.2085638722881
 10
118.8709526612545
 20
-153.2085638722881
 10
118.8709526612545
 20
-153.4390407602513
 10
118.8709526612545
 20
-153.4390407602513
 10
118.6869845623421
 20
-153.4159586205002
 10
118.4392821969527
 20
-153.413891563209
 10
118.3145697403866
 20
-153.413891563209
 97
        0
 97
        1
330
DF
 75
     2
 76
     1
 98
        1
 10
0.0
 20
0.0
450
        0
451
        0
460
0.0
461
0.0
452
        0
462
0.0
453
        0
470

  0
ENDBLK
  5
C6
330
C3
100
AcDbEntity
  8
0
100
AcDbBlockEnd
  0
ENDSEC
  0
SECTION
  2
ENTITIES
  0
CIRCLE
  5
79
330
70
100
AcDbEntity
  8
レイヤー 1
 62
    18
420
        0
370
     9
100
AcDbCircle
 10
100.953788270342
 20
-162.505376377731
 30
0.0
 40
0.0999066653797365
  0
LINE
  5
7A
330
70
100
AcDbEntity
  8
レイヤー 1
 62
    18
420
        0
370
     9
100
AcDbLine
 10
91.89888212159656
 20
-162.5053765077142
 30
0.0
 11
100.8987873579186
 21
-162.5053765077142
 31
0.0
  0
LINE
  5
7B
330
70
100
AcDbEntity
  8
レイヤー 1
 62
    18
420
        0
370
     9
100
AcDbLine
 10
100.9537560803253
 20
-149.1351303429823
 30
0.0
 11
100.9537560803253
 21
-163.5051532244792
 31
0.0
  0
CIRCLE
  5
7C
330
70
100
AcDbEntity
  8
レイヤー 1
 62
    18
420
        0
370
     9
100
AcDbCircle
 10
91.95378852690531
 20
-162.505376377731
 30
0.0
 40
0.0999066653798167
  0
LINE
  5
7D
330
70
100
AcDbEntity
  8
レイヤー 1
 62
    18
420
        0
370
     9
100
AcDbLine
 10
91.95375633688875
 20
-159.9820967173784
 30
0.0
 11
91.95375633688875
 21
-163.5051532244792
 31
0.0
  0
INSERT
  5
7F
330
70
100
AcDbEntity
  8
レイヤー 1
100
AcDbBlockReference
  2
Block_0
 10
0.0
 20
0.0
 30
0.0
  0
LINE
  5
85
330
70
100
AcDbEntity
  8
レイヤー 1
 62
    18
420
        0
370
    25
100
AcDbLine
 10
91.54319521034237
 20
-158.4211487012363
 30
0.0
 11
90.9431952104925
 21
-158.4156453671013
 31
0.0
  0
CIRCLE
  5
86
330
70
100
AcDbEntity
  8
レイヤー 1
 62
    18
420
        0
370
     9
100
AcDbCircle
 10
86.94319493959929
 20
-133.4211535370252
 30
0.0
 40
0.0999066653797766
  0
CIRCLE
  5
87
330
70
100
AcDbEntity
  8
レイヤー 1
 62
    18
420
        0
370
     9
100
AcDbCircle
 10
86.94319493959929
 20
-158.4211487012363
 30
0.0
 40
0.0999066653798167
  0
CIRCLE
  5
88
330
70
100
AcDbEntity
  8
レイヤー 1
 62
    18
420
        0
370
     9
100
AcDbCircle
 10
124.9431945741098
 20
-145.9215057624703
 30
0.0
 40
0.099906664117715
  0
SPLINE
  5
89
330
70
100
AcDbEntity
  8
レイヤー 1
 62
    18
420
        0
370
     9
100
AcDbSpline
210
0.0
220
0.0
230
1.0
 70
     9
 71
     3
 72
    17
 73
    13
 74
     0
 42
0.0000000001
 43
0.0000000001
 40
0.0
 40
0.0
 40
0.0
 40
0.0
 40
1.0
 40
1.0
 40
1.0
 40
2.0
 40
2.0
 40
2.0
 40
3.0
 40
3.0
 40
3.0
 40
4.0
 40
4.0
 40
4.0
 40
4.0
 10
124.9431945741098
 20
-133.5217602787856
 30
0.0
 10
124.9983337393698
 20
-133.5217602787856
 30
0.0
 10
125.0431012382277
 20
-133.4769575021511
 30
0.0
 10
125.0431012382277
 20
-133.4211480591305
 30
0.0
 10
125.0431012382277
 20
-133.3660441716474
 30
0.0
 10
124.9983337393698
 20
-133.3212413950123
 30
0.0
 10
124.9431945741098
 20
-133.3212413950123
 30
0.0
 10
124.8880906866268
 20
-133.3212413950123
 30
0.0
 10
124.843287909992
 20
-133.3660441716474
 30
0.0
 10
124.843287909992
 20
-133.4211480591305
 30
0.0
 10
124.843287909992
 20
-133.4769575021511
 30
0.0
 10
124.8880906866268
 20
-133.5217602787856
 30
0.0
 10
124.9431945741098
 20
-133.5217602787856
 30
0.0
  0
LINE
  5
8A
330
70
100
AcDbEntity
  8
レイヤー 1
 62
    18
420
        0
370
     9
100
AcDbLine
 10
124.9431945741098
 20
-133.4215008233174
 30
0.0
 11
124.9431945741098
 21
-145.9215008201924
 31
0.0
  0
LINE
  5
8B
330
70
100
AcDbEntity
  8
レイヤー 1
 62
    18
420
        0
370
     9
100
AcDbLine
 10
125.9312306759821
 20
-133.4211535316894
 30
0.0
 11
105.9546004851601
 21
-133.4211535316894
 31
0.0
  0
LINE
  5
8C
330
70
100
AcDbEntity
  8
レイヤー 1
 62
    18
420
        0
370
     9
100
AcDbLine
 10
125.9312545489023
 20
-145.9215057624702
 30
0.0
 11
122.8713307380786
 21
-145.9215057624702
 31
0.0
  0
INSERT
  5
8E
330
70
100
AcDbEntity
  8
レイヤー 1
100
AcDbBlockReference
  2
Block_1
 10
0.0
 20
0.0
 30
0.0
  0
LINE
  5
9D
330
70
100
AcDbEntity
  8
レイヤー 1
 62
    18
420
        0
370
     9
100
AcDbLine
 10
86.94319493959913
 20
-133.421148682014
 30
0.0
 11
86.94319493959913
 21
-158.4211486757647
 31
0.0
  0
LINE
  5
9E
330
70
100
AcDbEntity
  8
レイヤー 1
 62
    18
420
        0
370
     9
100
AcDbLine
 10
85.65333355103314
 20
-133.4211535370255
 30
0.0
 11
90.01345521660987
 21
-133.4211535370255
 31
0.0
  0
LINE
  5
9F
330
70
100
AcDbEntity
  8
レイヤー 1
 62
    18
420
        0
370
     9
100
AcDbLine
 10
85.65333355103314
 20
-158.4211487012363
 30
0.0
 11
90.01345521660987
 21
-158.4211487012363
 31
0.0
  0
INSERT
  5
A1
330
70
100
AcDbEntity
  8
レイヤー 1
100
AcDbBlockReference
  2
Block_3
 10
0.0
 20
0.0
 30
0.0
  0
LINE
  5
AC
330
70
100
AcDbEntity
  8
レイヤー 1
 62
    18
420
        0
370
     9
100
AcDbLine
 10
100.8987882767075
 20
-162.505376377731
 30
0.0
 11
120.8966397988946
 21
-162.505376377731
 31
0.0
  0
CIRCLE
  5
AD
330
70
100
AcDbEntity
  8
レイヤー 1
 62
    18
420
        0
370
     9
100
AcDbCircle
 10
120.9432600968381
 20
-162.5106301720016
 30
0.0
 40
0.0999066653795761
  0
LINE
  5
AE
330
70
100
AcDbEntity
  8
レイヤー 1
 62
    18
420
        0
370
     9
100
AcDbLine
 10
120.9431639211002
 20
-147.9838381820656
 30
0.0
 11
120.9431947468166
 21
-163.5104213124419
 31
0.0
  0
INSERT
  5
B0
330
70
100
AcDbEntity
  8
レイヤー 1
100
AcDbBlockReference
  2
Block_5
 10
0.0
 20
0.0
 30
0.0
  0
LWPOLYLINE
  5
BC
330
70
100
AcDbEntity
  8
レイヤー 1
  6
AI-Linetype-0
 62
   154
420
    23468
370
    25
100
AcDbPolyline
 90
        5
 70
     0
 43
0.0
 10
120.9431945877625
 20
-147.1811586328442
 10
100.2840221241358
 20
-147.5811586327441
 10
100.2831639582651
 20
-135.081157110998
 10
92.59923526788382
 20
-135.081157110998
 10
92.14316957768165
 20
-158.484897391569
  0
LINE
  5
BE
330
70
100
AcDbEntity
  8
レイヤー 1
 62
   250
420
  2299925
370
     9
100
AcDbLine
 10
110.5957531063887
 20
-147.753415508997
 30
0.0
 11
110.5957531063887
 21
-152.135826204585
 31
0.0
  0
INSERT
  5
C0
330
70
100
AcDbEntity
  8
レイヤー 1
100
AcDbBlockReference
  2
Block_7
 10
0.0
 20
0.0
 30
0.0
  0
LWPOLYLINE
  5
E1
330
70
100
AcDbEntity
  8
レイヤー 1
 62
    18
420
        0
370
    25
100
AcDbPolyline
 90
       16
 70
     1
 43
0.0
 10
101.943191540755
 20
-145.9211550727754
 10
101.943191540755
 20
-134.4211571101556
 10
101.943191540755
 20
-133.4211535500218
 10
100.9431879806209
 20
-133.4211535500218
 10
91.94319900310745
 20
-133.4211535500218
 10
90.94319544297333
 20
-133.4211535500218
 10
90.94319544297333
 20
-134.4211571101556
 10
90.94319544297333
 20
-158.4211493052188
 10
91.54319900320786
 20
-158.4211493052188
 10
91.94319900310745
 20
-134.4211571101556
 10
100.9431879806209
 20
-134.4211571101556
 10
100.9431879806209
 20
-145.9211550727754
 10
100.9431879806209
 20
-146.9211586329095
 10
101.943191540755
 20
-146.9211586329095
 10
120.9431945877625
 20
-146.5211586330092
 10
120.9431945877625
 20
-145.9211550727754
  0
ENDSEC
  0
SECTION
  2
OBJECTS
  0
DICTIONARY
  5
C
330
0
100
AcDbDictionary
281
     1
  3
ACAD_COLOR
350
63
  3
ACAD_DETAILVIEWSTYLE
350
6A
  3
ACAD_GROUP
350
D
  3
ACAD_LAYOUT
350
62
  3
ACAD_MATERIAL
350
10
  3
ACAD_MLEADERSTYLE
350
66
  3
ACAD_MLINESTYLE
350
5F
  3
ACAD_PLOTSETTINGS
350
61
  3
ACAD_PLOTSTYLENAME
350
E
  3
ACAD_SCALELIST
350
42
  3
ACAD_SECTIONVIEWSTYLE
350
68
  3
ACAD_TABLESTYLE
350
64
  3
ACAD_VISUALSTYLE
350
29
  3
ACDB_RECOMPOSE_DATA
350
EA
  3
AcDbVariableDictionary
350
E2
  0
DICTIONARY
  5
63
102
{ACAD_REACTORS
330
C
102
}
330
C
100
AcDbDictionary
281
     1
  0
DICTIONARY
  5
6A
102
{ACAD_REACTORS
330
C
102
}
330
C
100
AcDbDictionary
281
     1
  3
Imperial24
350
6B
  0
DICTIONARY
  5
D
102
{ACAD_REACTORS
330
C
102
}
330
C
100
AcDbDictionary
281
     1
  0
DICTIONARY
  5
62
102
{ACAD_REACTORS
330
C
102
}
330
C
100
AcDbDictionary
281
     1
  3
Layout1
350
6F
  3
Layout2
350
77
  3
Model
350
73
  0
DICTIONARY
  5
10
102
{ACAD_REACTORS
330
C
102
}
330
C
100
AcDbDictionary
281
     1
  3
ByBlock
350
19
  3
ByLayer
350
11
  3
Global
350
21
  0
DICTIONARY
  5
66
102
{ACAD_REACTORS
330
C
102
}
330
C
100
AcDbDictionary
281
     1
  3
Standard
350
67
  0
DICTIONARY
  5
5F
102
{ACAD_REACTORS
330
C
102
}
330
C
100
AcDbDictionary
281
     1
  3
Standard
350
60
  0
DICTIONARY
  5
61
102
{ACAD_REACTORS
330
C
102
}
330
C
100
AcDbDictionary
281
     1
  0
ACDBDICTIONARYWDFLT
  5
E
102
{ACAD_REACTORS
330
C
102
}
330
C
100
AcDbDictionary
281
     1
  3
Normal
350
F
100
AcDbDictionaryWithDefault
340
F
  0
DICTIONARY
  5
42
102
{ACAD_REACTORS
330
C
102
}
330
C
100
AcDbDictionary
281
     1
  3
A0
350
43
  3
A1
350
44
  3
A2
350
45
  3
A3
350
46
  3
A4
350
47
  3
A5
350
48
  3
A6
350
49
  3
A7
350
4A
  3
A8
350
4B
  3
A9
350
4C
  3
B0
350
4D
  3
B1
350
4E
  3
B2
350
4F
  3
B3
350
50
  3
B4
350
51
  3
B5
350
52
  3
B6
350
53
  0
DICTIONARY
  5
68
102
{ACAD_REACTORS
330
C
102
}
330
C
100
AcDbDictionary
281
     1
  3
Imperial24
350
69
  0
DICTIONARY
  5
64
102
{ACAD_REACTORS
330
C
102
}
330
C
100
AcDbDictionary
281
     1
  3
Standard
350
65
  0
DICTIONARY
  5
29
102
{ACAD_REACTORS
330
C
102
}
330
C
100
AcDbDictionary
281
     1
  3
2dWireframe
350
2F
  3
Basic
350
2E
  3
Brighten
350
35
  3
ColorChange
350
39
  3
Conceptual
350
32
  3
Dim
350
34
  3
EdgeColorOff
350
41
  3
Facepattern
350
38
  3
Flat
350
2A
  3
FlatWithEdges
350
2B
  3
Gouraud
350
2C
  3
GouraudWithEdges
350
2D
  3
Hidden
350
31
  3
JitterOff
350
3F
  3
Linepattern
350
37
  3
OverhangOff
350
40
  3
Realistic
350
33
  3
Shaded
350
3E
  3
Shaded with edges
350
3D
  3
Shades of Gray
350
3A
  3
Sketchy
350
3B
  3
Thicken
350
36
  3
Wireframe
350
30
  3
X-Ray
350
3C
  0
XRECORD
  5
EA
102
{ACAD_REACTORS
330
C
102
}
330
C
100
AcDbXrecord
280
     1
 90
        1
330
65
  0
DICTIONARY
  5
E2
102
{ACAD_REACTORS
330
C
102
}
330
C
100
AcDbDictionary
281
     1
  3
CANNOSCALE
350
E7
  3
CMLEADERSTYLE
350
E4
  3
CTABLESTYLE
350
E3
  3
CVIEWDETAILSTYLE
350
E5
  3
CVIEWSECTIONSTYLE
350
E6
  0
ACDBDETAILVIEWSTYLE
  5
6B
102
{ACAD_XDICTIONARY
360
11F
102
}
102
{ACAD_REACTORS
330
6A
102
}
330
6A
100
AcDbModelDocViewStyle
 70
     0
  3
Imperial24
290
     0
100
AcDbDetailViewStyle
 70
     0
 71
     0
 90
        3
 71
     1
340
55
 62
   256
 40
0.24
340
0
 62
   256
 40
0.24
300

 40
0.36
280
     3
 71
     2
340
5D
 90
       25
 62
   256
 71
     3
340
55
 62
   256
 40
0.24
 90
        1
 40
0.75
 90
        1
300
%<\AcVar ViewType \f "%tc1">% %<\AcVar ViewDetailId>%\PSCALE %<\AcVar ViewScale \f "%sn">%
 71
     4
340
5D
 90
       25
 62
   256
340
5D
 90
       25
 62
   256
280
     0
  0
LAYOUT
  5
6F
102
{ACAD_REACTORS
330
62
102
}
330
62
100
AcDbPlotSettings
  1

  2

  4

  6

 40
0.0
 41
0.0
 42
0.0
 43
0.0
 44
0.0
 45
0.0
 46
0.0
 47
0.0
 48
0.0
 49
0.0
140
0.0
141
0.0
142
1.0
143
1.0
 70
   688
 72
     0
 73
     0
 74
     5
  7

 75
    16
147
1.0
 76
     0
 77
     2
 78
   300
148
0.0
149
0.0
100
AcDbLayout
  1
Layout1
 70
     1
 71
     1
 10
0.0
 20
0.0
 11
12.0
 21
9.0
 12
0.0
 22
0.0
 32
0.0
 14
0.0
 24
0.0
 34
0.0
 15
0.0
 25
0.0
 35
0.0
146
0.0
 13
0.0
 23
0.0
 33
0.0
 16
1.0
 26
0.0
 36
0.0
 17
0.0
 27
1.0
 37
0.0
 76
     0
330
6C
  0
LAYOUT
  5
77
102
{ACAD_REACTORS
330
62
102
}
330
62
100
AcDbPlotSettings
  1

  2

  4

  6

 40
0.0
 41
0.0
 42
0.0
 43
0.0
 44
0.0
 45
0.0
 46
0.0
 47
0.0
 48
0.0
 49
0.0
140
0.0
141
0.0
142
1.0
143
1.0
 70
   688
 72
     0
 73
     0
 74
     5
  7

 75
    16
147
1.0
 76
     0
 77
     2
 78
   300
148
0.0
149
0.0
100
AcDbLayout
  1
Layout2
 70
     1
 71
     2
 10
0.0
 20
0.0
 11
12.0
 21
9.0
 12
0.0
 22
0.0
 32
0.0
 14
0.0
 24
0.0
 34
0.0
 15
0.0
 25
0.0
 35
0.0
146
0.0
 13
0.0
 23
0.0
 33
0.0
 16
1.0
 26
0.0
 36
0.0
 17
0.0
 27
1.0
 37
0.0
 76
     0
330
74
  0
LAYOUT
  5
73
102
{ACAD_REACTORS
330
62
102
}
330
62
100
AcDbPlotSettings
  1

  2

  4

  6

 40
0.0
 41
0.0
 42
0.0
 43
0.0
 44
0.0
 45
0.0
 46
0.0
 47
0.0
 48
0.0
 49
0.0
140
0.0
141
0.0
142
1.0
143
1.0
 70
  1712
 72
     0
 73
     0
 74
     0
  7

 75
     0
147
1.0
 76
     0
 77
     2
 78
   300
148
0.0
149
0.0
100
AcDbLayout
  1
Model
 70
     1
 71
     0
 10
0.0
 20
0.0
 11
12.0
 21
9.0
 12
0.0
 22
0.0
 32
0.0
 14
0.0
 24
0.0
 34
0.0
 15
0.0
 25
0.0
 35
0.0
146
0.0
 13
0.0
 23
0.0
 33
0.0
 16
1.0
 26
0.0
 36
0.0
 17
0.0
 27
1.0
 37
0.0
 76
     0
330
70
  0
MATERIAL
  5
19
102
{ACAD_XDICTIONARY
360
1A
102
}
102
{ACAD_REACTORS
330
10
102
}
330
10
100
AcDbMaterial
  1
ByBlock
 72
     0
 43
0.0208333333333333
 43
0.0
 43
0.0
 43
0.0
 43
0.0
 43
0.0208333333333333
 43
0.0
 43
0.0
 43
0.0
 43
0.0
 43
1.0
 43
0.0
 43
0.0
 43
0.0
 43
0.0
 43
1.0
 77
     0
 47
0.0208333333333333
 47
0.0
 47
0.0
 47
0.0
 47
0.0
 47
0.0208333333333333
 47
0.0
 47
0.0
 47
0.0
 47
0.0
 47
1.0
 47
0.0
 47
0.0
 47
0.0
 47
0.0
 47
1.0
171
     0
 49
0.0208333333333333
 49
0.0
 49
0.0
 49
0.0
 49
0.0
 49
0.0208333333333333
 49
0.0
 49
0.0
 49
0.0
 49
0.0
 49
1.0
 49
0.0
 49
0.0
 49
0.0
 49
0.0
 49
1.0
175
     0
142
0.0208333333333333
142
0.0
142
0.0
142
0.0
142
0.0
142
0.0208333333333333
142
0.0
142
0.0
142
0.0
142
0.0
142
1.0
142
0.0
142
0.0
142
0.0
142
0.0
142
1.0
179
     0
144
0.0208333333333333
144
0.0
144
0.0
144
0.0
144
0.0
144
0.0208333333333333
144
0.0
144
0.0
144
0.0
144
0.0
144
1.0
144
0.0
144
0.0
144
0.0
144
0.0
144
1.0
147
0.0208333333333333
147
0.0
147
0.0
147
0.0
147
0.0
147
0.0208333333333333
147
0.0
147
0.0
147
0.0
147
0.0
147
1.0
147
0.0
147
0.0
147
0.0
147
0.0
147
1.0
  0
MATERIAL
  5
11
102
{ACAD_XDICTIONARY
360
12
102
}
102
{ACAD_REACTORS
330
10
102
}
330
10
100
AcDbMaterial
  1
ByLayer
 72
     0
 43
0.0208333333333333
 43
0.0
 43
0.0
 43
0.0
 43
0.0
 43
0.0208333333333333
 43
0.0
 43
0.0
 43
0.0
 43
0.0
 43
1.0
 43
0.0
 43
0.0
 43
0.0
 43
0.0
 43
1.0
 77
     0
 47
0.0208333333333333
 47
0.0
 47
0.0
 47
0.0
 47
0.0
 47
0.0208333333333333
 47
0.0
 47
0.0
 47
0.0
 47
0.0
 47
1.0
 47
0.0
 47
0.0
 47
0.0
 47
0.0
 47
1.0
171
     0
 49
0.0208333333333333
 49
0.0
 49
0.0
 49
0.0
 49
0.0
 49
0.0208333333333333
 49
0.0
 49
0.0
 49
0.0
 49
0.0
 49
1.0
 49
0.0
 49
0.0
 49
0.0
 49
0.0
 49
1.0
175
     0
142
0.0208333333333333
142
0.0
142
0.0
142
0.0
142
0.0
142
0.0208333333333333
142
0.0
142
0.0
142
0.0
142
0.0
142
1.0
142
0.0
142
0.0
142
0.0
142
0.0
142
1.0
179
     0
144
0.0208333333333333
144
0.0
144
0.0
144
0.0
144
0.0
144
0.0208333333333333
144
0.0
144
0.0
144
0.0
144
0.0
144
1.0
144
0.0
144
0.0
144
0.0
144
0.0
144
1.0
147
0.0208333333333333
147
0.0
147
0.0
147
0.0
147
0.0
147
0.0208333333333333
147
0.0
147
0.0
147
0.0
147
0.0
147
1.0
147
0.0
147
0.0
147
0.0
147
0.0
147
1.0
  0
MATERIAL
  5
21
102
{ACAD_XDICTIONARY
360
22
102
}
102
{ACAD_REACTORS
330
10
102
}
330
10
100
AcDbMaterial
  1
Global
 72
     0
 43
0.0208333333333333
 43
0.0
 43
0.0
 43
0.0
 43
0.0
 43
0.0208333333333333
 43
0.0
 43
0.0
 43
0.0
 43
0.0
 43
1.0
 43
0.0
 43
0.0
 43
0.0
 43
0.0
 43
1.0
 77
     0
 47
0.0208333333333333
 47
0.0
 47
0.0
 47
0.0
 47
0.0
 47
0.0208333333333333
 47
0.0
 47
0.0
 47
0.0
 47
0.0
 47
1.0
 47
0.0
 47
0.0
 47
0.0
 47
0.0
 47
1.0
171
     0
 49
0.0208333333333333
 49
0.0
 49
0.0
 49
0.0
 49
0.0
 49
0.0208333333333333
 49
0.0
 49
0.0
 49
0.0
 49
0.0
 49
1.0
 49
0.0
 49
0.0
 49
0.0
 49
0.0
 49
1.0
175
     0
142
0.0208333333333333
142
0.0
142
0.0
142
0.0
142
0.0
142
0.0208333333333333
142
0.0
142
0.0
142
0.0
142
0.0
142
1.0
142
0.0
142
0.0
142
0.0
142
0.0
142
1.0
179
     0
144
0.0208333333333333
144
0.0
144
0.0
144
0.0
144
0.0
144
0.0208333333333333
144
0.0
144
0.0
144
0.0
144
0.0
144
1.0
144
0.0
144
0.0
144
0.0
144
0.0
144
1.0
147
0.0208333333333333
147
0.0
147
0.0
147
0.0
147
0.0
147
0.0208333333333333
147
0.0
147
0.0
147
0.0
147
0.0
147
1.0
147
0.0
147
0.0
147
0.0
147
0.0
147
1.0
  0
MLEADERSTYLE
  5
67
102
{ACAD_XDICTIONARY
360
11B
102
}
102
{ACAD_REACTORS
330
66
102
}
330
66
100
AcDbMLeaderStyle
179
     2
170
     2
171
     1
172
     0
 90
        2
 40
0.0
 41
0.0
173
     1
 91
-1056964608
340
5B
 92
       -2
290
     1
 42
0.09
291
     1
 43
0.36
  3
Standard
 44
0.18
300

342
55
174
     1
178
     6
175
     1
176
     0
 93
-1056964608
 45
0.18
292
     0
297
     0
 46
0.18
 94
-1056964608
 47
1.0
 49
1.0
140
1.0
293
     1
141
0.0
294
     1
177
     0
142
1.0
295
     0
296
     0
143
0.125
271
     0
272
     9
273
     9
  0
MLINESTYLE
  5
60
102
{ACAD_REACTORS
330
5F
102
}
330
5F
100
AcDbMlineStyle
  2
STANDARD
 70
     0
  3

 62
   256
 51
90.0
 52
90.0
 71
     2
 49
0.5
 62
   256
  6
BYLAYER
 49
-0.5
 62
   256
  6
BYLAYER
  0
ACDBPLACEHOLDER
  5
F
102
{ACAD_REACTORS
330
E
102
}
330
E
  0
SCALE
  5
43
102
{ACAD_REACTORS
330
42
102
}
330
42
100
AcDbScale
 70
     0
300
1:1
140
1.0
141
1.0
290
     1
  0
SCALE
  5
44
102
{ACAD_REACTORS
330
42
102
}
330
42
100
AcDbScale
 70
     0
300
1/128" = 1'-0"
140
0.0078125
141
12.0
290
     0
  0
SCALE
  5
45
102
{ACAD_REACTORS
330
42
102
}
330
42
100
AcDbScale
 70
     0
300
1/64" = 1'-0"
140
0.015625
141
12.0
290
     0
  0
SCALE
  5
46
102
{ACAD_REACTORS
330
42
102
}
330
42
100
AcDbScale
 70
     0
300
1/32" = 1'-0"
140
0.03125
141
12.0
290
     0
  0
SCALE
  5
47
102
{ACAD_REACTORS
330
42
102
}
330
42
100
AcDbScale
 70
     0
300
1/16" = 1'-0"
140
0.0625
141
12.0
290
     0
  0
SCALE
  5
48
102
{ACAD_REACTORS
330
42
102
}
330
42
100
AcDbScale
 70
     0
300
3/32" = 1'-0"
140
0.09375
141
12.0
290
     0
  0
SCALE
  5
49
102
{ACAD_REACTORS
330
42
102
}
330
42
100
AcDbScale
 70
     0
300
1/8" = 1'-0"
140
0.125
141
12.0
290
     0
  0
SCALE
  5
4A
102
{ACAD_REACTORS
330
42
102
}
330
42
100
AcDbScale
 70
     0
300
3/16" = 1'-0"
140
0.1875
141
12.0
290
     0
  0
SCALE
  5
4B
102
{ACAD_REACTORS
330
42
102
}
330
42
100
AcDbScale
 70
     0
300
1/4" = 1'-0"
140
0.25
141
12.0
290
     0
  0
SCALE
  5
4C
102
{ACAD_REACTORS
330
42
102
}
330
42
100
AcDbScale
 70
     0
300
3/8" = 1'-0"
140
0.375
141
12.0
290
     0
  0
SCALE
  5
4D
102
{ACAD_REACTORS
330
42
102
}
330
42
100
AcDbScale
 70
     0
300
1/2" = 1'-0"
140
0.5
141
12.0
290
     0
  0
SCALE
  5
4E
102
{ACAD_REACTORS
330
42
102
}
330
42
100
AcDbScale
 70
     0
300
3/4" = 1'-0"
140
0.75
141
12.0
290
     0
  0
SCALE
  5
4F
102
{ACAD_REACTORS
330
42
102
}
330
42
100
AcDbScale
 70
     0
300
1" = 1'-0"
140
1.0
141
12.0
290
     0
  0
SCALE
  5
50
102
{ACAD_REACTORS
330
42
102
}
330
42
100
AcDbScale
 70
     0
300
1-1/2" = 1'-0"
140
1.5
141
12.0
290
     0
  0
SCALE
  5
51
102
{ACAD_REACTORS
330
42
102
}
330
42
100
AcDbScale
 70
     0
300
3" = 1'-0"
140
3.0
141
12.0
290
     0
  0
SCALE
  5
52
102
{ACAD_REACTORS
330
42
102
}
330
42
100
AcDbScale
 70
     0
300
6" = 1'-0"
140
6.0
141
12.0
290
     0
  0
SCALE
  5
53
102
{ACAD_REACTORS
330
42
102
}
330
42
100
AcDbScale
 70
     0
300
1'-0" = 1'-0"
140
12.0
141
12.0
290
     0
  0
ACDBSECTIONVIEWSTYLE
  5
69
102
{ACAD_XDICTIONARY
360
11D
102
}
102
{ACAD_REACTORS
330
68
102
}
330
68
100
AcDbModelDocViewStyle
 70
     0
  3
Imperial24
290
     0
100
AcDbSectionViewStyle
 70
     0
 71
     0
 90
       78
 71
     1
340
55
 62
   256
 40
0.24
340
0
340
0
 62
   256
 40
0.24
300
I, O, Q, S, X, Z
 40
0.48
 90
        3
 40
0.18
 90
        1
 71
     2
340
5D
 90
       25
 62
   256
340
5D
 90
       50
 62
   256
 40
0.24
 40
0.0
 40
0.24
 71
     3
340
55
 62
   256
 40
0.24
 90
        1
 40
0.75
 90
        1
300
%<\AcVar ViewType \f "%tc1">% %<\AcVar ViewSectionStartId>%-%<\AcVar ViewSectionEndId>%\PSCALE %<\AcVar ViewScale \f "%sn">%
 71
     4
 62
   256
 62
   257
300
ANSI31
 40
1.0
 90
        0
290
     0
290
     0
 90
        6
 40
0.0
 40
1.570796326794896
 40
0.2617993877991494
 40
1.308996938995747
 40
-0.2617993877991494
 40
1.832595714594046
  0
TABLESTYLE
  5
65
102
{ACAD_XDICTIONARY
360
E8
102
}
102
{ACAD_REACTORS
330
64
102
}
330
64
100
AcDbTableStyle
280
     0
  3
Standard
 70
     0
 71
     0
 40
0.06
 41
0.06
280
     0
281
     0
  7
Standard
140
0.18
170
     2
 62
     0
 63
     7
283
     0
 90
      512
 91
        0
  1

274
    -2
284
     1
 64
     0
275
    -2
285
     1
 65
     0
276
    -2
286
     1
 66
     0
277
    -2
287
     1
 67
     0
278
    -2
288
     1
 68
     0
279
    -2
289
     1
 69
     0
  7
Standard
140
0.25
170
     5
 62
     0
 63
     7
283
     0
 90
      512
 91
        0
  1

274
    -2
284
     1
 64
     0
275
    -2
285
     1
 65
     0
276
    -2
286
     1
 66
     0
277
    -2
287
     1
 67
     0
278
    -2
288
     1
 68
     0
279
    -2
289
     1
 69
     0
  7
Standard
140
0.18
170
     5
 62
     0
 63
     7
283
     0
 90
      512
 91
        0
  1

274
    -2
284
     1
 64
     0
275
    -2
285
     1
 65
     0
276
    -2
286
     1
 66
     0
277
    -2
287
     1
 67
     0
278
    -2
288
     1
 68
     0
279
    -2
289
     1
 69
     0
  0
VISUALSTYLE
  5
2F
102
{ACAD_XDICTIONARY
360
F5
102
}
102
{ACAD_REACTORS
330
29
102
}
330
29
100
AcDbVisualStyle
  2
2dWireframe
 70
     4
177
     2
291
     0
 71
     0
176
     1
 72
     2
176
     1
 73
     0
176
     1
 90
        0
176
     1
 40
0.6
176
     1
 41
30.0
176
     1
 63
     7
421
 16777215
176
     1
 74
     1
176
     1
 91
        4
176
     1
 64
     7
176
     1
 65
   257
176
     1
 75
     1
176
     1
175
     1
176
     1
 42
1.0
176
     1
 92
        0
176
     1
 66
   257
176
     1
 43
1.0
176
     1
 76
     1
176
     1
 77
     6
176
     1
 78
     2
176
     1
 67
     7
176
     1
 79
     5
176
     1
170
     0
176
     1
171
     0
176
     1
290
     0
176
     1
 93
        1
176
     1
 44
0.0
176
     1
173
     0
176
     1
1001
ACAD
1000
AcDbSavedByObjectVersion
1070
     0
  0
VISUALSTYLE
  5
2E
102
{ACAD_XDICTIONARY
360
F3
102
}
102
{ACAD_REACTORS
330
29
102
}
330
29
100
AcDbVisualStyle
  2
Basic
 70
     7
177
     2
291
     1
 71
     1
176
     1
 72
     0
176
     1
 73
     1
176
     1
 90
        0
176
     1
 40
0.6
176
     1
 41
30.0
176
     1
 63
     7
421
 16777215
176
     1
 74
     0
176
     1
 91
        4
176
     1
 64
     7
176
     1
 65
   257
176
     1
 75
     1
176
     1
175
     1
176
     1
 42
1.0
176
     1
 92
        8
176
     1
 66
     7
176
     1
 43
1.0
176
     1
 76
     1
176
     1
 77
     6
176
     1
 78
     2
176
     1
 67
     7
176
     1
 79
     5
176
     1
170
     0
176
     1
171
     0
176
     1
290
     0
176
     1
 93
        1
176
     1
 44
0.0
176
     1
173
     0
176
     1
1001
ACAD
1000
AcDbSavedByObjectVersion
1070
     0
  0
VISUALSTYLE
  5
35
102
{ACAD_XDICTIONARY
360
101
102
}
102
{ACAD_REACTORS
330
29
102
}
330
29
100
AcDbVisualStyle
  2
Brighten
 70
    12
177
     2
291
     1
 71
     2
176
     1
 72
     2
176
     1
 73
     0
176
     1
 90
        0
176
     1
 40
0.6
176
     1
 41
30.0
176
     1
 63
     7
421
 16777215
176
     1
 74
     1
176
     1
 91
        4
176
     1
 64
     7
176
     1
 65
   257
176
     1
 75
     1
176
     1
175
     1
176
     1
 42
1.0
176
     1
 92
        8
176
     1
 66
     7
176
     1
 43
1.0
176
     1
 76
     1
176
     1
 77
     6
176
     1
 78
     2
176
     1
 67
     7
176
     1
 79
     5
176
     1
170
     0
176
     1
171
     0
176
     1
290
     0
176
     1
 93
        1
176
     1
 44
50.0
176
     1
173
     0
176
     1
1001
ACAD
1000
AcDbSavedByObjectVersion
1070
     0
  0
VISUALSTYLE
  5
39
102
{ACAD_XDICTIONARY
360
109
102
}
102
{ACAD_REACTORS
330
29
102
}
330
29
100
AcDbVisualStyle
  2
ColorChange
 70
    16
177
     2
291
     1
 71
     2
176
     1
 72
     2
176
     1
 73
     3
176
     1
 90
        0
176
     1
 40
0.6
176
     1
 41
30.0
176
     1
 63
     8
421
  8421504
176
     1
 74
     1
176
     1
 91
        4
176
     1
 64
     7
176
     1
 65
   257
176
     1
 75
     1
176
     1
175
     1
176
     1
 42
1.0
176
     1
 92
        8
176
     1
 66
     8
424
  8421504
176
     1
 43
1.0
176
     1
 76
     1
176
     1
 77
     6
176
     1
 78
     2
176
     1
 67
     7
176
     1
 79
     5
176
     1
170
     0
176
     1
171
     0
176
     1
290
     0
176
     1
 93
        1
176
     1
 44
0.0
176
     1
173
     0
176
     1
1001
ACAD
1000
AcDbSavedByObjectVersion
1070
     0
  0
VISUALSTYLE
  5
32
102
{ACAD_XDICTIONARY
360
FB
102
}
102
{ACAD_REACTORS
330
29
102
}
330
29
100
AcDbVisualStyle
  2
Conceptual
 70
     9
177
     2
291
     0
 71
     3
176
     1
 72
     2
176
     1
 73
     0
176
     1
 90
        0
176
     1
 40
0.6
176
     1
 41
30.0
176
     1
 63
     7
421
 16777215
176
     1
 74
     2
176
     1
 91
        2
176
     1
 64
     7
176
     1
 65
   257
176
     1
 75
     1
176
     1
175
     1
176
     1
 42
179.0
176
     1
 92
        8
176
     1
 66
     7
176
     1
 43
1.0
176
     1
 76
     1
176
     1
 77
     6
176
     1
 78
     2
176
     1
 67
     7
176
     1
 79
     3
176
     1
170
     0
176
     1
171
     0
176
     1
290
     0
176
     1
 93
        1
176
     1
 44
0.0
176
     1
173
     0
176
     1
1001
ACAD
1000
AcDbSavedByObjectVersion
1070
     0
  0
VISUALSTYLE
  5
34
102
{ACAD_XDICTIONARY
360
FF
102
}
102
{ACAD_REACTORS
330
29
102
}
330
29
100
AcDbVisualStyle
  2
Dim
 70
    11
177
     2
291
     1
 71
     2
176
     1
 72
     2
176
     1
 73
     0
176
     1
 90
        0
176
     1
 40
0.6
176
     1
 41
30.0
176
     1
 63
     7
421
 16777215
176
     1
 74
     1
176
     1
 91
        4
176
     1
 64
     7
176
     1
 65
   257
176
     1
 75
     1
176
     1
175
     1
176
     1
 42
1.0
176
     1
 92
        8
176
     1
 66
     7
176
     1
 43
1.0
176
     1
 76
     1
176
     1
 77
     6
176
     1
 78
     2
176
     1
 67
     7
176
     1
 79
     5
176
     1
170
     0
176
     1
171
     0
176
     1
290
     0
176
     1
 93
        1
176
     1
 44
-50.0
176
     1
173
     0
176
     1
1001
ACAD
1000
AcDbSavedByObjectVersion
1070
     0
  0
VISUALSTYLE
  5
41
102
{ACAD_XDICTIONARY
360
119
102
}
102
{ACAD_REACTORS
330
29
102
}
330
29
100
AcDbVisualStyle
  2
EdgeColorOff
 70
    22
177
     2
291
     1
 71
     2
176
     0
 72
     2
176
     0
 73
     0
176
     0
 90
        0
176
     0
 40
0.6
176
     0
 41
30.0
176
     0
 63
     7
421
 16777215
176
     0
 74
     1
176
     0
 91
        4
176
     0
 64
     7
176
     0
 65
   257
176
     0
 75
     1
176
     0
175
     1
176
     0
 42
1.0
176
     0
 92
        8
176
     2
 66
     7
176
     0
 43
1.0
176
     0
 76
     1
176
     0
 77
     6
176
     0
 78
     2
176
     0
 67
     7
176
     0
 79
     5
176
     0
170
     0
176
     0
171
     0
176
     0
290
     0
176
     0
 93
        1
176
     0
 44
0.0
176
     0
173
     0
176
     0
1001
ACAD
1000
AcDbSavedByObjectVersion
1070
     0
  0
VISUALSTYLE
  5
38
102
{ACAD_XDICTIONARY
360
107
102
}
102
{ACAD_REACTORS
330
29
102
}
330
29
100
AcDbVisualStyle
  2
Facepattern
 70
    15
177
     2
291
     1
 71
     2
176
     1
 72
     2
176
     1
 73
     0
176
     1
 90
        0
176
     1
 40
0.6
176
     1
 41
30.0
176
     1
 63
     7
421
 16777215
176
     1
 74
     1
176
     1
 91
        4
176
     1
 64
     7
176
     1
 65
   257
176
     1
 75
     1
176
     1
175
     1
176
     1
 42
1.0
176
     1
 92
        8
176
     1
 66
     7
176
     1
 43
1.0
176
     1
 76
     1
176
     1
 77
     6
176
     1
 78
     2
176
     1
 67
     7
176
     1
 79
     5
176
     1
170
     0
176
     1
171
     0
176
     1
290
     0
176
     1
 93
        1
176
     1
 44
0.0
176
     1
173
     0
176
     1
1001
ACAD
1000
AcDbSavedByObjectVersion
1070
     0
  0
VISUALSTYLE
  5
2A
102
{ACAD_XDICTIONARY
360
EB
102
}
102
{ACAD_REACTORS
330
29
102
}
330
29
100
AcDbVisualStyle
  2
Flat
 70
     0
177
     2
291
     1
 71
     2
176
     1
 72
     1
176
     1
 73
     1
176
     1
 90
        2
176
     1
 40
0.6
176
     1
 41
30.0
176
     1
 63
     7
421
 16777215
176
     1
 74
     0
176
     1
 91
        0
176
     1
 64
     7
176
     1
 65
   257
176
     1
 75
     1
176
     1
175
     1
176
     1
 42
1.0
176
     1
 92
        8
176
     1
 66
     7
176
     1
 43
1.0
176
     1
 76
     1
176
     1
 77
     6
176
     1
 78
     2
176
     1
 67
     7
176
     1
 79
     5
176
     1
170
     0
176
     1
171
     0
176
     1
290
     0
176
     1
 93
       13
176
     1
 44
0.0
176
     1
173
     0
176
     1
1001
ACAD
1000
AcDbSavedByObjectVersion
1070
     0
  0
VISUALSTYLE
  5
2B
102
{ACAD_XDICTIONARY
360
ED
102
}
102
{ACAD_REACTORS
330
29
102
}
330
29
100
AcDbVisualStyle
  2
FlatWithEdges
 70
     1
177
     2
291
     1
 71
     2
176
     1
 72
     1
176
     1
 73
     1
176
     1
 90
        2
176
     1
 40
0.6
176
     1
 41
30.0
176
     1
 63
     7
421
 16777215
176
     1
 74
     1
176
     1
 91
        0
176
     1
 64
     7
176
     1
 65
   257
176
     1
 75
     1
176
     1
175
     1
176
     1
 42
1.0
176
     1
 92
        0
176
     1
 66
   257
176
     1
 43
1.0
176
     1
 76
     1
176
     1
 77
     6
176
     1
 78
     2
176
     1
 67
     7
176
     1
 79
     5
176
     1
170
     0
176
     1
171
     0
176
     1
290
     0
176
     1
 93
       13
176
     1
 44
0.0
176
     1
173
     0
176
     1
1001
ACAD
1000
AcDbSavedByObjectVersion
1070
     0
  0
VISUALSTYLE
  5
2C
102
{ACAD_XDICTIONARY
360
EF
102
}
102
{ACAD_REACTORS
330
29
102
}
330
29
100
AcDbVisualStyle
  2
Gouraud
 70
     2
177
     2
291
     1
 71
     2
176
     1
 72
     2
176
     1
 73
     1
176
     1
 90
        2
176
     1
 40
0.6
176
     1
 41
30.0
176
     1
 63
     7
421
 16777215
176
     1
 74
     0
176
     1
 91
        0
176
     1
 64
     7
176
     1
 65
   257
176
     1
 75
     1
176
     1
175
     1
176
     1
 42
1.0
176
     1
 92
        0
176
     1
 66
     7
176
     1
 43
1.0
176
     1
 76
     1
176
     1
 77
     6
176
     1
 78
     2
176
     1
 67
     7
176
     1
 79
     5
176
     1
170
     0
176
     1
171
     0
176
     1
290
     0
176
     1
 93
       13
176
     1
 44
0.0
176
     1
173
     0
176
     1
1001
ACAD
1000
AcDbSavedByObjectVersion
1070
     0
  0
VISUALSTYLE
  5
2D
102
{ACAD_XDICTIONARY
360
F1
102
}
102
{ACAD_REACTORS
330
29
102
}
330
29
100
AcDbVisualStyle
  2
GouraudWithEdges
 70
     3
177
     2
291
     1
 71
     2
176
     1
 72
     2
176
     1
 73
     1
176
     1
 90
        2
176
     1
 40
0.6
176
     1
 41
30.0
176
     1
 63
     7
421
 16777215
176
     1
 74
     1
176
     1
 91
        0
176
     1
 64
     7
176
     1
 65
   257
176
     1
 75
     1
176
     1
175
     1
176
     1
 42
1.0
176
     1
 92
        0
176
     1
 66
   257
176
     1
 43
1.0
176
     1
 76
     1
176
     1
 77
     6
176
     1
 78
     2
176
     1
 67
     7
176
     1
 79
     5
176
     1
170
     0
176
     1
171
     0
176
     1
290
     0
176
     1
 93
       13
176
     1
 44
0.0
176
     1
173
     0
176
     1
1001
ACAD
1000
AcDbSavedByObjectVersion
1070
     0
  0
VISUALSTYLE
  5
31
102
{ACAD_XDICTIONARY
360
F9
102
}
102
{ACAD_REACTORS
330
29
102
}
330
29
100
AcDbVisualStyle
  2
Hidden
 70
     6
177
     2
291
     0
 71
     1
176
     1
 72
     2
176
     1
 73
     2
176
     1
 90
        0
176
     1
 40
0.6
176
     1
 41
30.0
176
     1
 63
     7
421
 16777215
176
     1
 74
     2
176
     1
 91
        2
176
     1
 64
     7
176
     1
 65
   257
176
     1
 75
     2
176
     1
175
     1
176
     1
 42
40.0
176
     1
 92
        0
176
     1
 66
   257
176
     1
 43
1.0
176
     1
 76
     1
176
     1
 77
     6
176
     1
 78
     2
176
     1
 67
     7
176
     1
 79
     3
176
     1
170
     0
176
     1
171
     0
176
     1
290
     0
176
     1
 93
        1
176
     1
 44
0.0
176
     1
173
     0
176
     1
1001
ACAD
1000
AcDbSavedByObjectVersion
1070
     0
  0
VISUALSTYLE
  5
3F
102
{ACAD_XDICTIONARY
360
115
102
}
102
{ACAD_REACTORS
330
29
102
}
330
29
100
AcDbVisualStyle
  2
JitterOff
 70
    20
177
     2
291
     1
 71
     2
176
     0
 72
     2
176
     0
 73
     0
176
     0
 90
        0
176
     0
 40
0.6
176
     0
 41
30.0
176
     0
 63
     7
421
 16777215
176
     0
 74
     1
176
     0
 91
        4
176
     0
 64
     7
176
     0
 65
   257
176
     0
 75
     1
176
     0
175
     1
176
     0
 42
1.0
176
     0
 92
       10
176
     2
 66
     7
176
     0
 43
1.0
176
     0
 76
     1
176
     0
 77
     6
176
     0
 78
     2
176
     0
 67
     7
176
     0
 79
     5
176
     0
170
     0
176
     0
171
     0
176
     0
290
     0
176
     0
 93
        1
176
     0
 44
0.0
176
     0
173
     0
176
     0
1001
ACAD
1000
AcDbSavedByObjectVersion
1070
     0
  0
VISUALSTYLE
  5
37
102
{ACAD_XDICTIONARY
360
105
102
}
102
{ACAD_REACTORS
330
29
102
}
330
29
100
AcDbVisualStyle
  2
Linepattern
 70
    14
177
     2
291
     1
 71
     2
176
     1
 72
     2
176
     1
 73
     0
176
     1
 90
        0
176
     1
 40
0.6
176
     1
 41
30.0
176
     1
 63
     7
421
 16777215
176
     1
 74
     1
176
     1
 91
        4
176
     1
 64
     7
176
     1
 65
   257
176
     1
 75
     7
176
     1
175
     7
176
     1
 42
1.0
176
     1
 92
        8
176
     1
 66
     7
176
     1
 43
1.0
176
     1
 76
     1
176
     1
 77
     6
176
     1
 78
     2
176
     1
 67
     7
176
     1
 79
     5
176
     1
170
     0
176
     1
171
     0
176
     1
290
     0
176
     1
 93
        1
176
     1
 44
0.0
176
     1
173
     0
176
     1
1001
ACAD
1000
AcDbSavedByObjectVersion
1070
     0
  0
VISUALSTYLE
  5
40
102
{ACAD_XDICTIONARY
360
117
102
}
102
{ACAD_REACTORS
330
29
102
}
330
29
100
AcDbVisualStyle
  2
OverhangOff
 70
    21
177
     2
291
     1
 71
     2
176
     0
 72
     2
176
     0
 73
     0
176
     0
 90
        0
176
     0
 40
0.6
176
     0
 41
30.0
176
     0
 63
     7
421
 16777215
176
     0
 74
     1
176
     0
 91
        4
176
     0
 64
     7
176
     0
 65
   257
176
     0
 75
     1
176
     0
175
     1
176
     0
 42
1.0
176
     0
 92
        9
176
     2
 66
     7
176
     0
 43
1.0
176
     0
 76
     1
176
     0
 77
     6
176
     0
 78
     2
176
     0
 67
     7
176
     0
 79
     5
176
     0
170
     0
176
     0
171
     0
176
     0
290
     0
176
     0
 93
        1
176
     0
 44
0.0
176
     0
173
     0
176
     0
1001
ACAD
1000
AcDbSavedByObjectVersion
1070
     0
  0
VISUALSTYLE
  5
33
102
{ACAD_XDICTIONARY
360
FD
102
}
102
{ACAD_REACTORS
330
29
102
}
330
29
100
AcDbVisualStyle
  2
Realistic
 70
     8
177
     2
291
     0
 71
     2
176
     1
 72
     3
176
     1
 73
     0
176
     1
 90
        2
176
     1
 40
0.6
176
     1
 41
30.0
176
     1
 63
     7
421
 16777215
176
     1
 74
     0
176
     1
 91
        0
176
     1
 64
     7
176
     1
 65
   257
176
     1
 75
     1
176
     1
175
     1
176
     1
 42
1.0
176
     1
 92
        8
176
     1
 66
   257
176
     1
 43
1.0
176
     1
 76
     1
176
     1
 77
     6
176
     1
 78
     2
176
     1
 67
     7
176
     1
 79
     3
176
     1
170
     0
176
     1
171
     0
176
     1
290
     0
176
     1
 93
       13
176
     1
 44
0.0
176
     1
173
     0
176
     1
1001
ACAD
1000
AcDbSavedByObjectVersion
1070
     0
  0
VISUALSTYLE
  5
3E
102
{ACAD_XDICTIONARY
360
113
102
}
102
{ACAD_REACTORS
330
29
102
}
330
29
100
AcDbVisualStyle
  2
Shaded
 70
    27
177
     2
291
     0
 71
     2
176
     1
 72
     2
176
     1
 73
     1
176
     1
 90
        2
176
     1
 40
0.6
176
     1
 41
30.0
176
     1
 63
     7
421
 16777215
176
     1
 74
     0
176
     1
 91
        4
176
     1
 64
     7
176
     1
 65
   257
176
     1
 75
     1
176
     1
175
     1
176
     1
 42
1.0
176
     1
 92
        8
176
     1
 66
   257
176
     1
 43
1.0
176
     1
 76
     1
176
     1
 77
     6
176
     1
 78
     2
176
     1
 67
     8
425
  7895160
176
     1
 79
     3
176
     1
170
     0
176
     1
171
     0
176
     1
290
     0
176
     1
 93
        5
176
     1
 44
0.0
176
     1
173
     0
176
     1
1001
ACAD
1000
AcDbSavedByObjectVersion
1070
     0
  0
VISUALSTYLE
  5
3D
102
{ACAD_XDICTIONARY
360
111
102
}
102
{ACAD_REACTORS
330
29
102
}
330
29
100
AcDbVisualStyle
  2
Shaded with edges
 70
    26
177
     2
291
     0
 71
     2
176
     1
 72
     2
176
     1
 73
     1
176
     1
 90
        2
176
     1
 40
0.6
176
     1
 41
30.0
176
     1
 63
     7
421
 16777215
176
     1
 74
     1
176
     1
 91
        2
176
     1
 64
     7
176
     1
 65
   257
176
     1
 75
     2
176
     1
175
     1
176
     1
 42
1.0
176
     1
 92
        8
176
     1
 66
   257
176
     1
 43
1.0
176
     1
 76
     1
176
     1
 77
     6
176
     1
 78
     2
176
     1
 67
     7
176
     1
 79
     3
176
     1
170
     0
176
     1
171
     0
176
     1
290
     0
176
     1
 93
        5
176
     1
 44
0.0
176
     1
173
     0
176
     1
1001
ACAD
1000
AcDbSavedByObjectVersion
1070
     0
  0
VISUALSTYLE
  5
3A
102
{ACAD_XDICTIONARY
360
10B
102
}
102
{ACAD_REACTORS
330
29
102
}
330
29
100
AcDbVisualStyle
  2
Shades of Gray
 70
    23
177
     2
291
     0
 71
     2
176
     1
 72
     2
176
     1
 73
     3
176
     1
 90
        0
176
     1
 40
0.6
176
     1
 41
30.0
176
     1
 63
     7
421
 16777215
176
     1
 74
     2
176
     1
 91
        2
176
     1
 64
     7
176
     1
 65
     7
176
     1
 75
     1
176
     1
175
     1
176
     1
 42
40.0
176
     1
 92
        8
176
     1
 66
     7
176
     1
 43
1.0
176
     1
 76
     1
176
     1
 77
     6
176
     1
 78
     2
176
     1
 67
     7
176
     1
 79
     3
176
     1
170
     0
176
     1
171
     0
176
     1
290
     0
176
     1
 93
        1
176
     1
 44
0.0
176
     1
173
     0
176
     1
1001
ACAD
1000
AcDbSavedByObjectVersion
1070
     0
  0
VISUALSTYLE
  5
3B
102
{ACAD_XDICTIONARY
360
10D
102
}
102
{ACAD_REACTORS
330
29
102
}
330
29
100
AcDbVisualStyle
  2
Sketchy
 70
    24
177
     2
291
     0
 71
     1
176
     1
 72
     2
176
     1
 73
     2
176
     1
 90
        0
176
     1
 40
0.6
176
     1
 41
30.0
176
     1
 63
     7
421
 16777215
176
     1
 74
     2
176
     1
 91
        2
176
     1
 64
     7
176
     1
 65
     7
176
     1
 75
     1
176
     1
175
     1
176
     1
 42
40.0
176
     1
 92
       11
176
     1
 66
     7
176
     1
 43
1.0
176
     1
 76
     1
176
     1
 77
     6
176
     1
 78
     2
176
     1
 67
     7
176
     1
 79
     6
176
     1
170
     0
176
     1
171
     0
176
     1
290
     0
176
     1
 93
        1
176
     1
 44
0.0
176
     1
173
     0
176
     1
1001
ACAD
1000
AcDbSavedByObjectVersion
1070
     0
  0
VISUALSTYLE
  5
36
102
{ACAD_XDICTIONARY
360
103
102
}
102
{ACAD_REACTORS
330
29
102
}
330
29
100
AcDbVisualStyle
  2
Thicken
 70
    13
177
     2
291
     1
 71
     2
176
     1
 72
     2
176
     1
 73
     0
176
     1
 90
        0
176
     1
 40
0.6
176
     1
 41
30.0
176
     1
 63
     7
421
 16777215
176
     1
 74
     1
176
     1
 91
        4
176
     1
 64
     7
176
     1
 65
   257
176
     1
 75
     1
176
     1
175
     1
176
     1
 42
1.0
176
     1
 92
       12
176
     1
 66
     7
176
     1
 43
1.0
176
     1
 76
     1
176
     1
 77
     6
176
     1
 78
     2
176
     1
 67
     7
176
     1
 79
     5
176
     1
170
     0
176
     1
171
     0
176
     1
290
     0
176
     1
 93
        1
176
     1
 44
0.0
176
     1
173
     0
176
     1
1001
ACAD
1000
AcDbSavedByObjectVersion
1070
     0
  0
VISUALSTYLE
  5
30
102
{ACAD_XDICTIONARY
360
F7
102
}
102
{ACAD_REACTORS
330
29
102
}
330
29
100
AcDbVisualStyle
  2
Wireframe
 70
     5
177
     2
291
     0
 71
     0
176
     1
 72
     2
176
     1
 73
     0
176
     1
 90
        0
176
     1
 40
0.6
176
     1
 41
30.0
176
     1
 63
     7
421
 16777215
176
     1
 74
     1
176
     1
 91
        4
176
     1
 64
     7
176
     1
 65
   257
176
     1
 75
     1
176
     1
175
     1
176
     1
 42
1.0
176
     1
 92
        0
176
     1
 66
   257
176
     1
 43
1.0
176
     1
 76
     1
176
     1
 77
     6
176
     1
 78
     2
176
     1
 67
     7
176
     1
 79
     3
176
     1
170
     0
176
     1
171
     0
176
     1
290
     0
176
     1
 93
        1
176
     1
 44
0.0
176
     1
173
     0
176
     1
1001
ACAD
1000
AcDbSavedByObjectVersion
1070
     0
  0
VISUALSTYLE
  5
3C
102
{ACAD_XDICTIONARY
360
10F
102
}
102
{ACAD_REACTORS
330
29
102
}
330
29
100
AcDbVisualStyle
  2
X-Ray
 70
    25
177
     2
291
     0
 71
     2
176
     1
 72
     2
176
     1
 73
     1
176
     1
 90
        1
176
     1
 40
0.5
176
     1
 41
30.0
176
     1
 63
     7
421
 16777215
176
     1
 74
     1
176
     1
 91
        0
176
     1
 64
     7
176
     1
 65
   257
176
     1
 75
     1
176
     1
175
     1
176
     1
 42
1.0
176
     1
 92
        8
176
     1
 66
     7
176
     1
 43
1.0
176
     1
 76
     1
176
     1
 77
     6
176
     1
 78
     2
176
     1
 67
     7
176
     1
 79
     3
176
     1
170
     0
176
     1
171
     0
176
     1
290
     0
176
     1
 93
       13
176
     1
 44
0.0
176
     1
173
     0
176
     1
1001
ACAD
1000
AcDbSavedByObjectVersion
1070
     0
  0
DICTIONARYVAR
  5
E7
102
{ACAD_REACTORS
330
E2
102
}
330
E2
100
DictionaryVariables
280
     0
  1
1:1
  0
DICTIONARYVAR
  5
E4
102
{ACAD_REACTORS
330
E2
102
}
330
E2
100
DictionaryVariables
280
     0
  1
STANDARD
  0
DICTIONARYVAR
  5
E3
102
{ACAD_REACTORS
330
E2
102
}
330
E2
100
DictionaryVariables
280
     0
  1
STANDARD
  0
DICTIONARYVAR
  5
E5
102
{ACAD_REACTORS
330
E2
102
}
330
E2
100
DictionaryVariables
280
     0
  1
Imperial24
  0
DICTIONARYVAR
  5
E6
102
{ACAD_REACTORS
330
E2
102
}
330
E2
100
DictionaryVariables
280
     0
  1
Imperial24
  0
DICTIONARY
  5
11F
330
6B
100
AcDbDictionary
280
     1
281
     1
  3
ACAD_XREC_ROUNDTRIP
360
120
  0
DICTIONARY
  5
1A
330
19
100
AcDbDictionary
280
     1
281
     1
  3
BUMPTILE
360
1C
  3
DIFFUSETILE
360
1B
  3
OPACITYTILE
360
1F
  3
REFLECTIONTILE
360
1E
  3
REFRACTIONTILE
360
20
  3
SPECULARTILE
360
1D
  0
DICTIONARY
  5
12
330
11
100
AcDbDictionary
280
     1
281
     1
  3
BUMPTILE
360
14
  3
DIFFUSETILE
360
13
  3
OPACITYTILE
360
17
  3
REFLECTIONTILE
360
16
  3
REFRACTIONTILE
360
18
  3
SPECULARTILE
360
15
  0
DICTIONARY
  5
22
330
21
100
AcDbDictionary
280
     1
281
     1
  3
BUMPTILE
360
24
  3
DIFFUSETILE
360
23
  3
OPACITYTILE
360
27
  3
REFLECTIONTILE
360
26
  3
REFRACTIONTILE
360
28
  3
SPECULARTILE
360
25
  0
DICTIONARY
  5
11B
330
67
100
AcDbDictionary
280
     1
281
     1
  3
ACAD_XREC_ROUNDTRIP
360
11C
  0
DICTIONARY
  5
11D
330
69
100
AcDbDictionary
280
     1
281
     1
  3
ACAD_XREC_ROUNDTRIP
360
11E
  0
DICTIONARY
  5
E8
330
65
100
AcDbDictionary
280
     1
281
     1
  3
ACAD_ROUNDTRIP_2008_TABLESTYLE_CELLSTYLEMAP
360
E9
  0
DICTIONARY
  5
F5
330
2F
100
AcDbDictionary
280
     1
281
     1
  3
ACAD_XREC_ROUNDTRIP
360
F6
  0
DICTIONARY
  5
F3
330
2E
100
AcDbDictionary
280
     1
281
     1
  3
ACAD_XREC_ROUNDTRIP
360
F4
  0
DICTIONARY
  5
101
330
35
100
AcDbDictionary
280
     1
281
     1
  3
ACAD_XREC_ROUNDTRIP
360
102
  0
DICTIONARY
  5
109
330
39
100
AcDbDictionary
280
     1
281
     1
  3
ACAD_XREC_ROUNDTRIP
360
10A
  0
DICTIONARY
  5
FB
330
32
100
AcDbDictionary
280
     1
281
     1
  3
ACAD_XREC_ROUNDTRIP
360
FC
  0
DICTIONARY
  5
FF
330
34
100
AcDbDictionary
280
     1
281
     1
  3
ACAD_XREC_ROUNDTRIP
360
100
  0
DICTIONARY
  5
119
330
41
100
AcDbDictionary
280
     1
281
     1
  3
ACAD_XREC_ROUNDTRIP
360
11A
  0
DICTIONARY
  5
107
330
38
100
AcDbDictionary
280
     1
281
     1
  3
ACAD_XREC_ROUNDTRIP
360
108
  0
DICTIONARY
  5
EB
330
2A
100
AcDbDictionary
280
     1
281
     1
  3
ACAD_XREC_ROUNDTRIP
360
EC
  0
DICTIONARY
  5
ED
330
2B
100
AcDbDictionary
280
     1
281
     1
  3
ACAD_XREC_ROUNDTRIP
360
EE
  0
DICTIONARY
  5
EF
330
2C
100
AcDbDictionary
280
     1
281
     1
  3
ACAD_XREC_ROUNDTRIP
360
F0
  0
DICTIONARY
  5
F1
330
2D
100
AcDbDictionary
280
     1
281
     1
  3
ACAD_XREC_ROUNDTRIP
360
F2
  0
DICTIONARY
  5
F9
330
31
100
AcDbDictionary
280
     1
281
     1
  3
ACAD_XREC_ROUNDTRIP
360
FA
  0
DICTIONARY
  5
115
330
3F
100
AcDbDictionary
280
     1
281
     1
  3
ACAD_XREC_ROUNDTRIP
360
116
  0
DICTIONARY
  5
105
330
37
100
AcDbDictionary
280
     1
281
     1
  3
ACAD_XREC_ROUNDTRIP
360
106
  0
DICTIONARY
  5
117
330
40
100
AcDbDictionary
280
     1
281
     1
  3
ACAD_XREC_ROUNDTRIP
360
118
  0
DICTIONARY
  5
FD
330
33
100
AcDbDictionary
280
     1
281
     1
  3
ACAD_XREC_ROUNDTRIP
360
FE
  0
DICTIONARY
  5
113
330
3E
100
AcDbDictionary
280
     1
281
     1
  3
ACAD_XREC_ROUNDTRIP
360
114
  0
DICTIONARY
  5
111
330
3D
100
AcDbDictionary
280
     1
281
     1
  3
ACAD_XREC_ROUNDTRIP
360
112
  0
DICTIONARY
  5
10B
330
3A
100
AcDbDictionary
280
     1
281
     1
  3
ACAD_XREC_ROUNDTRIP
360
10C
  0
DICTIONARY
  5
10D
330
3B
100
AcDbDictionary
280
     1
281
     1
  3
ACAD_XREC_ROUNDTRIP
360
10E
  0
DICTIONARY
  5
103
330
36
100
AcDbDictionary
280
     1
281
     1
  3
ACAD_XREC_ROUNDTRIP
360
104
  0
DICTIONARY
  5
F7
330
30
100
AcDbDictionary
280
     1
281
     1
  3
ACAD_XREC_ROUNDTRIP
360
F8
  0
DICTIONARY
  5
10F
330
3C
100
AcDbDictionary
280
     1
281
     1
  3
ACAD_XREC_ROUNDTRIP
360
110
  0
XRECORD
  5
120
102
{ACAD_REACTORS
330
11F
102
}
330
11F
100
AcDbXrecord
280
     1
102
DISPLAYNAME
  1
Imperial24
102
FLAGS
 90
        0
  0
XRECORD
  5
1C
102
{ACAD_REACTORS
330
1A
102
}
330
1A
100
AcDbXrecord
280
     1
270
     1
271
     1
  0
XRECORD
  5
1B
102
{ACAD_REACTORS
330
1A
102
}
330
1A
100
AcDbXrecord
280
     1
270
     1
271
     1
  0
XRECORD
  5
1F
102
{ACAD_REACTORS
330
1A
102
}
330
1A
100
AcDbXrecord
280
     1
270
     1
271
     1
  0
XRECORD
  5
1E
102
{ACAD_REACTORS
330
1A
102
}
330
1A
100
AcDbXrecord
280
     1
270
     1
271
     1
  0
XRECORD
  5
20
102
{ACAD_REACTORS
330
1A
102
}
330
1A
100
AcDbXrecord
280
     1
270
     1
271
     1
  0
XRECORD
  5
1D
102
{ACAD_REACTORS
330
1A
102
}
330
1A
100
AcDbXrecord
280
     1
270
     1
271
     1
  0
XRECORD
  5
14
102
{ACAD_REACTORS
330
12
102
}
330
12
100
AcDbXrecord
280
     1
270
     1
271
     1
  0
XRECORD
  5
13
102
{ACAD_REACTORS
330
12
102
}
330
12
100
AcDbXrecord
280
     1
270
     1
271
     1
  0
XRECORD
  5
17
102
{ACAD_REACTORS
330
12
102
}
330
12
100
AcDbXrecord
280
     1
270
     1
271
     1
  0
XRECORD
  5
16
102
{ACAD_REACTORS
330
12
102
}
330
12
100
AcDbXrecord
280
     1
270
     1
271
     1
  0
XRECORD
  5
18
102
{ACAD_REACTORS
330
12
102
}
330
12
100
AcDbXrecord
280
     1
270
     1
271
     1
  0
XRECORD
  5
15
102
{ACAD_REACTORS
330
12
102
}
330
12
100
AcDbXrecord
280
     1
270
     1
271
     1
  0
XRECORD
  5
24
102
{ACAD_REACTORS
330
22
102
}
330
22
100
AcDbXrecord
280
     1
270
     1
271
     1
  0
XRECORD
  5
23
102
{ACAD_REACTORS
330
22
102
}
330
22
100
AcDbXrecord
280
     1
270
     1
271
     1
  0
XRECORD
  5
27
102
{ACAD_REACTORS
330
22
102
}
330
22
100
AcDbXrecord
280
     1
270
     1
271
     1
  0
XRECORD
  5
26
102
{ACAD_REACTORS
330
22
102
}
330
22
100
AcDbXrecord
280
     1
270
     1
271
     1
  0
XRECORD
  5
28
102
{ACAD_REACTORS
330
22
102
}
330
22
100
AcDbXrecord
280
     1
270
     1
271
     1
  0
XRECORD
  5
25
102
{ACAD_REACTORS
330
22
102
}
330
22
100
AcDbXrecord
280
     1
270
     1
271
     1
  0
XRECORD
  5
11C
102
{ACAD_REACTORS
330
11B
102
}
330
11B
100
AcDbXrecord
280
     1
102
ACAD_ROUNDTRIP_2012_MLEADER_STYLE
298
     1
  0
XRECORD
  5
11E
102
{ACAD_REACTORS
330
11D
102
}
330
11D
100
AcDbXrecord
280
     1
102
DISPLAYNAME
  1
Imperial24
102
FLAGS
 90
        0
  0
CELLSTYLEMAP
  5
E9
102
{ACAD_REACTORS
330
E8
102
}
330
E8
100
AcDbCellStyleMap
 90
        3
300
CELLSTYLE
  1
TABLEFORMAT_BEGIN
 90
        5
170
     1
 91
        0
 92
    32768
 62
   257
 93
        1
300
CONTENTFORMAT
  1
CONTENTFORMAT_BEGIN
 90
        0
 91
        0
 92
      512
 93
        0
300

 40
0.0
140
1.0
 94
        5
 62
     0
340
55
144
0.25
309
CONTENTFORMAT_END
171
     0
 94
        0
309
TABLEFORMAT_END
  1
CELLSTYLE_BEGIN
 90
        1
 91
        1
300
_TITLE
309
CELLSTYLE_END
300
CELLSTYLE
  1
TABLEFORMAT_BEGIN
 90
        5
170
     1
 91
        0
 92
        0
 62
   257
 93
        1
300
CONTENTFORMAT
  1
CONTENTFORMAT_BEGIN
 90
        0
 91
        0
 92
      512
 93
        0
300

 40
0.0
140
1.0
 94
        5
 62
     0
340
55
144
0.18
309
CONTENTFORMAT_END
171
     0
 94
        0
309
TABLEFORMAT_END
  1
CELLSTYLE_BEGIN
 90
        2
 91
        1
300
_HEADER
309
CELLSTYLE_END
300
CELLSTYLE
  1
TABLEFORMAT_BEGIN
 90
        5
170
     1
 91
        0
 92
        0
 62
   257
 93
        1
300
CONTENTFORMAT
  1
CONTENTFORMAT_BEGIN
 90
        0
 91
        0
 92
      512
 93
        0
300

 40
0.0
140
1.0
 94
        2
 62
     0
340
55
144
0.18
309
CONTENTFORMAT_END
171
     0
 94
        0
309
TABLEFORMAT_END
  1
CELLSTYLE_BEGIN
 90
        3
 91
        2
300
_DATA
309
CELLSTYLE_END
  0
XRECORD
  5
F6
102
{ACAD_REACTORS
330
F5
102
}
330
F5
100
AcDbXrecord
280
     1
102
RTVSPost2010Prop28
280
     1
102
RTVSPost2010PropOp28
 70
     1
102
RTVSPost2010Prop29
280
     1
102
RTVSPost2010PropOp29
 70
     1
102
RTVSPost2010Prop30
280
     0
102
RTVSPost2010PropOp30
 70
     1
102
RTVSPost2010Prop31
280
     0
102
RTVSPost2010PropOp31
 70
     1
102
RTVSPost2010Prop32
280
     0
102
RTVSPost2010PropOp32
 70
     1
102
RTVSPost2010Prop33
280
     0
102
RTVSPost2010PropOp33
 70
     1
102
RTVSPost2010Prop34
280
     0
102
RTVSPost2010PropOp34
 70
     1
102
RTVSPost2010Prop35
280
     0
102
RTVSPost2010PropOp35
 70
     1
102
RTVSPost2010Prop36
280
     0
102
RTVSPost2010PropOp36
 70
     1
102
RTVSPost2010Prop37
 90
       50
102
RTVSPost2010PropOp37
 70
     1
102
RTVSPost2010Prop38
140
0.0
102
RTVSPost2010PropOp38
 70
     1
102
RTVSPost2010Prop39
140
1.0
102
RTVSPost2010PropOp39
 70
     1
102
RTVSPost2010Prop40
 90
        0
102
RTVSPost2010PropOp40
 70
     1
102
RTVSPost2010Prop41ColorIndex
 90
       18
102
RTVSPost2010Prop41ColorRGB
 90
        0
102
RTVSPost2010PropOp41
 70
     1
102
RTVSPost2010Prop42
 90
       50
102
RTVSPost2010PropOp42
 70
     1
102
RTVSPost2010Prop43
 90
        3
102
RTVSPost2010PropOp43
 70
     1
102
RTVSPost2010Prop44ColorIndex
 90
        5
102
RTVSPost2010Prop44ColorRGB
 90
      255
102
RTVSPost2010PropOp44
 70
     1
102
RTVSPost2010Prop45
280
     0
102
RTVSPost2010PropOp45
 70
     1
102
RTVSPost2010Prop46
 90
       50
102
RTVSPost2010PropOp46
 70
     1
102
RTVSPost2010Prop47
 90
       50
102
RTVSPost2010PropOp47
 70
     1
102
RTVSPost2010Prop48
 90
       50
102
RTVSPost2010PropOp48
 70
     1
102
RTVSPost2010Prop49
280
     0
102
RTVSPost2010PropOp49
 70
     1
102
RTVSPost2010Prop50
 90
       50
102
RTVSPost2010PropOp50
 70
     1
102
RTVSPost2010Prop51ColorIndex
 90
      256
102
RTVSPost2010Prop51ColorRGB
 90
-16777216
102
RTVSPost2010PropOp51
 70
     0
102
RTVSPost2010Prop52
140
1.0
102
RTVSPost2010PropOp52
 70
     0
102
RTVSPost2010Prop53
 90
        2
102
RTVSPost2010PropOp53
 70
     1
102
RTVSPost2010Prop54
  1
strokes_ogs.tif
102
RTVSPost2010PropOp54
 70
     1
102
RTVSPost2010Prop55
280
     0
102
RTVSPost2010PropOp55
 70
     1
102
RTVSPost2010Prop56
140
1.0
102
RTVSPost2010PropOp56
 70
     1
102
RTVSPost2010Prop57
140
1.0
102
RTVSPost2010PropOp57
 70
     1
  0
XRECORD
  5
F4
102
{ACAD_REACTORS
330
F3
102
}
330
F3
100
AcDbXrecord
280
     1
102
RTVSPost2010Prop28
280
     0
102
RTVSPost2010PropOp28
 70
     1
102
RTVSPost2010Prop29
280
     1
102
RTVSPost2010PropOp29
 70
     1
102
RTVSPost2010Prop30
280
     1
102
RTVSPost2010PropOp30
 70
     1
102
RTVSPost2010Prop31
280
     0
102
RTVSPost2010PropOp31
 70
     1
102
RTVSPost2010Prop32
280
     0
102
RTVSPost2010PropOp32
 70
     1
102
RTVSPost2010Prop33
280
     0
102
RTVSPost2010PropOp33
 70
     1
102
RTVSPost2010Prop34
280
     0
102
RTVSPost2010PropOp34
 70
     1
102
RTVSPost2010Prop35
280
     0
102
RTVSPost2010PropOp35
 70
     1
102
RTVSPost2010Prop36
280
     0
102
RTVSPost2010PropOp36
 70
     1
102
RTVSPost2010Prop37
 90
       50
102
RTVSPost2010PropOp37
 70
     1
102
RTVSPost2010Prop38
140
0.0
102
RTVSPost2010PropOp38
 70
     1
102
RTVSPost2010Prop39
140
1.0
102
RTVSPost2010PropOp39
 70
     1
102
RTVSPost2010Prop40
 90
        0
102
RTVSPost2010PropOp40
 70
     1
102
RTVSPost2010Prop41ColorIndex
 90
       18
102
RTVSPost2010Prop41ColorRGB
 90
        0
102
RTVSPost2010PropOp41
 70
     1
102
RTVSPost2010Prop42
 90
       50
102
RTVSPost2010PropOp42
 70
     1
102
RTVSPost2010Prop43
 90
        3
102
RTVSPost2010PropOp43
 70
     1
102
RTVSPost2010Prop44ColorIndex
 90
        5
102
RTVSPost2010Prop44ColorRGB
 90
      255
102
RTVSPost2010PropOp44
 70
     1
102
RTVSPost2010Prop45
280
     0
102
RTVSPost2010PropOp45
 70
     1
102
RTVSPost2010Prop46
 90
       50
102
RTVSPost2010PropOp46
 70
     1
102
RTVSPost2010Prop47
 90
       50
102
RTVSPost2010PropOp47
 70
     1
102
RTVSPost2010Prop48
 90
       50
102
RTVSPost2010PropOp48
 70
     1
102
RTVSPost2010Prop49
280
     0
102
RTVSPost2010PropOp49
 70
     1
102
RTVSPost2010Prop50
 90
       50
102
RTVSPost2010PropOp50
 70
     1
102
RTVSPost2010Prop51ColorIndex
 90
      256
102
RTVSPost2010Prop51ColorRGB
 90
-16777216
102
RTVSPost2010PropOp51
 70
     0
102
RTVSPost2010Prop52
140
1.0
102
RTVSPost2010PropOp52
 70
     0
102
RTVSPost2010Prop53
 90
        2
102
RTVSPost2010PropOp53
 70
     1
102
RTVSPost2010Prop54
  1
strokes_ogs.tif
102
RTVSPost2010PropOp54
 70
     1
102
RTVSPost2010Prop55
280
     0
102
RTVSPost2010PropOp55
 70
     1
102
RTVSPost2010Prop56
140
1.0
102
RTVSPost2010PropOp56
 70
     1
102
RTVSPost2010Prop57
140
1.0
102
RTVSPost2010PropOp57
 70
     1
  0
XRECORD
  5
102
102
{ACAD_REACTORS
330
101
102
}
330
101
100
AcDbXrecord
280
     1
102
RTVSPost2010Prop28
280
     0
102
RTVSPost2010PropOp28
 70
     1
102
RTVSPost2010Prop29
280
     1
102
RTVSPost2010PropOp29
 70
     1
102
RTVSPost2010Prop30
280
     1
102
RTVSPost2010PropOp30
 70
     1
102
RTVSPost2010Prop31
280
     0
102
RTVSPost2010PropOp31
 70
     1
102
RTVSPost2010Prop32
280
     0
102
RTVSPost2010PropOp32
 70
     1
102
RTVSPost2010Prop33
280
     0
102
RTVSPost2010PropOp33
 70
     1
102
RTVSPost2010Prop34
280
     0
102
RTVSPost2010PropOp34
 70
     1
102
RTVSPost2010Prop35
280
     0
102
RTVSPost2010PropOp35
 70
     1
102
RTVSPost2010Prop36
280
     0
102
RTVSPost2010PropOp36
 70
     1
102
RTVSPost2010Prop37
 90
       50
102
RTVSPost2010PropOp37
 70
     1
102
RTVSPost2010Prop38
140
0.0
102
RTVSPost2010PropOp38
 70
     1
102
RTVSPost2010Prop39
140
1.0
102
RTVSPost2010PropOp39
 70
     1
102
RTVSPost2010Prop40
 90
        0
102
RTVSPost2010PropOp40
 70
     1
102
RTVSPost2010Prop41ColorIndex
 90
       18
102
RTVSPost2010Prop41ColorRGB
 90
        0
102
RTVSPost2010PropOp41
 70
     1
102
RTVSPost2010Prop42
 90
       50
102
RTVSPost2010PropOp42
 70
     1
102
RTVSPost2010Prop43
 90
        3
102
RTVSPost2010PropOp43
 70
     1
102
RTVSPost2010Prop44ColorIndex
 90
        5
102
RTVSPost2010Prop44ColorRGB
 90
      255
102
RTVSPost2010PropOp44
 70
     1
102
RTVSPost2010Prop45
280
     0
102
RTVSPost2010PropOp45
 70
     1
102
RTVSPost2010Prop46
 90
       50
102
RTVSPost2010PropOp46
 70
     1
102
RTVSPost2010Prop47
 90
       50
102
RTVSPost2010PropOp47
 70
     1
102
RTVSPost2010Prop48
 90
       50
102
RTVSPost2010PropOp48
 70
     1
102
RTVSPost2010Prop49
280
     0
102
RTVSPost2010PropOp49
 70
     1
102
RTVSPost2010Prop50
 90
       50
102
RTVSPost2010PropOp50
 70
     1
102
RTVSPost2010Prop51ColorIndex
 90
      256
102
RTVSPost2010Prop51ColorRGB
 90
-16777216
102
RTVSPost2010PropOp51
 70
     0
102
RTVSPost2010Prop52
140
1.0
102
RTVSPost2010PropOp52
 70
     0
102
RTVSPost2010Prop53
 90
        2
102
RTVSPost2010PropOp53
 70
     1
102
RTVSPost2010Prop54
  1
strokes_ogs.tif
102
RTVSPost2010PropOp54
 70
     1
102
RTVSPost2010Prop55
280
     0
102
RTVSPost2010PropOp55
 70
     1
102
RTVSPost2010Prop56
140
1.0
102
RTVSPost2010PropOp56
 70
     1
102
RTVSPost2010Prop57
140
1.0
102
RTVSPost2010PropOp57
 70
     1
  0
XRECORD
  5
10A
102
{ACAD_REACTORS
330
109
102
}
330
109
100
AcDbXrecord
280
     1
102
RTVSPost2010Prop28
280
     0
102
RTVSPost2010PropOp28
 70
     1
102
RTVSPost2010Prop29
280
     1
102
RTVSPost2010PropOp29
 70
     1
102
RTVSPost2010Prop30
280
     1
102
RTVSPost2010PropOp30
 70
     1
102
RTVSPost2010Prop31
280
     0
102
RTVSPost2010PropOp31
 70
     1
102
RTVSPost2010Prop32
280
     0
102
RTVSPost2010PropOp32
 70
     1
102
RTVSPost2010Prop33
280
     0
102
RTVSPost2010PropOp33
 70
     1
102
RTVSPost2010Prop34
280
     0
102
RTVSPost2010PropOp34
 70
     1
102
RTVSPost2010Prop35
280
     0
102
RTVSPost2010PropOp35
 70
     1
102
RTVSPost2010Prop36
280
     0
102
RTVSPost2010PropOp36
 70
     1
102
RTVSPost2010Prop37
 90
       50
102
RTVSPost2010PropOp37
 70
     1
102
RTVSPost2010Prop38
140
0.0
102
RTVSPost2010PropOp38
 70
     1
102
RTVSPost2010Prop39
140
1.0
102
RTVSPost2010PropOp39
 70
     1
102
RTVSPost2010Prop40
 90
        0
102
RTVSPost2010PropOp40
 70
     1
102
RTVSPost2010Prop41ColorIndex
 90
       18
102
RTVSPost2010Prop41ColorRGB
 90
        0
102
RTVSPost2010PropOp41
 70
     1
102
RTVSPost2010Prop42
 90
       50
102
RTVSPost2010PropOp42
 70
     1
102
RTVSPost2010Prop43
 90
        3
102
RTVSPost2010PropOp43
 70
     1
102
RTVSPost2010Prop44ColorIndex
 90
        5
102
RTVSPost2010Prop44ColorRGB
 90
      255
102
RTVSPost2010PropOp44
 70
     1
102
RTVSPost2010Prop45
280
     0
102
RTVSPost2010PropOp45
 70
     1
102
RTVSPost2010Prop46
 90
       50
102
RTVSPost2010PropOp46
 70
     1
102
RTVSPost2010Prop47
 90
       50
102
RTVSPost2010PropOp47
 70
     1
102
RTVSPost2010Prop48
 90
       50
102
RTVSPost2010PropOp48
 70
     1
102
RTVSPost2010Prop49
280
     0
102
RTVSPost2010PropOp49
 70
     1
102
RTVSPost2010Prop50
 90
       50
102
RTVSPost2010PropOp50
 70
     1
102
RTVSPost2010Prop51ColorIndex
 90
      256
102
RTVSPost2010Prop51ColorRGB
 90
-16777216
102
RTVSPost2010PropOp51
 70
     0
102
RTVSPost2010Prop52
140
1.0
102
RTVSPost2010PropOp52
 70
     0
102
RTVSPost2010Prop53
 90
        2
102
RTVSPost2010PropOp53
 70
     1
102
RTVSPost2010Prop54
  1
strokes_ogs.tif
102
RTVSPost2010PropOp54
 70
     1
102
RTVSPost2010Prop55
280
     0
102
RTVSPost2010PropOp55
 70
     1
102
RTVSPost2010Prop56
140
1.0
102
RTVSPost2010PropOp56
 70
     1
102
RTVSPost2010Prop57
140
1.0
102
RTVSPost2010PropOp57
 70
     1
  0
XRECORD
  5
FC
102
{ACAD_REACTORS
330
FB
102
}
330
FB
100
AcDbXrecord
280
     1
102
RTVSPost2010Prop28
280
     0
102
RTVSPost2010PropOp28
 70
     1
102
RTVSPost2010Prop29
280
     1
102
RTVSPost2010PropOp29
 70
     1
102
RTVSPost2010Prop30
280
     1
102
RTVSPost2010PropOp30
 70
     1
102
RTVSPost2010Prop31
280
     0
102
RTVSPost2010PropOp31
 70
     1
102
RTVSPost2010Prop32
280
     0
102
RTVSPost2010PropOp32
 70
     1
102
RTVSPost2010Prop33
280
     0
102
RTVSPost2010PropOp33
 70
     1
102
RTVSPost2010Prop34
280
     0
102
RTVSPost2010PropOp34
 70
     1
102
RTVSPost2010Prop35
280
     0
102
RTVSPost2010PropOp35
 70
     1
102
RTVSPost2010Prop36
280
     0
102
RTVSPost2010PropOp36
 70
     1
102
RTVSPost2010Prop37
 90
       50
102
RTVSPost2010PropOp37
 70
     1
102
RTVSPost2010Prop38
140
0.0
102
RTVSPost2010PropOp38
 70
     1
102
RTVSPost2010Prop39
140
1.0
102
RTVSPost2010PropOp39
 70
     1
102
RTVSPost2010Prop40
 90
        0
102
RTVSPost2010PropOp40
 70
     1
102
RTVSPost2010Prop41ColorIndex
 90
       18
102
RTVSPost2010Prop41ColorRGB
 90
        0
102
RTVSPost2010PropOp41
 70
     1
102
RTVSPost2010Prop42
 90
       50
102
RTVSPost2010PropOp42
 70
     1
102
RTVSPost2010Prop43
 90
        3
102
RTVSPost2010PropOp43
 70
     1
102
RTVSPost2010Prop44ColorIndex
 90
        5
102
RTVSPost2010Prop44ColorRGB
 90
      255
102
RTVSPost2010PropOp44
 70
     1
102
RTVSPost2010Prop45
280
     0
102
RTVSPost2010PropOp45
 70
     1
102
RTVSPost2010Prop46
 90
       50
102
RTVSPost2010PropOp46
 70
     1
102
RTVSPost2010Prop47
 90
       50
102
RTVSPost2010PropOp47
 70
     1
102
RTVSPost2010Prop48
 90
       50
102
RTVSPost2010PropOp48
 70
     1
102
RTVSPost2010Prop49
280
     0
102
RTVSPost2010PropOp49
 70
     1
102
RTVSPost2010Prop50
 90
       50
102
RTVSPost2010PropOp50
 70
     1
102
RTVSPost2010Prop51ColorIndex
 90
      256
102
RTVSPost2010Prop51ColorRGB
 90
-16777216
102
RTVSPost2010PropOp51
 70
     0
102
RTVSPost2010Prop52
140
1.0
102
RTVSPost2010PropOp52
 70
     0
102
RTVSPost2010Prop53
 90
        2
102
RTVSPost2010PropOp53
 70
     1
102
RTVSPost2010Prop54
  1
strokes_ogs.tif
102
RTVSPost2010PropOp54
 70
     1
102
RTVSPost2010Prop55
280
     0
102
RTVSPost2010PropOp55
 70
     1
102
RTVSPost2010Prop56
140
1.0
102
RTVSPost2010PropOp56
 70
     1
102
RTVSPost2010Prop57
140
1.0
102
RTVSPost2010PropOp57
 70
     1
  0
XRECORD
  5
100
102
{ACAD_REACTORS
330
FF
102
}
330
FF
100
AcDbXrecord
280
     1
102
RTVSPost2010Prop28
280
     0
102
RTVSPost2010PropOp28
 70
     1
102
RTVSPost2010Prop29
280
     1
102
RTVSPost2010PropOp29
 70
     1
102
RTVSPost2010Prop30
280
     1
102
RTVSPost2010PropOp30
 70
     1
102
RTVSPost2010Prop31
280
     0
102
RTVSPost2010PropOp31
 70
     1
102
RTVSPost2010Prop32
280
     0
102
RTVSPost2010PropOp32
 70
     1
102
RTVSPost2010Prop33
280
     0
102
RTVSPost2010PropOp33
 70
     1
102
RTVSPost2010Prop34
280
     0
102
RTVSPost2010PropOp34
 70
     1
102
RTVSPost2010Prop35
280
     0
102
RTVSPost2010PropOp35
 70
     1
102
RTVSPost2010Prop36
280
     0
102
RTVSPost2010PropOp36
 70
     1
102
RTVSPost2010Prop37
 90
       50
102
RTVSPost2010PropOp37
 70
     1
102
RTVSPost2010Prop38
140
0.0
102
RTVSPost2010PropOp38
 70
     1
102
RTVSPost2010Prop39
140
1.0
102
RTVSPost2010PropOp39
 70
     1
102
RTVSPost2010Prop40
 90
        0
102
RTVSPost2010PropOp40
 70
     1
102
RTVSPost2010Prop41ColorIndex
 90
       18
102
RTVSPost2010Prop41ColorRGB
 90
        0
102
RTVSPost2010PropOp41
 70
     1
102
RTVSPost2010Prop42
 90
       50
102
RTVSPost2010PropOp42
 70
     1
102
RTVSPost2010Prop43
 90
        3
102
RTVSPost2010PropOp43
 70
     1
102
RTVSPost2010Prop44ColorIndex
 90
        5
102
RTVSPost2010Prop44ColorRGB
 90
      255
102
RTVSPost2010PropOp44
 70
     1
102
RTVSPost2010Prop45
280
     0
102
RTVSPost2010PropOp45
 70
     1
102
RTVSPost2010Prop46
 90
       50
102
RTVSPost2010PropOp46
 70
     1
102
RTVSPost2010Prop47
 90
       50
102
RTVSPost2010PropOp47
 70
     1
102
RTVSPost2010Prop48
 90
       50
102
RTVSPost2010PropOp48
 70
     1
102
RTVSPost2010Prop49
280
     0
102
RTVSPost2010PropOp49
 70
     1
102
RTVSPost2010Prop50
 90
       50
102
RTVSPost2010PropOp50
 70
     1
102
RTVSPost2010Prop51ColorIndex
 90
      256
102
RTVSPost2010Prop51ColorRGB
 90
-16777216
102
RTVSPost2010PropOp51
 70
     0
102
RTVSPost2010Prop52
140
1.0
102
RTVSPost2010PropOp52
 70
     0
102
RTVSPost2010Prop53
 90
        2
102
RTVSPost2010PropOp53
 70
     1
102
RTVSPost2010Prop54
  1
strokes_ogs.tif
102
RTVSPost2010PropOp54
 70
     1
102
RTVSPost2010Prop55
280
     0
102
RTVSPost2010PropOp55
 70
     1
102
RTVSPost2010Prop56
140
1.0
102
RTVSPost2010PropOp56
 70
     1
102
RTVSPost2010Prop57
140
1.0
102
RTVSPost2010PropOp57
 70
     1
  0
XRECORD
  5
11A
102
{ACAD_REACTORS
330
119
102
}
330
119
100
AcDbXrecord
280
     1
102
RTVSPost2010Prop28
280
     0
102
RTVSPost2010PropOp28
 70
     0
102
RTVSPost2010Prop29
280
     1
102
RTVSPost2010PropOp29
 70
     0
102
RTVSPost2010Prop30
280
     1
102
RTVSPost2010PropOp30
 70
     0
102
RTVSPost2010Prop31
280
     0
102
RTVSPost2010PropOp31
 70
     0
102
RTVSPost2010Prop32
280
     0
102
RTVSPost2010PropOp32
 70
     0
102
RTVSPost2010Prop33
280
     0
102
RTVSPost2010PropOp33
 70
     0
102
RTVSPost2010Prop34
280
     0
102
RTVSPost2010PropOp34
 70
     0
102
RTVSPost2010Prop35
280
     0
102
RTVSPost2010PropOp35
 70
     0
102
RTVSPost2010Prop36
280
     0
102
RTVSPost2010PropOp36
 70
     0
102
RTVSPost2010Prop37
 90
       50
102
RTVSPost2010PropOp37
 70
     0
102
RTVSPost2010Prop38
140
0.0
102
RTVSPost2010PropOp38
 70
     0
102
RTVSPost2010Prop39
140
1.0
102
RTVSPost2010PropOp39
 70
     0
102
RTVSPost2010Prop40
 90
        0
102
RTVSPost2010PropOp40
 70
     0
102
RTVSPost2010Prop41ColorIndex
 90
       18
102
RTVSPost2010Prop41ColorRGB
 90
        0
102
RTVSPost2010PropOp41
 70
     0
102
RTVSPost2010Prop42
 90
       50
102
RTVSPost2010PropOp42
 70
     0
102
RTVSPost2010Prop43
 90
        3
102
RTVSPost2010PropOp43
 70
     0
102
RTVSPost2010Prop44ColorIndex
 90
        5
102
RTVSPost2010Prop44ColorRGB
 90
      255
102
RTVSPost2010PropOp44
 70
     0
102
RTVSPost2010Prop45
280
     0
102
RTVSPost2010PropOp45
 70
     0
102
RTVSPost2010Prop46
 90
       50
102
RTVSPost2010PropOp46
 70
     0
102
RTVSPost2010Prop47
 90
       50
102
RTVSPost2010PropOp47
 70
     0
102
RTVSPost2010Prop48
 90
       50
102
RTVSPost2010PropOp48
 70
     0
102
RTVSPost2010Prop49
280
     0
102
RTVSPost2010PropOp49
 70
     0
102
RTVSPost2010Prop50
 90
       50
102
RTVSPost2010PropOp50
 70
     0
102
RTVSPost2010Prop51ColorIndex
 90
      256
102
RTVSPost2010Prop51ColorRGB
 90
-16777216
102
RTVSPost2010PropOp51
 70
     0
102
RTVSPost2010Prop52
140
1.0
102
RTVSPost2010PropOp52
 70
     0
102
RTVSPost2010Prop53
 90
        2
102
RTVSPost2010PropOp53
 70
     0
102
RTVSPost2010Prop54
  1
strokes_ogs.tif
102
RTVSPost2010PropOp54
 70
     0
102
RTVSPost2010Prop55
280
     0
102
RTVSPost2010PropOp55
 70
     0
102
RTVSPost2010Prop56
140
1.0
102
RTVSPost2010PropOp56
 70
     0
102
RTVSPost2010Prop57
140
1.0
102
RTVSPost2010PropOp57
 70
     0
  0
XRECORD
  5
108
102
{ACAD_REACTORS
330
107
102
}
330
107
100
AcDbXrecord
280
     1
102
RTVSPost2010Prop28
280
     0
102
RTVSPost2010PropOp28
 70
     1
102
RTVSPost2010Prop29
280
     1
102
RTVSPost2010PropOp29
 70
     1
102
RTVSPost2010Prop30
280
     1
102
RTVSPost2010PropOp30
 70
     1
102
RTVSPost2010Prop31
280
     0
102
RTVSPost2010PropOp31
 70
     1
102
RTVSPost2010Prop32
280
     0
102
RTVSPost2010PropOp32
 70
     1
102
RTVSPost2010Prop33
280
     0
102
RTVSPost2010PropOp33
 70
     1
102
RTVSPost2010Prop34
280
     0
102
RTVSPost2010PropOp34
 70
     1
102
RTVSPost2010Prop35
280
     0
102
RTVSPost2010PropOp35
 70
     1
102
RTVSPost2010Prop36
280
     0
102
RTVSPost2010PropOp36
 70
     1
102
RTVSPost2010Prop37
 90
       50
102
RTVSPost2010PropOp37
 70
     1
102
RTVSPost2010Prop38
140
0.0
102
RTVSPost2010PropOp38
 70
     1
102
RTVSPost2010Prop39
140
1.0
102
RTVSPost2010PropOp39
 70
     1
102
RTVSPost2010Prop40
 90
        0
102
RTVSPost2010PropOp40
 70
     1
102
RTVSPost2010Prop41ColorIndex
 90
       18
102
RTVSPost2010Prop41ColorRGB
 90
        0
102
RTVSPost2010PropOp41
 70
     1
102
RTVSPost2010Prop42
 90
       50
102
RTVSPost2010PropOp42
 70
     1
102
RTVSPost2010Prop43
 90
        3
102
RTVSPost2010PropOp43
 70
     1
102
RTVSPost2010Prop44ColorIndex
 90
        5
102
RTVSPost2010Prop44ColorRGB
 90
      255
102
RTVSPost2010PropOp44
 70
     1
102
RTVSPost2010Prop45
280
     0
102
RTVSPost2010PropOp45
 70
     1
102
RTVSPost2010Prop46
 90
       50
102
RTVSPost2010PropOp46
 70
     1
102
RTVSPost2010Prop47
 90
       50
102
RTVSPost2010PropOp47
 70
     1
102
RTVSPost2010Prop48
 90
       50
102
RTVSPost2010PropOp48
 70
     1
102
RTVSPost2010Prop49
280
     0
102
RTVSPost2010PropOp49
 70
     1
102
RTVSPost2010Prop50
 90
       50
102
RTVSPost2010PropOp50
 70
     1
102
RTVSPost2010Prop51ColorIndex
 90
      256
102
RTVSPost2010Prop51ColorRGB
 90
-16777216
102
RTVSPost2010PropOp51
 70
     0
102
RTVSPost2010Prop52
140
1.0
102
RTVSPost2010PropOp52
 70
     0
102
RTVSPost2010Prop53
 90
        2
102
RTVSPost2010PropOp53
 70
     1
102
RTVSPost2010Prop54
  1
strokes_ogs.tif
102
RTVSPost2010PropOp54
 70
     1
102
RTVSPost2010Prop55
280
     0
102
RTVSPost2010PropOp55
 70
     1
102
RTVSPost2010Prop56
140
1.0
102
RTVSPost2010PropOp56
 70
     1
102
RTVSPost2010Prop57
140
1.0
102
RTVSPost2010PropOp57
 70
     1
  0
XRECORD
  5
EC
102
{ACAD_REACTORS
330
EB
102
}
330
EB
100
AcDbXrecord
280
     1
102
RTVSPost2010Prop28
280
     0
102
RTVSPost2010PropOp28
 70
     1
102
RTVSPost2010Prop29
280
     1
102
RTVSPost2010PropOp29
 70
     1
102
RTVSPost2010Prop30
280
     1
102
RTVSPost2010PropOp30
 70
     1
102
RTVSPost2010Prop31
280
     0
102
RTVSPost2010PropOp31
 70
     1
102
RTVSPost2010Prop32
280
     0
102
RTVSPost2010PropOp32
 70
     1
102
RTVSPost2010Prop33
280
     0
102
RTVSPost2010PropOp33
 70
     1
102
RTVSPost2010Prop34
280
     0
102
RTVSPost2010PropOp34
 70
     1
102
RTVSPost2010Prop35
280
     0
102
RTVSPost2010PropOp35
 70
     1
102
RTVSPost2010Prop36
280
     0
102
RTVSPost2010PropOp36
 70
     1
102
RTVSPost2010Prop37
 90
       50
102
RTVSPost2010PropOp37
 70
     1
102
RTVSPost2010Prop38
140
0.0
102
RTVSPost2010PropOp38
 70
     1
102
RTVSPost2010Prop39
140
1.0
102
RTVSPost2010PropOp39
 70
     1
102
RTVSPost2010Prop40
 90
        0
102
RTVSPost2010PropOp40
 70
     1
102
RTVSPost2010Prop41ColorIndex
 90
       18
102
RTVSPost2010Prop41ColorRGB
 90
        0
102
RTVSPost2010PropOp41
 70
     1
102
RTVSPost2010Prop42
 90
       50
102
RTVSPost2010PropOp42
 70
     1
102
RTVSPost2010Prop43
 90
        3
102
RTVSPost2010PropOp43
 70
     1
102
RTVSPost2010Prop44ColorIndex
 90
        5
102
RTVSPost2010Prop44ColorRGB
 90
      255
102
RTVSPost2010PropOp44
 70
     1
102
RTVSPost2010Prop45
280
     0
102
RTVSPost2010PropOp45
 70
     1
102
RTVSPost2010Prop46
 90
       50
102
RTVSPost2010PropOp46
 70
     1
102
RTVSPost2010Prop47
 90
       50
102
RTVSPost2010PropOp47
 70
     1
102
RTVSPost2010Prop48
 90
       50
102
RTVSPost2010PropOp48
 70
     1
102
RTVSPost2010Prop49
280
     0
102
RTVSPost2010PropOp49
 70
     1
102
RTVSPost2010Prop50
 90
       50
102
RTVSPost2010PropOp50
 70
     1
102
RTVSPost2010Prop51ColorIndex
 90
      256
102
RTVSPost2010Prop51ColorRGB
 90
-16777216
102
RTVSPost2010PropOp51
 70
     0
102
RTVSPost2010Prop52
140
1.0
102
RTVSPost2010PropOp52
 70
     0
102
RTVSPost2010Prop53
 90
        2
102
RTVSPost2010PropOp53
 70
     1
102
RTVSPost2010Prop54
  1
strokes_ogs.tif
102
RTVSPost2010PropOp54
 70
     1
102
RTVSPost2010Prop55
280
     0
102
RTVSPost2010PropOp55
 70
     1
102
RTVSPost2010Prop56
140
1.0
102
RTVSPost2010PropOp56
 70
     1
102
RTVSPost2010Prop57
140
1.0
102
RTVSPost2010PropOp57
 70
     1
  0
XRECORD
  5
EE
102
{ACAD_REACTORS
330
ED
102
}
330
ED
100
AcDbXrecord
280
     1
102
RTVSPost2010Prop28
280
     0
102
RTVSPost2010PropOp28
 70
     1
102
RTVSPost2010Prop29
280
     1
102
RTVSPost2010PropOp29
 70
     1
102
RTVSPost2010Prop30
280
     1
102
RTVSPost2010PropOp30
 70
     1
102
RTVSPost2010Prop31
280
     0
102
RTVSPost2010PropOp31
 70
     1
102
RTVSPost2010Prop32
280
     0
102
RTVSPost2010PropOp32
 70
     1
102
RTVSPost2010Prop33
280
     0
102
RTVSPost2010PropOp33
 70
     1
102
RTVSPost2010Prop34
280
     0
102
RTVSPost2010PropOp34
 70
     1
102
RTVSPost2010Prop35
280
     0
102
RTVSPost2010PropOp35
 70
     1
102
RTVSPost2010Prop36
280
     0
102
RTVSPost2010PropOp36
 70
     1
102
RTVSPost2010Prop37
 90
       50
102
RTVSPost2010PropOp37
 70
     1
102
RTVSPost2010Prop38
140
0.0
102
RTVSPost2010PropOp38
 70
     1
102
RTVSPost2010Prop39
140
1.0
102
RTVSPost2010PropOp39
 70
     1
102
RTVSPost2010Prop40
 90
        0
102
RTVSPost2010PropOp40
 70
     1
102
RTVSPost2010Prop41ColorIndex
 90
       18
102
RTVSPost2010Prop41ColorRGB
 90
        0
102
RTVSPost2010PropOp41
 70
     1
102
RTVSPost2010Prop42
 90
       50
102
RTVSPost2010PropOp42
 70
     1
102
RTVSPost2010Prop43
 90
        3
102
RTVSPost2010PropOp43
 70
     1
102
RTVSPost2010Prop44ColorIndex
 90
        5
102
RTVSPost2010Prop44ColorRGB
 90
      255
102
RTVSPost2010PropOp44
 70
     1
102
RTVSPost2010Prop45
280
     0
102
RTVSPost2010PropOp45
 70
     1
102
RTVSPost2010Prop46
 90
       50
102
RTVSPost2010PropOp46
 70
     1
102
RTVSPost2010Prop47
 90
       50
102
RTVSPost2010PropOp47
 70
     1
102
RTVSPost2010Prop48
 90
       50
102
RTVSPost2010PropOp48
 70
     1
102
RTVSPost2010Prop49
280
     0
102
RTVSPost2010PropOp49
 70
     1
102
RTVSPost2010Prop50
 90
       50
102
RTVSPost2010PropOp50
 70
     1
102
RTVSPost2010Prop51ColorIndex
 90
      256
102
RTVSPost2010Prop51ColorRGB
 90
-16777216
102
RTVSPost2010PropOp51
 70
     0
102
RTVSPost2010Prop52
140
1.0
102
RTVSPost2010PropOp52
 70
     0
102
RTVSPost2010Prop53
 90
        2
102
RTVSPost2010PropOp53
 70
     1
102
RTVSPost2010Prop54
  1
strokes_ogs.tif
102
RTVSPost2010PropOp54
 70
     1
102
RTVSPost2010Prop55
280
     0
102
RTVSPost2010PropOp55
 70
     1
102
RTVSPost2010Prop56
140
1.0
102
RTVSPost2010PropOp56
 70
     1
102
RTVSPost2010Prop57
140
1.0
102
RTVSPost2010PropOp57
 70
     1
  0
XRECORD
  5
F0
102
{ACAD_REACTORS
330
EF
102
}
330
EF
100
AcDbXrecord
280
     1
102
RTVSPost2010Prop28
280
     0
102
RTVSPost2010PropOp28
 70
     1
102
RTVSPost2010Prop29
280
     1
102
RTVSPost2010PropOp29
 70
     1
102
RTVSPost2010Prop30
280
     1
102
RTVSPost2010PropOp30
 70
     1
102
RTVSPost2010Prop31
280
     0
102
RTVSPost2010PropOp31
 70
     1
102
RTVSPost2010Prop32
280
     0
102
RTVSPost2010PropOp32
 70
     1
102
RTVSPost2010Prop33
280
     0
102
RTVSPost2010PropOp33
 70
     1
102
RTVSPost2010Prop34
280
     0
102
RTVSPost2010PropOp34
 70
     1
102
RTVSPost2010Prop35
280
     0
102
RTVSPost2010PropOp35
 70
     1
102
RTVSPost2010Prop36
280
     0
102
RTVSPost2010PropOp36
 70
     1
102
RTVSPost2010Prop37
 90
       50
102
RTVSPost2010PropOp37
 70
     1
102
RTVSPost2010Prop38
140
0.0
102
RTVSPost2010PropOp38
 70
     1
102
RTVSPost2010Prop39
140
1.0
102
RTVSPost2010PropOp39
 70
     1
102
RTVSPost2010Prop40
 90
        0
102
RTVSPost2010PropOp40
 70
     1
102
RTVSPost2010Prop41ColorIndex
 90
       18
102
RTVSPost2010Prop41ColorRGB
 90
        0
102
RTVSPost2010PropOp41
 70
     1
102
RTVSPost2010Prop42
 90
       50
102
RTVSPost2010PropOp42
 70
     1
102
RTVSPost2010Prop43
 90
        3
102
RTVSPost2010PropOp43
 70
     1
102
RTVSPost2010Prop44ColorIndex
 90
        5
102
RTVSPost2010Prop44ColorRGB
 90
      255
102
RTVSPost2010PropOp44
 70
     1
102
RTVSPost2010Prop45
280
     0
102
RTVSPost2010PropOp45
 70
     1
102
RTVSPost2010Prop46
 90
       50
102
RTVSPost2010PropOp46
 70
     1
102
RTVSPost2010Prop47
 90
       50
102
RTVSPost2010PropOp47
 70
     1
102
RTVSPost2010Prop48
 90
       50
102
RTVSPost2010PropOp48
 70
     1
102
RTVSPost2010Prop49
280
     0
102
RTVSPost2010PropOp49
 70
     1
102
RTVSPost2010Prop50
 90
       50
102
RTVSPost2010PropOp50
 70
     1
102
RTVSPost2010Prop51ColorIndex
 90
      256
102
RTVSPost2010Prop51ColorRGB
 90
-16777216
102
RTVSPost2010PropOp51
 70
     0
102
RTVSPost2010Prop52
140
1.0
102
RTVSPost2010PropOp52
 70
     0
102
RTVSPost2010Prop53
 90
        2
102
RTVSPost2010PropOp53
 70
     1
102
RTVSPost2010Prop54
  1
strokes_ogs.tif
102
RTVSPost2010PropOp54
 70
     1
102
RTVSPost2010Prop55
280
     0
102
RTVSPost2010PropOp55
 70
     1
102
RTVSPost2010Prop56
140
1.0
102
RTVSPost2010PropOp56
 70
     1
102
RTVSPost2010Prop57
140
1.0
102
RTVSPost2010PropOp57
 70
     1
  0
XRECORD
  5
F2
102
{ACAD_REACTORS
330
F1
102
}
330
F1
100
AcDbXrecord
280
     1
102
RTVSPost2010Prop28
280
     0
102
RTVSPost2010PropOp28
 70
     1
102
RTVSPost2010Prop29
280
     1
102
RTVSPost2010PropOp29
 70
     1
102
RTVSPost2010Prop30
280
     1
102
RTVSPost2010PropOp30
 70
     1
102
RTVSPost2010Prop31
280
     0
102
RTVSPost2010PropOp31
 70
     1
102
RTVSPost2010Prop32
280
     0
102
RTVSPost2010PropOp32
 70
     1
102
RTVSPost2010Prop33
280
     0
102
RTVSPost2010PropOp33
 70
     1
102
RTVSPost2010Prop34
280
     0
102
RTVSPost2010PropOp34
 70
     1
102
RTVSPost2010Prop35
280
     0
102
RTVSPost2010PropOp35
 70
     1
102
RTVSPost2010Prop36
280
     0
102
RTVSPost2010PropOp36
 70
     1
102
RTVSPost2010Prop37
 90
       50
102
RTVSPost2010PropOp37
 70
     1
102
RTVSPost2010Prop38
140
0.0
102
RTVSPost2010PropOp38
 70
     1
102
RTVSPost2010Prop39
140
1.0
102
RTVSPost2010PropOp39
 70
     1
102
RTVSPost2010Prop40
 90
        0
102
RTVSPost2010PropOp40
 70
     1
102
RTVSPost2010Prop41ColorIndex
 90
       18
102
RTVSPost2010Prop41ColorRGB
 90
        0
102
RTVSPost2010PropOp41
 70
     1
102
RTVSPost2010Prop42
 90
       50
102
RTVSPost2010PropOp42
 70
     1
102
RTVSPost2010Prop43
 90
        3
102
RTVSPost2010PropOp43
 70
     1
102
RTVSPost2010Prop44ColorIndex
 90
        5
102
RTVSPost2010Prop44ColorRGB
 90
      255
102
RTVSPost2010PropOp44
 70
     1
102
RTVSPost2010Prop45
280
     0
102
RTVSPost2010PropOp45
 70
     1
102
RTVSPost2010Prop46
 90
       50
102
RTVSPost2010PropOp46
 70
     1
102
RTVSPost2010Prop47
 90
       50
102
RTVSPost2010PropOp47
 70
     1
102
RTVSPost2010Prop48
 90
       50
102
RTVSPost2010PropOp48
 70
     1
102
RTVSPost2010Prop49
280
     0
102
RTVSPost2010PropOp49
 70
     1
102
RTVSPost2010Prop50
 90
       50
102
RTVSPost2010PropOp50
 70
     1
102
RTVSPost2010Prop51ColorIndex
 90
      256
102
RTVSPost2010Prop51ColorRGB
 90
-16777216
102
RTVSPost2010PropOp51
 70
     0
102
RTVSPost2010Prop52
140
1.0
102
RTVSPost2010PropOp52
 70
     0
102
RTVSPost2010Prop53
 90
        2
102
RTVSPost2010PropOp53
 70
     1
102
RTVSPost2010Prop54
  1
strokes_ogs.tif
102
RTVSPost2010PropOp54
 70
     1
102
RTVSPost2010Prop55
280
     0
102
RTVSPost2010PropOp55
 70
     1
102
RTVSPost2010Prop56
140
1.0
102
RTVSPost2010PropOp56
 70
     1
102
RTVSPost2010Prop57
140
1.0
102
RTVSPost2010PropOp57
 70
     1
  0
XRECORD
  5
FA
102
{ACAD_REACTORS
330
F9
102
}
330
F9
100
AcDbXrecord
280
     1
102
RTVSPost2010Prop28
280
     0
102
RTVSPost2010PropOp28
 70
     1
102
RTVSPost2010Prop29
280
     1
102
RTVSPost2010PropOp29
 70
     1
102
RTVSPost2010Prop30
280
     1
102
RTVSPost2010PropOp30
 70
     1
102
RTVSPost2010Prop31
280
     0
102
RTVSPost2010PropOp31
 70
     1
102
RTVSPost2010Prop32
280
     0
102
RTVSPost2010PropOp32
 70
     1
102
RTVSPost2010Prop33
280
     0
102
RTVSPost2010PropOp33
 70
     1
102
RTVSPost2010Prop34
280
     0
102
RTVSPost2010PropOp34
 70
     1
102
RTVSPost2010Prop35
280
     0
102
RTVSPost2010PropOp35
 70
     1
102
RTVSPost2010Prop36
280
     0
102
RTVSPost2010PropOp36
 70
     1
102
RTVSPost2010Prop37
 90
       50
102
RTVSPost2010PropOp37
 70
     1
102
RTVSPost2010Prop38
140
0.0
102
RTVSPost2010PropOp38
 70
     1
102
RTVSPost2010Prop39
140
1.0
102
RTVSPost2010PropOp39
 70
     1
102
RTVSPost2010Prop40
 90
        0
102
RTVSPost2010PropOp40
 70
     1
102
RTVSPost2010Prop41ColorIndex
 90
       18
102
RTVSPost2010Prop41ColorRGB
 90
        0
102
RTVSPost2010PropOp41
 70
     1
102
RTVSPost2010Prop42
 90
       50
102
RTVSPost2010PropOp42
 70
     1
102
RTVSPost2010Prop43
 90
        3
102
RTVSPost2010PropOp43
 70
     1
102
RTVSPost2010Prop44ColorIndex
 90
        5
102
RTVSPost2010Prop44ColorRGB
 90
      255
102
RTVSPost2010PropOp44
 70
     1
102
RTVSPost2010Prop45
280
     0
102
RTVSPost2010PropOp45
 70
     1
102
RTVSPost2010Prop46
 90
       50
102
RTVSPost2010PropOp46
 70
     1
102
RTVSPost2010Prop47
 90
       50
102
RTVSPost2010PropOp47
 70
     1
102
RTVSPost2010Prop48
 90
       50
102
RTVSPost2010PropOp48
 70
     1
102
RTVSPost2010Prop49
280
     0
102
RTVSPost2010PropOp49
 70
     1
102
RTVSPost2010Prop50
 90
       50
102
RTVSPost2010PropOp50
 70
     1
102
RTVSPost2010Prop51ColorIndex
 90
      256
102
RTVSPost2010Prop51ColorRGB
 90
-16777216
102
RTVSPost2010PropOp51
 70
     0
102
RTVSPost2010Prop52
140
1.0
102
RTVSPost2010PropOp52
 70
     0
102
RTVSPost2010Prop53
 90
        2
102
RTVSPost2010PropOp53
 70
     1
102
RTVSPost2010Prop54
  1
strokes_ogs.tif
102
RTVSPost2010PropOp54
 70
     1
102
RTVSPost2010Prop55
280
     0
102
RTVSPost2010PropOp55
 70
     1
102
RTVSPost2010Prop56
140
1.0
102
RTVSPost2010PropOp56
 70
     1
102
RTVSPost2010Prop57
140
1.0
102
RTVSPost2010PropOp57
 70
     1
  0
XRECORD
  5
116
102
{ACAD_REACTORS
330
115
102
}
330
115
100
AcDbXrecord
280
     1
102
RTVSPost2010Prop28
280
     0
102
RTVSPost2010PropOp28
 70
     0
102
RTVSPost2010Prop29
280
     1
102
RTVSPost2010PropOp29
 70
     0
102
RTVSPost2010Prop30
280
     1
102
RTVSPost2010PropOp30
 70
     0
102
RTVSPost2010Prop31
280
     0
102
RTVSPost2010PropOp31
 70
     0
102
RTVSPost2010Prop32
280
     0
102
RTVSPost2010PropOp32
 70
     0
102
RTVSPost2010Prop33
280
     0
102
RTVSPost2010PropOp33
 70
     0
102
RTVSPost2010Prop34
280
     0
102
RTVSPost2010PropOp34
 70
     0
102
RTVSPost2010Prop35
280
     0
102
RTVSPost2010PropOp35
 70
     0
102
RTVSPost2010Prop36
280
     0
102
RTVSPost2010PropOp36
 70
     0
102
RTVSPost2010Prop37
 90
       50
102
RTVSPost2010PropOp37
 70
     0
102
RTVSPost2010Prop38
140
0.0
102
RTVSPost2010PropOp38
 70
     0
102
RTVSPost2010Prop39
140
1.0
102
RTVSPost2010PropOp39
 70
     0
102
RTVSPost2010Prop40
 90
        0
102
RTVSPost2010PropOp40
 70
     0
102
RTVSPost2010Prop41ColorIndex
 90
       18
102
RTVSPost2010Prop41ColorRGB
 90
        0
102
RTVSPost2010PropOp41
 70
     0
102
RTVSPost2010Prop42
 90
       50
102
RTVSPost2010PropOp42
 70
     0
102
RTVSPost2010Prop43
 90
        3
102
RTVSPost2010PropOp43
 70
     0
102
RTVSPost2010Prop44ColorIndex
 90
        5
102
RTVSPost2010Prop44ColorRGB
 90
      255
102
RTVSPost2010PropOp44
 70
     0
102
RTVSPost2010Prop45
280
     0
102
RTVSPost2010PropOp45
 70
     0
102
RTVSPost2010Prop46
 90
       50
102
RTVSPost2010PropOp46
 70
     0
102
RTVSPost2010Prop47
 90
       50
102
RTVSPost2010PropOp47
 70
     0
102
RTVSPost2010Prop48
 90
       50
102
RTVSPost2010PropOp48
 70
     0
102
RTVSPost2010Prop49
280
     0
102
RTVSPost2010PropOp49
 70
     0
102
RTVSPost2010Prop50
 90
       50
102
RTVSPost2010PropOp50
 70
     0
102
RTVSPost2010Prop51ColorIndex
 90
      256
102
RTVSPost2010Prop51ColorRGB
 90
-16777216
102
RTVSPost2010PropOp51
 70
     0
102
RTVSPost2010Prop52
140
1.0
102
RTVSPost2010PropOp52
 70
     0
102
RTVSPost2010Prop53
 90
        2
102
RTVSPost2010PropOp53
 70
     0
102
RTVSPost2010Prop54
  1
strokes_ogs.tif
102
RTVSPost2010PropOp54
 70
     0
102
RTVSPost2010Prop55
280
     0
102
RTVSPost2010PropOp55
 70
     0
102
RTVSPost2010Prop56
140
1.0
102
RTVSPost2010PropOp56
 70
     0
102
RTVSPost2010Prop57
140
1.0
102
RTVSPost2010PropOp57
 70
     0
  0
XRECORD
  5
106
102
{ACAD_REACTORS
330
105
102
}
330
105
100
AcDbXrecord
280
     1
102
RTVSPost2010Prop28
280
     0
102
RTVSPost2010PropOp28
 70
     1
102
RTVSPost2010Prop29
280
     1
102
RTVSPost2010PropOp29
 70
     1
102
RTVSPost2010Prop30
280
     1
102
RTVSPost2010PropOp30
 70
     1
102
RTVSPost2010Prop31
280
     0
102
RTVSPost2010PropOp31
 70
     1
102
RTVSPost2010Prop32
280
     0
102
RTVSPost2010PropOp32
 70
     1
102
RTVSPost2010Prop33
280
     0
102
RTVSPost2010PropOp33
 70
     1
102
RTVSPost2010Prop34
280
     0
102
RTVSPost2010PropOp34
 70
     1
102
RTVSPost2010Prop35
280
     0
102
RTVSPost2010PropOp35
 70
     1
102
RTVSPost2010Prop36
280
     0
102
RTVSPost2010PropOp36
 70
     1
102
RTVSPost2010Prop37
 90
       50
102
RTVSPost2010PropOp37
 70
     1
102
RTVSPost2010Prop38
140
0.0
102
RTVSPost2010PropOp38
 70
     1
102
RTVSPost2010Prop39
140
1.0
102
RTVSPost2010PropOp39
 70
     1
102
RTVSPost2010Prop40
 90
        0
102
RTVSPost2010PropOp40
 70
     1
102
RTVSPost2010Prop41ColorIndex
 90
       18
102
RTVSPost2010Prop41ColorRGB
 90
        0
102
RTVSPost2010PropOp41
 70
     1
102
RTVSPost2010Prop42
 90
       50
102
RTVSPost2010PropOp42
 70
     1
102
RTVSPost2010Prop43
 90
        3
102
RTVSPost2010PropOp43
 70
     1
102
RTVSPost2010Prop44ColorIndex
 90
        5
102
RTVSPost2010Prop44ColorRGB
 90
      255
102
RTVSPost2010PropOp44
 70
     1
102
RTVSPost2010Prop45
280
     0
102
RTVSPost2010PropOp45
 70
     1
102
RTVSPost2010Prop46
 90
       50
102
RTVSPost2010PropOp46
 70
     1
102
RTVSPost2010Prop47
 90
       50
102
RTVSPost2010PropOp47
 70
     1
102
RTVSPost2010Prop48
 90
       50
102
RTVSPost2010PropOp48
 70
     1
102
RTVSPost2010Prop49
280
     0
102
RTVSPost2010PropOp49
 70
     1
102
RTVSPost2010Prop50
 90
       50
102
RTVSPost2010PropOp50
 70
     1
102
RTVSPost2010Prop51ColorIndex
 90
      256
102
RTVSPost2010Prop51ColorRGB
 90
-16777216
102
RTVSPost2010PropOp51
 70
     0
102
RTVSPost2010Prop52
140
1.0
102
RTVSPost2010PropOp52
 70
     0
102
RTVSPost2010Prop53
 90
        2
102
RTVSPost2010PropOp53
 70
     1
102
RTVSPost2010Prop54
  1
strokes_ogs.tif
102
RTVSPost2010PropOp54
 70
     1
102
RTVSPost2010Prop55
280
     0
102
RTVSPost2010PropOp55
 70
     1
102
RTVSPost2010Prop56
140
1.0
102
RTVSPost2010PropOp56
 70
     1
102
RTVSPost2010Prop57
140
1.0
102
RTVSPost2010PropOp57
 70
     1
  0
XRECORD
  5
118
102
{ACAD_REACTORS
330
117
102
}
330
117
100
AcDbXrecord
280
     1
102
RTVSPost2010Prop28
280
     0
102
RTVSPost2010PropOp28
 70
     0
102
RTVSPost2010Prop29
280
     1
102
RTVSPost2010PropOp29
 70
     0
102
RTVSPost2010Prop30
280
     1
102
RTVSPost2010PropOp30
 70
     0
102
RTVSPost2010Prop31
280
     0
102
RTVSPost2010PropOp31
 70
     0
102
RTVSPost2010Prop32
280
     0
102
RTVSPost2010PropOp32
 70
     0
102
RTVSPost2010Prop33
280
     0
102
RTVSPost2010PropOp33
 70
     0
102
RTVSPost2010Prop34
280
     0
102
RTVSPost2010PropOp34
 70
     0
102
RTVSPost2010Prop35
280
     0
102
RTVSPost2010PropOp35
 70
     0
102
RTVSPost2010Prop36
280
     0
102
RTVSPost2010PropOp36
 70
     0
102
RTVSPost2010Prop37
 90
       50
102
RTVSPost2010PropOp37
 70
     0
102
RTVSPost2010Prop38
140
0.0
102
RTVSPost2010PropOp38
 70
     0
102
RTVSPost2010Prop39
140
1.0
102
RTVSPost2010PropOp39
 70
     0
102
RTVSPost2010Prop40
 90
        0
102
RTVSPost2010PropOp40
 70
     0
102
RTVSPost2010Prop41ColorIndex
 90
       18
102
RTVSPost2010Prop41ColorRGB
 90
        0
102
RTVSPost2010PropOp41
 70
     0
102
RTVSPost2010Prop42
 90
       50
102
RTVSPost2010PropOp42
 70
     0
102
RTVSPost2010Prop43
 90
        3
102
RTVSPost2010PropOp43
 70
     0
102
RTVSPost2010Prop44ColorIndex
 90
        5
102
RTVSPost2010Prop44ColorRGB
 90
      255
102
RTVSPost2010PropOp44
 70
     0
102
RTVSPost2010Prop45
280
     0
102
RTVSPost2010PropOp45
 70
     0
102
RTVSPost2010Prop46
 90
       50
102
RTVSPost2010PropOp46
 70
     0
102
RTVSPost2010Prop47
 90
       50
102
RTVSPost2010PropOp47
 70
     0
102
RTVSPost2010Prop48
 90
       50
102
RTVSPost2010PropOp48
 70
     0
102
RTVSPost2010Prop49
280
     0
102
RTVSPost2010PropOp49
 70
     0
102
RTVSPost2010Prop50
 90
       50
102
RTVSPost2010PropOp50
 70
     0
102
RTVSPost2010Prop51ColorIndex
 90
      256
102
RTVSPost2010Prop51ColorRGB
 90
-16777216
102
RTVSPost2010PropOp51
 70
     0
102
RTVSPost2010Prop52
140
1.0
102
RTVSPost2010PropOp52
 70
     0
102
RTVSPost2010Prop53
 90
        2
102
RTVSPost2010PropOp53
 70
     0
102
RTVSPost2010Prop54
  1
strokes_ogs.tif
102
RTVSPost2010PropOp54
 70
     0
102
RTVSPost2010Prop55
280
     0
102
RTVSPost2010PropOp55
 70
     0
102
RTVSPost2010Prop56
140
1.0
102
RTVSPost2010PropOp56
 70
     0
102
RTVSPost2010Prop57
140
1.0
102
RTVSPost2010PropOp57
 70
     0
  0
XRECORD
  5
FE
102
{ACAD_REACTORS
330
FD
102
}
330
FD
100
AcDbXrecord
280
     1
102
RTVSPost2010Prop28
280
     0
102
RTVSPost2010PropOp28
 70
     1
102
RTVSPost2010Prop29
280
     1
102
RTVSPost2010PropOp29
 70
     1
102
RTVSPost2010Prop30
280
     1
102
RTVSPost2010PropOp30
 70
     1
102
RTVSPost2010Prop31
280
     0
102
RTVSPost2010PropOp31
 70
     1
102
RTVSPost2010Prop32
280
     0
102
RTVSPost2010PropOp32
 70
     1
102
RTVSPost2010Prop33
280
     0
102
RTVSPost2010PropOp33
 70
     1
102
RTVSPost2010Prop34
280
     0
102
RTVSPost2010PropOp34
 70
     1
102
RTVSPost2010Prop35
280
     0
102
RTVSPost2010PropOp35
 70
     1
102
RTVSPost2010Prop36
280
     0
102
RTVSPost2010PropOp36
 70
     1
102
RTVSPost2010Prop37
 90
       50
102
RTVSPost2010PropOp37
 70
     1
102
RTVSPost2010Prop38
140
0.0
102
RTVSPost2010PropOp38
 70
     1
102
RTVSPost2010Prop39
140
1.0
102
RTVSPost2010PropOp39
 70
     1
102
RTVSPost2010Prop40
 90
        0
102
RTVSPost2010PropOp40
 70
     1
102
RTVSPost2010Prop41ColorIndex
 90
       18
102
RTVSPost2010Prop41ColorRGB
 90
        0
102
RTVSPost2010PropOp41
 70
     1
102
RTVSPost2010Prop42
 90
       50
102
RTVSPost2010PropOp42
 70
     1
102
RTVSPost2010Prop43
 90
        3
102
RTVSPost2010PropOp43
 70
     1
102
RTVSPost2010Prop44ColorIndex
 90
        5
102
RTVSPost2010Prop44ColorRGB
 90
      255
102
RTVSPost2010PropOp44
 70
     1
102
RTVSPost2010Prop45
280
     0
102
RTVSPost2010PropOp45
 70
     1
102
RTVSPost2010Prop46
 90
       50
102
RTVSPost2010PropOp46
 70
     1
102
RTVSPost2010Prop47
 90
       50
102
RTVSPost2010PropOp47
 70
     1
102
RTVSPost2010Prop48
 90
       50
102
RTVSPost2010PropOp48
 70
     1
102
RTVSPost2010Prop49
280
     0
102
RTVSPost2010PropOp49
 70
     1
102
RTVSPost2010Prop50
 90
       50
102
RTVSPost2010PropOp50
 70
     1
102
RTVSPost2010Prop51ColorIndex
 90
      256
102
RTVSPost2010Prop51ColorRGB
 90
-16777216
102
RTVSPost2010PropOp51
 70
     0
102
RTVSPost2010Prop52
140
1.0
102
RTVSPost2010PropOp52
 70
     0
102
RTVSPost2010Prop53
 90
        2
102
RTVSPost2010PropOp53
 70
     1
102
RTVSPost2010Prop54
  1
strokes_ogs.tif
102
RTVSPost2010PropOp54
 70
     1
102
RTVSPost2010Prop55
280
     0
102
RTVSPost2010PropOp55
 70
     1
102
RTVSPost2010Prop56
140
1.0
102
RTVSPost2010PropOp56
 70
     1
102
RTVSPost2010Prop57
140
1.0
102
RTVSPost2010PropOp57
 70
     1
  0
XRECORD
  5
114
102
{ACAD_REACTORS
330
113
102
}
330
113
100
AcDbXrecord
280
     1
102
RTVSPost2010Prop28
280
     0
102
RTVSPost2010PropOp28
 70
     1
102
RTVSPost2010Prop29
280
     1
102
RTVSPost2010PropOp29
 70
     1
102
RTVSPost2010Prop30
280
     1
102
RTVSPost2010PropOp30
 70
     1
102
RTVSPost2010Prop31
280
     0
102
RTVSPost2010PropOp31
 70
     1
102
RTVSPost2010Prop32
280
     0
102
RTVSPost2010PropOp32
 70
     1
102
RTVSPost2010Prop33
280
     0
102
RTVSPost2010PropOp33
 70
     1
102
RTVSPost2010Prop34
280
     0
102
RTVSPost2010PropOp34
 70
     1
102
RTVSPost2010Prop35
280
     0
102
RTVSPost2010PropOp35
 70
     1
102
RTVSPost2010Prop36
280
     0
102
RTVSPost2010PropOp36
 70
     1
102
RTVSPost2010Prop37
 90
       50
102
RTVSPost2010PropOp37
 70
     1
102
RTVSPost2010Prop38
140
0.0
102
RTVSPost2010PropOp38
 70
     1
102
RTVSPost2010Prop39
140
1.0
102
RTVSPost2010PropOp39
 70
     1
102
RTVSPost2010Prop40
 90
        0
102
RTVSPost2010PropOp40
 70
     1
102
RTVSPost2010Prop41ColorIndex
 90
       18
102
RTVSPost2010Prop41ColorRGB
 90
        0
102
RTVSPost2010PropOp41
 70
     1
102
RTVSPost2010Prop42
 90
       50
102
RTVSPost2010PropOp42
 70
     1
102
RTVSPost2010Prop43
 90
        3
102
RTVSPost2010PropOp43
 70
     1
102
RTVSPost2010Prop44ColorIndex
 90
        5
102
RTVSPost2010Prop44ColorRGB
 90
      255
102
RTVSPost2010PropOp44
 70
     1
102
RTVSPost2010Prop45
280
     0
102
RTVSPost2010PropOp45
 70
     1
102
RTVSPost2010Prop46
 90
       50
102
RTVSPost2010PropOp46
 70
     1
102
RTVSPost2010Prop47
 90
       50
102
RTVSPost2010PropOp47
 70
     1
102
RTVSPost2010Prop48
 90
       50
102
RTVSPost2010PropOp48
 70
     1
102
RTVSPost2010Prop49
280
     0
102
RTVSPost2010PropOp49
 70
     1
102
RTVSPost2010Prop50
 90
       50
102
RTVSPost2010PropOp50
 70
     1
102
RTVSPost2010Prop51ColorIndex
 90
      256
102
RTVSPost2010Prop51ColorRGB
 90
-16777216
102
RTVSPost2010PropOp51
 70
     0
102
RTVSPost2010Prop52
140
1.0
102
RTVSPost2010PropOp52
 70
     0
102
RTVSPost2010Prop53
 90
        2
102
RTVSPost2010PropOp53
 70
     1
102
RTVSPost2010Prop54
  1
strokes_ogs.tif
102
RTVSPost2010PropOp54
 70
     1
102
RTVSPost2010Prop55
280
     0
102
RTVSPost2010PropOp55
 70
     1
102
RTVSPost2010Prop56
140
1.0
102
RTVSPost2010PropOp56
 70
     1
102
RTVSPost2010Prop57
140
1.0
102
RTVSPost2010PropOp57
 70
     1
  0
XRECORD
  5
112
102
{ACAD_REACTORS
330
111
102
}
330
111
100
AcDbXrecord
280
     1
102
RTVSPost2010Prop28
280
     0
102
RTVSPost2010PropOp28
 70
     1
102
RTVSPost2010Prop29
280
     1
102
RTVSPost2010PropOp29
 70
     1
102
RTVSPost2010Prop30
280
     1
102
RTVSPost2010PropOp30
 70
     1
102
RTVSPost2010Prop31
280
     0
102
RTVSPost2010PropOp31
 70
     1
102
RTVSPost2010Prop32
280
     0
102
RTVSPost2010PropOp32
 70
     1
102
RTVSPost2010Prop33
280
     0
102
RTVSPost2010PropOp33
 70
     1
102
RTVSPost2010Prop34
280
     0
102
RTVSPost2010PropOp34
 70
     1
102
RTVSPost2010Prop35
280
     0
102
RTVSPost2010PropOp35
 70
     1
102
RTVSPost2010Prop36
280
     0
102
RTVSPost2010PropOp36
 70
     1
102
RTVSPost2010Prop37
 90
       50
102
RTVSPost2010PropOp37
 70
     1
102
RTVSPost2010Prop38
140
0.0
102
RTVSPost2010PropOp38
 70
     1
102
RTVSPost2010Prop39
140
1.0
102
RTVSPost2010PropOp39
 70
     1
102
RTVSPost2010Prop40
 90
        0
102
RTVSPost2010PropOp40
 70
     1
102
RTVSPost2010Prop41ColorIndex
 90
       18
102
RTVSPost2010Prop41ColorRGB
 90
        0
102
RTVSPost2010PropOp41
 70
     1
102
RTVSPost2010Prop42
 90
       50
102
RTVSPost2010PropOp42
 70
     1
102
RTVSPost2010Prop43
 90
        3
102
RTVSPost2010PropOp43
 70
     1
102
RTVSPost2010Prop44ColorIndex
 90
        5
102
RTVSPost2010Prop44ColorRGB
 90
      255
102
RTVSPost2010PropOp44
 70
     1
102
RTVSPost2010Prop45
280
     0
102
RTVSPost2010PropOp45
 70
     1
102
RTVSPost2010Prop46
 90
       50
102
RTVSPost2010PropOp46
 70
     1
102
RTVSPost2010Prop47
 90
       50
102
RTVSPost2010PropOp47
 70
     1
102
RTVSPost2010Prop48
 90
       50
102
RTVSPost2010PropOp48
 70
     1
102
RTVSPost2010Prop49
280
     0
102
RTVSPost2010PropOp49
 70
     1
102
RTVSPost2010Prop50
 90
       50
102
RTVSPost2010PropOp50
 70
     1
102
RTVSPost2010Prop51ColorIndex
 90
      256
102
RTVSPost2010Prop51ColorRGB
 90
-16777216
102
RTVSPost2010PropOp51
 70
     0
102
RTVSPost2010Prop52
140
1.0
102
RTVSPost2010PropOp52
 70
     0
102
RTVSPost2010Prop53
 90
        2
102
RTVSPost2010PropOp53
 70
     1
102
RTVSPost2010Prop54
  1
strokes_ogs.tif
102
RTVSPost2010PropOp54
 70
     1
102
RTVSPost2010Prop55
280
     0
102
RTVSPost2010PropOp55
 70
     1
102
RTVSPost2010Prop56
140
1.0
102
RTVSPost2010PropOp56
 70
     1
102
RTVSPost2010Prop57
140
1.0
102
RTVSPost2010PropOp57
 70
     1
  0
XRECORD
  5
10C
102
{ACAD_REACTORS
330
10B
102
}
330
10B
100
AcDbXrecord
280
     1
102
RTVSPost2010Prop28
280
     0
102
RTVSPost2010PropOp28
 70
     1
102
RTVSPost2010Prop29
280
     1
102
RTVSPost2010PropOp29
 70
     1
102
RTVSPost2010Prop30
280
     1
102
RTVSPost2010PropOp30
 70
     1
102
RTVSPost2010Prop31
280
     0
102
RTVSPost2010PropOp31
 70
     1
102
RTVSPost2010Prop32
280
     0
102
RTVSPost2010PropOp32
 70
     1
102
RTVSPost2010Prop33
280
     0
102
RTVSPost2010PropOp33
 70
     1
102
RTVSPost2010Prop34
280
     0
102
RTVSPost2010PropOp34
 70
     1
102
RTVSPost2010Prop35
280
     0
102
RTVSPost2010PropOp35
 70
     1
102
RTVSPost2010Prop36
280
     0
102
RTVSPost2010PropOp36
 70
     1
102
RTVSPost2010Prop37
 90
       50
102
RTVSPost2010PropOp37
 70
     1
102
RTVSPost2010Prop38
140
0.0
102
RTVSPost2010PropOp38
 70
     1
102
RTVSPost2010Prop39
140
1.0
102
RTVSPost2010PropOp39
 70
     1
102
RTVSPost2010Prop40
 90
        0
102
RTVSPost2010PropOp40
 70
     1
102
RTVSPost2010Prop41ColorIndex
 90
       18
102
RTVSPost2010Prop41ColorRGB
 90
        0
102
RTVSPost2010PropOp41
 70
     1
102
RTVSPost2010Prop42
 90
       50
102
RTVSPost2010PropOp42
 70
     1
102
RTVSPost2010Prop43
 90
        3
102
RTVSPost2010PropOp43
 70
     1
102
RTVSPost2010Prop44ColorIndex
 90
        5
102
RTVSPost2010Prop44ColorRGB
 90
      255
102
RTVSPost2010PropOp44
 70
     1
102
RTVSPost2010Prop45
280
     0
102
RTVSPost2010PropOp45
 70
     1
102
RTVSPost2010Prop46
 90
       50
102
RTVSPost2010PropOp46
 70
     1
102
RTVSPost2010Prop47
 90
       50
102
RTVSPost2010PropOp47
 70
     1
102
RTVSPost2010Prop48
 90
       50
102
RTVSPost2010PropOp48
 70
     1
102
RTVSPost2010Prop49
280
     0
102
RTVSPost2010PropOp49
 70
     1
102
RTVSPost2010Prop50
 90
       50
102
RTVSPost2010PropOp50
 70
     1
102
RTVSPost2010Prop51ColorIndex
 90
      256
102
RTVSPost2010Prop51ColorRGB
 90
-16777216
102
RTVSPost2010PropOp51
 70
     0
102
RTVSPost2010Prop52
140
1.0
102
RTVSPost2010PropOp52
 70
     0
102
RTVSPost2010Prop53
 90
        2
102
RTVSPost2010PropOp53
 70
     1
102
RTVSPost2010Prop54
  1
strokes_ogs.tif
102
RTVSPost2010PropOp54
 70
     1
102
RTVSPost2010Prop55
280
     0
102
RTVSPost2010PropOp55
 70
     1
102
RTVSPost2010Prop56
140
1.0
102
RTVSPost2010PropOp56
 70
     1
102
RTVSPost2010Prop57
140
1.0
102
RTVSPost2010PropOp57
 70
     1
  0
XRECORD
  5
10E
102
{ACAD_REACTORS
330
10D
102
}
330
10D
100
AcDbXrecord
280
     1
102
RTVSPost2010Prop28
280
     0
102
RTVSPost2010PropOp28
 70
     1
102
RTVSPost2010Prop29
280
     1
102
RTVSPost2010PropOp29
 70
     1
102
RTVSPost2010Prop30
280
     1
102
RTVSPost2010PropOp30
 70
     1
102
RTVSPost2010Prop31
280
     0
102
RTVSPost2010PropOp31
 70
     1
102
RTVSPost2010Prop32
280
     0
102
RTVSPost2010PropOp32
 70
     1
102
RTVSPost2010Prop33
280
     0
102
RTVSPost2010PropOp33
 70
     1
102
RTVSPost2010Prop34
280
     0
102
RTVSPost2010PropOp34
 70
     1
102
RTVSPost2010Prop35
280
     0
102
RTVSPost2010PropOp35
 70
     1
102
RTVSPost2010Prop36
280
     0
102
RTVSPost2010PropOp36
 70
     1
102
RTVSPost2010Prop37
 90
       50
102
RTVSPost2010PropOp37
 70
     1
102
RTVSPost2010Prop38
140
0.0
102
RTVSPost2010PropOp38
 70
     1
102
RTVSPost2010Prop39
140
1.0
102
RTVSPost2010PropOp39
 70
     1
102
RTVSPost2010Prop40
 90
        0
102
RTVSPost2010PropOp40
 70
     1
102
RTVSPost2010Prop41ColorIndex
 90
       18
102
RTVSPost2010Prop41ColorRGB
 90
        0
102
RTVSPost2010PropOp41
 70
     1
102
RTVSPost2010Prop42
 90
       50
102
RTVSPost2010PropOp42
 70
     1
102
RTVSPost2010Prop43
 90
        3
102
RTVSPost2010PropOp43
 70
     1
102
RTVSPost2010Prop44ColorIndex
 90
        5
102
RTVSPost2010Prop44ColorRGB
 90
      255
102
RTVSPost2010PropOp44
 70
     1
102
RTVSPost2010Prop45
280
     0
102
RTVSPost2010PropOp45
 70
     1
102
RTVSPost2010Prop46
 90
       50
102
RTVSPost2010PropOp46
 70
     1
102
RTVSPost2010Prop47
 90
       50
102
RTVSPost2010PropOp47
 70
     1
102
RTVSPost2010Prop48
 90
       50
102
RTVSPost2010PropOp48
 70
     1
102
RTVSPost2010Prop49
280
     0
102
RTVSPost2010PropOp49
 70
     1
102
RTVSPost2010Prop50
 90
       50
102
RTVSPost2010PropOp50
 70
     1
102
RTVSPost2010Prop51ColorIndex
 90
      256
102
RTVSPost2010Prop51ColorRGB
 90
-16777216
102
RTVSPost2010PropOp51
 70
     0
102
RTVSPost2010Prop52
140
1.0
102
RTVSPost2010PropOp52
 70
     0
102
RTVSPost2010Prop53
 90
        2
102
RTVSPost2010PropOp53
 70
     1
102
RTVSPost2010Prop54
  1
strokes_ogs.tif
102
RTVSPost2010PropOp54
 70
     1
102
RTVSPost2010Prop55
280
     0
102
RTVSPost2010PropOp55
 70
     1
102
RTVSPost2010Prop56
140
1.0
102
RTVSPost2010PropOp56
 70
     1
102
RTVSPost2010Prop57
140
1.0
102
RTVSPost2010PropOp57
 70
     1
  0
XRECORD
  5
104
102
{ACAD_REACTORS
330
103
102
}
330
103
100
AcDbXrecord
280
     1
102
RTVSPost2010Prop28
280
     0
102
RTVSPost2010PropOp28
 70
     1
102
RTVSPost2010Prop29
280
     1
102
RTVSPost2010PropOp29
 70
     1
102
RTVSPost2010Prop30
280
     1
102
RTVSPost2010PropOp30
 70
     1
102
RTVSPost2010Prop31
280
     0
102
RTVSPost2010PropOp31
 70
     1
102
RTVSPost2010Prop32
280
     0
102
RTVSPost2010PropOp32
 70
     1
102
RTVSPost2010Prop33
280
     0
102
RTVSPost2010PropOp33
 70
     1
102
RTVSPost2010Prop34
280
     0
102
RTVSPost2010PropOp34
 70
     1
102
RTVSPost2010Prop35
280
     0
102
RTVSPost2010PropOp35
 70
     1
102
RTVSPost2010Prop36
280
     0
102
RTVSPost2010PropOp36
 70
     1
102
RTVSPost2010Prop37
 90
       50
102
RTVSPost2010PropOp37
 70
     1
102
RTVSPost2010Prop38
140
0.0
102
RTVSPost2010PropOp38
 70
     1
102
RTVSPost2010Prop39
140
1.0
102
RTVSPost2010PropOp39
 70
     1
102
RTVSPost2010Prop40
 90
        0
102
RTVSPost2010PropOp40
 70
     1
102
RTVSPost2010Prop41ColorIndex
 90
       18
102
RTVSPost2010Prop41ColorRGB
 90
        0
102
RTVSPost2010PropOp41
 70
     1
102
RTVSPost2010Prop42
 90
       50
102
RTVSPost2010PropOp42
 70
     1
102
RTVSPost2010Prop43
 90
        3
102
RTVSPost2010PropOp43
 70
     1
102
RTVSPost2010Prop44ColorIndex
 90
        5
102
RTVSPost2010Prop44ColorRGB
 90
      255
102
RTVSPost2010PropOp44
 70
     1
102
RTVSPost2010Prop45
280
     0
102
RTVSPost2010PropOp45
 70
     1
102
RTVSPost2010Prop46
 90
       50
102
RTVSPost2010PropOp46
 70
     1
102
RTVSPost2010Prop47
 90
       50
102
RTVSPost2010PropOp47
 70
     1
102
RTVSPost2010Prop48
 90
       50
102
RTVSPost2010PropOp48
 70
     1
102
RTVSPost2010Prop49
280
     0
102
RTVSPost2010PropOp49
 70
     1
102
RTVSPost2010Prop50
 90
       50
102
RTVSPost2010PropOp50
 70
     1
102
RTVSPost2010Prop51ColorIndex
 90
      256
102
RTVSPost2010Prop51ColorRGB
 90
-16777216
102
RTVSPost2010PropOp51
 70
     0
102
RTVSPost2010Prop52
140
1.0
102
RTVSPost2010PropOp52
 70
     0
102
RTVSPost2010Prop53
 90
        2
102
RTVSPost2010PropOp53
 70
     1
102
RTVSPost2010Prop54
  1
strokes_ogs.tif
102
RTVSPost2010PropOp54
 70
     1
102
RTVSPost2010Prop55
280
     0
102
RTVSPost2010PropOp55
 70
     1
102
RTVSPost2010Prop56
140
1.0
102
RTVSPost2010PropOp56
 70
     1
102
RTVSPost2010Prop57
140
1.0
102
RTVSPost2010PropOp57
 70
     1
  0
XRECORD
  5
F8
102
{ACAD_REACTORS
330
F7
102
}
330
F7
100
AcDbXrecord
280
     1
102
RTVSPost2010Prop28
280
     0
102
RTVSPost2010PropOp28
 70
     1
102
RTVSPost2010Prop29
280
     1
102
RTVSPost2010PropOp29
 70
     1
102
RTVSPost2010Prop30
280
     1
102
RTVSPost2010PropOp30
 70
     1
102
RTVSPost2010Prop31
280
     0
102
RTVSPost2010PropOp31
 70
     1
102
RTVSPost2010Prop32
280
     0
102
RTVSPost2010PropOp32
 70
     1
102
RTVSPost2010Prop33
280
     0
102
RTVSPost2010PropOp33
 70
     1
102
RTVSPost2010Prop34
280
     0
102
RTVSPost2010PropOp34
 70
     1
102
RTVSPost2010Prop35
280
     0
102
RTVSPost2010PropOp35
 70
     1
102
RTVSPost2010Prop36
280
     0
102
RTVSPost2010PropOp36
 70
     1
102
RTVSPost2010Prop37
 90
       50
102
RTVSPost2010PropOp37
 70
     1
102
RTVSPost2010Prop38
140
0.0
102
RTVSPost2010PropOp38
 70
     1
102
RTVSPost2010Prop39
140
1.0
102
RTVSPost2010PropOp39
 70
     1
102
RTVSPost2010Prop40
 90
        0
102
RTVSPost2010PropOp40
 70
     1
102
RTVSPost2010Prop41ColorIndex
 90
       18
102
RTVSPost2010Prop41ColorRGB
 90
        0
102
RTVSPost2010PropOp41
 70
     1
102
RTVSPost2010Prop42
 90
       50
102
RTVSPost2010PropOp42
 70
     1
102
RTVSPost2010Prop43
 90
        3
102
RTVSPost2010PropOp43
 70
     1
102
RTVSPost2010Prop44ColorIndex
 90
        5
102
RTVSPost2010Prop44ColorRGB
 90
      255
102
RTVSPost2010PropOp44
 70
     1
102
RTVSPost2010Prop45
280
     0
102
RTVSPost2010PropOp45
 70
     1
102
RTVSPost2010Prop46
 90
       50
102
RTVSPost2010PropOp46
 70
     1
102
RTVSPost2010Prop47
 90
       50
102
RTVSPost2010PropOp47
 70
     1
102
RTVSPost2010Prop48
 90
       50
102
RTVSPost2010PropOp48
 70
     1
102
RTVSPost2010Prop49
280
     0
102
RTVSPost2010PropOp49
 70
     1
102
RTVSPost2010Prop50
 90
       50
102
RTVSPost2010PropOp50
 70
     1
102
RTVSPost2010Prop51ColorIndex
 90
      256
102
RTVSPost2010Prop51ColorRGB
 90
-16777216
102
RTVSPost2010PropOp51
 70
     0
102
RTVSPost2010Prop52
140
1.0
102
RTVSPost2010PropOp52
 70
     0
102
RTVSPost2010Prop53
 90
        2
102
RTVSPost2010PropOp53
 70
     1
102
RTVSPost2010Prop54
  1
strokes_ogs.tif
102
RTVSPost2010PropOp54
 70
     1
102
RTVSPost2010Prop55
280
     0
102
RTVSPost2010PropOp55
 70
     1
102
RTVSPost2010Prop56
140
1.0
102
RTVSPost2010PropOp56
 70
     1
102
RTVSPost2010Prop57
140
1.0
102
RTVSPost2010PropOp57
 70
     1
  0
XRECORD
  5
110
102
{ACAD_REACTORS
330
10F
102
}
330
10F
100
AcDbXrecord
280
     1
102
RTVSPost2010Prop28
280
     0
102
RTVSPost2010PropOp28
 70
     1
102
RTVSPost2010Prop29
280
     1
102
RTVSPost2010PropOp29
 70
     1
102
RTVSPost2010Prop30
280
     1
102
RTVSPost2010PropOp30
 70
     1
102
RTVSPost2010Prop31
280
     0
102
RTVSPost2010PropOp31
 70
     1
102
RTVSPost2010Prop32
280
     0
102
RTVSPost2010PropOp32
 70
     1
102
RTVSPost2010Prop33
280
     0
102
RTVSPost2010PropOp33
 70
     1
102
RTVSPost2010Prop34
280
     0
102
RTVSPost2010PropOp34
 70
     1
102
RTVSPost2010Prop35
280
     0
102
RTVSPost2010PropOp35
 70
     1
102
RTVSPost2010Prop36
280
     0
102
RTVSPost2010PropOp36
 70
     1
102
RTVSPost2010Prop37
 90
       50
102
RTVSPost2010PropOp37
 70
     1
102
RTVSPost2010Prop38
140
0.0
102
RTVSPost2010PropOp38
 70
     1
102
RTVSPost2010Prop39
140
1.0
102
RTVSPost2010PropOp39
 70
     1
102
RTVSPost2010Prop40
 90
        0
102
RTVSPost2010PropOp40
 70
     1
102
RTVSPost2010Prop41ColorIndex
 90
       18
102
RTVSPost2010Prop41ColorRGB
 90
        0
102
RTVSPost2010PropOp41
 70
     1
102
RTVSPost2010Prop42
 90
       50
102
RTVSPost2010PropOp42
 70
     1
102
RTVSPost2010Prop43
 90
        3
102
RTVSPost2010PropOp43
 70
     1
102
RTVSPost2010Prop44ColorIndex
 90
        5
102
RTVSPost2010Prop44ColorRGB
 90
      255
102
RTVSPost2010PropOp44
 70
     1
102
RTVSPost2010Prop45
280
     0
102
RTVSPost2010PropOp45
 70
     1
102
RTVSPost2010Prop46
 90
       50
102
RTVSPost2010PropOp46
 70
     1
102
RTVSPost2010Prop47
 90
       50
102
RTVSPost2010PropOp47
 70
     1
102
RTVSPost2010Prop48
 90
       50
102
RTVSPost2010PropOp48
 70
     1
102
RTVSPost2010Prop49
280
     0
102
RTVSPost2010PropOp49
 70
     1
102
RTVSPost2010Prop50
 90
       50
102
RTVSPost2010PropOp50
 70
     1
102
RTVSPost2010Prop51ColorIndex
 90
      256
102
RTVSPost2010Prop51ColorRGB
 90
-16777216
102
RTVSPost2010PropOp51
 70
     0
102
RTVSPost2010Prop52
140
1.0
102
RTVSPost2010PropOp52
 70
     0
102
RTVSPost2010Prop53
 90
        2
102
RTVSPost2010PropOp53
 70
     1
102
RTVSPost2010Prop54
  1
strokes_ogs.tif
102
RTVSPost2010PropOp54
 70
     1
102
RTVSPost2010Prop55
280
     0
102
RTVSPost2010PropOp55
 70
     1
102
RTVSPost2010Prop56
140
1.0
102
RTVSPost2010PropOp56
 70
     1
102
RTVSPost2010Prop57
140
1.0
102
RTVSPost2010PropOp57
 70
     1
  0
ENDSEC
  0
EOF
