  0
SECTION
  2
HEADER
  9
$ACADVER
  1
AC1024
  9
$ACADMAINTVER
 70
   226
  9
$DWGCODEPAGE
  3
ANSI_932
  9
$INSBASE
 10
0.0
 20
0.0
 30
0.0
  9
$EXTMIN
 10
1.000000000000000E+20
 20
1.000000000000000E+20
 30
1.000000000000000E+20
  9
$EXTMAX
 10
-1.000000000000000E+20
 20
-1.000000000000000E+20
 30
-1.000000000000000E+20
  9
$LIMMIN
 10
0.0
 20
0.0
  9
$LIMMAX
 10
12.0
 20
9.0
  9
$ORTHOMODE
 70
     0
  9
$REGENMODE
 70
     1
  9
$FILLMODE
 70
     1
  9
$QTEXTMODE
 70
     0
  9
$MIRRTEXT
 70
     0
  9
$LTSCALE
 40
1.0
  9
$ATTMODE
 70
     1
  9
$TEXTSIZE
 40
0.2
  9
$TRACEWID
 40
0.05
  9
$TEXTSTYLE
  7
Standard
  9
$CLAYER
  8
0
  9
$CELTYPE
  6
ByLayer
  9
$CECOLOR
 62
   256
  9
$CELTSCALE
 40
1.0
  9
$DISPSILH
 70
     0
  9
$DIMSCALE
 40
1.0
  9
$DIMASZ
 40
0.18
  9
$DIMEXO
 40
0.0625
  9
$DIMDLI
 40
0.38
  9
$DIMRND
 40
0.0
  9
$DIMDLE
 40
0.0
  9
$DIMEXE
 40
0.18
  9
$DIMTP
 40
0.0
  9
$DIMTM
 40
0.0
  9
$DIMTXT
 40
0.18
  9
$DIMCEN
 40
0.09
  9
$DIMTSZ
 40
0.0
  9
$DIMTOL
 70
     0
  9
$DIMLIM
 70
     0
  9
$DIMTIH
 70
     1
  9
$DIMTOH
 70
     1
  9
$DIMSE1
 70
     0
  9
$DIMSE2
 70
     0
  9
$DIMTAD
 70
     0
  9
$DIMZIN
 70
     0
  9
$DIMBLK
  1

  9
$DIMASO
 70
     1
  9
$DIMSHO
 70
     1
  9
$DIMPOST
  1

  9
$DIMAPOST
  1

  9
$DIMALT
 70
     0
  9
$DIMALTD
 70
     2
  9
$DIMALTF
 40
25.4
  9
$DIMLFAC
 40
1.0
  9
$DIMTOFL
 70
     0
  9
$DIMTVP
 40
0.0
  9
$DIMTIX
 70
     0
  9
$DIMSOXD
 70
     0
  9
$DIMSAH
 70
     0
  9
$DIMBLK1
  1

  9
$DIMBLK2
  1

  9
$DIMSTYLE
  2
Standard
  9
$DIMCLRD
 70
     0
  9
$DIMCLRE
 70
     0
  9
$DIMCLRT
 70
     0
  9
$DIMTFAC
 40
1.0
  9
$DIMGAP
 40
0.09
  9
$DIMJUST
 70
     0
  9
$DIMSD1
 70
     0
  9
$DIMSD2
 70
     0
  9
$DIMTOLJ
 70
     1
  9
$DIMTZIN
 70
     0
  9
$DIMALTZ
 70
     0
  9
$DIMALTTZ
 70
     0
  9
$DIMUPT
 70
     0
  9
$DIMDEC
 70
     4
  9
$DIMTDEC
 70
     4
  9
$DIMALTU
 70
     2
  9
$DIMALTTD
 70
     2
  9
$DIMTXSTY
  7
Standard
  9
$DIMAUNIT
 70
     0
  9
$DIMADEC
 70
     0
  9
$DIMALTRND
 40
0.0
  9
$DIMAZIN
 70
     0
  9
$DIMDSEP
 70
    46
  9
$DIMATFIT
 70
     3
  9
$DIMFRAC
 70
     0
  9
$DIMLDRBLK
  1

  9
$DIMLUNIT
 70
     2
  9
$DIMLWD
 70
    -2
  9
$DIMLWE
 70
    -2
  9
$DIMTMOVE
 70
     0
  9
$DIMFXL
 40
1.0
  9
$DIMFXLON
 70
     0
  9
$DIMJOGANG
 40
0.7853981633974483
  9
$DIMTFILL
 70
     0
  9
$DIMTFILLCLR
 70
     0
  9
$DIMARCSYM
 70
     0
  9
$DIMLTYPE
  6

  9
$DIMLTEX1
  6

  9
$DIMLTEX2
  6

  9
$DIMTXTDIRECTION
 70
     0
  9
$LUNITS
 70
     2
  9
$LUPREC
 70
     4
  9
$SKETCHINC
 40
0.1
  9
$FILLETRAD
 40
0.0
  9
$AUNITS
 70
     0
  9
$AUPREC
 70
     0
  9
$MENU
  1
.
  9
$ELEVATION
 40
0.0
  9
$PELEVATION
 40
0.0
  9
$THICKNESS
 40
0.0
  9
$LIMCHECK
 70
     0
  9
$CHAMFERA
 40
0.0
  9
$CHAMFERB
 40
0.0
  9
$CHAMFERC
 40
0.0
  9
$CHAMFERD
 40
0.0
  9
$SKPOLY
 70
     0
  9
$TDCREATE
 40
2459569.503368056
  9
$TDUCREATE
 40
2459569.128368055
  9
$TDUPDATE
 40
2459569.503368056
  9
$TDUUPDATE
 40
2459569.128368055
  9
$TDINDWG
 40
0.0000000000
  9
$TDUSRTIMER
 40
0.0000000000
  9
$USRTIMER
 70
     1
  9
$ANGBASE
 50
0.0
  9
$ANGDIR
 70
     0
  9
$PDMODE
 70
     0
  9
$PDSIZE
 40
0.0
  9
$PLINEWID
 40
0.0
  9
$SPLFRAME
 70
     0
  9
$SPLINETYPE
 70
     6
  9
$SPLINESEGS
 70
     8
  9
$HANDSEED
  5
193
  9
$SURFTAB1
 70
     6
  9
$SURFTAB2
 70
     6
  9
$SURFTYPE
 70
     6
  9
$SURFU
 70
     6
  9
$SURFV
 70
     6
  9
$UCSBASE
  2

  9
$UCSNAME
  2

  9
$UCSORG
 10
0.0
 20
0.0
 30
0.0
  9
$UCSXDIR
 10
1.0
 20
0.0
 30
0.0
  9
$UCSYDIR
 10
0.0
 20
1.0
 30
0.0
  9
$UCSORTHOREF
  2

  9
$UCSORTHOVIEW
 70
     0
  9
$UCSORGTOP
 10
0.0
 20
0.0
 30
0.0
  9
$UCSORGBOTTOM
 10
0.0
 20
0.0
 30
0.0
  9
$UCSORGLEFT
 10
0.0
 20
0.0
 30
0.0
  9
$UCSORGRIGHT
 10
0.0
 20
0.0
 30
0.0
  9
$UCSORGFRONT
 10
0.0
 20
0.0
 30
0.0
  9
$UCSORGBACK
 10
0.0
 20
0.0
 30
0.0
  9
$PUCSBASE
  2

  9
$PUCSNAME
  2

  9
$PUCSORG
 10
0.0
 20
0.0
 30
0.0
  9
$PUCSXDIR
 10
1.0
 20
0.0
 30
0.0
  9
$PUCSYDIR
 10
0.0
 20
1.0
 30
0.0
  9
$PUCSORTHOREF
  2

  9
$PUCSORTHOVIEW
 70
     0
  9
$PUCSORGTOP
 10
0.0
 20
0.0
 30
0.0
  9
$PUCSORGBOTTOM
 10
0.0
 20
0.0
 30
0.0
  9
$PUCSORGLEFT
 10
0.0
 20
0.0
 30
0.0
  9
$PUCSORGRIGHT
 10
0.0
 20
0.0
 30
0.0
  9
$PUCSORGFRONT
 10
0.0
 20
0.0
 30
0.0
  9
$PUCSORGBACK
 10
0.0
 20
0.0
 30
0.0
  9
$USERI1
 70
     0
  9
$USERI2
 70
     0
  9
$USERI3
 70
     0
  9
$USERI4
 70
     0
  9
$USERI5
 70
     0
  9
$USERR1
 40
0.0
  9
$USERR2
 40
0.0
  9
$USERR3
 40
0.0
  9
$USERR4
 40
0.0
  9
$USERR5
 40
0.0
  9
$WORLDVIEW
 70
     1
  9
$SHADEDGE
 70
     3
  9
$SHADEDIF
 70
    70
  9
$TILEMODE
 70
     1
  9
$MAXACTVP
 70
    64
  9
$PINSBASE
 10
0.0
 20
0.0
 30
0.0
  9
$PLIMCHECK
 70
     0
  9
$PEXTMIN
 10
1.000000000000000E+20
 20
1.000000000000000E+20
 30
1.000000000000000E+20
  9
$PEXTMAX
 10
-1.000000000000000E+20
 20
-1.000000000000000E+20
 30
-1.000000000000000E+20
  9
$PLIMMIN
 10
0.0
 20
0.0
  9
$PLIMMAX
 10
12.0
 20
9.0
  9
$UNITMODE
 70
     0
  9
$VISRETAIN
 70
     1
  9
$PLINEGEN
 70
     0
  9
$PSLTSCALE
 70
     1
  9
$TREEDEPTH
 70
  3020
  9
$CMLSTYLE
  2
Standard
  9
$CMLJUST
 70
     0
  9
$CMLSCALE
 40
1.0
  9
$PROXYGRAPHICS
 70
     1
  9
$MEASUREMENT
 70
     0
  9
$CELWEIGHT
370
    -1
  9
$ENDCAPS
280
     0
  9
$JOINSTYLE
280
     0
  9
$LWDISPLAY
290
     1
  9
$INSUNITS
 70
     4
  9
$HYPERLINKBASE
  1

  9
$STYLESHEET
  1

  9
$XEDIT
290
     1
  9
$CEPSNTYPE
380
     0
  9
$PSTYLEMODE
290
     1
  9
$FINGERPRINTGUID
  2
{3552E021-3196-E74C-BE50-19677F497BB1}
  9
$VERSIONGUID
  2
{7D83C806-689A-EE4B-AFBB-DB40947F7DC4}
  9
$EXTNAMES
290
     1
  9
$PSVPSCALE
 40
0.0
  9
$OLESTARTUP
290
     0
  9
$SORTENTS
280
   127
  9
$INDEXCTL
280
     0
  9
$HIDETEXT
280
     1
  9
$XCLIPFRAME
280
     2
  9
$HALOGAP
280
     0
  9
$OBSCOLOR
 70
   257
  9
$OBSLTYPE
280
     0
  9
$INTERSECTIONDISPLAY
280
     0
  9
$INTERSECTIONCOLOR
 70
   257
  9
$DIMASSOC
280
     2
  9
$PROJECTNAME
  1

  9
$CAMERADISPLAY
290
     0
  9
$LENSLENGTH
 40
50.0
  9
$CAMERAHEIGHT
 40
0.0
  9
$STEPSPERSEC
 40
2.0
  9
$STEPSIZE
 40
6.0
  9
$3DDWFPREC
 40
2.0
  9
$PSOLWIDTH
 40
0.25
  9
$PSOLHEIGHT
 40
4.0
  9
$LOFTANG1
 40
1.570796326794896
  9
$LOFTANG2
 40
1.570796326794896
  9
$LOFTMAG1
 40
0.0
  9
$LOFTMAG2
 40
0.0
  9
$LOFTPARAM
 70
     7
  9
$LOFTNORMALS
280
     1
  9
$LATITUDE
 40
37.795
  9
$LONGITUDE
 40
-122.394
  9
$NORTHDIRECTION
 40
0.0
  9
$TIMEZONE
 70
 -8000
  9
$LIGHTGLYPHDISPLAY
280
     1
  9
$TILEMODELIGHTSYNCH
280
     1
  9
$CMATERIAL
347
11
  9
$SOLIDHIST
280
     0
  9
$SHOWHIST
280
     1
  9
$DWFFRAME
280
     2
  9
$DGNFRAME
280
     0
  9
$REALWORLDSCALE
290
     1
  9
$INTERFERECOLOR
 62
     1
  9
$INTERFEREOBJVS
345
33
  9
$INTERFEREVPVS
346
30
  9
$CSHADOW
280
     0
  9
$SHADOWPLANELOCATION
 40
0.0
  0
ENDSEC
  0
SECTION
  2
CLASSES
  0
CLASS
  1
ACDBDICTIONARYWDFLT
  2
AcDbDictionaryWithDefault
  3
ObjectDBX Classes
 90
        0
 91
        1
280
     0
281
     0
  0
CLASS
  1
MATERIAL
  2
AcDbMaterial
  3
ObjectDBX Classes
 90
     1153
 91
        3
280
     0
281
     0
  0
CLASS
  1
VISUALSTYLE
  2
AcDbVisualStyle
  3
ObjectDBX Classes
 90
     4095
 91
       24
280
     0
281
     0
  0
CLASS
  1
SCALE
  2
AcDbScale
  3
ObjectDBX Classes
 90
     1153
 91
       17
280
     0
281
     0
  0
CLASS
  1
TABLESTYLE
  2
AcDbTableStyle
  3
ObjectDBX Classes
 90
     4095
 91
        1
280
     0
281
     0
  0
CLASS
  1
MLEADERSTYLE
  2
AcDbMLeaderStyle
  3
ACDB_MLEADERSTYLE_CLASS
 90
     4095
 91
        1
280
     0
281
     0
  0
CLASS
  1
ACDBSECTIONVIEWSTYLE
  2
AcDbSectionViewStyle
  3
ObjectDBX Classes
 90
     1025
 91
        1
280
     0
281
     0
  0
CLASS
  1
ACDBDETAILVIEWSTYLE
  2
AcDbDetailViewStyle
  3
ObjectDBX Classes
 90
     1025
 91
        1
280
     0
281
     0
  0
CLASS
  1
DICTIONARYVAR
  2
AcDbDictionaryVar
  3
ObjectDBX Classes
 90
        0
 91
        5
280
     0
281
     0
  0
CLASS
  1
CELLSTYLEMAP
  2
AcDbCellStyleMap
  3
ObjectDBX Classes
 90
     1152
 91
        1
280
     0
281
     0
  0
ENDSEC
  0
SECTION
  2
TABLES
  0
TABLE
  2
VPORT
  5
8
330
0
100
AcDbSymbolTable
 70
     1
  0
VPORT
  5
57
330
8
100
AcDbSymbolTableRecord
100
AcDbViewportTableRecord
  2
*Active
 70
     0
 10
0.0
 20
0.0
 11
1.0
 21
1.0
 12
0.0
 22
0.0
 13
0.0
 23
0.0
 14
1.0
 24
1.0
 15
0.0
 25
0.0
 16
0.0
 26
0.0
 36
1.0
 17
104.9999999737534
 27
-148.4999999628701
 37
0.0
 40
302.939999924255
 41
0.7070707070707534
 42
50.0
 43
0.0
 44
0.0
 50
0.0
 51
0.0
 71
     0
 72
   100
 73
     1
 74
     0
 75
     1
 76
     0
 77
     0
 78
     0
281
     0
 65
     1
110
0.0
120
0.0
130
0.0
111
1.0
121
0.0
131
0.0
112
0.0
122
1.0
132
0.0
 79
     0
146
0.0
 60
     3
 61
     5
292
     1
282
     1
141
0.0
142
0.0
 63
   250
421
  3355443
  0
ENDTAB
  0
TABLE
  2
LTYPE
  5
5
330
0
100
AcDbSymbolTable
 70
     2
  0
LTYPE
  5
5B
330
5
100
AcDbSymbolTableRecord
100
AcDbLinetypeTableRecord
  2
ByBlock
 70
     0
  3

 72
    65
 73
     0
 40
0.0
  0
LTYPE
  5
5C
330
5
100
AcDbSymbolTableRecord
100
AcDbLinetypeTableRecord
  2
ByLayer
 70
     0
  3

 72
    65
 73
     0
 40
0.0
  0
LTYPE
  5
5D
330
5
100
AcDbSymbolTableRecord
100
AcDbLinetypeTableRecord
  2
Continuous
 70
     0
  3
Solid line
 72
    65
 73
     0
 40
0.0
  0
LTYPE
  5
A0
330
5
100
AcDbSymbolTableRecord
100
AcDbLinetypeTableRecord
  2
AI-Linetype-0
 70
     0
  3
Adobe Illustrator Linetype No. 0
 72
    65
 73
     2
 40
1.411111110758333
 49
0.7055555553791667
 74
     0
 49
-0.7055555553791667
 74
     0
  0
ENDTAB
  0
TABLE
  2
LAYER
  5
2
330
0
100
AcDbSymbolTable
 70
     2
  0
LAYER
  5
54
330
2
100
AcDbSymbolTableRecord
100
AcDbLayerTableRecord
  2
0
 70
     0
 62
     7
  6
Continuous
370
    -3
390
F
347
21
  0
LAYER
  5
78
330
2
100
AcDbSymbolTableRecord
100
AcDbLayerTableRecord
  2
レイヤー 1
 70
     0
 62
     7
  6
Continuous
370
     0
390
F
347
21
  0
ENDTAB
  0
TABLE
  2
STYLE
  5
3
330
0
100
AcDbSymbolTable
 70
     2
  0
STYLE
  5
55
330
3
100
AcDbSymbolTableRecord
100
AcDbTextStyleTableRecord
  2
Standard
 70
     0
 40
0.0
 41
1.0
 50
0.0
 71
     0
 42
0.2
  3
txt
  4

  0
STYLE
  5
5A
330
3
100
AcDbSymbolTableRecord
100
AcDbTextStyleTableRecord
  2
Annotative
 70
     0
 40
0.0
 41
1.0
 50
0.0
 71
     0
 42
0.2
  3
txt
  4

1001
AcadAnnotative
1000
AnnotativeData
1002
{
1070
     1
1070
     1
1002
}
  0
ENDTAB
  0
TABLE
  2
VIEW
  5
6
330
0
100
AcDbSymbolTable
 70
     0
  0
ENDTAB
  0
TABLE
  2
UCS
  5
7
330
0
100
AcDbSymbolTable
 70
     0
  0
ENDTAB
  0
TABLE
  2
APPID
  5
9
330
0
100
AcDbSymbolTable
 70
     2
  0
APPID
  5
56
330
9
100
AcDbSymbolTableRecord
100
AcDbRegAppTableRecord
  2
ACAD
 70
     0
  0
APPID
  5
5E
330
9
100
AcDbSymbolTableRecord
100
AcDbRegAppTableRecord
  2
AcadAnnotative
 70
     0
  0
ENDTAB
  0
TABLE
  2
DIMSTYLE
  5
A
330
0
100
AcDbSymbolTable
 70
     2
100
AcDbDimStyleTable
 71
     0
  0
DIMSTYLE
105
58
330
A
100
AcDbSymbolTableRecord
100
AcDbDimStyleTableRecord
  2
Standard
 70
     0
340
55
  0
DIMSTYLE
105
59
330
A
100
AcDbSymbolTableRecord
100
AcDbDimStyleTableRecord
  2
Annotative
 70
     0
340
55
1001
AcadAnnotative
1000
AnnotativeData
1002
{
1070
     1
1070
     1
1002
}
  0
ENDTAB
  0
TABLE
  2
BLOCK_RECORD
  5
1
330
0
100
AcDbSymbolTable
 70
    17
  0
BLOCK_RECORD
  5
70
330
1
100
AcDbSymbolTableRecord
100
AcDbBlockTableRecord
  2
*Model_Space
340
73
 70
     0
280
     1
281
     0
  0
BLOCK_RECORD
  5
6C
330
1
100
AcDbSymbolTableRecord
100
AcDbBlockTableRecord
  2
*Paper_Space
340
6F
 70
     0
280
     1
281
     0
  0
BLOCK_RECORD
  5
74
330
1
100
AcDbSymbolTableRecord
100
AcDbBlockTableRecord
  2
*Paper_Space0
340
77
 70
     0
280
     1
281
     0
  0
BLOCK_RECORD
  5
79
330
1
100
AcDbSymbolTableRecord
100
AcDbBlockTableRecord
  2
Block_0
340
0
102
{BLKREFS
331
7A
102
}
 70
     0
280
     1
281
     0
  0
BLOCK_RECORD
  5
7E
330
1
100
AcDbSymbolTableRecord
100
AcDbBlockTableRecord
  2
Block_1
340
0
102
{BLKREFS
331
7F
102
}
 70
     0
280
     1
281
     0
  0
BLOCK_RECORD
  5
DD
330
1
100
AcDbSymbolTableRecord
100
AcDbBlockTableRecord
  2
Block_2
340
0
102
{BLKREFS
331
DE
102
}
 70
     0
280
     1
281
     0
  0
BLOCK_RECORD
  5
E1
330
1
100
AcDbSymbolTableRecord
100
AcDbBlockTableRecord
  2
Block_3
340
0
102
{BLKREFS
331
E2
102
}
 70
     0
280
     1
281
     0
  0
BLOCK_RECORD
  5
EE
330
1
100
AcDbSymbolTableRecord
100
AcDbBlockTableRecord
  2
Block_4
340
0
102
{BLKREFS
331
EF
102
}
 70
     0
280
     1
281
     0
  0
BLOCK_RECORD
  5
F2
330
1
100
AcDbSymbolTableRecord
100
AcDbBlockTableRecord
  2
Block_5
340
0
102
{BLKREFS
331
F3
102
}
 70
     0
280
     1
281
     0
  0
BLOCK_RECORD
  5
FC
330
1
100
AcDbSymbolTableRecord
100
AcDbBlockTableRecord
  2
Block_6
340
0
102
{BLKREFS
331
FD
102
}
 70
     0
280
     1
281
     0
  0
BLOCK_RECORD
  5
107
330
1
100
AcDbSymbolTableRecord
100
AcDbBlockTableRecord
  2
Block_7
340
0
102
{BLKREFS
331
108
102
}
 70
     0
280
     1
281
     0
  0
BLOCK_RECORD
  5
10B
330
1
100
AcDbSymbolTableRecord
100
AcDbBlockTableRecord
  2
Block_8
340
0
102
{BLKREFS
331
10C
102
}
 70
     0
280
     1
281
     0
  0
BLOCK_RECORD
  5
119
330
1
100
AcDbSymbolTableRecord
100
AcDbBlockTableRecord
  2
Block_9
340
0
102
{BLKREFS
331
11A
102
}
 70
     0
280
     1
281
     0
  0
BLOCK_RECORD
  5
11D
330
1
100
AcDbSymbolTableRecord
100
AcDbBlockTableRecord
  2
Block_10
340
0
102
{BLKREFS
331
11E
102
}
 70
     0
280
     1
281
     0
  0
BLOCK_RECORD
  5
128
330
1
100
AcDbSymbolTableRecord
100
AcDbBlockTableRecord
  2
Block_11
340
0
102
{BLKREFS
331
129
102
}
 70
     0
280
     1
281
     0
  0
BLOCK_RECORD
  5
12E
330
1
100
AcDbSymbolTableRecord
100
AcDbBlockTableRecord
  2
Block_12
340
0
102
{BLKREFS
331
12F
102
}
 70
     0
280
     1
281
     0
  0
BLOCK_RECORD
  5
132
330
1
100
AcDbSymbolTableRecord
100
AcDbBlockTableRecord
  2
Block_13
340
0
102
{BLKREFS
331
133
102
}
 70
     0
280
     1
281
     0
  0
BLOCK_RECORD
  5
139
330
1
100
AcDbSymbolTableRecord
100
AcDbBlockTableRecord
  2
Block_14
340
0
102
{BLKREFS
331
13A
102
}
 70
     0
280
     1
281
     0
  0
BLOCK_RECORD
  5
13D
330
1
100
AcDbSymbolTableRecord
100
AcDbBlockTableRecord
  2
Block_15
340
0
102
{BLKREFS
331
13E
102
}
 70
     0
280
     1
281
     0
  0
ENDTAB
  0
ENDSEC
  0
SECTION
  2
BLOCKS
  0
BLOCK
  5
71
330
70
100
AcDbEntity
  8
0
100
AcDbBlockBegin
  2
*Model_Space
 70
     0
 10
0.0
 20
0.0
 30
0.0
  3
*Model_Space
  1

  0
ENDBLK
  5
72
330
70
100
AcDbEntity
  8
0
100
AcDbBlockEnd
  0
BLOCK
  5
6D
330
6C
100
AcDbEntity
 67
     1
  8
0
100
AcDbBlockBegin
  2
*Paper_Space
 70
     0
 10
0.0
 20
0.0
 30
0.0
  3
*Paper_Space
  1

  0
ENDBLK
  5
6E
330
6C
100
AcDbEntity
 67
     1
  8
0
100
AcDbBlockEnd
  0
BLOCK
  5
75
330
74
100
AcDbEntity
 67
     1
  8
0
100
AcDbBlockBegin
  2
*Paper_Space0
 70
     0
 10
0.0
 20
0.0
 30
0.0
  3
*Paper_Space0
  1

  0
ENDBLK
  5
76
330
74
100
AcDbEntity
 67
     1
  8
0
100
AcDbBlockEnd
  0
BLOCK
  5
7B
330
79
100
AcDbEntity
  8
0
100
AcDbBlockBegin
  2
Block_0
 70
     0
 10
0.0
 20
0.0
 30
0.0
  3
Block_0
  1

  0
LINE
  5
7D
330
79
100
AcDbEntity
  8
レイヤー 1
 62
   250
420
  2299925
370
     9
100
AcDbLine
 10
124.0036090064251
 20
-155.9626251542732
 30
0.0
 11
125.6703428527921
 21
-156.8476740429407
 31
0.0
  0
INSERT
  5
7F
330
79
100
AcDbEntity
  8
レイヤー 1
100
AcDbBlockReference
  2
Block_1
 10
0.0
 20
0.0
 30
0.0
  0
ENDBLK
  5
7C
330
79
100
AcDbEntity
  8
0
100
AcDbBlockEnd
  0
BLOCK
  5
80
330
7E
100
AcDbEntity
  8
0
100
AcDbBlockBegin
  2
Block_1
 70
     0
 10
0.0
 20
0.0
 30
0.0
  3
Block_1
  1

  0
LWPOLYLINE
  5
82
330
7E
100
AcDbEntity
  8
レイヤー 1
 62
   250
420
  2299925
370
     9
100
AcDbPolyline
 90
        5
 70
     0
 43
0.0
 10
118.3943013717527
 20
-150.784305988901
 10
123.984312062473
 20
-153.4546220993447
 10
123.8782317874016
 20
-156.0542768209169
 10
125.5821484105977
 20
-156.9491329318041
 10
134.724066788479
 20
-153.177620988302
  0
LINE
  5
83
330
7E
100
AcDbEntity
  8
レイヤー 1
 62
   250
420
  2299925
370
     9
100
AcDbLine
 10
127.6492144689736
 20
-146.8701659898793
 30
0.0
 11
118.3943013717527
 21
-150.784305988901
 31
0.0
  0
LINE
  5
84
330
7E
100
AcDbEntity
  8
レイヤー 1
 62
   250
420
  2299925
370
     9
100
AcDbLine
 10
124.0208598393184
 20
-155.962977932051
 30
0.0
 11
134.5118356827824
 21
-151.6001045998082
 31
0.0
  0
LINE
  5
85
330
7E
100
AcDbEntity
  8
レイヤー 1
 62
   250
420
  2299925
370
     9
100
AcDbLine
 10
124.1338577914645
 20
-153.4120418215771
 30
0.0
 11
123.9953540066357
 21
-155.962977932051
 31
0.0
  0
LINE
  5
86
330
7E
100
AcDbEntity
  8
レイヤー 1
 62
   250
420
  2299925
370
     9
100
AcDbLine
 10
133.4666257094479
 20
-149.4911990447795
 30
0.0
 11
124.1400634473884
 21
-153.4299629326846
 31
0.0
  0
SPLINE
  5
87
330
7E
100
AcDbEntity
  8
レイヤー 1
 62
   250
420
  2299925
370
     9
100
AcDbSpline
210
0.0
220
0.0
230
1.0
 70
     9
 71
     3
 72
    17
 73
    13
 74
     0
 42
0.0000000001
 43
0.0000000001
 40
0.0
 40
0.0
 40
0.0
 40
0.0
 40
1.0
 40
1.0
 40
1.0
 40
2.0
 40
2.0
 40
2.0
 40
3.0
 40
3.0
 40
3.0
 40
4.0
 40
4.0
 40
4.0
 40
4.0
 10
130.8235441102119
 20
-149.1570126559742
 30
0.0
 10
130.8235441102119
 20
-149.3645871003669
 30
0.0
 10
130.5327493954084
 20
-149.5333912669911
 30
0.0
 10
130.1744716788431
 20
-149.5333912669911
 30
0.0
 10
129.8148113581691
 20
-149.5333912669911
 30
0.0
 10
129.5247221989032
 20
-149.3645871003669
 30
0.0
 10
129.5247221989032
 20
-149.1570126559742
 30
0.0
 10
129.5247221989032
 20
-148.9482387671375
 30
0.0
 10
129.8148113581691
 20
-148.7797873782904
 30
0.0
 10
130.1744716788431
 20
-148.7797873782904
 30
0.0
 10
130.5327493954084
 20
-148.7797873782904
 30
0.0
 10
130.8235441102119
 20
-148.9482387671375
 30
0.0
 10
130.8235441102119
 20
-149.1570126559742
 30
0.0
  0
SPLINE
  5
88
330
7E
100
AcDbEntity
  8
レイヤー 1
 62
   250
420
  2299925
370
     9
100
AcDbSpline
210
0.0
220
0.0
230
1.0
 70
     8
 71
     3
 72
    11
 73
     7
 74
     0
 42
0.0000000001
 43
0.0000000001
 40
0.0
 40
0.0
 40
0.0
 40
0.0
 40
1.0
 40
1.0
 40
1.0
 40
2.0
 40
2.0
 40
2.0
 40
2.0
 10
129.637046640482
 20
-149.363387655923
 30
0.0
 10
129.637046640482
 20
-149.363387655923
 30
0.0
 10
129.6184552520674
 20
-148.9117262671468
 30
0.0
 10
130.3522330111249
 20
-148.9492971004708
 30
0.0
 10
130.3522330111249
 20
-148.9492971004708
 30
0.0
 10
130.7863260556059
 20
-149.0054240449014
 30
0.0
 10
130.7105493908724
 20
-149.3446198781498
 30
0.0
  0
SPLINE
  5
89
330
7E
100
AcDbEntity
  8
レイヤー 1
 62
   250
420
  2299925
370
     9
100
AcDbSpline
210
0.0
220
0.0
230
1.0
 70
     9
 71
     3
 72
    17
 73
    13
 74
     0
 42
0.0000000001
 43
0.0000000001
 40
0.0
 40
0.0
 40
0.0
 40
0.0
 40
1.0
 40
1.0
 40
1.0
 40
2.0
 40
2.0
 40
2.0
 40
3.0
 40
3.0
 40
3.0
 40
4.0
 40
4.0
 40
4.0
 40
4.0
 10
125.8736134031618
 20
-149.1570126559742
 30
0.0
 10
125.8736134031618
 20
-149.3645871003669
 30
0.0
 10
125.5828539661353
 20
-149.5333912669911
 30
0.0
 10
125.2238673086271
 20
-149.5333912669911
 30
0.0
 10
124.8655862066565
 20
-149.5333912669911
 30
0.0
 10
124.5741244580209
 20
-149.3645871003669
 30
0.0
 10
124.5741244580209
 20
-149.1570126559742
 30
0.0
 10
124.5741244580209
 20
-148.9482387671375
 30
0.0
 10
124.8655862066565
 20
-148.7797873782904
 30
0.0
 10
125.2238673086271
 20
-148.7797873782904
 30
0.0
 10
125.5828539661353
 20
-148.7797873782904
 30
0.0
 10
125.8736134031618
 20
-148.9482387671375
 30
0.0
 10
125.8736134031618
 20
-149.1570126559742
 30
0.0
  0
SPLINE
  5
8A
330
7E
100
AcDbEntity
  8
レイヤー 1
 62
   250
420
  2299925
370
     9
100
AcDbSpline
210
0.0
220
0.0
230
1.0
 70
     8
 71
     3
 72
    11
 73
     7
 74
     0
 42
0.0000000001
 43
0.0000000001
 40
0.0
 40
0.0
 40
0.0
 40
0.0
 40
1.0
 40
1.0
 40
1.0
 40
2.0
 40
2.0
 40
2.0
 40
2.0
 10
124.6871159334319
 20
-149.363387655923
 30
0.0
 10
124.6871159334319
 20
-149.363387655923
 30
0.0
 10
124.6685245450173
 20
-148.9117262671468
 30
0.0
 10
125.4023375818517
 20
-148.9492971004708
 30
0.0
 10
125.4023375818517
 20
-148.9492971004708
 30
0.0
 10
125.8363953485558
 20
-149.0054240449014
 30
0.0
 10
125.7606186838223
 20
-149.3446198781498
 30
0.0
  0
SPLINE
  5
8B
330
7E
100
AcDbEntity
  8
レイヤー 1
 62
   250
420
  2299925
370
     9
100
AcDbSpline
210
0.0
220
0.0
230
1.0
 70
     9
 71
     3
 72
    17
 73
    13
 74
     0
 42
0.0000000001
 43
0.0000000001
 40
0.0
 40
0.0
 40
0.0
 40
0.0
 40
1.0
 40
1.0
 40
1.0
 40
2.0
 40
2.0
 40
2.0
 40
3.0
 40
3.0
 40
3.0
 40
4.0
 40
4.0
 40
4.0
 40
4.0
 10
128.496727780685
 20
-147.9970440451532
 30
0.0
 10
128.496727780685
 20
-148.2047948784348
 30
0.0
 10
128.2059330658816
 20
-148.3732462672816
 30
0.0
 10
127.8469816861503
 20
-148.3732462672816
 30
0.0
 10
127.4879950286422
 20
-148.3732462672816
 30
0.0
 10
127.1972355916156
 20
-148.2047948784348
 30
0.0
 10
127.1972355916156
 20
-147.9970440451532
 30
0.0
 10
127.1972355916156
 20
-147.7882701563164
 30
0.0
 10
127.4879950286422
 20
-147.6198187674697
 30
0.0
 10
127.8469816861503
 20
-147.6198187674697
 30
0.0
 10
128.2059330658816
 20
-147.6198187674697
 30
0.0
 10
128.496727780685
 20
-147.7882701563164
 30
0.0
 10
128.496727780685
 20
-147.9970440451532
 30
0.0
  0
SPLINE
  5
8C
330
7E
100
AcDbEntity
  8
レイヤー 1
 62
   250
420
  2299925
370
     9
100
AcDbSpline
210
0.0
220
0.0
230
1.0
 70
     8
 71
     3
 72
    11
 73
     7
 74
     0
 42
0.0000000001
 43
0.0000000001
 40
0.0
 40
0.0
 40
0.0
 40
0.0
 40
1.0
 40
1.0
 40
1.0
 40
2.0
 40
2.0
 40
2.0
 40
2.0
 10
127.3102303109551
 20
-148.2034190451016
 30
0.0
 10
127.3102303109551
 20
-148.2034190451016
 30
0.0
 10
127.290933367003
 20
-147.7521104341033
 30
0.0
 10
128.0261222371356
 20
-147.7891521007608
 30
0.0
 10
128.0261222371356
 20
-147.7891521007608
 30
0.0
 10
128.4588041705414
 20
-147.8454907118576
 30
0.0
 10
128.3837330613455
 20
-148.1848276562173
 30
0.0
  0
SPLINE
  5
8D
330
7E
100
AcDbEntity
  8
レイヤー 1
 62
   250
420
  2299925
370
     9
100
AcDbSpline
210
0.0
220
0.0
230
1.0
 70
     9
 71
     3
 72
    17
 73
    13
 74
     0
 42
0.0000000001
 43
0.0000000001
 40
0.0
 40
0.0
 40
0.0
 40
0.0
 40
1.0
 40
1.0
 40
1.0
 40
2.0
 40
2.0
 40
2.0
 40
3.0
 40
3.0
 40
3.0
 40
4.0
 40
4.0
 40
4.0
 40
4.0
 10
128.496727780685
 20
-149.0314590448943
 30
0.0
 10
128.496727780685
 20
-149.2386807115093
 30
0.0
 10
128.2059330658816
 20
-149.4076612670224
 30
0.0
 10
127.8469816861503
 20
-149.4076612670224
 30
0.0
 10
127.4879950286422
 20
-149.4076612670224
 30
0.0
 10
127.1972355916156
 20
-149.2386807115093
 30
0.0
 10
127.1972355916156
 20
-149.0314590448943
 30
0.0
 10
127.1972355916156
 20
-148.8226851560579
 30
0.0
 10
127.4879950286422
 20
-148.6541984894333
 30
0.0
 10
127.8469816861503
 20
-148.6541984894333
 30
0.0
 10
128.2059330658816
 20
-148.6541984894333
 30
0.0
 10
128.496727780685
 20
-148.8226851560579
 30
0.0
 10
128.496727780685
 20
-149.0314590448943
 30
0.0
  0
SPLINE
  5
8E
330
7E
100
AcDbEntity
  8
レイヤー 1
 62
   250
420
  2299925
370
     9
100
AcDbSpline
210
0.0
220
0.0
230
1.0
 70
     8
 71
     3
 72
    11
 73
     7
 74
     0
 42
0.0000000001
 43
0.0000000001
 40
0.0
 40
0.0
 40
0.0
 40
0.0
 40
1.0
 40
1.0
 40
1.0
 40
2.0
 40
2.0
 40
2.0
 40
2.0
 10
127.3102303109551
 20
-149.237622378176
 30
0.0
 10
127.3102303109551
 20
-149.237622378176
 30
0.0
 10
127.290933367003
 20
-148.7859962671781
 30
0.0
 10
128.0261222371356
 20
-148.8235318227244
 30
0.0
 10
128.0261222371356
 20
-148.8235318227244
 30
0.0
 10
128.4588041705414
 20
-148.8796940449327
 30
0.0
 10
128.3837330613455
 20
-149.2188546004035
 30
0.0
  0
SPLINE
  5
8F
330
7E
100
AcDbEntity
  8
レイヤー 1
 62
   250
420
  2299925
370
     9
100
AcDbSpline
210
0.0
220
0.0
230
1.0
 70
     9
 71
     3
 72
    17
 73
    13
 74
     0
 42
0.0000000001
 43
0.0000000001
 40
0.0
 40
0.0
 40
0.0
 40
0.0
 40
1.0
 40
1.0
 40
1.0
 40
2.0
 40
2.0
 40
2.0
 40
3.0
 40
3.0
 40
3.0
 40
4.0
 40
4.0
 40
4.0
 40
4.0
 10
128.496727780685
 20
-150.1986596001582
 30
0.0
 10
128.496727780685
 20
-150.4061987667728
 30
0.0
 10
128.2059330658816
 20
-150.5748618222862
 30
0.0
 10
127.8469816861503
 20
-150.5748618222862
 30
0.0
 10
127.4879950286422
 20
-150.5748618222862
 30
0.0
 10
127.1972355916156
 20
-150.4061987667728
 30
0.0
 10
127.1972355916156
 20
-150.1986596001582
 30
0.0
 10
127.1972355916156
 20
-149.9902032113217
 30
0.0
 10
127.4879950286422
 20
-149.8215754335864
 30
0.0
 10
127.8469816861503
 20
-149.8215754335864
 30
0.0
 10
128.2059330658816
 20
-149.8215754335864
 30
0.0
 10
128.496727780685
 20
-149.9902032113217
 30
0.0
 10
128.496727780685
 20
-150.1986596001582
 30
0.0
  0
SPLINE
  5
90
330
7E
100
AcDbEntity
  8
レイヤー 1
 62
   250
420
  2299925
370
     9
100
AcDbSpline
210
0.0
220
0.0
230
1.0
 70
     8
 71
     3
 72
    11
 73
     7
 74
     0
 42
0.0000000001
 43
0.0000000001
 40
0.0
 40
0.0
 40
0.0
 40
0.0
 40
1.0
 40
1.0
 40
1.0
 40
2.0
 40
2.0
 40
2.0
 40
2.0
 10
127.3102303109551
 20
-150.4053521001065
 30
0.0
 10
127.3102303109551
 20
-150.4053521001065
 30
0.0
 10
127.290933367003
 20
-149.9533379335527
 30
0.0
 10
128.0261222371356
 20
-149.9909087668772
 30
0.0
 10
128.0261222371356
 20
-149.9909087668772
 30
0.0
 10
128.4588041705414
 20
-150.0472473779743
 30
0.0
 10
128.3837330613455
 20
-150.3862315445556
 30
0.0
  0
SPLINE
  5
91
330
7E
100
AcDbEntity
  8
レイヤー 1
 62
   250
420
  2299925
370
     9
100
AcDbSpline
210
0.0
220
0.0
230
1.0
 70
     9
 71
     3
 72
    17
 73
    13
 74
     0
 42
0.0000000001
 43
0.0000000001
 40
0.0
 40
0.0
 40
0.0
 40
0.0
 40
1.0
 40
1.0
 40
1.0
 40
2.0
 40
2.0
 40
2.0
 40
3.0
 40
3.0
 40
3.0
 40
4.0
 40
4.0
 40
4.0
 40
4.0
 10
121.7215954535331
 20
-150.7231696000273
 30
0.0
 10
121.7215954535331
 20
-150.9305676555311
 30
0.0
 10
121.4315062942672
 20
-151.0997245999331
 30
0.0
 10
121.072519636759
 20
-151.0997245999331
 30
0.0
 10
120.7135682570277
 20
-151.0997245999331
 30
0.0
 10
120.4221032644636
 20
-150.9305676555311
 30
0.0
 10
120.4221032644636
 20
-150.7231696000273
 30
0.0
 10
120.4221032644636
 20
-150.5143957111905
 30
0.0
 10
120.7135682570277
 20
-150.3459090445659
 30
0.0
 10
121.072519636759
 20
-150.3459090445659
 30
0.0
 10
121.4315062942672
 20
-150.3459090445659
 30
0.0
 10
121.7215954535331
 20
-150.5143957111905
 30
0.0
 10
121.7215954535331
 20
-150.7231696000273
 30
0.0
  0
SPLINE
  5
92
330
7E
100
AcDbEntity
  8
レイヤー 1
 62
   250
420
  2299925
370
     9
100
AcDbSpline
210
0.0
220
0.0
230
1.0
 70
     8
 71
     3
 72
    11
 73
     7
 74
     0
 42
0.0000000001
 43
0.0000000001
 40
0.0
 40
0.0
 40
0.0
 40
0.0
 40
1.0
 40
1.0
 40
1.0
 40
2.0
 40
2.0
 40
2.0
 40
2.0
 10
120.5350979838031
 20
-150.929332933309
 30
0.0
 10
120.5350979838031
 20
-150.929332933309
 30
0.0
 10
120.5171800145907
 20
-150.4778832111993
 30
0.0
 10
121.2509899099837
 20
-150.5152423778574
 30
0.0
 10
121.2509899099837
 20
-150.5152423778574
 30
0.0
 10
121.684377398927
 20
-150.5717573778427
 30
0.0
 10
121.6086007341936
 20
-150.9107415444247
 30
0.0
  0
SPLINE
  5
93
330
7E
100
AcDbEntity
  8
レイヤー 1
 62
   250
420
  2299925
370
     9
100
AcDbSpline
210
0.0
220
0.0
230
1.0
 70
     9
 71
     3
 72
    17
 73
    13
 74
     0
 42
0.0000000001
 43
0.0000000001
 40
0.0
 40
0.0
 40
0.0
 40
0.0
 40
1.0
 40
1.0
 40
1.0
 40
2.0
 40
2.0
 40
2.0
 40
3.0
 40
3.0
 40
3.0
 40
4.0
 40
4.0
 40
4.0
 40
4.0
 10
126.2133031167178
 20
-151.0475134888353
 30
0.0
 10
126.2133031167178
 20
-151.2562873776714
 30
0.0
 10
125.923213957452
 20
-151.4242448776294
 30
0.0
 10
125.5642625777207
 20
-151.4242448776294
 30
0.0
 10
125.2052759202125
 20
-151.4242448776294
 30
0.0
 10
124.914516483186
 20
-151.2562873776714
 30
0.0
 10
124.914516483186
 20
-151.0475134888353
 30
0.0
 10
124.914516483186
 20
-150.839621544443
 30
0.0
 10
125.2052759202125
 20
-150.6711348778177
 30
0.0
 10
125.5642625777207
 20
-150.6711348778177
 30
0.0
 10
125.923213957452
 20
-150.6711348778177
 30
0.0
 10
126.2133031167178
 20
-150.839621544443
 30
0.0
 10
126.2133031167178
 20
-151.0475134888353
 30
0.0
  0
SPLINE
  5
94
330
7E
100
AcDbEntity
  8
レイヤー 1
 62
   250
420
  2299925
370
     9
100
AcDbSpline
210
0.0
220
0.0
230
1.0
 70
     8
 71
     3
 72
    11
 73
     7
 74
     0
 42
0.0000000001
 43
0.0000000001
 40
0.0
 40
0.0
 40
0.0
 40
0.0
 40
1.0
 40
1.0
 40
1.0
 40
2.0
 40
2.0
 40
2.0
 40
2.0
 10
125.0268056469879
 20
-151.2545587665608
 30
0.0
 10
125.0268056469879
 20
-151.2545587665608
 30
0.0
 10
125.008884536334
 20
-150.8030737666736
 30
0.0
 10
125.7426975731684
 20
-150.8402918222203
 30
0.0
 10
125.7426975731684
 20
-150.8402918222203
 30
0.0
 10
126.1767939020646
 20
-150.8966304333174
 30
0.0
 10
126.1003083973784
 20
-151.2363201554542
 30
0.0
  0
SPLINE
  5
95
330
7E
100
AcDbEntity
  8
レイヤー 1
 62
   250
420
  2299925
370
     9
100
AcDbSpline
210
0.0
220
0.0
230
1.0
 70
     9
 71
     3
 72
    17
 73
    13
 74
     0
 42
0.0000000001
 43
0.0000000001
 40
0.0
 40
0.0
 40
0.0
 40
0.0
 40
1.0
 40
1.0
 40
1.0
 40
2.0
 40
2.0
 40
2.0
 40
3.0
 40
3.0
 40
3.0
 40
4.0
 40
4.0
 40
4.0
 40
4.0
 10
124.0566667828493
 20
-149.7475273780487
 30
0.0
 10
124.0566667828493
 20
-149.9548901557751
 30
0.0
 10
123.7652370680621
 20
-150.1238707112882
 30
0.0
 10
123.4069206883146
 20
-150.1238707112882
 30
0.0
 10
123.0479693085833
 20
-150.1238707112882
 30
0.0
 10
122.7571745937799
 20
-149.9548901557751
 30
0.0
 10
122.7571745937799
 20
-149.7475273780487
 30
0.0
 10
122.7571745937799
 20
-149.5388946003233
 30
0.0
 10
123.0479693085833
 20
-149.3704432114769
 30
0.0
 10
123.4069206883146
 20
-149.3704432114769
 30
0.0
 10
123.7652370680621
 20
-149.3704432114769
 30
0.0
 10
124.0566667828493
 20
-149.5388946003233
 30
0.0
 10
124.0566667828493
 20
-149.7475273780487
 30
0.0
  0
SPLINE
  5
96
330
7E
100
AcDbEntity
  8
レイヤー 1
 62
   250
420
  2299925
370
     9
100
AcDbSpline
210
0.0
220
0.0
230
1.0
 70
     8
 71
     3
 72
    11
 73
     7
 74
     0
 42
0.0000000001
 43
0.0000000001
 40
0.0
 40
0.0
 40
0.0
 40
0.0
 40
1.0
 40
1.0
 40
1.0
 40
2.0
 40
2.0
 40
2.0
 40
2.0
 10
122.8695022362247
 20
-149.95386710022
 30
0.0
 10
122.8695022362247
 20
-149.95386710022
 30
0.0
 10
122.8515779247048
 20
-149.5022057114432
 30
0.0
 10
123.5853909615392
 20
-149.5396001558782
 30
0.0
 10
123.5853909615392
 20
-149.5396001558782
 30
0.0
 10
124.0187784504826
 20
-149.5959387669753
 30
0.0
 10
123.943005013734
 20
-149.9350993224461
 30
0.0
  0
SPLINE
  5
97
330
7E
100
AcDbEntity
  8
レイヤー 1
 62
   250
420
  2299925
370
     9
100
AcDbSpline
210
0.0
220
0.0
230
1.0
 70
    11
 71
     3
 72
    17
 73
    13
 74
     0
 42
0.0000000001
 43
0.0000000001
 40
0.0
 40
0.0
 40
0.0
 40
0.0
 40
1.0
 40
1.0
 40
1.0
 40
2.0
 40
2.0
 40
2.0
 40
3.0
 40
3.0
 40
3.0
 40
4.0
 40
4.0
 40
4.0
 40
4.0
 10
124.0566667828493
 20
-150.7815543222352
 30
0.0
 10
124.0566667828493
 20
-150.9897990444053
 30
0.0
 10
123.7652370680621
 20
-151.1579329332515
 30
0.0
 10
123.4069206883146
 20
-151.1579329332515
 30
0.0
 10
123.0479693085833
 20
-151.1579329332515
 30
0.0
 10
122.7571745937799
 20
-150.9897990444053
 30
0.0
 10
122.7571745937799
 20
-150.7815543222352
 30
0.0
 10
122.7571745937799
 20
-150.5733096000651
 30
0.0
 10
123.0479693085833
 20
-150.4045054334403
 30
0.0
 10
123.4069206883146
 20
-150.4045054334403
 30
0.0
 10
123.7652370680621
 20
-150.4045054334403
 30
0.0
 10
124.0566667828493
 20
-150.5733096000651
 30
0.0
 10
124.0566667828493
 20
-150.7815543222352
 30
0.0
  0
SPLINE
  5
98
330
7E
100
AcDbEntity
  8
レイヤー 1
 62
   250
420
  2299925
370
     9
100
AcDbSpline
210
0.0
220
0.0
230
1.0
 70
     8
 71
     3
 72
    11
 73
     7
 74
     0
 42
0.0000000001
 43
0.0000000001
 40
0.0
 40
0.0
 40
0.0
 40
0.0
 40
1.0
 40
1.0
 40
1.0
 40
2.0
 40
2.0
 40
2.0
 40
2.0
 10
122.8695022362247
 20
-150.9882468221829
 30
0.0
 10
122.8695022362247
 20
-150.9882468221829
 30
0.0
 10
122.8515779247048
 20
-150.5367971000739
 30
0.0
 10
123.5853909615392
 20
-150.573803488953
 30
0.0
 10
123.5853909615392
 20
-150.573803488953
 30
0.0
 10
124.0187784504826
 20
-150.63014210005
 30
0.0
 10
123.943005013734
 20
-150.9700082110764
 30
0.0
  0
SPLINE
  5
99
330
7E
100
AcDbEntity
  8
レイヤー 1
 62
   250
420
  2299925
370
     9
100
AcDbSpline
210
0.0
220
0.0
230
1.0
 70
     9
 71
     3
 72
    17
 73
    13
 74
     0
 42
0.0000000001
 43
0.0000000001
 40
0.0
 40
0.0
 40
0.0
 40
0.0
 40
1.0
 40
1.0
 40
1.0
 40
2.0
 40
2.0
 40
2.0
 40
3.0
 40
3.0
 40
3.0
 40
4.0
 40
4.0
 40
4.0
 40
4.0
 10
126.1016842306766
 20
-150.0997759890723
 30
0.0
 10
126.1016842306766
 20
-150.3078443223529
 30
0.0
 10
125.8102192381125
 20
-150.4759782112004
 30
0.0
 10
125.4519381361419
 20
-150.4759782112004
 30
0.0
 10
125.0936570341713
 20
-150.4759782112004
 30
0.0
 10
124.8021920416072
 20
-150.3078443223529
 30
0.0
 10
124.8021920416072
 20
-150.0997759890723
 30
0.0
 10
124.8021920416072
 20
-149.8913548780127
 30
0.0
 10
125.0936570341713
 20
-149.7228682113887
 30
0.0
 10
125.4519381361419
 20
-149.7228682113887
 30
0.0
 10
125.8102192381125
 20
-149.7228682113887
 30
0.0
 10
126.1016842306766
 20
-149.8913548780127
 30
0.0
 10
126.1016842306766
 20
-150.0997759890723
 30
0.0
  0
SPLINE
  5
9A
330
7E
100
AcDbEntity
  8
レイヤー 1
 62
   250
420
  2299925
370
     9
100
AcDbSpline
210
0.0
220
0.0
230
1.0
 70
     8
 71
     3
 72
    11
 73
     7
 74
     0
 42
0.0000000001
 43
0.0000000001
 40
0.0
 40
0.0
 40
0.0
 40
0.0
 40
1.0
 40
1.0
 40
1.0
 40
2.0
 40
2.0
 40
2.0
 40
2.0
 10
124.9151867609466
 20
-150.30646848902
 30
0.0
 10
124.9151867609466
 20
-150.30646848902
 30
0.0
 10
124.8965953725321
 20
-149.8546659891332
 30
0.0
 10
125.6304084093665
 20
-149.8920251557907
 30
0.0
 10
125.6304084093665
 20
-149.8920251557907
 30
0.0
 10
126.0651717316081
 20
-149.9483637668871
 30
0.0
 10
125.9886895113371
 20
-150.2878771001357
 30
0.0
  0
SPLINE
  5
9B
330
7E
100
AcDbEntity
  8
レイヤー 1
 62
   250
420
  2299925
370
     9
100
AcDbSpline
210
0.0
220
0.0
230
1.0
 70
     9
 71
     3
 72
    17
 73
    13
 74
     0
 42
0.0000000001
 43
0.0000000001
 40
0.0
 40
0.0
 40
0.0
 40
0.0
 40
1.0
 40
1.0
 40
1.0
 40
2.0
 40
2.0
 40
2.0
 40
3.0
 40
3.0
 40
3.0
 40
4.0
 40
4.0
 40
4.0
 40
4.0
 10
124.0566667828493
 20
-151.9487548774985
 30
0.0
 10
124.0566667828493
 20
-152.1568232107797
 30
0.0
 10
123.7652370680621
 20
-152.3247807107376
 30
0.0
 10
123.4069206883146
 20
-152.3247807107376
 30
0.0
 10
123.0479693085833
 20
-152.3247807107376
 30
0.0
 10
122.7571745937799
 20
-152.1568232107797
 30
0.0
 10
122.7571745937799
 20
-151.9487548774985
 30
0.0
 10
122.7571745937799
 20
-151.7405101553283
 30
0.0
 10
123.0479693085833
 20
-151.5723762664815
 30
0.0
 10
123.4069206883146
 20
-151.5723762664815
 30
0.0
 10
123.7652370680621
 20
-151.5723762664815
 30
0.0
 10
124.0566667828493
 20
-151.7405101553283
 30
0.0
 10
124.0566667828493
 20
-151.9487548774985
 30
0.0
  0
SPLINE
  5
9C
330
7E
100
AcDbEntity
  8
レイヤー 1
 62
   250
420
  2299925
370
     9
100
AcDbSpline
210
0.0
220
0.0
230
1.0
 70
     8
 71
     3
 72
    11
 73
     7
 74
     0
 42
0.0000000001
 43
0.0000000001
 40
0.0
 40
0.0
 40
0.0
 40
0.0
 40
1.0
 40
1.0
 40
1.0
 40
2.0
 40
2.0
 40
2.0
 40
2.0
 10
122.8695022362247
 20
-152.1551298774472
 30
0.0
 10
122.8695022362247
 20
-152.1551298774472
 30
0.0
 10
122.8515779247048
 20
-151.7039976553377
 30
0.0
 10
123.5853909615392
 20
-151.7411804331063
 30
0.0
 10
123.5853909615392
 20
-151.7411804331063
 30
0.0
 10
124.0187784504826
 20
-151.7973426553139
 30
0.0
 10
123.943005013734
 20
-152.1365032107847
 30
0.0
  0
LINE
  5
9D
330
7E
100
AcDbEntity
  8
レイヤー 1
 62
   250
420
  2299925
370
     9
100
AcDbLine
 10
118.6974785862403
 20
-150.7953479333423
 30
0.0
 11
124.1021398372448
 21
-153.3813854326957
 31
0.0
  0
LINE
  5
9E
330
7E
100
AcDbEntity
  8
レイヤー 1
 62
   250
420
  2299925
370
     9
100
AcDbLine
 10
127.6705928017615
 20
-147.0193557120644
 30
0.0
 11
118.6733838646327
 21
-150.784305988901
 31
0.0
  0
ENDBLK
  5
81
330
7E
100
AcDbEntity
  8
0
100
AcDbBlockEnd
  0
BLOCK
  5
DF
330
DD
100
AcDbEntity
  8
0
100
AcDbBlockBegin
  2
Block_2
 70
     0
 10
0.0
 20
0.0
 30
0.0
  3
Block_2
  1

  0
INSERT
  5
E2
330
DD
100
AcDbEntity
  8
レイヤー 1
100
AcDbBlockReference
  2
Block_3
 10
0.0
 20
0.0
 30
0.0
  0
ENDBLK
  5
E0
330
DD
100
AcDbEntity
  8
0
100
AcDbBlockEnd
  0
BLOCK
  5
E3
330
E1
100
AcDbEntity
  8
0
100
AcDbBlockBegin
  2
Block_3
 70
     0
 10
0.0
 20
0.0
 30
0.0
  3
Block_3
  1

  0
SPLINE
  5
E5
330
E1
100
AcDbEntity
  8
レイヤー 1
100
AcDbSpline
210
0.0
220
0.0
230
1.0
 70
     9
 71
     3
 72
    17
 73
    13
 74
     0
 42
0.0000000001
 43
0.0000000001
 40
0.0
 40
0.0
 40
0.0
 40
0.0
 40
1.0
 40
1.0
 40
1.0
 40
2.0
 40
2.0
 40
2.0
 40
3.0
 40
3.0
 40
3.0
 40
4.0
 40
4.0
 40
4.0
 40
4.0
 10
76.12575817324287
 20
-145.9705905125525
 30
0.0
 10
76.12575817324287
 20
-146.2203599352331
 30
0.0
 10
76.40911727690467
 20
-146.266868724284
 30
0.0
 10
76.75397133497817
 20
-146.266868724284
 30
0.0
 10
77.0735039412351
 20
-146.266868724284
 30
0.0
 10
77.38235675148775
 20
-146.2306952216888
 30
0.0
 10
77.38235675148775
 20
-145.9705905125525
 30
0.0
 10
77.38235675148775
 20
-145.7230604019373
 30
0.0
 10
77.10089245034284
 20
-145.674312300821
 30
0.0
 10
76.75397133497817
 20
-145.674312300821
 30
0.0
 10
76.43461098349551
 20
-145.674312300821
 30
0.0
 10
76.12575817324287
 20
-145.7125528607073
 30
0.0
 10
76.12575817324287
 20
-145.9705905125525
 30
0.0
  0
SPLINE
  5
E6
330
E1
100
AcDbEntity
  8
レイヤー 1
100
AcDbSpline
210
0.0
220
0.0
230
1.0
 70
     9
 71
     3
 72
    29
 73
    25
 74
     0
 42
0.0000000001
 43
0.0000000001
 40
0.0
 40
0.0
 40
0.0
 40
0.0
 40
1.0
 40
1.0
 40
1.0
 40
2.0
 40
2.0
 40
2.0
 40
3.0
 40
3.0
 40
3.0
 40
4.0
 40
4.0
 40
4.0
 40
5.0
 40
5.0
 40
5.0
 40
6.0
 40
6.0
 40
6.0
 40
7.0
 40
7.0
 40
7.0
 40
8.0
 40
8.0
 40
8.0
 40
8.0
 10
77.34842256095804
 20
-145.5728542387804
 30
0.0
 10
77.55788436646122
 20
-145.6806857274687
 30
0.0
 10
77.57700464640436
 20
-145.854146285151
 30
0.0
 10
77.57700464640436
 20
-145.9705905125525
 30
0.0
 10
77.57700464640436
 20
-146.1314764717136
 30
0.0
 10
77.53049585735348
 20
-146.2730698961574
 30
0.0
 10
77.34842256095804
 20
-146.3681545315503
 30
0.0
 10
77.15394692081568
 20
-146.4718519056563
 30
0.0
 10
76.9169243514305
 20
-146.4911444403737
 30
0.0
 10
76.75397133497817
 20
-146.4911444403737
 30
0.0
 10
76.61013859846899
 20
-146.4911444403737
 30
0.0
 10
76.35847437327149
 20
-146.4739189629475
 30
0.0
 10
76.15952010899832
 20
-146.3681545315503
 30
0.0
 10
75.95643173014284
 20
-146.260323042862
 30
0.0
 10
75.9331773356174
 20
-146.0994370837008
 30
0.0
 10
75.9331773356174
 20
-145.9705905125525
 30
0.0
 10
75.9331773356174
 20
-145.8117716106825
 30
0.0
 10
75.97761906737712
 20
-145.6681111289475
 30
0.0
 10
76.15952010899832
 20
-145.5728542387804
 30
0.0
 10
76.35210094662378
 20
-145.4734632340309
 30
0.0
 10
76.58051077729584
 20
-145.4502088395055
 30
0.0
 10
76.75397133497817
 20
-145.4502088395055
 30
0.0
 10
76.92536483536935
 20
-145.4502088395055
 30
0.0
 10
77.15601397810683
 20
-145.4712239219655
 30
0.0
 10
77.34842256095804
 20
-145.5728542387804
 30
0.0
  0
HATCH
  5
E7
330
E1
100
AcDbEntity
  8
レイヤー 1
 62
   250
420
  2299925
440
 33554687
100
AcDbHatch
 10
0.0
 20
0.0
 30
0.0
210
0.0
220
0.0
230
1.0
  2
SOLID
 70
     1
 71
     1
 91
        2
 92
        1
 93
        1
 72
     4
 94
        3
 73
     0
 74
     0
 95
       17
 96
       13
 40
0.0
 40
0.0
 40
0.0
 40
0.0
 40
1.0
 40
1.0
 40
1.0
 40
2.0
 40
2.0
 40
2.0
 40
3.0
 40
3.0
 40
3.0
 40
4.0
 40
4.0
 40
4.0
 40
4.0
 10
76.12575817324287
 20
-145.9705905125525
 10
76.12575817324287
 20
-146.2203599352331
 10
76.40911727690467
 20
-146.266868724284
 10
76.75397133497817
 20
-146.266868724284
 10
77.0735039412351
 20
-146.266868724284
 10
77.38235675148775
 20
-146.2306952216888
 10
77.38235675148775
 20
-145.9705905125525
 10
77.38235675148775
 20
-145.7230604019373
 10
77.10089245034284
 20
-145.674312300821
 10
76.75397133497817
 20
-145.674312300821
 10
76.43461098349551
 20
-145.674312300821
 10
76.12575817324287
 20
-145.7125528607073
 10
76.12575817324287
 20
-145.9705905125525
 97
        0
 97
        1
330
E5
 92
        1
 93
        1
 72
     4
 94
        3
 73
     0
 74
     0
 95
       29
 96
       25
 40
0.0
 40
0.0
 40
0.0
 40
0.0
 40
1.0
 40
1.0
 40
1.0
 40
2.0
 40
2.0
 40
2.0
 40
3.0
 40
3.0
 40
3.0
 40
4.0
 40
4.0
 40
4.0
 40
5.0
 40
5.0
 40
5.0
 40
6.0
 40
6.0
 40
6.0
 40
7.0
 40
7.0
 40
7.0
 40
8.0
 40
8.0
 40
8.0
 40
8.0
 10
77.34842256095804
 20
-145.5728542387804
 10
77.55788436646122
 20
-145.6806857274687
 10
77.57700464640436
 20
-145.854146285151
 10
77.57700464640436
 20
-145.9705905125525
 10
77.57700464640436
 20
-146.1314764717136
 10
77.53049585735348
 20
-146.2730698961574
 10
77.34842256095804
 20
-146.3681545315503
 10
77.15394692081568
 20
-146.4718519056563
 10
76.9169243514305
 20
-146.4911444403737
 10
76.75397133497817
 20
-146.4911444403737
 10
76.61013859846899
 20
-146.4911444403737
 10
76.35847437327149
 20
-146.4739189629475
 10
76.15952010899832
 20
-146.3681545315503
 10
75.95643173014284
 20
-146.260323042862
 10
75.9331773356174
 20
-146.0994370837008
 10
75.9331773356174
 20
-145.9705905125525
 10
75.9331773356174
 20
-145.8117716106825
 10
75.97761906737712
 20
-145.6681111289475
 10
76.15952010899832
 20
-145.5728542387804
 10
76.35210094662378
 20
-145.4734632340309
 10
76.58051077729584
 20
-145.4502088395055
 10
76.75397133497817
 20
-145.4502088395055
 10
76.92536483536935
 20
-145.4502088395055
 10
77.15601397810683
 20
-145.4712239219655
 10
77.34842256095804
 20
-145.5728542387804
 97
        0
 97
        1
330
E6
 75
     2
 76
     1
 98
        1
 10
0.0
 20
0.0
450
        0
451
        0
460
0.0
461
0.0
452
        0
462
0.0
453
        0
470

  0
SPLINE
  5
E8
330
E1
100
AcDbEntity
  8
レイヤー 1
100
AcDbSpline
210
0.0
220
0.0
230
1.0
 70
    11
 71
     3
 72
    17
 73
    13
 74
     0
 42
0.0000000001
 43
0.0000000001
 40
0.0
 40
0.0
 40
0.0
 40
0.0
 40
1.0
 40
1.0
 40
1.0
 40
2.0
 40
2.0
 40
2.0
 40
3.0
 40
3.0
 40
3.0
 40
4.0
 40
4.0
 40
4.0
 40
4.0
 10
77.52618948799693
 20
-145.2336845882575
 30
0.0
 10
77.52618948799693
 20
-145.2336845882575
 30
0.0
 10
77.27452526279943
 20
-145.2336845882575
 30
0.0
 10
77.27452526279943
 20
-145.2336845882575
 30
0.0
 10
77.27452526279943
 20
-145.2336845882575
 30
0.0
 10
77.27452526279943
 20
-144.98202036306
 30
0.0
 10
77.27452526279943
 20
-144.98202036306
 30
0.0
 10
77.27452526279943
 20
-144.98202036306
 30
0.0
 10
77.52618948799693
 20
-144.98202036306
 30
0.0
 10
77.52618948799693
 20
-144.98202036306
 30
0.0
 10
77.52618948799693
 20
-144.98202036306
 30
0.0
 10
77.52618948799693
 20
-145.2336845882575
 30
0.0
 10
77.52618948799693
 20
-145.2336845882575
 30
0.0
  0
HATCH
  5
E9
330
E1
100
AcDbEntity
  8
レイヤー 1
 62
   250
420
  2299925
440
 33554687
100
AcDbHatch
 10
0.0
 20
0.0
 30
0.0
210
0.0
220
0.0
230
1.0
  2
SOLID
 70
     1
 71
     1
 91
        1
 92
        1
 93
        1
 72
     4
 94
        3
 73
     0
 74
     0
 95
       17
 96
       13
 40
0.0
 40
0.0
 40
0.0
 40
0.0
 40
1.0
 40
1.0
 40
1.0
 40
2.0
 40
2.0
 40
2.0
 40
3.0
 40
3.0
 40
3.0
 40
4.0
 40
4.0
 40
4.0
 40
4.0
 10
77.52618948799693
 20
-145.2336845882575
 10
77.52618948799693
 20
-145.2336845882575
 10
77.27452526279943
 20
-145.2336845882575
 10
77.27452526279943
 20
-145.2336845882575
 10
77.27452526279943
 20
-145.2336845882575
 10
77.27452526279943
 20
-144.98202036306
 10
77.27452526279943
 20
-144.98202036306
 10
77.27452526279943
 20
-144.98202036306
 10
77.52618948799693
 20
-144.98202036306
 10
77.52618948799693
 20
-144.98202036306
 10
77.52618948799693
 20
-144.98202036306
 10
77.52618948799693
 20
-145.2336845882575
 10
77.52618948799693
 20
-145.2336845882575
 97
        0
 97
        1
330
E8
 75
     2
 76
     1
 98
        1
 10
0.0
 20
0.0
450
        0
451
        0
460
0.0
461
0.0
452
        0
462
0.0
453
        0
470

  0
SPLINE
  5
EA
330
E1
100
AcDbEntity
  8
レイヤー 1
100
AcDbSpline
210
0.0
220
0.0
230
1.0
 70
     9
 71
     3
 72
    53
 73
    49
 74
     0
 42
0.0000000001
 43
0.0000000001
 40
0.0
 40
0.0
 40
0.0
 40
0.0
 40
1.0
 40
1.0
 40
1.0
 40
2.0
 40
2.0
 40
2.0
 40
3.0
 40
3.0
 40
3.0
 40
4.0
 40
4.0
 40
4.0
 40
5.0
 40
5.0
 40
5.0
 40
6.0
 40
6.0
 40
6.0
 40
7.0
 40
7.0
 40
7.0
 40
8.0
 40
8.0
 40
8.0
 40
9.0
 40
9.0
 40
9.0
 40
10.0
 40
10.0
 40
10.0
 40
11.0
 40
11.0
 40
11.0
 40
12.0
 40
12.0
 40
12.0
 40
13.0
 40
13.0
 40
13.0
 40
14.0
 40
14.0
 40
14.0
 40
15.0
 40
15.0
 40
15.0
 40
16.0
 40
16.0
 40
16.0
 40
16.0
 10
77.57700464640436
 20
-144.2644069734825
 30
0.0
 10
77.57700464640436
 20
-144.3427828957719
 30
0.0
 10
77.56012367852664
 20
-144.4442409578125
 30
0.0
 10
77.49656166682378
 20
-144.5458712746274
 30
0.0
 10
77.38649086607004
 20
-144.7193318323097
 30
0.0
 10
77.25540498285629
 20
-144.740519169544
 30
0.0
 10
77.14757349416797
 20
-144.7594671947129
 30
0.0
 10
77.14757349416797
 20
-144.7594671947129
 30
0.0
 10
77.14757349416797
 20
-144.5374307906885
 30
0.0
 10
77.14757349416797
 20
-144.5374307906885
 30
0.0
 10
77.34635550366689
 20
-144.4823092629245
 30
0.0
 10
77.37598332484004
 20
-144.3553574942931
 30
0.0
 10
77.37598332484004
 20
-144.2623399161913
 30
0.0
 10
77.37598332484004
 20
-144.1226412942645
 30
0.0
 10
77.27659232009057
 20
-143.9703680738164
 30
0.0
 10
77.04387612006195
 20
-143.9703680738164
 30
0.0
 10
76.7879055255079
 20
-143.9703680738164
 30
0.0
 10
76.71814234193158
 20
-144.1502020581465
 30
0.0
 10
76.71814234193158
 20
-144.2707804001302
 30
0.0
 10
76.71814234193158
 20
-144.3024752785945
 30
0.0
 10
76.71814234193158
 20
-144.4442409578125
 30
0.0
 10
76.84716116785418
 20
-144.533124421332
 30
0.0
 10
76.84716116785418
 20
-144.533124421332
 30
0.0
 10
76.82804088791105
 20
-144.7086520363055
 30
0.0
 10
76.82804088791105
 20
-144.7086520363055
 30
0.0
 10
76.82804088791105
 20
-144.7086520363055
 30
0.0
 10
75.98192543673369
 20
-144.5880736943217
 30
0.0
 10
75.98192543673369
 20
-144.5880736943217
 30
0.0
 10
75.98192543673369
 20
-144.5880736943217
 30
0.0
 10
75.98192543673369
 20
-143.8096543694295
 30
0.0
 10
75.98192543673369
 20
-143.8096543694295
 30
0.0
 10
75.98192543673369
 20
-143.8096543694295
 30
0.0
 10
76.17657333165031
 20
-143.8096543694295
 30
0.0
 10
76.17657333165031
 20
-143.8096543694295
 30
0.0
 10
76.17657333165031
 20
-143.8096543694295
 30
0.0
 10
76.17657333165031
 20
-144.4252929326436
 30
0.0
 10
76.17657333165031
 20
-144.4252929326436
 30
0.0
 10
76.17657333165031
 20
-144.4252929326436
 30
0.0
 10
76.59963105723898
 20
-144.4907497468634
 30
0.0
 10
76.59963105723898
 20
-144.4907497468634
 30
0.0
 10
76.56569686670927
 20
-144.4294270472259
 30
0.0
 10
76.52556150430611
 20
-144.3469170103542
 30
0.0
 10
76.52556150430611
 20
-144.2285779804359
 30
0.0
 10
76.52556150430611
 20
-143.974674443173
 30
0.0
 10
76.71176891528387
 20
-143.7376518737878
 30
0.0
 10
77.02475584011882
 20
-143.7376518737878
 30
0.0
 10
77.34222138908458
 20
-143.7376518737878
 30
0.0
 10
77.57700464640436
 20
-143.9619275898776
 30
0.0
 10
77.57700464640436
 20
-144.2644069734825
 30
0.0
  0
HATCH
  5
EB
330
E1
100
AcDbEntity
  8
レイヤー 1
 62
   250
420
  2299925
440
 33554687
100
AcDbHatch
 10
0.0
 20
0.0
 30
0.0
210
0.0
220
0.0
230
1.0
  2
SOLID
 70
     1
 71
     1
 91
        1
 92
        1
 93
        1
 72
     4
 94
        3
 73
     0
 74
     0
 95
       53
 96
       49
 40
0.0
 40
0.0
 40
0.0
 40
0.0
 40
1.0
 40
1.0
 40
1.0
 40
2.0
 40
2.0
 40
2.0
 40
3.0
 40
3.0
 40
3.0
 40
4.0
 40
4.0
 40
4.0
 40
5.0
 40
5.0
 40
5.0
 40
6.0
 40
6.0
 40
6.0
 40
7.0
 40
7.0
 40
7.0
 40
8.0
 40
8.0
 40
8.0
 40
9.0
 40
9.0
 40
9.0
 40
10.0
 40
10.0
 40
10.0
 40
11.0
 40
11.0
 40
11.0
 40
12.0
 40
12.0
 40
12.0
 40
13.0
 40
13.0
 40
13.0
 40
14.0
 40
14.0
 40
14.0
 40
15.0
 40
15.0
 40
15.0
 40
16.0
 40
16.0
 40
16.0
 40
16.0
 10
77.57700464640436
 20
-144.2644069734825
 10
77.57700464640436
 20
-144.3427828957719
 10
77.56012367852664
 20
-144.4442409578125
 10
77.49656166682378
 20
-144.5458712746274
 10
77.38649086607004
 20
-144.7193318323097
 10
77.25540498285629
 20
-144.740519169544
 10
77.14757349416797
 20
-144.7594671947129
 10
77.14757349416797
 20
-144.7594671947129
 10
77.14757349416797
 20
-144.5374307906885
 10
77.14757349416797
 20
-144.5374307906885
 10
77.34635550366689
 20
-144.4823092629245
 10
77.37598332484004
 20
-144.3553574942931
 10
77.37598332484004
 20
-144.2623399161913
 10
77.37598332484004
 20
-144.1226412942645
 10
77.27659232009057
 20
-143.9703680738164
 10
77.04387612006195
 20
-143.9703680738164
 10
76.7879055255079
 20
-143.9703680738164
 10
76.71814234193158
 20
-144.1502020581465
 10
76.71814234193158
 20
-144.2707804001302
 10
76.71814234193158
 20
-144.3024752785945
 10
76.71814234193158
 20
-144.4442409578125
 10
76.84716116785418
 20
-144.533124421332
 10
76.84716116785418
 20
-144.533124421332
 10
76.82804088791105
 20
-144.7086520363055
 10
76.82804088791105
 20
-144.7086520363055
 10
76.82804088791105
 20
-144.7086520363055
 10
75.98192543673369
 20
-144.5880736943217
 10
75.98192543673369
 20
-144.5880736943217
 10
75.98192543673369
 20
-144.5880736943217
 10
75.98192543673369
 20
-143.8096543694295
 10
75.98192543673369
 20
-143.8096543694295
 10
75.98192543673369
 20
-143.8096543694295
 10
76.17657333165031
 20
-143.8096543694295
 10
76.17657333165031
 20
-143.8096543694295
 10
76.17657333165031
 20
-143.8096543694295
 10
76.17657333165031
 20
-144.4252929326436
 10
76.17657333165031
 20
-144.4252929326436
 10
76.17657333165031
 20
-144.4252929326436
 10
76.59963105723898
 20
-144.4907497468634
 10
76.59963105723898
 20
-144.4907497468634
 10
76.56569686670927
 20
-144.4294270472259
 10
76.52556150430611
 20
-144.3469170103542
 10
76.52556150430611
 20
-144.2285779804359
 10
76.52556150430611
 20
-143.974674443173
 10
76.71176891528387
 20
-143.7376518737878
 10
77.02475584011882
 20
-143.7376518737878
 10
77.34222138908458
 20
-143.7376518737878
 10
77.57700464640436
 20
-143.9619275898776
 10
77.57700464640436
 20
-144.2644069734825
 97
        0
 97
        1
330
EA
 75
     2
 76
     1
 98
        1
 10
0.0
 20
0.0
450
        0
451
        0
460
0.0
461
0.0
452
        0
462
0.0
453
        0
470

  0
ENDBLK
  5
E4
330
E1
100
AcDbEntity
  8
0
100
AcDbBlockEnd
  0
BLOCK
  5
F0
330
EE
100
AcDbEntity
  8
0
100
AcDbBlockBegin
  2
Block_4
 70
     0
 10
0.0
 20
0.0
 30
0.0
  3
Block_4
  1

  0
INSERT
  5
F3
330
EE
100
AcDbEntity
  8
レイヤー 1
100
AcDbBlockReference
  2
Block_5
 10
0.0
 20
0.0
 30
0.0
  0
ENDBLK
  5
F1
330
EE
100
AcDbEntity
  8
0
100
AcDbBlockEnd
  0
BLOCK
  5
F4
330
F2
100
AcDbEntity
  8
0
100
AcDbBlockBegin
  2
Block_5
 70
     0
 10
0.0
 20
0.0
 30
0.0
  3
Block_5
  1

  0
SPLINE
  5
F6
330
F2
100
AcDbEntity
  8
レイヤー 1
100
AcDbSpline
210
0.0
220
0.0
230
1.0
 70
     9
 71
     3
 72
    44
 73
    40
 74
     0
 42
0.0000000001
 43
0.0000000001
 40
0.0
 40
0.0
 40
0.0
 40
0.0
 40
1.0
 40
1.0
 40
1.0
 40
2.0
 40
2.0
 40
2.0
 40
3.0
 40
3.0
 40
3.0
 40
4.0
 40
4.0
 40
4.0
 40
5.0
 40
5.0
 40
5.0
 40
6.0
 40
6.0
 40
6.0
 40
7.0
 40
7.0
 40
7.0
 40
8.0
 40
8.0
 40
8.0
 40
9.0
 40
9.0
 40
9.0
 40
10.0
 40
10.0
 40
10.0
 40
11.0
 40
11.0
 40
11.0
 40
12.0
 40
12.0
 40
12.0
 40
13.0
 40
13.0
 40
13.0
 40
13.0
 10
92.89906681705302
 20
-137.9178520705552
 30
0.0
 10
92.68133678238523
 20
-138.076498717651
 30
0.0
 10
92.58831920428347
 20
-138.1505682705839
 30
0.0
 10
92.53939884839294
 20
-138.2944010070931
 30
0.0
 10
92.53939884839294
 20
-138.2944010070931
 30
0.0
 10
93.31799042805938
 20
-138.2944010070931
 30
0.0
 10
93.31799042805938
 20
-138.2944010070931
 30
0.0
 10
93.31799042805938
 20
-138.2944010070931
 30
0.0
 10
93.31799042805938
 20
-138.4995564432397
 30
0.0
 10
93.31799042805938
 20
-138.4995564432397
 30
0.0
 10
93.31799042805938
 20
-138.4995564432397
 30
0.0
 10
92.28997393526084
 20
-138.4995564432397
 30
0.0
 10
92.28997393526084
 20
-138.4995564432397
 30
0.0
 10
92.32166881372513
 20
-138.1419555318707
 30
0.0
 10
92.38712562794487
 20
-138.0637518643556
 30
0.0
 10
92.77228730319583
 20
-137.7654065953329
 30
0.0
 10
93.02825789774988
 20
-137.566624585834
 30
0.0
 10
93.09371471196962
 20
-137.4989284595489
 30
0.0
 10
93.09371471196962
 20
-137.3614691496874
 30
0.0
 10
93.09371471196962
 20
-137.2429578649948
 30
0.0
 10
93.02171221632791
 20
-137.111871981781
 30
0.0
 10
92.82499726412014
 20
-137.111871981781
 30
0.0
 10
92.56489255498378
 20
-137.111871981781
 30
0.0
 10
92.55627981627066
 20
-137.3423488697443
 30
0.0
 10
92.55214570168837
 20
-137.4587930971457
 30
0.0
 10
92.55214570168837
 20
-137.4587930971457
 30
0.0
 10
92.32786998559859
 20
-137.4587930971457
 30
0.0
 10
92.32786998559859
 20
-137.4587930971457
 30
0.0
 10
92.33648272431173
 20
-137.3318413285142
 30
0.0
 10
92.34716252031599
 20
-137.2197034704694
 30
0.0
 10
92.42743324512231
 20
-137.1011921857768
 30
0.0
 10
92.53733179110177
 20
-136.9404784813899
 30
0.0
 10
92.72371145685379
 20
-136.9065442908601
 30
0.0
 10
92.83981117470672
 20
-136.9065442908601
 30
0.0
 10
93.11714136126933
 20
-136.9065442908601
 30
0.0
 10
93.32453610948137
 20
-137.0906846445467
 30
0.0
 10
93.32453610948137
 20
-137.3635362069786
 30
0.0
 10
93.32453610948137
 20
-137.5919460376506
 30
0.0
 10
93.20809188207993
 20
-137.6915092971743
 30
0.0
 10
92.89906681705302
 20
-137.9178520705552
 30
0.0
  0
HATCH
  5
F7
330
F2
100
AcDbEntity
  8
レイヤー 1
 62
   250
420
  2299925
440
 33554687
100
AcDbHatch
 10
0.0
 20
0.0
 30
0.0
210
0.0
220
0.0
230
1.0
  2
SOLID
 70
     1
 71
     1
 91
        1
 92
        1
 93
        1
 72
     4
 94
        3
 73
     0
 74
     0
 95
       44
 96
       40
 40
0.0
 40
0.0
 40
0.0
 40
0.0
 40
1.0
 40
1.0
 40
1.0
 40
2.0
 40
2.0
 40
2.0
 40
3.0
 40
3.0
 40
3.0
 40
4.0
 40
4.0
 40
4.0
 40
5.0
 40
5.0
 40
5.0
 40
6.0
 40
6.0
 40
6.0
 40
7.0
 40
7.0
 40
7.0
 40
8.0
 40
8.0
 40
8.0
 40
9.0
 40
9.0
 40
9.0
 40
10.0
 40
10.0
 40
10.0
 40
11.0
 40
11.0
 40
11.0
 40
12.0
 40
12.0
 40
12.0
 40
13.0
 40
13.0
 40
13.0
 40
13.0
 10
92.89906681705302
 20
-137.9178520705552
 10
92.68133678238523
 20
-138.076498717651
 10
92.58831920428347
 20
-138.1505682705839
 10
92.53939884839294
 20
-138.2944010070931
 10
92.53939884839294
 20
-138.2944010070931
 10
93.31799042805938
 20
-138.2944010070931
 10
93.31799042805938
 20
-138.2944010070931
 10
93.31799042805938
 20
-138.2944010070931
 10
93.31799042805938
 20
-138.4995564432397
 10
93.31799042805938
 20
-138.4995564432397
 10
93.31799042805938
 20
-138.4995564432397
 10
92.28997393526084
 20
-138.4995564432397
 10
92.28997393526084
 20
-138.4995564432397
 10
92.32166881372513
 20
-138.1419555318707
 10
92.38712562794487
 20
-138.0637518643556
 10
92.77228730319583
 20
-137.7654065953329
 10
93.02825789774988
 20
-137.566624585834
 10
93.09371471196962
 20
-137.4989284595489
 10
93.09371471196962
 20
-137.3614691496874
 10
93.09371471196962
 20
-137.2429578649948
 10
93.02171221632791
 20
-137.111871981781
 10
92.82499726412014
 20
-137.111871981781
 10
92.56489255498378
 20
-137.111871981781
 10
92.55627981627066
 20
-137.3423488697443
 10
92.55214570168837
 20
-137.4587930971457
 10
92.55214570168837
 20
-137.4587930971457
 10
92.32786998559859
 20
-137.4587930971457
 10
92.32786998559859
 20
-137.4587930971457
 10
92.33648272431173
 20
-137.3318413285142
 10
92.34716252031599
 20
-137.2197034704694
 10
92.42743324512231
 20
-137.1011921857768
 10
92.53733179110177
 20
-136.9404784813899
 10
92.72371145685379
 20
-136.9065442908601
 10
92.83981117470672
 20
-136.9065442908601
 10
93.11714136126933
 20
-136.9065442908601
 10
93.32453610948137
 20
-137.0906846445467
 10
93.32453610948137
 20
-137.3635362069786
 10
93.32453610948137
 20
-137.5919460376506
 10
93.20809188207993
 20
-137.6915092971743
 10
92.89906681705302
 20
-137.9178520705552
 97
        0
 97
        1
330
F6
 75
     2
 76
     1
 98
        1
 10
0.0
 20
0.0
450
        0
451
        0
460
0.0
461
0.0
452
        0
462
0.0
453
        0
470

  0
SPLINE
  5
F8
330
F2
100
AcDbEntity
  8
レイヤー 1
100
AcDbSpline
210
0.0
220
0.0
230
1.0
 70
    11
 71
     3
 72
    26
 73
    22
 74
     0
 42
0.0000000001
 43
0.0000000001
 40
0.0
 40
0.0
 40
0.0
 40
0.0
 40
1.0
 40
1.0
 40
1.0
 40
2.0
 40
2.0
 40
2.0
 40
3.0
 40
3.0
 40
3.0
 40
4.0
 40
4.0
 40
4.0
 40
5.0
 40
5.0
 40
5.0
 40
6.0
 40
6.0
 40
6.0
 40
7.0
 40
7.0
 40
7.0
 40
7.0
 10
93.93431801037058
 20
-138.4995564432397
 30
0.0
 10
93.93431801037058
 20
-138.4995564432397
 30
0.0
 10
93.93431801037058
 20
-137.3952310854428
 30
0.0
 10
93.93431801037058
 20
-137.3952310854428
 30
0.0
 10
93.93431801037058
 20
-137.3952310854428
 30
0.0
 10
93.60427786288367
 20
-137.3952310854428
 30
0.0
 10
93.60427786288367
 20
-137.3952310854428
 30
0.0
 10
93.60427786288367
 20
-137.3952310854428
 30
0.0
 10
93.60427786288367
 20
-137.2472642343514
 30
0.0
 10
93.60427786288367
 20
-137.2472642343514
 30
0.0
 10
93.93638506766174
 20
-137.2324503237648
 30
0.0
 10
93.9828938567126
 20
-137.0694973073125
 30
0.0
 10
94.01252167788575
 20
-136.9552923919764
 30
0.0
 10
94.01252167788575
 20
-136.9552923919764
 30
0.0
 10
94.15859372646036
 20
-136.9552923919764
 30
0.0
 10
94.15859372646036
 20
-136.9552923919764
 30
0.0
 10
94.15859372646036
 20
-136.9552923919764
 30
0.0
 10
94.15859372646036
 20
-138.4995564432397
 30
0.0
 10
94.15859372646036
 20
-138.4995564432397
 30
0.0
 10
94.15859372646036
 20
-138.4995564432397
 30
0.0
 10
93.93431801037058
 20
-138.4995564432397
 30
0.0
 10
93.93431801037058
 20
-138.4995564432397
 30
0.0
  0
HATCH
  5
F9
330
F2
100
AcDbEntity
  8
レイヤー 1
 62
   250
420
  2299925
440
 33554687
100
AcDbHatch
 10
0.0
 20
0.0
 30
0.0
210
0.0
220
0.0
230
1.0
  2
SOLID
 70
     1
 71
     1
 91
        1
 92
        1
 93
        1
 72
     4
 94
        3
 73
     0
 74
     0
 95
       26
 96
       22
 40
0.0
 40
0.0
 40
0.0
 40
0.0
 40
1.0
 40
1.0
 40
1.0
 40
2.0
 40
2.0
 40
2.0
 40
3.0
 40
3.0
 40
3.0
 40
4.0
 40
4.0
 40
4.0
 40
5.0
 40
5.0
 40
5.0
 40
6.0
 40
6.0
 40
6.0
 40
7.0
 40
7.0
 40
7.0
 40
7.0
 10
93.93431801037058
 20
-138.4995564432397
 10
93.93431801037058
 20
-138.4995564432397
 10
93.93431801037058
 20
-137.3952310854428
 10
93.93431801037058
 20
-137.3952310854428
 10
93.93431801037058
 20
-137.3952310854428
 10
93.60427786288367
 20
-137.3952310854428
 10
93.60427786288367
 20
-137.3952310854428
 10
93.60427786288367
 20
-137.3952310854428
 10
93.60427786288367
 20
-137.2472642343514
 10
93.60427786288367
 20
-137.2472642343514
 10
93.93638506766174
 20
-137.2324503237648
 10
93.9828938567126
 20
-137.0694973073125
 10
94.01252167788575
 20
-136.9552923919764
 10
94.01252167788575
 20
-136.9552923919764
 10
94.15859372646036
 20
-136.9552923919764
 10
94.15859372646036
 20
-136.9552923919764
 10
94.15859372646036
 20
-136.9552923919764
 10
94.15859372646036
 20
-138.4995564432397
 10
94.15859372646036
 20
-138.4995564432397
 10
94.15859372646036
 20
-138.4995564432397
 10
93.93431801037058
 20
-138.4995564432397
 10
93.93431801037058
 20
-138.4995564432397
 97
        0
 97
        1
330
F8
 75
     2
 76
     1
 98
        1
 10
0.0
 20
0.0
450
        0
451
        0
460
0.0
461
0.0
452
        0
462
0.0
453
        0
470

  0
ENDBLK
  5
F5
330
F2
100
AcDbEntity
  8
0
100
AcDbBlockEnd
  0
BLOCK
  5
FE
330
FC
100
AcDbEntity
  8
0
100
AcDbBlockBegin
  2
Block_6
 70
     0
 10
0.0
 20
0.0
 30
0.0
  3
Block_6
  1

  0
SPLINE
  5
100
330
FC
100
AcDbEntity
  8
レイヤー 1
100
AcDbSpline
210
0.0
220
0.0
230
1.0
 70
     9
 71
     3
 72
    17
 73
    13
 74
     0
 42
0.0000000001
 43
0.0000000001
 40
0.0
 40
0.0
 40
0.0
 40
0.0
 40
1.0
 40
1.0
 40
1.0
 40
2.0
 40
2.0
 40
2.0
 40
3.0
 40
3.0
 40
3.0
 40
4.0
 40
4.0
 40
4.0
 40
4.0
 10
77.5161987110897
 20
-149.3135389166647
 30
0.0
 10
77.5161987110897
 20
-149.4571993983996
 30
0.0
 10
77.60284286254374
 20
-149.6098171283962
 30
0.0
 10
77.80593124139922
 20
-149.6098171283962
 30
0.0
 10
78.01108667754585
 20
-149.6098171283962
 30
0.0
 10
78.11271699436071
 20
-149.4826931049904
 30
0.0
 10
78.11271699436071
 20
-149.3135389166647
 30
0.0
 10
78.11271699436071
 20
-149.1275037604612
 30
0.0
 10
77.99007159508582
 20
-149.0172607049332
 30
0.0
 10
77.81230466804693
 20
-149.0172607049332
 30
0.0
 10
77.59009600924831
 20
-149.0172607049332
 30
0.0
 10
77.5161987110897
 20
-149.1802137213855
 30
0.0
 10
77.5161987110897
 20
-149.3135389166647
 30
0.0
  0
SPLINE
  5
101
330
FC
100
AcDbEntity
  8
レイヤー 1
100
AcDbSpline
210
0.0
220
0.0
230
1.0
 70
     9
 71
     3
 72
    17
 73
    13
 74
     0
 42
0.0000000001
 43
0.0000000001
 40
0.0
 40
0.0
 40
0.0
 40
0.0
 40
1.0
 40
1.0
 40
1.0
 40
2.0
 40
2.0
 40
2.0
 40
3.0
 40
3.0
 40
3.0
 40
4.0
 40
4.0
 40
4.0
 40
4.0
 10
76.85611841611583
 20
-149.3135389166647
 30
0.0
 10
76.85611841611583
 20
-149.4785589904081
 30
0.0
 10
76.95120305150872
 20
-149.5633083393453
 30
0.0
 10
77.08659530407905
 20
-149.5633083393453
 30
0.0
 10
77.20941295812821
 20
-149.5633083393453
 30
0.0
 10
77.3279242428208
 20
-149.4913058437036
 30
0.0
 10
77.3279242428208
 20
-149.3135389166647
 30
0.0
 10
77.3279242428208
 20
-149.1357719896258
 30
0.0
 10
77.20941295812821
 20
-149.0637694939841
 30
0.0
 10
77.08659530407905
 20
-149.0637694939841
 30
0.0
 10
76.95120305150872
 20
-149.0637694939841
 30
0.0
 10
76.85611841611583
 20
-149.1505859002123
 30
0.0
 10
76.85611841611583
 20
-149.3135389166647
 30
0.0
  0
SPLINE
  5
102
330
FC
100
AcDbEntity
  8
レイヤー 1
100
AcDbSpline
210
0.0
220
0.0
230
1.0
 70
     9
 71
     3
 72
    29
 73
    25
 74
     0
 42
0.0000000001
 43
0.0000000001
 40
0.0
 40
0.0
 40
0.0
 40
0.0
 40
1.0
 40
1.0
 40
1.0
 40
2.0
 40
2.0
 40
2.0
 40
3.0
 40
3.0
 40
3.0
 40
4.0
 40
4.0
 40
4.0
 40
5.0
 40
5.0
 40
5.0
 40
6.0
 40
6.0
 40
6.0
 40
7.0
 40
7.0
 40
7.0
 40
8.0
 40
8.0
 40
8.0
 40
8.0
 10
78.30736488927732
 20
-149.3135389166647
 30
0.0
 10
78.30736488927732
 20
-149.580189307223
 30
0.0
 10
78.1697333246416
 20
-149.8340928444859
 30
0.0
 10
77.82074515198579
 20
-149.8340928444859
 30
0.0
 10
77.56477455743173
 20
-149.8340928444859
 30
0.0
 10
77.46951766726457
 20
-149.6921549104936
 30
0.0
 10
77.40819496762712
 20
-149.5863904790964
 30
0.0
 10
77.34893932528082
 20
-149.7111029356625
 30
0.0
 10
77.23473440994479
 20
-149.7872395458865
 30
0.0
 10
77.07402070555788
 20
-149.7872395458865
 30
0.0
 10
76.79892983106069
 20
-149.7872395458865
 30
0.0
 10
76.66353757849036
 20
-149.5884575363876
 30
0.0
 10
76.66353757849036
 20
-149.3135389166647
 30
0.0
 10
76.66353757849036
 20
-149.0300075582286
 30
0.0
 10
76.80737031499955
 20
-148.8396660326685
 30
0.0
 10
77.07402070555788
 20
-148.8396660326685
 30
0.0
 10
77.23473440994479
 20
-148.8396660326685
 30
0.0
 10
77.34893932528082
 20
-148.918041954958
 30
0.0
 10
77.40819496762712
 20
-149.042754411524
 30
0.0
 10
77.45901012603455
 20
-148.9538709480046
 30
0.0
 10
77.55426701620172
 20
-148.7952243009088
 30
0.0
 10
77.81643878262923
 20
-148.7952243009088
 30
0.0
 10
78.19092066187588
 20
-148.7952243009088
 30
0.0
 10
78.30736488927732
 20
-149.0744492899883
 30
0.0
 10
78.30736488927732
 20
-149.3135389166647
 30
0.0
  0
HATCH
  5
103
330
FC
100
AcDbEntity
  8
レイヤー 1
 62
   250
420
  2299925
440
 33554687
100
AcDbHatch
 10
0.0
 20
0.0
 30
0.0
210
0.0
220
0.0
230
1.0
  2
SOLID
 70
     1
 71
     1
 91
        3
 92
        1
 93
        1
 72
     4
 94
        3
 73
     0
 74
     0
 95
       17
 96
       13
 40
0.0
 40
0.0
 40
0.0
 40
0.0
 40
1.0
 40
1.0
 40
1.0
 40
2.0
 40
2.0
 40
2.0
 40
3.0
 40
3.0
 40
3.0
 40
4.0
 40
4.0
 40
4.0
 40
4.0
 10
77.5161987110897
 20
-149.3135389166647
 10
77.5161987110897
 20
-149.4571993983996
 10
77.60284286254374
 20
-149.6098171283962
 10
77.80593124139922
 20
-149.6098171283962
 10
78.01108667754585
 20
-149.6098171283962
 10
78.11271699436071
 20
-149.4826931049904
 10
78.11271699436071
 20
-149.3135389166647
 10
78.11271699436071
 20
-149.1275037604612
 10
77.99007159508582
 20
-149.0172607049332
 10
77.81230466804693
 20
-149.0172607049332
 10
77.59009600924831
 20
-149.0172607049332
 10
77.5161987110897
 20
-149.1802137213855
 10
77.5161987110897
 20
-149.3135389166647
 97
        0
 97
        1
330
100
 92
        1
 93
        1
 72
     4
 94
        3
 73
     0
 74
     0
 95
       17
 96
       13
 40
0.0
 40
0.0
 40
0.0
 40
0.0
 40
1.0
 40
1.0
 40
1.0
 40
2.0
 40
2.0
 40
2.0
 40
3.0
 40
3.0
 40
3.0
 40
4.0
 40
4.0
 40
4.0
 40
4.0
 10
76.85611841611583
 20
-149.3135389166647
 10
76.85611841611583
 20
-149.4785589904081
 10
76.95120305150872
 20
-149.5633083393453
 10
77.08659530407905
 20
-149.5633083393453
 10
77.20941295812821
 20
-149.5633083393453
 10
77.3279242428208
 20
-149.4913058437036
 10
77.3279242428208
 20
-149.3135389166647
 10
77.3279242428208
 20
-149.1357719896258
 10
77.20941295812821
 20
-149.0637694939841
 10
77.08659530407905
 20
-149.0637694939841
 10
76.95120305150872
 20
-149.0637694939841
 10
76.85611841611583
 20
-149.1505859002123
 10
76.85611841611583
 20
-149.3135389166647
 97
        0
 97
        1
330
101
 92
        1
 93
        1
 72
     4
 94
        3
 73
     0
 74
     0
 95
       29
 96
       25
 40
0.0
 40
0.0
 40
0.0
 40
0.0
 40
1.0
 40
1.0
 40
1.0
 40
2.0
 40
2.0
 40
2.0
 40
3.0
 40
3.0
 40
3.0
 40
4.0
 40
4.0
 40
4.0
 40
5.0
 40
5.0
 40
5.0
 40
6.0
 40
6.0
 40
6.0
 40
7.0
 40
7.0
 40
7.0
 40
8.0
 40
8.0
 40
8.0
 40
8.0
 10
78.30736488927732
 20
-149.3135389166647
 10
78.30736488927732
 20
-149.580189307223
 10
78.1697333246416
 20
-149.8340928444859
 10
77.82074515198579
 20
-149.8340928444859
 10
77.56477455743173
 20
-149.8340928444859
 10
77.46951766726457
 20
-149.6921549104936
 10
77.40819496762712
 20
-149.5863904790964
 10
77.34893932528082
 20
-149.7111029356625
 10
77.23473440994479
 20
-149.7872395458865
 10
77.07402070555788
 20
-149.7872395458865
 10
76.79892983106069
 20
-149.7872395458865
 10
76.66353757849036
 20
-149.5884575363876
 10
76.66353757849036
 20
-149.3135389166647
 10
76.66353757849036
 20
-149.0300075582286
 10
76.80737031499955
 20
-148.8396660326685
 10
77.07402070555788
 20
-148.8396660326685
 10
77.23473440994479
 20
-148.8396660326685
 10
77.34893932528082
 20
-148.918041954958
 10
77.40819496762712
 20
-149.042754411524
 10
77.45901012603455
 20
-148.9538709480046
 10
77.55426701620172
 20
-148.7952243009088
 10
77.81643878262923
 20
-148.7952243009088
 10
78.19092066187588
 20
-148.7952243009088
 10
78.30736488927732
 20
-149.0744492899883
 10
78.30736488927732
 20
-149.3135389166647
 97
        0
 97
        1
330
102
 75
     2
 76
     1
 98
        1
 10
0.0
 20
0.0
450
        0
451
        0
460
0.0
461
0.0
452
        0
462
0.0
453
        0
470

  0
ENDBLK
  5
FF
330
FC
100
AcDbEntity
  8
0
100
AcDbBlockEnd
  0
BLOCK
  5
109
330
107
100
AcDbEntity
  8
0
100
AcDbBlockBegin
  2
Block_7
 70
     0
 10
0.0
 20
0.0
 30
0.0
  3
Block_7
  1

  0
INSERT
  5
10C
330
107
100
AcDbEntity
  8
レイヤー 1
100
AcDbBlockReference
  2
Block_8
 10
0.0
 20
0.0
 30
0.0
  0
ENDBLK
  5
10A
330
107
100
AcDbEntity
  8
0
100
AcDbBlockEnd
  0
BLOCK
  5
10D
330
10B
100
AcDbEntity
  8
0
100
AcDbBlockBegin
  2
Block_8
 70
     0
 10
0.0
 20
0.0
 30
0.0
  3
Block_8
  1

  0
SPLINE
  5
10F
330
10B
100
AcDbEntity
  8
レイヤー 1
100
AcDbSpline
210
0.0
220
0.0
230
1.0
 70
    11
 71
     3
 72
    26
 73
    22
 74
     0
 42
0.0000000001
 43
0.0000000001
 40
0.0
 40
0.0
 40
0.0
 40
0.0
 40
1.0
 40
1.0
 40
1.0
 40
2.0
 40
2.0
 40
2.0
 40
3.0
 40
3.0
 40
3.0
 40
4.0
 40
4.0
 40
4.0
 40
5.0
 40
5.0
 40
5.0
 40
6.0
 40
6.0
 40
6.0
 40
7.0
 40
7.0
 40
7.0
 40
7.0
 10
103.8493028169196
 20
-138.5000732075625
 30
0.0
 10
103.8493028169196
 20
-138.5000732075625
 30
0.0
 10
103.8493028169196
 20
-137.3957478497656
 30
0.0
 10
103.8493028169196
 20
-137.3957478497656
 30
0.0
 10
103.8493028169196
 20
-137.3957478497656
 30
0.0
 10
103.5192626694327
 20
-137.3957478497656
 30
0.0
 10
103.5192626694327
 20
-137.3957478497656
 30
0.0
 10
103.5192626694327
 20
-137.3957478497656
 30
0.0
 10
103.5192626694327
 20
-137.2476087438999
 30
0.0
 10
103.5192626694327
 20
-137.2476087438999
 30
0.0
 10
103.8513698742107
 20
-137.2329670880876
 30
0.0
 10
103.8978786632616
 20
-137.0700140716353
 30
0.0
 10
103.9275064844348
 20
-136.9558091562992
 30
0.0
 10
103.9275064844348
 20
-136.9558091562992
 30
0.0
 10
104.0735785330094
 20
-136.9558091562992
 30
0.0
 10
104.0735785330094
 20
-136.9558091562992
 30
0.0
 10
104.0735785330094
 20
-136.9558091562992
 30
0.0
 10
104.0735785330094
 20
-138.5000732075625
 30
0.0
 10
104.0735785330094
 20
-138.5000732075625
 30
0.0
 10
104.0735785330094
 20
-138.5000732075625
 30
0.0
 10
103.8493028169196
 20
-138.5000732075625
 30
0.0
 10
103.8493028169196
 20
-138.5000732075625
 30
0.0
  0
HATCH
  5
110
330
10B
100
AcDbEntity
  8
レイヤー 1
 62
   250
420
  2299925
440
 33554687
100
AcDbHatch
 10
0.0
 20
0.0
 30
0.0
210
0.0
220
0.0
230
1.0
  2
SOLID
 70
     1
 71
     1
 91
        1
 92
        1
 93
        1
 72
     4
 94
        3
 73
     0
 74
     0
 95
       26
 96
       22
 40
0.0
 40
0.0
 40
0.0
 40
0.0
 40
1.0
 40
1.0
 40
1.0
 40
2.0
 40
2.0
 40
2.0
 40
3.0
 40
3.0
 40
3.0
 40
4.0
 40
4.0
 40
4.0
 40
5.0
 40
5.0
 40
5.0
 40
6.0
 40
6.0
 40
6.0
 40
7.0
 40
7.0
 40
7.0
 40
7.0
 10
103.8493028169196
 20
-138.5000732075625
 10
103.8493028169196
 20
-138.5000732075625
 10
103.8493028169196
 20
-137.3957478497656
 10
103.8493028169196
 20
-137.3957478497656
 10
103.8493028169196
 20
-137.3957478497656
 10
103.5192626694327
 20
-137.3957478497656
 10
103.5192626694327
 20
-137.3957478497656
 10
103.5192626694327
 20
-137.3957478497656
 10
103.5192626694327
 20
-137.2476087438999
 10
103.5192626694327
 20
-137.2476087438999
 10
103.8513698742107
 20
-137.2329670880876
 10
103.8978786632616
 20
-137.0700140716353
 10
103.9275064844348
 20
-136.9558091562992
 10
103.9275064844348
 20
-136.9558091562992
 10
104.0735785330094
 20
-136.9558091562992
 10
104.0735785330094
 20
-136.9558091562992
 10
104.0735785330094
 20
-136.9558091562992
 10
104.0735785330094
 20
-138.5000732075625
 10
104.0735785330094
 20
-138.5000732075625
 10
104.0735785330094
 20
-138.5000732075625
 10
103.8493028169196
 20
-138.5000732075625
 10
103.8493028169196
 20
-138.5000732075625
 97
        0
 97
        1
330
10F
 75
     2
 76
     1
 98
        1
 10
0.0
 20
0.0
450
        0
451
        0
460
0.0
461
0.0
452
        0
462
0.0
453
        0
470

  0
SPLINE
  5
111
330
10B
100
AcDbEntity
  8
レイヤー 1
100
AcDbSpline
210
0.0
220
0.0
230
1.0
 70
    11
 71
     3
 72
    17
 73
    13
 74
     0
 42
0.0000000001
 43
0.0000000001
 40
0.0
 40
0.0
 40
0.0
 40
0.0
 40
1.0
 40
1.0
 40
1.0
 40
2.0
 40
2.0
 40
2.0
 40
3.0
 40
3.0
 40
3.0
 40
4.0
 40
4.0
 40
4.0
 40
4.0
 10
104.6347845875565
 20
-138.5000732075625
 30
0.0
 10
104.6347845875565
 20
-138.5000732075625
 30
0.0
 10
104.6347845875565
 20
-138.248408982365
 30
0.0
 10
104.6347845875565
 20
-138.248408982365
 30
0.0
 10
104.6347845875565
 20
-138.248408982365
 30
0.0
 10
104.8866210675283
 20
-138.248408982365
 30
0.0
 10
104.8866210675283
 20
-138.248408982365
 30
0.0
 10
104.8866210675283
 20
-138.248408982365
 30
0.0
 10
104.8866210675283
 20
-138.5000732075625
 30
0.0
 10
104.8866210675283
 20
-138.5000732075625
 30
0.0
 10
104.8866210675283
 20
-138.5000732075625
 30
0.0
 10
104.6347845875565
 20
-138.5000732075625
 30
0.0
 10
104.6347845875565
 20
-138.5000732075625
 30
0.0
  0
HATCH
  5
112
330
10B
100
AcDbEntity
  8
レイヤー 1
 62
   250
420
  2299925
440
 33554687
100
AcDbHatch
 10
0.0
 20
0.0
 30
0.0
210
0.0
220
0.0
230
1.0
  2
SOLID
 70
     1
 71
     1
 91
        1
 92
        1
 93
        1
 72
     4
 94
        3
 73
     0
 74
     0
 95
       17
 96
       13
 40
0.0
 40
0.0
 40
0.0
 40
0.0
 40
1.0
 40
1.0
 40
1.0
 40
2.0
 40
2.0
 40
2.0
 40
3.0
 40
3.0
 40
3.0
 40
4.0
 40
4.0
 40
4.0
 40
4.0
 10
104.6347845875565
 20
-138.5000732075625
 10
104.6347845875565
 20
-138.5000732075625
 10
104.6347845875565
 20
-138.248408982365
 10
104.6347845875565
 20
-138.248408982365
 10
104.6347845875565
 20
-138.248408982365
 10
104.8866210675283
 20
-138.248408982365
 10
104.8866210675283
 20
-138.248408982365
 10
104.8866210675283
 20
-138.248408982365
 10
104.8866210675283
 20
-138.5000732075625
 10
104.8866210675283
 20
-138.5000732075625
 10
104.8866210675283
 20
-138.5000732075625
 10
104.6347845875565
 20
-138.5000732075625
 10
104.6347845875565
 20
-138.5000732075625
 97
        0
 97
        1
330
111
 75
     2
 76
     1
 98
        1
 10
0.0
 20
0.0
450
        0
451
        0
460
0.0
461
0.0
452
        0
462
0.0
453
        0
470

  0
SPLINE
  5
113
330
10B
100
AcDbEntity
  8
レイヤー 1
100
AcDbSpline
210
0.0
220
0.0
230
1.0
 70
     9
 71
     3
 72
    53
 73
    49
 74
     0
 42
0.0000000001
 43
0.0000000001
 40
0.0
 40
0.0
 40
0.0
 40
0.0
 40
1.0
 40
1.0
 40
1.0
 40
2.0
 40
2.0
 40
2.0
 40
3.0
 40
3.0
 40
3.0
 40
4.0
 40
4.0
 40
4.0
 40
5.0
 40
5.0
 40
5.0
 40
6.0
 40
6.0
 40
6.0
 40
7.0
 40
7.0
 40
7.0
 40
8.0
 40
8.0
 40
8.0
 40
9.0
 40
9.0
 40
9.0
 40
10.0
 40
10.0
 40
10.0
 40
11.0
 40
11.0
 40
11.0
 40
12.0
 40
12.0
 40
12.0
 40
13.0
 40
13.0
 40
13.0
 40
14.0
 40
14.0
 40
14.0
 40
15.0
 40
15.0
 40
15.0
 40
16.0
 40
16.0
 40
16.0
 40
16.0
 10
105.6038899475573
 20
-138.5508883659699
 30
0.0
 10
105.5256862800422
 20
-138.5508883659699
 30
0.0
 10
105.4240559632273
 20
-138.5340073980922
 30
0.0
 10
105.3224256464124
 20
-138.4704453863893
 30
0.0
 10
105.1491373435044
 20
-138.3603745856356
 30
0.0
 10
105.1277777514958
 20
-138.2292887024218
 30
0.0
 10
105.1088297263269
 20
-138.1214572137335
 30
0.0
 10
105.1088297263269
 20
-138.1214572137335
 30
0.0
 10
105.3310383851256
 20
-138.1214572137335
 30
0.0
 10
105.3310383851256
 20
-138.1214572137335
 30
0.0
 10
105.385815403341
 20
-138.3202392232324
 30
0.0
 10
105.5129394267467
 20
-138.3498670444056
 30
0.0
 10
105.6059570048485
 20
-138.3498670444056
 30
0.0
 10
105.7454833720011
 20
-138.3498670444056
 30
0.0
 10
105.8977565924491
 20
-138.2504760396561
 30
0.0
 10
105.8977565924491
 20
-138.0177598396275
 30
0.0
 10
105.8977565924491
 20
-137.7617892450734
 30
0.0
 10
105.7179226081191
 20
-137.6920260614971
 30
0.0
 10
105.5973442661354
 20
-137.6920260614971
 30
0.0
 10
105.5656493876711
 20
-137.6920260614971
 30
0.0
 10
105.4240559632273
 20
-137.6920260614971
 30
0.0
 10
105.3351724997078
 20
-137.8210448874197
 30
0.0
 10
105.3351724997078
 20
-137.8210448874197
 30
0.0
 10
105.1594726299601
 20
-137.8019246074766
 30
0.0
 10
105.1594726299601
 20
-137.8019246074766
 30
0.0
 10
105.1594726299601
 20
-137.8019246074766
 30
0.0
 10
105.2800509719439
 20
-136.9558091562992
 30
0.0
 10
105.2800509719439
 20
-136.9558091562992
 30
0.0
 10
105.2800509719439
 20
-136.9558091562992
 30
0.0
 10
106.0586425516103
 20
-136.9558091562992
 30
0.0
 10
106.0586425516103
 20
-136.9558091562992
 30
0.0
 10
106.0586425516103
 20
-136.9558091562992
 30
0.0
 10
106.0586425516103
 20
-137.1504570512158
 30
0.0
 10
106.0586425516103
 20
-137.1504570512158
 30
0.0
 10
106.0586425516103
 20
-137.1504570512158
 30
0.0
 10
105.4430039883962
 20
-137.1504570512158
 30
0.0
 10
105.4430039883962
 20
-137.1504570512158
 30
0.0
 10
105.4430039883962
 20
-137.1504570512158
 30
0.0
 10
105.3775471741764
 20
-137.5735147768045
 30
0.0
 10
105.3775471741764
 20
-137.5735147768045
 30
0.0
 10
105.4388698738139
 20
-137.5395805862748
 30
0.0
 10
105.5212076559113
 20
-137.4994452238716
 30
0.0
 10
105.6397189406039
 20
-137.4994452238716
 30
0.0
 10
105.8936224778668
 20
-137.4994452238716
 30
0.0
 10
106.130645047252
 20
-137.6856526348494
 30
0.0
 10
106.130645047252
 20
-137.9986395596843
 30
0.0
 10
106.130645047252
 20
-138.3161051086501
 30
0.0
 10
105.9063693311623
 20
-138.5508883659699
 30
0.0
 10
105.6038899475573
 20
-138.5508883659699
 30
0.0
  0
HATCH
  5
114
330
10B
100
AcDbEntity
  8
レイヤー 1
 62
   250
420
  2299925
440
 33554687
100
AcDbHatch
 10
0.0
 20
0.0
 30
0.0
210
0.0
220
0.0
230
1.0
  2
SOLID
 70
     1
 71
     1
 91
        1
 92
        1
 93
        1
 72
     4
 94
        3
 73
     0
 74
     0
 95
       53
 96
       49
 40
0.0
 40
0.0
 40
0.0
 40
0.0
 40
1.0
 40
1.0
 40
1.0
 40
2.0
 40
2.0
 40
2.0
 40
3.0
 40
3.0
 40
3.0
 40
4.0
 40
4.0
 40
4.0
 40
5.0
 40
5.0
 40
5.0
 40
6.0
 40
6.0
 40
6.0
 40
7.0
 40
7.0
 40
7.0
 40
8.0
 40
8.0
 40
8.0
 40
9.0
 40
9.0
 40
9.0
 40
10.0
 40
10.0
 40
10.0
 40
11.0
 40
11.0
 40
11.0
 40
12.0
 40
12.0
 40
12.0
 40
13.0
 40
13.0
 40
13.0
 40
14.0
 40
14.0
 40
14.0
 40
15.0
 40
15.0
 40
15.0
 40
16.0
 40
16.0
 40
16.0
 40
16.0
 10
105.6038899475573
 20
-138.5508883659699
 10
105.5256862800422
 20
-138.5508883659699
 10
105.4240559632273
 20
-138.5340073980922
 10
105.3224256464124
 20
-138.4704453863893
 10
105.1491373435044
 20
-138.3603745856356
 10
105.1277777514958
 20
-138.2292887024218
 10
105.1088297263269
 20
-138.1214572137335
 10
105.1088297263269
 20
-138.1214572137335
 10
105.3310383851256
 20
-138.1214572137335
 10
105.3310383851256
 20
-138.1214572137335
 10
105.385815403341
 20
-138.3202392232324
 10
105.5129394267467
 20
-138.3498670444056
 10
105.6059570048485
 20
-138.3498670444056
 10
105.7454833720011
 20
-138.3498670444056
 10
105.8977565924491
 20
-138.2504760396561
 10
105.8977565924491
 20
-138.0177598396275
 10
105.8977565924491
 20
-137.7617892450734
 10
105.7179226081191
 20
-137.6920260614971
 10
105.5973442661354
 20
-137.6920260614971
 10
105.5656493876711
 20
-137.6920260614971
 10
105.4240559632273
 20
-137.6920260614971
 10
105.3351724997078
 20
-137.8210448874197
 10
105.3351724997078
 20
-137.8210448874197
 10
105.1594726299601
 20
-137.8019246074766
 10
105.1594726299601
 20
-137.8019246074766
 10
105.1594726299601
 20
-137.8019246074766
 10
105.2800509719439
 20
-136.9558091562992
 10
105.2800509719439
 20
-136.9558091562992
 10
105.2800509719439
 20
-136.9558091562992
 10
106.0586425516103
 20
-136.9558091562992
 10
106.0586425516103
 20
-136.9558091562992
 10
106.0586425516103
 20
-136.9558091562992
 10
106.0586425516103
 20
-137.1504570512158
 10
106.0586425516103
 20
-137.1504570512158
 10
106.0586425516103
 20
-137.1504570512158
 10
105.4430039883962
 20
-137.1504570512158
 10
105.4430039883962
 20
-137.1504570512158
 10
105.4430039883962
 20
-137.1504570512158
 10
105.3775471741764
 20
-137.5735147768045
 10
105.3775471741764
 20
-137.5735147768045
 10
105.4388698738139
 20
-137.5395805862748
 10
105.5212076559113
 20
-137.4994452238716
 10
105.6397189406039
 20
-137.4994452238716
 10
105.8936224778668
 20
-137.4994452238716
 10
106.130645047252
 20
-137.6856526348494
 10
106.130645047252
 20
-137.9986395596843
 10
106.130645047252
 20
-138.3161051086501
 10
105.9063693311623
 20
-138.5508883659699
 10
105.6038899475573
 20
-138.5508883659699
 97
        0
 97
        1
330
113
 75
     2
 76
     1
 98
        1
 10
0.0
 20
0.0
450
        0
451
        0
460
0.0
461
0.0
452
        0
462
0.0
453
        0
470

  0
ENDBLK
  5
10E
330
10B
100
AcDbEntity
  8
0
100
AcDbBlockEnd
  0
BLOCK
  5
11B
330
119
100
AcDbEntity
  8
0
100
AcDbBlockBegin
  2
Block_9
 70
     0
 10
0.0
 20
0.0
 30
0.0
  3
Block_9
  1

  0
INSERT
  5
11E
330
119
100
AcDbEntity
  8
レイヤー 1
100
AcDbBlockReference
  2
Block_10
 10
0.0
 20
0.0
 30
0.0
  0
ENDBLK
  5
11C
330
119
100
AcDbEntity
  8
0
100
AcDbBlockEnd
  0
BLOCK
  5
11F
330
11D
100
AcDbEntity
  8
0
100
AcDbBlockBegin
  2
Block_10
 70
     0
 10
0.0
 20
0.0
 30
0.0
  3
Block_10
  1

  0
SPLINE
  5
121
330
11D
100
AcDbEntity
  8
レイヤー 1
100
AcDbSpline
210
0.0
220
0.0
230
1.0
 70
     9
 71
     3
 72
    44
 73
    40
 74
     0
 42
0.0000000001
 43
0.0000000001
 40
0.0
 40
0.0
 40
0.0
 40
0.0
 40
1.0
 40
1.0
 40
1.0
 40
2.0
 40
2.0
 40
2.0
 40
3.0
 40
3.0
 40
3.0
 40
4.0
 40
4.0
 40
4.0
 40
5.0
 40
5.0
 40
5.0
 40
6.0
 40
6.0
 40
6.0
 40
7.0
 40
7.0
 40
7.0
 40
8.0
 40
8.0
 40
8.0
 40
9.0
 40
9.0
 40
9.0
 40
10.0
 40
10.0
 40
10.0
 40
11.0
 40
11.0
 40
11.0
 40
12.0
 40
12.0
 40
12.0
 40
13.0
 40
13.0
 40
13.0
 40
13.0
 10
103.4687920205737
 20
-159.7246174730897
 30
0.0
 10
103.251061985906
 20
-159.8834363749597
 30
0.0
 10
103.1580444078042
 20
-159.9575059278926
 30
0.0
 10
103.1091240519137
 20
-160.1011664096275
 30
0.0
 10
103.1091240519137
 20
-160.1011664096275
 30
0.0
 10
103.8877156315801
 20
-160.1011664096275
 30
0.0
 10
103.8877156315801
 20
-160.1011664096275
 30
0.0
 10
103.8877156315801
 20
-160.1011664096275
 30
0.0
 10
103.8877156315801
 20
-160.3064941005484
 30
0.0
 10
103.8877156315801
 20
-160.3064941005484
 30
0.0
 10
103.8877156315801
 20
-160.3064941005484
 30
0.0
 10
102.8596991387816
 20
-160.3064941005484
 30
0.0
 10
102.8596991387816
 20
-160.3064941005484
 30
0.0
 10
102.8913940172459
 20
-159.9488931891794
 30
0.0
 10
102.9568508314656
 20
-159.8706895216642
 30
0.0
 10
103.3420125067166
 20
-159.5723442526416
 30
0.0
 10
103.5979831012706
 20
-159.3735622431427
 30
0.0
 10
103.6634399154904
 20
-159.3056938620833
 30
0.0
 10
103.6634399154904
 20
-159.1682345522218
 30
0.0
 10
103.6634399154904
 20
-159.0497232675292
 30
0.0
 10
103.5914374198487
 20
-158.9188096390897
 30
0.0
 10
103.3947224676409
 20
-158.9188096390897
 30
0.0
 10
103.1346177585045
 20
-158.9188096390897
 30
0.0
 10
103.1260050197914
 20
-159.1492865270529
 30
0.0
 10
103.1218709052091
 20
-159.2657307544544
 30
0.0
 10
103.1218709052091
 20
-159.2657307544544
 30
0.0
 10
102.8975951891193
 20
-159.2657307544544
 30
0.0
 10
102.8975951891193
 20
-159.2657307544544
 30
0.0
 10
102.9062079278325
 20
-159.1386067310487
 30
0.0
 10
102.9168877238367
 20
-159.0266411277781
 30
0.0
 10
102.9971584486431
 20
-158.9081298430855
 30
0.0
 10
103.1070569946225
 20
-158.7472438839243
 30
0.0
 10
103.2934366603745
 20
-158.7134819481688
 30
0.0
 10
103.4095363782275
 20
-158.7134819481688
 30
0.0
 10
103.6868665647901
 20
-158.7134819481688
 30
0.0
 10
103.8942613130021
 20
-158.8974500470812
 30
0.0
 10
103.8942613130021
 20
-159.170301609513
 30
0.0
 10
103.8942613130021
 20
-159.3990559497335
 30
0.0
 10
103.7778170856007
 20
-159.4982746997087
 30
0.0
 10
103.4687920205737
 20
-159.7246174730897
 30
0.0
  0
HATCH
  5
122
330
11D
100
AcDbEntity
  8
レイヤー 1
 62
   250
420
  2299925
440
 33554687
100
AcDbHatch
 10
0.0
 20
0.0
 30
0.0
210
0.0
220
0.0
230
1.0
  2
SOLID
 70
     1
 71
     1
 91
        1
 92
        1
 93
        1
 72
     4
 94
        3
 73
     0
 74
     0
 95
       44
 96
       40
 40
0.0
 40
0.0
 40
0.0
 40
0.0
 40
1.0
 40
1.0
 40
1.0
 40
2.0
 40
2.0
 40
2.0
 40
3.0
 40
3.0
 40
3.0
 40
4.0
 40
4.0
 40
4.0
 40
5.0
 40
5.0
 40
5.0
 40
6.0
 40
6.0
 40
6.0
 40
7.0
 40
7.0
 40
7.0
 40
8.0
 40
8.0
 40
8.0
 40
9.0
 40
9.0
 40
9.0
 40
10.0
 40
10.0
 40
10.0
 40
11.0
 40
11.0
 40
11.0
 40
12.0
 40
12.0
 40
12.0
 40
13.0
 40
13.0
 40
13.0
 40
13.0
 10
103.4687920205737
 20
-159.7246174730897
 10
103.251061985906
 20
-159.8834363749597
 10
103.1580444078042
 20
-159.9575059278926
 10
103.1091240519137
 20
-160.1011664096275
 10
103.1091240519137
 20
-160.1011664096275
 10
103.8877156315801
 20
-160.1011664096275
 10
103.8877156315801
 20
-160.1011664096275
 10
103.8877156315801
 20
-160.1011664096275
 10
103.8877156315801
 20
-160.3064941005484
 10
103.8877156315801
 20
-160.3064941005484
 10
103.8877156315801
 20
-160.3064941005484
 10
102.8596991387816
 20
-160.3064941005484
 10
102.8596991387816
 20
-160.3064941005484
 10
102.8913940172459
 20
-159.9488931891794
 10
102.9568508314656
 20
-159.8706895216642
 10
103.3420125067166
 20
-159.5723442526416
 10
103.5979831012706
 20
-159.3735622431427
 10
103.6634399154904
 20
-159.3056938620833
 10
103.6634399154904
 20
-159.1682345522218
 10
103.6634399154904
 20
-159.0497232675292
 10
103.5914374198487
 20
-158.9188096390897
 10
103.3947224676409
 20
-158.9188096390897
 10
103.1346177585045
 20
-158.9188096390897
 10
103.1260050197914
 20
-159.1492865270529
 10
103.1218709052091
 20
-159.2657307544544
 10
103.1218709052091
 20
-159.2657307544544
 10
102.8975951891193
 20
-159.2657307544544
 10
102.8975951891193
 20
-159.2657307544544
 10
102.9062079278325
 20
-159.1386067310487
 10
102.9168877238367
 20
-159.0266411277781
 10
102.9971584486431
 20
-158.9081298430855
 10
103.1070569946225
 20
-158.7472438839243
 10
103.2934366603745
 20
-158.7134819481688
 10
103.4095363782275
 20
-158.7134819481688
 10
103.6868665647901
 20
-158.7134819481688
 10
103.8942613130021
 20
-158.8974500470812
 10
103.8942613130021
 20
-159.170301609513
 10
103.8942613130021
 20
-159.3990559497335
 10
103.7778170856007
 20
-159.4982746997087
 10
103.4687920205737
 20
-159.7246174730897
 97
        0
 97
        1
330
121
 75
     2
 76
     1
 98
        1
 10
0.0
 20
0.0
450
        0
451
        0
460
0.0
461
0.0
452
        0
462
0.0
453
        0
470

  0
SPLINE
  5
123
330
11D
100
AcDbEntity
  8
レイヤー 1
100
AcDbSpline
210
0.0
220
0.0
230
1.0
 70
    11
 71
     3
 72
    17
 73
    13
 74
     0
 42
0.0000000001
 43
0.0000000001
 40
0.0
 40
0.0
 40
0.0
 40
0.0
 40
1.0
 40
1.0
 40
1.0
 40
2.0
 40
2.0
 40
2.0
 40
3.0
 40
3.0
 40
3.0
 40
4.0
 40
4.0
 40
4.0
 40
4.0
 10
104.1126803667669
 20
-160.3064941005484
 30
0.0
 10
104.1126803667669
 20
-160.3064941005484
 30
0.0
 10
104.1126803667669
 20
-160.0546576205766
 30
0.0
 10
104.1126803667669
 20
-160.0546576205766
 30
0.0
 10
104.1126803667669
 20
-160.0546576205766
 30
0.0
 10
104.3645168467387
 20
-160.0546576205766
 30
0.0
 10
104.3645168467387
 20
-160.0546576205766
 30
0.0
 10
104.3645168467387
 20
-160.0546576205766
 30
0.0
 10
104.3645168467387
 20
-160.3064941005484
 30
0.0
 10
104.3645168467387
 20
-160.3064941005484
 30
0.0
 10
104.3645168467387
 20
-160.3064941005484
 30
0.0
 10
104.1126803667669
 20
-160.3064941005484
 30
0.0
 10
104.1126803667669
 20
-160.3064941005484
 30
0.0
  0
HATCH
  5
124
330
11D
100
AcDbEntity
  8
レイヤー 1
 62
   250
420
  2299925
440
 33554687
100
AcDbHatch
 10
0.0
 20
0.0
 30
0.0
210
0.0
220
0.0
230
1.0
  2
SOLID
 70
     1
 71
     1
 91
        1
 92
        1
 93
        1
 72
     4
 94
        3
 73
     0
 74
     0
 95
       17
 96
       13
 40
0.0
 40
0.0
 40
0.0
 40
0.0
 40
1.0
 40
1.0
 40
1.0
 40
2.0
 40
2.0
 40
2.0
 40
3.0
 40
3.0
 40
3.0
 40
4.0
 40
4.0
 40
4.0
 40
4.0
 10
104.1126803667669
 20
-160.3064941005484
 10
104.1126803667669
 20
-160.3064941005484
 10
104.1126803667669
 20
-160.0546576205766
 10
104.1126803667669
 20
-160.0546576205766
 10
104.1126803667669
 20
-160.0546576205766
 10
104.3645168467387
 20
-160.0546576205766
 10
104.3645168467387
 20
-160.0546576205766
 10
104.3645168467387
 20
-160.0546576205766
 10
104.3645168467387
 20
-160.3064941005484
 10
104.3645168467387
 20
-160.3064941005484
 10
104.3645168467387
 20
-160.3064941005484
 10
104.1126803667669
 20
-160.3064941005484
 10
104.1126803667669
 20
-160.3064941005484
 97
        0
 97
        1
330
123
 75
     2
 76
     1
 98
        1
 10
0.0
 20
0.0
450
        0
451
        0
460
0.0
461
0.0
452
        0
462
0.0
453
        0
470

  0
SPLINE
  5
125
330
11D
100
AcDbEntity
  8
レイヤー 1
100
AcDbSpline
210
0.0
220
0.0
230
1.0
 70
     9
 71
     3
 72
    53
 73
    49
 74
     0
 42
0.0000000001
 43
0.0000000001
 40
0.0
 40
0.0
 40
0.0
 40
0.0
 40
1.0
 40
1.0
 40
1.0
 40
2.0
 40
2.0
 40
2.0
 40
3.0
 40
3.0
 40
3.0
 40
4.0
 40
4.0
 40
4.0
 40
5.0
 40
5.0
 40
5.0
 40
6.0
 40
6.0
 40
6.0
 40
7.0
 40
7.0
 40
7.0
 40
8.0
 40
8.0
 40
8.0
 40
9.0
 40
9.0
 40
9.0
 40
10.0
 40
10.0
 40
10.0
 40
11.0
 40
11.0
 40
11.0
 40
12.0
 40
12.0
 40
12.0
 40
13.0
 40
13.0
 40
13.0
 40
14.0
 40
14.0
 40
14.0
 40
15.0
 40
15.0
 40
15.0
 40
16.0
 40
16.0
 40
16.0
 40
16.0
 10
105.0817857267677
 20
-160.3571370041815
 30
0.0
 10
105.0035820592525
 20
-160.3571370041815
 30
0.0
 10
104.9019517424377
 20
-160.3402560363038
 30
0.0
 10
104.8003214256228
 20
-160.2768662793752
 30
0.0
 10
104.6270331227147
 20
-160.1669677333958
 30
0.0
 10
104.6056735307062
 20
-160.0357095954077
 30
0.0
 10
104.5867255055373
 20
-159.9278781067194
 30
0.0
 10
104.5867255055373
 20
-159.9278781067194
 30
0.0
 10
104.8089341643359
 20
-159.9278781067194
 30
0.0
 10
104.8089341643359
 20
-159.9278781067194
 30
0.0
 10
104.8637111825514
 20
-160.1266601162183
 30
0.0
 10
104.9908352059571
 20
-160.1562879373915
 30
0.0
 10
105.0838527840589
 20
-160.1562879373915
 30
0.0
 10
105.2233791512115
 20
-160.1562879373915
 30
0.0
 10
105.3756523716596
 20
-160.0567246778678
 30
0.0
 10
105.3756523716596
 20
-159.8241807326134
 30
0.0
 10
105.3756523716596
 20
-159.5682101380593
 30
0.0
 10
105.1958183873295
 20
-159.4982746997087
 30
0.0
 10
105.0752400453458
 20
-159.4982746997087
 30
0.0
 10
105.0435451668815
 20
-159.4982746997087
 30
0.0
 10
104.9019517424377
 20
-159.4982746997087
 30
0.0
 10
104.8130682789182
 20
-159.6274657804056
 30
0.0
 10
104.8130682789182
 20
-159.6274657804056
 30
0.0
 10
104.6373684091705
 20
-159.6085177552367
 30
0.0
 10
104.6373684091705
 20
-159.6085177552367
 30
0.0
 10
104.6373684091705
 20
-159.6085177552367
 30
0.0
 10
104.7579467511542
 20
-158.7620577945109
 30
0.0
 10
104.7579467511542
 20
-158.7620577945109
 30
0.0
 10
104.7579467511542
 20
-158.7620577945109
 30
0.0
 10
105.5363660760464
 20
-158.7620577945109
 30
0.0
 10
105.5363660760464
 20
-158.7620577945109
 30
0.0
 10
105.5363660760464
 20
-158.7620577945109
 30
0.0
 10
105.5363660760464
 20
-158.9567056894275
 30
0.0
 10
105.5363660760464
 20
-158.9567056894275
 30
0.0
 10
105.5363660760464
 20
-158.9567056894275
 30
0.0
 10
104.9208997676066
 20
-158.9567056894275
 30
0.0
 10
104.9208997676066
 20
-158.9567056894275
 30
0.0
 10
104.9208997676066
 20
-158.9567056894275
 30
0.0
 10
104.8554429533868
 20
-159.3797634150162
 30
0.0
 10
104.8554429533868
 20
-159.3797634150162
 30
0.0
 10
104.9167656530243
 20
-159.3460014792607
 30
0.0
 10
104.9991034351217
 20
-159.3056938620833
 30
0.0
 10
105.1176147198143
 20
-159.3056938620833
 30
0.0
 10
105.3715182570772
 20
-159.3056938620833
 30
0.0
 10
105.6083685716882
 20
-159.4920735278353
 30
0.0
 10
105.6083685716882
 20
-159.8052327074445
 30
0.0
 10
105.6083685716882
 20
-160.122526001636
 30
0.0
 10
105.3842651103727
 20
-160.3571370041815
 30
0.0
 10
105.0817857267677
 20
-160.3571370041815
 30
0.0
  0
HATCH
  5
126
330
11D
100
AcDbEntity
  8
レイヤー 1
 62
   250
420
  2299925
440
 33554687
100
AcDbHatch
 10
0.0
 20
0.0
 30
0.0
210
0.0
220
0.0
230
1.0
  2
SOLID
 70
     1
 71
     1
 91
        1
 92
        1
 93
        1
 72
     4
 94
        3
 73
     0
 74
     0
 95
       53
 96
       49
 40
0.0
 40
0.0
 40
0.0
 40
0.0
 40
1.0
 40
1.0
 40
1.0
 40
2.0
 40
2.0
 40
2.0
 40
3.0
 40
3.0
 40
3.0
 40
4.0
 40
4.0
 40
4.0
 40
5.0
 40
5.0
 40
5.0
 40
6.0
 40
6.0
 40
6.0
 40
7.0
 40
7.0
 40
7.0
 40
8.0
 40
8.0
 40
8.0
 40
9.0
 40
9.0
 40
9.0
 40
10.0
 40
10.0
 40
10.0
 40
11.0
 40
11.0
 40
11.0
 40
12.0
 40
12.0
 40
12.0
 40
13.0
 40
13.0
 40
13.0
 40
14.0
 40
14.0
 40
14.0
 40
15.0
 40
15.0
 40
15.0
 40
16.0
 40
16.0
 40
16.0
 40
16.0
 10
105.0817857267677
 20
-160.3571370041815
 10
105.0035820592525
 20
-160.3571370041815
 10
104.9019517424377
 20
-160.3402560363038
 10
104.8003214256228
 20
-160.2768662793752
 10
104.6270331227147
 20
-160.1669677333958
 10
104.6056735307062
 20
-160.0357095954077
 10
104.5867255055373
 20
-159.9278781067194
 10
104.5867255055373
 20
-159.9278781067194
 10
104.8089341643359
 20
-159.9278781067194
 10
104.8089341643359
 20
-159.9278781067194
 10
104.8637111825514
 20
-160.1266601162183
 10
104.9908352059571
 20
-160.1562879373915
 10
105.0838527840589
 20
-160.1562879373915
 10
105.2233791512115
 20
-160.1562879373915
 10
105.3756523716596
 20
-160.0567246778678
 10
105.3756523716596
 20
-159.8241807326134
 10
105.3756523716596
 20
-159.5682101380593
 10
105.1958183873295
 20
-159.4982746997087
 10
105.0752400453458
 20
-159.4982746997087
 10
105.0435451668815
 20
-159.4982746997087
 10
104.9019517424377
 20
-159.4982746997087
 10
104.8130682789182
 20
-159.6274657804056
 10
104.8130682789182
 20
-159.6274657804056
 10
104.6373684091705
 20
-159.6085177552367
 10
104.6373684091705
 20
-159.6085177552367
 10
104.6373684091705
 20
-159.6085177552367
 10
104.7579467511542
 20
-158.7620577945109
 10
104.7579467511542
 20
-158.7620577945109
 10
104.7579467511542
 20
-158.7620577945109
 10
105.5363660760464
 20
-158.7620577945109
 10
105.5363660760464
 20
-158.7620577945109
 10
105.5363660760464
 20
-158.7620577945109
 10
105.5363660760464
 20
-158.9567056894275
 10
105.5363660760464
 20
-158.9567056894275
 10
105.5363660760464
 20
-158.9567056894275
 10
104.9208997676066
 20
-158.9567056894275
 10
104.9208997676066
 20
-158.9567056894275
 10
104.9208997676066
 20
-158.9567056894275
 10
104.8554429533868
 20
-159.3797634150162
 10
104.8554429533868
 20
-159.3797634150162
 10
104.9167656530243
 20
-159.3460014792607
 10
104.9991034351217
 20
-159.3056938620833
 10
105.1176147198143
 20
-159.3056938620833
 10
105.3715182570772
 20
-159.3056938620833
 10
105.6083685716882
 20
-159.4920735278353
 10
105.6083685716882
 20
-159.8052327074445
 10
105.6083685716882
 20
-160.122526001636
 10
105.3842651103727
 20
-160.3571370041815
 10
105.0817857267677
 20
-160.3571370041815
 97
        0
 97
        1
330
125
 75
     2
 76
     1
 98
        1
 10
0.0
 20
0.0
450
        0
451
        0
460
0.0
461
0.0
452
        0
462
0.0
453
        0
470

  0
ENDBLK
  5
120
330
11D
100
AcDbEntity
  8
0
100
AcDbBlockEnd
  0
BLOCK
  5
12A
330
128
100
AcDbEntity
  8
0
100
AcDbBlockBegin
  2
Block_11
 70
     0
 10
0.0
 20
0.0
 30
0.0
  3
Block_11
  1

  0
SPLINE
  5
12C
330
128
100
AcDbEntity
  8
レイヤー 1
100
AcDbSpline
210
0.0
220
0.0
230
1.0
 70
    11
 71
     3
 72
    26
 73
    22
 74
     0
 42
0.0000000001
 43
0.0000000001
 40
0.0
 40
0.0
 40
0.0
 40
0.0
 40
1.0
 40
1.0
 40
1.0
 40
2.0
 40
2.0
 40
2.0
 40
3.0
 40
3.0
 40
3.0
 40
4.0
 40
4.0
 40
4.0
 40
5.0
 40
5.0
 40
5.0
 40
6.0
 40
6.0
 40
6.0
 40
7.0
 40
7.0
 40
7.0
 40
7.0
 10
98.7261013208046
 20
-150.0790391334872
 30
0.0
 10
98.7261013208046
 20
-150.0790391334872
 30
0.0
 10
98.7261013208046
 20
-148.9748860304646
 30
0.0
 10
98.7261013208046
 20
-148.9748860304646
 30
0.0
 10
98.7261013208046
 20
-148.9748860304646
 30
0.0
 10
98.39606117331767
 20
-148.9748860304646
 30
0.0
 10
98.39606117331767
 20
-148.9748860304646
 30
0.0
 10
98.39606117331767
 20
-148.9748860304646
 30
0.0
 10
98.39606117331767
 20
-148.8265746698246
 30
0.0
 10
98.39606117331767
 20
-148.8265746698246
 30
0.0
 10
98.72816837809574
 20
-148.8119330140123
 30
0.0
 10
98.77467716714662
 20
-148.64897999756
 30
0.0
 10
98.80430498831977
 20
-148.5347750822239
 30
0.0
 10
98.80430498831977
 20
-148.5347750822239
 30
0.0
 10
98.95037703689435
 20
-148.5347750822239
 30
0.0
 10
98.95037703689435
 20
-148.5347750822239
 30
0.0
 10
98.95037703689435
 20
-148.5347750822239
 30
0.0
 10
98.95037703689435
 20
-150.0790391334872
 30
0.0
 10
98.95037703689435
 20
-150.0790391334872
 30
0.0
 10
98.95037703689435
 20
-150.0790391334872
 30
0.0
 10
98.7261013208046
 20
-150.0790391334872
 30
0.0
 10
98.7261013208046
 20
-150.0790391334872
 30
0.0
  0
HATCH
  5
12D
330
128
100
AcDbEntity
  8
レイヤー 1
 62
   250
420
  2299925
440
 33554687
100
AcDbHatch
 10
0.0
 20
0.0
 30
0.0
210
0.0
220
0.0
230
1.0
  2
SOLID
 70
     1
 71
     1
 91
        1
 92
        1
 93
        1
 72
     4
 94
        3
 73
     0
 74
     0
 95
       26
 96
       22
 40
0.0
 40
0.0
 40
0.0
 40
0.0
 40
1.0
 40
1.0
 40
1.0
 40
2.0
 40
2.0
 40
2.0
 40
3.0
 40
3.0
 40
3.0
 40
4.0
 40
4.0
 40
4.0
 40
5.0
 40
5.0
 40
5.0
 40
6.0
 40
6.0
 40
6.0
 40
7.0
 40
7.0
 40
7.0
 40
7.0
 10
98.7261013208046
 20
-150.0790391334872
 10
98.7261013208046
 20
-150.0790391334872
 10
98.7261013208046
 20
-148.9748860304646
 10
98.7261013208046
 20
-148.9748860304646
 10
98.7261013208046
 20
-148.9748860304646
 10
98.39606117331767
 20
-148.9748860304646
 10
98.39606117331767
 20
-148.9748860304646
 10
98.39606117331767
 20
-148.9748860304646
 10
98.39606117331767
 20
-148.8265746698246
 10
98.39606117331767
 20
-148.8265746698246
 10
98.72816837809574
 20
-148.8119330140123
 10
98.77467716714662
 20
-148.64897999756
 10
98.80430498831977
 20
-148.5347750822239
 10
98.80430498831977
 20
-148.5347750822239
 10
98.95037703689435
 20
-148.5347750822239
 10
98.95037703689435
 20
-148.5347750822239
 10
98.95037703689435
 20
-148.5347750822239
 10
98.95037703689435
 20
-150.0790391334872
 10
98.95037703689435
 20
-150.0790391334872
 10
98.95037703689435
 20
-150.0790391334872
 10
98.7261013208046
 20
-150.0790391334872
 10
98.7261013208046
 20
-150.0790391334872
 97
        0
 97
        1
330
12C
 75
     2
 76
     1
 98
        1
 10
0.0
 20
0.0
450
        0
451
        0
460
0.0
461
0.0
452
        0
462
0.0
453
        0
470

  0
ENDBLK
  5
12B
330
128
100
AcDbEntity
  8
0
100
AcDbBlockEnd
  0
BLOCK
  5
130
330
12E
100
AcDbEntity
  8
0
100
AcDbBlockBegin
  2
Block_12
 70
     0
 10
0.0
 20
0.0
 30
0.0
  3
Block_12
  1

  0
INSERT
  5
133
330
12E
100
AcDbEntity
  8
レイヤー 1
100
AcDbBlockReference
  2
Block_13
 10
0.0
 20
0.0
 30
0.0
  0
INSERT
  5
13A
330
12E
100
AcDbEntity
  8
レイヤー 1
100
AcDbBlockReference
  2
Block_14
 10
0.0
 20
0.0
 30
0.0
  0
ENDBLK
  5
131
330
12E
100
AcDbEntity
  8
0
100
AcDbBlockEnd
  0
BLOCK
  5
134
330
132
100
AcDbEntity
  8
0
100
AcDbBlockBegin
  2
Block_13
 70
     0
 10
0.0
 20
0.0
 30
0.0
  3
Block_13
  1

  0
LINE
  5
136
330
132
100
AcDbEntity
  8
レイヤー 1
 62
    18
420
        0
370
     9
100
AcDbLine
 10
88.07626242300814
 20
-145.9946068234316
 30
0.0
 11
88.62507879789523
 21
-146.8307254343337
 31
0.0
  0
LINE
  5
137
330
132
100
AcDbEntity
  8
レイヤー 1
 62
    18
420
        0
370
     9
100
AcDbLine
 10
88.07626242300814
 20
-145.9946068234316
 30
0.0
 11
89.35490780015916
 21
-149.8644732113529
 31
0.0
  0
LINE
  5
138
330
132
100
AcDbEntity
  8
レイヤー 1
 62
    18
420
        0
370
     9
100
AcDbLine
 10
88.07626242300814
 20
-145.9946068234316
 30
0.0
 11
88.1336240882114
 21
-146.9929679342931
 31
0.0
  0
ENDBLK
  5
135
330
132
100
AcDbEntity
  8
0
100
AcDbBlockEnd
  0
BLOCK
  5
13B
330
139
100
AcDbEntity
  8
0
100
AcDbBlockBegin
  2
Block_14
 70
     0
 10
0.0
 20
0.0
 30
0.0
  3
Block_14
  1

  0
INSERT
  5
13E
330
139
100
AcDbEntity
  8
レイヤー 1
100
AcDbBlockReference
  2
Block_15
 10
0.0
 20
0.0
 30
0.0
  0
ENDBLK
  5
13C
330
139
100
AcDbEntity
  8
0
100
AcDbBlockEnd
  0
BLOCK
  5
13F
330
13D
100
AcDbEntity
  8
0
100
AcDbBlockBegin
  2
Block_15
 70
     0
 10
0.0
 20
0.0
 30
0.0
  3
Block_15
  1

  0
SPLINE
  5
141
330
13D
100
AcDbEntity
  8
レイヤー 1
100
AcDbSpline
210
0.0
220
0.0
230
1.0
 70
     9
 71
     3
 72
    17
 73
    13
 74
     0
 42
0.0000000001
 43
0.0000000001
 40
0.0
 40
0.0
 40
0.0
 40
0.0
 40
1.0
 40
1.0
 40
1.0
 40
2.0
 40
2.0
 40
2.0
 40
3.0
 40
3.0
 40
3.0
 40
4.0
 40
4.0
 40
4.0
 40
4.0
 10
85.66402178847983
 20
-151.3458007434135
 30
0.0
 10
85.64714082060211
 20
-151.3754285645867
 30
0.0
 10
85.59632566219468
 20
-151.4684461426884
 30
0.0
 10
85.58581812096466
 20
-151.4873941678573
 30
0.0
 10
85.77615964652471
 20
-151.5466498102036
 30
0.0
 10
85.79734698375899
 20
-151.5531954916256
 30
0.0
 10
85.86934947940072
 20
-151.5804117459591
 30
0.0
 10
85.92429875239046
 20
-151.4939398492793
 30
0.0
 10
85.94755314691589
 20
-151.4198702963464
 30
0.0
 10
85.96236705750246
 20
-151.3458007434135
 30
0.0
 10
85.96236705750246
 20
-151.3458007434135
 30
0.0
 10
85.66402178847983
 20
-151.3458007434135
 30
0.0
 10
85.66402178847983
 20
-151.3458007434135
 30
0.0
  0
SPLINE
  5
142
330
13D
100
AcDbEntity
  8
レイヤー 1
100
AcDbSpline
210
0.0
220
0.0
230
1.0
 70
    11
 71
     3
 72
    20
 73
    16
 74
     0
 42
0.0000000001
 43
0.0000000001
 40
0.0
 40
0.0
 40
0.0
 40
0.0
 40
1.0
 40
1.0
 40
1.0
 40
2.0
 40
2.0
 40
2.0
 40
3.0
 40
3.0
 40
3.0
 40
4.0
 40
4.0
 40
4.0
 40
5.0
 40
5.0
 40
5.0
 40
5.0
 10
85.60063203155122
 20
-150.4952066681053
 30
0.0
 10
85.60063203155122
 20
-150.4952066681053
 30
0.0
 10
85.56893715308694
 20
-150.4952066681053
 30
0.0
 10
85.56893715308694
 20
-150.4952066681053
 30
0.0
 10
85.61544594213781
 20
-150.5947699276291
 30
0.0
 10
85.64714082060211
 20
-150.6750406524354
 30
0.0
 10
85.68107501113182
 20
-150.8021646758411
 30
0.0
 10
85.68107501113182
 20
-150.8021646758411
 30
0.0
 10
85.88829750456959
 20
-150.8021646758411
 30
0.0
 10
85.88829750456959
 20
-150.8021646758411
 30
0.0
 10
85.9199923830339
 20
-150.7091470977394
 30
0.0
 10
85.94324677755933
 20
-150.6243977488022
 30
0.0
 10
85.96650117208476
 20
-150.4952066681053
 30
0.0
 10
85.96650117208476
 20
-150.4952066681053
 30
0.0
 10
85.60063203155122
 20
-150.4952066681053
 30
0.0
 10
85.60063203155122
 20
-150.4952066681053
 30
0.0
  0
SPLINE
  5
143
330
13D
100
AcDbEntity
  8
レイヤー 1
100
AcDbSpline
210
0.0
220
0.0
230
1.0
 70
     9
 71
     3
 72
   242
 73
   238
 74
     0
 42
0.0000000001
 43
0.0000000001
 40
0.0
 40
0.0
 40
0.0
 40
0.0
 40
1.0
 40
1.0
 40
1.0
 40
2.0
 40
2.0
 40
2.0
 40
3.0
 40
3.0
 40
3.0
 40
4.0
 40
4.0
 40
4.0
 40
5.0
 40
5.0
 40
5.0
 40
6.0
 40
6.0
 40
6.0
 40
7.0
 40
7.0
 40
7.0
 40
8.0
 40
8.0
 40
8.0
 40
9.0
 40
9.0
 40
9.0
 40
10.0
 40
10.0
 40
10.0
 40
11.0
 40
11.0
 40
11.0
 40
12.0
 40
12.0
 40
12.0
 40
13.0
 40
13.0
 40
13.0
 40
14.0
 40
14.0
 40
14.0
 40
15.0
 40
15.0
 40
15.0
 40
16.0
 40
16.0
 40
16.0
 40
17.0
 40
17.0
 40
17.0
 40
18.0
 40
18.0
 40
18.0
 40
19.0
 40
19.0
 40
19.0
 40
20.0
 40
20.0
 40
20.0
 40
21.0
 40
21.0
 40
21.0
 40
22.0
 40
22.0
 40
22.0
 40
23.0
 40
23.0
 40
23.0
 40
24.0
 40
24.0
 40
24.0
 40
25.0
 40
25.0
 40
25.0
 40
26.0
 40
26.0
 40
26.0
 40
27.0
 40
27.0
 40
27.0
 40
28.0
 40
28.0
 40
28.0
 40
29.0
 40
29.0
 40
29.0
 40
30.0
 40
30.0
 40
30.0
 40
31.0
 40
31.0
 40
31.0
 40
32.0
 40
32.0
 40
32.0
 40
33.0
 40
33.0
 40
33.0
 40
34.0
 40
34.0
 40
34.0
 40
35.0
 40
35.0
 40
35.0
 40
36.0
 40
36.0
 40
36.0
 40
37.0
 40
37.0
 40
37.0
 40
38.0
 40
38.0
 40
38.0
 40
39.0
 40
39.0
 40
39.0
 40
40.0
 40
40.0
 40
40.0
 40
41.0
 40
41.0
 40
41.0
 40
42.0
 40
42.0
 40
42.0
 40
43.0
 40
43.0
 40
43.0
 40
44.0
 40
44.0
 40
44.0
 40
45.0
 40
45.0
 40
45.0
 40
46.0
 40
46.0
 40
46.0
 40
47.0
 40
47.0
 40
47.0
 40
48.0
 40
48.0
 40
48.0
 40
49.0
 40
49.0
 40
49.0
 40
50.0
 40
50.0
 40
50.0
 40
51.0
 40
51.0
 40
51.0
 40
52.0
 40
52.0
 40
52.0
 40
53.0
 40
53.0
 40
53.0
 40
54.0
 40
54.0
 40
54.0
 40
55.0
 40
55.0
 40
55.0
 40
56.0
 40
56.0
 40
56.0
 40
57.0
 40
57.0
 40
57.0
 40
58.0
 40
58.0
 40
58.0
 40
59.0
 40
59.0
 40
59.0
 40
60.0
 40
60.0
 40
60.0
 40
61.0
 40
61.0
 40
61.0
 40
62.0
 40
62.0
 40
62.0
 40
63.0
 40
63.0
 40
63.0
 40
64.0
 40
64.0
 40
64.0
 40
65.0
 40
65.0
 40
65.0
 40
66.0
 40
66.0
 40
66.0
 40
67.0
 40
67.0
 40
67.0
 40
68.0
 40
68.0
 40
68.0
 40
69.0
 40
69.0
 40
69.0
 40
70.0
 40
70.0
 40
70.0
 40
71.0
 40
71.0
 40
71.0
 40
72.0
 40
72.0
 40
72.0
 40
73.0
 40
73.0
 40
73.0
 40
74.0
 40
74.0
 40
74.0
 40
75.0
 40
75.0
 40
75.0
 40
76.0
 40
76.0
 40
76.0
 40
77.0
 40
77.0
 40
77.0
 40
78.0
 40
78.0
 40
78.0
 40
79.0
 40
79.0
 40
79.0
 40
79.0
 10
86.22884519328655
 20
-150.9606390681626
 30
0.0
 10
86.22884519328655
 20
-150.9606390681626
 30
0.0
 10
85.97511391079789
 20
-150.9606390681626
 30
0.0
 10
85.97511391079789
 20
-150.9606390681626
 30
0.0
 10
85.97511391079789
 20
-150.9606390681626
 30
0.0
 10
85.69795597900954
 20
-150.9606390681626
 30
0.0
 10
85.69795597900954
 20
-150.9606390681626
 30
0.0
 10
85.69795597900954
 20
-150.9606390681626
 30
0.0
 10
85.82490774764099
 20
-151.0030137426312
 30
0.0
 10
85.82490774764099
 20
-151.0030137426312
 30
0.0
 10
85.83541528887101
 20
-151.0071478572135
 30
0.0
 10
85.84816214216642
 20
-151.0136935386355
 30
0.0
 10
85.84816214216642
 20
-151.0264403919309
 30
0.0
 10
85.84816214216642
 20
-151.0474554743909
 30
0.0
 10
85.81646726370214
 20
-151.0536566462643
 30
0.0
 10
85.79527992646786
 20
-151.0581352703951
 30
0.0
 10
85.78460013046358
 20
-151.0812174101463
 30
0.0
 10
85.75497230929043
 20
-151.1470187339146
 30
0.0
 10
85.73602428412156
 20
-151.1914604656744
 30
0.0
 10
85.73602428412156
 20
-151.1914604656744
 30
0.0
 10
86.00680878926219
 20
-151.1914604656744
 30
0.0
 10
86.00680878926219
 20
-151.1914604656744
 30
0.0
 10
86.09775931007279
 20
-151.1914604656744
 30
0.0
 10
86.29447426228054
 20
-151.1869818415435
 30
0.0
 10
86.43623994149859
 20
-151.1787136123789
 30
0.0
 10
86.43623994149859
 20
-151.1787136123789
 30
0.0
 10
86.43623994149859
 20
-151.3564805394178
 30
0.0
 10
86.43623994149859
 20
-151.3564805394178
 30
0.0
 10
86.35372990462684
 20
-151.352001915287
 30
0.0
 10
86.33254256739256
 20
-151.352001915287
 30
0.0
 10
86.15270858306251
 20
-151.3478678007047
 30
0.0
 10
86.12101370459823
 20
-151.5022080784438
 30
0.0
 10
86.07657197283849
 20
-151.5828233127987
 30
0.0
 10
86.03213024107878
 20
-151.6524142416008
 30
0.0
 10
86.15270858306251
 20
-151.7116698839471
 30
0.0
 10
86.2584730144597
 20
-151.7795382650065
 30
0.0
 10
86.36217038856571
 20
-151.8618760471039
 30
0.0
 10
86.36217038856571
 20
-151.8618760471039
 30
0.0
 10
86.24365910387311
 20
-152.0289631781386
 30
0.0
 10
86.24365910387311
 20
-152.0289631781386
 30
0.0
 10
86.22040470934768
 20
-152.0100151529697
 30
0.0
 10
86.20783011082652
 20
-152.0014024142566
 30
0.0
 10
86.09569225278162
 20
-151.916997574868
 30
0.0
 10
86.04694415166536
 20
-151.8787570149817
 30
0.0
 10
85.98768850931906
 20
-151.8429280219351
 30
0.0
 10
85.90741778451272
 20
-151.7984862901754
 30
0.0
 10
85.69571666694413
 20
-151.9845214463788
 30
0.0
 10
85.49056123079749
 20
-152.0079480956786
 30
0.0
 10
85.20082870048799
 20
-152.0375759168517
 30
0.0
 10
85.20082870048799
 20
-152.0375759168517
 30
0.0
 10
85.09713132638196
 20
-151.8577419325217
 30
0.0
 10
85.09713132638196
 20
-151.8577419325217
 30
0.0
 10
85.41442462057348
 20
-151.8536078179393
 30
0.0
 10
85.58995223554695
 20
-151.8281141113485
 30
0.0
 10
85.74239771076927
 20
-151.718215565369
 30
0.0
 10
85.62388642607666
 20
-151.6672281521873
 30
0.0
 10
85.53500296255723
 20
-151.6396673883053
 30
0.0
 10
85.49900171473636
 20
-151.6272650445585
 30
0.0
 10
85.48005368956749
 20
-151.6544812988919
 30
0.0
 10
85.46523977898091
 20
-151.6737738336093
 30
0.0
 10
85.43767901509893
 20
-151.7075357693648
 30
0.0
 10
85.43767901509893
 20
-151.7075357693648
 30
0.0
 10
85.24096406289116
 20
-151.6248534777188
 30
0.0
 10
85.24096406289116
 20
-151.6248534777188
 30
0.0
 10
85.32347409976289
 20
-151.5445827529124
 30
0.0
 10
85.38479679940033
 20
-151.4494981175196
 30
0.0
 10
85.44198538445547
 20
-151.3478678007047
 30
0.0
 10
85.25147160412116
 20
-151.352001915287
 30
0.0
 10
85.23045652166114
 20
-151.352001915287
 30
0.0
 10
85.1479464847894
 20
-151.3564805394178
 30
0.0
 10
85.1479464847894
 20
-151.3564805394178
 30
0.0
 10
85.1479464847894
 20
-151.1787136123789
 30
0.0
 10
85.1479464847894
 20
-151.1787136123789
 30
0.0
 10
85.28747285194203
 20
-151.1849147842523
 30
0.0
 10
85.49693465744521
 20
-151.1890488988347
 30
0.0
 10
85.5222561092618
 20
-151.1890488988347
 30
0.0
 10
85.53930933191379
 20
-151.1552869630792
 30
0.0
 10
85.59425860490351
 20
-151.0347086210955
 30
0.0
 10
85.61337888484665
 20
-150.9606390681626
 30
0.0
 10
85.59425860490351
 20
-150.9606390681626
 30
0.0
 10
85.41649167786463
 20
-150.9671847495846
 30
0.0
 10
85.22201603772229
 20
-150.97993160288
 30
0.0
 10
85.22201603772229
 20
-150.97993160288
 30
0.0
 10
85.22201603772229
 20
-151.1129122886106
 30
0.0
 10
85.22201603772229
 20
-151.1129122886106
 30
0.0
 10
85.17326793660599
 20
-151.1384059952015
 30
0.0
 10
85.11401229425969
 20
-151.1701008736658
 30
0.0
 10
84.98068709898053
 20
-151.2359021974341
 30
0.0
 10
84.98068709898053
 20
-151.2359021974341
 30
0.0
 10
84.98068709898053
 20
-151.3816297364601
 30
0.0
 10
84.98068709898053
 20
-151.3816297364601
 30
0.0
 10
84.98068709898053
 20
-151.3816297364601
 30
0.0
 10
84.98068709898053
 20
-151.8491291938085
 30
0.0
 10
84.98068709898053
 20
-151.8491291938085
 30
0.0
 10
84.98068709898053
 20
-151.9762532172142
 30
0.0
 10
84.94485810593394
 20
-152.0355088595605
 30
0.0
 10
84.66132674749786
 20
-152.0268961208474
 30
0.0
 10
84.66132674749786
 20
-152.0268961208474
 30
0.0
 10
84.55762937339185
 20
-151.8195013726354
 30
0.0
 10
84.55762937339185
 20
-151.8195013726354
 30
0.0
 10
84.6211913850947
 20
-151.8322482259308
 30
0.0
 10
84.66976723143671
 20
-151.8363823405131
 30
0.0
 10
84.70990259383988
 20
-151.8363823405131
 30
0.0
 10
84.78621145883817
 20
-151.8363823405131
 30
0.0
 10
84.79671900006819
 20
-151.813300200762
 30
0.0
 10
84.79671900006819
 20
-151.7478433865422
 30
0.0
 10
84.79671900006819
 20
-151.7478433865422
 30
0.0
 10
84.79671900006819
 20
-151.3182399795315
 30
0.0
 10
84.79671900006819
 20
-151.3182399795315
 30
0.0
 10
84.69939505260986
 20
-151.3585475967089
 30
0.0
 10
84.68251408473214
 20
-151.3647487685824
 30
0.0
 10
84.63600529568129
 20
-151.3836967937513
 30
0.0
 10
84.63169892632471
 20
-151.4050563857598
 30
0.0
 10
84.62739255696815
 20
-151.434684206933
 30
0.0
 10
84.60844453179928
 20
-151.434684206933
 30
0.0
 10
84.60000404786041
 20
-151.434684206933
 30
0.0
 10
84.58932425185613
 20
-151.4305500923507
 30
0.0
 10
84.58312307998269
 20
-151.407123443051
 30
0.0
 10
84.58312307998269
 20
-151.407123443051
 30
0.0
 10
84.53024086428412
 20
-151.2145426054255
 30
0.0
 10
84.53024086428412
 20
-151.2145426054255
 30
0.0
 10
84.67614065808444
 20
-151.1680338163746
 30
0.0
 10
84.74176972707844
 20
-151.1449516766235
 30
0.0
 10
84.79671900006819
 20
-151.1235920846149
 30
0.0
 10
84.79671900006819
 20
-151.1235920846149
 30
0.0
 10
84.79671900006819
 20
-150.7112141550305
 30
0.0
 10
84.79671900006819
 20
-150.7112141550305
 30
0.0
 10
84.79671900006819
 20
-150.7112141550305
 30
0.0
 10
84.74383678436961
 20
-150.7112141550305
 30
0.0
 10
84.74383678436961
 20
-150.7112141550305
 30
0.0
 10
84.74383678436961
 20
-150.7112141550305
 30
0.0
 10
84.66563311685442
 20
-150.7112141550305
 30
0.0
 10
84.66563311685442
 20
-150.7112141550305
 30
0.0
 10
84.59793699056927
 20
-150.7112141550305
 30
0.0
 10
84.58932425185613
 20
-150.7112141550305
 30
0.0
 10
84.55349525880954
 20
-150.717415326904
 30
0.0
 10
84.55349525880954
 20
-150.717415326904
 30
0.0
 10
84.55349525880954
 20
-150.5227674319874
 30
0.0
 10
84.55349525880954
 20
-150.5227674319874
 30
0.0
 10
84.58088376791728
 20
-150.5293131134093
 30
0.0
 10
84.58932425185613
 20
-150.5293131134093
 30
0.0
 10
84.65925969020672
 20
-150.5293131134093
 30
0.0
 10
84.65925969020672
 20
-150.5293131134093
 30
0.0
 10
84.79241263071163
 20
-150.5293131134093
 30
0.0
 10
84.79241263071163
 20
-150.5293131134093
 30
0.0
 10
84.79241263071163
 20
-150.4593776750587
 30
0.0
 10
84.79241263071163
 20
-150.3766953834127
 30
0.0
 10
84.79034557342046
 20
-150.3725612688304
 30
0.0
 10
84.78190508948161
 20
-150.1927272845004
 30
0.0
 10
84.78190508948161
 20
-150.1737792593315
 30
0.0
 10
84.77983803219045
 20
-150.1272704702806
 30
0.0
 10
84.77983803219045
 20
-150.1272704702806
 30
0.0
 10
84.9955010095671
 20
-150.1355386994452
 30
0.0
 10
84.9955010095671
 20
-150.1355386994452
 30
0.0
 10
85.00618080557137
 20
-150.1355386994452
 30
0.0
 10
85.02736814280565
 20
-150.137950266285
 30
0.0
 10
85.02736814280565
 20
-150.1548312341627
 30
0.0
 10
85.02736814280565
 20
-150.1737792593315
 30
0.0
 10
85.01255423221909
 20
-150.1844590553358
 30
0.0
 10
84.98706052562823
 20
-150.2034070805047
 30
0.0
 10
84.98706052562823
 20
-150.2540499841378
 30
0.0
 10
84.98068709898053
 20
-150.4824598148099
 30
0.0
 10
84.98292641104594
 20
-150.5293131134093
 30
0.0
 10
85.11194523696856
 20
-150.5293131134093
 30
0.0
 10
85.12469209026397
 20
-150.5293131134093
 30
0.0
 10
85.22201603772229
 20
-150.5207003746962
 30
0.0
 10
85.22201603772229
 20
-150.5207003746962
 30
0.0
 10
85.22201603772229
 20
-150.7153482696128
 30
0.0
 10
85.22201603772229
 20
-150.7153482696128
 30
0.0
 10
85.183775477836
 20
-150.7132812123217
 30
0.0
 10
85.11607935155085
 20
-150.7091470977394
 30
0.0
 10
84.98068709898053
 20
-150.7112141550305
 30
0.0
 10
84.98068709898053
 20
-150.7112141550305
 30
0.0
 10
84.98068709898053
 20
-151.049522531682
 30
0.0
 10
84.98068709898053
 20
-151.049522531682
 30
0.0
 10
85.03580862674452
 20
-151.0264403919309
 30
0.0
 10
85.10126544096427
 20
-150.9988796280489
 30
0.0
 10
85.15001354208056
 20
-150.9754529787492
 30
0.0
 10
85.15001354208056
 20
-150.9754529787492
 30
0.0
 10
85.15001354208056
 20
-150.7976860517103
 30
0.0
 10
85.15001354208056
 20
-150.7976860517103
 30
0.0
 10
85.26421845741658
 20
-150.8104329050057
 30
0.0
 10
85.38272974210917
 20
-150.8104329050057
 30
0.0
 10
85.49900171473636
 20
-150.8104329050057
 30
0.0
 10
85.47574732021093
 20
-150.7153482696128
 30
0.0
 10
85.44835881110319
 20
-150.6326659779668
 30
0.0
 10
85.38479679940033
 20
-150.4996852922362
 30
0.0
 10
85.34035506764061
 20
-150.5017523495273
 30
0.0
 10
85.25784503076888
 20
-150.5058864641096
 30
0.0
 10
85.21977672565688
 20
-150.5079535214008
 30
0.0
 10
85.21977672565688
 20
-150.5079535214008
 30
0.0
 10
85.21977672565688
 20
-150.3281195370707
 30
0.0
 10
85.21977672565688
 20
-150.3281195370707
 30
0.0
 10
85.34466143699717
 20
-150.3367322757839
 30
0.0
 10
85.51812199467951
 20
-150.3408663903662
 30
0.0
 10
85.60063203155122
 20
-150.3408663903662
 30
0.0
 10
85.60063203155122
 20
-150.3408663903662
 30
0.0
 10
85.68314206842297
 20
-150.3408663903662
 30
0.0
 10
85.68314206842297
 20
-150.3408663903662
 30
0.0
 10
85.68314206842297
 20
-150.1779133739138
 30
0.0
 10
85.68314206842297
 20
-150.1675780874581
 30
0.0
 10
85.68107501113182
 20
-150.1124565596941
 30
0.0
 10
85.68107501113182
 20
-150.1124565596941
 30
0.0
 10
85.90517847244731
 20
-150.137950266285
 30
0.0
 10
85.90517847244731
 20
-150.137950266285
 30
0.0
 10
85.90948484180389
 20
-150.137950266285
 30
0.0
 10
85.93067217903817
 20
-150.1400173235761
 30
0.0
 10
85.93067217903817
 20
-150.1568982914538
 30
0.0
 10
85.93067217903817
 20
-150.1717122020404
 30
0.0
 10
85.9199923830339
 20
-150.179980431205
 30
0.0
 10
85.89260387392616
 20
-150.1947943417915
 30
0.0
 10
85.88623044727844
 20
-150.2605956655598
 30
0.0
 10
85.8841633899873
 20
-150.2816107480199
 30
0.0
 10
85.8841633899873
 20
-150.3408663903662
 30
0.0
 10
85.8841633899873
 20
-150.3408663903662
 30
0.0
 10
85.97924802538019
 20
-150.3408663903662
 30
0.0
 10
85.97924802538019
 20
-150.3408663903662
 30
0.0
 10
86.06175806225193
 20
-150.3408663903662
 30
0.0
 10
86.23521861993426
 20
-150.3367322757839
 30
0.0
 10
86.36010333127456
 20
-150.3281195370707
 30
0.0
 10
86.36010333127456
 20
-150.3281195370707
 30
0.0
 10
86.36010333127456
 20
-150.5079535214008
 30
0.0
 10
86.36010333127456
 20
-150.5079535214008
 30
0.0
 10
86.33047551010141
 20
-150.5058864641096
 30
0.0
 10
86.21196422540881
 20
-150.5017523495273
 30
0.0
 10
86.17182886300566
 20
-150.4996852922362
 30
0.0
 10
86.15701495241909
 20
-150.5503281958693
 30
0.0
 10
86.12308076188936
 20
-150.66229379914
 30
0.0
 10
86.05762394766962
 20
-150.8021646758411
 30
0.0
 10
86.09982636736393
 20
-150.8021646758411
 30
0.0
 10
86.37698429915229
 20
-150.7828721411237
 30
0.0
 10
86.43830699878973
 20
-150.7808050838326
 30
0.0
 10
86.43830699878973
 20
-150.7808050838326
 30
0.0
 10
86.43830699878973
 20
-150.9651176922934
 30
0.0
 10
86.43830699878973
 20
-150.9651176922934
 30
0.0
 10
86.40867917761658
 20
-150.9651176922934
 30
0.0
 10
86.39179820973886
 20
-150.9606390681626
 30
0.0
 10
86.22884519328655
 20
-150.9606390681626
 30
0.0
  0
HATCH
  5
144
330
13D
100
AcDbEntity
  8
レイヤー 1
 62
    18
420
        0
440
 33554687
100
AcDbHatch
 10
0.0
 20
0.0
 30
0.0
210
0.0
220
0.0
230
1.0
  2
SOLID
 70
     1
 71
     1
 91
        3
 92
        1
 93
        1
 72
     4
 94
        3
 73
     0
 74
     0
 95
       17
 96
       13
 40
0.0
 40
0.0
 40
0.0
 40
0.0
 40
1.0
 40
1.0
 40
1.0
 40
2.0
 40
2.0
 40
2.0
 40
3.0
 40
3.0
 40
3.0
 40
4.0
 40
4.0
 40
4.0
 40
4.0
 10
85.66402178847983
 20
-151.3458007434135
 10
85.64714082060211
 20
-151.3754285645867
 10
85.59632566219468
 20
-151.4684461426884
 10
85.58581812096466
 20
-151.4873941678573
 10
85.77615964652471
 20
-151.5466498102036
 10
85.79734698375899
 20
-151.5531954916256
 10
85.86934947940072
 20
-151.5804117459591
 10
85.92429875239046
 20
-151.4939398492793
 10
85.94755314691589
 20
-151.4198702963464
 10
85.96236705750246
 20
-151.3458007434135
 10
85.96236705750246
 20
-151.3458007434135
 10
85.66402178847983
 20
-151.3458007434135
 10
85.66402178847983
 20
-151.3458007434135
 97
        0
 97
        1
330
141
 92
        1
 93
        1
 72
     4
 94
        3
 73
     0
 74
     0
 95
       20
 96
       16
 40
0.0
 40
0.0
 40
0.0
 40
0.0
 40
1.0
 40
1.0
 40
1.0
 40
2.0
 40
2.0
 40
2.0
 40
3.0
 40
3.0
 40
3.0
 40
4.0
 40
4.0
 40
4.0
 40
5.0
 40
5.0
 40
5.0
 40
5.0
 10
85.60063203155122
 20
-150.4952066681053
 10
85.60063203155122
 20
-150.4952066681053
 10
85.56893715308694
 20
-150.4952066681053
 10
85.56893715308694
 20
-150.4952066681053
 10
85.61544594213781
 20
-150.5947699276291
 10
85.64714082060211
 20
-150.6750406524354
 10
85.68107501113182
 20
-150.8021646758411
 10
85.68107501113182
 20
-150.8021646758411
 10
85.88829750456959
 20
-150.8021646758411
 10
85.88829750456959
 20
-150.8021646758411
 10
85.9199923830339
 20
-150.7091470977394
 10
85.94324677755933
 20
-150.6243977488022
 10
85.96650117208476
 20
-150.4952066681053
 10
85.96650117208476
 20
-150.4952066681053
 10
85.60063203155122
 20
-150.4952066681053
 10
85.60063203155122
 20
-150.4952066681053
 97
        0
 97
        1
330
142
 92
        1
 93
        1
 72
     4
 94
        3
 73
     0
 74
     0
 95
      242
 96
      238
 40
0.0
 40
0.0
 40
0.0
 40
0.0
 40
1.0
 40
1.0
 40
1.0
 40
2.0
 40
2.0
 40
2.0
 40
3.0
 40
3.0
 40
3.0
 40
4.0
 40
4.0
 40
4.0
 40
5.0
 40
5.0
 40
5.0
 40
6.0
 40
6.0
 40
6.0
 40
7.0
 40
7.0
 40
7.0
 40
8.0
 40
8.0
 40
8.0
 40
9.0
 40
9.0
 40
9.0
 40
10.0
 40
10.0
 40
10.0
 40
11.0
 40
11.0
 40
11.0
 40
12.0
 40
12.0
 40
12.0
 40
13.0
 40
13.0
 40
13.0
 40
14.0
 40
14.0
 40
14.0
 40
15.0
 40
15.0
 40
15.0
 40
16.0
 40
16.0
 40
16.0
 40
17.0
 40
17.0
 40
17.0
 40
18.0
 40
18.0
 40
18.0
 40
19.0
 40
19.0
 40
19.0
 40
20.0
 40
20.0
 40
20.0
 40
21.0
 40
21.0
 40
21.0
 40
22.0
 40
22.0
 40
22.0
 40
23.0
 40
23.0
 40
23.0
 40
24.0
 40
24.0
 40
24.0
 40
25.0
 40
25.0
 40
25.0
 40
26.0
 40
26.0
 40
26.0
 40
27.0
 40
27.0
 40
27.0
 40
28.0
 40
28.0
 40
28.0
 40
29.0
 40
29.0
 40
29.0
 40
30.0
 40
30.0
 40
30.0
 40
31.0
 40
31.0
 40
31.0
 40
32.0
 40
32.0
 40
32.0
 40
33.0
 40
33.0
 40
33.0
 40
34.0
 40
34.0
 40
34.0
 40
35.0
 40
35.0
 40
35.0
 40
36.0
 40
36.0
 40
36.0
 40
37.0
 40
37.0
 40
37.0
 40
38.0
 40
38.0
 40
38.0
 40
39.0
 40
39.0
 40
39.0
 40
40.0
 40
40.0
 40
40.0
 40
41.0
 40
41.0
 40
41.0
 40
42.0
 40
42.0
 40
42.0
 40
43.0
 40
43.0
 40
43.0
 40
44.0
 40
44.0
 40
44.0
 40
45.0
 40
45.0
 40
45.0
 40
46.0
 40
46.0
 40
46.0
 40
47.0
 40
47.0
 40
47.0
 40
48.0
 40
48.0
 40
48.0
 40
49.0
 40
49.0
 40
49.0
 40
50.0
 40
50.0
 40
50.0
 40
51.0
 40
51.0
 40
51.0
 40
52.0
 40
52.0
 40
52.0
 40
53.0
 40
53.0
 40
53.0
 40
54.0
 40
54.0
 40
54.0
 40
55.0
 40
55.0
 40
55.0
 40
56.0
 40
56.0
 40
56.0
 40
57.0
 40
57.0
 40
57.0
 40
58.0
 40
58.0
 40
58.0
 40
59.0
 40
59.0
 40
59.0
 40
60.0
 40
60.0
 40
60.0
 40
61.0
 40
61.0
 40
61.0
 40
62.0
 40
62.0
 40
62.0
 40
63.0
 40
63.0
 40
63.0
 40
64.0
 40
64.0
 40
64.0
 40
65.0
 40
65.0
 40
65.0
 40
66.0
 40
66.0
 40
66.0
 40
67.0
 40
67.0
 40
67.0
 40
68.0
 40
68.0
 40
68.0
 40
69.0
 40
69.0
 40
69.0
 40
70.0
 40
70.0
 40
70.0
 40
71.0
 40
71.0
 40
71.0
 40
72.0
 40
72.0
 40
72.0
 40
73.0
 40
73.0
 40
73.0
 40
74.0
 40
74.0
 40
74.0
 40
75.0
 40
75.0
 40
75.0
 40
76.0
 40
76.0
 40
76.0
 40
77.0
 40
77.0
 40
77.0
 40
78.0
 40
78.0
 40
78.0
 40
79.0
 40
79.0
 40
79.0
 40
79.0
 10
86.22884519328655
 20
-150.9606390681626
 10
86.22884519328655
 20
-150.9606390681626
 10
85.97511391079789
 20
-150.9606390681626
 10
85.97511391079789
 20
-150.9606390681626
 10
85.97511391079789
 20
-150.9606390681626
 10
85.69795597900954
 20
-150.9606390681626
 10
85.69795597900954
 20
-150.9606390681626
 10
85.69795597900954
 20
-150.9606390681626
 10
85.82490774764099
 20
-151.0030137426312
 10
85.82490774764099
 20
-151.0030137426312
 10
85.83541528887101
 20
-151.0071478572135
 10
85.84816214216642
 20
-151.0136935386355
 10
85.84816214216642
 20
-151.0264403919309
 10
85.84816214216642
 20
-151.0474554743909
 10
85.81646726370214
 20
-151.0536566462643
 10
85.79527992646786
 20
-151.0581352703951
 10
85.78460013046358
 20
-151.0812174101463
 10
85.75497230929043
 20
-151.1470187339146
 10
85.73602428412156
 20
-151.1914604656744
 10
85.73602428412156
 20
-151.1914604656744
 10
86.00680878926219
 20
-151.1914604656744
 10
86.00680878926219
 20
-151.1914604656744
 10
86.09775931007279
 20
-151.1914604656744
 10
86.29447426228054
 20
-151.1869818415435
 10
86.43623994149859
 20
-151.1787136123789
 10
86.43623994149859
 20
-151.1787136123789
 10
86.43623994149859
 20
-151.3564805394178
 10
86.43623994149859
 20
-151.3564805394178
 10
86.35372990462684
 20
-151.352001915287
 10
86.33254256739256
 20
-151.352001915287
 10
86.15270858306251
 20
-151.3478678007047
 10
86.12101370459823
 20
-151.5022080784438
 10
86.07657197283849
 20
-151.5828233127987
 10
86.03213024107878
 20
-151.6524142416008
 10
86.15270858306251
 20
-151.7116698839471
 10
86.2584730144597
 20
-151.7795382650065
 10
86.36217038856571
 20
-151.8618760471039
 10
86.36217038856571
 20
-151.8618760471039
 10
86.24365910387311
 20
-152.0289631781386
 10
86.24365910387311
 20
-152.0289631781386
 10
86.22040470934768
 20
-152.0100151529697
 10
86.20783011082652
 20
-152.0014024142566
 10
86.09569225278162
 20
-151.916997574868
 10
86.04694415166536
 20
-151.8787570149817
 10
85.98768850931906
 20
-151.8429280219351
 10
85.90741778451272
 20
-151.7984862901754
 10
85.69571666694413
 20
-151.9845214463788
 10
85.49056123079749
 20
-152.0079480956786
 10
85.20082870048799
 20
-152.0375759168517
 10
85.20082870048799
 20
-152.0375759168517
 10
85.09713132638196
 20
-151.8577419325217
 10
85.09713132638196
 20
-151.8577419325217
 10
85.41442462057348
 20
-151.8536078179393
 10
85.58995223554695
 20
-151.8281141113485
 10
85.74239771076927
 20
-151.718215565369
 10
85.62388642607666
 20
-151.6672281521873
 10
85.53500296255723
 20
-151.6396673883053
 10
85.49900171473636
 20
-151.6272650445585
 10
85.48005368956749
 20
-151.6544812988919
 10
85.46523977898091
 20
-151.6737738336093
 10
85.43767901509893
 20
-151.7075357693648
 10
85.43767901509893
 20
-151.7075357693648
 10
85.24096406289116
 20
-151.6248534777188
 10
85.24096406289116
 20
-151.6248534777188
 10
85.32347409976289
 20
-151.5445827529124
 10
85.38479679940033
 20
-151.4494981175196
 10
85.44198538445547
 20
-151.3478678007047
 10
85.25147160412116
 20
-151.352001915287
 10
85.23045652166114
 20
-151.352001915287
 10
85.1479464847894
 20
-151.3564805394178
 10
85.1479464847894
 20
-151.3564805394178
 10
85.1479464847894
 20
-151.1787136123789
 10
85.1479464847894
 20
-151.1787136123789
 10
85.28747285194203
 20
-151.1849147842523
 10
85.49693465744521
 20
-151.1890488988347
 10
85.5222561092618
 20
-151.1890488988347
 10
85.53930933191379
 20
-151.1552869630792
 10
85.59425860490351
 20
-151.0347086210955
 10
85.61337888484665
 20
-150.9606390681626
 10
85.59425860490351
 20
-150.9606390681626
 10
85.41649167786463
 20
-150.9671847495846
 10
85.22201603772229
 20
-150.97993160288
 10
85.22201603772229
 20
-150.97993160288
 10
85.22201603772229
 20
-151.1129122886106
 10
85.22201603772229
 20
-151.1129122886106
 10
85.17326793660599
 20
-151.1384059952015
 10
85.11401229425969
 20
-151.1701008736658
 10
84.98068709898053
 20
-151.2359021974341
 10
84.98068709898053
 20
-151.2359021974341
 10
84.98068709898053
 20
-151.3816297364601
 10
84.98068709898053
 20
-151.3816297364601
 10
84.98068709898053
 20
-151.3816297364601
 10
84.98068709898053
 20
-151.8491291938085
 10
84.98068709898053
 20
-151.8491291938085
 10
84.98068709898053
 20
-151.9762532172142
 10
84.94485810593394
 20
-152.0355088595605
 10
84.66132674749786
 20
-152.0268961208474
 10
84.66132674749786
 20
-152.0268961208474
 10
84.55762937339185
 20
-151.8195013726354
 10
84.55762937339185
 20
-151.8195013726354
 10
84.6211913850947
 20
-151.8322482259308
 10
84.66976723143671
 20
-151.8363823405131
 10
84.70990259383988
 20
-151.8363823405131
 10
84.78621145883817
 20
-151.8363823405131
 10
84.79671900006819
 20
-151.813300200762
 10
84.79671900006819
 20
-151.7478433865422
 10
84.79671900006819
 20
-151.7478433865422
 10
84.79671900006819
 20
-151.3182399795315
 10
84.79671900006819
 20
-151.3182399795315
 10
84.69939505260986
 20
-151.3585475967089
 10
84.68251408473214
 20
-151.3647487685824
 10
84.63600529568129
 20
-151.3836967937513
 10
84.63169892632471
 20
-151.4050563857598
 10
84.62739255696815
 20
-151.434684206933
 10
84.60844453179928
 20
-151.434684206933
 10
84.60000404786041
 20
-151.434684206933
 10
84.58932425185613
 20
-151.4305500923507
 10
84.58312307998269
 20
-151.407123443051
 10
84.58312307998269
 20
-151.407123443051
 10
84.53024086428412
 20
-151.2145426054255
 10
84.53024086428412
 20
-151.2145426054255
 10
84.67614065808444
 20
-151.1680338163746
 10
84.74176972707844
 20
-151.1449516766235
 10
84.79671900006819
 20
-151.1235920846149
 10
84.79671900006819
 20
-151.1235920846149
 10
84.79671900006819
 20
-150.7112141550305
 10
84.79671900006819
 20
-150.7112141550305
 10
84.79671900006819
 20
-150.7112141550305
 10
84.74383678436961
 20
-150.7112141550305
 10
84.74383678436961
 20
-150.7112141550305
 10
84.74383678436961
 20
-150.7112141550305
 10
84.66563311685442
 20
-150.7112141550305
 10
84.66563311685442
 20
-150.7112141550305
 10
84.59793699056927
 20
-150.7112141550305
 10
84.58932425185613
 20
-150.7112141550305
 10
84.55349525880954
 20
-150.717415326904
 10
84.55349525880954
 20
-150.717415326904
 10
84.55349525880954
 20
-150.5227674319874
 10
84.55349525880954
 20
-150.5227674319874
 10
84.58088376791728
 20
-150.5293131134093
 10
84.58932425185613
 20
-150.5293131134093
 10
84.65925969020672
 20
-150.5293131134093
 10
84.65925969020672
 20
-150.5293131134093
 10
84.79241263071163
 20
-150.5293131134093
 10
84.79241263071163
 20
-150.5293131134093
 10
84.79241263071163
 20
-150.4593776750587
 10
84.79241263071163
 20
-150.3766953834127
 10
84.79034557342046
 20
-150.3725612688304
 10
84.78190508948161
 20
-150.1927272845004
 10
84.78190508948161
 20
-150.1737792593315
 10
84.77983803219045
 20
-150.1272704702806
 10
84.77983803219045
 20
-150.1272704702806
 10
84.9955010095671
 20
-150.1355386994452
 10
84.9955010095671
 20
-150.1355386994452
 10
85.00618080557137
 20
-150.1355386994452
 10
85.02736814280565
 20
-150.137950266285
 10
85.02736814280565
 20
-150.1548312341627
 10
85.02736814280565
 20
-150.1737792593315
 10
85.01255423221909
 20
-150.1844590553358
 10
84.98706052562823
 20
-150.2034070805047
 10
84.98706052562823
 20
-150.2540499841378
 10
84.98068709898053
 20
-150.4824598148099
 10
84.98292641104594
 20
-150.5293131134093
 10
85.11194523696856
 20
-150.5293131134093
 10
85.12469209026397
 20
-150.5293131134093
 10
85.22201603772229
 20
-150.5207003746962
 10
85.22201603772229
 20
-150.5207003746962
 10
85.22201603772229
 20
-150.7153482696128
 10
85.22201603772229
 20
-150.7153482696128
 10
85.183775477836
 20
-150.7132812123217
 10
85.11607935155085
 20
-150.7091470977394
 10
84.98068709898053
 20
-150.7112141550305
 10
84.98068709898053
 20
-150.7112141550305
 10
84.98068709898053
 20
-151.049522531682
 10
84.98068709898053
 20
-151.049522531682
 10
85.03580862674452
 20
-151.0264403919309
 10
85.10126544096427
 20
-150.9988796280489
 10
85.15001354208056
 20
-150.9754529787492
 10
85.15001354208056
 20
-150.9754529787492
 10
85.15001354208056
 20
-150.7976860517103
 10
85.15001354208056
 20
-150.7976860517103
 10
85.26421845741658
 20
-150.8104329050057
 10
85.38272974210917
 20
-150.8104329050057
 10
85.49900171473636
 20
-150.8104329050057
 10
85.47574732021093
 20
-150.7153482696128
 10
85.44835881110319
 20
-150.6326659779668
 10
85.38479679940033
 20
-150.4996852922362
 10
85.34035506764061
 20
-150.5017523495273
 10
85.25784503076888
 20
-150.5058864641096
 10
85.21977672565688
 20
-150.5079535214008
 10
85.21977672565688
 20
-150.5079535214008
 10
85.21977672565688
 20
-150.3281195370707
 10
85.21977672565688
 20
-150.3281195370707
 10
85.34466143699717
 20
-150.3367322757839
 10
85.51812199467951
 20
-150.3408663903662
 10
85.60063203155122
 20
-150.3408663903662
 10
85.60063203155122
 20
-150.3408663903662
 10
85.68314206842297
 20
-150.3408663903662
 10
85.68314206842297
 20
-150.3408663903662
 10
85.68314206842297
 20
-150.1779133739138
 10
85.68314206842297
 20
-150.1675780874581
 10
85.68107501113182
 20
-150.1124565596941
 10
85.68107501113182
 20
-150.1124565596941
 10
85.90517847244731
 20
-150.137950266285
 10
85.90517847244731
 20
-150.137950266285
 10
85.90948484180389
 20
-150.137950266285
 10
85.93067217903817
 20
-150.1400173235761
 10
85.93067217903817
 20
-150.1568982914538
 10
85.93067217903817
 20
-150.1717122020404
 10
85.9199923830339
 20
-150.179980431205
 10
85.89260387392616
 20
-150.1947943417915
 10
85.88623044727844
 20
-150.2605956655598
 10
85.8841633899873
 20
-150.2816107480199
 10
85.8841633899873
 20
-150.3408663903662
 10
85.8841633899873
 20
-150.3408663903662
 10
85.97924802538019
 20
-150.3408663903662
 10
85.97924802538019
 20
-150.3408663903662
 10
86.06175806225193
 20
-150.3408663903662
 10
86.23521861993426
 20
-150.3367322757839
 10
86.36010333127456
 20
-150.3281195370707
 10
86.36010333127456
 20
-150.3281195370707
 10
86.36010333127456
 20
-150.5079535214008
 10
86.36010333127456
 20
-150.5079535214008
 10
86.33047551010141
 20
-150.5058864641096
 10
86.21196422540881
 20
-150.5017523495273
 10
86.17182886300566
 20
-150.4996852922362
 10
86.15701495241909
 20
-150.5503281958693
 10
86.12308076188936
 20
-150.66229379914
 10
86.05762394766962
 20
-150.8021646758411
 10
86.09982636736393
 20
-150.8021646758411
 10
86.37698429915229
 20
-150.7828721411237
 10
86.43830699878973
 20
-150.7808050838326
 10
86.43830699878973
 20
-150.7808050838326
 10
86.43830699878973
 20
-150.9651176922934
 10
86.43830699878973
 20
-150.9651176922934
 10
86.40867917761658
 20
-150.9651176922934
 10
86.39179820973886
 20
-150.9606390681626
 10
86.22884519328655
 20
-150.9606390681626
 97
        0
 97
        1
330
143
 75
     2
 76
     1
 98
        1
 10
0.0
 20
0.0
450
        0
451
        0
460
0.0
461
0.0
452
        0
462
0.0
453
        0
470

  0
SPLINE
  5
145
330
13D
100
AcDbEntity
  8
レイヤー 1
100
AcDbSpline
210
0.0
220
0.0
230
1.0
 70
    11
 71
     3
 72
    17
 73
    13
 74
     0
 42
0.0000000001
 43
0.0000000001
 40
0.0
 40
0.0
 40
0.0
 40
0.0
 40
1.0
 40
1.0
 40
1.0
 40
2.0
 40
2.0
 40
2.0
 40
3.0
 40
3.0
 40
3.0
 40
4.0
 40
4.0
 40
4.0
 40
4.0
 10
88.08540715028767
 20
-151.7602457302891
 30
0.0
 10
88.08540715028767
 20
-151.7602457302891
 30
0.0
 10
87.37881806626294
 20
-151.7602457302891
 30
0.0
 10
87.37881806626294
 20
-151.7602457302891
 30
0.0
 10
87.37881806626294
 20
-151.7602457302891
 30
0.0
 10
87.37881806626294
 20
-151.8746229003994
 30
0.0
 10
87.37881806626294
 20
-151.8746229003994
 30
0.0
 10
87.37881806626294
 20
-151.8746229003994
 30
0.0
 10
88.08540715028767
 20
-151.8746229003994
 30
0.0
 10
88.08540715028767
 20
-151.8746229003994
 30
0.0
 10
88.08540715028767
 20
-151.8746229003994
 30
0.0
 10
88.08540715028767
 20
-151.7602457302891
 30
0.0
 10
88.08540715028767
 20
-151.7602457302891
 30
0.0
  0
SPLINE
  5
146
330
13D
100
AcDbEntity
  8
レイヤー 1
100
AcDbSpline
210
0.0
220
0.0
230
1.0
 70
    11
 71
     3
 72
    17
 73
    13
 74
     0
 42
0.0000000001
 43
0.0000000001
 40
0.0
 40
0.0
 40
0.0
 40
0.0
 40
1.0
 40
1.0
 40
1.0
 40
2.0
 40
2.0
 40
2.0
 40
3.0
 40
3.0
 40
3.0
 40
4.0
 40
4.0
 40
4.0
 40
4.0
 10
88.08540715028767
 20
-151.5170219890304
 30
0.0
 10
88.08540715028767
 20
-151.5170219890304
 30
0.0
 10
87.37881806626294
 20
-151.5170219890304
 30
0.0
 10
87.37881806626294
 20
-151.5170219890304
 30
0.0
 10
87.37881806626294
 20
-151.5170219890304
 30
0.0
 10
87.37881806626294
 20
-151.6313991591407
 30
0.0
 10
87.37881806626294
 20
-151.6313991591407
 30
0.0
 10
87.37881806626294
 20
-151.6313991591407
 30
0.0
 10
88.08540715028767
 20
-151.6313991591407
 30
0.0
 10
88.08540715028767
 20
-151.6313991591407
 30
0.0
 10
88.08540715028767
 20
-151.6313991591407
 30
0.0
 10
88.08540715028767
 20
-151.5170219890304
 30
0.0
 10
88.08540715028767
 20
-151.5170219890304
 30
0.0
  0
SPLINE
  5
147
330
13D
100
AcDbEntity
  8
レイヤー 1
100
AcDbSpline
210
0.0
220
0.0
230
1.0
 70
    11
 71
     3
 72
    17
 73
    13
 74
     0
 42
0.0000000001
 43
0.0000000001
 40
0.0
 40
0.0
 40
0.0
 40
0.0
 40
1.0
 40
1.0
 40
1.0
 40
2.0
 40
2.0
 40
2.0
 40
3.0
 40
3.0
 40
3.0
 40
4.0
 40
4.0
 40
4.0
 40
4.0
 10
88.08540715028767
 20
-151.2844780437761
 30
0.0
 10
88.08540715028767
 20
-151.2844780437761
 30
0.0
 10
87.37881806626294
 20
-151.2844780437761
 30
0.0
 10
87.37881806626294
 20
-151.2844780437761
 30
0.0
 10
87.37881806626294
 20
-151.2844780437761
 30
0.0
 10
87.37881806626294
 20
-151.3923095324644
 30
0.0
 10
87.37881806626294
 20
-151.3923095324644
 30
0.0
 10
87.37881806626294
 20
-151.3923095324644
 30
0.0
 10
88.08540715028767
 20
-151.3923095324644
 30
0.0
 10
88.08540715028767
 20
-151.3923095324644
 30
0.0
 10
88.08540715028767
 20
-151.3923095324644
 30
0.0
 10
88.08540715028767
 20
-151.2844780437761
 30
0.0
 10
88.08540715028767
 20
-151.2844780437761
 30
0.0
  0
SPLINE
  5
148
330
13D
100
AcDbEntity
  8
レイヤー 1
100
AcDbSpline
210
0.0
220
0.0
230
1.0
 70
     9
 71
     3
 72
   203
 73
   199
 74
     0
 42
0.0000000001
 43
0.0000000001
 40
0.0
 40
0.0
 40
0.0
 40
0.0
 40
1.0
 40
1.0
 40
1.0
 40
2.0
 40
2.0
 40
2.0
 40
3.0
 40
3.0
 40
3.0
 40
4.0
 40
4.0
 40
4.0
 40
5.0
 40
5.0
 40
5.0
 40
6.0
 40
6.0
 40
6.0
 40
7.0
 40
7.0
 40
7.0
 40
8.0
 40
8.0
 40
8.0
 40
9.0
 40
9.0
 40
9.0
 40
10.0
 40
10.0
 40
10.0
 40
11.0
 40
11.0
 40
11.0
 40
12.0
 40
12.0
 40
12.0
 40
13.0
 40
13.0
 40
13.0
 40
14.0
 40
14.0
 40
14.0
 40
15.0
 40
15.0
 40
15.0
 40
16.0
 40
16.0
 40
16.0
 40
17.0
 40
17.0
 40
17.0
 40
18.0
 40
18.0
 40
18.0
 40
19.0
 40
19.0
 40
19.0
 40
20.0
 40
20.0
 40
20.0
 40
21.0
 40
21.0
 40
21.0
 40
22.0
 40
22.0
 40
22.0
 40
23.0
 40
23.0
 40
23.0
 40
24.0
 40
24.0
 40
24.0
 40
25.0
 40
25.0
 40
25.0
 40
26.0
 40
26.0
 40
26.0
 40
27.0
 40
27.0
 40
27.0
 40
28.0
 40
28.0
 40
28.0
 40
29.0
 40
29.0
 40
29.0
 40
30.0
 40
30.0
 40
30.0
 40
31.0
 40
31.0
 40
31.0
 40
32.0
 40
32.0
 40
32.0
 40
33.0
 40
33.0
 40
33.0
 40
34.0
 40
34.0
 40
34.0
 40
35.0
 40
35.0
 40
35.0
 40
36.0
 40
36.0
 40
36.0
 40
37.0
 40
37.0
 40
37.0
 40
38.0
 40
38.0
 40
38.0
 40
39.0
 40
39.0
 40
39.0
 40
40.0
 40
40.0
 40
40.0
 40
41.0
 40
41.0
 40
41.0
 40
42.0
 40
42.0
 40
42.0
 40
43.0
 40
43.0
 40
43.0
 40
44.0
 40
44.0
 40
44.0
 40
45.0
 40
45.0
 40
45.0
 40
46.0
 40
46.0
 40
46.0
 40
47.0
 40
47.0
 40
47.0
 40
48.0
 40
48.0
 40
48.0
 40
49.0
 40
49.0
 40
49.0
 40
50.0
 40
50.0
 40
50.0
 40
51.0
 40
51.0
 40
51.0
 40
52.0
 40
52.0
 40
52.0
 40
53.0
 40
53.0
 40
53.0
 40
54.0
 40
54.0
 40
54.0
 40
55.0
 40
55.0
 40
55.0
 40
56.0
 40
56.0
 40
56.0
 40
57.0
 40
57.0
 40
57.0
 40
58.0
 40
58.0
 40
58.0
 40
59.0
 40
59.0
 40
59.0
 40
60.0
 40
60.0
 40
60.0
 40
61.0
 40
61.0
 40
61.0
 40
62.0
 40
62.0
 40
62.0
 40
63.0
 40
63.0
 40
63.0
 40
64.0
 40
64.0
 40
64.0
 40
65.0
 40
65.0
 40
65.0
 40
66.0
 40
66.0
 40
66.0
 40
66.0
 10
87.92038707654421
 20
-151.028507449222
 30
0.0
 10
87.92038707654421
 20
-151.028507449222
 30
0.0
 10
87.36193709838522
 20
-151.028507449222
 30
0.0
 10
87.36193709838522
 20
-151.028507449222
 30
0.0
 10
87.35125730238094
 20
-151.0729491809818
 30
0.0
 10
87.34281681844207
 20
-151.104644059446
 30
0.0
 10
87.33006996514665
 20
-151.1425401097838
 30
0.0
 10
87.35556367173749
 20
-151.1425401097838
 30
0.0
 10
87.37037758232409
 20
-151.1449516766235
 30
0.0
 10
87.37675100897179
 20
-151.1449516766235
 30
0.0
 10
87.37675100897179
 20
-151.1449516766235
 30
0.0
 10
87.56502547724069
 20
-151.1449516766235
 30
0.0
 10
87.56502547724069
 20
-151.1449516766235
 30
0.0
 10
87.56502547724069
 20
-151.1449516766235
 30
0.0
 10
87.93933510171308
 20
-151.1449516766235
 30
0.0
 10
87.93933510171308
 20
-151.1449516766235
 30
0.0
 10
87.99015026012051
 20
-151.1449516766235
 30
0.0
 10
88.27368161855657
 20
-151.1322048233281
 30
0.0
 10
88.30537649702089
 20
-151.1322048233281
 30
0.0
 10
88.30330943972972
 20
-151.15976558721
 30
0.0
 10
88.30107012766431
 20
-151.1787136123789
 30
0.0
 10
88.30107012766431
 20
-151.2083414335521
 30
0.0
 10
88.29900307037318
 20
-151.2400363120164
 30
0.0
 10
88.29900307037318
 20
-151.3754285645867
 30
0.0
 10
88.29900307037318
 20
-151.4029893284687
 30
0.0
 10
88.29900307037318
 20
-151.4029893284687
 30
0.0
 10
88.29900307037318
 20
-151.6482801270185
 30
0.0
 10
88.29900307037318
 20
-151.6482801270185
 30
0.0
 10
88.29900307037318
 20
-151.6927218587782
 30
0.0
 10
88.30330943972972
 20
-151.889436810986
 30
0.0
 10
88.30744355431203
 20
-152.041710031434
 30
0.0
 10
88.30744355431203
 20
-152.041710031434
 30
0.0
 10
88.08110078093113
 20
-152.041710031434
 30
0.0
 10
88.08110078093113
 20
-152.041710031434
 30
0.0
 10
88.08110078093113
 20
-152.041710031434
 30
0.0
 10
88.08316783822226
 20
-152.0079480956786
 30
0.0
 10
88.08316783822226
 20
-152.0079480956786
 30
0.0
 10
88.08316783822226
 20
-152.0079480956786
 30
0.0
 10
87.38088512355409
 20
-152.0079480956786
 30
0.0
 10
87.38088512355409
 20
-152.0079480956786
 30
0.0
 10
87.38088512355409
 20
-152.0079480956786
 30
0.0
 10
87.38295218084523
 20
-152.041710031434
 30
0.0
 10
87.38295218084523
 20
-152.041710031434
 30
0.0
 10
87.38295218084523
 20
-152.041710031434
 30
0.0
 10
87.16504989140318
 20
-152.041710031434
 30
0.0
 10
87.16504989140318
 20
-152.041710031434
 30
0.0
 10
87.16935626075974
 20
-151.98658850367
 30
0.0
 10
87.16935626075974
 20
-151.9741861599231
 30
0.0
 10
87.17572968740745
 20
-151.8598089898128
 30
0.0
 10
87.17779674469861
 20
-151.8322482259308
 30
0.0
 10
87.17986380198976
 20
-151.6989230306516
 30
0.0
 10
87.17986380198976
 20
-151.6799750054827
 30
0.0
 10
87.17986380198976
 20
-151.6799750054827
 30
0.0
 10
87.17986380198976
 20
-151.4770588814015
 30
0.0
 10
87.17986380198976
 20
-151.4770588814015
 30
0.0
 10
87.04033743483714
 20
-151.7264837945336
 30
0.0
 10
86.87101099173711
 20
-151.8577419325217
 30
0.0
 10
86.76524656033995
 20
-151.9231987467414
 30
0.0
 10
86.76524656033995
 20
-151.9231987467414
 30
0.0
 10
86.59178600265761
 20
-151.7836723795888
 30
0.0
 10
86.59178600265761
 20
-151.7836723795888
 30
0.0
 10
86.68066946617706
 20
-151.7330294759556
 30
0.0
 10
86.82450220268624
 20
-151.6462130697273
 30
0.0
 10
86.9619615125477
 20
-151.4515651748107
 30
0.0
 10
87.05308428813257
 20
-151.324441151405
 30
0.0
 10
87.11854110235231
 20
-151.1807806696701
 30
0.0
 10
87.15247529288204
 20
-151.028507449222
 30
0.0
 10
86.9238932074357
 20
-151.0305745065132
 30
0.0
 10
86.74405922310565
 20
-151.0367756783866
 30
0.0
 10
86.64897458771276
 20
-151.0388427356778
 30
0.0
 10
86.64897458771276
 20
-151.0388427356778
 30
0.0
 10
86.64897458771276
 20
-150.8614203181874
 30
0.0
 10
86.64897458771276
 20
-150.8614203181874
 30
0.0
 10
86.84568953992053
 20
-150.8676214900608
 30
0.0
 10
87.12922089835659
 20
-150.8717556046431
 30
0.0
 10
87.27942706151347
 20
-150.8717556046431
 30
0.0
 10
87.27942706151347
 20
-150.8717556046431
 30
0.0
 10
87.49302298159896
 20
-150.8717556046431
 30
0.0
 10
87.49302298159896
 20
-150.8717556046431
 30
0.0
 10
87.49302298159896
 20
-150.8717556046431
 30
0.0
 10
87.49302298159896
 20
-150.7639241159548
 30
0.0
 10
87.49302298159896
 20
-150.7639241159548
 30
0.0
 10
87.49302298159896
 20
-150.7639241159548
 30
0.0
 10
87.34712318779864
 20
-150.7639241159548
 30
0.0
 10
87.34712318779864
 20
-150.7639241159548
 30
0.0
 10
87.17779674469861
 20
-150.7639241159548
 30
0.0
 10
87.00864255637284
 20
-150.7680582305371
 30
0.0
 10
86.84138317056396
 20
-150.7746039119591
 30
0.0
 10
86.84138317056396
 20
-150.7746039119591
 30
0.0
 10
86.84138317056396
 20
-150.6033826663422
 30
0.0
 10
86.84138317056396
 20
-150.6033826663422
 30
0.0
 10
86.99589570307741
 20
-150.6137179527979
 30
0.0
 10
87.18210311405517
 20
-150.6137179527979
 30
0.0
 10
87.34712318779864
 20
-150.6137179527979
 30
0.0
 10
87.34712318779864
 20
-150.6137179527979
 30
0.0
 10
87.49302298159896
 20
-150.6137179527979
 30
0.0
 10
87.49302298159896
 20
-150.6137179527979
 30
0.0
 10
87.49302298159896
 20
-150.6137179527979
 30
0.0
 10
87.49302298159896
 20
-150.4952066681053
 30
0.0
 10
87.49302298159896
 20
-150.4952066681053
 30
0.0
 10
87.49302298159896
 20
-150.4952066681053
 30
0.0
 10
87.36193709838522
 20
-150.4952066681053
 30
0.0
 10
87.36193709838522
 20
-150.4952066681053
 30
0.0
 10
87.31525605456008
 20
-150.4952066681053
 30
0.0
 10
87.1121676757046
 20
-150.5038194068185
 30
0.0
 10
87.06996525601029
 20
-150.5038194068185
 30
0.0
 10
86.86687687715481
 20
-150.5079535214008
 30
0.0
 10
86.79074026693079
 20
-150.5100205786919
 30
0.0
 10
86.71236434464136
 20
-150.5120876359831
 30
0.0
 10
86.71236434464136
 20
-150.5120876359831
 30
0.0
 10
86.71236434464136
 20
-150.3281195370707
 30
0.0
 10
86.71236434464136
 20
-150.3281195370707
 30
0.0
 10
86.82656925997738
 20
-150.3367322757839
 30
0.0
 10
86.87101099173711
 20
-150.3367322757839
 30
0.0
 10
87.25393335492263
 20
-150.3450005049485
 30
0.0
 10
87.19054359799404
 20
-150.2499158695556
 30
0.0
 10
87.16298283411203
 20
-150.2223551056736
 30
0.0
 10
87.12698158629118
 20
-150.1865261126269
 30
0.0
 10
87.12698158629118
 20
-150.1865261126269
 30
0.0
 10
87.30268145603892
 20
-150.103843820981
 30
0.0
 10
87.30268145603892
 20
-150.103843820981
 30
0.0
 10
87.34281681844207
 20
-150.1400173235761
 30
0.0
 10
87.38725855020181
 20
-150.1823919980447
 30
0.0
 10
87.46132810313467
 20
-150.2922905440241
 30
0.0
 10
87.46132810313467
 20
-150.2922905440241
 30
0.0
 10
87.34712318779864
 20
-150.3474120717881
 30
0.0
 10
87.34712318779864
 20
-150.3474120717881
 30
0.0
 10
87.34712318779864
 20
-150.3474120717881
 30
0.0
 10
87.35763072902866
 20
-150.3474120717881
 30
0.0
 10
87.35763072902866
 20
-150.3474120717881
 30
0.0
 10
87.35763072902866
 20
-150.3474120717881
 30
0.0
 10
87.88025171414105
 20
-150.3474120717881
 30
0.0
 10
87.88025171414105
 20
-150.3474120717881
 30
0.0
 10
87.88025171414105
 20
-150.3474120717881
 30
0.0
 10
87.78499482397389
 20
-150.3029703400284
 30
0.0
 10
87.78499482397389
 20
-150.3029703400284
 30
0.0
 10
87.81238333308163
 20
-150.2647297801421
 30
0.0
 10
87.86957191813677
 20
-150.1844590553358
 30
0.0
 10
87.88438582872336
 20
-150.1103895024029
 30
0.0
 10
87.88438582872336
 20
-150.1103895024029
 30
0.0
 10
88.09798174880885
 20
-150.1737792593315
 30
0.0
 10
88.09798174880885
 20
-150.1737792593315
 30
0.0
 10
88.10659448752195
 20
-150.1758463166227
 30
0.0
 10
88.12760956998198
 20
-150.1865261126269
 30
0.0
 10
88.12760956998198
 20
-150.207541195087
 30
0.0
 10
88.12760956998198
 20
-150.2457817549732
 30
0.0
 10
88.06215275576224
 20
-150.2457817549732
 30
0.0
 10
88.04303247581911
 20
-150.2457817549732
 30
0.0
 10
88.03252493458909
 20
-150.2647297801421
 30
0.0
 10
88.00927054006365
 20
-150.3050373973195
 30
0.0
 10
87.97964271889052
 20
-150.3450005049485
 30
0.0
 10
88.37944604995376
 20
-150.338799333075
 30
0.0
 10
88.40907387112691
 20
-150.3367322757839
 30
0.0
 10
88.48521048135092
 20
-150.3301865943619
 30
0.0
 10
88.48521048135092
 20
-150.3301865943619
 30
0.0
 10
88.48521048135092
 20
-150.5120876359831
 30
0.0
 10
88.48521048135092
 20
-150.5120876359831
 30
0.0
 10
88.46609020140778
 20
-150.5120876359831
 30
0.0
 10
88.44076874959119
 20
-150.5100205786919
 30
0.0
 10
88.22079940285799
 20
-150.5017523495273
 30
0.0
 10
88.16998424445056
 20
-150.4996852922362
 30
0.0
 10
87.95001489771737
 20
-150.4952066681053
 30
0.0
 10
87.90557316595764
 20
-150.4952066681053
 30
0.0
 10
87.90557316595764
 20
-150.4952066681053
 30
0.0
 10
87.68973793380673
 20
-150.4952066681053
 30
0.0
 10
87.68973793380673
 20
-150.4952066681053
 30
0.0
 10
87.68973793380673
 20
-150.4952066681053
 30
0.0
 10
87.68973793380673
 20
-150.6137179527979
 30
0.0
 10
87.68973793380673
 20
-150.6137179527979
 30
0.0
 10
87.68973793380673
 20
-150.6137179527979
 30
0.0
 10
87.86319849148908
 20
-150.6137179527979
 30
0.0
 10
87.86319849148908
 20
-150.6137179527979
 30
0.0
 10
88.02615150794137
 20
-150.6137179527979
 30
0.0
 10
88.21649303350143
 20
-150.6137179527979
 30
0.0
 10
88.37307262330604
 20
-150.6033826663422
 30
0.0
 10
88.37307262330604
 20
-150.6033826663422
 30
0.0
 10
88.37307262330604
 20
-150.7746039119591
 30
0.0
 10
88.37307262330604
 20
-150.7746039119591
 30
0.0
 10
88.16361081780284
 20
-150.765991173246
 30
0.0
 10
87.96689586559509
 20
-150.7639241159548
 30
0.0
 10
87.86319849148908
 20
-150.7639241159548
 30
0.0
 10
87.86319849148908
 20
-150.7639241159548
 30
0.0
 10
87.68973793380673
 20
-150.7639241159548
 30
0.0
 10
87.68973793380673
 20
-150.7639241159548
 30
0.0
 10
87.68973793380673
 20
-150.7639241159548
 30
0.0
 10
87.68973793380673
 20
-150.8717556046431
 30
0.0
 10
87.68973793380673
 20
-150.8717556046431
 30
0.0
 10
87.68973793380673
 20
-150.8717556046431
 30
0.0
 10
87.92038707654421
 20
-150.8717556046431
 30
0.0
 10
87.92038707654421
 20
-150.8717556046431
 30
0.0
 10
88.05371227182339
 20
-150.8717556046431
 30
0.0
 10
88.34137774484174
 20
-150.8676214900608
 30
0.0
 10
88.55083955034492
 20
-150.8614203181874
 30
0.0
 10
88.55083955034492
 20
-150.8614203181874
 30
0.0
 10
88.55083955034492
 20
-151.0388427356778
 30
0.0
 10
88.55083955034492
 20
-151.0388427356778
 30
0.0
 10
88.35825871271946
 20
-151.0326415638043
 30
0.0
 10
88.04509953311026
 20
-151.028507449222
 30
0.0
 10
87.92038707654421
 20
-151.028507449222
 30
0.0
  0
HATCH
  5
149
330
13D
100
AcDbEntity
  8
レイヤー 1
 62
    18
420
        0
440
 33554687
100
AcDbHatch
 10
0.0
 20
0.0
 30
0.0
210
0.0
220
0.0
230
1.0
  2
SOLID
 70
     1
 71
     1
 91
        4
 92
        1
 93
        1
 72
     4
 94
        3
 73
     0
 74
     0
 95
       17
 96
       13
 40
0.0
 40
0.0
 40
0.0
 40
0.0
 40
1.0
 40
1.0
 40
1.0
 40
2.0
 40
2.0
 40
2.0
 40
3.0
 40
3.0
 40
3.0
 40
4.0
 40
4.0
 40
4.0
 40
4.0
 10
88.08540715028767
 20
-151.7602457302891
 10
88.08540715028767
 20
-151.7602457302891
 10
87.37881806626294
 20
-151.7602457302891
 10
87.37881806626294
 20
-151.7602457302891
 10
87.37881806626294
 20
-151.7602457302891
 10
87.37881806626294
 20
-151.8746229003994
 10
87.37881806626294
 20
-151.8746229003994
 10
87.37881806626294
 20
-151.8746229003994
 10
88.08540715028767
 20
-151.8746229003994
 10
88.08540715028767
 20
-151.8746229003994
 10
88.08540715028767
 20
-151.8746229003994
 10
88.08540715028767
 20
-151.7602457302891
 10
88.08540715028767
 20
-151.7602457302891
 97
        0
 97
        1
330
145
 92
        1
 93
        1
 72
     4
 94
        3
 73
     0
 74
     0
 95
       17
 96
       13
 40
0.0
 40
0.0
 40
0.0
 40
0.0
 40
1.0
 40
1.0
 40
1.0
 40
2.0
 40
2.0
 40
2.0
 40
3.0
 40
3.0
 40
3.0
 40
4.0
 40
4.0
 40
4.0
 40
4.0
 10
88.08540715028767
 20
-151.5170219890304
 10
88.08540715028767
 20
-151.5170219890304
 10
87.37881806626294
 20
-151.5170219890304
 10
87.37881806626294
 20
-151.5170219890304
 10
87.37881806626294
 20
-151.5170219890304
 10
87.37881806626294
 20
-151.6313991591407
 10
87.37881806626294
 20
-151.6313991591407
 10
87.37881806626294
 20
-151.6313991591407
 10
88.08540715028767
 20
-151.6313991591407
 10
88.08540715028767
 20
-151.6313991591407
 10
88.08540715028767
 20
-151.6313991591407
 10
88.08540715028767
 20
-151.5170219890304
 10
88.08540715028767
 20
-151.5170219890304
 97
        0
 97
        1
330
146
 92
        1
 93
        1
 72
     4
 94
        3
 73
     0
 74
     0
 95
       17
 96
       13
 40
0.0
 40
0.0
 40
0.0
 40
0.0
 40
1.0
 40
1.0
 40
1.0
 40
2.0
 40
2.0
 40
2.0
 40
3.0
 40
3.0
 40
3.0
 40
4.0
 40
4.0
 40
4.0
 40
4.0
 10
88.08540715028767
 20
-151.2844780437761
 10
88.08540715028767
 20
-151.2844780437761
 10
87.37881806626294
 20
-151.2844780437761
 10
87.37881806626294
 20
-151.2844780437761
 10
87.37881806626294
 20
-151.2844780437761
 10
87.37881806626294
 20
-151.3923095324644
 10
87.37881806626294
 20
-151.3923095324644
 10
87.37881806626294
 20
-151.3923095324644
 10
88.08540715028767
 20
-151.3923095324644
 10
88.08540715028767
 20
-151.3923095324644
 10
88.08540715028767
 20
-151.3923095324644
 10
88.08540715028767
 20
-151.2844780437761
 10
88.08540715028767
 20
-151.2844780437761
 97
        0
 97
        1
330
147
 92
        1
 93
        1
 72
     4
 94
        3
 73
     0
 74
     0
 95
      203
 96
      199
 40
0.0
 40
0.0
 40
0.0
 40
0.0
 40
1.0
 40
1.0
 40
1.0
 40
2.0
 40
2.0
 40
2.0
 40
3.0
 40
3.0
 40
3.0
 40
4.0
 40
4.0
 40
4.0
 40
5.0
 40
5.0
 40
5.0
 40
6.0
 40
6.0
 40
6.0
 40
7.0
 40
7.0
 40
7.0
 40
8.0
 40
8.0
 40
8.0
 40
9.0
 40
9.0
 40
9.0
 40
10.0
 40
10.0
 40
10.0
 40
11.0
 40
11.0
 40
11.0
 40
12.0
 40
12.0
 40
12.0
 40
13.0
 40
13.0
 40
13.0
 40
14.0
 40
14.0
 40
14.0
 40
15.0
 40
15.0
 40
15.0
 40
16.0
 40
16.0
 40
16.0
 40
17.0
 40
17.0
 40
17.0
 40
18.0
 40
18.0
 40
18.0
 40
19.0
 40
19.0
 40
19.0
 40
20.0
 40
20.0
 40
20.0
 40
21.0
 40
21.0
 40
21.0
 40
22.0
 40
22.0
 40
22.0
 40
23.0
 40
23.0
 40
23.0
 40
24.0
 40
24.0
 40
24.0
 40
25.0
 40
25.0
 40
25.0
 40
26.0
 40
26.0
 40
26.0
 40
27.0
 40
27.0
 40
27.0
 40
28.0
 40
28.0
 40
28.0
 40
29.0
 40
29.0
 40
29.0
 40
30.0
 40
30.0
 40
30.0
 40
31.0
 40
31.0
 40
31.0
 40
32.0
 40
32.0
 40
32.0
 40
33.0
 40
33.0
 40
33.0
 40
34.0
 40
34.0
 40
34.0
 40
35.0
 40
35.0
 40
35.0
 40
36.0
 40
36.0
 40
36.0
 40
37.0
 40
37.0
 40
37.0
 40
38.0
 40
38.0
 40
38.0
 40
39.0
 40
39.0
 40
39.0
 40
40.0
 40
40.0
 40
40.0
 40
41.0
 40
41.0
 40
41.0
 40
42.0
 40
42.0
 40
42.0
 40
43.0
 40
43.0
 40
43.0
 40
44.0
 40
44.0
 40
44.0
 40
45.0
 40
45.0
 40
45.0
 40
46.0
 40
46.0
 40
46.0
 40
47.0
 40
47.0
 40
47.0
 40
48.0
 40
48.0
 40
48.0
 40
49.0
 40
49.0
 40
49.0
 40
50.0
 40
50.0
 40
50.0
 40
51.0
 40
51.0
 40
51.0
 40
52.0
 40
52.0
 40
52.0
 40
53.0
 40
53.0
 40
53.0
 40
54.0
 40
54.0
 40
54.0
 40
55.0
 40
55.0
 40
55.0
 40
56.0
 40
56.0
 40
56.0
 40
57.0
 40
57.0
 40
57.0
 40
58.0
 40
58.0
 40
58.0
 40
59.0
 40
59.0
 40
59.0
 40
60.0
 40
60.0
 40
60.0
 40
61.0
 40
61.0
 40
61.0
 40
62.0
 40
62.0
 40
62.0
 40
63.0
 40
63.0
 40
63.0
 40
64.0
 40
64.0
 40
64.0
 40
65.0
 40
65.0
 40
65.0
 40
66.0
 40
66.0
 40
66.0
 40
66.0
 10
87.92038707654421
 20
-151.028507449222
 10
87.92038707654421
 20
-151.028507449222
 10
87.36193709838522
 20
-151.028507449222
 10
87.36193709838522
 20
-151.028507449222
 10
87.35125730238094
 20
-151.0729491809818
 10
87.34281681844207
 20
-151.104644059446
 10
87.33006996514665
 20
-151.1425401097838
 10
87.35556367173749
 20
-151.1425401097838
 10
87.37037758232409
 20
-151.1449516766235
 10
87.37675100897179
 20
-151.1449516766235
 10
87.37675100897179
 20
-151.1449516766235
 10
87.56502547724069
 20
-151.1449516766235
 10
87.56502547724069
 20
-151.1449516766235
 10
87.56502547724069
 20
-151.1449516766235
 10
87.93933510171308
 20
-151.1449516766235
 10
87.93933510171308
 20
-151.1449516766235
 10
87.99015026012051
 20
-151.1449516766235
 10
88.27368161855657
 20
-151.1322048233281
 10
88.30537649702089
 20
-151.1322048233281
 10
88.30330943972972
 20
-151.15976558721
 10
88.30107012766431
 20
-151.1787136123789
 10
88.30107012766431
 20
-151.2083414335521
 10
88.29900307037318
 20
-151.2400363120164
 10
88.29900307037318
 20
-151.3754285645867
 10
88.29900307037318
 20
-151.4029893284687
 10
88.29900307037318
 20
-151.4029893284687
 10
88.29900307037318
 20
-151.6482801270185
 10
88.29900307037318
 20
-151.6482801270185
 10
88.29900307037318
 20
-151.6927218587782
 10
88.30330943972972
 20
-151.889436810986
 10
88.30744355431203
 20
-152.041710031434
 10
88.30744355431203
 20
-152.041710031434
 10
88.08110078093113
 20
-152.041710031434
 10
88.08110078093113
 20
-152.041710031434
 10
88.08110078093113
 20
-152.041710031434
 10
88.08316783822226
 20
-152.0079480956786
 10
88.08316783822226
 20
-152.0079480956786
 10
88.08316783822226
 20
-152.0079480956786
 10
87.38088512355409
 20
-152.0079480956786
 10
87.38088512355409
 20
-152.0079480956786
 10
87.38088512355409
 20
-152.0079480956786
 10
87.38295218084523
 20
-152.041710031434
 10
87.38295218084523
 20
-152.041710031434
 10
87.38295218084523
 20
-152.041710031434
 10
87.16504989140318
 20
-152.041710031434
 10
87.16504989140318
 20
-152.041710031434
 10
87.16935626075974
 20
-151.98658850367
 10
87.16935626075974
 20
-151.9741861599231
 10
87.17572968740745
 20
-151.8598089898128
 10
87.17779674469861
 20
-151.8322482259308
 10
87.17986380198976
 20
-151.6989230306516
 10
87.17986380198976
 20
-151.6799750054827
 10
87.17986380198976
 20
-151.6799750054827
 10
87.17986380198976
 20
-151.4770588814015
 10
87.17986380198976
 20
-151.4770588814015
 10
87.04033743483714
 20
-151.7264837945336
 10
86.87101099173711
 20
-151.8577419325217
 10
86.76524656033995
 20
-151.9231987467414
 10
86.76524656033995
 20
-151.9231987467414
 10
86.59178600265761
 20
-151.7836723795888
 10
86.59178600265761
 20
-151.7836723795888
 10
86.68066946617706
 20
-151.7330294759556
 10
86.82450220268624
 20
-151.6462130697273
 10
86.9619615125477
 20
-151.4515651748107
 10
87.05308428813257
 20
-151.324441151405
 10
87.11854110235231
 20
-151.1807806696701
 10
87.15247529288204
 20
-151.028507449222
 10
86.9238932074357
 20
-151.0305745065132
 10
86.74405922310565
 20
-151.0367756783866
 10
86.64897458771276
 20
-151.0388427356778
 10
86.64897458771276
 20
-151.0388427356778
 10
86.64897458771276
 20
-150.8614203181874
 10
86.64897458771276
 20
-150.8614203181874
 10
86.84568953992053
 20
-150.8676214900608
 10
87.12922089835659
 20
-150.8717556046431
 10
87.27942706151347
 20
-150.8717556046431
 10
87.27942706151347
 20
-150.8717556046431
 10
87.49302298159896
 20
-150.8717556046431
 10
87.49302298159896
 20
-150.8717556046431
 10
87.49302298159896
 20
-150.8717556046431
 10
87.49302298159896
 20
-150.7639241159548
 10
87.49302298159896
 20
-150.7639241159548
 10
87.49302298159896
 20
-150.7639241159548
 10
87.34712318779864
 20
-150.7639241159548
 10
87.34712318779864
 20
-150.7639241159548
 10
87.17779674469861
 20
-150.7639241159548
 10
87.00864255637284
 20
-150.7680582305371
 10
86.84138317056396
 20
-150.7746039119591
 10
86.84138317056396
 20
-150.7746039119591
 10
86.84138317056396
 20
-150.6033826663422
 10
86.84138317056396
 20
-150.6033826663422
 10
86.99589570307741
 20
-150.6137179527979
 10
87.18210311405517
 20
-150.6137179527979
 10
87.34712318779864
 20
-150.6137179527979
 10
87.34712318779864
 20
-150.6137179527979
 10
87.49302298159896
 20
-150.6137179527979
 10
87.49302298159896
 20
-150.6137179527979
 10
87.49302298159896
 20
-150.6137179527979
 10
87.49302298159896
 20
-150.4952066681053
 10
87.49302298159896
 20
-150.4952066681053
 10
87.49302298159896
 20
-150.4952066681053
 10
87.36193709838522
 20
-150.4952066681053
 10
87.36193709838522
 20
-150.4952066681053
 10
87.31525605456008
 20
-150.4952066681053
 10
87.1121676757046
 20
-150.5038194068185
 10
87.06996525601029
 20
-150.5038194068185
 10
86.86687687715481
 20
-150.5079535214008
 10
86.79074026693079
 20
-150.5100205786919
 10
86.71236434464136
 20
-150.5120876359831
 10
86.71236434464136
 20
-150.5120876359831
 10
86.71236434464136
 20
-150.3281195370707
 10
86.71236434464136
 20
-150.3281195370707
 10
86.82656925997738
 20
-150.3367322757839
 10
86.87101099173711
 20
-150.3367322757839
 10
87.25393335492263
 20
-150.3450005049485
 10
87.19054359799404
 20
-150.2499158695556
 10
87.16298283411203
 20
-150.2223551056736
 10
87.12698158629118
 20
-150.1865261126269
 10
87.12698158629118
 20
-150.1865261126269
 10
87.30268145603892
 20
-150.103843820981
 10
87.30268145603892
 20
-150.103843820981
 10
87.34281681844207
 20
-150.1400173235761
 10
87.38725855020181
 20
-150.1823919980447
 10
87.46132810313467
 20
-150.2922905440241
 10
87.46132810313467
 20
-150.2922905440241
 10
87.34712318779864
 20
-150.3474120717881
 10
87.34712318779864
 20
-150.3474120717881
 10
87.34712318779864
 20
-150.3474120717881
 10
87.35763072902866
 20
-150.3474120717881
 10
87.35763072902866
 20
-150.3474120717881
 10
87.35763072902866
 20
-150.3474120717881
 10
87.88025171414105
 20
-150.3474120717881
 10
87.88025171414105
 20
-150.3474120717881
 10
87.88025171414105
 20
-150.3474120717881
 10
87.78499482397389
 20
-150.3029703400284
 10
87.78499482397389
 20
-150.3029703400284
 10
87.81238333308163
 20
-150.2647297801421
 10
87.86957191813677
 20
-150.1844590553358
 10
87.88438582872336
 20
-150.1103895024029
 10
87.88438582872336
 20
-150.1103895024029
 10
88.09798174880885
 20
-150.1737792593315
 10
88.09798174880885
 20
-150.1737792593315
 10
88.10659448752195
 20
-150.1758463166227
 10
88.12760956998198
 20
-150.1865261126269
 10
88.12760956998198
 20
-150.207541195087
 10
88.12760956998198
 20
-150.2457817549732
 10
88.06215275576224
 20
-150.2457817549732
 10
88.04303247581911
 20
-150.2457817549732
 10
88.03252493458909
 20
-150.2647297801421
 10
88.00927054006365
 20
-150.3050373973195
 10
87.97964271889052
 20
-150.3450005049485
 10
88.37944604995376
 20
-150.338799333075
 10
88.40907387112691
 20
-150.3367322757839
 10
88.48521048135092
 20
-150.3301865943619
 10
88.48521048135092
 20
-150.3301865943619
 10
88.48521048135092
 20
-150.5120876359831
 10
88.48521048135092
 20
-150.5120876359831
 10
88.46609020140778
 20
-150.5120876359831
 10
88.44076874959119
 20
-150.5100205786919
 10
88.22079940285799
 20
-150.5017523495273
 10
88.16998424445056
 20
-150.4996852922362
 10
87.95001489771737
 20
-150.4952066681053
 10
87.90557316595764
 20
-150.4952066681053
 10
87.90557316595764
 20
-150.4952066681053
 10
87.68973793380673
 20
-150.4952066681053
 10
87.68973793380673
 20
-150.4952066681053
 10
87.68973793380673
 20
-150.4952066681053
 10
87.68973793380673
 20
-150.6137179527979
 10
87.68973793380673
 20
-150.6137179527979
 10
87.68973793380673
 20
-150.6137179527979
 10
87.86319849148908
 20
-150.6137179527979
 10
87.86319849148908
 20
-150.6137179527979
 10
88.02615150794137
 20
-150.6137179527979
 10
88.21649303350143
 20
-150.6137179527979
 10
88.37307262330604
 20
-150.6033826663422
 10
88.37307262330604
 20
-150.6033826663422
 10
88.37307262330604
 20
-150.7746039119591
 10
88.37307262330604
 20
-150.7746039119591
 10
88.16361081780284
 20
-150.765991173246
 10
87.96689586559509
 20
-150.7639241159548
 10
87.86319849148908
 20
-150.7639241159548
 10
87.86319849148908
 20
-150.7639241159548
 10
87.68973793380673
 20
-150.7639241159548
 10
87.68973793380673
 20
-150.7639241159548
 10
87.68973793380673
 20
-150.7639241159548
 10
87.68973793380673
 20
-150.8717556046431
 10
87.68973793380673
 20
-150.8717556046431
 10
87.68973793380673
 20
-150.8717556046431
 10
87.92038707654421
 20
-150.8717556046431
 10
87.92038707654421
 20
-150.8717556046431
 10
88.05371227182339
 20
-150.8717556046431
 10
88.34137774484174
 20
-150.8676214900608
 10
88.55083955034492
 20
-150.8614203181874
 10
88.55083955034492
 20
-150.8614203181874
 10
88.55083955034492
 20
-151.0388427356778
 10
88.55083955034492
 20
-151.0388427356778
 10
88.35825871271946
 20
-151.0326415638043
 10
88.04509953311026
 20
-151.028507449222
 10
87.92038707654421
 20
-151.028507449222
 97
        0
 97
        1
330
148
 75
     2
 76
     1
 98
        1
 10
0.0
 20
0.0
450
        0
451
        0
460
0.0
461
0.0
452
        0
462
0.0
453
        0
470

  0
SPLINE
  5
14A
330
13D
100
AcDbEntity
  8
レイヤー 1
100
AcDbSpline
210
0.0
220
0.0
230
1.0
 70
     9
 71
     3
 72
    29
 73
    25
 74
     0
 42
0.0000000001
 43
0.0000000001
 40
0.0
 40
0.0
 40
0.0
 40
0.0
 40
1.0
 40
1.0
 40
1.0
 40
2.0
 40
2.0
 40
2.0
 40
3.0
 40
3.0
 40
3.0
 40
4.0
 40
4.0
 40
4.0
 40
5.0
 40
5.0
 40
5.0
 40
6.0
 40
6.0
 40
6.0
 40
7.0
 40
7.0
 40
7.0
 40
8.0
 40
8.0
 40
8.0
 40
8.0
 10
89.79589705871422
 20
-150.4762586429365
 30
0.0
 10
89.79589705871422
 20
-150.4762586429365
 30
0.0
 10
89.44260251670185
 20
-150.4762586429365
 30
0.0
 10
89.44260251670185
 20
-150.4762586429365
 30
0.0
 10
89.33046465865697
 20
-150.4762586429365
 30
0.0
 10
89.1907660367301
 20
-150.4824598148099
 30
0.0
 10
89.08293454804178
 20
-150.4952066681053
 30
0.0
 10
89.08293454804178
 20
-150.4952066681053
 30
0.0
 10
89.08293454804178
 20
-150.2605956655598
 30
0.0
 10
89.08293454804178
 20
-150.2605956655598
 30
0.0
 10
89.20144583273437
 20
-150.2754095761464
 30
0.0
 10
89.38541393164671
 20
-150.2795436907287
 30
0.0
 10
89.44260251670185
 20
-150.2795436907287
 30
0.0
 10
89.44260251670185
 20
-150.2795436907287
 30
0.0
 10
89.79589705871422
 20
-150.2795436907287
 30
0.0
 10
89.79589705871422
 20
-150.2795436907287
 30
0.0
 10
89.81484508388311
 20
-150.2795436907287
 30
0.0
 10
90.01793346273858
 20
-150.2795436907287
 30
0.0
 10
90.15969914195661
 20
-150.2605956655598
 30
0.0
 10
90.15969914195661
 20
-150.2605956655598
 30
0.0
 10
90.15969914195661
 20
-150.4952066681053
 30
0.0
 10
90.15969914195661
 20
-150.4952066681053
 30
0.0
 10
90.00311955215201
 20
-150.4762586429365
 30
0.0
 10
89.81277802659194
 20
-150.4762586429365
 30
0.0
 10
89.79589705871422
 20
-150.4762586429365
 30
0.0
  0
SPLINE
  5
14B
330
13D
100
AcDbEntity
  8
レイヤー 1
100
AcDbSpline
210
0.0
220
0.0
230
1.0
 70
     9
 71
     3
 72
    47
 73
    43
 74
     0
 42
0.0000000001
 43
0.0000000001
 40
0.0
 40
0.0
 40
0.0
 40
0.0
 40
1.0
 40
1.0
 40
1.0
 40
2.0
 40
2.0
 40
2.0
 40
3.0
 40
3.0
 40
3.0
 40
4.0
 40
4.0
 40
4.0
 40
5.0
 40
5.0
 40
5.0
 40
6.0
 40
6.0
 40
6.0
 40
7.0
 40
7.0
 40
7.0
 40
8.0
 40
8.0
 40
8.0
 40
9.0
 40
9.0
 40
9.0
 40
10.0
 40
10.0
 40
10.0
 40
11.0
 40
11.0
 40
11.0
 40
12.0
 40
12.0
 40
12.0
 40
13.0
 40
13.0
 40
13.0
 40
14.0
 40
14.0
 40
14.0
 40
14.0
 10
89.89735512075483
 20
-151.0050807999223
 30
0.0
 10
89.89735512075483
 20
-151.0050807999223
 30
0.0
 10
89.79589705871422
 20
-151.0050807999223
 30
0.0
 10
89.79589705871422
 20
-151.0050807999223
 30
0.0
 10
89.79589705871422
 20
-151.0918972061506
 30
0.0
 10
89.77470972147994
 20
-151.4811929959838
 30
0.0
 10
89.57799476927217
 20
-151.7013345974913
 30
0.0
 10
89.42554929404987
 20
-151.8704887858171
 30
0.0
 10
89.21832680061209
 20
-151.9400797146191
 30
0.0
 10
89.13374970644921
 20
-151.9676404785011
 30
0.0
 10
89.13374970644921
 20
-151.9676404785011
 30
0.0
 10
88.93910181153259
 20
-151.8005533474665
 30
0.0
 10
88.93910181153259
 20
-151.8005533474665
 30
0.0
 10
89.03642575899089
 20
-151.7878064941711
 30
0.0
 10
89.21195337396438
 20
-151.7647243544199
 30
0.0
 10
89.40022784223328
 20
-151.5762776313767
 30
0.0
 10
89.47429739516614
 20
-151.504275135735
 30
0.0
 10
89.57799476927217
 20
-151.3647487685824
 30
0.0
 10
89.57799476927217
 20
-151.0050807999223
 30
0.0
 10
89.57799476927217
 20
-151.0050807999223
 30
0.0
 10
89.34734562653469
 20
-151.0050807999223
 30
0.0
 10
89.34734562653469
 20
-151.0050807999223
 30
0.0
 10
89.16113821555695
 20
-151.0050807999223
 30
0.0
 10
88.97493080457918
 20
-151.0095594240532
 30
0.0
 10
88.78889564837569
 20
-151.0240288250912
 30
0.0
 10
88.78889564837569
 20
-151.0240288250912
 30
0.0
 10
88.78889564837569
 20
-150.8042317331322
 30
0.0
 10
88.78889564837569
 20
-150.8042317331322
 30
0.0
 10
88.97717011664459
 20
-150.8190456437188
 30
0.0
 10
89.26276853237181
 20
-150.8231797583011
 30
0.0
 10
89.34734562653469
 20
-150.8231797583011
 30
0.0
 10
89.34734562653469
 20
-150.8231797583011
 30
0.0
 10
89.89735512075483
 20
-150.8231797583011
 30
0.0
 10
89.89735512075483
 20
-150.8231797583011
 30
0.0
 10
89.91647540069797
 20
-150.8231797583011
 30
0.0
 10
90.23376869488947
 20
-150.8231797583011
 30
0.0
 10
90.46217852556154
 20
-150.8042317331322
 30
0.0
 10
90.46217852556154
 20
-150.8042317331322
 30
0.0
 10
90.46217852556154
 20
-151.0240288250912
 30
0.0
 10
90.46217852556154
 20
-151.0240288250912
 30
0.0
 10
90.27390405729263
 20
-151.0095594240532
 30
0.0
 10
90.08562958902373
 20
-151.0050807999223
 30
0.0
 10
89.89735512075483
 20
-151.0050807999223
 30
0.0
  0
HATCH
  5
14C
330
13D
100
AcDbEntity
  8
レイヤー 1
 62
    18
420
        0
440
 33554687
100
AcDbHatch
 10
0.0
 20
0.0
 30
0.0
210
0.0
220
0.0
230
1.0
  2
SOLID
 70
     1
 71
     1
 91
        2
 92
        1
 93
        1
 72
     4
 94
        3
 73
     0
 74
     0
 95
       29
 96
       25
 40
0.0
 40
0.0
 40
0.0
 40
0.0
 40
1.0
 40
1.0
 40
1.0
 40
2.0
 40
2.0
 40
2.0
 40
3.0
 40
3.0
 40
3.0
 40
4.0
 40
4.0
 40
4.0
 40
5.0
 40
5.0
 40
5.0
 40
6.0
 40
6.0
 40
6.0
 40
7.0
 40
7.0
 40
7.0
 40
8.0
 40
8.0
 40
8.0
 40
8.0
 10
89.79589705871422
 20
-150.4762586429365
 10
89.79589705871422
 20
-150.4762586429365
 10
89.44260251670185
 20
-150.4762586429365
 10
89.44260251670185
 20
-150.4762586429365
 10
89.33046465865697
 20
-150.4762586429365
 10
89.1907660367301
 20
-150.4824598148099
 10
89.08293454804178
 20
-150.4952066681053
 10
89.08293454804178
 20
-150.4952066681053
 10
89.08293454804178
 20
-150.2605956655598
 10
89.08293454804178
 20
-150.2605956655598
 10
89.20144583273437
 20
-150.2754095761464
 10
89.38541393164671
 20
-150.2795436907287
 10
89.44260251670185
 20
-150.2795436907287
 10
89.44260251670185
 20
-150.2795436907287
 10
89.79589705871422
 20
-150.2795436907287
 10
89.79589705871422
 20
-150.2795436907287
 10
89.81484508388311
 20
-150.2795436907287
 10
90.01793346273858
 20
-150.2795436907287
 10
90.15969914195661
 20
-150.2605956655598
 10
90.15969914195661
 20
-150.2605956655598
 10
90.15969914195661
 20
-150.4952066681053
 10
90.15969914195661
 20
-150.4952066681053
 10
90.00311955215201
 20
-150.4762586429365
 10
89.81277802659194
 20
-150.4762586429365
 10
89.79589705871422
 20
-150.4762586429365
 97
        0
 97
        1
330
14A
 92
        1
 93
        1
 72
     4
 94
        3
 73
     0
 74
     0
 95
       47
 96
       43
 40
0.0
 40
0.0
 40
0.0
 40
0.0
 40
1.0
 40
1.0
 40
1.0
 40
2.0
 40
2.0
 40
2.0
 40
3.0
 40
3.0
 40
3.0
 40
4.0
 40
4.0
 40
4.0
 40
5.0
 40
5.0
 40
5.0
 40
6.0
 40
6.0
 40
6.0
 40
7.0
 40
7.0
 40
7.0
 40
8.0
 40
8.0
 40
8.0
 40
9.0
 40
9.0
 40
9.0
 40
10.0
 40
10.0
 40
10.0
 40
11.0
 40
11.0
 40
11.0
 40
12.0
 40
12.0
 40
12.0
 40
13.0
 40
13.0
 40
13.0
 40
14.0
 40
14.0
 40
14.0
 40
14.0
 10
89.89735512075483
 20
-151.0050807999223
 10
89.89735512075483
 20
-151.0050807999223
 10
89.79589705871422
 20
-151.0050807999223
 10
89.79589705871422
 20
-151.0050807999223
 10
89.79589705871422
 20
-151.0918972061506
 10
89.77470972147994
 20
-151.4811929959838
 10
89.57799476927217
 20
-151.7013345974913
 10
89.42554929404987
 20
-151.8704887858171
 10
89.21832680061209
 20
-151.9400797146191
 10
89.13374970644921
 20
-151.9676404785011
 10
89.13374970644921
 20
-151.9676404785011
 10
88.93910181153259
 20
-151.8005533474665
 10
88.93910181153259
 20
-151.8005533474665
 10
89.03642575899089
 20
-151.7878064941711
 10
89.21195337396438
 20
-151.7647243544199
 10
89.40022784223328
 20
-151.5762776313767
 10
89.47429739516614
 20
-151.504275135735
 10
89.57799476927217
 20
-151.3647487685824
 10
89.57799476927217
 20
-151.0050807999223
 10
89.57799476927217
 20
-151.0050807999223
 10
89.34734562653469
 20
-151.0050807999223
 10
89.34734562653469
 20
-151.0050807999223
 10
89.16113821555695
 20
-151.0050807999223
 10
88.97493080457918
 20
-151.0095594240532
 10
88.78889564837569
 20
-151.0240288250912
 10
88.78889564837569
 20
-151.0240288250912
 10
88.78889564837569
 20
-150.8042317331322
 10
88.78889564837569
 20
-150.8042317331322
 10
88.97717011664459
 20
-150.8190456437188
 10
89.26276853237181
 20
-150.8231797583011
 10
89.34734562653469
 20
-150.8231797583011
 10
89.34734562653469
 20
-150.8231797583011
 10
89.89735512075483
 20
-150.8231797583011
 10
89.89735512075483
 20
-150.8231797583011
 10
89.91647540069797
 20
-150.8231797583011
 10
90.23376869488947
 20
-150.8231797583011
 10
90.46217852556154
 20
-150.8042317331322
 10
90.46217852556154
 20
-150.8042317331322
 10
90.46217852556154
 20
-151.0240288250912
 10
90.46217852556154
 20
-151.0240288250912
 10
90.27390405729263
 20
-151.0095594240532
 10
90.08562958902373
 20
-151.0050807999223
 10
89.89735512075483
 20
-151.0050807999223
 97
        0
 97
        1
330
14B
 75
     2
 76
     1
 98
        1
 10
0.0
 20
0.0
450
        0
451
        0
460
0.0
461
0.0
452
        0
462
0.0
453
        0
470

  0
SPLINE
  5
14D
330
13D
100
AcDbEntity
  8
レイヤー 1
100
AcDbSpline
210
0.0
220
0.0
230
1.0
 70
     9
 71
     3
 72
    29
 73
    25
 74
     0
 42
0.0000000001
 43
0.0000000001
 40
0.0
 40
0.0
 40
0.0
 40
0.0
 40
1.0
 40
1.0
 40
1.0
 40
2.0
 40
2.0
 40
2.0
 40
3.0
 40
3.0
 40
3.0
 40
4.0
 40
4.0
 40
4.0
 40
5.0
 40
5.0
 40
5.0
 40
6.0
 40
6.0
 40
6.0
 40
7.0
 40
7.0
 40
7.0
 40
8.0
 40
8.0
 40
8.0
 40
8.0
 10
91.74306502697744
 20
-151.1680338163746
 30
0.0
 10
91.74306502697744
 20
-151.1680338163746
 30
0.0
 10
91.2586846017513
 20
-151.1680338163746
 30
0.0
 10
91.2586846017513
 20
-151.1680338163746
 30
0.0
 10
91.2311238378693
 20
-151.1680338163746
 30
0.0
 10
90.9138305436778
 20
-151.1680338163746
 30
0.0
 10
90.70230168088345
 20
-151.1935275229655
 30
0.0
 10
90.70230168088345
 20
-151.1935275229655
 30
0.0
 10
90.70230168088345
 20
-150.9627061254537
 30
0.0
 10
90.70230168088345
 20
-150.9627061254537
 30
0.0
 10
90.86094832797922
 20
-150.9861327747534
 30
0.0
 10
91.05128985353927
 20
-150.9881998320446
 30
0.0
 10
91.2586846017513
 20
-150.9881998320446
 30
0.0
 10
91.2586846017513
 20
-150.9881998320446
 30
0.0
 10
91.74306502697744
 20
-150.9881998320446
 30
0.0
 10
91.74306502697744
 20
-150.9881998320446
 30
0.0
 10
91.92927243795519
 20
-150.9881998320446
 30
0.0
 10
92.11547984893293
 20
-150.9861327747534
 30
0.0
 10
92.29944794784527
 20
-150.9627061254537
 30
0.0
 10
92.29944794784527
 20
-150.9627061254537
 30
0.0
 10
92.29944794784527
 20
-151.1935275229655
 30
0.0
 10
92.29944794784527
 20
-151.1935275229655
 30
0.0
 10
92.11547984893293
 20
-151.1701008736658
 30
0.0
 10
91.86794973831773
 20
-151.1680338163746
 30
0.0
 10
91.74306502697744
 20
-151.1680338163746
 30
0.0
  0
HATCH
  5
14E
330
13D
100
AcDbEntity
  8
レイヤー 1
 62
    18
420
        0
440
 33554687
100
AcDbHatch
 10
0.0
 20
0.0
 30
0.0
210
0.0
220
0.0
230
1.0
  2
SOLID
 70
     1
 71
     1
 91
        1
 92
        1
 93
        1
 72
     4
 94
        3
 73
     0
 74
     0
 95
       29
 96
       25
 40
0.0
 40
0.0
 40
0.0
 40
0.0
 40
1.0
 40
1.0
 40
1.0
 40
2.0
 40
2.0
 40
2.0
 40
3.0
 40
3.0
 40
3.0
 40
4.0
 40
4.0
 40
4.0
 40
5.0
 40
5.0
 40
5.0
 40
6.0
 40
6.0
 40
6.0
 40
7.0
 40
7.0
 40
7.0
 40
8.0
 40
8.0
 40
8.0
 40
8.0
 10
91.74306502697744
 20
-151.1680338163746
 10
91.74306502697744
 20
-151.1680338163746
 10
91.2586846017513
 20
-151.1680338163746
 10
91.2586846017513
 20
-151.1680338163746
 10
91.2311238378693
 20
-151.1680338163746
 10
90.9138305436778
 20
-151.1680338163746
 10
90.70230168088345
 20
-151.1935275229655
 10
90.70230168088345
 20
-151.1935275229655
 10
90.70230168088345
 20
-150.9627061254537
 10
90.70230168088345
 20
-150.9627061254537
 10
90.86094832797922
 20
-150.9861327747534
 10
91.05128985353927
 20
-150.9881998320446
 10
91.2586846017513
 20
-150.9881998320446
 10
91.2586846017513
 20
-150.9881998320446
 10
91.74306502697744
 20
-150.9881998320446
 10
91.74306502697744
 20
-150.9881998320446
 10
91.92927243795519
 20
-150.9881998320446
 10
92.11547984893293
 20
-150.9861327747534
 10
92.29944794784527
 20
-150.9627061254537
 10
92.29944794784527
 20
-150.9627061254537
 10
92.29944794784527
 20
-151.1935275229655
 10
92.29944794784527
 20
-151.1935275229655
 10
92.11547984893293
 20
-151.1701008736658
 10
91.86794973831773
 20
-151.1680338163746
 10
91.74306502697744
 20
-151.1680338163746
 97
        0
 97
        1
330
14D
 75
     2
 76
     1
 98
        1
 10
0.0
 20
0.0
450
        0
451
        0
460
0.0
461
0.0
452
        0
462
0.0
453
        0
470

  0
SPLINE
  5
14F
330
13D
100
AcDbEntity
  8
レイヤー 1
100
AcDbSpline
210
0.0
220
0.0
230
1.0
 70
     9
 71
     3
 72
    47
 73
    43
 74
     0
 42
0.0000000001
 43
0.0000000001
 40
0.0
 40
0.0
 40
0.0
 40
0.0
 40
1.0
 40
1.0
 40
1.0
 40
2.0
 40
2.0
 40
2.0
 40
3.0
 40
3.0
 40
3.0
 40
4.0
 40
4.0
 40
4.0
 40
5.0
 40
5.0
 40
5.0
 40
6.0
 40
6.0
 40
6.0
 40
7.0
 40
7.0
 40
7.0
 40
8.0
 40
8.0
 40
8.0
 40
9.0
 40
9.0
 40
9.0
 40
10.0
 40
10.0
 40
10.0
 40
11.0
 40
11.0
 40
11.0
 40
12.0
 40
12.0
 40
12.0
 40
13.0
 40
13.0
 40
13.0
 40
14.0
 40
14.0
 40
14.0
 40
14.0
 10
93.96325681244668
 20
-150.5737548451691
 30
0.0
 10
93.89349362887037
 20
-150.8528075794743
 30
0.0
 10
93.81735701864636
 20
-151.1573540203704
 30
0.0
 10
93.50419783903715
 20
-151.4894612251485
 30
0.0
 10
93.26734752442623
 20
-151.739230647829
 30
0.0
 10
93.02188447110216
 20
-151.8387939073528
 30
0.0
 10
92.91612003970501
 20
-151.8808240722728
 30
0.0
 10
92.91612003970501
 20
-151.8808240722728
 30
0.0
 10
92.7214721447884
 20
-151.6989230306516
 30
0.0
 10
92.7214721447884
 20
-151.6989230306516
 30
0.0
 10
92.90767955576614
 20
-151.6524142416008
 30
0.0
 10
93.26941458171736
 20
-151.559396663499
 30
0.0
 10
93.56552053867458
 20
-151.0643364422686
 30
0.0
 10
93.72640649783576
 20
-150.7976860517103
 30
0.0
 10
93.73898109635693
 20
-150.6243977488022
 30
0.0
 10
93.74759383507004
 20
-150.5334472279916
 30
0.0
 10
93.74759383507004
 20
-150.5334472279916
 30
0.0
 10
93.24185381783538
 20
-150.5334472279916
 30
0.0
 10
93.24185381783538
 20
-150.5334472279916
 30
0.0
 10
93.12351478791704
 20
-150.5334472279916
 30
0.0
 10
92.70252411961951
 20
-150.5523952531605
 30
0.0
 10
92.5500786443972
 20
-150.5630750491647
 30
0.0
 10
92.5500786443972
 20
-150.5630750491647
 30
0.0
 10
92.5500786443972
 20
-150.3536132436616
 30
0.0
 10
92.5500786443972
 20
-150.3536132436616
 30
0.0
 10
92.69184432361525
 20
-150.366360096957
 30
0.0
 10
92.96900225540358
 20
-150.3704942115393
 30
0.0
 10
93.08544648280502
 20
-150.3704942115393
 30
0.0
 10
93.08544648280502
 20
-150.3704942115393
 30
0.0
 10
93.44080808210854
 20
-150.3704942115393
 30
0.0
 10
93.44080808210854
 20
-150.3704942115393
 30
0.0
 10
93.46819659121628
 20
-150.3704942115393
 30
0.0
 10
93.62908255037746
 20
-150.3684271542481
 30
0.0
 10
93.73898109635693
 20
-150.3536132436616
 30
0.0
 10
93.79616968141206
 20
-150.3474120717881
 30
0.0
 10
93.81305064928978
 20
-150.3281195370707
 30
0.0
 10
93.83630504381523
 20
-150.3050373973195
 30
0.0
 10
93.83630504381523
 20
-150.3050373973195
 30
0.0
 10
94.02457951208413
 20
-150.4552435604765
 30
0.0
 10
94.02457951208413
 20
-150.4552435604765
 30
0.0
 10
94.00976560149755
 20
-150.4848713816496
 30
0.0
 10
93.99925806026756
 20
-150.5038194068185
 30
0.0
 10
93.96325681244668
 20
-150.5737548451691
 30
0.0
  0
HATCH
  5
150
330
13D
100
AcDbEntity
  8
レイヤー 1
 62
    18
420
        0
440
 33554687
100
AcDbHatch
 10
0.0
 20
0.0
 30
0.0
210
0.0
220
0.0
230
1.0
  2
SOLID
 70
     1
 71
     1
 91
        1
 92
        1
 93
        1
 72
     4
 94
        3
 73
     0
 74
     0
 95
       47
 96
       43
 40
0.0
 40
0.0
 40
0.0
 40
0.0
 40
1.0
 40
1.0
 40
1.0
 40
2.0
 40
2.0
 40
2.0
 40
3.0
 40
3.0
 40
3.0
 40
4.0
 40
4.0
 40
4.0
 40
5.0
 40
5.0
 40
5.0
 40
6.0
 40
6.0
 40
6.0
 40
7.0
 40
7.0
 40
7.0
 40
8.0
 40
8.0
 40
8.0
 40
9.0
 40
9.0
 40
9.0
 40
10.0
 40
10.0
 40
10.0
 40
11.0
 40
11.0
 40
11.0
 40
12.0
 40
12.0
 40
12.0
 40
13.0
 40
13.0
 40
13.0
 40
14.0
 40
14.0
 40
14.0
 40
14.0
 10
93.96325681244668
 20
-150.5737548451691
 10
93.89349362887037
 20
-150.8528075794743
 10
93.81735701864636
 20
-151.1573540203704
 10
93.50419783903715
 20
-151.4894612251485
 10
93.26734752442623
 20
-151.739230647829
 10
93.02188447110216
 20
-151.8387939073528
 10
92.91612003970501
 20
-151.8808240722728
 10
92.91612003970501
 20
-151.8808240722728
 10
92.7214721447884
 20
-151.6989230306516
 10
92.7214721447884
 20
-151.6989230306516
 10
92.90767955576614
 20
-151.6524142416008
 10
93.26941458171736
 20
-151.559396663499
 10
93.56552053867458
 20
-151.0643364422686
 10
93.72640649783576
 20
-150.7976860517103
 10
93.73898109635693
 20
-150.6243977488022
 10
93.74759383507004
 20
-150.5334472279916
 10
93.74759383507004
 20
-150.5334472279916
 10
93.24185381783538
 20
-150.5334472279916
 10
93.24185381783538
 20
-150.5334472279916
 10
93.12351478791704
 20
-150.5334472279916
 10
92.70252411961951
 20
-150.5523952531605
 10
92.5500786443972
 20
-150.5630750491647
 10
92.5500786443972
 20
-150.5630750491647
 10
92.5500786443972
 20
-150.3536132436616
 10
92.5500786443972
 20
-150.3536132436616
 10
92.69184432361525
 20
-150.366360096957
 10
92.96900225540358
 20
-150.3704942115393
 10
93.08544648280502
 20
-150.3704942115393
 10
93.08544648280502
 20
-150.3704942115393
 10
93.44080808210854
 20
-150.3704942115393
 10
93.44080808210854
 20
-150.3704942115393
 10
93.46819659121628
 20
-150.3704942115393
 10
93.62908255037746
 20
-150.3684271542481
 10
93.73898109635693
 20
-150.3536132436616
 10
93.79616968141206
 20
-150.3474120717881
 10
93.81305064928978
 20
-150.3281195370707
 10
93.83630504381523
 20
-150.3050373973195
 10
93.83630504381523
 20
-150.3050373973195
 10
94.02457951208413
 20
-150.4552435604765
 10
94.02457951208413
 20
-150.4552435604765
 10
94.00976560149755
 20
-150.4848713816496
 10
93.99925806026756
 20
-150.5038194068185
 10
93.96325681244668
 20
-150.5737548451691
 97
        0
 97
        1
330
14F
 75
     2
 76
     1
 98
        1
 10
0.0
 20
0.0
450
        0
451
        0
460
0.0
461
0.0
452
        0
462
0.0
453
        0
470

  0
SPLINE
  5
151
330
13D
100
AcDbEntity
  8
レイヤー 1
100
AcDbSpline
210
0.0
220
0.0
230
1.0
 70
    11
 71
     3
 72
    17
 73
    13
 74
     0
 42
0.0000000001
 43
0.0000000001
 40
0.0
 40
0.0
 40
0.0
 40
0.0
 40
1.0
 40
1.0
 40
1.0
 40
2.0
 40
2.0
 40
2.0
 40
3.0
 40
3.0
 40
3.0
 40
4.0
 40
4.0
 40
4.0
 40
4.0
 10
94.35358613092549
 20
-150.3556803009527
 30
0.0
 10
94.35358613092549
 20
-150.414935943299
 30
0.0
 10
94.40009491997637
 20
-150.4614447323499
 30
0.0
 10
94.45935056232267
 20
-150.4614447323499
 30
0.0
 10
94.51860620466897
 20
-150.4614447323499
 30
0.0
 10
94.56718205101099
 20
-150.414935943299
 30
0.0
 10
94.56718205101099
 20
-150.3556803009527
 30
0.0
 10
94.56718205101099
 20
-150.2964246586064
 30
0.0
 10
94.51860620466897
 20
-150.2478488122644
 30
0.0
 10
94.45935056232267
 20
-150.2478488122644
 30
0.0
 10
94.40009491997637
 20
-150.2478488122644
 30
0.0
 10
94.35358613092549
 20
-150.2964246586064
 30
0.0
 10
94.35358613092549
 20
-150.3556803009527
 30
0.0
  0
SPLINE
  5
152
330
13D
100
AcDbEntity
  8
レイヤー 1
100
AcDbSpline
210
0.0
220
0.0
230
1.0
 70
     9
 71
     3
 72
    17
 73
    13
 74
     0
 42
0.0000000001
 43
0.0000000001
 40
0.0
 40
0.0
 40
0.0
 40
0.0
 40
1.0
 40
1.0
 40
1.0
 40
2.0
 40
2.0
 40
2.0
 40
3.0
 40
3.0
 40
3.0
 40
4.0
 40
4.0
 40
4.0
 40
4.0
 10
94.66881236782585
 20
-150.3556803009527
 30
0.0
 10
94.66881236782585
 20
-150.470057471063
 30
0.0
 10
94.57562253494984
 20
-150.5651421064559
 30
0.0
 10
94.45935056232267
 20
-150.5651421064559
 30
0.0
 10
94.34514564698664
 20
-150.5651421064559
 30
0.0
 10
94.24988875681947
 20
-150.470057471063
 30
0.0
 10
94.24988875681947
 20
-150.3556803009527
 30
0.0
 10
94.24988875681947
 20
-150.2392360735513
 30
0.0
 10
94.34514564698664
 20
-150.1462184954496
 30
0.0
 10
94.45935056232267
 20
-150.1462184954496
 30
0.0
 10
94.57355547765869
 20
-150.1462184954496
 30
0.0
 10
94.66881236782585
 20
-150.2392360735513
 30
0.0
 10
94.66881236782585
 20
-150.3556803009527
 30
0.0
  0
HATCH
  5
153
330
13D
100
AcDbEntity
  8
レイヤー 1
 62
    18
420
        0
440
 33554687
100
AcDbHatch
 10
0.0
 20
0.0
 30
0.0
210
0.0
220
0.0
230
1.0
  2
SOLID
 70
     1
 71
     1
 91
        2
 92
        1
 93
        1
 72
     4
 94
        3
 73
     0
 74
     0
 95
       17
 96
       13
 40
0.0
 40
0.0
 40
0.0
 40
0.0
 40
1.0
 40
1.0
 40
1.0
 40
2.0
 40
2.0
 40
2.0
 40
3.0
 40
3.0
 40
3.0
 40
4.0
 40
4.0
 40
4.0
 40
4.0
 10
94.35358613092549
 20
-150.3556803009527
 10
94.35358613092549
 20
-150.414935943299
 10
94.40009491997637
 20
-150.4614447323499
 10
94.45935056232267
 20
-150.4614447323499
 10
94.51860620466897
 20
-150.4614447323499
 10
94.56718205101099
 20
-150.414935943299
 10
94.56718205101099
 20
-150.3556803009527
 10
94.56718205101099
 20
-150.2964246586064
 10
94.51860620466897
 20
-150.2478488122644
 10
94.45935056232267
 20
-150.2478488122644
 10
94.40009491997637
 20
-150.2478488122644
 10
94.35358613092549
 20
-150.2964246586064
 10
94.35358613092549
 20
-150.3556803009527
 97
        0
 97
        1
330
151
 92
        1
 93
        1
 72
     4
 94
        3
 73
     0
 74
     0
 95
       17
 96
       13
 40
0.0
 40
0.0
 40
0.0
 40
0.0
 40
1.0
 40
1.0
 40
1.0
 40
2.0
 40
2.0
 40
2.0
 40
3.0
 40
3.0
 40
3.0
 40
4.0
 40
4.0
 40
4.0
 40
4.0
 10
94.66881236782585
 20
-150.3556803009527
 10
94.66881236782585
 20
-150.470057471063
 10
94.57562253494984
 20
-150.5651421064559
 10
94.45935056232267
 20
-150.5651421064559
 10
94.34514564698664
 20
-150.5651421064559
 10
94.24988875681947
 20
-150.470057471063
 10
94.24988875681947
 20
-150.3556803009527
 10
94.24988875681947
 20
-150.2392360735513
 10
94.34514564698664
 20
-150.1462184954496
 10
94.45935056232267
 20
-150.1462184954496
 10
94.57355547765869
 20
-150.1462184954496
 10
94.66881236782585
 20
-150.2392360735513
 10
94.66881236782585
 20
-150.3556803009527
 97
        0
 97
        1
330
152
 75
     2
 76
     1
 98
        1
 10
0.0
 20
0.0
450
        0
451
        0
460
0.0
461
0.0
452
        0
462
0.0
453
        0
470

  0
ENDBLK
  5
140
330
13D
100
AcDbEntity
  8
0
100
AcDbBlockEnd
  0
ENDSEC
  0
SECTION
  2
ENTITIES
  0
INSERT
  5
7A
330
70
100
AcDbEntity
  8
レイヤー 1
100
AcDbBlockReference
  2
Block_0
 10
0.0
 20
0.0
 30
0.0
  0
LINE
  5
9F
330
70
100
AcDbEntity
  8
レイヤー 1
  6
AI-Linetype-0
 62
   154
420
    23468
370
    25
100
AcDbLine
 10
82.97012171994332
 20
-145.9703004345487
 30
0.0
 11
92.97088002147738
 21
-145.9703004345487
 31
0.0
  0
LINE
  5
A1
330
70
100
AcDbEntity
  8
レイヤー 1
 62
   250
420
  2299925
370
    25
100
AcDbLine
 10
105.471416701443
 20
-153.3155923771567
 30
0.0
 11
102.9716687096613
 21
-153.3155923771567
 31
0.0
  0
LINE
  5
A2
330
70
100
AcDbEntity
  8
レイヤー 1
 62
   250
420
  2299925
370
    25
100
AcDbLine
 10
82.97012171994332
 20
-144.8155176570596
 30
0.0
 11
82.97012171994332
 21
-145.3157565458233
 31
0.0
  0
LINE
  5
A3
330
70
100
AcDbEntity
  8
レイヤー 1
 62
   250
420
  2299925
370
    25
100
AcDbLine
 10
103.0963756509242
 20
-145.3157565458233
 30
0.0
 11
82.97012171994332
 21
-145.3157565458233
 31
0.0
  0
LINE
  5
A4
330
70
100
AcDbEntity
  8
レイヤー 1
 62
   250
420
  2299925
370
    25
100
AcDbLine
 10
105.471416701443
 20
-152.315467377407
 30
0.0
 11
103.8425711874428
 21
-152.315467377407
 31
0.0
  0
LINE
  5
A5
330
70
100
AcDbEntity
  8
レイヤー 1
 62
   250
420
  2299925
370
    25
100
AcDbLine
 10
82.97012171994332
 20
-144.8155176570596
 30
0.0
 11
83.48411892905238
 21
-145.1975759902976
 31
0.0
  0
LINE
  5
A6
330
70
100
AcDbEntity
  8
レイヤー 1
 62
   250
420
  2299925
370
    25
100
AcDbLine
 10
83.48411892905238
 20
-145.1975759902976
 30
0.0
 11
83.96954113889044
 21
-144.7800282126241
 31
0.0
  0
LINE
  5
A7
330
70
100
AcDbEntity
  8
レイヤー 1
 62
   250
420
  2299925
370
    25
100
AcDbLine
 10
84.4835383479995
 20
-145.1620865458622
 30
0.0
 11
84.96896055783757
 21
-144.7441859904109
 31
0.0
  0
LINE
  5
A8
330
70
100
AcDbEntity
  8
レイヤー 1
 62
   250
420
  2299925
370
    25
100
AcDbLine
 10
83.96954113889044
 20
-144.7800282126241
 30
0.0
 11
84.4835383479995
 21
-145.1620865458622
 31
0.0
  0
LINE
  5
A9
330
70
100
AcDbEntity
  8
レイヤー 1
 62
   250
420
  2299925
370
    25
100
AcDbLine
 10
84.96896055783757
 20
-144.7441859904109
 30
0.0
 11
85.48299304472353
 21
-145.1262443236486
 31
0.0
  0
LINE
  5
AA
330
70
100
AcDbEntity
  8
レイヤー 1
 62
   250
420
  2299925
370
    25
100
AcDbLine
 10
85.48299304472353
 20
-145.1262443236486
 30
0.0
 11
85.9683799767844
 21
-144.7086965459754
 31
0.0
  0
LINE
  5
AB
330
70
100
AcDbEntity
  8
レイヤー 1
 62
   250
420
  2299925
370
    25
100
AcDbLine
 10
85.9683799767844
 20
-144.7086965459754
 30
0.0
 11
86.48205968590188
 21
-145.0904373792132
 31
0.0
  0
LINE
  5
AC
330
70
100
AcDbEntity
  8
レイヤー 1
 62
   250
420
  2299925
370
    25
100
AcDbLine
 10
86.48205968590188
 20
-145.0904373792132
 30
0.0
 11
86.96779939573216
 21
-144.6728896015397
 31
0.0
  0
LINE
  5
AD
330
70
100
AcDbEntity
  8
レイヤー 1
 62
   250
420
  2299925
370
    25
100
AcDbLine
 10
86.96779939573216
 20
-144.6728896015397
 30
0.0
 11
87.48183188261778
 21
-145.0545951569999
 31
0.0
  0
LINE
  5
AE
330
70
100
AcDbEntity
  8
レイヤー 1
 62
   250
420
  2299925
370
    25
100
AcDbLine
 10
87.48183188261778
 20
-145.0545951569999
 30
0.0
 11
87.96690131468707
 21
-144.6370473793264
 31
0.0
  0
LINE
  5
AF
330
70
100
AcDbEntity
  8
レイヤー 1
 62
   250
420
  2299925
370
    25
100
AcDbLine
 10
87.96690131468707
 20
-144.6370473793264
 30
0.0
 11
88.48089852379613
 21
-145.0191057125644
 31
0.0
  0
LINE
  5
B0
330
70
100
AcDbEntity
  8
レイヤー 1
 62
   250
420
  2299925
370
    25
100
AcDbLine
 10
88.48089852379613
 20
-145.0191057125644
 30
0.0
 11
88.96667351140299
 21
-144.6015579348909
 31
0.0
  0
LINE
  5
B1
330
70
100
AcDbEntity
  8
レイヤー 1
 62
   250
420
  2299925
370
    25
100
AcDbLine
 10
88.96667351140299
 20
-144.6015579348909
 30
0.0
 11
89.48067072051205
 21
-144.9836162681286
 31
0.0
  0
LINE
  5
B2
330
70
100
AcDbEntity
  8
レイヤー 1
 62
   250
420
  2299925
370
    25
100
AcDbLine
 10
89.48067072051205
 20
-144.9836162681286
 30
0.0
 11
89.96574015258133
 21
-144.5657509904555
 31
0.0
  0
LINE
  5
B3
330
70
100
AcDbEntity
  8
レイヤー 1
 62
   250
420
  2299925
370
    25
100
AcDbLine
 10
90.47973736169073
 20
-144.9478093236932
 30
0.0
 11
90.96551234929725
 21
-144.5302615460197
 31
0.0
  0
LINE
  5
B4
330
70
100
AcDbEntity
  8
レイヤー 1
 62
   250
420
  2299925
370
    25
100
AcDbLine
 10
89.96574015258133
 20
-144.5657509904555
 30
0.0
 11
90.47973736169073
 21
-144.9478093236932
 31
0.0
  0
LINE
  5
B5
330
70
100
AcDbEntity
  8
レイヤー 1
 62
   250
420
  2299925
370
    25
100
AcDbLine
 10
90.96551234929725
 20
-144.5302615460197
 30
0.0
 11
91.47950955840631
 21
-144.91196710148
 31
0.0
  0
LINE
  5
B6
330
70
100
AcDbEntity
  8
レイヤー 1
 62
   250
420
  2299925
370
    25
100
AcDbLine
 10
91.47950955840631
 20
-144.91196710148
 30
0.0
 11
91.9645789904756
 21
-144.4944193238065
 31
0.0
  0
LINE
  5
B7
330
70
100
AcDbEntity
  8
レイヤー 1
 62
   250
420
  2299925
370
    25
100
AcDbLine
 10
92.47857619958466
 20
-144.8761601570446
 30
0.0
 11
92.96399840942273
 21
-144.4586123793711
 31
0.0
  0
LINE
  5
B8
330
70
100
AcDbEntity
  8
レイヤー 1
 62
   250
420
  2299925
370
    25
100
AcDbLine
 10
91.9645789904756
 20
-144.4944193238065
 30
0.0
 11
92.47857619958466
 21
-144.8761601570446
 31
0.0
  0
LINE
  5
B9
330
70
100
AcDbEntity
  8
レイヤー 1
 62
   250
420
  2299925
370
    25
100
AcDbLine
 10
93.47799561853179
 20
-144.8406707126091
 30
0.0
 11
93.96377060613863
 21
-144.4231229349356
 31
0.0
  0
LINE
  5
BA
330
70
100
AcDbEntity
  8
レイヤー 1
 62
   250
420
  2299925
370
    25
100
AcDbLine
 10
92.96399840942273
 20
-144.4586123793711
 30
0.0
 11
93.47799561853179
 21
-144.8406707126091
 31
0.0
  0
LINE
  5
BB
330
70
100
AcDbEntity
  8
レイヤー 1
 62
   250
420
  2299925
370
    25
100
AcDbLine
 10
93.96377060613863
 20
-144.4231229349356
 30
0.0
 11
94.47776781524771
 21
-144.8051812681733
 31
0.0
  0
LINE
  5
BC
330
70
100
AcDbEntity
  8
レイヤー 1
 62
   250
420
  2299925
370
    25
100
AcDbLine
 10
94.47776781524771
 20
-144.8051812681733
 30
0.0
 11
94.962837247317
 21
-144.3872807127223
 31
0.0
  0
LINE
  5
BD
330
70
100
AcDbEntity
  8
レイヤー 1
 62
   250
420
  2299925
370
    25
100
AcDbLine
 10
94.962837247317
 20
-144.3872807127223
 30
0.0
 11
95.47686973420294
 21
-144.76933904596
 31
0.0
  0
LINE
  5
BE
330
70
100
AcDbEntity
  8
レイヤー 1
 62
   250
420
  2299925
370
    25
100
AcDbLine
 10
95.47686973420294
 20
-144.76933904596
 30
0.0
 11
95.9626094440329
 21
-144.3517912682868
 31
0.0
  0
LINE
  5
BF
330
70
100
AcDbEntity
  8
レイヤー 1
 62
   250
420
  2299925
370
    25
100
AcDbLine
 10
95.9626094440329
 20
-144.3517912682868
 30
0.0
 11
96.47628915315006
 21
-144.7335321015246
 31
0.0
  0
LINE
  5
C0
330
70
100
AcDbEntity
  8
レイヤー 1
 62
   250
420
  2299925
370
    25
100
AcDbLine
 10
96.47628915315006
 20
-144.7335321015246
 30
0.0
 11
96.96135858521936
 21
-144.3159843238514
 31
0.0
  0
LINE
  5
C1
330
70
100
AcDbEntity
  8
レイヤー 1
 62
   250
420
  2299925
370
    25
100
AcDbLine
 10
96.96135858521936
 20
-144.3159843238514
 30
0.0
 11
97.47535579432842
 21
-144.6976898793113
 31
0.0
  0
LINE
  5
C2
330
70
100
AcDbEntity
  8
レイヤー 1
 62
   250
420
  2299925
370
    25
100
AcDbLine
 10
97.47535579432842
 20
-144.6976898793113
 30
0.0
 11
97.96109550415838
 21
-144.2801421016382
 31
0.0
  0
LINE
  5
C3
330
70
100
AcDbEntity
  8
レイヤー 1
 62
   250
420
  2299925
370
    25
100
AcDbLine
 10
97.96109550415838
 20
-144.2801421016382
 30
0.0
 11
98.47442243550677
 21
-144.6622004348759
 31
0.0
  0
LINE
  5
C4
330
70
100
AcDbEntity
  8
レイヤー 1
 62
   250
420
  2299925
370
    25
100
AcDbLine
 10
98.47442243550677
 20
-144.6622004348759
 30
0.0
 11
98.96019742311361
 21
-144.2446526572024
 31
0.0
  0
LINE
  5
C5
330
70
100
AcDbEntity
  8
レイヤー 1
 62
   250
420
  2299925
370
    25
100
AcDbLine
 10
98.96019742311361
 20
-144.2446526572024
 30
0.0
 11
99.47419463222267
 21
-144.6267109904401
 31
0.0
  0
LINE
  5
C6
330
70
100
AcDbEntity
  8
レイヤー 1
 62
   250
420
  2299925
370
    25
100
AcDbLine
 10
99.47419463222267
 20
-144.6267109904401
 30
0.0
 11
99.95926406429198
 21
-144.208845712767
 31
0.0
  0
LINE
  5
C7
330
70
100
AcDbEntity
  8
レイヤー 1
 62
   250
420
  2299925
370
    25
100
AcDbLine
 10
99.95926406429198
 20
-144.208845712767
 30
0.0
 11
100.4732612734013
 21
-144.5909040460047
 31
0.0
  0
LINE
  5
C8
330
70
100
AcDbEntity
  8
レイヤー 1
 62
   250
420
  2299925
370
    25
100
AcDbLine
 10
100.4732612734013
 20
-144.5909040460047
 30
0.0
 11
100.9590362610079
 21
-144.1733562683312
 31
0.0
  0
LINE
  5
C9
330
70
100
AcDbEntity
  8
レイヤー 1
 62
   250
420
  2299925
370
    25
100
AcDbLine
 10
100.9590362610079
 20
-144.1733562683312
 30
0.0
 11
101.4730334701169
 21
-144.5550618237914
 31
0.0
  0
LINE
  5
CA
330
70
100
AcDbEntity
  8
レイヤー 1
 62
   250
420
  2299925
370
    25
100
AcDbLine
 10
101.4730334701169
 20
-144.5550618237914
 30
0.0
 11
101.9581029021862
 21
-144.1375140461179
 31
0.0
  0
LINE
  5
CB
330
70
100
AcDbEntity
  8
レイヤー 1
 62
   250
420
  2299925
370
    25
100
AcDbLine
 10
101.9581029021862
 20
-144.1375140461179
 30
0.0
 11
102.4721353890721
 21
-144.5192196015782
 31
0.0
  0
LINE
  5
CC
330
70
100
AcDbEntity
  8
レイヤー 1
 62
   250
420
  2299925
370
    25
100
AcDbLine
 10
102.4721353890721
 20
-144.5192196015782
 30
0.0
 11
102.9578750989021
 21
-144.1016718239047
 31
0.0
  0
LINE
  5
CD
330
70
100
AcDbEntity
  8
レイヤー 1
 62
   250
420
  2299925
370
    25
100
AcDbLine
 10
103.0318723081201
 20
-144.0534471016945
 30
0.0
 11
103.9714409063772
 21
-144.0534471016945
 31
0.0
  0
LINE
  5
CE
330
70
100
AcDbEntity
  8
レイヤー 1
 62
   250
420
  2299925
370
    25
100
AcDbLine
 10
103.0963756509242
 20
-145.3157565458233
 30
0.0
 11
102.9716687096613
 21
-153.3155923771567
 31
0.0
  0
LINE
  5
CF
330
70
100
AcDbEntity
  8
レイヤー 1
 62
   250
420
  2299925
370
    25
100
AcDbLine
 10
103.9714409063772
 20
-144.0534471016945
 30
0.0
 11
103.8425711874428
 21
-152.315467377407
 31
0.0
  0
LINE
  5
D0
330
70
100
AcDbEntity
  8
レイヤー 1
 62
   250
420
  2299925
370
    25
100
AcDbLine
 10
105.471416701443
 20
-152.315467377407
 30
0.0
 11
105.471416701443
 21
-153.3155923771567
 31
0.0
  0
CIRCLE
  5
D1
330
70
100
AcDbEntity
  8
レイヤー 1
 62
   250
420
  2299925
370
     9
100
AcDbCircle
 10
82.97012171994341
 20
-140.053370436028
 30
0.0
 40
0.0999066653796162
  0
CIRCLE
  5
D2
330
70
100
AcDbEntity
  8
レイヤー 1
 62
   250
420
  2299925
370
     9
100
AcDbCircle
 10
78.97036265531909
 20
-144.8155176570596
 30
0.0
 40
0.0999066653797766
  0
SPLINE
  5
D3
330
70
100
AcDbEntity
  8
レイヤー 1
 62
   250
420
  2299925
370
     9
100
AcDbSpline
210
0.0
220
0.0
230
1.0
 70
     9
 71
     3
 72
    17
 73
    13
 74
     0
 42
0.0000000001
 43
0.0000000001
 40
0.0
 40
0.0
 40
0.0
 40
0.0
 40
1.0
 40
1.0
 40
1.0
 40
2.0
 40
2.0
 40
2.0
 40
3.0
 40
3.0
 40
3.0
 40
4.0
 40
4.0
 40
4.0
 40
4.0
 10
79.07026931943716
 20
-145.3157565458233
 30
0.0
 10
79.07026931943716
 20
-145.2606173791706
 30
0.0
 10
79.02550182057895
 20
-145.2158146014042
 30
0.0
 10
78.97036265531901
 20
-145.2158146014042
 30
0.0
 10
78.91525876783593
 20
-145.2158146014042
 30
0.0
 10
78.87045599120117
 20
-145.2606173791706
 30
0.0
 10
78.87045599120117
 20
-145.3157565458233
 30
0.0
 10
78.87045599120117
 20
-145.3708604346986
 30
0.0
 10
78.91525876783593
 20
-145.4156632124653
 30
0.0
 10
78.97036265531901
 20
-145.4156632124653
 30
0.0
 10
79.02550182057895
 20
-145.4156632124653
 30
0.0
 10
79.07026931943716
 20
-145.3708604346986
 30
0.0
 10
79.07026931943716
 20
-145.3157565458233
 30
0.0
  0
CIRCLE
  5
D4
330
70
100
AcDbEntity
  8
レイヤー 1
 62
   250
420
  2299925
370
     9
100
AcDbCircle
 10
78.97036265531909
 20
-153.3155923771569
 30
0.0
 40
0.0999066653798568
  0
CIRCLE
  5
D5
330
70
100
AcDbEntity
  8
レイヤー 1
 62
   250
420
  2299925
370
     9
100
AcDbCircle
 10
103.9714409063772
 20
-140.053370436028
 30
0.0
 40
0.0999066653797365
  0
CIRCLE
  5
D6
330
70
100
AcDbEntity
  8
レイヤー 1
 62
   250
420
  2299925
370
     9
100
AcDbCircle
 10
102.9716687096613
 20
-157.3157043206014
 30
0.0
 40
0.0999066653797365
  0
SPLINE
  5
D7
330
70
100
AcDbEntity
  8
レイヤー 1
 62
   250
420
  2299925
370
     9
100
AcDbSpline
210
0.0
220
0.0
230
1.0
 70
     9
 71
     3
 72
    17
 73
    13
 74
     0
 42
0.0000000001
 43
0.0000000001
 40
0.0
 40
0.0
 40
0.0
 40
0.0
 40
1.0
 40
1.0
 40
1.0
 40
2.0
 40
2.0
 40
2.0
 40
3.0
 40
3.0
 40
3.0
 40
4.0
 40
4.0
 40
4.0
 40
4.0
 10
105.5709705877921
 20
-157.3157043206014
 30
0.0
 10
105.5709705877921
 20
-157.2605651539483
 30
0.0
 10
105.5262030889342
 20
-157.2157976539597
 30
0.0
 10
105.471416701443
 20
-157.2157976539597
 30
0.0
 10
105.4163128139599
 20
-157.2157976539597
 30
0.0
 10
105.3715100373252
 20
-157.2605651539483
 30
0.0
 10
105.3715100373252
 20
-157.3157043206014
 30
0.0
 10
105.3715100373252
 20
-157.3708082094763
 30
0.0
 10
105.4163128139599
 20
-157.415610987243
 30
0.0
 10
105.471416701443
 20
-157.415610987243
 30
0.0
 10
105.5262030889342
 20
-157.415610987243
 30
0.0
 10
105.5709705877921
 20
-157.3708082094763
 30
0.0
 10
105.5709705877921
 20
-157.3157043206014
 30
0.0
  0
SPLINE
  5
D8
330
70
100
AcDbEntity
  8
レイヤー 1
 62
   250
420
  2299925
370
     9
100
AcDbSpline
210
0.0
220
0.0
230
1.0
 70
     9
 71
     3
 72
    17
 73
    13
 74
     0
 42
0.0000000001
 43
0.0000000001
 40
0.0
 40
0.0
 40
0.0
 40
0.0
 40
1.0
 40
1.0
 40
1.0
 40
2.0
 40
2.0
 40
2.0
 40
3.0
 40
3.0
 40
3.0
 40
4.0
 40
4.0
 40
4.0
 40
4.0
 10
105.5709705877921
 20
-140.053370436028
 30
0.0
 10
105.5709705877921
 20
-139.9982312693749
 30
0.0
 10
105.5262030889342
 20
-139.9534637693864
 30
0.0
 10
105.471416701443
 20
-139.9534637693864
 30
0.0
 10
105.4163128139599
 20
-139.9534637693864
 30
0.0
 10
105.3715100373252
 20
-139.9982312693749
 30
0.0
 10
105.3715100373252
 20
-140.053370436028
 30
0.0
 10
105.3715100373252
 20
-140.1088271026807
 30
0.0
 10
105.4163128139599
 20
-140.1532771026696
 30
0.0
 10
105.471416701443
 20
-140.1532771026696
 30
0.0
 10
105.5262030889342
 20
-140.1532771026696
 30
0.0
 10
105.5709705877921
 20
-140.1088271026807
 30
0.0
 10
105.5709705877921
 20
-140.053370436028
 30
0.0
  0
LINE
  5
D9
330
70
100
AcDbEntity
  8
レイヤー 1
 62
   250
420
  2299925
370
     9
100
AcDbLine
 10
78.97036265531901
 20
-144.8155176570596
 30
0.0
 11
78.97036265531901
 21
-139.5579646028185
 31
0.0
  0
LINE
  5
DA
330
70
100
AcDbEntity
  8
レイヤー 1
 62
   250
420
  2299925
370
     9
100
AcDbLine
 10
78.97036265531901
 20
-144.8155176570596
 30
0.0
 11
78.97036265531901
 21
-145.3157565458233
 31
0.0
  0
LINE
  5
DB
330
70
100
AcDbEntity
  8
レイヤー 1
 62
   250
420
  2299925
370
     9
100
AcDbLine
 10
80.43040400695913
 20
-144.8155176570596
 30
0.0
 11
77.9702729586112
 21
-144.8155176570596
 31
0.0
  0
LINE
  5
DC
330
70
100
AcDbEntity
  8
レイヤー 1
 62
   250
420
  2299925
370
     9
100
AcDbLine
 10
80.43040400695913
 20
-145.3157565458233
 30
0.0
 11
77.9702729586112
 21
-145.3157565458233
 31
0.0
  0
INSERT
  5
DE
330
70
100
AcDbEntity
  8
レイヤー 1
100
AcDbBlockReference
  2
Block_2
 10
0.0
 20
0.0
 30
0.0
  0
LINE
  5
EC
330
70
100
AcDbEntity
  8
レイヤー 1
 62
   250
420
  2299925
370
     9
100
AcDbLine
 10
82.97012171994332
 20
-140.053370436028
 30
0.0
 11
103.9714409063772
 21
-140.053370436028
 31
0.0
  0
LINE
  5
ED
330
70
100
AcDbEntity
  8
レイヤー 1
 62
   250
420
  2299925
370
     9
100
AcDbLine
 10
82.97012171994332
 20
-142.2754471021387
 30
0.0
 11
82.97012171994332
 21
-139.0535982140558
 31
0.0
  0
INSERT
  5
EF
330
70
100
AcDbEntity
  8
レイヤー 1
100
AcDbBlockReference
  2
Block_4
 10
0.0
 20
0.0
 30
0.0
  0
LINE
  5
FA
330
70
100
AcDbEntity
  8
レイヤー 1
 62
   250
420
  2299925
370
     9
100
AcDbLine
 10
78.97036265531901
 20
-145.3157565458233
 30
0.0
 11
78.97036265531901
 21
-153.3155923771567
 31
0.0
  0
LINE
  5
FB
330
70
100
AcDbEntity
  8
レイヤー 1
 62
   250
420
  2299925
370
     9
100
AcDbLine
 10
100.4319509966771
 20
-153.3155923771567
 30
0.0
 11
77.9702729586112
 21
-153.3155923771567
 31
0.0
  0
INSERT
  5
FD
330
70
100
AcDbEntity
  8
レイヤー 1
100
AcDbBlockReference
  2
Block_6
 10
0.0
 20
0.0
 30
0.0
  0
LINE
  5
104
330
70
100
AcDbEntity
  8
レイヤー 1
 62
   250
420
  2299925
370
     9
100
AcDbLine
 10
103.9714409063772
 20
-140.053370436028
 30
0.0
 11
105.471416701443
 21
-140.053370436028
 31
0.0
  0
LINE
  5
105
330
70
100
AcDbEntity
  8
レイヤー 1
 62
   250
420
  2299925
370
     9
100
AcDbLine
 10
103.9714409063772
 20
-141.5133765467742
 30
0.0
 11
103.9714409063772
 21
-139.0535982140558
 31
0.0
  0
LINE
  5
106
330
70
100
AcDbEntity
  8
レイヤー 1
 62
   250
420
  2299925
370
     9
100
AcDbLine
 10
105.471416701443
 20
-149.7757496002645
 30
0.0
 11
105.471416701443
 21
-139.0535982140558
 31
0.0
  0
INSERT
  5
108
330
70
100
AcDbEntity
  8
レイヤー 1
100
AcDbBlockReference
  2
Block_7
 10
0.0
 20
0.0
 30
0.0
  0
LINE
  5
115
330
70
100
AcDbEntity
  8
レイヤー 1
 62
   250
420
  2299925
370
     9
100
AcDbLine
 10
105.471416701443
 20
-157.3157043206014
 30
0.0
 11
105.471416701443
 21
-157.3157043206014
 31
0.0
  0
LINE
  5
116
330
70
100
AcDbEntity
  8
レイヤー 1
 62
   250
420
  2299925
370
     9
100
AcDbLine
 10
105.471416701443
 20
-157.3157043206014
 30
0.0
 11
102.9716687096613
 21
-157.3157043206014
 31
0.0
  0
LINE
  5
117
330
70
100
AcDbEntity
  8
レイヤー 1
 62
   250
420
  2299925
370
     9
100
AcDbLine
 10
105.471416701443
 20
-155.855662932077
 30
0.0
 11
105.471416701443
 21
-158.3157940425735
 31
0.0
  0
LINE
  5
118
330
70
100
AcDbEntity
  8
レイヤー 1
 62
   250
420
  2299925
370
     9
100
AcDbLine
 10
102.9716687096613
 20
-155.855662932077
 30
0.0
 11
102.9716687096613
 21
-158.3157940425735
 31
0.0
  0
INSERT
  5
11A
330
70
100
AcDbEntity
  8
レイヤー 1
100
AcDbBlockReference
  2
Block_9
 10
0.0
 20
0.0
 30
0.0
  0
LINE
  5
127
330
70
100
AcDbEntity
  8
レイヤー 1
 62
   250
420
  2299925
370
     9
100
AcDbLine
 10
96.76496720134082
 20
-150.8468534888851
 30
0.0
 11
104.7644853305894
 21
-150.8468534888851
 31
0.0
  0
INSERT
  5
129
330
70
100
AcDbEntity
  8
レイヤー 1
100
AcDbBlockReference
  2
Block_11
 10
0.0
 20
0.0
 30
0.0
  0
INSERT
  5
12F
330
70
100
AcDbEntity
  8
レイヤー 1
100
AcDbBlockReference
  2
Block_12
 10
0.0
 20
0.0
 30
0.0
  0
ENDSEC
  0
SECTION
  2
OBJECTS
  0
DICTIONARY
  5
C
330
0
100
AcDbDictionary
281
     1
  3
ACAD_COLOR
350
63
  3
ACAD_DETAILVIEWSTYLE
350
6A
  3
ACAD_GROUP
350
D
  3
ACAD_LAYOUT
350
62
  3
ACAD_MATERIAL
350
10
  3
ACAD_MLEADERSTYLE
350
66
  3
ACAD_MLINESTYLE
350
5F
  3
ACAD_PLOTSETTINGS
350
61
  3
ACAD_PLOTSTYLENAME
350
E
  3
ACAD_SCALELIST
350
42
  3
ACAD_SECTIONVIEWSTYLE
350
68
  3
ACAD_TABLESTYLE
350
64
  3
ACAD_VISUALSTYLE
350
29
  3
ACDB_RECOMPOSE_DATA
350
15C
  3
AcDbVariableDictionary
350
154
  0
DICTIONARY
  5
63
102
{ACAD_REACTORS
330
C
102
}
330
C
100
AcDbDictionary
281
     1
  0
DICTIONARY
  5
6A
102
{ACAD_REACTORS
330
C
102
}
330
C
100
AcDbDictionary
281
     1
  3
Imperial24
350
6B
  0
DICTIONARY
  5
D
102
{ACAD_REACTORS
330
C
102
}
330
C
100
AcDbDictionary
281
     1
  0
DICTIONARY
  5
62
102
{ACAD_REACTORS
330
C
102
}
330
C
100
AcDbDictionary
281
     1
  3
Layout1
350
6F
  3
Layout2
350
77
  3
Model
350
73
  0
DICTIONARY
  5
10
102
{ACAD_REACTORS
330
C
102
}
330
C
100
AcDbDictionary
281
     1
  3
ByBlock
350
19
  3
ByLayer
350
11
  3
Global
350
21
  0
DICTIONARY
  5
66
102
{ACAD_REACTORS
330
C
102
}
330
C
100
AcDbDictionary
281
     1
  3
Standard
350
67
  0
DICTIONARY
  5
5F
102
{ACAD_REACTORS
330
C
102
}
330
C
100
AcDbDictionary
281
     1
  3
Standard
350
60
  0
DICTIONARY
  5
61
102
{ACAD_REACTORS
330
C
102
}
330
C
100
AcDbDictionary
281
     1
  0
ACDBDICTIONARYWDFLT
  5
E
102
{ACAD_REACTORS
330
C
102
}
330
C
100
AcDbDictionary
281
     1
  3
Normal
350
F
100
AcDbDictionaryWithDefault
340
F
  0
DICTIONARY
  5
42
102
{ACAD_REACTORS
330
C
102
}
330
C
100
AcDbDictionary
281
     1
  3
A0
350
43
  3
A1
350
44
  3
A2
350
45
  3
A3
350
46
  3
A4
350
47
  3
A5
350
48
  3
A6
350
49
  3
A7
350
4A
  3
A8
350
4B
  3
A9
350
4C
  3
B0
350
4D
  3
B1
350
4E
  3
B2
350
4F
  3
B3
350
50
  3
B4
350
51
  3
B5
350
52
  3
B6
350
53
  0
DICTIONARY
  5
68
102
{ACAD_REACTORS
330
C
102
}
330
C
100
AcDbDictionary
281
     1
  3
Imperial24
350
69
  0
DICTIONARY
  5
64
102
{ACAD_REACTORS
330
C
102
}
330
C
100
AcDbDictionary
281
     1
  3
Standard
350
65
  0
DICTIONARY
  5
29
102
{ACAD_REACTORS
330
C
102
}
330
C
100
AcDbDictionary
281
     1
  3
2dWireframe
350
2F
  3
Basic
350
2E
  3
Brighten
350
35
  3
ColorChange
350
39
  3
Conceptual
350
32
  3
Dim
350
34
  3
EdgeColorOff
350
41
  3
Facepattern
350
38
  3
Flat
350
2A
  3
FlatWithEdges
350
2B
  3
Gouraud
350
2C
  3
GouraudWithEdges
350
2D
  3
Hidden
350
31
  3
JitterOff
350
3F
  3
Linepattern
350
37
  3
OverhangOff
350
40
  3
Realistic
350
33
  3
Shaded
350
3E
  3
Shaded with edges
350
3D
  3
Shades of Gray
350
3A
  3
Sketchy
350
3B
  3
Thicken
350
36
  3
Wireframe
350
30
  3
X-Ray
350
3C
  0
XRECORD
  5
15C
102
{ACAD_REACTORS
330
C
102
}
330
C
100
AcDbXrecord
280
     1
 90
        1
330
65
  0
DICTIONARY
  5
154
102
{ACAD_REACTORS
330
C
102
}
330
C
100
AcDbDictionary
281
     1
  3
CANNOSCALE
350
159
  3
CMLEADERSTYLE
350
156
  3
CTABLESTYLE
350
155
  3
CVIEWDETAILSTYLE
350
157
  3
CVIEWSECTIONSTYLE
350
158
  0
ACDBDETAILVIEWSTYLE
  5
6B
102
{ACAD_XDICTIONARY
360
191
102
}
102
{ACAD_REACTORS
330
6A
102
}
330
6A
100
AcDbModelDocViewStyle
 70
     0
  3
Imperial24
290
     0
100
AcDbDetailViewStyle
 70
     0
 71
     0
 90
        3
 71
     1
340
55
 62
   256
 40
0.24
340
0
 62
   256
 40
0.24
300

 40
0.36
280
     3
 71
     2
340
5D
 90
       25
 62
   256
 71
     3
340
55
 62
   256
 40
0.24
 90
        1
 40
0.75
 90
        1
300
%<\AcVar ViewType \f "%tc1">% %<\AcVar ViewDetailId>%\PSCALE %<\AcVar ViewScale \f "%sn">%
 71
     4
340
5D
 90
       25
 62
   256
340
5D
 90
       25
 62
   256
280
     0
  0
LAYOUT
  5
6F
102
{ACAD_REACTORS
330
62
102
}
330
62
100
AcDbPlotSettings
  1

  2

  4

  6

 40
0.0
 41
0.0
 42
0.0
 43
0.0
 44
0.0
 45
0.0
 46
0.0
 47
0.0
 48
0.0
 49
0.0
140
0.0
141
0.0
142
1.0
143
1.0
 70
   688
 72
     0
 73
     0
 74
     5
  7

 75
    16
147
1.0
 76
     0
 77
     2
 78
   300
148
0.0
149
0.0
100
AcDbLayout
  1
Layout1
 70
     1
 71
     1
 10
0.0
 20
0.0
 11
12.0
 21
9.0
 12
0.0
 22
0.0
 32
0.0
 14
0.0
 24
0.0
 34
0.0
 15
0.0
 25
0.0
 35
0.0
146
0.0
 13
0.0
 23
0.0
 33
0.0
 16
1.0
 26
0.0
 36
0.0
 17
0.0
 27
1.0
 37
0.0
 76
     0
330
6C
  0
LAYOUT
  5
77
102
{ACAD_REACTORS
330
62
102
}
330
62
100
AcDbPlotSettings
  1

  2

  4

  6

 40
0.0
 41
0.0
 42
0.0
 43
0.0
 44
0.0
 45
0.0
 46
0.0
 47
0.0
 48
0.0
 49
0.0
140
0.0
141
0.0
142
1.0
143
1.0
 70
   688
 72
     0
 73
     0
 74
     5
  7

 75
    16
147
1.0
 76
     0
 77
     2
 78
   300
148
0.0
149
0.0
100
AcDbLayout
  1
Layout2
 70
     1
 71
     2
 10
0.0
 20
0.0
 11
12.0
 21
9.0
 12
0.0
 22
0.0
 32
0.0
 14
0.0
 24
0.0
 34
0.0
 15
0.0
 25
0.0
 35
0.0
146
0.0
 13
0.0
 23
0.0
 33
0.0
 16
1.0
 26
0.0
 36
0.0
 17
0.0
 27
1.0
 37
0.0
 76
     0
330
74
  0
LAYOUT
  5
73
102
{ACAD_REACTORS
330
62
102
}
330
62
100
AcDbPlotSettings
  1

  2

  4

  6

 40
0.0
 41
0.0
 42
0.0
 43
0.0
 44
0.0
 45
0.0
 46
0.0
 47
0.0
 48
0.0
 49
0.0
140
0.0
141
0.0
142
1.0
143
1.0
 70
  1712
 72
     0
 73
     0
 74
     0
  7

 75
     0
147
1.0
 76
     0
 77
     2
 78
   300
148
0.0
149
0.0
100
AcDbLayout
  1
Model
 70
     1
 71
     0
 10
0.0
 20
0.0
 11
12.0
 21
9.0
 12
0.0
 22
0.0
 32
0.0
 14
0.0
 24
0.0
 34
0.0
 15
0.0
 25
0.0
 35
0.0
146
0.0
 13
0.0
 23
0.0
 33
0.0
 16
1.0
 26
0.0
 36
0.0
 17
0.0
 27
1.0
 37
0.0
 76
     0
330
70
  0
MATERIAL
  5
19
102
{ACAD_XDICTIONARY
360
1A
102
}
102
{ACAD_REACTORS
330
10
102
}
330
10
100
AcDbMaterial
  1
ByBlock
 72
     0
 43
0.0208333333333333
 43
0.0
 43
0.0
 43
0.0
 43
0.0
 43
0.0208333333333333
 43
0.0
 43
0.0
 43
0.0
 43
0.0
 43
1.0
 43
0.0
 43
0.0
 43
0.0
 43
0.0
 43
1.0
 77
     0
 47
0.0208333333333333
 47
0.0
 47
0.0
 47
0.0
 47
0.0
 47
0.0208333333333333
 47
0.0
 47
0.0
 47
0.0
 47
0.0
 47
1.0
 47
0.0
 47
0.0
 47
0.0
 47
0.0
 47
1.0
171
     0
 49
0.0208333333333333
 49
0.0
 49
0.0
 49
0.0
 49
0.0
 49
0.0208333333333333
 49
0.0
 49
0.0
 49
0.0
 49
0.0
 49
1.0
 49
0.0
 49
0.0
 49
0.0
 49
0.0
 49
1.0
175
     0
142
0.0208333333333333
142
0.0
142
0.0
142
0.0
142
0.0
142
0.0208333333333333
142
0.0
142
0.0
142
0.0
142
0.0
142
1.0
142
0.0
142
0.0
142
0.0
142
0.0
142
1.0
179
     0
144
0.0208333333333333
144
0.0
144
0.0
144
0.0
144
0.0
144
0.0208333333333333
144
0.0
144
0.0
144
0.0
144
0.0
144
1.0
144
0.0
144
0.0
144
0.0
144
0.0
144
1.0
147
0.0208333333333333
147
0.0
147
0.0
147
0.0
147
0.0
147
0.0208333333333333
147
0.0
147
0.0
147
0.0
147
0.0
147
1.0
147
0.0
147
0.0
147
0.0
147
0.0
147
1.0
  0
MATERIAL
  5
11
102
{ACAD_XDICTIONARY
360
12
102
}
102
{ACAD_REACTORS
330
10
102
}
330
10
100
AcDbMaterial
  1
ByLayer
 72
     0
 43
0.0208333333333333
 43
0.0
 43
0.0
 43
0.0
 43
0.0
 43
0.0208333333333333
 43
0.0
 43
0.0
 43
0.0
 43
0.0
 43
1.0
 43
0.0
 43
0.0
 43
0.0
 43
0.0
 43
1.0
 77
     0
 47
0.0208333333333333
 47
0.0
 47
0.0
 47
0.0
 47
0.0
 47
0.0208333333333333
 47
0.0
 47
0.0
 47
0.0
 47
0.0
 47
1.0
 47
0.0
 47
0.0
 47
0.0
 47
0.0
 47
1.0
171
     0
 49
0.0208333333333333
 49
0.0
 49
0.0
 49
0.0
 49
0.0
 49
0.0208333333333333
 49
0.0
 49
0.0
 49
0.0
 49
0.0
 49
1.0
 49
0.0
 49
0.0
 49
0.0
 49
0.0
 49
1.0
175
     0
142
0.0208333333333333
142
0.0
142
0.0
142
0.0
142
0.0
142
0.0208333333333333
142
0.0
142
0.0
142
0.0
142
0.0
142
1.0
142
0.0
142
0.0
142
0.0
142
0.0
142
1.0
179
     0
144
0.0208333333333333
144
0.0
144
0.0
144
0.0
144
0.0
144
0.0208333333333333
144
0.0
144
0.0
144
0.0
144
0.0
144
1.0
144
0.0
144
0.0
144
0.0
144
0.0
144
1.0
147
0.0208333333333333
147
0.0
147
0.0
147
0.0
147
0.0
147
0.0208333333333333
147
0.0
147
0.0
147
0.0
147
0.0
147
1.0
147
0.0
147
0.0
147
0.0
147
0.0
147
1.0
  0
MATERIAL
  5
21
102
{ACAD_XDICTIONARY
360
22
102
}
102
{ACAD_REACTORS
330
10
102
}
330
10
100
AcDbMaterial
  1
Global
 72
     0
 43
0.0208333333333333
 43
0.0
 43
0.0
 43
0.0
 43
0.0
 43
0.0208333333333333
 43
0.0
 43
0.0
 43
0.0
 43
0.0
 43
1.0
 43
0.0
 43
0.0
 43
0.0
 43
0.0
 43
1.0
 77
     0
 47
0.0208333333333333
 47
0.0
 47
0.0
 47
0.0
 47
0.0
 47
0.0208333333333333
 47
0.0
 47
0.0
 47
0.0
 47
0.0
 47
1.0
 47
0.0
 47
0.0
 47
0.0
 47
0.0
 47
1.0
171
     0
 49
0.0208333333333333
 49
0.0
 49
0.0
 49
0.0
 49
0.0
 49
0.0208333333333333
 49
0.0
 49
0.0
 49
0.0
 49
0.0
 49
1.0
 49
0.0
 49
0.0
 49
0.0
 49
0.0
 49
1.0
175
     0
142
0.0208333333333333
142
0.0
142
0.0
142
0.0
142
0.0
142
0.0208333333333333
142
0.0
142
0.0
142
0.0
142
0.0
142
1.0
142
0.0
142
0.0
142
0.0
142
0.0
142
1.0
179
     0
144
0.0208333333333333
144
0.0
144
0.0
144
0.0
144
0.0
144
0.0208333333333333
144
0.0
144
0.0
144
0.0
144
0.0
144
1.0
144
0.0
144
0.0
144
0.0
144
0.0
144
1.0
147
0.0208333333333333
147
0.0
147
0.0
147
0.0
147
0.0
147
0.0208333333333333
147
0.0
147
0.0
147
0.0
147
0.0
147
1.0
147
0.0
147
0.0
147
0.0
147
0.0
147
1.0
  0
MLEADERSTYLE
  5
67
102
{ACAD_XDICTIONARY
360
18D
102
}
102
{ACAD_REACTORS
330
66
102
}
330
66
100
AcDbMLeaderStyle
179
     2
170
     2
171
     1
172
     0
 90
        2
 40
0.0
 41
0.0
173
     1
 91
-1056964608
340
5B
 92
       -2
290
     1
 42
0.09
291
     1
 43
0.36
  3
Standard
 44
0.18
300

342
55
174
     1
178
     6
175
     1
176
     0
 93
-1056964608
 45
0.18
292
     0
297
     0
 46
0.18
 94
-1056964608
 47
1.0
 49
1.0
140
1.0
293
     1
141
0.0
294
     1
177
     0
142
1.0
295
     0
296
     0
143
0.125
271
     0
272
     9
273
     9
  0
MLINESTYLE
  5
60
102
{ACAD_REACTORS
330
5F
102
}
330
5F
100
AcDbMlineStyle
  2
STANDARD
 70
     0
  3

 62
   256
 51
90.0
 52
90.0
 71
     2
 49
0.5
 62
   256
  6
BYLAYER
 49
-0.5
 62
   256
  6
BYLAYER
  0
ACDBPLACEHOLDER
  5
F
102
{ACAD_REACTORS
330
E
102
}
330
E
  0
SCALE
  5
43
102
{ACAD_REACTORS
330
42
102
}
330
42
100
AcDbScale
 70
     0
300
1:1
140
1.0
141
1.0
290
     1
  0
SCALE
  5
44
102
{ACAD_REACTORS
330
42
102
}
330
42
100
AcDbScale
 70
     0
300
1/128" = 1'-0"
140
0.0078125
141
12.0
290
     0
  0
SCALE
  5
45
102
{ACAD_REACTORS
330
42
102
}
330
42
100
AcDbScale
 70
     0
300
1/64" = 1'-0"
140
0.015625
141
12.0
290
     0
  0
SCALE
  5
46
102
{ACAD_REACTORS
330
42
102
}
330
42
100
AcDbScale
 70
     0
300
1/32" = 1'-0"
140
0.03125
141
12.0
290
     0
  0
SCALE
  5
47
102
{ACAD_REACTORS
330
42
102
}
330
42
100
AcDbScale
 70
     0
300
1/16" = 1'-0"
140
0.0625
141
12.0
290
     0
  0
SCALE
  5
48
102
{ACAD_REACTORS
330
42
102
}
330
42
100
AcDbScale
 70
     0
300
3/32" = 1'-0"
140
0.09375
141
12.0
290
     0
  0
SCALE
  5
49
102
{ACAD_REACTORS
330
42
102
}
330
42
100
AcDbScale
 70
     0
300
1/8" = 1'-0"
140
0.125
141
12.0
290
     0
  0
SCALE
  5
4A
102
{ACAD_REACTORS
330
42
102
}
330
42
100
AcDbScale
 70
     0
300
3/16" = 1'-0"
140
0.1875
141
12.0
290
     0
  0
SCALE
  5
4B
102
{ACAD_REACTORS
330
42
102
}
330
42
100
AcDbScale
 70
     0
300
1/4" = 1'-0"
140
0.25
141
12.0
290
     0
  0
SCALE
  5
4C
102
{ACAD_REACTORS
330
42
102
}
330
42
100
AcDbScale
 70
     0
300
3/8" = 1'-0"
140
0.375
141
12.0
290
     0
  0
SCALE
  5
4D
102
{ACAD_REACTORS
330
42
102
}
330
42
100
AcDbScale
 70
     0
300
1/2" = 1'-0"
140
0.5
141
12.0
290
     0
  0
SCALE
  5
4E
102
{ACAD_REACTORS
330
42
102
}
330
42
100
AcDbScale
 70
     0
300
3/4" = 1'-0"
140
0.75
141
12.0
290
     0
  0
SCALE
  5
4F
102
{ACAD_REACTORS
330
42
102
}
330
42
100
AcDbScale
 70
     0
300
1" = 1'-0"
140
1.0
141
12.0
290
     0
  0
SCALE
  5
50
102
{ACAD_REACTORS
330
42
102
}
330
42
100
AcDbScale
 70
     0
300
1-1/2" = 1'-0"
140
1.5
141
12.0
290
     0
  0
SCALE
  5
51
102
{ACAD_REACTORS
330
42
102
}
330
42
100
AcDbScale
 70
     0
300
3" = 1'-0"
140
3.0
141
12.0
290
     0
  0
SCALE
  5
52
102
{ACAD_REACTORS
330
42
102
}
330
42
100
AcDbScale
 70
     0
300
6" = 1'-0"
140
6.0
141
12.0
290
     0
  0
SCALE
  5
53
102
{ACAD_REACTORS
330
42
102
}
330
42
100
AcDbScale
 70
     0
300
1'-0" = 1'-0"
140
12.0
141
12.0
290
     0
  0
ACDBSECTIONVIEWSTYLE
  5
69
102
{ACAD_XDICTIONARY
360
18F
102
}
102
{ACAD_REACTORS
330
68
102
}
330
68
100
AcDbModelDocViewStyle
 70
     0
  3
Imperial24
290
     0
100
AcDbSectionViewStyle
 70
     0
 71
     0
 90
       78
 71
     1
340
55
 62
   256
 40
0.24
340
0
340
0
 62
   256
 40
0.24
300
I, O, Q, S, X, Z
 40
0.48
 90
        3
 40
0.18
 90
        1
 71
     2
340
5D
 90
       25
 62
   256
340
5D
 90
       50
 62
   256
 40
0.24
 40
0.0
 40
0.24
 71
     3
340
55
 62
   256
 40
0.24
 90
        1
 40
0.75
 90
        1
300
%<\AcVar ViewType \f "%tc1">% %<\AcVar ViewSectionStartId>%-%<\AcVar ViewSectionEndId>%\PSCALE %<\AcVar ViewScale \f "%sn">%
 71
     4
 62
   256
 62
   257
300
ANSI31
 40
1.0
 90
        0
290
     0
290
     0
 90
        6
 40
0.0
 40
1.570796326794896
 40
0.2617993877991494
 40
1.308996938995747
 40
-0.2617993877991494
 40
1.832595714594046
  0
TABLESTYLE
  5
65
102
{ACAD_XDICTIONARY
360
15A
102
}
102
{ACAD_REACTORS
330
64
102
}
330
64
100
AcDbTableStyle
280
     0
  3
Standard
 70
     0
 71
     0
 40
0.06
 41
0.06
280
     0
281
     0
  7
Standard
140
0.18
170
     2
 62
     0
 63
     7
283
     0
 90
      512
 91
        0
  1

274
    -2
284
     1
 64
     0
275
    -2
285
     1
 65
     0
276
    -2
286
     1
 66
     0
277
    -2
287
     1
 67
     0
278
    -2
288
     1
 68
     0
279
    -2
289
     1
 69
     0
  7
Standard
140
0.25
170
     5
 62
     0
 63
     7
283
     0
 90
      512
 91
        0
  1

274
    -2
284
     1
 64
     0
275
    -2
285
     1
 65
     0
276
    -2
286
     1
 66
     0
277
    -2
287
     1
 67
     0
278
    -2
288
     1
 68
     0
279
    -2
289
     1
 69
     0
  7
Standard
140
0.18
170
     5
 62
     0
 63
     7
283
     0
 90
      512
 91
        0
  1

274
    -2
284
     1
 64
     0
275
    -2
285
     1
 65
     0
276
    -2
286
     1
 66
     0
277
    -2
287
     1
 67
     0
278
    -2
288
     1
 68
     0
279
    -2
289
     1
 69
     0
  0
VISUALSTYLE
  5
2F
102
{ACAD_XDICTIONARY
360
167
102
}
102
{ACAD_REACTORS
330
29
102
}
330
29
100
AcDbVisualStyle
  2
2dWireframe
 70
     4
177
     2
291
     0
 71
     0
176
     1
 72
     2
176
     1
 73
     0
176
     1
 90
        0
176
     1
 40
0.6
176
     1
 41
30.0
176
     1
 63
     7
421
 16777215
176
     1
 74
     1
176
     1
 91
        4
176
     1
 64
     7
176
     1
 65
   257
176
     1
 75
     1
176
     1
175
     1
176
     1
 42
1.0
176
     1
 92
        0
176
     1
 66
   257
176
     1
 43
1.0
176
     1
 76
     1
176
     1
 77
     6
176
     1
 78
     2
176
     1
 67
     7
176
     1
 79
     5
176
     1
170
     0
176
     1
171
     0
176
     1
290
     0
176
     1
 93
        1
176
     1
 44
0.0
176
     1
173
     0
176
     1
1001
ACAD
1000
AcDbSavedByObjectVersion
1070
     0
  0
VISUALSTYLE
  5
2E
102
{ACAD_XDICTIONARY
360
165
102
}
102
{ACAD_REACTORS
330
29
102
}
330
29
100
AcDbVisualStyle
  2
Basic
 70
     7
177
     2
291
     1
 71
     1
176
     1
 72
     0
176
     1
 73
     1
176
     1
 90
        0
176
     1
 40
0.6
176
     1
 41
30.0
176
     1
 63
     7
421
 16777215
176
     1
 74
     0
176
     1
 91
        4
176
     1
 64
     7
176
     1
 65
   257
176
     1
 75
     1
176
     1
175
     1
176
     1
 42
1.0
176
     1
 92
        8
176
     1
 66
     7
176
     1
 43
1.0
176
     1
 76
     1
176
     1
 77
     6
176
     1
 78
     2
176
     1
 67
     7
176
     1
 79
     5
176
     1
170
     0
176
     1
171
     0
176
     1
290
     0
176
     1
 93
        1
176
     1
 44
0.0
176
     1
173
     0
176
     1
1001
ACAD
1000
AcDbSavedByObjectVersion
1070
     0
  0
VISUALSTYLE
  5
35
102
{ACAD_XDICTIONARY
360
173
102
}
102
{ACAD_REACTORS
330
29
102
}
330
29
100
AcDbVisualStyle
  2
Brighten
 70
    12
177
     2
291
     1
 71
     2
176
     1
 72
     2
176
     1
 73
     0
176
     1
 90
        0
176
     1
 40
0.6
176
     1
 41
30.0
176
     1
 63
     7
421
 16777215
176
     1
 74
     1
176
     1
 91
        4
176
     1
 64
     7
176
     1
 65
   257
176
     1
 75
     1
176
     1
175
     1
176
     1
 42
1.0
176
     1
 92
        8
176
     1
 66
     7
176
     1
 43
1.0
176
     1
 76
     1
176
     1
 77
     6
176
     1
 78
     2
176
     1
 67
     7
176
     1
 79
     5
176
     1
170
     0
176
     1
171
     0
176
     1
290
     0
176
     1
 93
        1
176
     1
 44
50.0
176
     1
173
     0
176
     1
1001
ACAD
1000
AcDbSavedByObjectVersion
1070
     0
  0
VISUALSTYLE
  5
39
102
{ACAD_XDICTIONARY
360
17B
102
}
102
{ACAD_REACTORS
330
29
102
}
330
29
100
AcDbVisualStyle
  2
ColorChange
 70
    16
177
     2
291
     1
 71
     2
176
     1
 72
     2
176
     1
 73
     3
176
     1
 90
        0
176
     1
 40
0.6
176
     1
 41
30.0
176
     1
 63
     8
421
  8421504
176
     1
 74
     1
176
     1
 91
        4
176
     1
 64
     7
176
     1
 65
   257
176
     1
 75
     1
176
     1
175
     1
176
     1
 42
1.0
176
     1
 92
        8
176
     1
 66
     8
424
  8421504
176
     1
 43
1.0
176
     1
 76
     1
176
     1
 77
     6
176
     1
 78
     2
176
     1
 67
     7
176
     1
 79
     5
176
     1
170
     0
176
     1
171
     0
176
     1
290
     0
176
     1
 93
        1
176
     1
 44
0.0
176
     1
173
     0
176
     1
1001
ACAD
1000
AcDbSavedByObjectVersion
1070
     0
  0
VISUALSTYLE
  5
32
102
{ACAD_XDICTIONARY
360
16D
102
}
102
{ACAD_REACTORS
330
29
102
}
330
29
100
AcDbVisualStyle
  2
Conceptual
 70
     9
177
     2
291
     0
 71
     3
176
     1
 72
     2
176
     1
 73
     0
176
     1
 90
        0
176
     1
 40
0.6
176
     1
 41
30.0
176
     1
 63
     7
421
 16777215
176
     1
 74
     2
176
     1
 91
        2
176
     1
 64
     7
176
     1
 65
   257
176
     1
 75
     1
176
     1
175
     1
176
     1
 42
179.0
176
     1
 92
        8
176
     1
 66
     7
176
     1
 43
1.0
176
     1
 76
     1
176
     1
 77
     6
176
     1
 78
     2
176
     1
 67
     7
176
     1
 79
     3
176
     1
170
     0
176
     1
171
     0
176
     1
290
     0
176
     1
 93
        1
176
     1
 44
0.0
176
     1
173
     0
176
     1
1001
ACAD
1000
AcDbSavedByObjectVersion
1070
     0
  0
VISUALSTYLE
  5
34
102
{ACAD_XDICTIONARY
360
171
102
}
102
{ACAD_REACTORS
330
29
102
}
330
29
100
AcDbVisualStyle
  2
Dim
 70
    11
177
     2
291
     1
 71
     2
176
     1
 72
     2
176
     1
 73
     0
176
     1
 90
        0
176
     1
 40
0.6
176
     1
 41
30.0
176
     1
 63
     7
421
 16777215
176
     1
 74
     1
176
     1
 91
        4
176
     1
 64
     7
176
     1
 65
   257
176
     1
 75
     1
176
     1
175
     1
176
     1
 42
1.0
176
     1
 92
        8
176
     1
 66
     7
176
     1
 43
1.0
176
     1
 76
     1
176
     1
 77
     6
176
     1
 78
     2
176
     1
 67
     7
176
     1
 79
     5
176
     1
170
     0
176
     1
171
     0
176
     1
290
     0
176
     1
 93
        1
176
     1
 44
-50.0
176
     1
173
     0
176
     1
1001
ACAD
1000
AcDbSavedByObjectVersion
1070
     0
  0
VISUALSTYLE
  5
41
102
{ACAD_XDICTIONARY
360
18B
102
}
102
{ACAD_REACTORS
330
29
102
}
330
29
100
AcDbVisualStyle
  2
EdgeColorOff
 70
    22
177
     2
291
     1
 71
     2
176
     0
 72
     2
176
     0
 73
     0
176
     0
 90
        0
176
     0
 40
0.6
176
     0
 41
30.0
176
     0
 63
     7
421
 16777215
176
     0
 74
     1
176
     0
 91
        4
176
     0
 64
     7
176
     0
 65
   257
176
     0
 75
     1
176
     0
175
     1
176
     0
 42
1.0
176
     0
 92
        8
176
     2
 66
     7
176
     0
 43
1.0
176
     0
 76
     1
176
     0
 77
     6
176
     0
 78
     2
176
     0
 67
     7
176
     0
 79
     5
176
     0
170
     0
176
     0
171
     0
176
     0
290
     0
176
     0
 93
        1
176
     0
 44
0.0
176
     0
173
     0
176
     0
1001
ACAD
1000
AcDbSavedByObjectVersion
1070
     0
  0
VISUALSTYLE
  5
38
102
{ACAD_XDICTIONARY
360
179
102
}
102
{ACAD_REACTORS
330
29
102
}
330
29
100
AcDbVisualStyle
  2
Facepattern
 70
    15
177
     2
291
     1
 71
     2
176
     1
 72
     2
176
     1
 73
     0
176
     1
 90
        0
176
     1
 40
0.6
176
     1
 41
30.0
176
     1
 63
     7
421
 16777215
176
     1
 74
     1
176
     1
 91
        4
176
     1
 64
     7
176
     1
 65
   257
176
     1
 75
     1
176
     1
175
     1
176
     1
 42
1.0
176
     1
 92
        8
176
     1
 66
     7
176
     1
 43
1.0
176
     1
 76
     1
176
     1
 77
     6
176
     1
 78
     2
176
     1
 67
     7
176
     1
 79
     5
176
     1
170
     0
176
     1
171
     0
176
     1
290
     0
176
     1
 93
        1
176
     1
 44
0.0
176
     1
173
     0
176
     1
1001
ACAD
1000
AcDbSavedByObjectVersion
1070
     0
  0
VISUALSTYLE
  5
2A
102
{ACAD_XDICTIONARY
360
15D
102
}
102
{ACAD_REACTORS
330
29
102
}
330
29
100
AcDbVisualStyle
  2
Flat
 70
     0
177
     2
291
     1
 71
     2
176
     1
 72
     1
176
     1
 73
     1
176
     1
 90
        2
176
     1
 40
0.6
176
     1
 41
30.0
176
     1
 63
     7
421
 16777215
176
     1
 74
     0
176
     1
 91
        0
176
     1
 64
     7
176
     1
 65
   257
176
     1
 75
     1
176
     1
175
     1
176
     1
 42
1.0
176
     1
 92
        8
176
     1
 66
     7
176
     1
 43
1.0
176
     1
 76
     1
176
     1
 77
     6
176
     1
 78
     2
176
     1
 67
     7
176
     1
 79
     5
176
     1
170
     0
176
     1
171
     0
176
     1
290
     0
176
     1
 93
       13
176
     1
 44
0.0
176
     1
173
     0
176
     1
1001
ACAD
1000
AcDbSavedByObjectVersion
1070
     0
  0
VISUALSTYLE
  5
2B
102
{ACAD_XDICTIONARY
360
15F
102
}
102
{ACAD_REACTORS
330
29
102
}
330
29
100
AcDbVisualStyle
  2
FlatWithEdges
 70
     1
177
     2
291
     1
 71
     2
176
     1
 72
     1
176
     1
 73
     1
176
     1
 90
        2
176
     1
 40
0.6
176
     1
 41
30.0
176
     1
 63
     7
421
 16777215
176
     1
 74
     1
176
     1
 91
        0
176
     1
 64
     7
176
     1
 65
   257
176
     1
 75
     1
176
     1
175
     1
176
     1
 42
1.0
176
     1
 92
        0
176
     1
 66
   257
176
     1
 43
1.0
176
     1
 76
     1
176
     1
 77
     6
176
     1
 78
     2
176
     1
 67
     7
176
     1
 79
     5
176
     1
170
     0
176
     1
171
     0
176
     1
290
     0
176
     1
 93
       13
176
     1
 44
0.0
176
     1
173
     0
176
     1
1001
ACAD
1000
AcDbSavedByObjectVersion
1070
     0
  0
VISUALSTYLE
  5
2C
102
{ACAD_XDICTIONARY
360
161
102
}
102
{ACAD_REACTORS
330
29
102
}
330
29
100
AcDbVisualStyle
  2
Gouraud
 70
     2
177
     2
291
     1
 71
     2
176
     1
 72
     2
176
     1
 73
     1
176
     1
 90
        2
176
     1
 40
0.6
176
     1
 41
30.0
176
     1
 63
     7
421
 16777215
176
     1
 74
     0
176
     1
 91
        0
176
     1
 64
     7
176
     1
 65
   257
176
     1
 75
     1
176
     1
175
     1
176
     1
 42
1.0
176
     1
 92
        0
176
     1
 66
     7
176
     1
 43
1.0
176
     1
 76
     1
176
     1
 77
     6
176
     1
 78
     2
176
     1
 67
     7
176
     1
 79
     5
176
     1
170
     0
176
     1
171
     0
176
     1
290
     0
176
     1
 93
       13
176
     1
 44
0.0
176
     1
173
     0
176
     1
1001
ACAD
1000
AcDbSavedByObjectVersion
1070
     0
  0
VISUALSTYLE
  5
2D
102
{ACAD_XDICTIONARY
360
163
102
}
102
{ACAD_REACTORS
330
29
102
}
330
29
100
AcDbVisualStyle
  2
GouraudWithEdges
 70
     3
177
     2
291
     1
 71
     2
176
     1
 72
     2
176
     1
 73
     1
176
     1
 90
        2
176
     1
 40
0.6
176
     1
 41
30.0
176
     1
 63
     7
421
 16777215
176
     1
 74
     1
176
     1
 91
        0
176
     1
 64
     7
176
     1
 65
   257
176
     1
 75
     1
176
     1
175
     1
176
     1
 42
1.0
176
     1
 92
        0
176
     1
 66
   257
176
     1
 43
1.0
176
     1
 76
     1
176
     1
 77
     6
176
     1
 78
     2
176
     1
 67
     7
176
     1
 79
     5
176
     1
170
     0
176
     1
171
     0
176
     1
290
     0
176
     1
 93
       13
176
     1
 44
0.0
176
     1
173
     0
176
     1
1001
ACAD
1000
AcDbSavedByObjectVersion
1070
     0
  0
VISUALSTYLE
  5
31
102
{ACAD_XDICTIONARY
360
16B
102
}
102
{ACAD_REACTORS
330
29
102
}
330
29
100
AcDbVisualStyle
  2
Hidden
 70
     6
177
     2
291
     0
 71
     1
176
     1
 72
     2
176
     1
 73
     2
176
     1
 90
        0
176
     1
 40
0.6
176
     1
 41
30.0
176
     1
 63
     7
421
 16777215
176
     1
 74
     2
176
     1
 91
        2
176
     1
 64
     7
176
     1
 65
   257
176
     1
 75
     2
176
     1
175
     1
176
     1
 42
40.0
176
     1
 92
        0
176
     1
 66
   257
176
     1
 43
1.0
176
     1
 76
     1
176
     1
 77
     6
176
     1
 78
     2
176
     1
 67
     7
176
     1
 79
     3
176
     1
170
     0
176
     1
171
     0
176
     1
290
     0
176
     1
 93
        1
176
     1
 44
0.0
176
     1
173
     0
176
     1
1001
ACAD
1000
AcDbSavedByObjectVersion
1070
     0
  0
VISUALSTYLE
  5
3F
102
{ACAD_XDICTIONARY
360
187
102
}
102
{ACAD_REACTORS
330
29
102
}
330
29
100
AcDbVisualStyle
  2
JitterOff
 70
    20
177
     2
291
     1
 71
     2
176
     0
 72
     2
176
     0
 73
     0
176
     0
 90
        0
176
     0
 40
0.6
176
     0
 41
30.0
176
     0
 63
     7
421
 16777215
176
     0
 74
     1
176
     0
 91
        4
176
     0
 64
     7
176
     0
 65
   257
176
     0
 75
     1
176
     0
175
     1
176
     0
 42
1.0
176
     0
 92
       10
176
     2
 66
     7
176
     0
 43
1.0
176
     0
 76
     1
176
     0
 77
     6
176
     0
 78
     2
176
     0
 67
     7
176
     0
 79
     5
176
     0
170
     0
176
     0
171
     0
176
     0
290
     0
176
     0
 93
        1
176
     0
 44
0.0
176
     0
173
     0
176
     0
1001
ACAD
1000
AcDbSavedByObjectVersion
1070
     0
  0
VISUALSTYLE
  5
37
102
{ACAD_XDICTIONARY
360
177
102
}
102
{ACAD_REACTORS
330
29
102
}
330
29
100
AcDbVisualStyle
  2
Linepattern
 70
    14
177
     2
291
     1
 71
     2
176
     1
 72
     2
176
     1
 73
     0
176
     1
 90
        0
176
     1
 40
0.6
176
     1
 41
30.0
176
     1
 63
     7
421
 16777215
176
     1
 74
     1
176
     1
 91
        4
176
     1
 64
     7
176
     1
 65
   257
176
     1
 75
     7
176
     1
175
     7
176
     1
 42
1.0
176
     1
 92
        8
176
     1
 66
     7
176
     1
 43
1.0
176
     1
 76
     1
176
     1
 77
     6
176
     1
 78
     2
176
     1
 67
     7
176
     1
 79
     5
176
     1
170
     0
176
     1
171
     0
176
     1
290
     0
176
     1
 93
        1
176
     1
 44
0.0
176
     1
173
     0
176
     1
1001
ACAD
1000
AcDbSavedByObjectVersion
1070
     0
  0
VISUALSTYLE
  5
40
102
{ACAD_XDICTIONARY
360
189
102
}
102
{ACAD_REACTORS
330
29
102
}
330
29
100
AcDbVisualStyle
  2
OverhangOff
 70
    21
177
     2
291
     1
 71
     2
176
     0
 72
     2
176
     0
 73
     0
176
     0
 90
        0
176
     0
 40
0.6
176
     0
 41
30.0
176
     0
 63
     7
421
 16777215
176
     0
 74
     1
176
     0
 91
        4
176
     0
 64
     7
176
     0
 65
   257
176
     0
 75
     1
176
     0
175
     1
176
     0
 42
1.0
176
     0
 92
        9
176
     2
 66
     7
176
     0
 43
1.0
176
     0
 76
     1
176
     0
 77
     6
176
     0
 78
     2
176
     0
 67
     7
176
     0
 79
     5
176
     0
170
     0
176
     0
171
     0
176
     0
290
     0
176
     0
 93
        1
176
     0
 44
0.0
176
     0
173
     0
176
     0
1001
ACAD
1000
AcDbSavedByObjectVersion
1070
     0
  0
VISUALSTYLE
  5
33
102
{ACAD_XDICTIONARY
360
16F
102
}
102
{ACAD_REACTORS
330
29
102
}
330
29
100
AcDbVisualStyle
  2
Realistic
 70
     8
177
     2
291
     0
 71
     2
176
     1
 72
     3
176
     1
 73
     0
176
     1
 90
        2
176
     1
 40
0.6
176
     1
 41
30.0
176
     1
 63
     7
421
 16777215
176
     1
 74
     0
176
     1
 91
        0
176
     1
 64
     7
176
     1
 65
   257
176
     1
 75
     1
176
     1
175
     1
176
     1
 42
1.0
176
     1
 92
        8
176
     1
 66
   257
176
     1
 43
1.0
176
     1
 76
     1
176
     1
 77
     6
176
     1
 78
     2
176
     1
 67
     7
176
     1
 79
     3
176
     1
170
     0
176
     1
171
     0
176
     1
290
     0
176
     1
 93
       13
176
     1
 44
0.0
176
     1
173
     0
176
     1
1001
ACAD
1000
AcDbSavedByObjectVersion
1070
     0
  0
VISUALSTYLE
  5
3E
102
{ACAD_XDICTIONARY
360
185
102
}
102
{ACAD_REACTORS
330
29
102
}
330
29
100
AcDbVisualStyle
  2
Shaded
 70
    27
177
     2
291
     0
 71
     2
176
     1
 72
     2
176
     1
 73
     1
176
     1
 90
        2
176
     1
 40
0.6
176
     1
 41
30.0
176
     1
 63
     7
421
 16777215
176
     1
 74
     0
176
     1
 91
        4
176
     1
 64
     7
176
     1
 65
   257
176
     1
 75
     1
176
     1
175
     1
176
     1
 42
1.0
176
     1
 92
        8
176
     1
 66
   257
176
     1
 43
1.0
176
     1
 76
     1
176
     1
 77
     6
176
     1
 78
     2
176
     1
 67
     8
425
  7895160
176
     1
 79
     3
176
     1
170
     0
176
     1
171
     0
176
     1
290
     0
176
     1
 93
        5
176
     1
 44
0.0
176
     1
173
     0
176
     1
1001
ACAD
1000
AcDbSavedByObjectVersion
1070
     0
  0
VISUALSTYLE
  5
3D
102
{ACAD_XDICTIONARY
360
183
102
}
102
{ACAD_REACTORS
330
29
102
}
330
29
100
AcDbVisualStyle
  2
Shaded with edges
 70
    26
177
     2
291
     0
 71
     2
176
     1
 72
     2
176
     1
 73
     1
176
     1
 90
        2
176
     1
 40
0.6
176
     1
 41
30.0
176
     1
 63
     7
421
 16777215
176
     1
 74
     1
176
     1
 91
        2
176
     1
 64
     7
176
     1
 65
   257
176
     1
 75
     2
176
     1
175
     1
176
     1
 42
1.0
176
     1
 92
        8
176
     1
 66
   257
176
     1
 43
1.0
176
     1
 76
     1
176
     1
 77
     6
176
     1
 78
     2
176
     1
 67
     7
176
     1
 79
     3
176
     1
170
     0
176
     1
171
     0
176
     1
290
     0
176
     1
 93
        5
176
     1
 44
0.0
176
     1
173
     0
176
     1
1001
ACAD
1000
AcDbSavedByObjectVersion
1070
     0
  0
VISUALSTYLE
  5
3A
102
{ACAD_XDICTIONARY
360
17D
102
}
102
{ACAD_REACTORS
330
29
102
}
330
29
100
AcDbVisualStyle
  2
Shades of Gray
 70
    23
177
     2
291
     0
 71
     2
176
     1
 72
     2
176
     1
 73
     3
176
     1
 90
        0
176
     1
 40
0.6
176
     1
 41
30.0
176
     1
 63
     7
421
 16777215
176
     1
 74
     2
176
     1
 91
        2
176
     1
 64
     7
176
     1
 65
     7
176
     1
 75
     1
176
     1
175
     1
176
     1
 42
40.0
176
     1
 92
        8
176
     1
 66
     7
176
     1
 43
1.0
176
     1
 76
     1
176
     1
 77
     6
176
     1
 78
     2
176
     1
 67
     7
176
     1
 79
     3
176
     1
170
     0
176
     1
171
     0
176
     1
290
     0
176
     1
 93
        1
176
     1
 44
0.0
176
     1
173
     0
176
     1
1001
ACAD
1000
AcDbSavedByObjectVersion
1070
     0
  0
VISUALSTYLE
  5
3B
102
{ACAD_XDICTIONARY
360
17F
102
}
102
{ACAD_REACTORS
330
29
102
}
330
29
100
AcDbVisualStyle
  2
Sketchy
 70
    24
177
     2
291
     0
 71
     1
176
     1
 72
     2
176
     1
 73
     2
176
     1
 90
        0
176
     1
 40
0.6
176
     1
 41
30.0
176
     1
 63
     7
421
 16777215
176
     1
 74
     2
176
     1
 91
        2
176
     1
 64
     7
176
     1
 65
     7
176
     1
 75
     1
176
     1
175
     1
176
     1
 42
40.0
176
     1
 92
       11
176
     1
 66
     7
176
     1
 43
1.0
176
     1
 76
     1
176
     1
 77
     6
176
     1
 78
     2
176
     1
 67
     7
176
     1
 79
     6
176
     1
170
     0
176
     1
171
     0
176
     1
290
     0
176
     1
 93
        1
176
     1
 44
0.0
176
     1
173
     0
176
     1
1001
ACAD
1000
AcDbSavedByObjectVersion
1070
     0
  0
VISUALSTYLE
  5
36
102
{ACAD_XDICTIONARY
360
175
102
}
102
{ACAD_REACTORS
330
29
102
}
330
29
100
AcDbVisualStyle
  2
Thicken
 70
    13
177
     2
291
     1
 71
     2
176
     1
 72
     2
176
     1
 73
     0
176
     1
 90
        0
176
     1
 40
0.6
176
     1
 41
30.0
176
     1
 63
     7
421
 16777215
176
     1
 74
     1
176
     1
 91
        4
176
     1
 64
     7
176
     1
 65
   257
176
     1
 75
     1
176
     1
175
     1
176
     1
 42
1.0
176
     1
 92
       12
176
     1
 66
     7
176
     1
 43
1.0
176
     1
 76
     1
176
     1
 77
     6
176
     1
 78
     2
176
     1
 67
     7
176
     1
 79
     5
176
     1
170
     0
176
     1
171
     0
176
     1
290
     0
176
     1
 93
        1
176
     1
 44
0.0
176
     1
173
     0
176
     1
1001
ACAD
1000
AcDbSavedByObjectVersion
1070
     0
  0
VISUALSTYLE
  5
30
102
{ACAD_XDICTIONARY
360
169
102
}
102
{ACAD_REACTORS
330
29
102
}
330
29
100
AcDbVisualStyle
  2
Wireframe
 70
     5
177
     2
291
     0
 71
     0
176
     1
 72
     2
176
     1
 73
     0
176
     1
 90
        0
176
     1
 40
0.6
176
     1
 41
30.0
176
     1
 63
     7
421
 16777215
176
     1
 74
     1
176
     1
 91
        4
176
     1
 64
     7
176
     1
 65
   257
176
     1
 75
     1
176
     1
175
     1
176
     1
 42
1.0
176
     1
 92
        0
176
     1
 66
   257
176
     1
 43
1.0
176
     1
 76
     1
176
     1
 77
     6
176
     1
 78
     2
176
     1
 67
     7
176
     1
 79
     3
176
     1
170
     0
176
     1
171
     0
176
     1
290
     0
176
     1
 93
        1
176
     1
 44
0.0
176
     1
173
     0
176
     1
1001
ACAD
1000
AcDbSavedByObjectVersion
1070
     0
  0
VISUALSTYLE
  5
3C
102
{ACAD_XDICTIONARY
360
181
102
}
102
{ACAD_REACTORS
330
29
102
}
330
29
100
AcDbVisualStyle
  2
X-Ray
 70
    25
177
     2
291
     0
 71
     2
176
     1
 72
     2
176
     1
 73
     1
176
     1
 90
        1
176
     1
 40
0.5
176
     1
 41
30.0
176
     1
 63
     7
421
 16777215
176
     1
 74
     1
176
     1
 91
        0
176
     1
 64
     7
176
     1
 65
   257
176
     1
 75
     1
176
     1
175
     1
176
     1
 42
1.0
176
     1
 92
        8
176
     1
 66
     7
176
     1
 43
1.0
176
     1
 76
     1
176
     1
 77
     6
176
     1
 78
     2
176
     1
 67
     7
176
     1
 79
     3
176
     1
170
     0
176
     1
171
     0
176
     1
290
     0
176
     1
 93
       13
176
     1
 44
0.0
176
     1
173
     0
176
     1
1001
ACAD
1000
AcDbSavedByObjectVersion
1070
     0
  0
DICTIONARYVAR
  5
159
102
{ACAD_REACTORS
330
154
102
}
330
154
100
DictionaryVariables
280
     0
  1
1:1
  0
DICTIONARYVAR
  5
156
102
{ACAD_REACTORS
330
154
102
}
330
154
100
DictionaryVariables
280
     0
  1
STANDARD
  0
DICTIONARYVAR
  5
155
102
{ACAD_REACTORS
330
154
102
}
330
154
100
DictionaryVariables
280
     0
  1
STANDARD
  0
DICTIONARYVAR
  5
157
102
{ACAD_REACTORS
330
154
102
}
330
154
100
DictionaryVariables
280
     0
  1
Imperial24
  0
DICTIONARYVAR
  5
158
102
{ACAD_REACTORS
330
154
102
}
330
154
100
DictionaryVariables
280
     0
  1
Imperial24
  0
DICTIONARY
  5
191
330
6B
100
AcDbDictionary
280
     1
281
     1
  3
ACAD_XREC_ROUNDTRIP
360
192
  0
DICTIONARY
  5
1A
330
19
100
AcDbDictionary
280
     1
281
     1
  3
BUMPTILE
360
1C
  3
DIFFUSETILE
360
1B
  3
OPACITYTILE
360
1F
  3
REFLECTIONTILE
360
1E
  3
REFRACTIONTILE
360
20
  3
SPECULARTILE
360
1D
  0
DICTIONARY
  5
12
330
11
100
AcDbDictionary
280
     1
281
     1
  3
BUMPTILE
360
14
  3
DIFFUSETILE
360
13
  3
OPACITYTILE
360
17
  3
REFLECTIONTILE
360
16
  3
REFRACTIONTILE
360
18
  3
SPECULARTILE
360
15
  0
DICTIONARY
  5
22
330
21
100
AcDbDictionary
280
     1
281
     1
  3
BUMPTILE
360
24
  3
DIFFUSETILE
360
23
  3
OPACITYTILE
360
27
  3
REFLECTIONTILE
360
26
  3
REFRACTIONTILE
360
28
  3
SPECULARTILE
360
25
  0
DICTIONARY
  5
18D
330
67
100
AcDbDictionary
280
     1
281
     1
  3
ACAD_XREC_ROUNDTRIP
360
18E
  0
DICTIONARY
  5
18F
330
69
100
AcDbDictionary
280
     1
281
     1
  3
ACAD_XREC_ROUNDTRIP
360
190
  0
DICTIONARY
  5
15A
330
65
100
AcDbDictionary
280
     1
281
     1
  3
ACAD_ROUNDTRIP_2008_TABLESTYLE_CELLSTYLEMAP
360
15B
  0
DICTIONARY
  5
167
330
2F
100
AcDbDictionary
280
     1
281
     1
  3
ACAD_XREC_ROUNDTRIP
360
168
  0
DICTIONARY
  5
165
330
2E
100
AcDbDictionary
280
     1
281
     1
  3
ACAD_XREC_ROUNDTRIP
360
166
  0
DICTIONARY
  5
173
330
35
100
AcDbDictionary
280
     1
281
     1
  3
ACAD_XREC_ROUNDTRIP
360
174
  0
DICTIONARY
  5
17B
330
39
100
AcDbDictionary
280
     1
281
     1
  3
ACAD_XREC_ROUNDTRIP
360
17C
  0
DICTIONARY
  5
16D
330
32
100
AcDbDictionary
280
     1
281
     1
  3
ACAD_XREC_ROUNDTRIP
360
16E
  0
DICTIONARY
  5
171
330
34
100
AcDbDictionary
280
     1
281
     1
  3
ACAD_XREC_ROUNDTRIP
360
172
  0
DICTIONARY
  5
18B
330
41
100
AcDbDictionary
280
     1
281
     1
  3
ACAD_XREC_ROUNDTRIP
360
18C
  0
DICTIONARY
  5
179
330
38
100
AcDbDictionary
280
     1
281
     1
  3
ACAD_XREC_ROUNDTRIP
360
17A
  0
DICTIONARY
  5
15D
330
2A
100
AcDbDictionary
280
     1
281
     1
  3
ACAD_XREC_ROUNDTRIP
360
15E
  0
DICTIONARY
  5
15F
330
2B
100
AcDbDictionary
280
     1
281
     1
  3
ACAD_XREC_ROUNDTRIP
360
160
  0
DICTIONARY
  5
161
330
2C
100
AcDbDictionary
280
     1
281
     1
  3
ACAD_XREC_ROUNDTRIP
360
162
  0
DICTIONARY
  5
163
330
2D
100
AcDbDictionary
280
     1
281
     1
  3
ACAD_XREC_ROUNDTRIP
360
164
  0
DICTIONARY
  5
16B
330
31
100
AcDbDictionary
280
     1
281
     1
  3
ACAD_XREC_ROUNDTRIP
360
16C
  0
DICTIONARY
  5
187
330
3F
100
AcDbDictionary
280
     1
281
     1
  3
ACAD_XREC_ROUNDTRIP
360
188
  0
DICTIONARY
  5
177
330
37
100
AcDbDictionary
280
     1
281
     1
  3
ACAD_XREC_ROUNDTRIP
360
178
  0
DICTIONARY
  5
189
330
40
100
AcDbDictionary
280
     1
281
     1
  3
ACAD_XREC_ROUNDTRIP
360
18A
  0
DICTIONARY
  5
16F
330
33
100
AcDbDictionary
280
     1
281
     1
  3
ACAD_XREC_ROUNDTRIP
360
170
  0
DICTIONARY
  5
185
330
3E
100
AcDbDictionary
280
     1
281
     1
  3
ACAD_XREC_ROUNDTRIP
360
186
  0
DICTIONARY
  5
183
330
3D
100
AcDbDictionary
280
     1
281
     1
  3
ACAD_XREC_ROUNDTRIP
360
184
  0
DICTIONARY
  5
17D
330
3A
100
AcDbDictionary
280
     1
281
     1
  3
ACAD_XREC_ROUNDTRIP
360
17E
  0
DICTIONARY
  5
17F
330
3B
100
AcDbDictionary
280
     1
281
     1
  3
ACAD_XREC_ROUNDTRIP
360
180
  0
DICTIONARY
  5
175
330
36
100
AcDbDictionary
280
     1
281
     1
  3
ACAD_XREC_ROUNDTRIP
360
176
  0
DICTIONARY
  5
169
330
30
100
AcDbDictionary
280
     1
281
     1
  3
ACAD_XREC_ROUNDTRIP
360
16A
  0
DICTIONARY
  5
181
330
3C
100
AcDbDictionary
280
     1
281
     1
  3
ACAD_XREC_ROUNDTRIP
360
182
  0
XRECORD
  5
192
102
{ACAD_REACTORS
330
191
102
}
330
191
100
AcDbXrecord
280
     1
102
DISPLAYNAME
  1
Imperial24
102
FLAGS
 90
        0
  0
XRECORD
  5
1C
102
{ACAD_REACTORS
330
1A
102
}
330
1A
100
AcDbXrecord
280
     1
270
     1
271
     1
  0
XRECORD
  5
1B
102
{ACAD_REACTORS
330
1A
102
}
330
1A
100
AcDbXrecord
280
     1
270
     1
271
     1
  0
XRECORD
  5
1F
102
{ACAD_REACTORS
330
1A
102
}
330
1A
100
AcDbXrecord
280
     1
270
     1
271
     1
  0
XRECORD
  5
1E
102
{ACAD_REACTORS
330
1A
102
}
330
1A
100
AcDbXrecord
280
     1
270
     1
271
     1
  0
XRECORD
  5
20
102
{ACAD_REACTORS
330
1A
102
}
330
1A
100
AcDbXrecord
280
     1
270
     1
271
     1
  0
XRECORD
  5
1D
102
{ACAD_REACTORS
330
1A
102
}
330
1A
100
AcDbXrecord
280
     1
270
     1
271
     1
  0
XRECORD
  5
14
102
{ACAD_REACTORS
330
12
102
}
330
12
100
AcDbXrecord
280
     1
270
     1
271
     1
  0
XRECORD
  5
13
102
{ACAD_REACTORS
330
12
102
}
330
12
100
AcDbXrecord
280
     1
270
     1
271
     1
  0
XRECORD
  5
17
102
{ACAD_REACTORS
330
12
102
}
330
12
100
AcDbXrecord
280
     1
270
     1
271
     1
  0
XRECORD
  5
16
102
{ACAD_REACTORS
330
12
102
}
330
12
100
AcDbXrecord
280
     1
270
     1
271
     1
  0
XRECORD
  5
18
102
{ACAD_REACTORS
330
12
102
}
330
12
100
AcDbXrecord
280
     1
270
     1
271
     1
  0
XRECORD
  5
15
102
{ACAD_REACTORS
330
12
102
}
330
12
100
AcDbXrecord
280
     1
270
     1
271
     1
  0
XRECORD
  5
24
102
{ACAD_REACTORS
330
22
102
}
330
22
100
AcDbXrecord
280
     1
270
     1
271
     1
  0
XRECORD
  5
23
102
{ACAD_REACTORS
330
22
102
}
330
22
100
AcDbXrecord
280
     1
270
     1
271
     1
  0
XRECORD
  5
27
102
{ACAD_REACTORS
330
22
102
}
330
22
100
AcDbXrecord
280
     1
270
     1
271
     1
  0
XRECORD
  5
26
102
{ACAD_REACTORS
330
22
102
}
330
22
100
AcDbXrecord
280
     1
270
     1
271
     1
  0
XRECORD
  5
28
102
{ACAD_REACTORS
330
22
102
}
330
22
100
AcDbXrecord
280
     1
270
     1
271
     1
  0
XRECORD
  5
25
102
{ACAD_REACTORS
330
22
102
}
330
22
100
AcDbXrecord
280
     1
270
     1
271
     1
  0
XRECORD
  5
18E
102
{ACAD_REACTORS
330
18D
102
}
330
18D
100
AcDbXrecord
280
     1
102
ACAD_ROUNDTRIP_2012_MLEADER_STYLE
298
     1
  0
XRECORD
  5
190
102
{ACAD_REACTORS
330
18F
102
}
330
18F
100
AcDbXrecord
280
     1
102
DISPLAYNAME
  1
Imperial24
102
FLAGS
 90
        0
  0
CELLSTYLEMAP
  5
15B
102
{ACAD_REACTORS
330
15A
102
}
330
15A
100
AcDbCellStyleMap
 90
        3
300
CELLSTYLE
  1
TABLEFORMAT_BEGIN
 90
        5
170
     1
 91
        0
 92
    32768
 62
   257
 93
        1
300
CONTENTFORMAT
  1
CONTENTFORMAT_BEGIN
 90
        0
 91
        0
 92
      512
 93
        0
300

 40
0.0
140
1.0
 94
        5
 62
     0
340
55
144
0.25
309
CONTENTFORMAT_END
171
     0
 94
        0
309
TABLEFORMAT_END
  1
CELLSTYLE_BEGIN
 90
        1
 91
        1
300
_TITLE
309
CELLSTYLE_END
300
CELLSTYLE
  1
TABLEFORMAT_BEGIN
 90
        5
170
     1
 91
        0
 92
        0
 62
   257
 93
        1
300
CONTENTFORMAT
  1
CONTENTFORMAT_BEGIN
 90
        0
 91
        0
 92
      512
 93
        0
300

 40
0.0
140
1.0
 94
        5
 62
     0
340
55
144
0.18
309
CONTENTFORMAT_END
171
     0
 94
        0
309
TABLEFORMAT_END
  1
CELLSTYLE_BEGIN
 90
        2
 91
        1
300
_HEADER
309
CELLSTYLE_END
300
CELLSTYLE
  1
TABLEFORMAT_BEGIN
 90
        5
170
     1
 91
        0
 92
        0
 62
   257
 93
        1
300
CONTENTFORMAT
  1
CONTENTFORMAT_BEGIN
 90
        0
 91
        0
 92
      512
 93
        0
300

 40
0.0
140
1.0
 94
        2
 62
     0
340
55
144
0.18
309
CONTENTFORMAT_END
171
     0
 94
        0
309
TABLEFORMAT_END
  1
CELLSTYLE_BEGIN
 90
        3
 91
        2
300
_DATA
309
CELLSTYLE_END
  0
XRECORD
  5
168
102
{ACAD_REACTORS
330
167
102
}
330
167
100
AcDbXrecord
280
     1
102
RTVSPost2010Prop28
280
     1
102
RTVSPost2010PropOp28
 70
     1
102
RTVSPost2010Prop29
280
     1
102
RTVSPost2010PropOp29
 70
     1
102
RTVSPost2010Prop30
280
     0
102
RTVSPost2010PropOp30
 70
     1
102
RTVSPost2010Prop31
280
     0
102
RTVSPost2010PropOp31
 70
     1
102
RTVSPost2010Prop32
280
     0
102
RTVSPost2010PropOp32
 70
     1
102
RTVSPost2010Prop33
280
     0
102
RTVSPost2010PropOp33
 70
     1
102
RTVSPost2010Prop34
280
     0
102
RTVSPost2010PropOp34
 70
     1
102
RTVSPost2010Prop35
280
     0
102
RTVSPost2010PropOp35
 70
     1
102
RTVSPost2010Prop36
280
     0
102
RTVSPost2010PropOp36
 70
     1
102
RTVSPost2010Prop37
 90
       50
102
RTVSPost2010PropOp37
 70
     1
102
RTVSPost2010Prop38
140
0.0
102
RTVSPost2010PropOp38
 70
     1
102
RTVSPost2010Prop39
140
1.0
102
RTVSPost2010PropOp39
 70
     1
102
RTVSPost2010Prop40
 90
        0
102
RTVSPost2010PropOp40
 70
     1
102
RTVSPost2010Prop41ColorIndex
 90
       18
102
RTVSPost2010Prop41ColorRGB
 90
        0
102
RTVSPost2010PropOp41
 70
     1
102
RTVSPost2010Prop42
 90
       50
102
RTVSPost2010PropOp42
 70
     1
102
RTVSPost2010Prop43
 90
        3
102
RTVSPost2010PropOp43
 70
     1
102
RTVSPost2010Prop44ColorIndex
 90
        5
102
RTVSPost2010Prop44ColorRGB
 90
      255
102
RTVSPost2010PropOp44
 70
     1
102
RTVSPost2010Prop45
280
     0
102
RTVSPost2010PropOp45
 70
     1
102
RTVSPost2010Prop46
 90
       50
102
RTVSPost2010PropOp46
 70
     1
102
RTVSPost2010Prop47
 90
       50
102
RTVSPost2010PropOp47
 70
     1
102
RTVSPost2010Prop48
 90
       50
102
RTVSPost2010PropOp48
 70
     1
102
RTVSPost2010Prop49
280
     0
102
RTVSPost2010PropOp49
 70
     1
102
RTVSPost2010Prop50
 90
       50
102
RTVSPost2010PropOp50
 70
     1
102
RTVSPost2010Prop51ColorIndex
 90
      256
102
RTVSPost2010Prop51ColorRGB
 90
-16777216
102
RTVSPost2010PropOp51
 70
     0
102
RTVSPost2010Prop52
140
1.0
102
RTVSPost2010PropOp52
 70
     0
102
RTVSPost2010Prop53
 90
        2
102
RTVSPost2010PropOp53
 70
     1
102
RTVSPost2010Prop54
  1
strokes_ogs.tif
102
RTVSPost2010PropOp54
 70
     1
102
RTVSPost2010Prop55
280
     0
102
RTVSPost2010PropOp55
 70
     1
102
RTVSPost2010Prop56
140
1.0
102
RTVSPost2010PropOp56
 70
     1
102
RTVSPost2010Prop57
140
1.0
102
RTVSPost2010PropOp57
 70
     1
  0
XRECORD
  5
166
102
{ACAD_REACTORS
330
165
102
}
330
165
100
AcDbXrecord
280
     1
102
RTVSPost2010Prop28
280
     0
102
RTVSPost2010PropOp28
 70
     1
102
RTVSPost2010Prop29
280
     1
102
RTVSPost2010PropOp29
 70
     1
102
RTVSPost2010Prop30
280
     1
102
RTVSPost2010PropOp30
 70
     1
102
RTVSPost2010Prop31
280
     0
102
RTVSPost2010PropOp31
 70
     1
102
RTVSPost2010Prop32
280
     0
102
RTVSPost2010PropOp32
 70
     1
102
RTVSPost2010Prop33
280
     0
102
RTVSPost2010PropOp33
 70
     1
102
RTVSPost2010Prop34
280
     0
102
RTVSPost2010PropOp34
 70
     1
102
RTVSPost2010Prop35
280
     0
102
RTVSPost2010PropOp35
 70
     1
102
RTVSPost2010Prop36
280
     0
102
RTVSPost2010PropOp36
 70
     1
102
RTVSPost2010Prop37
 90
       50
102
RTVSPost2010PropOp37
 70
     1
102
RTVSPost2010Prop38
140
0.0
102
RTVSPost2010PropOp38
 70
     1
102
RTVSPost2010Prop39
140
1.0
102
RTVSPost2010PropOp39
 70
     1
102
RTVSPost2010Prop40
 90
        0
102
RTVSPost2010PropOp40
 70
     1
102
RTVSPost2010Prop41ColorIndex
 90
       18
102
RTVSPost2010Prop41ColorRGB
 90
        0
102
RTVSPost2010PropOp41
 70
     1
102
RTVSPost2010Prop42
 90
       50
102
RTVSPost2010PropOp42
 70
     1
102
RTVSPost2010Prop43
 90
        3
102
RTVSPost2010PropOp43
 70
     1
102
RTVSPost2010Prop44ColorIndex
 90
        5
102
RTVSPost2010Prop44ColorRGB
 90
      255
102
RTVSPost2010PropOp44
 70
     1
102
RTVSPost2010Prop45
280
     0
102
RTVSPost2010PropOp45
 70
     1
102
RTVSPost2010Prop46
 90
       50
102
RTVSPost2010PropOp46
 70
     1
102
RTVSPost2010Prop47
 90
       50
102
RTVSPost2010PropOp47
 70
     1
102
RTVSPost2010Prop48
 90
       50
102
RTVSPost2010PropOp48
 70
     1
102
RTVSPost2010Prop49
280
     0
102
RTVSPost2010PropOp49
 70
     1
102
RTVSPost2010Prop50
 90
       50
102
RTVSPost2010PropOp50
 70
     1
102
RTVSPost2010Prop51ColorIndex
 90
      256
102
RTVSPost2010Prop51ColorRGB
 90
-16777216
102
RTVSPost2010PropOp51
 70
     0
102
RTVSPost2010Prop52
140
1.0
102
RTVSPost2010PropOp52
 70
     0
102
RTVSPost2010Prop53
 90
        2
102
RTVSPost2010PropOp53
 70
     1
102
RTVSPost2010Prop54
  1
strokes_ogs.tif
102
RTVSPost2010PropOp54
 70
     1
102
RTVSPost2010Prop55
280
     0
102
RTVSPost2010PropOp55
 70
     1
102
RTVSPost2010Prop56
140
1.0
102
RTVSPost2010PropOp56
 70
     1
102
RTVSPost2010Prop57
140
1.0
102
RTVSPost2010PropOp57
 70
     1
  0
XRECORD
  5
174
102
{ACAD_REACTORS
330
173
102
}
330
173
100
AcDbXrecord
280
     1
102
RTVSPost2010Prop28
280
     0
102
RTVSPost2010PropOp28
 70
     1
102
RTVSPost2010Prop29
280
     1
102
RTVSPost2010PropOp29
 70
     1
102
RTVSPost2010Prop30
280
     1
102
RTVSPost2010PropOp30
 70
     1
102
RTVSPost2010Prop31
280
     0
102
RTVSPost2010PropOp31
 70
     1
102
RTVSPost2010Prop32
280
     0
102
RTVSPost2010PropOp32
 70
     1
102
RTVSPost2010Prop33
280
     0
102
RTVSPost2010PropOp33
 70
     1
102
RTVSPost2010Prop34
280
     0
102
RTVSPost2010PropOp34
 70
     1
102
RTVSPost2010Prop35
280
     0
102
RTVSPost2010PropOp35
 70
     1
102
RTVSPost2010Prop36
280
     0
102
RTVSPost2010PropOp36
 70
     1
102
RTVSPost2010Prop37
 90
       50
102
RTVSPost2010PropOp37
 70
     1
102
RTVSPost2010Prop38
140
0.0
102
RTVSPost2010PropOp38
 70
     1
102
RTVSPost2010Prop39
140
1.0
102
RTVSPost2010PropOp39
 70
     1
102
RTVSPost2010Prop40
 90
        0
102
RTVSPost2010PropOp40
 70
     1
102
RTVSPost2010Prop41ColorIndex
 90
       18
102
RTVSPost2010Prop41ColorRGB
 90
        0
102
RTVSPost2010PropOp41
 70
     1
102
RTVSPost2010Prop42
 90
       50
102
RTVSPost2010PropOp42
 70
     1
102
RTVSPost2010Prop43
 90
        3
102
RTVSPost2010PropOp43
 70
     1
102
RTVSPost2010Prop44ColorIndex
 90
        5
102
RTVSPost2010Prop44ColorRGB
 90
      255
102
RTVSPost2010PropOp44
 70
     1
102
RTVSPost2010Prop45
280
     0
102
RTVSPost2010PropOp45
 70
     1
102
RTVSPost2010Prop46
 90
       50
102
RTVSPost2010PropOp46
 70
     1
102
RTVSPost2010Prop47
 90
       50
102
RTVSPost2010PropOp47
 70
     1
102
RTVSPost2010Prop48
 90
       50
102
RTVSPost2010PropOp48
 70
     1
102
RTVSPost2010Prop49
280
     0
102
RTVSPost2010PropOp49
 70
     1
102
RTVSPost2010Prop50
 90
       50
102
RTVSPost2010PropOp50
 70
     1
102
RTVSPost2010Prop51ColorIndex
 90
      256
102
RTVSPost2010Prop51ColorRGB
 90
-16777216
102
RTVSPost2010PropOp51
 70
     0
102
RTVSPost2010Prop52
140
1.0
102
RTVSPost2010PropOp52
 70
     0
102
RTVSPost2010Prop53
 90
        2
102
RTVSPost2010PropOp53
 70
     1
102
RTVSPost2010Prop54
  1
strokes_ogs.tif
102
RTVSPost2010PropOp54
 70
     1
102
RTVSPost2010Prop55
280
     0
102
RTVSPost2010PropOp55
 70
     1
102
RTVSPost2010Prop56
140
1.0
102
RTVSPost2010PropOp56
 70
     1
102
RTVSPost2010Prop57
140
1.0
102
RTVSPost2010PropOp57
 70
     1
  0
XRECORD
  5
17C
102
{ACAD_REACTORS
330
17B
102
}
330
17B
100
AcDbXrecord
280
     1
102
RTVSPost2010Prop28
280
     0
102
RTVSPost2010PropOp28
 70
     1
102
RTVSPost2010Prop29
280
     1
102
RTVSPost2010PropOp29
 70
     1
102
RTVSPost2010Prop30
280
     1
102
RTVSPost2010PropOp30
 70
     1
102
RTVSPost2010Prop31
280
     0
102
RTVSPost2010PropOp31
 70
     1
102
RTVSPost2010Prop32
280
     0
102
RTVSPost2010PropOp32
 70
     1
102
RTVSPost2010Prop33
280
     0
102
RTVSPost2010PropOp33
 70
     1
102
RTVSPost2010Prop34
280
     0
102
RTVSPost2010PropOp34
 70
     1
102
RTVSPost2010Prop35
280
     0
102
RTVSPost2010PropOp35
 70
     1
102
RTVSPost2010Prop36
280
     0
102
RTVSPost2010PropOp36
 70
     1
102
RTVSPost2010Prop37
 90
       50
102
RTVSPost2010PropOp37
 70
     1
102
RTVSPost2010Prop38
140
0.0
102
RTVSPost2010PropOp38
 70
     1
102
RTVSPost2010Prop39
140
1.0
102
RTVSPost2010PropOp39
 70
     1
102
RTVSPost2010Prop40
 90
        0
102
RTVSPost2010PropOp40
 70
     1
102
RTVSPost2010Prop41ColorIndex
 90
       18
102
RTVSPost2010Prop41ColorRGB
 90
        0
102
RTVSPost2010PropOp41
 70
     1
102
RTVSPost2010Prop42
 90
       50
102
RTVSPost2010PropOp42
 70
     1
102
RTVSPost2010Prop43
 90
        3
102
RTVSPost2010PropOp43
 70
     1
102
RTVSPost2010Prop44ColorIndex
 90
        5
102
RTVSPost2010Prop44ColorRGB
 90
      255
102
RTVSPost2010PropOp44
 70
     1
102
RTVSPost2010Prop45
280
     0
102
RTVSPost2010PropOp45
 70
     1
102
RTVSPost2010Prop46
 90
       50
102
RTVSPost2010PropOp46
 70
     1
102
RTVSPost2010Prop47
 90
       50
102
RTVSPost2010PropOp47
 70
     1
102
RTVSPost2010Prop48
 90
       50
102
RTVSPost2010PropOp48
 70
     1
102
RTVSPost2010Prop49
280
     0
102
RTVSPost2010PropOp49
 70
     1
102
RTVSPost2010Prop50
 90
       50
102
RTVSPost2010PropOp50
 70
     1
102
RTVSPost2010Prop51ColorIndex
 90
      256
102
RTVSPost2010Prop51ColorRGB
 90
-16777216
102
RTVSPost2010PropOp51
 70
     0
102
RTVSPost2010Prop52
140
1.0
102
RTVSPost2010PropOp52
 70
     0
102
RTVSPost2010Prop53
 90
        2
102
RTVSPost2010PropOp53
 70
     1
102
RTVSPost2010Prop54
  1
strokes_ogs.tif
102
RTVSPost2010PropOp54
 70
     1
102
RTVSPost2010Prop55
280
     0
102
RTVSPost2010PropOp55
 70
     1
102
RTVSPost2010Prop56
140
1.0
102
RTVSPost2010PropOp56
 70
     1
102
RTVSPost2010Prop57
140
1.0
102
RTVSPost2010PropOp57
 70
     1
  0
XRECORD
  5
16E
102
{ACAD_REACTORS
330
16D
102
}
330
16D
100
AcDbXrecord
280
     1
102
RTVSPost2010Prop28
280
     0
102
RTVSPost2010PropOp28
 70
     1
102
RTVSPost2010Prop29
280
     1
102
RTVSPost2010PropOp29
 70
     1
102
RTVSPost2010Prop30
280
     1
102
RTVSPost2010PropOp30
 70
     1
102
RTVSPost2010Prop31
280
     0
102
RTVSPost2010PropOp31
 70
     1
102
RTVSPost2010Prop32
280
     0
102
RTVSPost2010PropOp32
 70
     1
102
RTVSPost2010Prop33
280
     0
102
RTVSPost2010PropOp33
 70
     1
102
RTVSPost2010Prop34
280
     0
102
RTVSPost2010PropOp34
 70
     1
102
RTVSPost2010Prop35
280
     0
102
RTVSPost2010PropOp35
 70
     1
102
RTVSPost2010Prop36
280
     0
102
RTVSPost2010PropOp36
 70
     1
102
RTVSPost2010Prop37
 90
       50
102
RTVSPost2010PropOp37
 70
     1
102
RTVSPost2010Prop38
140
0.0
102
RTVSPost2010PropOp38
 70
     1
102
RTVSPost2010Prop39
140
1.0
102
RTVSPost2010PropOp39
 70
     1
102
RTVSPost2010Prop40
 90
        0
102
RTVSPost2010PropOp40
 70
     1
102
RTVSPost2010Prop41ColorIndex
 90
       18
102
RTVSPost2010Prop41ColorRGB
 90
        0
102
RTVSPost2010PropOp41
 70
     1
102
RTVSPost2010Prop42
 90
       50
102
RTVSPost2010PropOp42
 70
     1
102
RTVSPost2010Prop43
 90
        3
102
RTVSPost2010PropOp43
 70
     1
102
RTVSPost2010Prop44ColorIndex
 90
        5
102
RTVSPost2010Prop44ColorRGB
 90
      255
102
RTVSPost2010PropOp44
 70
     1
102
RTVSPost2010Prop45
280
     0
102
RTVSPost2010PropOp45
 70
     1
102
RTVSPost2010Prop46
 90
       50
102
RTVSPost2010PropOp46
 70
     1
102
RTVSPost2010Prop47
 90
       50
102
RTVSPost2010PropOp47
 70
     1
102
RTVSPost2010Prop48
 90
       50
102
RTVSPost2010PropOp48
 70
     1
102
RTVSPost2010Prop49
280
     0
102
RTVSPost2010PropOp49
 70
     1
102
RTVSPost2010Prop50
 90
       50
102
RTVSPost2010PropOp50
 70
     1
102
RTVSPost2010Prop51ColorIndex
 90
      256
102
RTVSPost2010Prop51ColorRGB
 90
-16777216
102
RTVSPost2010PropOp51
 70
     0
102
RTVSPost2010Prop52
140
1.0
102
RTVSPost2010PropOp52
 70
     0
102
RTVSPost2010Prop53
 90
        2
102
RTVSPost2010PropOp53
 70
     1
102
RTVSPost2010Prop54
  1
strokes_ogs.tif
102
RTVSPost2010PropOp54
 70
     1
102
RTVSPost2010Prop55
280
     0
102
RTVSPost2010PropOp55
 70
     1
102
RTVSPost2010Prop56
140
1.0
102
RTVSPost2010PropOp56
 70
     1
102
RTVSPost2010Prop57
140
1.0
102
RTVSPost2010PropOp57
 70
     1
  0
XRECORD
  5
172
102
{ACAD_REACTORS
330
171
102
}
330
171
100
AcDbXrecord
280
     1
102
RTVSPost2010Prop28
280
     0
102
RTVSPost2010PropOp28
 70
     1
102
RTVSPost2010Prop29
280
     1
102
RTVSPost2010PropOp29
 70
     1
102
RTVSPost2010Prop30
280
     1
102
RTVSPost2010PropOp30
 70
     1
102
RTVSPost2010Prop31
280
     0
102
RTVSPost2010PropOp31
 70
     1
102
RTVSPost2010Prop32
280
     0
102
RTVSPost2010PropOp32
 70
     1
102
RTVSPost2010Prop33
280
     0
102
RTVSPost2010PropOp33
 70
     1
102
RTVSPost2010Prop34
280
     0
102
RTVSPost2010PropOp34
 70
     1
102
RTVSPost2010Prop35
280
     0
102
RTVSPost2010PropOp35
 70
     1
102
RTVSPost2010Prop36
280
     0
102
RTVSPost2010PropOp36
 70
     1
102
RTVSPost2010Prop37
 90
       50
102
RTVSPost2010PropOp37
 70
     1
102
RTVSPost2010Prop38
140
0.0
102
RTVSPost2010PropOp38
 70
     1
102
RTVSPost2010Prop39
140
1.0
102
RTVSPost2010PropOp39
 70
     1
102
RTVSPost2010Prop40
 90
        0
102
RTVSPost2010PropOp40
 70
     1
102
RTVSPost2010Prop41ColorIndex
 90
       18
102
RTVSPost2010Prop41ColorRGB
 90
        0
102
RTVSPost2010PropOp41
 70
     1
102
RTVSPost2010Prop42
 90
       50
102
RTVSPost2010PropOp42
 70
     1
102
RTVSPost2010Prop43
 90
        3
102
RTVSPost2010PropOp43
 70
     1
102
RTVSPost2010Prop44ColorIndex
 90
        5
102
RTVSPost2010Prop44ColorRGB
 90
      255
102
RTVSPost2010PropOp44
 70
     1
102
RTVSPost2010Prop45
280
     0
102
RTVSPost2010PropOp45
 70
     1
102
RTVSPost2010Prop46
 90
       50
102
RTVSPost2010PropOp46
 70
     1
102
RTVSPost2010Prop47
 90
       50
102
RTVSPost2010PropOp47
 70
     1
102
RTVSPost2010Prop48
 90
       50
102
RTVSPost2010PropOp48
 70
     1
102
RTVSPost2010Prop49
280
     0
102
RTVSPost2010PropOp49
 70
     1
102
RTVSPost2010Prop50
 90
       50
102
RTVSPost2010PropOp50
 70
     1
102
RTVSPost2010Prop51ColorIndex
 90
      256
102
RTVSPost2010Prop51ColorRGB
 90
-16777216
102
RTVSPost2010PropOp51
 70
     0
102
RTVSPost2010Prop52
140
1.0
102
RTVSPost2010PropOp52
 70
     0
102
RTVSPost2010Prop53
 90
        2
102
RTVSPost2010PropOp53
 70
     1
102
RTVSPost2010Prop54
  1
strokes_ogs.tif
102
RTVSPost2010PropOp54
 70
     1
102
RTVSPost2010Prop55
280
     0
102
RTVSPost2010PropOp55
 70
     1
102
RTVSPost2010Prop56
140
1.0
102
RTVSPost2010PropOp56
 70
     1
102
RTVSPost2010Prop57
140
1.0
102
RTVSPost2010PropOp57
 70
     1
  0
XRECORD
  5
18C
102
{ACAD_REACTORS
330
18B
102
}
330
18B
100
AcDbXrecord
280
     1
102
RTVSPost2010Prop28
280
     0
102
RTVSPost2010PropOp28
 70
     0
102
RTVSPost2010Prop29
280
     1
102
RTVSPost2010PropOp29
 70
     0
102
RTVSPost2010Prop30
280
     1
102
RTVSPost2010PropOp30
 70
     0
102
RTVSPost2010Prop31
280
     0
102
RTVSPost2010PropOp31
 70
     0
102
RTVSPost2010Prop32
280
     0
102
RTVSPost2010PropOp32
 70
     0
102
RTVSPost2010Prop33
280
     0
102
RTVSPost2010PropOp33
 70
     0
102
RTVSPost2010Prop34
280
     0
102
RTVSPost2010PropOp34
 70
     0
102
RTVSPost2010Prop35
280
     0
102
RTVSPost2010PropOp35
 70
     0
102
RTVSPost2010Prop36
280
     0
102
RTVSPost2010PropOp36
 70
     0
102
RTVSPost2010Prop37
 90
       50
102
RTVSPost2010PropOp37
 70
     0
102
RTVSPost2010Prop38
140
0.0
102
RTVSPost2010PropOp38
 70
     0
102
RTVSPost2010Prop39
140
1.0
102
RTVSPost2010PropOp39
 70
     0
102
RTVSPost2010Prop40
 90
        0
102
RTVSPost2010PropOp40
 70
     0
102
RTVSPost2010Prop41ColorIndex
 90
       18
102
RTVSPost2010Prop41ColorRGB
 90
        0
102
RTVSPost2010PropOp41
 70
     0
102
RTVSPost2010Prop42
 90
       50
102
RTVSPost2010PropOp42
 70
     0
102
RTVSPost2010Prop43
 90
        3
102
RTVSPost2010PropOp43
 70
     0
102
RTVSPost2010Prop44ColorIndex
 90
        5
102
RTVSPost2010Prop44ColorRGB
 90
      255
102
RTVSPost2010PropOp44
 70
     0
102
RTVSPost2010Prop45
280
     0
102
RTVSPost2010PropOp45
 70
     0
102
RTVSPost2010Prop46
 90
       50
102
RTVSPost2010PropOp46
 70
     0
102
RTVSPost2010Prop47
 90
       50
102
RTVSPost2010PropOp47
 70
     0
102
RTVSPost2010Prop48
 90
       50
102
RTVSPost2010PropOp48
 70
     0
102
RTVSPost2010Prop49
280
     0
102
RTVSPost2010PropOp49
 70
     0
102
RTVSPost2010Prop50
 90
       50
102
RTVSPost2010PropOp50
 70
     0
102
RTVSPost2010Prop51ColorIndex
 90
      256
102
RTVSPost2010Prop51ColorRGB
 90
-16777216
102
RTVSPost2010PropOp51
 70
     0
102
RTVSPost2010Prop52
140
1.0
102
RTVSPost2010PropOp52
 70
     0
102
RTVSPost2010Prop53
 90
        2
102
RTVSPost2010PropOp53
 70
     0
102
RTVSPost2010Prop54
  1
strokes_ogs.tif
102
RTVSPost2010PropOp54
 70
     0
102
RTVSPost2010Prop55
280
     0
102
RTVSPost2010PropOp55
 70
     0
102
RTVSPost2010Prop56
140
1.0
102
RTVSPost2010PropOp56
 70
     0
102
RTVSPost2010Prop57
140
1.0
102
RTVSPost2010PropOp57
 70
     0
  0
XRECORD
  5
17A
102
{ACAD_REACTORS
330
179
102
}
330
179
100
AcDbXrecord
280
     1
102
RTVSPost2010Prop28
280
     0
102
RTVSPost2010PropOp28
 70
     1
102
RTVSPost2010Prop29
280
     1
102
RTVSPost2010PropOp29
 70
     1
102
RTVSPost2010Prop30
280
     1
102
RTVSPost2010PropOp30
 70
     1
102
RTVSPost2010Prop31
280
     0
102
RTVSPost2010PropOp31
 70
     1
102
RTVSPost2010Prop32
280
     0
102
RTVSPost2010PropOp32
 70
     1
102
RTVSPost2010Prop33
280
     0
102
RTVSPost2010PropOp33
 70
     1
102
RTVSPost2010Prop34
280
     0
102
RTVSPost2010PropOp34
 70
     1
102
RTVSPost2010Prop35
280
     0
102
RTVSPost2010PropOp35
 70
     1
102
RTVSPost2010Prop36
280
     0
102
RTVSPost2010PropOp36
 70
     1
102
RTVSPost2010Prop37
 90
       50
102
RTVSPost2010PropOp37
 70
     1
102
RTVSPost2010Prop38
140
0.0
102
RTVSPost2010PropOp38
 70
     1
102
RTVSPost2010Prop39
140
1.0
102
RTVSPost2010PropOp39
 70
     1
102
RTVSPost2010Prop40
 90
        0
102
RTVSPost2010PropOp40
 70
     1
102
RTVSPost2010Prop41ColorIndex
 90
       18
102
RTVSPost2010Prop41ColorRGB
 90
        0
102
RTVSPost2010PropOp41
 70
     1
102
RTVSPost2010Prop42
 90
       50
102
RTVSPost2010PropOp42
 70
     1
102
RTVSPost2010Prop43
 90
        3
102
RTVSPost2010PropOp43
 70
     1
102
RTVSPost2010Prop44ColorIndex
 90
        5
102
RTVSPost2010Prop44ColorRGB
 90
      255
102
RTVSPost2010PropOp44
 70
     1
102
RTVSPost2010Prop45
280
     0
102
RTVSPost2010PropOp45
 70
     1
102
RTVSPost2010Prop46
 90
       50
102
RTVSPost2010PropOp46
 70
     1
102
RTVSPost2010Prop47
 90
       50
102
RTVSPost2010PropOp47
 70
     1
102
RTVSPost2010Prop48
 90
       50
102
RTVSPost2010PropOp48
 70
     1
102
RTVSPost2010Prop49
280
     0
102
RTVSPost2010PropOp49
 70
     1
102
RTVSPost2010Prop50
 90
       50
102
RTVSPost2010PropOp50
 70
     1
102
RTVSPost2010Prop51ColorIndex
 90
      256
102
RTVSPost2010Prop51ColorRGB
 90
-16777216
102
RTVSPost2010PropOp51
 70
     0
102
RTVSPost2010Prop52
140
1.0
102
RTVSPost2010PropOp52
 70
     0
102
RTVSPost2010Prop53
 90
        2
102
RTVSPost2010PropOp53
 70
     1
102
RTVSPost2010Prop54
  1
strokes_ogs.tif
102
RTVSPost2010PropOp54
 70
     1
102
RTVSPost2010Prop55
280
     0
102
RTVSPost2010PropOp55
 70
     1
102
RTVSPost2010Prop56
140
1.0
102
RTVSPost2010PropOp56
 70
     1
102
RTVSPost2010Prop57
140
1.0
102
RTVSPost2010PropOp57
 70
     1
  0
XRECORD
  5
15E
102
{ACAD_REACTORS
330
15D
102
}
330
15D
100
AcDbXrecord
280
     1
102
RTVSPost2010Prop28
280
     0
102
RTVSPost2010PropOp28
 70
     1
102
RTVSPost2010Prop29
280
     1
102
RTVSPost2010PropOp29
 70
     1
102
RTVSPost2010Prop30
280
     1
102
RTVSPost2010PropOp30
 70
     1
102
RTVSPost2010Prop31
280
     0
102
RTVSPost2010PropOp31
 70
     1
102
RTVSPost2010Prop32
280
     0
102
RTVSPost2010PropOp32
 70
     1
102
RTVSPost2010Prop33
280
     0
102
RTVSPost2010PropOp33
 70
     1
102
RTVSPost2010Prop34
280
     0
102
RTVSPost2010PropOp34
 70
     1
102
RTVSPost2010Prop35
280
     0
102
RTVSPost2010PropOp35
 70
     1
102
RTVSPost2010Prop36
280
     0
102
RTVSPost2010PropOp36
 70
     1
102
RTVSPost2010Prop37
 90
       50
102
RTVSPost2010PropOp37
 70
     1
102
RTVSPost2010Prop38
140
0.0
102
RTVSPost2010PropOp38
 70
     1
102
RTVSPost2010Prop39
140
1.0
102
RTVSPost2010PropOp39
 70
     1
102
RTVSPost2010Prop40
 90
        0
102
RTVSPost2010PropOp40
 70
     1
102
RTVSPost2010Prop41ColorIndex
 90
       18
102
RTVSPost2010Prop41ColorRGB
 90
        0
102
RTVSPost2010PropOp41
 70
     1
102
RTVSPost2010Prop42
 90
       50
102
RTVSPost2010PropOp42
 70
     1
102
RTVSPost2010Prop43
 90
        3
102
RTVSPost2010PropOp43
 70
     1
102
RTVSPost2010Prop44ColorIndex
 90
        5
102
RTVSPost2010Prop44ColorRGB
 90
      255
102
RTVSPost2010PropOp44
 70
     1
102
RTVSPost2010Prop45
280
     0
102
RTVSPost2010PropOp45
 70
     1
102
RTVSPost2010Prop46
 90
       50
102
RTVSPost2010PropOp46
 70
     1
102
RTVSPost2010Prop47
 90
       50
102
RTVSPost2010PropOp47
 70
     1
102
RTVSPost2010Prop48
 90
       50
102
RTVSPost2010PropOp48
 70
     1
102
RTVSPost2010Prop49
280
     0
102
RTVSPost2010PropOp49
 70
     1
102
RTVSPost2010Prop50
 90
       50
102
RTVSPost2010PropOp50
 70
     1
102
RTVSPost2010Prop51ColorIndex
 90
      256
102
RTVSPost2010Prop51ColorRGB
 90
-16777216
102
RTVSPost2010PropOp51
 70
     0
102
RTVSPost2010Prop52
140
1.0
102
RTVSPost2010PropOp52
 70
     0
102
RTVSPost2010Prop53
 90
        2
102
RTVSPost2010PropOp53
 70
     1
102
RTVSPost2010Prop54
  1
strokes_ogs.tif
102
RTVSPost2010PropOp54
 70
     1
102
RTVSPost2010Prop55
280
     0
102
RTVSPost2010PropOp55
 70
     1
102
RTVSPost2010Prop56
140
1.0
102
RTVSPost2010PropOp56
 70
     1
102
RTVSPost2010Prop57
140
1.0
102
RTVSPost2010PropOp57
 70
     1
  0
XRECORD
  5
160
102
{ACAD_REACTORS
330
15F
102
}
330
15F
100
AcDbXrecord
280
     1
102
RTVSPost2010Prop28
280
     0
102
RTVSPost2010PropOp28
 70
     1
102
RTVSPost2010Prop29
280
     1
102
RTVSPost2010PropOp29
 70
     1
102
RTVSPost2010Prop30
280
     1
102
RTVSPost2010PropOp30
 70
     1
102
RTVSPost2010Prop31
280
     0
102
RTVSPost2010PropOp31
 70
     1
102
RTVSPost2010Prop32
280
     0
102
RTVSPost2010PropOp32
 70
     1
102
RTVSPost2010Prop33
280
     0
102
RTVSPost2010PropOp33
 70
     1
102
RTVSPost2010Prop34
280
     0
102
RTVSPost2010PropOp34
 70
     1
102
RTVSPost2010Prop35
280
     0
102
RTVSPost2010PropOp35
 70
     1
102
RTVSPost2010Prop36
280
     0
102
RTVSPost2010PropOp36
 70
     1
102
RTVSPost2010Prop37
 90
       50
102
RTVSPost2010PropOp37
 70
     1
102
RTVSPost2010Prop38
140
0.0
102
RTVSPost2010PropOp38
 70
     1
102
RTVSPost2010Prop39
140
1.0
102
RTVSPost2010PropOp39
 70
     1
102
RTVSPost2010Prop40
 90
        0
102
RTVSPost2010PropOp40
 70
     1
102
RTVSPost2010Prop41ColorIndex
 90
       18
102
RTVSPost2010Prop41ColorRGB
 90
        0
102
RTVSPost2010PropOp41
 70
     1
102
RTVSPost2010Prop42
 90
       50
102
RTVSPost2010PropOp42
 70
     1
102
RTVSPost2010Prop43
 90
        3
102
RTVSPost2010PropOp43
 70
     1
102
RTVSPost2010Prop44ColorIndex
 90
        5
102
RTVSPost2010Prop44ColorRGB
 90
      255
102
RTVSPost2010PropOp44
 70
     1
102
RTVSPost2010Prop45
280
     0
102
RTVSPost2010PropOp45
 70
     1
102
RTVSPost2010Prop46
 90
       50
102
RTVSPost2010PropOp46
 70
     1
102
RTVSPost2010Prop47
 90
       50
102
RTVSPost2010PropOp47
 70
     1
102
RTVSPost2010Prop48
 90
       50
102
RTVSPost2010PropOp48
 70
     1
102
RTVSPost2010Prop49
280
     0
102
RTVSPost2010PropOp49
 70
     1
102
RTVSPost2010Prop50
 90
       50
102
RTVSPost2010PropOp50
 70
     1
102
RTVSPost2010Prop51ColorIndex
 90
      256
102
RTVSPost2010Prop51ColorRGB
 90
-16777216
102
RTVSPost2010PropOp51
 70
     0
102
RTVSPost2010Prop52
140
1.0
102
RTVSPost2010PropOp52
 70
     0
102
RTVSPost2010Prop53
 90
        2
102
RTVSPost2010PropOp53
 70
     1
102
RTVSPost2010Prop54
  1
strokes_ogs.tif
102
RTVSPost2010PropOp54
 70
     1
102
RTVSPost2010Prop55
280
     0
102
RTVSPost2010PropOp55
 70
     1
102
RTVSPost2010Prop56
140
1.0
102
RTVSPost2010PropOp56
 70
     1
102
RTVSPost2010Prop57
140
1.0
102
RTVSPost2010PropOp57
 70
     1
  0
XRECORD
  5
162
102
{ACAD_REACTORS
330
161
102
}
330
161
100
AcDbXrecord
280
     1
102
RTVSPost2010Prop28
280
     0
102
RTVSPost2010PropOp28
 70
     1
102
RTVSPost2010Prop29
280
     1
102
RTVSPost2010PropOp29
 70
     1
102
RTVSPost2010Prop30
280
     1
102
RTVSPost2010PropOp30
 70
     1
102
RTVSPost2010Prop31
280
     0
102
RTVSPost2010PropOp31
 70
     1
102
RTVSPost2010Prop32
280
     0
102
RTVSPost2010PropOp32
 70
     1
102
RTVSPost2010Prop33
280
     0
102
RTVSPost2010PropOp33
 70
     1
102
RTVSPost2010Prop34
280
     0
102
RTVSPost2010PropOp34
 70
     1
102
RTVSPost2010Prop35
280
     0
102
RTVSPost2010PropOp35
 70
     1
102
RTVSPost2010Prop36
280
     0
102
RTVSPost2010PropOp36
 70
     1
102
RTVSPost2010Prop37
 90
       50
102
RTVSPost2010PropOp37
 70
     1
102
RTVSPost2010Prop38
140
0.0
102
RTVSPost2010PropOp38
 70
     1
102
RTVSPost2010Prop39
140
1.0
102
RTVSPost2010PropOp39
 70
     1
102
RTVSPost2010Prop40
 90
        0
102
RTVSPost2010PropOp40
 70
     1
102
RTVSPost2010Prop41ColorIndex
 90
       18
102
RTVSPost2010Prop41ColorRGB
 90
        0
102
RTVSPost2010PropOp41
 70
     1
102
RTVSPost2010Prop42
 90
       50
102
RTVSPost2010PropOp42
 70
     1
102
RTVSPost2010Prop43
 90
        3
102
RTVSPost2010PropOp43
 70
     1
102
RTVSPost2010Prop44ColorIndex
 90
        5
102
RTVSPost2010Prop44ColorRGB
 90
      255
102
RTVSPost2010PropOp44
 70
     1
102
RTVSPost2010Prop45
280
     0
102
RTVSPost2010PropOp45
 70
     1
102
RTVSPost2010Prop46
 90
       50
102
RTVSPost2010PropOp46
 70
     1
102
RTVSPost2010Prop47
 90
       50
102
RTVSPost2010PropOp47
 70
     1
102
RTVSPost2010Prop48
 90
       50
102
RTVSPost2010PropOp48
 70
     1
102
RTVSPost2010Prop49
280
     0
102
RTVSPost2010PropOp49
 70
     1
102
RTVSPost2010Prop50
 90
       50
102
RTVSPost2010PropOp50
 70
     1
102
RTVSPost2010Prop51ColorIndex
 90
      256
102
RTVSPost2010Prop51ColorRGB
 90
-16777216
102
RTVSPost2010PropOp51
 70
     0
102
RTVSPost2010Prop52
140
1.0
102
RTVSPost2010PropOp52
 70
     0
102
RTVSPost2010Prop53
 90
        2
102
RTVSPost2010PropOp53
 70
     1
102
RTVSPost2010Prop54
  1
strokes_ogs.tif
102
RTVSPost2010PropOp54
 70
     1
102
RTVSPost2010Prop55
280
     0
102
RTVSPost2010PropOp55
 70
     1
102
RTVSPost2010Prop56
140
1.0
102
RTVSPost2010PropOp56
 70
     1
102
RTVSPost2010Prop57
140
1.0
102
RTVSPost2010PropOp57
 70
     1
  0
XRECORD
  5
164
102
{ACAD_REACTORS
330
163
102
}
330
163
100
AcDbXrecord
280
     1
102
RTVSPost2010Prop28
280
     0
102
RTVSPost2010PropOp28
 70
     1
102
RTVSPost2010Prop29
280
     1
102
RTVSPost2010PropOp29
 70
     1
102
RTVSPost2010Prop30
280
     1
102
RTVSPost2010PropOp30
 70
     1
102
RTVSPost2010Prop31
280
     0
102
RTVSPost2010PropOp31
 70
     1
102
RTVSPost2010Prop32
280
     0
102
RTVSPost2010PropOp32
 70
     1
102
RTVSPost2010Prop33
280
     0
102
RTVSPost2010PropOp33
 70
     1
102
RTVSPost2010Prop34
280
     0
102
RTVSPost2010PropOp34
 70
     1
102
RTVSPost2010Prop35
280
     0
102
RTVSPost2010PropOp35
 70
     1
102
RTVSPost2010Prop36
280
     0
102
RTVSPost2010PropOp36
 70
     1
102
RTVSPost2010Prop37
 90
       50
102
RTVSPost2010PropOp37
 70
     1
102
RTVSPost2010Prop38
140
0.0
102
RTVSPost2010PropOp38
 70
     1
102
RTVSPost2010Prop39
140
1.0
102
RTVSPost2010PropOp39
 70
     1
102
RTVSPost2010Prop40
 90
        0
102
RTVSPost2010PropOp40
 70
     1
102
RTVSPost2010Prop41ColorIndex
 90
       18
102
RTVSPost2010Prop41ColorRGB
 90
        0
102
RTVSPost2010PropOp41
 70
     1
102
RTVSPost2010Prop42
 90
       50
102
RTVSPost2010PropOp42
 70
     1
102
RTVSPost2010Prop43
 90
        3
102
RTVSPost2010PropOp43
 70
     1
102
RTVSPost2010Prop44ColorIndex
 90
        5
102
RTVSPost2010Prop44ColorRGB
 90
      255
102
RTVSPost2010PropOp44
 70
     1
102
RTVSPost2010Prop45
280
     0
102
RTVSPost2010PropOp45
 70
     1
102
RTVSPost2010Prop46
 90
       50
102
RTVSPost2010PropOp46
 70
     1
102
RTVSPost2010Prop47
 90
       50
102
RTVSPost2010PropOp47
 70
     1
102
RTVSPost2010Prop48
 90
       50
102
RTVSPost2010PropOp48
 70
     1
102
RTVSPost2010Prop49
280
     0
102
RTVSPost2010PropOp49
 70
     1
102
RTVSPost2010Prop50
 90
       50
102
RTVSPost2010PropOp50
 70
     1
102
RTVSPost2010Prop51ColorIndex
 90
      256
102
RTVSPost2010Prop51ColorRGB
 90
-16777216
102
RTVSPost2010PropOp51
 70
     0
102
RTVSPost2010Prop52
140
1.0
102
RTVSPost2010PropOp52
 70
     0
102
RTVSPost2010Prop53
 90
        2
102
RTVSPost2010PropOp53
 70
     1
102
RTVSPost2010Prop54
  1
strokes_ogs.tif
102
RTVSPost2010PropOp54
 70
     1
102
RTVSPost2010Prop55
280
     0
102
RTVSPost2010PropOp55
 70
     1
102
RTVSPost2010Prop56
140
1.0
102
RTVSPost2010PropOp56
 70
     1
102
RTVSPost2010Prop57
140
1.0
102
RTVSPost2010PropOp57
 70
     1
  0
XRECORD
  5
16C
102
{ACAD_REACTORS
330
16B
102
}
330
16B
100
AcDbXrecord
280
     1
102
RTVSPost2010Prop28
280
     0
102
RTVSPost2010PropOp28
 70
     1
102
RTVSPost2010Prop29
280
     1
102
RTVSPost2010PropOp29
 70
     1
102
RTVSPost2010Prop30
280
     1
102
RTVSPost2010PropOp30
 70
     1
102
RTVSPost2010Prop31
280
     0
102
RTVSPost2010PropOp31
 70
     1
102
RTVSPost2010Prop32
280
     0
102
RTVSPost2010PropOp32
 70
     1
102
RTVSPost2010Prop33
280
     0
102
RTVSPost2010PropOp33
 70
     1
102
RTVSPost2010Prop34
280
     0
102
RTVSPost2010PropOp34
 70
     1
102
RTVSPost2010Prop35
280
     0
102
RTVSPost2010PropOp35
 70
     1
102
RTVSPost2010Prop36
280
     0
102
RTVSPost2010PropOp36
 70
     1
102
RTVSPost2010Prop37
 90
       50
102
RTVSPost2010PropOp37
 70
     1
102
RTVSPost2010Prop38
140
0.0
102
RTVSPost2010PropOp38
 70
     1
102
RTVSPost2010Prop39
140
1.0
102
RTVSPost2010PropOp39
 70
     1
102
RTVSPost2010Prop40
 90
        0
102
RTVSPost2010PropOp40
 70
     1
102
RTVSPost2010Prop41ColorIndex
 90
       18
102
RTVSPost2010Prop41ColorRGB
 90
        0
102
RTVSPost2010PropOp41
 70
     1
102
RTVSPost2010Prop42
 90
       50
102
RTVSPost2010PropOp42
 70
     1
102
RTVSPost2010Prop43
 90
        3
102
RTVSPost2010PropOp43
 70
     1
102
RTVSPost2010Prop44ColorIndex
 90
        5
102
RTVSPost2010Prop44ColorRGB
 90
      255
102
RTVSPost2010PropOp44
 70
     1
102
RTVSPost2010Prop45
280
     0
102
RTVSPost2010PropOp45
 70
     1
102
RTVSPost2010Prop46
 90
       50
102
RTVSPost2010PropOp46
 70
     1
102
RTVSPost2010Prop47
 90
       50
102
RTVSPost2010PropOp47
 70
     1
102
RTVSPost2010Prop48
 90
       50
102
RTVSPost2010PropOp48
 70
     1
102
RTVSPost2010Prop49
280
     0
102
RTVSPost2010PropOp49
 70
     1
102
RTVSPost2010Prop50
 90
       50
102
RTVSPost2010PropOp50
 70
     1
102
RTVSPost2010Prop51ColorIndex
 90
      256
102
RTVSPost2010Prop51ColorRGB
 90
-16777216
102
RTVSPost2010PropOp51
 70
     0
102
RTVSPost2010Prop52
140
1.0
102
RTVSPost2010PropOp52
 70
     0
102
RTVSPost2010Prop53
 90
        2
102
RTVSPost2010PropOp53
 70
     1
102
RTVSPost2010Prop54
  1
strokes_ogs.tif
102
RTVSPost2010PropOp54
 70
     1
102
RTVSPost2010Prop55
280
     0
102
RTVSPost2010PropOp55
 70
     1
102
RTVSPost2010Prop56
140
1.0
102
RTVSPost2010PropOp56
 70
     1
102
RTVSPost2010Prop57
140
1.0
102
RTVSPost2010PropOp57
 70
     1
  0
XRECORD
  5
188
102
{ACAD_REACTORS
330
187
102
}
330
187
100
AcDbXrecord
280
     1
102
RTVSPost2010Prop28
280
     0
102
RTVSPost2010PropOp28
 70
     0
102
RTVSPost2010Prop29
280
     1
102
RTVSPost2010PropOp29
 70
     0
102
RTVSPost2010Prop30
280
     1
102
RTVSPost2010PropOp30
 70
     0
102
RTVSPost2010Prop31
280
     0
102
RTVSPost2010PropOp31
 70
     0
102
RTVSPost2010Prop32
280
     0
102
RTVSPost2010PropOp32
 70
     0
102
RTVSPost2010Prop33
280
     0
102
RTVSPost2010PropOp33
 70
     0
102
RTVSPost2010Prop34
280
     0
102
RTVSPost2010PropOp34
 70
     0
102
RTVSPost2010Prop35
280
     0
102
RTVSPost2010PropOp35
 70
     0
102
RTVSPost2010Prop36
280
     0
102
RTVSPost2010PropOp36
 70
     0
102
RTVSPost2010Prop37
 90
       50
102
RTVSPost2010PropOp37
 70
     0
102
RTVSPost2010Prop38
140
0.0
102
RTVSPost2010PropOp38
 70
     0
102
RTVSPost2010Prop39
140
1.0
102
RTVSPost2010PropOp39
 70
     0
102
RTVSPost2010Prop40
 90
        0
102
RTVSPost2010PropOp40
 70
     0
102
RTVSPost2010Prop41ColorIndex
 90
       18
102
RTVSPost2010Prop41ColorRGB
 90
        0
102
RTVSPost2010PropOp41
 70
     0
102
RTVSPost2010Prop42
 90
       50
102
RTVSPost2010PropOp42
 70
     0
102
RTVSPost2010Prop43
 90
        3
102
RTVSPost2010PropOp43
 70
     0
102
RTVSPost2010Prop44ColorIndex
 90
        5
102
RTVSPost2010Prop44ColorRGB
 90
      255
102
RTVSPost2010PropOp44
 70
     0
102
RTVSPost2010Prop45
280
     0
102
RTVSPost2010PropOp45
 70
     0
102
RTVSPost2010Prop46
 90
       50
102
RTVSPost2010PropOp46
 70
     0
102
RTVSPost2010Prop47
 90
       50
102
RTVSPost2010PropOp47
 70
     0
102
RTVSPost2010Prop48
 90
       50
102
RTVSPost2010PropOp48
 70
     0
102
RTVSPost2010Prop49
280
     0
102
RTVSPost2010PropOp49
 70
     0
102
RTVSPost2010Prop50
 90
       50
102
RTVSPost2010PropOp50
 70
     0
102
RTVSPost2010Prop51ColorIndex
 90
      256
102
RTVSPost2010Prop51ColorRGB
 90
-16777216
102
RTVSPost2010PropOp51
 70
     0
102
RTVSPost2010Prop52
140
1.0
102
RTVSPost2010PropOp52
 70
     0
102
RTVSPost2010Prop53
 90
        2
102
RTVSPost2010PropOp53
 70
     0
102
RTVSPost2010Prop54
  1
strokes_ogs.tif
102
RTVSPost2010PropOp54
 70
     0
102
RTVSPost2010Prop55
280
     0
102
RTVSPost2010PropOp55
 70
     0
102
RTVSPost2010Prop56
140
1.0
102
RTVSPost2010PropOp56
 70
     0
102
RTVSPost2010Prop57
140
1.0
102
RTVSPost2010PropOp57
 70
     0
  0
XRECORD
  5
178
102
{ACAD_REACTORS
330
177
102
}
330
177
100
AcDbXrecord
280
     1
102
RTVSPost2010Prop28
280
     0
102
RTVSPost2010PropOp28
 70
     1
102
RTVSPost2010Prop29
280
     1
102
RTVSPost2010PropOp29
 70
     1
102
RTVSPost2010Prop30
280
     1
102
RTVSPost2010PropOp30
 70
     1
102
RTVSPost2010Prop31
280
     0
102
RTVSPost2010PropOp31
 70
     1
102
RTVSPost2010Prop32
280
     0
102
RTVSPost2010PropOp32
 70
     1
102
RTVSPost2010Prop33
280
     0
102
RTVSPost2010PropOp33
 70
     1
102
RTVSPost2010Prop34
280
     0
102
RTVSPost2010PropOp34
 70
     1
102
RTVSPost2010Prop35
280
     0
102
RTVSPost2010PropOp35
 70
     1
102
RTVSPost2010Prop36
280
     0
102
RTVSPost2010PropOp36
 70
     1
102
RTVSPost2010Prop37
 90
       50
102
RTVSPost2010PropOp37
 70
     1
102
RTVSPost2010Prop38
140
0.0
102
RTVSPost2010PropOp38
 70
     1
102
RTVSPost2010Prop39
140
1.0
102
RTVSPost2010PropOp39
 70
     1
102
RTVSPost2010Prop40
 90
        0
102
RTVSPost2010PropOp40
 70
     1
102
RTVSPost2010Prop41ColorIndex
 90
       18
102
RTVSPost2010Prop41ColorRGB
 90
        0
102
RTVSPost2010PropOp41
 70
     1
102
RTVSPost2010Prop42
 90
       50
102
RTVSPost2010PropOp42
 70
     1
102
RTVSPost2010Prop43
 90
        3
102
RTVSPost2010PropOp43
 70
     1
102
RTVSPost2010Prop44ColorIndex
 90
        5
102
RTVSPost2010Prop44ColorRGB
 90
      255
102
RTVSPost2010PropOp44
 70
     1
102
RTVSPost2010Prop45
280
     0
102
RTVSPost2010PropOp45
 70
     1
102
RTVSPost2010Prop46
 90
       50
102
RTVSPost2010PropOp46
 70
     1
102
RTVSPost2010Prop47
 90
       50
102
RTVSPost2010PropOp47
 70
     1
102
RTVSPost2010Prop48
 90
       50
102
RTVSPost2010PropOp48
 70
     1
102
RTVSPost2010Prop49
280
     0
102
RTVSPost2010PropOp49
 70
     1
102
RTVSPost2010Prop50
 90
       50
102
RTVSPost2010PropOp50
 70
     1
102
RTVSPost2010Prop51ColorIndex
 90
      256
102
RTVSPost2010Prop51ColorRGB
 90
-16777216
102
RTVSPost2010PropOp51
 70
     0
102
RTVSPost2010Prop52
140
1.0
102
RTVSPost2010PropOp52
 70
     0
102
RTVSPost2010Prop53
 90
        2
102
RTVSPost2010PropOp53
 70
     1
102
RTVSPost2010Prop54
  1
strokes_ogs.tif
102
RTVSPost2010PropOp54
 70
     1
102
RTVSPost2010Prop55
280
     0
102
RTVSPost2010PropOp55
 70
     1
102
RTVSPost2010Prop56
140
1.0
102
RTVSPost2010PropOp56
 70
     1
102
RTVSPost2010Prop57
140
1.0
102
RTVSPost2010PropOp57
 70
     1
  0
XRECORD
  5
18A
102
{ACAD_REACTORS
330
189
102
}
330
189
100
AcDbXrecord
280
     1
102
RTVSPost2010Prop28
280
     0
102
RTVSPost2010PropOp28
 70
     0
102
RTVSPost2010Prop29
280
     1
102
RTVSPost2010PropOp29
 70
     0
102
RTVSPost2010Prop30
280
     1
102
RTVSPost2010PropOp30
 70
     0
102
RTVSPost2010Prop31
280
     0
102
RTVSPost2010PropOp31
 70
     0
102
RTVSPost2010Prop32
280
     0
102
RTVSPost2010PropOp32
 70
     0
102
RTVSPost2010Prop33
280
     0
102
RTVSPost2010PropOp33
 70
     0
102
RTVSPost2010Prop34
280
     0
102
RTVSPost2010PropOp34
 70
     0
102
RTVSPost2010Prop35
280
     0
102
RTVSPost2010PropOp35
 70
     0
102
RTVSPost2010Prop36
280
     0
102
RTVSPost2010PropOp36
 70
     0
102
RTVSPost2010Prop37
 90
       50
102
RTVSPost2010PropOp37
 70
     0
102
RTVSPost2010Prop38
140
0.0
102
RTVSPost2010PropOp38
 70
     0
102
RTVSPost2010Prop39
140
1.0
102
RTVSPost2010PropOp39
 70
     0
102
RTVSPost2010Prop40
 90
        0
102
RTVSPost2010PropOp40
 70
     0
102
RTVSPost2010Prop41ColorIndex
 90
       18
102
RTVSPost2010Prop41ColorRGB
 90
        0
102
RTVSPost2010PropOp41
 70
     0
102
RTVSPost2010Prop42
 90
       50
102
RTVSPost2010PropOp42
 70
     0
102
RTVSPost2010Prop43
 90
        3
102
RTVSPost2010PropOp43
 70
     0
102
RTVSPost2010Prop44ColorIndex
 90
        5
102
RTVSPost2010Prop44ColorRGB
 90
      255
102
RTVSPost2010PropOp44
 70
     0
102
RTVSPost2010Prop45
280
     0
102
RTVSPost2010PropOp45
 70
     0
102
RTVSPost2010Prop46
 90
       50
102
RTVSPost2010PropOp46
 70
     0
102
RTVSPost2010Prop47
 90
       50
102
RTVSPost2010PropOp47
 70
     0
102
RTVSPost2010Prop48
 90
       50
102
RTVSPost2010PropOp48
 70
     0
102
RTVSPost2010Prop49
280
     0
102
RTVSPost2010PropOp49
 70
     0
102
RTVSPost2010Prop50
 90
       50
102
RTVSPost2010PropOp50
 70
     0
102
RTVSPost2010Prop51ColorIndex
 90
      256
102
RTVSPost2010Prop51ColorRGB
 90
-16777216
102
RTVSPost2010PropOp51
 70
     0
102
RTVSPost2010Prop52
140
1.0
102
RTVSPost2010PropOp52
 70
     0
102
RTVSPost2010Prop53
 90
        2
102
RTVSPost2010PropOp53
 70
     0
102
RTVSPost2010Prop54
  1
strokes_ogs.tif
102
RTVSPost2010PropOp54
 70
     0
102
RTVSPost2010Prop55
280
     0
102
RTVSPost2010PropOp55
 70
     0
102
RTVSPost2010Prop56
140
1.0
102
RTVSPost2010PropOp56
 70
     0
102
RTVSPost2010Prop57
140
1.0
102
RTVSPost2010PropOp57
 70
     0
  0
XRECORD
  5
170
102
{ACAD_REACTORS
330
16F
102
}
330
16F
100
AcDbXrecord
280
     1
102
RTVSPost2010Prop28
280
     0
102
RTVSPost2010PropOp28
 70
     1
102
RTVSPost2010Prop29
280
     1
102
RTVSPost2010PropOp29
 70
     1
102
RTVSPost2010Prop30
280
     1
102
RTVSPost2010PropOp30
 70
     1
102
RTVSPost2010Prop31
280
     0
102
RTVSPost2010PropOp31
 70
     1
102
RTVSPost2010Prop32
280
     0
102
RTVSPost2010PropOp32
 70
     1
102
RTVSPost2010Prop33
280
     0
102
RTVSPost2010PropOp33
 70
     1
102
RTVSPost2010Prop34
280
     0
102
RTVSPost2010PropOp34
 70
     1
102
RTVSPost2010Prop35
280
     0
102
RTVSPost2010PropOp35
 70
     1
102
RTVSPost2010Prop36
280
     0
102
RTVSPost2010PropOp36
 70
     1
102
RTVSPost2010Prop37
 90
       50
102
RTVSPost2010PropOp37
 70
     1
102
RTVSPost2010Prop38
140
0.0
102
RTVSPost2010PropOp38
 70
     1
102
RTVSPost2010Prop39
140
1.0
102
RTVSPost2010PropOp39
 70
     1
102
RTVSPost2010Prop40
 90
        0
102
RTVSPost2010PropOp40
 70
     1
102
RTVSPost2010Prop41ColorIndex
 90
       18
102
RTVSPost2010Prop41ColorRGB
 90
        0
102
RTVSPost2010PropOp41
 70
     1
102
RTVSPost2010Prop42
 90
       50
102
RTVSPost2010PropOp42
 70
     1
102
RTVSPost2010Prop43
 90
        3
102
RTVSPost2010PropOp43
 70
     1
102
RTVSPost2010Prop44ColorIndex
 90
        5
102
RTVSPost2010Prop44ColorRGB
 90
      255
102
RTVSPost2010PropOp44
 70
     1
102
RTVSPost2010Prop45
280
     0
102
RTVSPost2010PropOp45
 70
     1
102
RTVSPost2010Prop46
 90
       50
102
RTVSPost2010PropOp46
 70
     1
102
RTVSPost2010Prop47
 90
       50
102
RTVSPost2010PropOp47
 70
     1
102
RTVSPost2010Prop48
 90
       50
102
RTVSPost2010PropOp48
 70
     1
102
RTVSPost2010Prop49
280
     0
102
RTVSPost2010PropOp49
 70
     1
102
RTVSPost2010Prop50
 90
       50
102
RTVSPost2010PropOp50
 70
     1
102
RTVSPost2010Prop51ColorIndex
 90
      256
102
RTVSPost2010Prop51ColorRGB
 90
-16777216
102
RTVSPost2010PropOp51
 70
     0
102
RTVSPost2010Prop52
140
1.0
102
RTVSPost2010PropOp52
 70
     0
102
RTVSPost2010Prop53
 90
        2
102
RTVSPost2010PropOp53
 70
     1
102
RTVSPost2010Prop54
  1
strokes_ogs.tif
102
RTVSPost2010PropOp54
 70
     1
102
RTVSPost2010Prop55
280
     0
102
RTVSPost2010PropOp55
 70
     1
102
RTVSPost2010Prop56
140
1.0
102
RTVSPost2010PropOp56
 70
     1
102
RTVSPost2010Prop57
140
1.0
102
RTVSPost2010PropOp57
 70
     1
  0
XRECORD
  5
186
102
{ACAD_REACTORS
330
185
102
}
330
185
100
AcDbXrecord
280
     1
102
RTVSPost2010Prop28
280
     0
102
RTVSPost2010PropOp28
 70
     1
102
RTVSPost2010Prop29
280
     1
102
RTVSPost2010PropOp29
 70
     1
102
RTVSPost2010Prop30
280
     1
102
RTVSPost2010PropOp30
 70
     1
102
RTVSPost2010Prop31
280
     0
102
RTVSPost2010PropOp31
 70
     1
102
RTVSPost2010Prop32
280
     0
102
RTVSPost2010PropOp32
 70
     1
102
RTVSPost2010Prop33
280
     0
102
RTVSPost2010PropOp33
 70
     1
102
RTVSPost2010Prop34
280
     0
102
RTVSPost2010PropOp34
 70
     1
102
RTVSPost2010Prop35
280
     0
102
RTVSPost2010PropOp35
 70
     1
102
RTVSPost2010Prop36
280
     0
102
RTVSPost2010PropOp36
 70
     1
102
RTVSPost2010Prop37
 90
       50
102
RTVSPost2010PropOp37
 70
     1
102
RTVSPost2010Prop38
140
0.0
102
RTVSPost2010PropOp38
 70
     1
102
RTVSPost2010Prop39
140
1.0
102
RTVSPost2010PropOp39
 70
     1
102
RTVSPost2010Prop40
 90
        0
102
RTVSPost2010PropOp40
 70
     1
102
RTVSPost2010Prop41ColorIndex
 90
       18
102
RTVSPost2010Prop41ColorRGB
 90
        0
102
RTVSPost2010PropOp41
 70
     1
102
RTVSPost2010Prop42
 90
       50
102
RTVSPost2010PropOp42
 70
     1
102
RTVSPost2010Prop43
 90
        3
102
RTVSPost2010PropOp43
 70
     1
102
RTVSPost2010Prop44ColorIndex
 90
        5
102
RTVSPost2010Prop44ColorRGB
 90
      255
102
RTVSPost2010PropOp44
 70
     1
102
RTVSPost2010Prop45
280
     0
102
RTVSPost2010PropOp45
 70
     1
102
RTVSPost2010Prop46
 90
       50
102
RTVSPost2010PropOp46
 70
     1
102
RTVSPost2010Prop47
 90
       50
102
RTVSPost2010PropOp47
 70
     1
102
RTVSPost2010Prop48
 90
       50
102
RTVSPost2010PropOp48
 70
     1
102
RTVSPost2010Prop49
280
     0
102
RTVSPost2010PropOp49
 70
     1
102
RTVSPost2010Prop50
 90
       50
102
RTVSPost2010PropOp50
 70
     1
102
RTVSPost2010Prop51ColorIndex
 90
      256
102
RTVSPost2010Prop51ColorRGB
 90
-16777216
102
RTVSPost2010PropOp51
 70
     0
102
RTVSPost2010Prop52
140
1.0
102
RTVSPost2010PropOp52
 70
     0
102
RTVSPost2010Prop53
 90
        2
102
RTVSPost2010PropOp53
 70
     1
102
RTVSPost2010Prop54
  1
strokes_ogs.tif
102
RTVSPost2010PropOp54
 70
     1
102
RTVSPost2010Prop55
280
     0
102
RTVSPost2010PropOp55
 70
     1
102
RTVSPost2010Prop56
140
1.0
102
RTVSPost2010PropOp56
 70
     1
102
RTVSPost2010Prop57
140
1.0
102
RTVSPost2010PropOp57
 70
     1
  0
XRECORD
  5
184
102
{ACAD_REACTORS
330
183
102
}
330
183
100
AcDbXrecord
280
     1
102
RTVSPost2010Prop28
280
     0
102
RTVSPost2010PropOp28
 70
     1
102
RTVSPost2010Prop29
280
     1
102
RTVSPost2010PropOp29
 70
     1
102
RTVSPost2010Prop30
280
     1
102
RTVSPost2010PropOp30
 70
     1
102
RTVSPost2010Prop31
280
     0
102
RTVSPost2010PropOp31
 70
     1
102
RTVSPost2010Prop32
280
     0
102
RTVSPost2010PropOp32
 70
     1
102
RTVSPost2010Prop33
280
     0
102
RTVSPost2010PropOp33
 70
     1
102
RTVSPost2010Prop34
280
     0
102
RTVSPost2010PropOp34
 70
     1
102
RTVSPost2010Prop35
280
     0
102
RTVSPost2010PropOp35
 70
     1
102
RTVSPost2010Prop36
280
     0
102
RTVSPost2010PropOp36
 70
     1
102
RTVSPost2010Prop37
 90
       50
102
RTVSPost2010PropOp37
 70
     1
102
RTVSPost2010Prop38
140
0.0
102
RTVSPost2010PropOp38
 70
     1
102
RTVSPost2010Prop39
140
1.0
102
RTVSPost2010PropOp39
 70
     1
102
RTVSPost2010Prop40
 90
        0
102
RTVSPost2010PropOp40
 70
     1
102
RTVSPost2010Prop41ColorIndex
 90
       18
102
RTVSPost2010Prop41ColorRGB
 90
        0
102
RTVSPost2010PropOp41
 70
     1
102
RTVSPost2010Prop42
 90
       50
102
RTVSPost2010PropOp42
 70
     1
102
RTVSPost2010Prop43
 90
        3
102
RTVSPost2010PropOp43
 70
     1
102
RTVSPost2010Prop44ColorIndex
 90
        5
102
RTVSPost2010Prop44ColorRGB
 90
      255
102
RTVSPost2010PropOp44
 70
     1
102
RTVSPost2010Prop45
280
     0
102
RTVSPost2010PropOp45
 70
     1
102
RTVSPost2010Prop46
 90
       50
102
RTVSPost2010PropOp46
 70
     1
102
RTVSPost2010Prop47
 90
       50
102
RTVSPost2010PropOp47
 70
     1
102
RTVSPost2010Prop48
 90
       50
102
RTVSPost2010PropOp48
 70
     1
102
RTVSPost2010Prop49
280
     0
102
RTVSPost2010PropOp49
 70
     1
102
RTVSPost2010Prop50
 90
       50
102
RTVSPost2010PropOp50
 70
     1
102
RTVSPost2010Prop51ColorIndex
 90
      256
102
RTVSPost2010Prop51ColorRGB
 90
-16777216
102
RTVSPost2010PropOp51
 70
     0
102
RTVSPost2010Prop52
140
1.0
102
RTVSPost2010PropOp52
 70
     0
102
RTVSPost2010Prop53
 90
        2
102
RTVSPost2010PropOp53
 70
     1
102
RTVSPost2010Prop54
  1
strokes_ogs.tif
102
RTVSPost2010PropOp54
 70
     1
102
RTVSPost2010Prop55
280
     0
102
RTVSPost2010PropOp55
 70
     1
102
RTVSPost2010Prop56
140
1.0
102
RTVSPost2010PropOp56
 70
     1
102
RTVSPost2010Prop57
140
1.0
102
RTVSPost2010PropOp57
 70
     1
  0
XRECORD
  5
17E
102
{ACAD_REACTORS
330
17D
102
}
330
17D
100
AcDbXrecord
280
     1
102
RTVSPost2010Prop28
280
     0
102
RTVSPost2010PropOp28
 70
     1
102
RTVSPost2010Prop29
280
     1
102
RTVSPost2010PropOp29
 70
     1
102
RTVSPost2010Prop30
280
     1
102
RTVSPost2010PropOp30
 70
     1
102
RTVSPost2010Prop31
280
     0
102
RTVSPost2010PropOp31
 70
     1
102
RTVSPost2010Prop32
280
     0
102
RTVSPost2010PropOp32
 70
     1
102
RTVSPost2010Prop33
280
     0
102
RTVSPost2010PropOp33
 70
     1
102
RTVSPost2010Prop34
280
     0
102
RTVSPost2010PropOp34
 70
     1
102
RTVSPost2010Prop35
280
     0
102
RTVSPost2010PropOp35
 70
     1
102
RTVSPost2010Prop36
280
     0
102
RTVSPost2010PropOp36
 70
     1
102
RTVSPost2010Prop37
 90
       50
102
RTVSPost2010PropOp37
 70
     1
102
RTVSPost2010Prop38
140
0.0
102
RTVSPost2010PropOp38
 70
     1
102
RTVSPost2010Prop39
140
1.0
102
RTVSPost2010PropOp39
 70
     1
102
RTVSPost2010Prop40
 90
        0
102
RTVSPost2010PropOp40
 70
     1
102
RTVSPost2010Prop41ColorIndex
 90
       18
102
RTVSPost2010Prop41ColorRGB
 90
        0
102
RTVSPost2010PropOp41
 70
     1
102
RTVSPost2010Prop42
 90
       50
102
RTVSPost2010PropOp42
 70
     1
102
RTVSPost2010Prop43
 90
        3
102
RTVSPost2010PropOp43
 70
     1
102
RTVSPost2010Prop44ColorIndex
 90
        5
102
RTVSPost2010Prop44ColorRGB
 90
      255
102
RTVSPost2010PropOp44
 70
     1
102
RTVSPost2010Prop45
280
     0
102
RTVSPost2010PropOp45
 70
     1
102
RTVSPost2010Prop46
 90
       50
102
RTVSPost2010PropOp46
 70
     1
102
RTVSPost2010Prop47
 90
       50
102
RTVSPost2010PropOp47
 70
     1
102
RTVSPost2010Prop48
 90
       50
102
RTVSPost2010PropOp48
 70
     1
102
RTVSPost2010Prop49
280
     0
102
RTVSPost2010PropOp49
 70
     1
102
RTVSPost2010Prop50
 90
       50
102
RTVSPost2010PropOp50
 70
     1
102
RTVSPost2010Prop51ColorIndex
 90
      256
102
RTVSPost2010Prop51ColorRGB
 90
-16777216
102
RTVSPost2010PropOp51
 70
     0
102
RTVSPost2010Prop52
140
1.0
102
RTVSPost2010PropOp52
 70
     0
102
RTVSPost2010Prop53
 90
        2
102
RTVSPost2010PropOp53
 70
     1
102
RTVSPost2010Prop54
  1
strokes_ogs.tif
102
RTVSPost2010PropOp54
 70
     1
102
RTVSPost2010Prop55
280
     0
102
RTVSPost2010PropOp55
 70
     1
102
RTVSPost2010Prop56
140
1.0
102
RTVSPost2010PropOp56
 70
     1
102
RTVSPost2010Prop57
140
1.0
102
RTVSPost2010PropOp57
 70
     1
  0
XRECORD
  5
180
102
{ACAD_REACTORS
330
17F
102
}
330
17F
100
AcDbXrecord
280
     1
102
RTVSPost2010Prop28
280
     0
102
RTVSPost2010PropOp28
 70
     1
102
RTVSPost2010Prop29
280
     1
102
RTVSPost2010PropOp29
 70
     1
102
RTVSPost2010Prop30
280
     1
102
RTVSPost2010PropOp30
 70
     1
102
RTVSPost2010Prop31
280
     0
102
RTVSPost2010PropOp31
 70
     1
102
RTVSPost2010Prop32
280
     0
102
RTVSPost2010PropOp32
 70
     1
102
RTVSPost2010Prop33
280
     0
102
RTVSPost2010PropOp33
 70
     1
102
RTVSPost2010Prop34
280
     0
102
RTVSPost2010PropOp34
 70
     1
102
RTVSPost2010Prop35
280
     0
102
RTVSPost2010PropOp35
 70
     1
102
RTVSPost2010Prop36
280
     0
102
RTVSPost2010PropOp36
 70
     1
102
RTVSPost2010Prop37
 90
       50
102
RTVSPost2010PropOp37
 70
     1
102
RTVSPost2010Prop38
140
0.0
102
RTVSPost2010PropOp38
 70
     1
102
RTVSPost2010Prop39
140
1.0
102
RTVSPost2010PropOp39
 70
     1
102
RTVSPost2010Prop40
 90
        0
102
RTVSPost2010PropOp40
 70
     1
102
RTVSPost2010Prop41ColorIndex
 90
       18
102
RTVSPost2010Prop41ColorRGB
 90
        0
102
RTVSPost2010PropOp41
 70
     1
102
RTVSPost2010Prop42
 90
       50
102
RTVSPost2010PropOp42
 70
     1
102
RTVSPost2010Prop43
 90
        3
102
RTVSPost2010PropOp43
 70
     1
102
RTVSPost2010Prop44ColorIndex
 90
        5
102
RTVSPost2010Prop44ColorRGB
 90
      255
102
RTVSPost2010PropOp44
 70
     1
102
RTVSPost2010Prop45
280
     0
102
RTVSPost2010PropOp45
 70
     1
102
RTVSPost2010Prop46
 90
       50
102
RTVSPost2010PropOp46
 70
     1
102
RTVSPost2010Prop47
 90
       50
102
RTVSPost2010PropOp47
 70
     1
102
RTVSPost2010Prop48
 90
       50
102
RTVSPost2010PropOp48
 70
     1
102
RTVSPost2010Prop49
280
     0
102
RTVSPost2010PropOp49
 70
     1
102
RTVSPost2010Prop50
 90
       50
102
RTVSPost2010PropOp50
 70
     1
102
RTVSPost2010Prop51ColorIndex
 90
      256
102
RTVSPost2010Prop51ColorRGB
 90
-16777216
102
RTVSPost2010PropOp51
 70
     0
102
RTVSPost2010Prop52
140
1.0
102
RTVSPost2010PropOp52
 70
     0
102
RTVSPost2010Prop53
 90
        2
102
RTVSPost2010PropOp53
 70
     1
102
RTVSPost2010Prop54
  1
strokes_ogs.tif
102
RTVSPost2010PropOp54
 70
     1
102
RTVSPost2010Prop55
280
     0
102
RTVSPost2010PropOp55
 70
     1
102
RTVSPost2010Prop56
140
1.0
102
RTVSPost2010PropOp56
 70
     1
102
RTVSPost2010Prop57
140
1.0
102
RTVSPost2010PropOp57
 70
     1
  0
XRECORD
  5
176
102
{ACAD_REACTORS
330
175
102
}
330
175
100
AcDbXrecord
280
     1
102
RTVSPost2010Prop28
280
     0
102
RTVSPost2010PropOp28
 70
     1
102
RTVSPost2010Prop29
280
     1
102
RTVSPost2010PropOp29
 70
     1
102
RTVSPost2010Prop30
280
     1
102
RTVSPost2010PropOp30
 70
     1
102
RTVSPost2010Prop31
280
     0
102
RTVSPost2010PropOp31
 70
     1
102
RTVSPost2010Prop32
280
     0
102
RTVSPost2010PropOp32
 70
     1
102
RTVSPost2010Prop33
280
     0
102
RTVSPost2010PropOp33
 70
     1
102
RTVSPost2010Prop34
280
     0
102
RTVSPost2010PropOp34
 70
     1
102
RTVSPost2010Prop35
280
     0
102
RTVSPost2010PropOp35
 70
     1
102
RTVSPost2010Prop36
280
     0
102
RTVSPost2010PropOp36
 70
     1
102
RTVSPost2010Prop37
 90
       50
102
RTVSPost2010PropOp37
 70
     1
102
RTVSPost2010Prop38
140
0.0
102
RTVSPost2010PropOp38
 70
     1
102
RTVSPost2010Prop39
140
1.0
102
RTVSPost2010PropOp39
 70
     1
102
RTVSPost2010Prop40
 90
        0
102
RTVSPost2010PropOp40
 70
     1
102
RTVSPost2010Prop41ColorIndex
 90
       18
102
RTVSPost2010Prop41ColorRGB
 90
        0
102
RTVSPost2010PropOp41
 70
     1
102
RTVSPost2010Prop42
 90
       50
102
RTVSPost2010PropOp42
 70
     1
102
RTVSPost2010Prop43
 90
        3
102
RTVSPost2010PropOp43
 70
     1
102
RTVSPost2010Prop44ColorIndex
 90
        5
102
RTVSPost2010Prop44ColorRGB
 90
      255
102
RTVSPost2010PropOp44
 70
     1
102
RTVSPost2010Prop45
280
     0
102
RTVSPost2010PropOp45
 70
     1
102
RTVSPost2010Prop46
 90
       50
102
RTVSPost2010PropOp46
 70
     1
102
RTVSPost2010Prop47
 90
       50
102
RTVSPost2010PropOp47
 70
     1
102
RTVSPost2010Prop48
 90
       50
102
RTVSPost2010PropOp48
 70
     1
102
RTVSPost2010Prop49
280
     0
102
RTVSPost2010PropOp49
 70
     1
102
RTVSPost2010Prop50
 90
       50
102
RTVSPost2010PropOp50
 70
     1
102
RTVSPost2010Prop51ColorIndex
 90
      256
102
RTVSPost2010Prop51ColorRGB
 90
-16777216
102
RTVSPost2010PropOp51
 70
     0
102
RTVSPost2010Prop52
140
1.0
102
RTVSPost2010PropOp52
 70
     0
102
RTVSPost2010Prop53
 90
        2
102
RTVSPost2010PropOp53
 70
     1
102
RTVSPost2010Prop54
  1
strokes_ogs.tif
102
RTVSPost2010PropOp54
 70
     1
102
RTVSPost2010Prop55
280
     0
102
RTVSPost2010PropOp55
 70
     1
102
RTVSPost2010Prop56
140
1.0
102
RTVSPost2010PropOp56
 70
     1
102
RTVSPost2010Prop57
140
1.0
102
RTVSPost2010PropOp57
 70
     1
  0
XRECORD
  5
16A
102
{ACAD_REACTORS
330
169
102
}
330
169
100
AcDbXrecord
280
     1
102
RTVSPost2010Prop28
280
     0
102
RTVSPost2010PropOp28
 70
     1
102
RTVSPost2010Prop29
280
     1
102
RTVSPost2010PropOp29
 70
     1
102
RTVSPost2010Prop30
280
     1
102
RTVSPost2010PropOp30
 70
     1
102
RTVSPost2010Prop31
280
     0
102
RTVSPost2010PropOp31
 70
     1
102
RTVSPost2010Prop32
280
     0
102
RTVSPost2010PropOp32
 70
     1
102
RTVSPost2010Prop33
280
     0
102
RTVSPost2010PropOp33
 70
     1
102
RTVSPost2010Prop34
280
     0
102
RTVSPost2010PropOp34
 70
     1
102
RTVSPost2010Prop35
280
     0
102
RTVSPost2010PropOp35
 70
     1
102
RTVSPost2010Prop36
280
     0
102
RTVSPost2010PropOp36
 70
     1
102
RTVSPost2010Prop37
 90
       50
102
RTVSPost2010PropOp37
 70
     1
102
RTVSPost2010Prop38
140
0.0
102
RTVSPost2010PropOp38
 70
     1
102
RTVSPost2010Prop39
140
1.0
102
RTVSPost2010PropOp39
 70
     1
102
RTVSPost2010Prop40
 90
        0
102
RTVSPost2010PropOp40
 70
     1
102
RTVSPost2010Prop41ColorIndex
 90
       18
102
RTVSPost2010Prop41ColorRGB
 90
        0
102
RTVSPost2010PropOp41
 70
     1
102
RTVSPost2010Prop42
 90
       50
102
RTVSPost2010PropOp42
 70
     1
102
RTVSPost2010Prop43
 90
        3
102
RTVSPost2010PropOp43
 70
     1
102
RTVSPost2010Prop44ColorIndex
 90
        5
102
RTVSPost2010Prop44ColorRGB
 90
      255
102
RTVSPost2010PropOp44
 70
     1
102
RTVSPost2010Prop45
280
     0
102
RTVSPost2010PropOp45
 70
     1
102
RTVSPost2010Prop46
 90
       50
102
RTVSPost2010PropOp46
 70
     1
102
RTVSPost2010Prop47
 90
       50
102
RTVSPost2010PropOp47
 70
     1
102
RTVSPost2010Prop48
 90
       50
102
RTVSPost2010PropOp48
 70
     1
102
RTVSPost2010Prop49
280
     0
102
RTVSPost2010PropOp49
 70
     1
102
RTVSPost2010Prop50
 90
       50
102
RTVSPost2010PropOp50
 70
     1
102
RTVSPost2010Prop51ColorIndex
 90
      256
102
RTVSPost2010Prop51ColorRGB
 90
-16777216
102
RTVSPost2010PropOp51
 70
     0
102
RTVSPost2010Prop52
140
1.0
102
RTVSPost2010PropOp52
 70
     0
102
RTVSPost2010Prop53
 90
        2
102
RTVSPost2010PropOp53
 70
     1
102
RTVSPost2010Prop54
  1
strokes_ogs.tif
102
RTVSPost2010PropOp54
 70
     1
102
RTVSPost2010Prop55
280
     0
102
RTVSPost2010PropOp55
 70
     1
102
RTVSPost2010Prop56
140
1.0
102
RTVSPost2010PropOp56
 70
     1
102
RTVSPost2010Prop57
140
1.0
102
RTVSPost2010PropOp57
 70
     1
  0
XRECORD
  5
182
102
{ACAD_REACTORS
330
181
102
}
330
181
100
AcDbXrecord
280
     1
102
RTVSPost2010Prop28
280
     0
102
RTVSPost2010PropOp28
 70
     1
102
RTVSPost2010Prop29
280
     1
102
RTVSPost2010PropOp29
 70
     1
102
RTVSPost2010Prop30
280
     1
102
RTVSPost2010PropOp30
 70
     1
102
RTVSPost2010Prop31
280
     0
102
RTVSPost2010PropOp31
 70
     1
102
RTVSPost2010Prop32
280
     0
102
RTVSPost2010PropOp32
 70
     1
102
RTVSPost2010Prop33
280
     0
102
RTVSPost2010PropOp33
 70
     1
102
RTVSPost2010Prop34
280
     0
102
RTVSPost2010PropOp34
 70
     1
102
RTVSPost2010Prop35
280
     0
102
RTVSPost2010PropOp35
 70
     1
102
RTVSPost2010Prop36
280
     0
102
RTVSPost2010PropOp36
 70
     1
102
RTVSPost2010Prop37
 90
       50
102
RTVSPost2010PropOp37
 70
     1
102
RTVSPost2010Prop38
140
0.0
102
RTVSPost2010PropOp38
 70
     1
102
RTVSPost2010Prop39
140
1.0
102
RTVSPost2010PropOp39
 70
     1
102
RTVSPost2010Prop40
 90
        0
102
RTVSPost2010PropOp40
 70
     1
102
RTVSPost2010Prop41ColorIndex
 90
       18
102
RTVSPost2010Prop41ColorRGB
 90
        0
102
RTVSPost2010PropOp41
 70
     1
102
RTVSPost2010Prop42
 90
       50
102
RTVSPost2010PropOp42
 70
     1
102
RTVSPost2010Prop43
 90
        3
102
RTVSPost2010PropOp43
 70
     1
102
RTVSPost2010Prop44ColorIndex
 90
        5
102
RTVSPost2010Prop44ColorRGB
 90
      255
102
RTVSPost2010PropOp44
 70
     1
102
RTVSPost2010Prop45
280
     0
102
RTVSPost2010PropOp45
 70
     1
102
RTVSPost2010Prop46
 90
       50
102
RTVSPost2010PropOp46
 70
     1
102
RTVSPost2010Prop47
 90
       50
102
RTVSPost2010PropOp47
 70
     1
102
RTVSPost2010Prop48
 90
       50
102
RTVSPost2010PropOp48
 70
     1
102
RTVSPost2010Prop49
280
     0
102
RTVSPost2010PropOp49
 70
     1
102
RTVSPost2010Prop50
 90
       50
102
RTVSPost2010PropOp50
 70
     1
102
RTVSPost2010Prop51ColorIndex
 90
      256
102
RTVSPost2010Prop51ColorRGB
 90
-16777216
102
RTVSPost2010PropOp51
 70
     0
102
RTVSPost2010Prop52
140
1.0
102
RTVSPost2010PropOp52
 70
     0
102
RTVSPost2010Prop53
 90
        2
102
RTVSPost2010PropOp53
 70
     1
102
RTVSPost2010Prop54
  1
strokes_ogs.tif
102
RTVSPost2010PropOp54
 70
     1
102
RTVSPost2010Prop55
280
     0
102
RTVSPost2010PropOp55
 70
     1
102
RTVSPost2010Prop56
140
1.0
102
RTVSPost2010PropOp56
 70
     1
102
RTVSPost2010Prop57
140
1.0
102
RTVSPost2010PropOp57
 70
     1
  0
ENDSEC
  0
EOF
