  0
SECTION
  2
HEADER
  9
$ACADVER
  1
AC1024
  9
$ACADMAINTVER
 70
     6
  9
$DWGCODEPAGE
  3
UNDEFINED
  9
$INSBASE
 10
0.0
 20
0.0
 30
0.0
  9
$EXTMIN
 10
1.000000000000000E+20
 20
1.000000000000000E+20
 30
1.000000000000000E+20
  9
$EXTMAX
 10
-1.000000000000000E+20
 20
-1.000000000000000E+20
 30
-1.000000000000000E+20
  9
$LIMMIN
 10
0.0
 20
0.0
  9
$LIMMAX
 10
12.0
 20
9.0
  9
$ORTHOMODE
 70
     0
  9
$REGENMODE
 70
     1
  9
$FILLMODE
 70
     1
  9
$QTEXTMODE
 70
     0
  9
$MIRRTEXT
 70
     1
  9
$LTSCALE
 40
1.0
  9
$ATTMODE
 70
     1
  9
$TEXTSIZE
 40
0.2
  9
$TRACEWID
 40
0.05
  9
$TEXTSTYLE
  7
Standard
  9
$CLAYER
  8
0
  9
$CELTYPE
  6
ByLayer
  9
$CECOLOR
 62
   256
  9
$CELTSCALE
 40
1.0
  9
$DISPSILH
 70
     0
  9
$DIMSCALE
 40
1.0
  9
$DIMASZ
 40
0.18
  9
$DIMEXO
 40
0.0625
  9
$DIMDLI
 40
0.38
  9
$DIMRND
 40
0.0
  9
$DIMDLE
 40
0.0
  9
$DIMEXE
 40
0.18
  9
$DIMTP
 40
0.0
  9
$DIMTM
 40
0.0
  9
$DIMTXT
 40
0.18
  9
$DIMCEN
 40
0.09
  9
$DIMTSZ
 40
0.0
  9
$DIMTOL
 70
     0
  9
$DIMLIM
 70
     0
  9
$DIMTIH
 70
     1
  9
$DIMTOH
 70
     1
  9
$DIMSE1
 70
     0
  9
$DIMSE2
 70
     0
  9
$DIMTAD
 70
     0
  9
$DIMZIN
 70
     0
  9
$DIMBLK
  1

  9
$DIMASO
 70
     1
  9
$DIMSHO
 70
     1
  9
$DIMPOST
  1

  9
$DIMAPOST
  1

  9
$DIMALT
 70
     0
  9
$DIMALTD
 70
     2
  9
$DIMALTF
 40
25.4
  9
$DIMLFAC
 40
1.0
  9
$DIMTOFL
 70
     0
  9
$DIMTVP
 40
0.0
  9
$DIMTIX
 70
     0
  9
$DIMSOXD
 70
     0
  9
$DIMSAH
 70
     0
  9
$DIMBLK1
  1

  9
$DIMBLK2
  1

  9
$DIMSTYLE
  2
Standard
  9
$DIMCLRD
 70
     0
  9
$DIMCLRE
 70
     0
  9
$DIMCLRT
 70
     0
  9
$DIMTFAC
 40
1.0
  9
$DIMGAP
 40
0.09
  9
$DIMJUST
 70
     0
  9
$DIMSD1
 70
     0
  9
$DIMSD2
 70
     0
  9
$DIMTOLJ
 70
     1
  9
$DIMTZIN
 70
     0
  9
$DIMALTZ
 70
     0
  9
$DIMALTTZ
 70
     0
  9
$DIMUPT
 70
     0
  9
$DIMDEC
 70
     4
  9
$DIMTDEC
 70
     4
  9
$DIMALTU
 70
     2
  9
$DIMALTTD
 70
     2
  9
$DIMTXSTY
  7
Standard
  9
$DIMAUNIT
 70
     0
  9
$DIMADEC
 70
     0
  9
$DIMALTRND
 40
0.0
  9
$DIMAZIN
 70
     0
  9
$DIMDSEP
 70
    46
  9
$DIMATFIT
 70
     3
  9
$DIMFRAC
 70
     0
  9
$DIMLDRBLK
  1

  9
$DIMLUNIT
 70
     2
  9
$DIMLWD
 70
    -2
  9
$DIMLWE
 70
    -2
  9
$DIMTMOVE
 70
     0
  9
$DIMFXL
 40
1.0
  9
$DIMFXLON
 70
     0
  9
$DIMJOGANG
 40
0.7853981633974483
  9
$DIMTFILL
 70
     0
  9
$DIMTFILLCLR
 70
     0
  9
$DIMARCSYM
 70
     0
  9
$DIMLTYPE
  6

  9
$DIMLTEX1
  6

  9
$DIMLTEX2
  6

  9
$DIMTXTDIRECTION
 70
     0
  9
$LUNITS
 70
     2
  9
$LUPREC
 70
     4
  9
$SKETCHINC
 40
0.1
  9
$FILLETRAD
 40
0.5
  9
$AUNITS
 70
     0
  9
$AUPREC
 70
     0
  9
$MENU
  1
.
  9
$ELEVATION
 40
0.0
  9
$PELEVATION
 40
0.0
  9
$THICKNESS
 40
0.0
  9
$LIMCHECK
 70
     0
  9
$CHAMFERA
 40
0.5
  9
$CHAMFERB
 40
0.5
  9
$CHAMFERC
 40
1.0
  9
$CHAMFERD
 40
0.0
  9
$SKPOLY
 70
     0
  9
$TDCREATE
 40
2457917.59630787
  9
$TDUCREATE
 40
2457917.22130787
  9
$TDUPDATE
 40
2457917.59630787
  9
$TDUUPDATE
 40
2457917.22130787
  9
$TDINDWG
 40
0.0000000116
  9
$TDUSRTIMER
 40
0.0000000116
  9
$USRTIMER
 70
     1
  9
$ANGBASE
 50
0.0
  9
$ANGDIR
 70
     0
  9
$PDMODE
 70
     0
  9
$PDSIZE
 40
0.0
  9
$PLINEWID
 40
0.0
  9
$SPLFRAME
 70
     0
  9
$SPLINETYPE
 70
     6
  9
$SPLINESEGS
 70
     8
  9
$HANDSEED
  5
152
  9
$SURFTAB1
 70
     6
  9
$SURFTAB2
 70
     6
  9
$SURFTYPE
 70
     6
  9
$SURFU
 70
     6
  9
$SURFV
 70
     6
  9
$UCSBASE
  2

  9
$UCSNAME
  2

  9
$UCSORG
 10
0.0
 20
0.0
 30
0.0
  9
$UCSXDIR
 10
1.0
 20
0.0
 30
0.0
  9
$UCSYDIR
 10
0.0
 20
1.0
 30
0.0
  9
$UCSORTHOREF
  2

  9
$UCSORTHOVIEW
 70
     0
  9
$UCSORGTOP
 10
0.0
 20
0.0
 30
0.0
  9
$UCSORGBOTTOM
 10
0.0
 20
0.0
 30
0.0
  9
$UCSORGLEFT
 10
0.0
 20
0.0
 30
0.0
  9
$UCSORGRIGHT
 10
0.0
 20
0.0
 30
0.0
  9
$UCSORGFRONT
 10
0.0
 20
0.0
 30
0.0
  9
$UCSORGBACK
 10
0.0
 20
0.0
 30
0.0
  9
$PUCSBASE
  2

  9
$PUCSNAME
  2

  9
$PUCSORG
 10
0.0
 20
0.0
 30
0.0
  9
$PUCSXDIR
 10
1.0
 20
0.0
 30
0.0
  9
$PUCSYDIR
 10
0.0
 20
1.0
 30
0.0
  9
$PUCSORTHOREF
  2

  9
$PUCSORTHOVIEW
 70
     0
  9
$PUCSORGTOP
 10
0.0
 20
0.0
 30
0.0
  9
$PUCSORGBOTTOM
 10
0.0
 20
0.0
 30
0.0
  9
$PUCSORGLEFT
 10
0.0
 20
0.0
 30
0.0
  9
$PUCSORGRIGHT
 10
0.0
 20
0.0
 30
0.0
  9
$PUCSORGFRONT
 10
0.0
 20
0.0
 30
0.0
  9
$PUCSORGBACK
 10
0.0
 20
0.0
 30
0.0
  9
$USERI1
 70
     0
  9
$USERI2
 70
     0
  9
$USERI3
 70
     0
  9
$USERI4
 70
     0
  9
$USERI5
 70
     0
  9
$USERR1
 40
0.0
  9
$USERR2
 40
0.0
  9
$USERR3
 40
0.0
  9
$USERR4
 40
0.0
  9
$USERR5
 40
0.0
  9
$WORLDVIEW
 70
     1
  9
$SHADEDGE
 70
     3
  9
$SHADEDIF
 70
    70
  9
$TILEMODE
 70
     1
  9
$MAXACTVP
 70
    64
  9
$PINSBASE
 10
0.0
 20
0.0
 30
0.0
  9
$PLIMCHECK
 70
     0
  9
$PEXTMIN
 10
1.000000000000000E+20
 20
1.000000000000000E+20
 30
1.000000000000000E+20
  9
$PEXTMAX
 10
-1.000000000000000E+20
 20
-1.000000000000000E+20
 30
-1.000000000000000E+20
  9
$PLIMMIN
 10
0.0
 20
0.0
  9
$PLIMMAX
 10
12.0
 20
9.0
  9
$UNITMODE
 70
     0
  9
$VISRETAIN
 70
     1
  9
$PLINEGEN
 70
     0
  9
$PSLTSCALE
 70
     1
  9
$TREEDEPTH
 70
  3020
  9
$CMLSTYLE
  2
Standard
  9
$CMLJUST
 70
     0
  9
$CMLSCALE
 40
1.0
  9
$PROXYGRAPHICS
 70
     1
  9
$MEASUREMENT
 70
     0
  9
$CELWEIGHT
370
    -1
  9
$ENDCAPS
280
     0
  9
$JOINSTYLE
280
     0
  9
$LWDISPLAY
290
     1
  9
$INSUNITS
 70
     1
  9
$HYPERLINKBASE
  1

  9
$STYLESHEET
  1

  9
$XEDIT
290
     1
  9
$CEPSNTYPE
380
     0
  9
$PSTYLEMODE
290
     1
  9
$FINGERPRINTGUID
  2
{B767B4F6-EC2C-BD47-3726-32FBB58C7625}
  9
$VERSIONGUID
  2
{FAEB1C32-E019-11D5-929B-00C0DF256EC4}
  9
$EXTNAMES
290
     1
  9
$PSVPSCALE
 40
0.0
  9
$OLESTARTUP
290
     0
  9
$SORTENTS
280
   127
  9
$INDEXCTL
280
     0
  9
$HIDETEXT
280
     1
  9
$XCLIPFRAME
280
     2
  9
$HALOGAP
280
     0
  9
$OBSCOLOR
 70
   257
  9
$OBSLTYPE
280
     0
  9
$INTERSECTIONDISPLAY
280
     0
  9
$INTERSECTIONCOLOR
 70
   257
  9
$DIMASSOC
280
     2
  9
$PROJECTNAME
  1

  9
$CAMERADISPLAY
290
     0
  9
$LENSLENGTH
 40
50.0
  9
$CAMERAHEIGHT
 40
0.0
  9
$STEPSPERSEC
 40
2.0
  9
$STEPSIZE
 40
6.0
  9
$3DDWFPREC
 40
2.0
  9
$PSOLWIDTH
 40
0.25
  9
$PSOLHEIGHT
 40
4.0
  9
$LOFTANG1
 40
1.570796326794897
  9
$LOFTANG2
 40
1.570796326794897
  9
$LOFTMAG1
 40
0.0
  9
$LOFTMAG2
 40
0.0
  9
$LOFTPARAM
 70
     7
  9
$LOFTNORMALS
280
     1
  9
$LATITUDE
 40
37.795
  9
$LONGITUDE
 40
-122.394
  9
$NORTHDIRECTION
 40
0.0
  9
$TIMEZONE
 70
 -8000
  9
$LIGHTGLYPHDISPLAY
280
     1
  9
$TILEMODELIGHTSYNCH
280
     1
  9
$CMATERIAL
347
3C
  9
$SOLIDHIST
280
     1
  9
$SHOWHIST
280
     1
  9
$DWFFRAME
280
     2
  9
$DGNFRAME
280
     2
  9
$REALWORLDSCALE
290
     1
  9
$INTERFERECOLOR
 62
   256
  9
$CSHADOW
280
     0
  9
$SHADOWPLANELOCATION
 40
0.0
  0
ENDSEC
  0
SECTION
  2
CLASSES
  0
CLASS
  1
ACDBDICTIONARYWDFLT
  2
AcDbDictionaryWithDefault
  3
ObjectDBX Classes
 90
        0
 91
        4
280
     0
281
     0
  0
CLASS
  1
VISUALSTYLE
  2
AcDbVisualStyle
  3
ObjectDBX Classes
 90
     4095
 91
        4
280
     0
281
     0
  0
CLASS
  1
MATERIAL
  2
AcDbMaterial
  3
ObjectDBX Classes
 90
     1153
 91
        4
280
     0
281
     0
  0
CLASS
  1
SUN
  2
AcDbSun
  3
SCENEOE
 90
     1024
 91
        4
280
     0
281
     0
  0
ENDSEC
  0
SECTION
  2
TABLES
  0
TABLE
  2
VPORT
  5
8
330
0
100
AcDbSymbolTable
 70
     1
  0
VPORT
  5
29
330
8
100
AcDbSymbolTableRecord
100
AcDbViewportTableRecord
  2
*Active
 70
     0
 10
0.0
 20
0.0
 11
1.0
 21
1.0
 12
0.0
 22
0.0
 13
0.0
 23
0.0
 14
0.5
 24
0.5
 15
0.5
 25
0.5
 16
0.0
 26
0.0
 36
1.0
 17
91.00082462281999
 27
-128.4993055234307
 37
0.0
 40
256.9986110468615
 41
0.7081814508812795
 42
50.0
 43
0.0
 44
0.0
 50
0.0
 51
0.0
 71
     0
 72
   100
 73
     1
 74
     3
 75
     0
 76
     0
 77
     0
 78
     0
281
     0
 65
     1
110
0.0
120
0.0
130
0.0
111
1.0
121
0.0
131
0.0
112
0.0
122
1.0
132
0.0
 79
     0
146
0.0
 60
     3
 61
     5
292
     1
282
     1
141
0.0
142
0.0
 63
   250
361
3F
  0
ENDTAB
  0
TABLE
  2
LTYPE
  5
5
330
0
100
AcDbSymbolTable
 70
     2
  0
LTYPE
  5
14
330
5
100
AcDbSymbolTableRecord
100
AcDbLinetypeTableRecord
  2
ByBlock
 70
     0
  3

 72
    65
 73
     0
 40
0.0
  0
LTYPE
  5
15
330
5
100
AcDbSymbolTableRecord
100
AcDbLinetypeTableRecord
  2
ByLayer
 70
     0
  3

 72
    65
 73
     0
 40
0.0
  0
LTYPE
  5
16
330
5
100
AcDbSymbolTableRecord
100
AcDbLinetypeTableRecord
  2
Continuous
 70
     0
  3
Solid line
 72
    65
 73
     0
 40
0.0
  0
LTYPE
  5
6C
330
5
100
AcDbSymbolTableRecord
100
AcDbLinetypeTableRecord
  2
AI-Linetype-1
 70
     0
  3
Adobe Illustrator Linetype No. 1
 72
    65
 73
     2
 40
1.411111110758333
 49
0.7055555553791667
 74
     0
 49
-0.7055555553791667
 74
     0
  0
ENDTAB
  0
TABLE
  2
LAYER
  5
2
330
0
100
AcDbSymbolTable
 70
     2
  0
LAYER
  5
10
330
2
100
AcDbSymbolTableRecord
100
AcDbLayerTableRecord
  2
0
 70
     0
 62
     7
  6
Continuous
370
    -3
390
F
347
3E
  0
LAYER
  5
40
330
2
100
AcDbSymbolTableRecord
100
AcDbLayerTableRecord
  2
_U+30EC_U+30A4_U+30E4_U+30FC 1
 70
     0
 62
     7
  6
Continuous
370
    -3
390
F
347
3E
  0
ENDTAB
  0
TABLE
  2
STYLE
  5
3
330
0
100
AcDbSymbolTable
 70
     1
  0
STYLE
  5
11
330
3
100
AcDbSymbolTableRecord
100
AcDbTextStyleTableRecord
  2
Standard
 70
     0
 40
0.0
 41
1.0
 50
0.0
 71
     0
 42
0.2
  3
txt
  4

  0
ENDTAB
  0
TABLE
  2
VIEW
  5
6
330
0
100
AcDbSymbolTable
 70
     0
  0
ENDTAB
  0
TABLE
  2
UCS
  5
7
330
0
100
AcDbSymbolTable
 70
     0
  0
ENDTAB
  0
TABLE
  2
APPID
  5
9
330
0
100
AcDbSymbolTable
 70
     1
  0
APPID
  5
12
330
9
100
AcDbSymbolTableRecord
100
AcDbRegAppTableRecord
  2
ACAD
 70
     0
  0
ENDTAB
  0
TABLE
  2
DIMSTYLE
  5
A
330
0
100
AcDbSymbolTable
 70
     1
100
AcDbDimStyleTable
  0
DIMSTYLE
105
27
330
A
100
AcDbSymbolTableRecord
100
AcDbDimStyleTableRecord
  2
Standard
 70
     0
178
     0
340
11
  0
ENDTAB
  0
TABLE
  2
BLOCK_RECORD
  5
1
330
0
100
AcDbSymbolTable
 70
     6
  0
BLOCK_RECORD
  5
1F
330
1
100
AcDbSymbolTableRecord
100
AcDbBlockTableRecord
  2
*Model_Space
340
22
 70
     0
280
     1
281
     0
  0
BLOCK_RECORD
  5
1B
330
1
100
AcDbSymbolTableRecord
100
AcDbBlockTableRecord
  2
*Paper_Space
340
1E
 70
     0
280
     1
281
     0
  0
BLOCK_RECORD
  5
23
330
1
100
AcDbSymbolTableRecord
100
AcDbBlockTableRecord
  2
*Paper_Space0
340
26
 70
     0
280
     1
281
     0
  0
BLOCK_RECORD
  5
A0
330
1
100
AcDbSymbolTableRecord
100
AcDbBlockTableRecord
  2
block 2
340
0
102
{BLKREFS
331
A1
102
}
 70
     0
280
     1
281
     0
  0
BLOCK_RECORD
  5
E7
330
1
100
AcDbSymbolTableRecord
100
AcDbBlockTableRecord
  2
block 3
340
0
102
{BLKREFS
331
E8
102
}
 70
     0
280
     1
281
     0
  0
BLOCK_RECORD
  5
10D
330
1
100
AcDbSymbolTableRecord
100
AcDbBlockTableRecord
  2
block 4
340
0
102
{BLKREFS
331
10E
102
}
 70
     0
280
     1
281
     0
  0
BLOCK_RECORD
  5
122
330
1
100
AcDbSymbolTableRecord
100
AcDbBlockTableRecord
  2
block 5
340
0
102
{BLKREFS
331
123
102
}
 70
     0
280
     1
281
     0
  0
BLOCK_RECORD
  5
14A
330
1
100
AcDbSymbolTableRecord
100
AcDbBlockTableRecord
  2
block 6
340
0
102
{BLKREFS
331
14B
102
}
 70
     0
280
     1
281
     0
  0
ENDTAB
  0
ENDSEC
  0
SECTION
  2
BLOCKS
  0
BLOCK
  5
20
330
1F
100
AcDbEntity
  8
0
100
AcDbBlockBegin
  2
*Model_Space
 70
     0
 10
0.0
 20
0.0
 30
0.0
  3
*Model_Space
  1

  0
ENDBLK
  5
21
330
1F
100
AcDbEntity
  8
0
100
AcDbBlockEnd
  0
BLOCK
  5
1C
330
1B
100
AcDbEntity
 67
     1
  8
0
100
AcDbBlockBegin
  2
*Paper_Space
 70
     0
 10
0.0
 20
0.0
 30
0.0
  3
*Paper_Space
  1

  0
ENDBLK
  5
1D
330
1B
100
AcDbEntity
 67
     1
  8
0
100
AcDbBlockEnd
  0
BLOCK
  5
24
330
23
100
AcDbEntity
  8
0
100
AcDbBlockBegin
  2
*Paper_Space0
 70
     0
 10
0.0
 20
0.0
 30
0.0
  3
*Paper_Space0
  1

  0
ENDBLK
  5
25
330
23
100
AcDbEntity
  8
0
100
AcDbBlockEnd
  0
BLOCK
  5
A2
330
A0
100
AcDbEntity
  8
0
100
AcDbBlockBegin
  2
block 2
 70
     0
 10
0.0
 20
0.0
 30
0.0
  3
block 2
  1

  0
SPLINE
  5
A4
330
A0
100
AcDbEntity
  8
_U+30EC_U+30A4_U+30E4_U+30FC 1
370
     0
100
AcDbSpline
210
0.0
220
0.0
230
1.0
 70
    11
 71
     3
 72
   101
 73
    97
 74
     0
 42
0.0000000001
 43
0.0000000001
 12
1.0
 22
0.0
 32
0.0
 13
1.0
 23
0.0
 33
0.0
 40
0.0
 40
0.0
 40
0.0
 40
0.0
 40
1.0
 40
1.0
 40
1.0
 40
2.0
 40
2.0
 40
2.0
 40
3.0
 40
3.0
 40
3.0
 40
4.0
 40
4.0
 40
4.0
 40
5.0
 40
5.0
 40
5.0
 40
6.0
 40
6.0
 40
6.0
 40
7.0
 40
7.0
 40
7.0
 40
8.0
 40
8.0
 40
8.0
 40
9.0
 40
9.0
 40
9.0
 40
10.0
 40
10.0
 40
10.0
 40
11.0
 40
11.0
 40
11.0
 40
12.0
 40
12.0
 40
12.0
 40
13.0
 40
13.0
 40
13.0
 40
14.0
 40
14.0
 40
14.0
 40
15.0
 40
15.0
 40
15.0
 40
16.0
 40
16.0
 40
16.0
 40
17.0
 40
17.0
 40
17.0
 40
18.0
 40
18.0
 40
18.0
 40
19.0
 40
19.0
 40
19.0
 40
20.0
 40
20.0
 40
20.0
 40
21.0
 40
21.0
 40
21.0
 40
22.0
 40
22.0
 40
22.0
 40
23.0
 40
23.0
 40
23.0
 40
24.0
 40
24.0
 40
24.0
 40
25.0
 40
25.0
 40
25.0
 40
26.0
 40
26.0
 40
26.0
 40
27.0
 40
27.0
 40
27.0
 40
28.0
 40
28.0
 40
28.0
 40
29.0
 40
29.0
 40
29.0
 40
30.0
 40
30.0
 40
30.0
 40
31.0
 40
31.0
 40
31.0
 40
32.0
 40
32.0
 40
32.0
 40
32.0
 10
104.5138617360243
 20
-124.8940130981168
 30
0.0
 10
104.3739908593232
 20
-124.8919460408256
 30
0.0
 10
104.1266330034822
 20
-124.8874674166948
 30
0.0
 10
104.0632432465536
 20
-124.8874674166948
 30
0.0
 10
104.0632432465536
 20
-124.8874674166948
 30
0.0
 10
103.5068603256858
 20
-124.8874674166948
 30
0.0
 10
103.5068603256858
 20
-124.8874674166948
 30
0.0
 10
103.5068603256858
 20
-124.9828965616362
 30
0.0
 10
103.5003146442638
 20
-125.075914139738
 30
0.0
 10
103.4941134723904
 20
-125.1689317178397
 30
0.0
 10
103.4941134723904
 20
-125.1689317178397
 30
0.0
 10
103.8813422049325
 20
-125.1689317178397
 30
0.0
 10
103.8813422049325
 20
-125.1689317178397
 30
0.0
 10
104.0377495399628
 20
-125.1689317178397
 30
0.0
 10
104.2640923133437
 20
-125.1647976032574
 30
0.0
 10
104.4184325910829
 20
-125.1561848645443
 30
0.0
 10
104.4142984765006
 20
-125.2154405068906
 30
0.0
 10
104.4101643619183
 20
-125.3911403766383
 30
0.0
 10
104.4101643619183
 20
-125.4586642481492
 30
0.0
 10
104.4101643619183
 20
-125.4586642481492
 30
0.0
 10
104.4101643619183
 20
-125.6598578244878
 30
0.0
 10
104.4101643619183
 20
-125.6598578244878
 30
0.0
 10
104.4101643619183
 20
-125.7780245996319
 30
0.0
 10
104.4163655337917
 20
-125.9602701508016
 30
0.0
 10
104.4249782725049
 20
-126.0743028113634
 30
0.0
 10
104.4249782725049
 20
-126.0743028113634
 30
0.0
 10
104.1814100216977
 20
-126.0743028113634
 30
0.0
 10
104.1814100216977
 20
-126.0743028113634
 30
0.0
 10
104.1962239322843
 20
-125.9389105587931
 30
0.0
 10
104.2007025564151
 20
-125.8055853635139
 30
0.0
 10
104.2007025564151
 20
-125.6701931109436
 30
0.0
 10
104.2007025564151
 20
-125.6701931109436
 30
0.0
 10
104.2007025564151
 20
-125.3528998167521
 30
0.0
 10
104.2007025564151
 20
-125.3528998167521
 30
0.0
 10
104.2007025564151
 20
-125.3528998167521
 30
0.0
 10
103.4727538803818
 20
-125.3528998167521
 30
0.0
 10
103.4727538803818
 20
-125.3528998167521
 30
0.0
 10
103.4262450913309
 20
-125.6257513791838
 30
0.0
 10
103.3628553344023
 20
-125.8203992741005
 30
0.0
 10
103.1599392103211
 20
-126.0364067610256
 30
0.0
 10
103.1599392103211
 20
-126.0364067610256
 30
0.0
 10
102.9608126912737
 20
-125.8986029416156
 30
0.0
 10
102.9608126912737
 20
-125.8986029416156
 30
0.0
 10
103.2846516668872
 20
-125.6026692394327
 30
0.0
 10
103.2994655774738
 20
-125.2512694999372
 30
0.0
 10
103.2994655774738
 20
-124.7372612535379
 30
0.0
 10
103.2994655774738
 20
-124.6652587578962
 30
0.0
 10
103.2994655774738
 20
-124.5532931546256
 30
0.0
 10
103.2908528387606
 20
-124.1577961929189
 30
0.0
 10
103.2908528387606
 20
-124.1577961929189
 30
0.0
 10
103.5109944402681
 20
-124.1767442180878
 30
0.0
 10
103.5109944402681
 20
-124.1767442180878
 30
0.0
 10
103.5320095227281
 20
-124.1788112753789
 30
0.0
 10
103.557503229319
 20
-124.1808783326701
 30
0.0
 10
103.557503229319
 20
-124.2043049819698
 30
0.0
 10
103.557503229319
 20
-124.2273871217209
 30
0.0
 10
103.5258083508547
 20
-124.2380669177252
 30
0.0
 10
103.5068603256858
 20
-124.2466796564383
 30
0.0
 10
103.5068603256858
 20
-124.2466796564383
 30
0.0
 10
103.5068603256858
 20
-124.697298145909
 30
0.0
 10
103.5068603256858
 20
-124.697298145909
 30
0.0
 10
103.5068603256858
 20
-124.697298145909
 30
0.0
 10
104.0863253863048
 20
-124.697298145909
 30
0.0
 10
104.0863253863048
 20
-124.697298145909
 30
0.0
 10
104.0863253863048
 20
-124.697298145909
 30
0.0
 10
104.1200873220603
 20
-124.697298145909
 30
0.0
 10
104.1200873220603
 20
-124.697298145909
 30
0.0
 10
104.1200873220603
 20
-124.697298145909
 30
0.0
 10
104.1200873220603
 20
-124.4389159845153
 30
0.0
 10
104.1200873220603
 20
-124.4389159845153
 30
0.0
 10
104.1200873220603
 20
-124.3693250557132
 30
0.0
 10
104.115953207478
 20
-124.214984777974
 30
0.0
 10
104.1118190928957
 20
-124.1512505114969
 30
0.0
 10
104.1118190928957
 20
-124.1512505114969
 30
0.0
 10
104.3488416622808
 20
-124.1705430462143
 30
0.0
 10
104.3488416622808
 20
-124.1705430462143
 30
0.0
 10
104.3612440060277
 20
-124.1705430462143
 30
0.0
 10
104.3867377126186
 20
-124.1746771607966
 30
0.0
 10
104.3867377126186
 20
-124.1956922432566
 30
0.0
 10
104.3867377126186
 20
-124.2191188925563
 30
0.0
 10
104.3677896874497
 20
-124.2253200644298
 30
0.0
 10
104.3381618662766
 20
-124.2380669177252
 30
0.0
 10
104.3340277516943
 20
-124.3014566746538
 30
0.0
 10
104.3316161848546
 20
-124.3648464315824
 30
0.0
 10
104.3316161848546
 20
-124.4285806980595
 30
0.0
 10
104.3316161848546
 20
-124.4285806980595
 30
0.0
 10
104.3316161848546
 20
-124.6928195217782
 30
0.0
 10
104.3316161848546
 20
-124.6928195217782
 30
0.0
 10
104.7336588279833
 20
-124.6866183499047
 30
0.0
 10
104.7949815276207
 20
-124.6866183499047
 30
0.0
 10
104.9007459590179
 20
-124.6759385539005
 30
0.0
 10
104.9007459590179
 20
-124.6759385539005
 30
0.0
 10
104.9007459590179
 20
-124.9088270087034
 30
0.0
 10
104.9007459590179
 20
-124.9088270087034
 30
0.0
 10
104.7949815276207
 20
-124.9002142699902
 30
0.0
 10
104.6172146005818
 20
-124.8960801554079
 30
0.0
 10
104.5138617360243
 20
-124.8940130981168
 30
0.0
  0
HATCH
  5
A5
330
A0
100
AcDbEntity
  8
_U+30EC_U+30A4_U+30E4_U+30FC 1
 62
   179
420
  2234388
100
AcDbHatch
 10
0.0
 20
0.0
 30
0.0
210
0.0
220
0.0
230
1.0
  2
SOLID
 70
     1
 71
     0
 91
        1
 92
        1
 93
        1
 72
     4
 94
        3
 73
     0
 74
     1
 95
      101
 96
       97
 40
0.0
 40
0.0
 40
0.0
 40
0.0
 40
1.0
 40
1.0
 40
1.0
 40
2.0
 40
2.0
 40
2.0
 40
3.0
 40
3.0
 40
3.0
 40
4.0
 40
4.0
 40
4.0
 40
5.0
 40
5.0
 40
5.0
 40
6.0
 40
6.0
 40
6.0
 40
7.0
 40
7.0
 40
7.0
 40
8.0
 40
8.0
 40
8.0
 40
9.0
 40
9.0
 40
9.0
 40
10.0
 40
10.0
 40
10.0
 40
11.0
 40
11.0
 40
11.0
 40
12.0
 40
12.0
 40
12.0
 40
13.0
 40
13.0
 40
13.0
 40
14.0
 40
14.0
 40
14.0
 40
15.0
 40
15.0
 40
15.0
 40
16.0
 40
16.0
 40
16.0
 40
17.0
 40
17.0
 40
17.0
 40
18.0
 40
18.0
 40
18.0
 40
19.0
 40
19.0
 40
19.0
 40
20.0
 40
20.0
 40
20.0
 40
21.0
 40
21.0
 40
21.0
 40
22.0
 40
22.0
 40
22.0
 40
23.0
 40
23.0
 40
23.0
 40
24.0
 40
24.0
 40
24.0
 40
25.0
 40
25.0
 40
25.0
 40
26.0
 40
26.0
 40
26.0
 40
27.0
 40
27.0
 40
27.0
 40
28.0
 40
28.0
 40
28.0
 40
29.0
 40
29.0
 40
29.0
 40
30.0
 40
30.0
 40
30.0
 40
31.0
 40
31.0
 40
31.0
 40
32.0
 40
32.0
 40
32.0
 40
32.0
 10
104.5138617360243
 20
-124.8940130981168
 10
104.3739908593232
 20
-124.8919460408256
 10
104.1266330034822
 20
-124.8874674166948
 10
104.0632432465536
 20
-124.8874674166948
 10
104.0632432465536
 20
-124.8874674166948
 10
103.5068603256858
 20
-124.8874674166948
 10
103.5068603256858
 20
-124.8874674166948
 10
103.5068603256858
 20
-124.9828965616362
 10
103.5003146442638
 20
-125.075914139738
 10
103.4941134723904
 20
-125.1689317178397
 10
103.4941134723904
 20
-125.1689317178397
 10
103.8813422049325
 20
-125.1689317178397
 10
103.8813422049325
 20
-125.1689317178397
 10
104.0377495399628
 20
-125.1689317178397
 10
104.2640923133437
 20
-125.1647976032574
 10
104.4184325910829
 20
-125.1561848645443
 10
104.4142984765006
 20
-125.2154405068906
 10
104.4101643619183
 20
-125.3911403766383
 10
104.4101643619183
 20
-125.4586642481492
 10
104.4101643619183
 20
-125.4586642481492
 10
104.4101643619183
 20
-125.6598578244878
 10
104.4101643619183
 20
-125.6598578244878
 10
104.4101643619183
 20
-125.7780245996319
 10
104.4163655337917
 20
-125.9602701508016
 10
104.4249782725049
 20
-126.0743028113634
 10
104.4249782725049
 20
-126.0743028113634
 10
104.1814100216977
 20
-126.0743028113634
 10
104.1814100216977
 20
-126.0743028113634
 10
104.1962239322843
 20
-125.9389105587931
 10
104.2007025564151
 20
-125.8055853635139
 10
104.2007025564151
 20
-125.6701931109436
 10
104.2007025564151
 20
-125.6701931109436
 10
104.2007025564151
 20
-125.3528998167521
 10
104.2007025564151
 20
-125.3528998167521
 10
104.2007025564151
 20
-125.3528998167521
 10
103.4727538803818
 20
-125.3528998167521
 10
103.4727538803818
 20
-125.3528998167521
 10
103.4262450913309
 20
-125.6257513791838
 10
103.3628553344023
 20
-125.8203992741005
 10
103.1599392103211
 20
-126.0364067610256
 10
103.1599392103211
 20
-126.0364067610256
 10
102.9608126912737
 20
-125.8986029416156
 10
102.9608126912737
 20
-125.8986029416156
 10
103.2846516668872
 20
-125.6026692394327
 10
103.2994655774738
 20
-125.2512694999372
 10
103.2994655774738
 20
-124.7372612535379
 10
103.2994655774738
 20
-124.6652587578962
 10
103.2994655774738
 20
-124.5532931546256
 10
103.2908528387606
 20
-124.1577961929189
 10
103.2908528387606
 20
-124.1577961929189
 10
103.5109944402681
 20
-124.1767442180878
 10
103.5109944402681
 20
-124.1767442180878
 10
103.5320095227281
 20
-124.1788112753789
 10
103.557503229319
 20
-124.1808783326701
 10
103.557503229319
 20
-124.2043049819698
 10
103.557503229319
 20
-124.2273871217209
 10
103.5258083508547
 20
-124.2380669177252
 10
103.5068603256858
 20
-124.2466796564383
 10
103.5068603256858
 20
-124.2466796564383
 10
103.5068603256858
 20
-124.697298145909
 10
103.5068603256858
 20
-124.697298145909
 10
103.5068603256858
 20
-124.697298145909
 10
104.0863253863048
 20
-124.697298145909
 10
104.0863253863048
 20
-124.697298145909
 10
104.0863253863048
 20
-124.697298145909
 10
104.1200873220603
 20
-124.697298145909
 10
104.1200873220603
 20
-124.697298145909
 10
104.1200873220603
 20
-124.697298145909
 10
104.1200873220603
 20
-124.4389159845153
 10
104.1200873220603
 20
-124.4389159845153
 10
104.1200873220603
 20
-124.3693250557132
 10
104.115953207478
 20
-124.214984777974
 10
104.1118190928957
 20
-124.1512505114969
 10
104.1118190928957
 20
-124.1512505114969
 10
104.3488416622808
 20
-124.1705430462143
 10
104.3488416622808
 20
-124.1705430462143
 10
104.3612440060277
 20
-124.1705430462143
 10
104.3867377126186
 20
-124.1746771607966
 10
104.3867377126186
 20
-124.1956922432566
 10
104.3867377126186
 20
-124.2191188925563
 10
104.3677896874497
 20
-124.2253200644298
 10
104.3381618662766
 20
-124.2380669177252
 10
104.3340277516943
 20
-124.3014566746538
 10
104.3316161848546
 20
-124.3648464315824
 10
104.3316161848546
 20
-124.4285806980595
 10
104.3316161848546
 20
-124.4285806980595
 10
104.3316161848546
 20
-124.6928195217782
 10
104.3316161848546
 20
-124.6928195217782
 10
104.7336588279833
 20
-124.6866183499047
 10
104.7949815276207
 20
-124.6866183499047
 10
104.9007459590179
 20
-124.6759385539005
 10
104.9007459590179
 20
-124.6759385539005
 10
104.9007459590179
 20
-124.9088270087034
 10
104.9007459590179
 20
-124.9088270087034
 10
104.7949815276207
 20
-124.9002142699902
 10
104.6172146005818
 20
-124.8960801554079
 10
104.5138617360243
 20
-124.8940130981168
 97
        0
 97
        0
 75
     2
 76
     1
 98
        0
  0
SPLINE
  5
A6
330
A0
100
AcDbEntity
  8
_U+30EC_U+30A4_U+30E4_U+30FC 1
370
     0
100
AcDbSpline
210
0.0
220
0.0
230
1.0
 70
    11
 71
     3
 72
    29
 73
    25
 74
     0
 42
0.0000000001
 43
0.0000000001
 12
1.0
 22
0.0
 32
0.0
 13
1.0
 23
0.0
 33
0.0
 40
0.0
 40
0.0
 40
0.0
 40
0.0
 40
1.0
 40
1.0
 40
1.0
 40
2.0
 40
2.0
 40
2.0
 40
3.0
 40
3.0
 40
3.0
 40
4.0
 40
4.0
 40
4.0
 40
5.0
 40
5.0
 40
5.0
 40
6.0
 40
6.0
 40
6.0
 40
7.0
 40
7.0
 40
7.0
 40
8.0
 40
8.0
 40
8.0
 40
8.0
 10
105.8136962626091
 20
-124.6504448473096
 30
0.0
 10
105.8030164666048
 20
-124.6886854071959
 30
0.0
 10
105.7968152947314
 20
-124.7097004896559
 30
0.0
 10
105.7416937669674
 20
-124.917095237868
 30
0.0
 10
105.6741698954565
 20
-125.1689317178397
 30
0.0
 10
105.5980332852324
 20
-125.3298176770009
 30
0.0
 10
105.481589057831
 20
-125.5199869477867
 30
0.0
 10
105.3840928555984
 20
-125.682939964239
 30
0.0
 10
105.3248372132521
 20
-125.7508083452984
 30
0.0
 10
105.2828070483321
 20
-125.7973171343493
 30
0.0
 10
105.2828070483321
 20
-125.7973171343493
 30
0.0
 10
105.07541230012
 20
-125.689485645661
 30
0.0
 10
105.07541230012
 20
-125.689485645661
 30
0.0
 10
105.4560953512402
 20
-125.3298176770009
 30
0.0
 10
105.5894205465193
 20
-124.7162461710779
 30
0.0
 10
105.6042344571059
 20
-124.4857692831147
 30
0.0
 10
105.6042344571059
 20
-124.4857692831147
 30
0.0
 10
105.8540038797865
 20
-124.5574272692079
 30
0.0
 10
105.8540038797865
 20
-124.5574272692079
 30
0.0
 10
105.8856987582508
 20
-124.566040007921
 30
0.0
 10
105.8939669874154
 20
-124.5743082370856
 30
0.0
 10
105.8939669874154
 20
-124.5891221476722
 30
0.0
 10
105.8939669874154
 20
-124.6166829115542
 30
0.0
 10
105.887765815542
 20
-124.6187499688453
 30
0.0
 10
105.8136962626091
 20
-124.6504448473096
 30
0.0
  0
SPLINE
  5
A7
330
A0
100
AcDbEntity
  8
_U+30EC_U+30A4_U+30E4_U+30FC 1
370
     0
100
AcDbSpline
210
0.0
220
0.0
230
1.0
 70
    11
 71
     3
 72
    20
 73
    16
 74
     0
 42
0.0000000001
 43
0.0000000001
 12
1.0
 22
0.0
 32
0.0
 13
1.0
 23
0.0
 33
0.0
 40
0.0
 40
0.0
 40
0.0
 40
0.0
 40
1.0
 40
1.0
 40
1.0
 40
2.0
 40
2.0
 40
2.0
 40
3.0
 40
3.0
 40
3.0
 40
4.0
 40
4.0
 40
4.0
 40
5.0
 40
5.0
 40
5.0
 40
5.0
 10
106.6959852163816
 20
-125.7401285492941
 30
0.0
 10
106.6639458283687
 20
-125.5561604503818
 30
0.0
 10
106.626049778031
 20
-125.3866617525075
 30
0.0
 10
106.522352403925
 20
-125.1479166353797
 30
0.0
 10
106.4420816791187
 20
-124.9574028550454
 30
0.0
 10
106.3425184195949
 20
-124.7755018134242
 30
0.0
 10
106.2136718484466
 20
-124.614615854263
 30
0.0
 10
106.2136718484466
 20
-124.614615854263
 30
0.0
 10
106.391094265937
 20
-124.4981716268616
 30
0.0
 10
106.391094265937
 20
-124.4981716268616
 30
0.0
 10
106.702186388255
 20
-124.8981472126991
 30
0.0
 10
106.8758192007116
 20
-125.4207681978115
 30
0.0
 10
106.9285291616359
 20
-125.6660589963613
 30
0.0
 10
106.9285291616359
 20
-125.6660589963613
 30
0.0
 10
106.6959852163816
 20
-125.7401285492941
 30
0.0
 10
106.6959852163816
 20
-125.7401285492941
 30
0.0
  0
HATCH
  5
A8
330
A0
100
AcDbEntity
  8
_U+30EC_U+30A4_U+30E4_U+30FC 1
 62
   179
420
  2234388
100
AcDbHatch
 10
0.0
 20
0.0
 30
0.0
210
0.0
220
0.0
230
1.0
  2
SOLID
 70
     1
 71
     0
 91
        2
 92
        1
 93
        1
 72
     4
 94
        3
 73
     0
 74
     1
 95
       29
 96
       25
 40
0.0
 40
0.0
 40
0.0
 40
0.0
 40
1.0
 40
1.0
 40
1.0
 40
2.0
 40
2.0
 40
2.0
 40
3.0
 40
3.0
 40
3.0
 40
4.0
 40
4.0
 40
4.0
 40
5.0
 40
5.0
 40
5.0
 40
6.0
 40
6.0
 40
6.0
 40
7.0
 40
7.0
 40
7.0
 40
8.0
 40
8.0
 40
8.0
 40
8.0
 10
105.8136962626091
 20
-124.6504448473096
 10
105.8030164666048
 20
-124.6886854071959
 10
105.7968152947314
 20
-124.7097004896559
 10
105.7416937669674
 20
-124.917095237868
 10
105.6741698954565
 20
-125.1689317178397
 10
105.5980332852324
 20
-125.3298176770009
 10
105.481589057831
 20
-125.5199869477867
 10
105.3840928555984
 20
-125.682939964239
 10
105.3248372132521
 20
-125.7508083452984
 10
105.2828070483321
 20
-125.7973171343493
 10
105.2828070483321
 20
-125.7973171343493
 10
105.07541230012
 20
-125.689485645661
 10
105.07541230012
 20
-125.689485645661
 10
105.4560953512402
 20
-125.3298176770009
 10
105.5894205465193
 20
-124.7162461710779
 10
105.6042344571059
 20
-124.4857692831147
 10
105.6042344571059
 20
-124.4857692831147
 10
105.8540038797865
 20
-124.5574272692079
 10
105.8540038797865
 20
-124.5574272692079
 10
105.8856987582508
 20
-124.566040007921
 10
105.8939669874154
 20
-124.5743082370856
 10
105.8939669874154
 20
-124.5891221476722
 10
105.8939669874154
 20
-124.6166829115542
 10
105.887765815542
 20
-124.6187499688453
 10
105.8136962626091
 20
-124.6504448473096
 97
        0
 97
        0
 92
        1
 93
        1
 72
     4
 94
        3
 73
     0
 74
     1
 95
       20
 96
       16
 40
0.0
 40
0.0
 40
0.0
 40
0.0
 40
1.0
 40
1.0
 40
1.0
 40
2.0
 40
2.0
 40
2.0
 40
3.0
 40
3.0
 40
3.0
 40
4.0
 40
4.0
 40
4.0
 40
5.0
 40
5.0
 40
5.0
 40
5.0
 10
106.6959852163816
 20
-125.7401285492941
 10
106.6639458283687
 20
-125.5561604503818
 10
106.626049778031
 20
-125.3866617525075
 10
106.522352403925
 20
-125.1479166353797
 10
106.4420816791187
 20
-124.9574028550454
 10
106.3425184195949
 20
-124.7755018134242
 10
106.2136718484466
 20
-124.614615854263
 10
106.2136718484466
 20
-124.614615854263
 10
106.391094265937
 20
-124.4981716268616
 10
106.391094265937
 20
-124.4981716268616
 10
106.702186388255
 20
-124.8981472126991
 10
106.8758192007116
 20
-125.4207681978115
 10
106.9285291616359
 20
-125.6660589963613
 10
106.9285291616359
 20
-125.6660589963613
 10
106.6959852163816
 20
-125.7401285492941
 10
106.6959852163816
 20
-125.7401285492941
 97
        0
 97
        0
 75
     2
 76
     1
 98
        0
  0
SPLINE
  5
A9
330
A0
100
AcDbEntity
  8
_U+30EC_U+30A4_U+30E4_U+30FC 1
370
     0
100
AcDbSpline
210
0.0
220
0.0
230
1.0
 70
    11
 71
     3
 72
    17
 73
    13
 74
     0
 42
0.0000000001
 43
0.0000000001
 12
1.0
 22
0.0
 32
0.0
 13
1.0
 23
0.0
 33
0.0
 40
0.0
 40
0.0
 40
0.0
 40
0.0
 40
1.0
 40
1.0
 40
1.0
 40
2.0
 40
2.0
 40
2.0
 40
3.0
 40
3.0
 40
3.0
 40
4.0
 40
4.0
 40
4.0
 40
4.0
 10
107.3233371042456
 20
-125.2302544174772
 30
0.0
 10
107.2895751684901
 20
-125.1499836926708
 30
0.0
 10
107.2365206980173
 20
-125.0249267265563
 30
0.0
 10
107.1369574384935
 20
-124.8960801554079
 30
0.0
 10
107.1369574384935
 20
-124.8960801554079
 30
0.0
 10
107.2957763403636
 20
-124.8430256849351
 30
0.0
 10
107.2957763403636
 20
-124.8430256849351
 30
0.0
 10
107.3739800078787
 20
-124.9508571736234
 30
0.0
 10
107.4270344783516
 20
-125.0442192612737
 30
0.0
 10
107.481811496567
 20
-125.1709987751309
 30
0.0
 10
107.481811496567
 20
-125.1709987751309
 30
0.0
 10
107.3233371042456
 20
-125.2302544174772
 30
0.0
 10
107.3233371042456
 20
-125.2302544174772
 30
0.0
  0
SPLINE
  5
AA
330
A0
100
AcDbEntity
  8
_U+30EC_U+30A4_U+30E4_U+30FC 1
370
     0
100
AcDbSpline
210
0.0
220
0.0
230
1.0
 70
    11
 71
     3
 72
    32
 73
    28
 74
     0
 42
0.0000000001
 43
0.0000000001
 12
1.0
 22
0.0
 32
0.0
 13
1.0
 23
0.0
 33
0.0
 40
0.0
 40
0.0
 40
0.0
 40
0.0
 40
1.0
 40
1.0
 40
1.0
 40
2.0
 40
2.0
 40
2.0
 40
3.0
 40
3.0
 40
3.0
 40
4.0
 40
4.0
 40
4.0
 40
5.0
 40
5.0
 40
5.0
 40
6.0
 40
6.0
 40
6.0
 40
7.0
 40
7.0
 40
7.0
 40
8.0
 40
8.0
 40
8.0
 40
9.0
 40
9.0
 40
9.0
 40
9.0
 10
108.4402370605636
 20
-124.8854003594037
 30
0.0
 10
108.4192219781035
 20
-124.8919460408256
 30
0.0
 10
108.4085421820993
 20
-124.9002142699902
 30
0.0
 10
108.3999294433861
 20
-124.9108940659945
 30
0.0
 10
108.3937282715127
 20
-124.9212293524503
 30
0.0
 10
108.3324055718752
 20
-125.1265570433712
 30
0.0
 10
108.3175916612887
 20
-125.1668646605486
 30
0.0
 10
108.1039957412032
 20
-125.7146348427033
 30
0.0
 10
107.7867024470117
 20
-125.8882676551599
 30
0.0
 10
107.5517469349176
 20
-126.0043673730128
 30
0.0
 10
107.5517469349176
 20
-126.0043673730128
 30
0.0
 10
107.412220567765
 20
-125.8755208018645
 30
0.0
 10
107.412220567765
 20
-125.8755208018645
 30
0.0
 10
107.5579481067911
 20
-125.814198102227
 30
0.0
 10
107.7949706761763
 20
-125.7146348427033
 30
0.0
 10
107.9896185710929
 20
-125.4376491656892
 30
0.0
 10
108.1715196127141
 20
-125.1771999470043
 30
0.0
 10
108.2097601726003
 20
-124.9108940659945
 30
0.0
 10
108.2349093696427
 20
-124.7520751641245
 30
0.0
 10
108.2349093696427
 20
-124.7520751641245
 30
0.0
 10
108.3999294433861
 20
-124.8133978637619
 30
0.0
 10
108.3999294433861
 20
-124.8133978637619
 30
0.0
 10
108.4423041178547
 20
-124.8282117743485
 30
0.0
 10
108.4657307671544
 20
-124.8430256849351
 30
0.0
 10
108.4657307671544
 20
-124.8599066528128
 30
0.0
 10
108.4657307671544
 20
-124.8747205633994
 30
0.0
 10
108.4550509711501
 20
-124.8812662448214
 30
0.0
 10
108.4402370605636
 20
-124.8854003594037
 30
0.0
  0
SPLINE
  5
AB
330
A0
100
AcDbEntity
  8
_U+30EC_U+30A4_U+30E4_U+30FC 1
370
     0
100
AcDbSpline
210
0.0
220
0.0
230
1.0
 70
    11
 71
     3
 72
    17
 73
    13
 74
     0
 42
0.0000000001
 43
0.0000000001
 12
1.0
 22
0.0
 32
0.0
 13
1.0
 23
0.0
 33
0.0
 40
0.0
 40
0.0
 40
0.0
 40
0.0
 40
1.0
 40
1.0
 40
1.0
 40
2.0
 40
2.0
 40
2.0
 40
3.0
 40
3.0
 40
3.0
 40
4.0
 40
4.0
 40
4.0
 40
4.0
 10
107.7377820911211
 20
-125.1393038966666
 30
0.0
 10
107.708154269948
 20
-125.0566216050206
 30
0.0
 10
107.6616454808971
 20
-124.9319091484545
 30
0.0
 10
107.5579481067911
 20
-124.8006510104665
 30
0.0
 10
107.5579481067911
 20
-124.8006510104665
 30
0.0
 10
107.7167670086611
 20
-124.745873992251
 30
0.0
 10
107.7167670086611
 20
-124.745873992251
 30
0.0
 10
107.8097845867628
 20
-124.8771321302391
 30
0.0
 10
107.8562933758137
 20
-124.9828965616362
 30
0.0
 10
107.8966009929911
 20
-125.0886609930334
 30
0.0
 10
107.8966009929911
 20
-125.0886609930334
 30
0.0
 10
107.7377820911211
 20
-125.1393038966666
 30
0.0
 10
107.7377820911211
 20
-125.1393038966666
 30
0.0
  0
HATCH
  5
AC
330
A0
100
AcDbEntity
  8
_U+30EC_U+30A4_U+30E4_U+30FC 1
 62
   179
420
  2234388
100
AcDbHatch
 10
0.0
 20
0.0
 30
0.0
210
0.0
220
0.0
230
1.0
  2
SOLID
 70
     1
 71
     0
 91
        3
 92
        1
 93
        1
 72
     4
 94
        3
 73
     0
 74
     1
 95
       17
 96
       13
 40
0.0
 40
0.0
 40
0.0
 40
0.0
 40
1.0
 40
1.0
 40
1.0
 40
2.0
 40
2.0
 40
2.0
 40
3.0
 40
3.0
 40
3.0
 40
4.0
 40
4.0
 40
4.0
 40
4.0
 10
107.3233371042456
 20
-125.2302544174772
 10
107.2895751684901
 20
-125.1499836926708
 10
107.2365206980173
 20
-125.0249267265563
 10
107.1369574384935
 20
-124.8960801554079
 10
107.1369574384935
 20
-124.8960801554079
 10
107.2957763403636
 20
-124.8430256849351
 10
107.2957763403636
 20
-124.8430256849351
 10
107.3739800078787
 20
-124.9508571736234
 10
107.4270344783516
 20
-125.0442192612737
 10
107.481811496567
 20
-125.1709987751309
 10
107.481811496567
 20
-125.1709987751309
 10
107.3233371042456
 20
-125.2302544174772
 10
107.3233371042456
 20
-125.2302544174772
 97
        0
 97
        0
 92
        1
 93
        1
 72
     4
 94
        3
 73
     0
 74
     1
 95
       32
 96
       28
 40
0.0
 40
0.0
 40
0.0
 40
0.0
 40
1.0
 40
1.0
 40
1.0
 40
2.0
 40
2.0
 40
2.0
 40
3.0
 40
3.0
 40
3.0
 40
4.0
 40
4.0
 40
4.0
 40
5.0
 40
5.0
 40
5.0
 40
6.0
 40
6.0
 40
6.0
 40
7.0
 40
7.0
 40
7.0
 40
8.0
 40
8.0
 40
8.0
 40
9.0
 40
9.0
 40
9.0
 40
9.0
 10
108.4402370605636
 20
-124.8854003594037
 10
108.4192219781035
 20
-124.8919460408256
 10
108.4085421820993
 20
-124.9002142699902
 10
108.3999294433861
 20
-124.9108940659945
 10
108.3937282715127
 20
-124.9212293524503
 10
108.3324055718752
 20
-125.1265570433712
 10
108.3175916612887
 20
-125.1668646605486
 10
108.1039957412032
 20
-125.7146348427033
 10
107.7867024470117
 20
-125.8882676551599
 10
107.5517469349176
 20
-126.0043673730128
 10
107.5517469349176
 20
-126.0043673730128
 10
107.412220567765
 20
-125.8755208018645
 10
107.412220567765
 20
-125.8755208018645
 10
107.5579481067911
 20
-125.814198102227
 10
107.7949706761763
 20
-125.7146348427033
 10
107.9896185710929
 20
-125.4376491656892
 10
108.1715196127141
 20
-125.1771999470043
 10
108.2097601726003
 20
-124.9108940659945
 10
108.2349093696427
 20
-124.7520751641245
 10
108.2349093696427
 20
-124.7520751641245
 10
108.3999294433861
 20
-124.8133978637619
 10
108.3999294433861
 20
-124.8133978637619
 10
108.4423041178547
 20
-124.8282117743485
 10
108.4657307671544
 20
-124.8430256849351
 10
108.4657307671544
 20
-124.8599066528128
 10
108.4657307671544
 20
-124.8747205633994
 10
108.4550509711501
 20
-124.8812662448214
 10
108.4402370605636
 20
-124.8854003594037
 97
        0
 97
        0
 92
        1
 93
        1
 72
     4
 94
        3
 73
     0
 74
     1
 95
       17
 96
       13
 40
0.0
 40
0.0
 40
0.0
 40
0.0
 40
1.0
 40
1.0
 40
1.0
 40
2.0
 40
2.0
 40
2.0
 40
3.0
 40
3.0
 40
3.0
 40
4.0
 40
4.0
 40
4.0
 40
4.0
 10
107.7377820911211
 20
-125.1393038966666
 10
107.708154269948
 20
-125.0566216050206
 10
107.6616454808971
 20
-124.9319091484545
 10
107.5579481067911
 20
-124.8006510104665
 10
107.5579481067911
 20
-124.8006510104665
 10
107.7167670086611
 20
-124.745873992251
 10
107.7167670086611
 20
-124.745873992251
 10
107.8097845867628
 20
-124.8771321302391
 10
107.8562933758137
 20
-124.9828965616362
 10
107.8966009929911
 20
-125.0886609930334
 10
107.8966009929911
 20
-125.0886609930334
 10
107.7377820911211
 20
-125.1393038966666
 10
107.7377820911211
 20
-125.1393038966666
 97
        0
 97
        0
 75
     2
 76
     1
 98
        0
  0
SPLINE
  5
AD
330
A0
100
AcDbEntity
  8
_U+30EC_U+30A4_U+30E4_U+30FC 1
370
     0
100
AcDbSpline
210
0.0
220
0.0
230
1.0
 70
    11
 71
     3
 72
    56
 73
    52
 74
     0
 42
0.0000000001
 43
0.0000000001
 12
1.0
 22
0.0
 32
0.0
 13
1.0
 23
0.0
 33
0.0
 40
0.0
 40
0.0
 40
0.0
 40
0.0
 40
1.0
 40
1.0
 40
1.0
 40
2.0
 40
2.0
 40
2.0
 40
3.0
 40
3.0
 40
3.0
 40
4.0
 40
4.0
 40
4.0
 40
5.0
 40
5.0
 40
5.0
 40
6.0
 40
6.0
 40
6.0
 40
7.0
 40
7.0
 40
7.0
 40
8.0
 40
8.0
 40
8.0
 40
9.0
 40
9.0
 40
9.0
 40
10.0
 40
10.0
 40
10.0
 40
11.0
 40
11.0
 40
11.0
 40
12.0
 40
12.0
 40
12.0
 40
13.0
 40
13.0
 40
13.0
 40
14.0
 40
14.0
 40
14.0
 40
15.0
 40
15.0
 40
15.0
 40
16.0
 40
16.0
 40
16.0
 40
17.0
 40
17.0
 40
17.0
 40
17.0
 10
109.6064018823206
 20
-125.4607313054404
 30
0.0
 10
109.4923692217589
 20
-125.3466986448786
 30
0.0
 10
109.3018554414245
 20
-125.1561848645443
 30
0.0
 10
108.9804280326507
 20
-125.0228596692651
 30
0.0
 10
108.9804280326507
 20
-125.0228596692651
 30
0.0
 10
108.9804280326507
 20
-125.3742594087606
 30
0.0
 10
108.9804280326507
 20
-125.3742594087606
 30
0.0
 10
108.9804280326507
 20
-125.4989718653267
 30
0.0
 10
108.9886962618153
 20
-125.8689751204425
 30
0.0
 10
109.0035101724019
 20
-125.9771511186793
 30
0.0
 10
109.0035101724019
 20
-125.9771511186793
 30
0.0
 10
108.7475395778478
 20
-125.9771511186793
 30
0.0
 10
108.7475395778478
 20
-125.9771511186793
 30
0.0
 10
108.7623534884344
 20
-125.8713866872822
 30
0.0
 10
108.7644205457256
 20
-125.710500728121
 30
0.0
 10
108.7644205457256
 20
-125.6660589963613
 30
0.0
 10
108.7664876030167
 20
-125.6174831500192
 30
0.0
 10
108.7730332844387
 20
-125.4038872299338
 30
0.0
 10
108.7730332844387
 20
-125.359445498174
 30
0.0
 10
108.7730332844387
 20
-125.359445498174
 30
0.0
 10
108.7730332844387
 20
-124.8071966918885
 30
0.0
 10
108.7730332844387
 20
-124.8071966918885
 30
0.0
 10
108.7730332844387
 20
-124.7245144002425
 30
0.0
 10
108.7664876030167
 20
-124.4981716268616
 30
0.0
 10
108.7602864311433
 20
-124.4199679593464
 30
0.0
 10
108.756152316561
 20
-124.3648464315824
 30
0.0
 10
108.749606635139
 20
-124.3269503812447
 30
0.0
 10
108.7392713486832
 20
-124.2804415921938
 30
0.0
 10
108.7392713486832
 20
-124.2804415921938
 30
0.0
 10
109.0203911402796
 20
-124.2993896173627
 30
0.0
 10
109.0203911402796
 20
-124.2993896173627
 30
0.0
 10
109.0331379935751
 20
-124.2993896173627
 30
0.0
 10
109.060698757457
 20
-124.303523731945
 30
0.0
 10
109.060698757457
 20
-124.331084495827
 30
0.0
 10
109.060698757457
 20
-124.3524440878355
 30
0.0
 10
109.0372721081574
 20
-124.3672579984221
 30
0.0
 10
108.9907633191065
 20
-124.3944742527556
 30
0.0
 10
108.9824950899419
 20
-124.5257323907436
 30
0.0
 10
108.9804280326507
 20
-124.6569905287316
 30
0.0
 10
108.9804280326507
 20
-124.7858370998799
 30
0.0
 10
108.9804280326507
 20
-124.7858370998799
 30
0.0
 10
108.9804280326507
 20
-125.020792611974
 30
0.0
 10
108.9804280326507
 20
-125.020792611974
 30
0.0
 10
108.9804280326507
 20
-125.020792611974
 30
0.0
 10
109.0796467826259
 20
-124.8326903984793
 30
0.0
 10
109.0796467826259
 20
-124.8326903984793
 30
0.0
 10
109.3717908797751
 20
-124.96567108421
 30
0.0
 10
109.6553222382112
 20
-125.179611513844
 30
0.0
 10
109.7462727590218
 20
-125.2936441744058
 30
0.0
 10
109.7462727590218
 20
-125.2936441744058
 30
0.0
 10
109.6064018823206
 20
-125.4607313054404
 30
0.0
 10
109.6064018823206
 20
-125.4607313054404
 30
0.0
  0
HATCH
  5
AE
330
A0
100
AcDbEntity
  8
_U+30EC_U+30A4_U+30E4_U+30FC 1
 62
   179
420
  2234388
100
AcDbHatch
 10
0.0
 20
0.0
 30
0.0
210
0.0
220
0.0
230
1.0
  2
SOLID
 70
     1
 71
     0
 91
        1
 92
        1
 93
        1
 72
     4
 94
        3
 73
     0
 74
     1
 95
       56
 96
       52
 40
0.0
 40
0.0
 40
0.0
 40
0.0
 40
1.0
 40
1.0
 40
1.0
 40
2.0
 40
2.0
 40
2.0
 40
3.0
 40
3.0
 40
3.0
 40
4.0
 40
4.0
 40
4.0
 40
5.0
 40
5.0
 40
5.0
 40
6.0
 40
6.0
 40
6.0
 40
7.0
 40
7.0
 40
7.0
 40
8.0
 40
8.0
 40
8.0
 40
9.0
 40
9.0
 40
9.0
 40
10.0
 40
10.0
 40
10.0
 40
11.0
 40
11.0
 40
11.0
 40
12.0
 40
12.0
 40
12.0
 40
13.0
 40
13.0
 40
13.0
 40
14.0
 40
14.0
 40
14.0
 40
15.0
 40
15.0
 40
15.0
 40
16.0
 40
16.0
 40
16.0
 40
17.0
 40
17.0
 40
17.0
 40
17.0
 10
109.6064018823206
 20
-125.4607313054404
 10
109.4923692217589
 20
-125.3466986448786
 10
109.3018554414245
 20
-125.1561848645443
 10
108.9804280326507
 20
-125.0228596692651
 10
108.9804280326507
 20
-125.0228596692651
 10
108.9804280326507
 20
-125.3742594087606
 10
108.9804280326507
 20
-125.3742594087606
 10
108.9804280326507
 20
-125.4989718653267
 10
108.9886962618153
 20
-125.8689751204425
 10
109.0035101724019
 20
-125.9771511186793
 10
109.0035101724019
 20
-125.9771511186793
 10
108.7475395778478
 20
-125.9771511186793
 10
108.7475395778478
 20
-125.9771511186793
 10
108.7623534884344
 20
-125.8713866872822
 10
108.7644205457256
 20
-125.710500728121
 10
108.7644205457256
 20
-125.6660589963613
 10
108.7664876030167
 20
-125.6174831500192
 10
108.7730332844387
 20
-125.4038872299338
 10
108.7730332844387
 20
-125.359445498174
 10
108.7730332844387
 20
-125.359445498174
 10
108.7730332844387
 20
-124.8071966918885
 10
108.7730332844387
 20
-124.8071966918885
 10
108.7730332844387
 20
-124.7245144002425
 10
108.7664876030167
 20
-124.4981716268616
 10
108.7602864311433
 20
-124.4199679593464
 10
108.756152316561
 20
-124.3648464315824
 10
108.749606635139
 20
-124.3269503812447
 10
108.7392713486832
 20
-124.2804415921938
 10
108.7392713486832
 20
-124.2804415921938
 10
109.0203911402796
 20
-124.2993896173627
 10
109.0203911402796
 20
-124.2993896173627
 10
109.0331379935751
 20
-124.2993896173627
 10
109.060698757457
 20
-124.303523731945
 10
109.060698757457
 20
-124.331084495827
 10
109.060698757457
 20
-124.3524440878355
 10
109.0372721081574
 20
-124.3672579984221
 10
108.9907633191065
 20
-124.3944742527556
 10
108.9824950899419
 20
-124.5257323907436
 10
108.9804280326507
 20
-124.6569905287316
 10
108.9804280326507
 20
-124.7858370998799
 10
108.9804280326507
 20
-124.7858370998799
 10
108.9804280326507
 20
-125.020792611974
 10
108.9804280326507
 20
-125.020792611974
 10
108.9804280326507
 20
-125.020792611974
 10
109.0796467826259
 20
-124.8326903984793
 10
109.0796467826259
 20
-124.8326903984793
 10
109.3717908797751
 20
-124.96567108421
 10
109.6553222382112
 20
-125.179611513844
 10
109.7462727590218
 20
-125.2936441744058
 10
109.7462727590218
 20
-125.2936441744058
 10
109.6064018823206
 20
-125.4607313054404
 10
109.6064018823206
 20
-125.4607313054404
 97
        0
 97
        0
 75
     2
 76
     1
 98
        0
  0
SPLINE
  5
AF
330
A0
100
AcDbEntity
  8
_U+30EC_U+30A4_U+30E4_U+30FC 1
370
     0
100
AcDbSpline
210
0.0
220
0.0
230
1.0
 70
    11
 71
     3
 72
    77
 73
    73
 74
     0
 42
0.0000000001
 43
0.0000000001
 12
1.0
 22
0.0
 32
0.0
 13
1.0
 23
0.0
 33
0.0
 40
0.0
 40
0.0
 40
0.0
 40
0.0
 40
1.0
 40
1.0
 40
1.0
 40
2.0
 40
2.0
 40
2.0
 40
3.0
 40
3.0
 40
3.0
 40
4.0
 40
4.0
 40
4.0
 40
5.0
 40
5.0
 40
5.0
 40
6.0
 40
6.0
 40
6.0
 40
7.0
 40
7.0
 40
7.0
 40
8.0
 40
8.0
 40
8.0
 40
9.0
 40
9.0
 40
9.0
 40
10.0
 40
10.0
 40
10.0
 40
11.0
 40
11.0
 40
11.0
 40
12.0
 40
12.0
 40
12.0
 40
13.0
 40
13.0
 40
13.0
 40
14.0
 40
14.0
 40
14.0
 40
15.0
 40
15.0
 40
15.0
 40
16.0
 40
16.0
 40
16.0
 40
17.0
 40
17.0
 40
17.0
 40
18.0
 40
18.0
 40
18.0
 40
19.0
 40
19.0
 40
19.0
 40
20.0
 40
20.0
 40
20.0
 40
21.0
 40
21.0
 40
21.0
 40
22.0
 40
22.0
 40
22.0
 40
23.0
 40
23.0
 40
23.0
 40
24.0
 40
24.0
 40
24.0
 40
24.0
 10
111.5856092385967
 20
-126.0191812835994
 30
0.0
 10
111.5391004495458
 20
-126.0446749901902
 30
0.0
 10
111.4143879929797
 20
-126.0574218434857
 30
0.0
 10
111.335839815916
 20
-126.0574218434857
 30
0.0
 10
111.3234374721691
 20
-126.0574218434857
 30
0.0
 10
111.2979437655783
 20
-126.0574218434857
 30
0.0
 10
111.2641818298228
 20
-126.0532877289034
 30
0.0
 10
111.2641818298228
 20
-126.0532877289034
 30
0.0
 10
111.1666856275903
 20
-125.8269449555224
 30
0.0
 10
111.1666856275903
 20
-125.8269449555224
 30
0.0
 10
111.1963134487634
 20
-125.8331461273959
 30
0.0
 10
111.2535020338186
 20
-125.841758866109
 30
0.0
 10
111.36994626122
 20
-125.841758866109
 30
0.0
 10
111.4481499287352
 20
-125.841758866109
 30
0.0
 10
111.4502169860263
 20
-125.7993841916404
 30
0.0
 10
111.4502169860263
 20
-125.7421956065853
 30
0.0
 10
111.4502169860263
 20
-125.7421956065853
 30
0.0
 10
111.4502169860263
 20
-125.3932074339295
 30
0.0
 10
111.4502169860263
 20
-125.3932074339295
 30
0.0
 10
111.4502169860263
 20
-125.3932074339295
 30
0.0
 10
110.9909857578425
 20
-125.3932074339295
 30
0.0
 10
110.9909857578425
 20
-125.3932074339295
 30
0.0
 10
110.9933973246822
 20
-125.5306667437909
 30
0.0
 10
110.9954643819734
 20
-125.7294487532899
 30
0.0
 10
111.0016655538468
 20
-125.862773948569
 30
0.0
 10
111.003732611138
 20
-125.890334712451
 30
0.0
 10
111.003732611138
 20
-125.9347764442108
 30
0.0
 10
111.0164794644334
 20
-125.9960991438482
 30
0.0
 10
111.0164794644334
 20
-125.9960991438482
 30
0.0
 10
110.7753227804659
 20
-125.9960991438482
 30
0.0
 10
110.7753227804659
 20
-125.9960991438482
 30
0.0
 10
110.8008164870567
 20
-125.8713866872822
 30
0.0
 10
110.8008164870567
 20
-125.5306667437909
 30
0.0
 10
110.8008164870567
 20
-125.3932074339295
 30
0.0
 10
110.8008164870567
 20
-125.3932074339295
 30
0.0
 10
110.3584662267507
 20
-125.3932074339295
 30
0.0
 10
110.3584662267507
 20
-125.3932074339295
 30
0.0
 10
110.3353840869995
 20
-125.6006021821415
 30
0.0
 10
110.2699272727797
 20
-125.8689751204425
 30
0.0
 10
110.0728678110235
 20
-126.0532877289034
 30
0.0
 10
110.0728678110235
 20
-126.0532877289034
 30
0.0
 10
109.8847655975288
 20
-125.9306423296285
 30
0.0
 10
109.8847655975288
 20
-125.9306423296285
 30
0.0
 10
110.1386691347917
 20
-125.710500728121
 30
0.0
 10
110.170364013256
 20
-125.3783935233429
 30
0.0
 10
110.170364013256
 20
-125.0462863185648
 30
0.0
 10
110.170364013256
 20
-125.0462863185648
 30
0.0
 10
110.170364013256
 20
-124.6104817396807
 30
0.0
 10
110.170364013256
 20
-124.6104817396807
 30
0.0
 10
110.170364013256
 20
-124.5743082370856
 30
0.0
 10
110.1682969559649
 20
-124.3417642918312
 30
0.0
 10
110.1596842172518
 20
-124.2401339750164
 30
0.0
 10
110.2992105844044
 20
-124.2508137710206
 30
0.0
 10
110.5407117779204
 20
-124.2508137710206
 30
0.0
 10
110.6843722596553
 20
-124.2508137710206
 30
0.0
 10
110.6843722596553
 20
-124.2508137710206
 30
0.0
 10
111.1436034878391
 20
-124.2508137710206
 30
0.0
 10
111.1436034878391
 20
-124.2508137710206
 30
0.0
 10
111.1584173984257
 20
-124.2508137710206
 30
0.0
 10
111.5074055710815
 20
-124.2508137710206
 30
0.0
 10
111.665879963403
 20
-124.2401339750164
 30
0.0
 10
111.6638129061118
 20
-124.2931884454892
 30
0.0
 10
111.6576117342384
 20
-124.4537298951018
 30
0.0
 10
111.6576117342384
 20
-124.5047173082835
 30
0.0
 10
111.6576117342384
 20
-124.5047173082835
 30
0.0
 10
111.6576117342384
 20
-125.1117431327846
 30
0.0
 10
111.6576117342384
 20
-125.1117431327846
 30
0.0
 10
111.6576117342384
 20
-125.1306911579534
 30
0.0
 10
111.6679470206941
 20
-125.7018879894079
 30
0.0
 10
111.6679470206941
 20
-125.814198102227
 30
0.0
 10
111.6679470206941
 20
-125.8713866872822
 30
0.0
 10
111.6679470206941
 20
-125.9726724945485
 30
0.0
 10
111.5856092385967
 20
-126.0191812835994
 30
0.0
  0
POLYLINE
  5
B0
330
A0
100
AcDbEntity
  8
_U+30EC_U+30A4_U+30E4_U+30FC 1
370
     0
100
AcDb2dPolyline
 66
     1
 10
0.0
 20
0.0
 30
0.0
  0
VERTEX
  5
B1
330
B0
100
AcDbEntity
  8
_U+30EC_U+30A4_U+30E4_U+30FC 1
370
     0
100
AcDbVertex
100
AcDb2dVertex
 10
110.8008164870567
 20
-124.4327148126418
 30
0.0
  0
VERTEX
  5
B2
330
B0
100
AcDbEntity
  8
_U+30EC_U+30A4_U+30E4_U+30FC 1
370
     0
100
AcDbVertex
100
AcDb2dVertex
 10
110.3629448508815
 20
-124.4327148126418
 30
0.0
  0
VERTEX
  5
B3
330
B0
100
AcDbEntity
  8
_U+30EC_U+30A4_U+30E4_U+30FC 1
370
     0
100
AcDbVertex
100
AcDb2dVertex
 10
110.3629448508815
 20
-124.7372612535379
 30
0.0
  0
VERTEX
  5
B4
330
B0
100
AcDbEntity
  8
_U+30EC_U+30A4_U+30E4_U+30FC 1
370
     0
100
AcDbVertex
100
AcDb2dVertex
 10
110.8008164870567
 20
-124.7372612535379
 30
0.0
  0
VERTEX
  5
B5
330
B0
100
AcDbEntity
  8
_U+30EC_U+30A4_U+30E4_U+30FC 1
370
     0
100
AcDbVertex
100
AcDb2dVertex
 10
110.8008164870567
 20
-124.4327148126418
 30
0.0
  0
SEQEND
  5
B6
330
B0
100
AcDbEntity
  8
_U+30EC_U+30A4_U+30E4_U+30FC 1
370
     0
  0
POLYLINE
  5
B7
330
A0
100
AcDbEntity
  8
_U+30EC_U+30A4_U+30E4_U+30FC 1
370
     0
100
AcDb2dPolyline
 66
     1
 10
0.0
 20
0.0
 30
0.0
  0
VERTEX
  5
B8
330
B7
100
AcDbEntity
  8
_U+30EC_U+30A4_U+30E4_U+30FC 1
370
     0
100
AcDbVertex
100
AcDb2dVertex
 10
110.8008164870567
 20
-124.9043483845725
 30
0.0
  0
VERTEX
  5
B9
330
B7
100
AcDbEntity
  8
_U+30EC_U+30A4_U+30E4_U+30FC 1
370
     0
100
AcDbVertex
100
AcDb2dVertex
 10
110.3629448508815
 20
-124.9043483845725
 30
0.0
  0
VERTEX
  5
BA
330
B7
100
AcDbEntity
  8
_U+30EC_U+30A4_U+30E4_U+30FC 1
370
     0
100
AcDbVertex
100
AcDb2dVertex
 10
110.3629448508815
 20
-125.2133734495994
 30
0.0
  0
VERTEX
  5
BB
330
B7
100
AcDbEntity
  8
_U+30EC_U+30A4_U+30E4_U+30FC 1
370
     0
100
AcDbVertex
100
AcDb2dVertex
 10
110.8008164870567
 20
-125.2133734495994
 30
0.0
  0
VERTEX
  5
BC
330
B7
100
AcDbEntity
  8
_U+30EC_U+30A4_U+30E4_U+30FC 1
370
     0
100
AcDbVertex
100
AcDb2dVertex
 10
110.8008164870567
 20
-124.9043483845725
 30
0.0
  0
SEQEND
  5
BD
330
B7
100
AcDbEntity
  8
_U+30EC_U+30A4_U+30E4_U+30FC 1
370
     0
  0
POLYLINE
  5
BE
330
A0
100
AcDbEntity
  8
_U+30EC_U+30A4_U+30E4_U+30FC 1
370
     0
100
AcDb2dPolyline
 66
     1
 10
0.0
 20
0.0
 30
0.0
  0
VERTEX
  5
BF
330
BE
100
AcDbEntity
  8
_U+30EC_U+30A4_U+30E4_U+30FC 1
370
     0
100
AcDbVertex
100
AcDb2dVertex
 10
111.4502169860263
 20
-124.4327148126418
 30
0.0
  0
VERTEX
  5
C0
330
BE
100
AcDbEntity
  8
_U+30EC_U+30A4_U+30E4_U+30FC 1
370
     0
100
AcDbVertex
100
AcDb2dVertex
 10
110.9909857578425
 20
-124.4327148126418
 30
0.0
  0
VERTEX
  5
C1
330
BE
100
AcDbEntity
  8
_U+30EC_U+30A4_U+30E4_U+30FC 1
370
     0
100
AcDbVertex
100
AcDb2dVertex
 10
110.9909857578425
 20
-124.7372612535379
 30
0.0
  0
VERTEX
  5
C2
330
BE
100
AcDbEntity
  8
_U+30EC_U+30A4_U+30E4_U+30FC 1
370
     0
100
AcDbVertex
100
AcDb2dVertex
 10
111.4502169860263
 20
-124.7372612535379
 30
0.0
  0
VERTEX
  5
C3
330
BE
100
AcDbEntity
  8
_U+30EC_U+30A4_U+30E4_U+30FC 1
370
     0
100
AcDbVertex
100
AcDb2dVertex
 10
111.4502169860263
 20
-124.4327148126418
 30
0.0
  0
SEQEND
  5
C4
330
BE
100
AcDbEntity
  8
_U+30EC_U+30A4_U+30E4_U+30FC 1
370
     0
  0
POLYLINE
  5
C5
330
A0
100
AcDbEntity
  8
_U+30EC_U+30A4_U+30E4_U+30FC 1
370
     0
100
AcDb2dPolyline
 66
     1
 10
0.0
 20
0.0
 30
0.0
  0
VERTEX
  5
C6
330
C5
100
AcDbEntity
  8
_U+30EC_U+30A4_U+30E4_U+30FC 1
370
     0
100
AcDbVertex
100
AcDb2dVertex
 10
111.4502169860263
 20
-124.9043483845725
 30
0.0
  0
VERTEX
  5
C7
330
C5
100
AcDbEntity
  8
_U+30EC_U+30A4_U+30E4_U+30FC 1
370
     0
100
AcDbVertex
100
AcDb2dVertex
 10
110.9909857578425
 20
-124.9043483845725
 30
0.0
  0
VERTEX
  5
C8
330
C5
100
AcDbEntity
  8
_U+30EC_U+30A4_U+30E4_U+30FC 1
370
     0
100
AcDbVertex
100
AcDb2dVertex
 10
110.9909857578425
 20
-125.2133734495994
 30
0.0
  0
VERTEX
  5
C9
330
C5
100
AcDbEntity
  8
_U+30EC_U+30A4_U+30E4_U+30FC 1
370
     0
100
AcDbVertex
100
AcDb2dVertex
 10
111.4502169860263
 20
-125.2133734495994
 30
0.0
  0
VERTEX
  5
CA
330
C5
100
AcDbEntity
  8
_U+30EC_U+30A4_U+30E4_U+30FC 1
370
     0
100
AcDbVertex
100
AcDb2dVertex
 10
111.4502169860263
 20
-124.9043483845725
 30
0.0
  0
SEQEND
  5
CB
330
C5
100
AcDbEntity
  8
_U+30EC_U+30A4_U+30E4_U+30FC 1
370
     0
  0
HATCH
  5
CC
330
A0
100
AcDbEntity
  8
_U+30EC_U+30A4_U+30E4_U+30FC 1
 62
   179
420
  2234388
100
AcDbHatch
 10
0.0
 20
0.0
 30
0.0
210
0.0
220
0.0
230
1.0
  2
SOLID
 70
     1
 71
     0
 91
        5
 92
        1
 93
        1
 72
     4
 94
        3
 73
     0
 74
     1
 95
       77
 96
       73
 40
0.0
 40
0.0
 40
0.0
 40
0.0
 40
1.0
 40
1.0
 40
1.0
 40
2.0
 40
2.0
 40
2.0
 40
3.0
 40
3.0
 40
3.0
 40
4.0
 40
4.0
 40
4.0
 40
5.0
 40
5.0
 40
5.0
 40
6.0
 40
6.0
 40
6.0
 40
7.0
 40
7.0
 40
7.0
 40
8.0
 40
8.0
 40
8.0
 40
9.0
 40
9.0
 40
9.0
 40
10.0
 40
10.0
 40
10.0
 40
11.0
 40
11.0
 40
11.0
 40
12.0
 40
12.0
 40
12.0
 40
13.0
 40
13.0
 40
13.0
 40
14.0
 40
14.0
 40
14.0
 40
15.0
 40
15.0
 40
15.0
 40
16.0
 40
16.0
 40
16.0
 40
17.0
 40
17.0
 40
17.0
 40
18.0
 40
18.0
 40
18.0
 40
19.0
 40
19.0
 40
19.0
 40
20.0
 40
20.0
 40
20.0
 40
21.0
 40
21.0
 40
21.0
 40
22.0
 40
22.0
 40
22.0
 40
23.0
 40
23.0
 40
23.0
 40
24.0
 40
24.0
 40
24.0
 40
24.0
 10
111.5856092385967
 20
-126.0191812835994
 10
111.5391004495458
 20
-126.0446749901902
 10
111.4143879929797
 20
-126.0574218434857
 10
111.335839815916
 20
-126.0574218434857
 10
111.3234374721691
 20
-126.0574218434857
 10
111.2979437655783
 20
-126.0574218434857
 10
111.2641818298228
 20
-126.0532877289034
 10
111.2641818298228
 20
-126.0532877289034
 10
111.1666856275903
 20
-125.8269449555224
 10
111.1666856275903
 20
-125.8269449555224
 10
111.1963134487634
 20
-125.8331461273959
 10
111.2535020338186
 20
-125.841758866109
 10
111.36994626122
 20
-125.841758866109
 10
111.4481499287352
 20
-125.841758866109
 10
111.4502169860263
 20
-125.7993841916404
 10
111.4502169860263
 20
-125.7421956065853
 10
111.4502169860263
 20
-125.7421956065853
 10
111.4502169860263
 20
-125.3932074339295
 10
111.4502169860263
 20
-125.3932074339295
 10
111.4502169860263
 20
-125.3932074339295
 10
110.9909857578425
 20
-125.3932074339295
 10
110.9909857578425
 20
-125.3932074339295
 10
110.9933973246822
 20
-125.5306667437909
 10
110.9954643819734
 20
-125.7294487532899
 10
111.0016655538468
 20
-125.862773948569
 10
111.003732611138
 20
-125.890334712451
 10
111.003732611138
 20
-125.9347764442108
 10
111.0164794644334
 20
-125.9960991438482
 10
111.0164794644334
 20
-125.9960991438482
 10
110.7753227804659
 20
-125.9960991438482
 10
110.7753227804659
 20
-125.9960991438482
 10
110.8008164870567
 20
-125.8713866872822
 10
110.8008164870567
 20
-125.5306667437909
 10
110.8008164870567
 20
-125.3932074339295
 10
110.8008164870567
 20
-125.3932074339295
 10
110.3584662267507
 20
-125.3932074339295
 10
110.3584662267507
 20
-125.3932074339295
 10
110.3353840869995
 20
-125.6006021821415
 10
110.2699272727797
 20
-125.8689751204425
 10
110.0728678110235
 20
-126.0532877289034
 10
110.0728678110235
 20
-126.0532877289034
 10
109.8847655975288
 20
-125.9306423296285
 10
109.8847655975288
 20
-125.9306423296285
 10
110.1386691347917
 20
-125.710500728121
 10
110.170364013256
 20
-125.3783935233429
 10
110.170364013256
 20
-125.0462863185648
 10
110.170364013256
 20
-125.0462863185648
 10
110.170364013256
 20
-124.6104817396807
 10
110.170364013256
 20
-124.6104817396807
 10
110.170364013256
 20
-124.5743082370856
 10
110.1682969559649
 20
-124.3417642918312
 10
110.1596842172518
 20
-124.2401339750164
 10
110.2992105844044
 20
-124.2508137710206
 10
110.5407117779204
 20
-124.2508137710206
 10
110.6843722596553
 20
-124.2508137710206
 10
110.6843722596553
 20
-124.2508137710206
 10
111.1436034878391
 20
-124.2508137710206
 10
111.1436034878391
 20
-124.2508137710206
 10
111.1584173984257
 20
-124.2508137710206
 10
111.5074055710815
 20
-124.2508137710206
 10
111.665879963403
 20
-124.2401339750164
 10
111.6638129061118
 20
-124.2931884454892
 10
111.6576117342384
 20
-124.4537298951018
 10
111.6576117342384
 20
-124.5047173082835
 10
111.6576117342384
 20
-124.5047173082835
 10
111.6576117342384
 20
-125.1117431327846
 10
111.6576117342384
 20
-125.1117431327846
 10
111.6576117342384
 20
-125.1306911579534
 10
111.6679470206941
 20
-125.7018879894079
 10
111.6679470206941
 20
-125.814198102227
 10
111.6679470206941
 20
-125.8713866872822
 10
111.6679470206941
 20
-125.9726724945485
 10
111.5856092385967
 20
-126.0191812835994
 97
        0
 97
        0
 92
        1
 93
        4
 72
     1
 10
110.8008164870567
 20
-124.4327148126418
 11
110.3629448508815
 21
-124.4327148126418
 72
     1
 10
110.3629448508815
 20
-124.4327148126418
 11
110.3629448508815
 21
-124.7372612535379
 72
     1
 10
110.3629448508815
 20
-124.7372612535379
 11
110.8008164870567
 21
-124.7372612535379
 72
     1
 10
110.8008164870567
 20
-124.7372612535379
 11
110.8008164870567
 21
-124.4327148126418
 97
        0
 92
        1
 93
        4
 72
     1
 10
110.8008164870567
 20
-124.9043483845725
 11
110.3629448508815
 21
-124.9043483845725
 72
     1
 10
110.3629448508815
 20
-124.9043483845725
 11
110.3629448508815
 21
-125.2133734495994
 72
     1
 10
110.3629448508815
 20
-125.2133734495994
 11
110.8008164870567
 21
-125.2133734495994
 72
     1
 10
110.8008164870567
 20
-125.2133734495994
 11
110.8008164870567
 21
-124.9043483845725
 97
        0
 92
        1
 93
        4
 72
     1
 10
111.4502169860263
 20
-124.4327148126418
 11
110.9909857578425
 21
-124.4327148126418
 72
     1
 10
110.9909857578425
 20
-124.4327148126418
 11
110.9909857578425
 21
-124.7372612535379
 72
     1
 10
110.9909857578425
 20
-124.7372612535379
 11
111.4502169860263
 21
-124.7372612535379
 72
     1
 10
111.4502169860263
 20
-124.7372612535379
 11
111.4502169860263
 21
-124.4327148126418
 97
        0
 92
        1
 93
        4
 72
     1
 10
111.4502169860263
 20
-124.9043483845725
 11
110.9909857578425
 21
-124.9043483845725
 72
     1
 10
110.9909857578425
 20
-124.9043483845725
 11
110.9909857578425
 21
-125.2133734495994
 72
     1
 10
110.9909857578425
 20
-125.2133734495994
 11
111.4502169860263
 21
-125.2133734495994
 72
     1
 10
111.4502169860263
 20
-125.2133734495994
 11
111.4502169860263
 21
-124.9043483845725
 97
        0
 75
     2
 76
     1
 98
        0
  0
SPLINE
  5
CD
330
A0
100
AcDbEntity
  8
_U+30EC_U+30A4_U+30E4_U+30FC 1
370
     0
100
AcDbSpline
210
0.0
220
0.0
230
1.0
 70
    11
 71
     3
 72
    86
 73
    82
 74
     0
 42
0.0000000001
 43
0.0000000001
 12
1.0
 22
0.0
 32
0.0
 13
1.0
 23
0.0
 33
0.0
 40
0.0
 40
0.0
 40
0.0
 40
0.0
 40
1.0
 40
1.0
 40
1.0
 40
2.0
 40
2.0
 40
2.0
 40
3.0
 40
3.0
 40
3.0
 40
4.0
 40
4.0
 40
4.0
 40
5.0
 40
5.0
 40
5.0
 40
6.0
 40
6.0
 40
6.0
 40
7.0
 40
7.0
 40
7.0
 40
8.0
 40
8.0
 40
8.0
 40
9.0
 40
9.0
 40
9.0
 40
10.0
 40
10.0
 40
10.0
 40
11.0
 40
11.0
 40
11.0
 40
12.0
 40
12.0
 40
12.0
 40
13.0
 40
13.0
 40
13.0
 40
14.0
 40
14.0
 40
14.0
 40
15.0
 40
15.0
 40
15.0
 40
16.0
 40
16.0
 40
16.0
 40
17.0
 40
17.0
 40
17.0
 40
18.0
 40
18.0
 40
18.0
 40
19.0
 40
19.0
 40
19.0
 40
20.0
 40
20.0
 40
20.0
 40
21.0
 40
21.0
 40
21.0
 40
22.0
 40
22.0
 40
22.0
 40
23.0
 40
23.0
 40
23.0
 40
24.0
 40
24.0
 40
24.0
 40
25.0
 40
25.0
 40
25.0
 40
26.0
 40
26.0
 40
26.0
 40
27.0
 40
27.0
 40
27.0
 40
27.0
 10
112.8602945681391
 20
-125.5454806543775
 30
0.0
 10
112.8093071549574
 20
-125.6471109711924
 30
0.0
 10
112.7397162261554
 20
-125.6471109711924
 30
0.0
 10
112.6783935265179
 20
-125.6471109711924
 30
0.0
 10
112.6783935265179
 20
-125.6471109711924
 30
0.0
 10
112.452050753137
 20
-125.6471109711924
 30
0.0
 10
112.452050753137
 20
-125.6471109711924
 30
0.0
 10
112.4055419640861
 20
-125.6471109711924
 30
0.0
 10
112.3376735830267
 20
-125.6384982324793
 30
0.0
 10
112.2870306793935
 20
-125.5899223861372
 30
0.0
 10
112.2405218903426
 20
-125.5434135970864
 30
0.0
 10
112.2405218903426
 20
-125.4820908974489
 30
0.0
 10
112.2405218903426
 20
-125.4269693696849
 30
0.0
 10
112.2405218903426
 20
-125.4269693696849
 30
0.0
 10
112.2405218903426
 20
-125.0039116440962
 30
0.0
 10
112.2405218903426
 20
-125.0039116440962
 30
0.0
 10
112.1113308096458
 20
-125.0421522039825
 30
0.0
 10
112.0965168990592
 20
-125.0462863185648
 30
0.0
 10
112.0372612567129
 20
-125.0714355156071
 30
0.0
 10
112.0372612567129
 20
-125.0714355156071
 30
0.0
 10
111.9948865822443
 20
-124.8347574557705
 30
0.0
 10
111.9948865822443
 20
-124.8347574557705
 30
0.0
 10
112.0627549633038
 20
-124.8302788316397
 30
0.0
 10
112.1323458921058
 20
-124.8240776597662
 30
0.0
 10
112.2405218903426
 20
-124.8006510104665
 30
0.0
 10
112.2405218903426
 20
-124.8006510104665
 30
0.0
 10
112.2405218903426
 20
-124.697298145909
 30
0.0
 10
112.2405218903426
 20
-124.697298145909
 30
0.0
 10
112.2405218903426
 20
-124.6483777900185
 30
0.0
 10
112.2405218903426
 20
-124.4116997301818
 30
0.0
 10
112.2319091516295
 20
-124.2508137710206
 30
0.0
 10
112.2319091516295
 20
-124.2508137710206
 30
0.0
 10
112.4561848677193
 20
-124.2635606243161
 30
0.0
 10
112.4561848677193
 20
-124.2635606243161
 30
0.0
 10
112.4644530968839
 20
-124.2635606243161
 30
0.0
 10
112.494080918057
 20
-124.2676947388984
 30
0.0
 10
112.494080918057
 20
-124.2866427640672
 30
0.0
 10
112.494080918057
 20
-124.3014566746538
 30
0.0
 10
112.4751328928882
 20
-124.3183376425315
 30
0.0
 10
112.4393038998416
 20
-124.3479654637047
 30
0.0
 10
112.4348252757108
 20
-124.4537298951018
 30
0.0
 10
112.4327582184196
 20
-124.587055090381
 30
0.0
 10
112.4327582184196
 20
-124.6928195217782
 30
0.0
 10
112.4327582184196
 20
-124.6928195217782
 30
0.0
 10
112.4327582184196
 20
-124.7606879028376
 30
0.0
 10
112.4327582184196
 20
-124.7606879028376
 30
0.0
 10
112.4327582184196
 20
-124.7606879028376
 30
0.0
 10
112.5533365604033
 20
-124.7351941962468
 30
0.0
 10
112.5533365604033
 20
-124.7351941962468
 30
0.0
 10
112.6170708268805
 20
-124.7224473429513
 30
0.0
 10
112.7376491688642
 20
-124.697298145909
 30
0.0
 10
112.8664957400126
 20
-124.6463107327273
 30
0.0
 10
112.8664957400126
 20
-124.6463107327273
 30
0.0
 10
112.8940565038945
 20
-124.8450927422262
 30
0.0
 10
112.8940565038945
 20
-124.8450927422262
 30
0.0
 10
112.824121065544
 20
-124.8516384236482
 30
0.0
 10
112.6084580881673
 20
-124.9022813272814
 30
0.0
 10
112.5640163564076
 20
-124.9150281805768
 30
0.0
 10
112.5640163564076
 20
-124.9150281805768
 30
0.0
 10
112.4327582184196
 20
-124.9508571736234
 30
0.0
 10
112.4327582184196
 20
-124.9508571736234
 30
0.0
 10
112.4327582184196
 20
-124.9508571736234
 30
0.0
 10
112.4327582184196
 20
-125.3825276379252
 30
0.0
 10
112.4327582184196
 20
-125.3825276379252
 30
0.0
 10
112.4327582184196
 20
-125.4714111014447
 30
0.0
 10
112.4496391862973
 20
-125.4714111014447
 30
0.0
 10
112.5088948286436
 20
-125.4714111014447
 30
0.0
 10
112.5088948286436
 20
-125.4714111014447
 30
0.0
 10
112.6146592600408
 20
-125.4714111014447
 30
0.0
 10
112.6146592600408
 20
-125.4714111014447
 30
0.0
 10
112.6783935265179
 20
-125.4714111014447
 30
0.0
 10
112.6973415516868
 20
-125.4038872299338
 30
0.0
 10
112.7100884049822
 20
-125.3635796127563
 30
0.0
 10
112.7142225195645
 20
-125.3466986448786
 30
0.0
 10
112.7438503407377
 20
-125.2430012707726
 30
0.0
 10
112.7524630794508
 20
-125.1561848645443
 30
0.0
 10
112.7524630794508
 20
-125.1561848645443
 30
0.0
 10
112.9384982356543
 20
-125.2746961492369
 30
0.0
 10
112.9384982356543
 20
-125.2746961492369
 30
0.0
 10
112.9298854969411
 20
-125.3274061101612
 30
0.0
 10
112.9174831531942
 20
-125.4335150511069
 30
0.0
 10
112.8602945681391
 20
-125.5454806543775
 30
0.0
  0
SPLINE
  5
CE
330
A0
100
AcDbEntity
  8
_U+30EC_U+30A4_U+30E4_U+30FC 1
370
     0
100
AcDbSpline
210
0.0
220
0.0
230
1.0
 70
    11
 71
     3
 72
    68
 73
    64
 74
     0
 42
0.0000000001
 43
0.0000000001
 12
1.0
 22
0.0
 32
0.0
 13
1.0
 23
0.0
 33
0.0
 40
0.0
 40
0.0
 40
0.0
 40
0.0
 40
1.0
 40
1.0
 40
1.0
 40
2.0
 40
2.0
 40
2.0
 40
3.0
 40
3.0
 40
3.0
 40
4.0
 40
4.0
 40
4.0
 40
5.0
 40
5.0
 40
5.0
 40
6.0
 40
6.0
 40
6.0
 40
7.0
 40
7.0
 40
7.0
 40
8.0
 40
8.0
 40
8.0
 40
9.0
 40
9.0
 40
9.0
 40
10.0
 40
10.0
 40
10.0
 40
11.0
 40
11.0
 40
11.0
 40
12.0
 40
12.0
 40
12.0
 40
13.0
 40
13.0
 40
13.0
 40
14.0
 40
14.0
 40
14.0
 40
15.0
 40
15.0
 40
15.0
 40
16.0
 40
16.0
 40
16.0
 40
17.0
 40
17.0
 40
17.0
 40
18.0
 40
18.0
 40
18.0
 40
19.0
 40
19.0
 40
19.0
 40
20.0
 40
20.0
 40
20.0
 40
21.0
 40
21.0
 40
21.0
 40
21.0
 10
113.7784125149582
 20
-125.8372802419782
 30
0.0
 10
113.721223929903
 20
-126.0339951941859
 30
0.0
 10
113.5224419204041
 20
-126.0298610796036
 30
0.0
 10
113.3529432225298
 20
-126.0257269650213
 30
0.0
 10
113.3529432225298
 20
-126.0257269650213
 30
0.0
 10
113.2685383831412
 20
-125.7676893131761
 30
0.0
 10
113.2685383831412
 20
-125.7676893131761
 30
0.0
 10
113.2981662043144
 20
-125.7780245996319
 30
0.0
 10
113.361555961243
 20
-125.8014512489316
 30
0.0
 10
113.4545735393447
 20
-125.8014512489316
 30
0.0
 10
113.5265760349864
 20
-125.8014512489316
 30
0.0
 10
113.5710177667461
 20
-125.786637338345
 30
0.0
 10
113.5985785306281
 20
-125.6788058496567
 30
0.0
 10
113.6282063518013
 20
-125.5561604503818
 30
0.0
 10
113.666102402139
 20
-125.221641678764
 30
0.0
 10
113.666102402139
 20
-124.8030625773062
 30
0.0
 10
113.666102402139
 20
-124.6800726684828
 30
0.0
 10
113.6619682875567
 20
-124.5849880330899
 30
0.0
 10
113.6578341729744
 20
-124.4730224298193
 30
0.0
 10
113.6578341729744
 20
-124.4730224298193
 30
0.0
 10
113.3508761652387
 20
-124.4730224298193
 30
0.0
 10
113.3508761652387
 20
-124.4730224298193
 30
0.0
 10
113.3574218466607
 20
-124.538479244039
 30
0.0
 10
113.3574218466607
 20
-124.5829209757987
 30
0.0
 10
113.3574218466607
 20
-124.635630936723
 30
0.0
 10
113.3574218466607
 20
-124.7689561320022
 30
0.0
 10
113.3488091079475
 20
-125.0397406371428
 30
0.0
 10
113.2792181791455
 20
-125.3232719955789
 30
0.0
 10
113.2030815689215
 20
-125.6257513791838
 30
0.0
 10
113.010500731296
 20
-125.8817219737379
 30
0.0
 10
112.74798445532
 20
-126.0512206716122
 30
0.0
 10
112.74798445532
 20
-126.0512206716122
 30
0.0
 10
112.5512695031122
 20
-125.8944688270333
 30
0.0
 10
112.5512695031122
 20
-125.8944688270333
 30
0.0
 10
112.803105983084
 20
-125.7928385102185
 30
0.0
 10
113.0146348458783
 20
-125.5072400944913
 30
0.0
 10
113.0821587173892
 20
-125.2619492959415
 30
0.0
 10
113.135213187862
 20
-125.075914139738
 30
0.0
 10
113.1500270984486
 20
-124.8812662448214
 30
0.0
 10
113.1500270984486
 20
-124.6866183499047
 30
0.0
 10
113.1500270984486
 20
-124.5956678290941
 30
0.0
 10
113.1479600411575
 20
-124.5446804159125
 30
0.0
 10
113.1372802451532
 20
-124.4730224298193
 30
0.0
 10
113.1372802451532
 20
-124.4730224298193
 30
0.0
 10
113.0949055706846
 20
-124.4730224298193
 30
0.0
 10
113.0949055706846
 20
-124.4730224298193
 30
0.0
 10
112.934364121072
 20
-124.4730224298193
 30
0.0
 10
112.7693440473285
 20
-124.4981716268616
 30
0.0
 10
112.74798445532
 20
-124.5026502509924
 30
0.0
 10
112.74798445532
 20
-124.5026502509924
 30
0.0
 10
112.74798445532
 20
-124.2804415921938
 30
0.0
 10
112.74798445532
 20
-124.2804415921938
 30
0.0
 10
112.8137857790882
 20
-124.2973225600715
 30
0.0
 10
113.0084336740048
 20
-124.2973225600715
 30
0.0
 10
113.0887043988112
 20
-124.2973225600715
 30
0.0
 10
113.0887043988112
 20
-124.2973225600715
 30
0.0
 10
113.4228786608804
 20
-124.2973225600715
 30
0.0
 10
113.4228786608804
 20
-124.2973225600715
 30
0.0
 10
113.4463053101801
 20
-124.2973225600715
 30
0.0
 10
113.6788492554345
 20
-124.2952555027804
 30
0.0
 10
113.8672959784776
 20
-124.2718288534807
 30
0.0
 10
113.8714300930599
 20
-124.593600771803
 30
0.0
 10
113.8821098890642
 20
-125.4862250120312
 30
0.0
 10
113.7784125149582
 20
-125.8372802419782
 30
0.0
  0
HATCH
  5
CF
330
A0
100
AcDbEntity
  8
_U+30EC_U+30A4_U+30E4_U+30FC 1
 62
   179
420
  2234388
100
AcDbHatch
 10
0.0
 20
0.0
 30
0.0
210
0.0
220
0.0
230
1.0
  2
SOLID
 70
     1
 71
     0
 91
        2
 92
        1
 93
        1
 72
     4
 94
        3
 73
     0
 74
     1
 95
       86
 96
       82
 40
0.0
 40
0.0
 40
0.0
 40
0.0
 40
1.0
 40
1.0
 40
1.0
 40
2.0
 40
2.0
 40
2.0
 40
3.0
 40
3.0
 40
3.0
 40
4.0
 40
4.0
 40
4.0
 40
5.0
 40
5.0
 40
5.0
 40
6.0
 40
6.0
 40
6.0
 40
7.0
 40
7.0
 40
7.0
 40
8.0
 40
8.0
 40
8.0
 40
9.0
 40
9.0
 40
9.0
 40
10.0
 40
10.0
 40
10.0
 40
11.0
 40
11.0
 40
11.0
 40
12.0
 40
12.0
 40
12.0
 40
13.0
 40
13.0
 40
13.0
 40
14.0
 40
14.0
 40
14.0
 40
15.0
 40
15.0
 40
15.0
 40
16.0
 40
16.0
 40
16.0
 40
17.0
 40
17.0
 40
17.0
 40
18.0
 40
18.0
 40
18.0
 40
19.0
 40
19.0
 40
19.0
 40
20.0
 40
20.0
 40
20.0
 40
21.0
 40
21.0
 40
21.0
 40
22.0
 40
22.0
 40
22.0
 40
23.0
 40
23.0
 40
23.0
 40
24.0
 40
24.0
 40
24.0
 40
25.0
 40
25.0
 40
25.0
 40
26.0
 40
26.0
 40
26.0
 40
27.0
 40
27.0
 40
27.0
 40
27.0
 10
112.8602945681391
 20
-125.5454806543775
 10
112.8093071549574
 20
-125.6471109711924
 10
112.7397162261554
 20
-125.6471109711924
 10
112.6783935265179
 20
-125.6471109711924
 10
112.6783935265179
 20
-125.6471109711924
 10
112.452050753137
 20
-125.6471109711924
 10
112.452050753137
 20
-125.6471109711924
 10
112.4055419640861
 20
-125.6471109711924
 10
112.3376735830267
 20
-125.6384982324793
 10
112.2870306793935
 20
-125.5899223861372
 10
112.2405218903426
 20
-125.5434135970864
 10
112.2405218903426
 20
-125.4820908974489
 10
112.2405218903426
 20
-125.4269693696849
 10
112.2405218903426
 20
-125.4269693696849
 10
112.2405218903426
 20
-125.0039116440962
 10
112.2405218903426
 20
-125.0039116440962
 10
112.1113308096458
 20
-125.0421522039825
 10
112.0965168990592
 20
-125.0462863185648
 10
112.0372612567129
 20
-125.0714355156071
 10
112.0372612567129
 20
-125.0714355156071
 10
111.9948865822443
 20
-124.8347574557705
 10
111.9948865822443
 20
-124.8347574557705
 10
112.0627549633038
 20
-124.8302788316397
 10
112.1323458921058
 20
-124.8240776597662
 10
112.2405218903426
 20
-124.8006510104665
 10
112.2405218903426
 20
-124.8006510104665
 10
112.2405218903426
 20
-124.697298145909
 10
112.2405218903426
 20
-124.697298145909
 10
112.2405218903426
 20
-124.6483777900185
 10
112.2405218903426
 20
-124.4116997301818
 10
112.2319091516295
 20
-124.2508137710206
 10
112.2319091516295
 20
-124.2508137710206
 10
112.4561848677193
 20
-124.2635606243161
 10
112.4561848677193
 20
-124.2635606243161
 10
112.4644530968839
 20
-124.2635606243161
 10
112.494080918057
 20
-124.2676947388984
 10
112.494080918057
 20
-124.2866427640672
 10
112.494080918057
 20
-124.3014566746538
 10
112.4751328928882
 20
-124.3183376425315
 10
112.4393038998416
 20
-124.3479654637047
 10
112.4348252757108
 20
-124.4537298951018
 10
112.4327582184196
 20
-124.587055090381
 10
112.4327582184196
 20
-124.6928195217782
 10
112.4327582184196
 20
-124.6928195217782
 10
112.4327582184196
 20
-124.7606879028376
 10
112.4327582184196
 20
-124.7606879028376
 10
112.4327582184196
 20
-124.7606879028376
 10
112.5533365604033
 20
-124.7351941962468
 10
112.5533365604033
 20
-124.7351941962468
 10
112.6170708268805
 20
-124.7224473429513
 10
112.7376491688642
 20
-124.697298145909
 10
112.8664957400126
 20
-124.6463107327273
 10
112.8664957400126
 20
-124.6463107327273
 10
112.8940565038945
 20
-124.8450927422262
 10
112.8940565038945
 20
-124.8450927422262
 10
112.824121065544
 20
-124.8516384236482
 10
112.6084580881673
 20
-124.9022813272814
 10
112.5640163564076
 20
-124.9150281805768
 10
112.5640163564076
 20
-124.9150281805768
 10
112.4327582184196
 20
-124.9508571736234
 10
112.4327582184196
 20
-124.9508571736234
 10
112.4327582184196
 20
-124.9508571736234
 10
112.4327582184196
 20
-125.3825276379252
 10
112.4327582184196
 20
-125.3825276379252
 10
112.4327582184196
 20
-125.4714111014447
 10
112.4496391862973
 20
-125.4714111014447
 10
112.5088948286436
 20
-125.4714111014447
 10
112.5088948286436
 20
-125.4714111014447
 10
112.6146592600408
 20
-125.4714111014447
 10
112.6146592600408
 20
-125.4714111014447
 10
112.6783935265179
 20
-125.4714111014447
 10
112.6973415516868
 20
-125.4038872299338
 10
112.7100884049822
 20
-125.3635796127563
 10
112.7142225195645
 20
-125.3466986448786
 10
112.7438503407377
 20
-125.2430012707726
 10
112.7524630794508
 20
-125.1561848645443
 10
112.7524630794508
 20
-125.1561848645443
 10
112.9384982356543
 20
-125.2746961492369
 10
112.9384982356543
 20
-125.2746961492369
 10
112.9298854969411
 20
-125.3274061101612
 10
112.9174831531942
 20
-125.4335150511069
 10
112.8602945681391
 20
-125.5454806543775
 97
        0
 97
        0
 92
        1
 93
        1
 72
     4
 94
        3
 73
     0
 74
     1
 95
       68
 96
       64
 40
0.0
 40
0.0
 40
0.0
 40
0.0
 40
1.0
 40
1.0
 40
1.0
 40
2.0
 40
2.0
 40
2.0
 40
3.0
 40
3.0
 40
3.0
 40
4.0
 40
4.0
 40
4.0
 40
5.0
 40
5.0
 40
5.0
 40
6.0
 40
6.0
 40
6.0
 40
7.0
 40
7.0
 40
7.0
 40
8.0
 40
8.0
 40
8.0
 40
9.0
 40
9.0
 40
9.0
 40
10.0
 40
10.0
 40
10.0
 40
11.0
 40
11.0
 40
11.0
 40
12.0
 40
12.0
 40
12.0
 40
13.0
 40
13.0
 40
13.0
 40
14.0
 40
14.0
 40
14.0
 40
15.0
 40
15.0
 40
15.0
 40
16.0
 40
16.0
 40
16.0
 40
17.0
 40
17.0
 40
17.0
 40
18.0
 40
18.0
 40
18.0
 40
19.0
 40
19.0
 40
19.0
 40
20.0
 40
20.0
 40
20.0
 40
21.0
 40
21.0
 40
21.0
 40
21.0
 10
113.7784125149582
 20
-125.8372802419782
 10
113.721223929903
 20
-126.0339951941859
 10
113.5224419204041
 20
-126.0298610796036
 10
113.3529432225298
 20
-126.0257269650213
 10
113.3529432225298
 20
-126.0257269650213
 10
113.2685383831412
 20
-125.7676893131761
 10
113.2685383831412
 20
-125.7676893131761
 10
113.2981662043144
 20
-125.7780245996319
 10
113.361555961243
 20
-125.8014512489316
 10
113.4545735393447
 20
-125.8014512489316
 10
113.5265760349864
 20
-125.8014512489316
 10
113.5710177667461
 20
-125.786637338345
 10
113.5985785306281
 20
-125.6788058496567
 10
113.6282063518013
 20
-125.5561604503818
 10
113.666102402139
 20
-125.221641678764
 10
113.666102402139
 20
-124.8030625773062
 10
113.666102402139
 20
-124.6800726684828
 10
113.6619682875567
 20
-124.5849880330899
 10
113.6578341729744
 20
-124.4730224298193
 10
113.6578341729744
 20
-124.4730224298193
 10
113.3508761652387
 20
-124.4730224298193
 10
113.3508761652387
 20
-124.4730224298193
 10
113.3574218466607
 20
-124.538479244039
 10
113.3574218466607
 20
-124.5829209757987
 10
113.3574218466607
 20
-124.635630936723
 10
113.3574218466607
 20
-124.7689561320022
 10
113.3488091079475
 20
-125.0397406371428
 10
113.2792181791455
 20
-125.3232719955789
 10
113.2030815689215
 20
-125.6257513791838
 10
113.010500731296
 20
-125.8817219737379
 10
112.74798445532
 20
-126.0512206716122
 10
112.74798445532
 20
-126.0512206716122
 10
112.5512695031122
 20
-125.8944688270333
 10
112.5512695031122
 20
-125.8944688270333
 10
112.803105983084
 20
-125.7928385102185
 10
113.0146348458783
 20
-125.5072400944913
 10
113.0821587173892
 20
-125.2619492959415
 10
113.135213187862
 20
-125.075914139738
 10
113.1500270984486
 20
-124.8812662448214
 10
113.1500270984486
 20
-124.6866183499047
 10
113.1500270984486
 20
-124.5956678290941
 10
113.1479600411575
 20
-124.5446804159125
 10
113.1372802451532
 20
-124.4730224298193
 10
113.1372802451532
 20
-124.4730224298193
 10
113.0949055706846
 20
-124.4730224298193
 10
113.0949055706846
 20
-124.4730224298193
 10
112.934364121072
 20
-124.4730224298193
 10
112.7693440473285
 20
-124.4981716268616
 10
112.74798445532
 20
-124.5026502509924
 10
112.74798445532
 20
-124.5026502509924
 10
112.74798445532
 20
-124.2804415921938
 10
112.74798445532
 20
-124.2804415921938
 10
112.8137857790882
 20
-124.2973225600715
 10
113.0084336740048
 20
-124.2973225600715
 10
113.0887043988112
 20
-124.2973225600715
 10
113.0887043988112
 20
-124.2973225600715
 10
113.4228786608804
 20
-124.2973225600715
 10
113.4228786608804
 20
-124.2973225600715
 10
113.4463053101801
 20
-124.2973225600715
 10
113.6788492554345
 20
-124.2952555027804
 10
113.8672959784776
 20
-124.2718288534807
 10
113.8714300930599
 20
-124.593600771803
 10
113.8821098890642
 20
-125.4862250120312
 10
113.7784125149582
 20
-125.8372802419782
 97
        0
 97
        0
 75
     2
 76
     1
 98
        0
  0
SPLINE
  5
D0
330
A0
100
AcDbEntity
  8
_U+30EC_U+30A4_U+30E4_U+30FC 1
370
     0
100
AcDbSpline
210
0.0
220
0.0
230
1.0
 70
    11
 71
     3
 72
    50
 73
    46
 74
     0
 42
0.0000000001
 43
0.0000000001
 12
1.0
 22
0.0
 32
0.0
 13
1.0
 23
0.0
 33
0.0
 40
0.0
 40
0.0
 40
0.0
 40
0.0
 40
1.0
 40
1.0
 40
1.0
 40
2.0
 40
2.0
 40
2.0
 40
3.0
 40
3.0
 40
3.0
 40
4.0
 40
4.0
 40
4.0
 40
5.0
 40
5.0
 40
5.0
 40
6.0
 40
6.0
 40
6.0
 40
7.0
 40
7.0
 40
7.0
 40
8.0
 40
8.0
 40
8.0
 40
9.0
 40
9.0
 40
9.0
 40
10.0
 40
10.0
 40
10.0
 40
11.0
 40
11.0
 40
11.0
 40
12.0
 40
12.0
 40
12.0
 40
13.0
 40
13.0
 40
13.0
 40
14.0
 40
14.0
 40
14.0
 40
15.0
 40
15.0
 40
15.0
 40
15.0
 10
115.3934732784433
 20
-126.0319281368948
 30
0.0
 10
115.3976073930256
 20
-125.9854193478439
 30
0.0
 10
115.3976073930256
 20
-125.9368435015019
 30
0.0
 10
115.4000189598653
 20
-125.9030815657465
 30
0.0
 10
115.4000189598653
 20
-125.9030815657465
 30
0.0
 10
114.5049831527974
 20
-125.9030815657465
 30
0.0
 10
114.5049831527974
 20
-125.9030815657465
 30
0.0
 10
114.5070502100885
 20
-125.9389105587931
 30
0.0
 10
114.5091172673797
 20
-125.9475232975062
 30
0.0
 10
114.5156629488016
 20
-126.0298610796036
 30
0.0
 10
114.5156629488016
 20
-126.0298610796036
 30
0.0
 10
114.2848415512899
 20
-126.0298610796036
 30
0.0
 10
114.2848415512899
 20
-126.0298610796036
 30
0.0
 10
114.2893201754207
 20
-125.9623372080927
 30
0.0
 10
114.3041340860073
 20
-125.6533121430658
 30
0.0
 10
114.3041340860073
 20
-125.5899223861372
 30
0.0
 10
114.3041340860073
 20
-125.5899223861372
 30
0.0
 10
114.3041340860073
 20
-124.8133978637619
 30
0.0
 10
114.3041340860073
 20
-124.8133978637619
 30
0.0
 10
114.3041340860073
 20
-124.6442436754362
 30
0.0
 10
114.2975884045853
 20
-124.4495957805195
 30
0.0
 10
114.2913872327119
 20
-124.3059352987846
 30
0.0
 10
114.2913872327119
 20
-124.2804415921938
 30
0.0
 10
114.2913872327119
 20
-124.2528808283118
 30
0.0
 10
114.2893201754207
 20
-124.2273871217209
 30
0.0
 10
114.3906059826871
 20
-124.2318657458518
 30
0.0
 10
114.5938666163168
 20
-124.2401339750164
 30
0.0
 10
114.6934298758405
 20
-124.2401339750164
 30
0.0
 10
114.6934298758405
 20
-124.2401339750164
 30
0.0
 10
115.1798773583578
 20
-124.2401339750164
 30
0.0
 10
115.1798773583578
 20
-124.2401339750164
 30
0.0
 10
115.2391330007041
 20
-124.2401339750164
 30
0.0
 10
115.596733912073
 20
-124.2253200644298
 30
0.0
 10
115.6263617332462
 20
-124.2253200644298
 30
0.0
 10
115.6218831091154
 20
-124.3100694133669
 30
0.0
 10
115.6091362558199
 20
-124.7141791137867
 30
0.0
 10
115.6091362558199
 20
-124.7985839531754
 30
0.0
 10
115.6091362558199
 20
-124.7985839531754
 30
0.0
 10
115.6091362558199
 20
-125.5664957368376
 30
0.0
 10
115.6091362558199
 20
-125.5664957368376
 30
0.0
 10
115.6091362558199
 20
-125.6322970606058
 30
0.0
 10
115.6239501664065
 20
-125.9792181759705
 30
0.0
 10
115.6263617332462
 20
-126.0319281368948
 30
0.0
 10
115.6263617332462
 20
-126.0319281368948
 30
0.0
 10
115.3934732784433
 20
-126.0319281368948
 30
0.0
 10
115.3934732784433
 20
-126.0319281368948
 30
0.0
  0
POLYLINE
  5
D1
330
A0
100
AcDbEntity
  8
_U+30EC_U+30A4_U+30E4_U+30FC 1
370
     0
100
AcDb2dPolyline
 66
     1
 10
0.0
 20
0.0
 30
0.0
  0
VERTEX
  5
D2
330
D1
100
AcDbEntity
  8
_U+30EC_U+30A4_U+30E4_U+30FC 1
370
     0
100
AcDbVertex
100
AcDb2dVertex
 10
115.4000189598653
 20
-124.4199679593464
 30
0.0
  0
VERTEX
  5
D3
330
D1
100
AcDbEntity
  8
_U+30EC_U+30A4_U+30E4_U+30FC 1
370
     0
100
AcDbVertex
100
AcDb2dVertex
 10
114.5049831527974
 20
-124.4199679593464
 30
0.0
  0
VERTEX
  5
D4
330
D1
100
AcDbEntity
  8
_U+30EC_U+30A4_U+30E4_U+30FC 1
370
     0
100
AcDbVertex
100
AcDb2dVertex
 10
114.5049831527974
 20
-124.7269259670822
 30
0.0
  0
VERTEX
  5
D5
330
D1
100
AcDbEntity
  8
_U+30EC_U+30A4_U+30E4_U+30FC 1
370
     0
100
AcDbVertex
100
AcDb2dVertex
 10
115.4000189598653
 20
-124.7269259670822
 30
0.0
  0
VERTEX
  5
D6
330
D1
100
AcDbEntity
  8
_U+30EC_U+30A4_U+30E4_U+30FC 1
370
     0
100
AcDbVertex
100
AcDb2dVertex
 10
115.4000189598653
 20
-124.4199679593464
 30
0.0
  0
SEQEND
  5
D7
330
D1
100
AcDbEntity
  8
_U+30EC_U+30A4_U+30E4_U+30FC 1
370
     0
  0
POLYLINE
  5
D8
330
A0
100
AcDbEntity
  8
_U+30EC_U+30A4_U+30E4_U+30FC 1
370
     0
100
AcDb2dPolyline
 66
     1
 10
0.0
 20
0.0
 30
0.0
  0
VERTEX
  5
D9
330
D8
100
AcDbEntity
  8
_U+30EC_U+30A4_U+30E4_U+30FC 1
370
     0
100
AcDbVertex
100
AcDb2dVertex
 10
115.4000189598653
 20
-124.9108940659945
 30
0.0
  0
VERTEX
  5
DA
330
D8
100
AcDbEntity
  8
_U+30EC_U+30A4_U+30E4_U+30FC 1
370
     0
100
AcDbVertex
100
AcDb2dVertex
 10
114.5049831527974
 20
-124.9108940659945
 30
0.0
  0
VERTEX
  5
DB
330
D8
100
AcDbEntity
  8
_U+30EC_U+30A4_U+30E4_U+30FC 1
370
     0
100
AcDbVertex
100
AcDb2dVertex
 10
114.5049831527974
 20
-125.2175075641817
 30
0.0
  0
VERTEX
  5
DC
330
D8
100
AcDbEntity
  8
_U+30EC_U+30A4_U+30E4_U+30FC 1
370
     0
100
AcDbVertex
100
AcDb2dVertex
 10
115.4000189598653
 20
-125.2175075641817
 30
0.0
  0
VERTEX
  5
DD
330
D8
100
AcDbEntity
  8
_U+30EC_U+30A4_U+30E4_U+30FC 1
370
     0
100
AcDbVertex
100
AcDb2dVertex
 10
115.4000189598653
 20
-124.9108940659945
 30
0.0
  0
SEQEND
  5
DE
330
D8
100
AcDbEntity
  8
_U+30EC_U+30A4_U+30E4_U+30FC 1
370
     0
  0
POLYLINE
  5
DF
330
A0
100
AcDbEntity
  8
_U+30EC_U+30A4_U+30E4_U+30FC 1
370
     0
100
AcDb2dPolyline
 66
     1
 10
0.0
 20
0.0
 30
0.0
  0
VERTEX
  5
E0
330
DF
100
AcDbEntity
  8
_U+30EC_U+30A4_U+30E4_U+30FC 1
370
     0
100
AcDbVertex
100
AcDb2dVertex
 10
115.4000189598653
 20
-125.3994086058029
 30
0.0
  0
VERTEX
  5
E1
330
DF
100
AcDbEntity
  8
_U+30EC_U+30A4_U+30E4_U+30FC 1
370
     0
100
AcDbVertex
100
AcDb2dVertex
 10
114.5049831527974
 20
-125.3994086058029
 30
0.0
  0
VERTEX
  5
E2
330
DF
100
AcDbEntity
  8
_U+30EC_U+30A4_U+30E4_U+30FC 1
370
     0
100
AcDbVertex
100
AcDb2dVertex
 10
114.5049831527974
 20
-125.7125677854121
 30
0.0
  0
VERTEX
  5
E3
330
DF
100
AcDbEntity
  8
_U+30EC_U+30A4_U+30E4_U+30FC 1
370
     0
100
AcDbVertex
100
AcDb2dVertex
 10
115.4000189598653
 20
-125.7125677854121
 30
0.0
  0
VERTEX
  5
E4
330
DF
100
AcDbEntity
  8
_U+30EC_U+30A4_U+30E4_U+30FC 1
370
     0
100
AcDbVertex
100
AcDb2dVertex
 10
115.4000189598653
 20
-125.3994086058029
 30
0.0
  0
SEQEND
  5
E5
330
DF
100
AcDbEntity
  8
_U+30EC_U+30A4_U+30E4_U+30FC 1
370
     0
  0
HATCH
  5
E6
330
A0
100
AcDbEntity
  8
_U+30EC_U+30A4_U+30E4_U+30FC 1
 62
   179
420
  2234388
100
AcDbHatch
 10
0.0
 20
0.0
 30
0.0
210
0.0
220
0.0
230
1.0
  2
SOLID
 70
     1
 71
     0
 91
        4
 92
        1
 93
        1
 72
     4
 94
        3
 73
     0
 74
     1
 95
       50
 96
       46
 40
0.0
 40
0.0
 40
0.0
 40
0.0
 40
1.0
 40
1.0
 40
1.0
 40
2.0
 40
2.0
 40
2.0
 40
3.0
 40
3.0
 40
3.0
 40
4.0
 40
4.0
 40
4.0
 40
5.0
 40
5.0
 40
5.0
 40
6.0
 40
6.0
 40
6.0
 40
7.0
 40
7.0
 40
7.0
 40
8.0
 40
8.0
 40
8.0
 40
9.0
 40
9.0
 40
9.0
 40
10.0
 40
10.0
 40
10.0
 40
11.0
 40
11.0
 40
11.0
 40
12.0
 40
12.0
 40
12.0
 40
13.0
 40
13.0
 40
13.0
 40
14.0
 40
14.0
 40
14.0
 40
15.0
 40
15.0
 40
15.0
 40
15.0
 10
115.3934732784433
 20
-126.0319281368948
 10
115.3976073930256
 20
-125.9854193478439
 10
115.3976073930256
 20
-125.9368435015019
 10
115.4000189598653
 20
-125.9030815657465
 10
115.4000189598653
 20
-125.9030815657465
 10
114.5049831527974
 20
-125.9030815657465
 10
114.5049831527974
 20
-125.9030815657465
 10
114.5070502100885
 20
-125.9389105587931
 10
114.5091172673797
 20
-125.9475232975062
 10
114.5156629488016
 20
-126.0298610796036
 10
114.5156629488016
 20
-126.0298610796036
 10
114.2848415512899
 20
-126.0298610796036
 10
114.2848415512899
 20
-126.0298610796036
 10
114.2893201754207
 20
-125.9623372080927
 10
114.3041340860073
 20
-125.6533121430658
 10
114.3041340860073
 20
-125.5899223861372
 10
114.3041340860073
 20
-125.5899223861372
 10
114.3041340860073
 20
-124.8133978637619
 10
114.3041340860073
 20
-124.8133978637619
 10
114.3041340860073
 20
-124.6442436754362
 10
114.2975884045853
 20
-124.4495957805195
 10
114.2913872327119
 20
-124.3059352987846
 10
114.2913872327119
 20
-124.2804415921938
 10
114.2913872327119
 20
-124.2528808283118
 10
114.2893201754207
 20
-124.2273871217209
 10
114.3906059826871
 20
-124.2318657458518
 10
114.5938666163168
 20
-124.2401339750164
 10
114.6934298758405
 20
-124.2401339750164
 10
114.6934298758405
 20
-124.2401339750164
 10
115.1798773583578
 20
-124.2401339750164
 10
115.1798773583578
 20
-124.2401339750164
 10
115.2391330007041
 20
-124.2401339750164
 10
115.596733912073
 20
-124.2253200644298
 10
115.6263617332462
 20
-124.2253200644298
 10
115.6218831091154
 20
-124.3100694133669
 10
115.6091362558199
 20
-124.7141791137867
 10
115.6091362558199
 20
-124.7985839531754
 10
115.6091362558199
 20
-124.7985839531754
 10
115.6091362558199
 20
-125.5664957368376
 10
115.6091362558199
 20
-125.5664957368376
 10
115.6091362558199
 20
-125.6322970606058
 10
115.6239501664065
 20
-125.9792181759705
 10
115.6263617332462
 20
-126.0319281368948
 10
115.6263617332462
 20
-126.0319281368948
 10
115.3934732784433
 20
-126.0319281368948
 10
115.3934732784433
 20
-126.0319281368948
 97
        0
 97
        0
 92
        1
 93
        4
 72
     1
 10
115.4000189598653
 20
-124.4199679593464
 11
114.5049831527974
 21
-124.4199679593464
 72
     1
 10
114.5049831527974
 20
-124.4199679593464
 11
114.5049831527974
 21
-124.7269259670822
 72
     1
 10
114.5049831527974
 20
-124.7269259670822
 11
115.4000189598653
 21
-124.7269259670822
 72
     1
 10
115.4000189598653
 20
-124.7269259670822
 11
115.4000189598653
 21
-124.4199679593464
 97
        0
 92
        1
 93
        4
 72
     1
 10
115.4000189598653
 20
-124.9108940659945
 11
114.5049831527974
 21
-124.9108940659945
 72
     1
 10
114.5049831527974
 20
-124.9108940659945
 11
114.5049831527974
 21
-125.2175075641817
 72
     1
 10
114.5049831527974
 20
-125.2175075641817
 11
115.4000189598653
 21
-125.2175075641817
 72
     1
 10
115.4000189598653
 20
-125.2175075641817
 11
115.4000189598653
 21
-124.9108940659945
 97
        0
 92
        1
 93
        4
 72
     1
 10
115.4000189598653
 20
-125.3994086058029
 11
114.5049831527974
 21
-125.3994086058029
 72
     1
 10
114.5049831527974
 20
-125.3994086058029
 11
114.5049831527974
 21
-125.7125677854121
 72
     1
 10
114.5049831527974
 20
-125.7125677854121
 11
115.4000189598653
 21
-125.7125677854121
 72
     1
 10
115.4000189598653
 20
-125.7125677854121
 11
115.4000189598653
 21
-125.3994086058029
 97
        0
 75
     2
 76
     1
 98
        0
  0
ENDBLK
  5
A3
330
A0
100
AcDbEntity
  8
0
100
AcDbBlockEnd
  0
BLOCK
  5
E9
330
E7
100
AcDbEntity
  8
0
100
AcDbBlockBegin
  2
block 3
 70
     0
 10
0.0
 20
0.0
 30
0.0
  3
block 3
  1

  0
SPLINE
  5
EB
330
E7
100
AcDbEntity
  8
_U+30EC_U+30A4_U+30E4_U+30FC 1
370
     0
100
AcDbSpline
210
0.0
220
0.0
230
1.0
 70
    11
 71
     3
 72
   107
 73
   103
 74
     0
 42
0.0000000001
 43
0.0000000001
 12
1.0
 22
0.0
 32
0.0
 13
1.0
 23
0.0
 33
0.0
 40
0.0
 40
0.0
 40
0.0
 40
0.0
 40
1.0
 40
1.0
 40
1.0
 40
2.0
 40
2.0
 40
2.0
 40
3.0
 40
3.0
 40
3.0
 40
4.0
 40
4.0
 40
4.0
 40
5.0
 40
5.0
 40
5.0
 40
6.0
 40
6.0
 40
6.0
 40
7.0
 40
7.0
 40
7.0
 40
8.0
 40
8.0
 40
8.0
 40
9.0
 40
9.0
 40
9.0
 40
10.0
 40
10.0
 40
10.0
 40
11.0
 40
11.0
 40
11.0
 40
12.0
 40
12.0
 40
12.0
 40
13.0
 40
13.0
 40
13.0
 40
14.0
 40
14.0
 40
14.0
 40
15.0
 40
15.0
 40
15.0
 40
16.0
 40
16.0
 40
16.0
 40
17.0
 40
17.0
 40
17.0
 40
18.0
 40
18.0
 40
18.0
 40
19.0
 40
19.0
 40
19.0
 40
20.0
 40
20.0
 40
20.0
 40
21.0
 40
21.0
 40
21.0
 40
22.0
 40
22.0
 40
22.0
 40
23.0
 40
23.0
 40
23.0
 40
24.0
 40
24.0
 40
24.0
 40
25.0
 40
25.0
 40
25.0
 40
26.0
 40
26.0
 40
26.0
 40
27.0
 40
27.0
 40
27.0
 40
28.0
 40
28.0
 40
28.0
 40
29.0
 40
29.0
 40
29.0
 40
30.0
 40
30.0
 40
30.0
 40
31.0
 40
31.0
 40
31.0
 40
32.0
 40
32.0
 40
32.0
 40
33.0
 40
33.0
 40
33.0
 40
34.0
 40
34.0
 40
34.0
 40
34.0
 10
103.551646566994
 20
-121.5202310894116
 30
0.0
 10
103.551646566994
 20
-121.5202310894116
 30
0.0
 10
103.551646566994
 20
-121.6280625780999
 30
0.0
 10
103.551646566994
 20
-121.6280625780999
 30
0.0
 10
103.551646566994
 20
-121.7972167664257
 30
0.0
 10
103.5578477388675
 20
-122.1358696526258
 30
0.0
 10
103.5685275348718
 20
-122.2943440449473
 30
0.0
 10
103.5685275348718
 20
-122.2943440449473
 30
0.0
 10
103.3359835896174
 20
-122.2943440449473
 30
0.0
 10
103.3359835896174
 20
-122.2943440449473
 30
0.0
 10
103.3676784680817
 20
-122.0680012715663
 30
0.0
 10
103.3780137545374
 20
-121.8988470832406
 30
0.0
 10
103.3780137545374
 20
-121.6428764886865
 30
0.0
 10
103.3780137545374
 20
-121.6428764886865
 30
0.0
 10
103.3780137545374
 20
-121.6132486675134
 30
0.0
 10
103.3780137545374
 20
-121.6132486675134
 30
0.0
 10
103.3504529906554
 20
-121.6280625780999
 30
0.0
 10
103.1537380384477
 20
-121.7276258376236
 30
0.0
 10
103.1158419881099
 20
-121.7507079773748
 30
0.0
 10
103.1072292493968
 20
-121.7951497091345
 30
0.0
 10
103.1030951348145
 20
-121.8140977343034
 30
0.0
 10
103.0776014282237
 20
-121.8140977343034
 30
0.0
 10
103.0565863457636
 20
-121.8140977343034
 30
0.0
 10
103.0459065497594
 20
-121.7930826518434
 30
0.0
 10
103.0376383205948
 20
-121.7655218879614
 30
0.0
 10
103.0376383205948
 20
-121.7655218879614
 30
0.0
 10
102.9763156209573
 20
-121.5708739930448
 30
0.0
 10
102.9763156209573
 20
-121.5708739930448
 30
0.0
 10
103.0924153388102
 20
-121.532977942707
 30
0.0
 10
103.1561496052874
 20
-121.505417178825
 30
0.0
 10
103.3590657293686
 20
-121.4206678298879
 30
0.0
 10
103.3676784680817
 20
-121.4165337153056
 30
0.0
 10
103.3697455253728
 20
-121.4165337153056
 30
0.0
 10
103.3780137545374
 20
-121.4144666580144
 30
0.0
 10
103.3780137545374
 20
-121.4144666580144
 30
0.0
 10
103.3780137545374
 20
-121.0251708681812
 30
0.0
 10
103.3780137545374
 20
-121.0251708681812
 30
0.0
 10
103.3780137545374
 20
-121.0251708681812
 30
0.0
 10
103.2088595662117
 20
-121.0251708681812
 30
0.0
 10
103.2088595662117
 20
-121.0251708681812
 30
0.0
 10
103.1878444837517
 20
-121.1309352995784
 30
0.0
 10
103.1709635158739
 20
-121.2112060243847
 30
0.0
 10
103.1158419881099
 20
-121.3614121875416
 30
0.0
 10
103.1158419881099
 20
-121.3614121875416
 30
0.0
 10
102.9125813544802
 20
-121.2959553733218
 30
0.0
 10
102.9125813544802
 20
-121.2959553733218
 30
0.0
 10
103.0651990844768
 20
-121.0251708681812
 30
0.0
 10
103.0734673136414
 20
-120.6803168101077
 30
0.0
 10
103.0776014282237
 20
-120.559738468124
 30
0.0
 10
103.0776014282237
 20
-120.559738468124
 30
0.0
 10
103.2870632337269
 20
-120.5979790280102
 30
0.0
 10
103.2870632337269
 20
-120.5979790280102
 30
0.0
 10
103.3104898830265
 20
-120.6021131425925
 30
0.0
 10
103.3166910549
 20
-120.6103813717571
 30
0.0
 10
103.3166910549
 20
-120.6251952823437
 30
0.0
 10
103.3166910549
 20
-120.6486219316434
 30
0.0
 10
103.3039442016046
 20
-120.6527560462257
 30
0.0
 10
103.2595024698448
 20
-120.6675699568123
 30
0.0
 10
103.2553683552625
 20
-120.6992648352766
 30
0.0
 10
103.240554444676
 20
-120.8370686546866
 30
0.0
 10
103.2364203300937
 20
-120.86428490902
 30
0.0
 10
103.2364203300937
 20
-120.86428490902
 30
0.0
 10
103.3780137545374
 20
-120.86428490902
 30
0.0
 10
103.3780137545374
 20
-120.86428490902
 30
0.0
 10
103.3780137545374
 20
-120.8622178517289
 30
0.0
 10
103.3800808118286
 20
-120.50461694036
 30
0.0
 10
103.3676784680817
 20
-120.3650905732073
 30
0.0
 10
103.3676784680817
 20
-120.3650905732073
 30
0.0
 10
103.5874755600406
 20
-120.388517222507
 30
0.0
 10
103.5874755600406
 20
-120.388517222507
 30
0.0
 10
103.6150363239226
 20
-120.3905842797982
 30
0.0
 10
103.6257161199269
 20
-120.4053981903848
 30
0.0
 10
103.6257161199269
 20
-120.4222791582625
 30
0.0
 10
103.6257161199269
 20
-120.4432942407225
 30
0.0
 10
103.5981553560449
 20
-120.4581081513091
 30
0.0
 10
103.5643934202895
 20
-120.4774006860265
 30
0.0
 10
103.5623263629983
 20
-120.5342447615331
 30
0.0
 10
103.5578477388675
 20
-120.6210611677614
 30
0.0
 10
103.5557806815763
 20
-120.6992648352766
 30
0.0
 10
103.5557806815763
 20
-120.7268255991586
 30
0.0
 10
103.5537136242852
 20
-120.8453368838512
 30
0.0
 10
103.5537136242852
 20
-120.86428490902
 30
0.0
 10
103.5940212414626
 20
-120.8622178517289
 30
0.0
 10
103.6656792275558
 20
-120.8601507944377
 30
0.0
 10
103.7249348699021
 20
-120.8474039411423
 30
0.0
 10
103.7249348699021
 20
-120.8474039411423
 30
0.0
 10
103.7249348699021
 20
-121.0379177214766
 30
0.0
 10
103.7249348699021
 20
-121.0379177214766
 30
0.0
 10
103.6701578516866
 20
-121.0272379254724
 30
0.0
 10
103.6129692666315
 20
-121.0251708681812
 30
0.0
 10
103.5537136242852
 20
-121.0251708681812
 30
0.0
 10
103.5537136242852
 20
-121.0251708681812
 30
0.0
 10
103.5537136242852
 20
-121.3403971050816
 30
0.0
 10
103.5537136242852
 20
-121.3403971050816
 30
0.0
 10
103.6360514063827
 20
-121.3021565451953
 30
0.0
 10
103.6680907943955
 20
-121.2852755773176
 30
0.0
 10
103.7249348699021
 20
-121.2580593229841
 30
0.0
 10
103.7249348699021
 20
-121.2580593229841
 30
0.0
 10
103.7249348699021
 20
-121.429280568601
 30
0.0
 10
103.7249348699021
 20
-121.429280568601
 30
0.0
 10
103.7059868447332
 20
-121.4420274218964
 30
0.0
 10
103.5874755600406
 20
-121.5033501215339
 30
0.0
 10
103.551646566994
 20
-121.5202310894116
 30
0.0
  0
SPLINE
  5
EC
330
E7
100
AcDbEntity
  8
_U+30EC_U+30A4_U+30E4_U+30FC 1
370
     0
100
AcDbSpline
210
0.0
220
0.0
230
1.0
 70
    11
 71
     3
 72
   140
 73
   136
 74
     0
 42
0.0000000001
 43
0.0000000001
 12
1.0
 22
0.0
 32
0.0
 13
1.0
 23
0.0
 33
0.0
 40
0.0
 40
0.0
 40
0.0
 40
0.0
 40
1.0
 40
1.0
 40
1.0
 40
2.0
 40
2.0
 40
2.0
 40
3.0
 40
3.0
 40
3.0
 40
4.0
 40
4.0
 40
4.0
 40
5.0
 40
5.0
 40
5.0
 40
6.0
 40
6.0
 40
6.0
 40
7.0
 40
7.0
 40
7.0
 40
8.0
 40
8.0
 40
8.0
 40
9.0
 40
9.0
 40
9.0
 40
10.0
 40
10.0
 40
10.0
 40
11.0
 40
11.0
 40
11.0
 40
12.0
 40
12.0
 40
12.0
 40
13.0
 40
13.0
 40
13.0
 40
14.0
 40
14.0
 40
14.0
 40
15.0
 40
15.0
 40
15.0
 40
16.0
 40
16.0
 40
16.0
 40
17.0
 40
17.0
 40
17.0
 40
18.0
 40
18.0
 40
18.0
 40
19.0
 40
19.0
 40
19.0
 40
20.0
 40
20.0
 40
20.0
 40
21.0
 40
21.0
 40
21.0
 40
22.0
 40
22.0
 40
22.0
 40
23.0
 40
23.0
 40
23.0
 40
24.0
 40
24.0
 40
24.0
 40
25.0
 40
25.0
 40
25.0
 40
26.0
 40
26.0
 40
26.0
 40
27.0
 40
27.0
 40
27.0
 40
28.0
 40
28.0
 40
28.0
 40
29.0
 40
29.0
 40
29.0
 40
30.0
 40
30.0
 40
30.0
 40
31.0
 40
31.0
 40
31.0
 40
32.0
 40
32.0
 40
32.0
 40
33.0
 40
33.0
 40
33.0
 40
34.0
 40
34.0
 40
34.0
 40
35.0
 40
35.0
 40
35.0
 40
36.0
 40
36.0
 40
36.0
 40
37.0
 40
37.0
 40
37.0
 40
38.0
 40
38.0
 40
38.0
 40
39.0
 40
39.0
 40
39.0
 40
40.0
 40
40.0
 40
40.0
 40
41.0
 40
41.0
 40
41.0
 40
42.0
 40
42.0
 40
42.0
 40
43.0
 40
43.0
 40
43.0
 40
44.0
 40
44.0
 40
44.0
 40
45.0
 40
45.0
 40
45.0
 40
45.0
 10
104.6430528167212
 20
-121.173309974047
 30
0.0
 10
104.6430528167212
 20
-121.173309974047
 30
0.0
 10
104.6430528167212
 20
-121.3786376649678
 30
0.0
 10
104.6430528167212
 20
-121.3786376649678
 30
0.0
 10
104.8018717185912
 20
-121.3720919835459
 30
0.0
 10
104.8208197437601
 20
-121.3700249262547
 30
0.0
 10
104.894889296693
 20
-121.3614121875416
 30
0.0
 10
104.894889296693
 20
-121.3614121875416
 30
0.0
 10
104.894889296693
 20
-121.5519259678759
 30
0.0
 10
104.894889296693
 20
-121.5519259678759
 30
0.0
 10
104.8252983678909
 20
-121.5457247960025
 30
0.0
 10
104.8104844573043
 20
-121.5457247960025
 30
0.0
 10
104.6430528167212
 20
-121.5412461718716
 30
0.0
 10
104.6430528167212
 20
-121.5412461718716
 30
0.0
 10
104.6430528167212
 20
-121.6725043098597
 30
0.0
 10
104.6430528167212
 20
-121.6725043098597
 30
0.0
 10
104.6430528167212
 20
-121.7317599522059
 30
0.0
 10
104.647531440852
 20
-122.0004774000554
 30
0.0
 10
104.647531440852
 20
-122.0531873609798
 30
0.0
 10
104.647531440852
 20
-122.1251898566215
 30
0.0
 10
104.647531440852
 20
-122.2733289624872
 30
0.0
 10
104.4611517751
 20
-122.2840087584915
 30
0.0
 10
104.4380696353488
 20
-122.2860758157827
 30
0.0
 10
104.3302381466605
 20
-122.2860758157827
 30
0.0
 10
104.308878554652
 20
-122.2881428730738
 30
0.0
 10
104.308878554652
 20
-122.2881428730738
 30
0.0
 10
104.1883002126682
 20
-122.0576659851106
 30
0.0
 10
104.1883002126682
 20
-122.0576659851106
 30
0.0
 10
104.2286078298456
 20
-122.063867156984
 30
0.0
 10
104.3533202864117
 20
-122.0828151821529
 30
0.0
 10
104.3829481075848
 20
-122.0828151821529
 30
0.0
 10
104.4570176605177
 20
-122.0828151821529
 30
0.0
 10
104.4570176605177
 20
-122.0407850172329
 30
0.0
 10
104.4570176605177
 20
-121.9770507507557
 30
0.0
 10
104.4570176605177
 20
-121.960169782878
 30
0.0
 10
104.4590847178088
 20
-121.8861002299451
 30
0.0
 10
104.4590847178088
 20
-121.8712863193586
 30
0.0
 10
104.4590847178088
 20
-121.8712863193586
 30
0.0
 10
104.4590847178088
 20
-121.5412461718716
 30
0.0
 10
104.4590847178088
 20
-121.5412461718716
 30
0.0
 10
104.4590847178088
 20
-121.5412461718716
 30
0.0
 10
104.1269775130308
 20
-121.5412461718716
 30
0.0
 10
104.1269775130308
 20
-121.5412461718716
 30
0.0
 10
104.0043321137559
 20
-121.5412461718716
 30
0.0
 10
103.8582600651813
 20
-121.5412461718716
 30
0.0
 10
103.7442274046195
 20
-121.5519259678759
 30
0.0
 10
103.7442274046195
 20
-121.5519259678759
 30
0.0
 10
103.7442274046195
 20
-121.3614121875416
 30
0.0
 10
103.7442274046195
 20
-121.3614121875416
 30
0.0
 10
103.9006347396498
 20
-121.380704722259
 30
0.0
 10
104.1142306597353
 20
-121.380704722259
 30
0.0
 10
104.1269775130308
 20
-121.380704722259
 30
0.0
 10
104.1269775130308
 20
-121.380704722259
 30
0.0
 10
104.4590847178088
 20
-121.380704722259
 30
0.0
 10
104.4590847178088
 20
-121.380704722259
 30
0.0
 10
104.4590847178088
 20
-121.380704722259
 30
0.0
 10
104.4590847178088
 20
-121.173309974047
 30
0.0
 10
104.4590847178088
 20
-121.173309974047
 30
0.0
 10
104.4590847178088
 20
-121.173309974047
 30
0.0
 10
104.1335231944527
 20
-121.173309974047
 30
0.0
 10
104.1335231944527
 20
-121.173309974047
 30
0.0
 10
104.0084662283382
 20
-121.173309974047
 30
0.0
 10
103.8648057466033
 20
-121.173309974047
 30
0.0
 10
103.750428576493
 20
-121.1839897700512
 30
0.0
 10
103.750428576493
 20
-121.1839897700512
 30
0.0
 10
103.750428576493
 20
-120.9934759897169
 30
0.0
 10
103.750428576493
 20
-120.9934759897169
 30
0.0
 10
103.9047688542321
 20
-121.0124240148858
 30
0.0
 10
104.1187092838662
 20
-121.0124240148858
 30
0.0
 10
104.1335231944527
 20
-121.0124240148858
 30
0.0
 10
104.1335231944527
 20
-121.0124240148858
 30
0.0
 10
104.2306748871368
 20
-121.0124240148858
 30
0.0
 10
104.2306748871368
 20
-121.0124240148858
 30
0.0
 10
104.2306748871368
 20
-121.0124240148858
 30
0.0
 10
104.2306748871368
 20
-120.7629991017537
 30
0.0
 10
104.2306748871368
 20
-120.7629991017537
 30
0.0
 10
104.2306748871368
 20
-120.7629991017537
 30
0.0
 10
104.1628065060774
 20
-120.7629991017537
 30
0.0
 10
104.1628065060774
 20
-120.7629991017537
 30
0.0
 10
104.0594536415199
 20
-120.7629991017537
 30
0.0
 10
103.9388752995361
 20
-120.7629991017537
 30
0.0
 10
103.8413790973035
 20
-120.7754014455006
 30
0.0
 10
103.8413790973035
 20
-120.7754014455006
 30
0.0
 10
103.8413790973035
 20
-120.5852321747148
 30
0.0
 10
103.8413790973035
 20
-120.5852321747148
 30
0.0
 10
103.9726372352916
 20
-120.6021131425925
 30
0.0
 10
104.1524712196216
 20
-120.6021131425925
 30
0.0
 10
104.1628065060774
 20
-120.6021131425925
 30
0.0
 10
104.1628065060774
 20
-120.6021131425925
 30
0.0
 10
104.2286078298456
 20
-120.6021131425925
 30
0.0
 10
104.2286078298456
 20
-120.6021131425925
 30
0.0
 10
104.2286078298456
 20
-120.4836018578999
 30
0.0
 10
104.2265407725545
 20
-120.4708550046045
 30
0.0
 10
104.2199950911325
 20
-120.3799044837939
 30
0.0
 10
104.2199950911325
 20
-120.3799044837939
 30
0.0
 10
104.4232557247622
 20
-120.388517222507
 30
0.0
 10
104.4232557247622
 20
-120.388517222507
 30
0.0
 10
104.44013669264
 20
-120.388517222507
 30
0.0
 10
104.4656303992308
 20
-120.3905842797982
 30
0.0
 10
104.4656303992308
 20
-120.4115993622582
 30
0.0
 10
104.4656303992308
 20
-120.4264132728448
 30
0.0
 10
104.4549506032265
 20
-120.4329589542668
 30
0.0
 10
104.4294568966357
 20
-120.4477728648533
 30
0.0
 10
104.4232557247622
 20
-120.5132296790731
 30
0.0
 10
104.4232557247622
 20
-120.532177704242
 30
0.0
 10
104.4232557247622
 20
-120.6021131425925
 30
0.0
 10
104.4232557247622
 20
-120.6021131425925
 30
0.0
 10
104.4845784243997
 20
-120.6021131425925
 30
0.0
 10
104.4845784243997
 20
-120.6021131425925
 30
0.0
 10
104.5224744747374
 20
-120.6021131425925
 30
0.0
 10
104.6833604338986
 20
-120.6000460853014
 30
0.0
 10
104.8060058331735
 20
-120.5852321747148
 30
0.0
 10
104.8060058331735
 20
-120.5852321747148
 30
0.0
 10
104.8060058331735
 20
-120.7733343882094
 30
0.0
 10
104.8060058331735
 20
-120.7733343882094
 30
0.0
 10
104.7067870831983
 20
-120.7629991017537
 30
0.0
 10
104.5837971743749
 20
-120.7629991017537
 30
0.0
 10
104.4845784243997
 20
-120.7629991017537
 30
0.0
 10
104.4845784243997
 20
-120.7629991017537
 30
0.0
 10
104.4191216101799
 20
-120.7629991017537
 30
0.0
 10
104.4191216101799
 20
-120.7629991017537
 30
0.0
 10
104.4191216101799
 20
-120.7629991017537
 30
0.0
 10
104.4191216101799
 20
-121.0124240148858
 30
0.0
 10
104.4191216101799
 20
-121.0124240148858
 30
0.0
 10
104.4191216101799
 20
-121.0124240148858
 30
0.0
 10
104.516273302864
 20
-121.0124240148858
 30
0.0
 10
104.516273302864
 20
-121.0124240148858
 30
0.0
 10
104.5352213280329
 20
-121.0124240148858
 30
0.0
 10
104.7340033375318
 20
-121.0124240148858
 30
0.0
 10
104.8990234112753
 20
-120.9934759897169
 30
0.0
 10
104.8990234112753
 20
-120.9934759897169
 30
0.0
 10
104.8990234112753
 20
-121.1839897700512
 30
0.0
 10
104.8990234112753
 20
-121.1839897700512
 30
0.0
 10
104.7956705467178
 20
-121.173309974047
 30
0.0
 10
104.668546523312
 20
-121.173309974047
 30
0.0
 10
104.6430528167212
 20
-121.173309974047
 30
0.0
  0
SPLINE
  5
ED
330
E7
100
AcDbEntity
  8
_U+30EC_U+30A4_U+30E4_U+30FC 1
370
     0
100
AcDbSpline
210
0.0
220
0.0
230
1.0
 70
    11
 71
     3
 72
    17
 73
    13
 74
     0
 42
0.0000000001
 43
0.0000000001
 12
1.0
 22
0.0
 32
0.0
 13
1.0
 23
0.0
 33
0.0
 40
0.0
 40
0.0
 40
0.0
 40
0.0
 40
1.0
 40
1.0
 40
1.0
 40
2.0
 40
2.0
 40
2.0
 40
3.0
 40
3.0
 40
3.0
 40
4.0
 40
4.0
 40
4.0
 40
4.0
 10
104.1121636024442
 20
-121.9749836934646
 30
0.0
 10
104.0529079600979
 20
-121.8692192620674
 30
0.0
 10
103.9833170312958
 20
-121.7930826518434
 30
0.0
 10
103.8710069184767
 20
-121.7000650737417
 30
0.0
 10
103.8710069184767
 20
-121.7000650737417
 30
0.0
 10
104.012944852469
 20
-121.5943006423445
 30
0.0
 10
104.012944852469
 20
-121.5943006423445
 30
0.0
 10
104.1162977170265
 20
-121.6725043098597
 30
0.0
 10
104.2072482378371
 20
-121.7720675693834
 30
0.0
 10
104.2644368228922
 20
-121.8585394660631
 30
0.0
 10
104.2644368228922
 20
-121.8585394660631
 30
0.0
 10
104.1121636024442
 20
-121.9749836934646
 30
0.0
 10
104.1121636024442
 20
-121.9749836934646
 30
0.0
  0
HATCH
  5
EE
330
E7
100
AcDbEntity
  8
_U+30EC_U+30A4_U+30E4_U+30FC 1
 62
   179
420
  2234388
100
AcDbHatch
 10
0.0
 20
0.0
 30
0.0
210
0.0
220
0.0
230
1.0
  2
SOLID
 70
     1
 71
     0
 91
        3
 92
        1
 93
        1
 72
     4
 94
        3
 73
     0
 74
     1
 95
      107
 96
      103
 40
0.0
 40
0.0
 40
0.0
 40
0.0
 40
1.0
 40
1.0
 40
1.0
 40
2.0
 40
2.0
 40
2.0
 40
3.0
 40
3.0
 40
3.0
 40
4.0
 40
4.0
 40
4.0
 40
5.0
 40
5.0
 40
5.0
 40
6.0
 40
6.0
 40
6.0
 40
7.0
 40
7.0
 40
7.0
 40
8.0
 40
8.0
 40
8.0
 40
9.0
 40
9.0
 40
9.0
 40
10.0
 40
10.0
 40
10.0
 40
11.0
 40
11.0
 40
11.0
 40
12.0
 40
12.0
 40
12.0
 40
13.0
 40
13.0
 40
13.0
 40
14.0
 40
14.0
 40
14.0
 40
15.0
 40
15.0
 40
15.0
 40
16.0
 40
16.0
 40
16.0
 40
17.0
 40
17.0
 40
17.0
 40
18.0
 40
18.0
 40
18.0
 40
19.0
 40
19.0
 40
19.0
 40
20.0
 40
20.0
 40
20.0
 40
21.0
 40
21.0
 40
21.0
 40
22.0
 40
22.0
 40
22.0
 40
23.0
 40
23.0
 40
23.0
 40
24.0
 40
24.0
 40
24.0
 40
25.0
 40
25.0
 40
25.0
 40
26.0
 40
26.0
 40
26.0
 40
27.0
 40
27.0
 40
27.0
 40
28.0
 40
28.0
 40
28.0
 40
29.0
 40
29.0
 40
29.0
 40
30.0
 40
30.0
 40
30.0
 40
31.0
 40
31.0
 40
31.0
 40
32.0
 40
32.0
 40
32.0
 40
33.0
 40
33.0
 40
33.0
 40
34.0
 40
34.0
 40
34.0
 40
34.0
 10
103.551646566994
 20
-121.5202310894116
 10
103.551646566994
 20
-121.5202310894116
 10
103.551646566994
 20
-121.6280625780999
 10
103.551646566994
 20
-121.6280625780999
 10
103.551646566994
 20
-121.7972167664257
 10
103.5578477388675
 20
-122.1358696526258
 10
103.5685275348718
 20
-122.2943440449473
 10
103.5685275348718
 20
-122.2943440449473
 10
103.3359835896174
 20
-122.2943440449473
 10
103.3359835896174
 20
-122.2943440449473
 10
103.3676784680817
 20
-122.0680012715663
 10
103.3780137545374
 20
-121.8988470832406
 10
103.3780137545374
 20
-121.6428764886865
 10
103.3780137545374
 20
-121.6428764886865
 10
103.3780137545374
 20
-121.6132486675134
 10
103.3780137545374
 20
-121.6132486675134
 10
103.3504529906554
 20
-121.6280625780999
 10
103.1537380384477
 20
-121.7276258376236
 10
103.1158419881099
 20
-121.7507079773748
 10
103.1072292493968
 20
-121.7951497091345
 10
103.1030951348145
 20
-121.8140977343034
 10
103.0776014282237
 20
-121.8140977343034
 10
103.0565863457636
 20
-121.8140977343034
 10
103.0459065497594
 20
-121.7930826518434
 10
103.0376383205948
 20
-121.7655218879614
 10
103.0376383205948
 20
-121.7655218879614
 10
102.9763156209573
 20
-121.5708739930448
 10
102.9763156209573
 20
-121.5708739930448
 10
103.0924153388102
 20
-121.532977942707
 10
103.1561496052874
 20
-121.505417178825
 10
103.3590657293686
 20
-121.4206678298879
 10
103.3676784680817
 20
-121.4165337153056
 10
103.3697455253728
 20
-121.4165337153056
 10
103.3780137545374
 20
-121.4144666580144
 10
103.3780137545374
 20
-121.4144666580144
 10
103.3780137545374
 20
-121.0251708681812
 10
103.3780137545374
 20
-121.0251708681812
 10
103.3780137545374
 20
-121.0251708681812
 10
103.2088595662117
 20
-121.0251708681812
 10
103.2088595662117
 20
-121.0251708681812
 10
103.1878444837517
 20
-121.1309352995784
 10
103.1709635158739
 20
-121.2112060243847
 10
103.1158419881099
 20
-121.3614121875416
 10
103.1158419881099
 20
-121.3614121875416
 10
102.9125813544802
 20
-121.2959553733218
 10
102.9125813544802
 20
-121.2959553733218
 10
103.0651990844768
 20
-121.0251708681812
 10
103.0734673136414
 20
-120.6803168101077
 10
103.0776014282237
 20
-120.559738468124
 10
103.0776014282237
 20
-120.559738468124
 10
103.2870632337269
 20
-120.5979790280102
 10
103.2870632337269
 20
-120.5979790280102
 10
103.3104898830265
 20
-120.6021131425925
 10
103.3166910549
 20
-120.6103813717571
 10
103.3166910549
 20
-120.6251952823437
 10
103.3166910549
 20
-120.6486219316434
 10
103.3039442016046
 20
-120.6527560462257
 10
103.2595024698448
 20
-120.6675699568123
 10
103.2553683552625
 20
-120.6992648352766
 10
103.240554444676
 20
-120.8370686546866
 10
103.2364203300937
 20
-120.86428490902
 10
103.2364203300937
 20
-120.86428490902
 10
103.3780137545374
 20
-120.86428490902
 10
103.3780137545374
 20
-120.86428490902
 10
103.3780137545374
 20
-120.8622178517289
 10
103.3800808118286
 20
-120.50461694036
 10
103.3676784680817
 20
-120.3650905732073
 10
103.3676784680817
 20
-120.3650905732073
 10
103.5874755600406
 20
-120.388517222507
 10
103.5874755600406
 20
-120.388517222507
 10
103.6150363239226
 20
-120.3905842797982
 10
103.6257161199269
 20
-120.4053981903848
 10
103.6257161199269
 20
-120.4222791582625
 10
103.6257161199269
 20
-120.4432942407225
 10
103.5981553560449
 20
-120.4581081513091
 10
103.5643934202895
 20
-120.4774006860265
 10
103.5623263629983
 20
-120.5342447615331
 10
103.5578477388675
 20
-120.6210611677614
 10
103.5557806815763
 20
-120.6992648352766
 10
103.5557806815763
 20
-120.7268255991586
 10
103.5537136242852
 20
-120.8453368838512
 10
103.5537136242852
 20
-120.86428490902
 10
103.5940212414626
 20
-120.8622178517289
 10
103.6656792275558
 20
-120.8601507944377
 10
103.7249348699021
 20
-120.8474039411423
 10
103.7249348699021
 20
-120.8474039411423
 10
103.7249348699021
 20
-121.0379177214766
 10
103.7249348699021
 20
-121.0379177214766
 10
103.6701578516866
 20
-121.0272379254724
 10
103.6129692666315
 20
-121.0251708681812
 10
103.5537136242852
 20
-121.0251708681812
 10
103.5537136242852
 20
-121.0251708681812
 10
103.5537136242852
 20
-121.3403971050816
 10
103.5537136242852
 20
-121.3403971050816
 10
103.6360514063827
 20
-121.3021565451953
 10
103.6680907943955
 20
-121.2852755773176
 10
103.7249348699021
 20
-121.2580593229841
 10
103.7249348699021
 20
-121.2580593229841
 10
103.7249348699021
 20
-121.429280568601
 10
103.7249348699021
 20
-121.429280568601
 10
103.7059868447332
 20
-121.4420274218964
 10
103.5874755600406
 20
-121.5033501215339
 10
103.551646566994
 20
-121.5202310894116
 97
        0
 97
        0
 92
        1
 93
        1
 72
     4
 94
        3
 73
     0
 74
     1
 95
      140
 96
      136
 40
0.0
 40
0.0
 40
0.0
 40
0.0
 40
1.0
 40
1.0
 40
1.0
 40
2.0
 40
2.0
 40
2.0
 40
3.0
 40
3.0
 40
3.0
 40
4.0
 40
4.0
 40
4.0
 40
5.0
 40
5.0
 40
5.0
 40
6.0
 40
6.0
 40
6.0
 40
7.0
 40
7.0
 40
7.0
 40
8.0
 40
8.0
 40
8.0
 40
9.0
 40
9.0
 40
9.0
 40
10.0
 40
10.0
 40
10.0
 40
11.0
 40
11.0
 40
11.0
 40
12.0
 40
12.0
 40
12.0
 40
13.0
 40
13.0
 40
13.0
 40
14.0
 40
14.0
 40
14.0
 40
15.0
 40
15.0
 40
15.0
 40
16.0
 40
16.0
 40
16.0
 40
17.0
 40
17.0
 40
17.0
 40
18.0
 40
18.0
 40
18.0
 40
19.0
 40
19.0
 40
19.0
 40
20.0
 40
20.0
 40
20.0
 40
21.0
 40
21.0
 40
21.0
 40
22.0
 40
22.0
 40
22.0
 40
23.0
 40
23.0
 40
23.0
 40
24.0
 40
24.0
 40
24.0
 40
25.0
 40
25.0
 40
25.0
 40
26.0
 40
26.0
 40
26.0
 40
27.0
 40
27.0
 40
27.0
 40
28.0
 40
28.0
 40
28.0
 40
29.0
 40
29.0
 40
29.0
 40
30.0
 40
30.0
 40
30.0
 40
31.0
 40
31.0
 40
31.0
 40
32.0
 40
32.0
 40
32.0
 40
33.0
 40
33.0
 40
33.0
 40
34.0
 40
34.0
 40
34.0
 40
35.0
 40
35.0
 40
35.0
 40
36.0
 40
36.0
 40
36.0
 40
37.0
 40
37.0
 40
37.0
 40
38.0
 40
38.0
 40
38.0
 40
39.0
 40
39.0
 40
39.0
 40
40.0
 40
40.0
 40
40.0
 40
41.0
 40
41.0
 40
41.0
 40
42.0
 40
42.0
 40
42.0
 40
43.0
 40
43.0
 40
43.0
 40
44.0
 40
44.0
 40
44.0
 40
45.0
 40
45.0
 40
45.0
 40
45.0
 10
104.6430528167212
 20
-121.173309974047
 10
104.6430528167212
 20
-121.173309974047
 10
104.6430528167212
 20
-121.3786376649678
 10
104.6430528167212
 20
-121.3786376649678
 10
104.8018717185912
 20
-121.3720919835459
 10
104.8208197437601
 20
-121.3700249262547
 10
104.894889296693
 20
-121.3614121875416
 10
104.894889296693
 20
-121.3614121875416
 10
104.894889296693
 20
-121.5519259678759
 10
104.894889296693
 20
-121.5519259678759
 10
104.8252983678909
 20
-121.5457247960025
 10
104.8104844573043
 20
-121.5457247960025
 10
104.6430528167212
 20
-121.5412461718716
 10
104.6430528167212
 20
-121.5412461718716
 10
104.6430528167212
 20
-121.6725043098597
 10
104.6430528167212
 20
-121.6725043098597
 10
104.6430528167212
 20
-121.7317599522059
 10
104.647531440852
 20
-122.0004774000554
 10
104.647531440852
 20
-122.0531873609798
 10
104.647531440852
 20
-122.1251898566215
 10
104.647531440852
 20
-122.2733289624872
 10
104.4611517751
 20
-122.2840087584915
 10
104.4380696353488
 20
-122.2860758157827
 10
104.3302381466605
 20
-122.2860758157827
 10
104.308878554652
 20
-122.2881428730738
 10
104.308878554652
 20
-122.2881428730738
 10
104.1883002126682
 20
-122.0576659851106
 10
104.1883002126682
 20
-122.0576659851106
 10
104.2286078298456
 20
-122.063867156984
 10
104.3533202864117
 20
-122.0828151821529
 10
104.3829481075848
 20
-122.0828151821529
 10
104.4570176605177
 20
-122.0828151821529
 10
104.4570176605177
 20
-122.0407850172329
 10
104.4570176605177
 20
-121.9770507507557
 10
104.4570176605177
 20
-121.960169782878
 10
104.4590847178088
 20
-121.8861002299451
 10
104.4590847178088
 20
-121.8712863193586
 10
104.4590847178088
 20
-121.8712863193586
 10
104.4590847178088
 20
-121.5412461718716
 10
104.4590847178088
 20
-121.5412461718716
 10
104.4590847178088
 20
-121.5412461718716
 10
104.1269775130308
 20
-121.5412461718716
 10
104.1269775130308
 20
-121.5412461718716
 10
104.0043321137559
 20
-121.5412461718716
 10
103.8582600651813
 20
-121.5412461718716
 10
103.7442274046195
 20
-121.5519259678759
 10
103.7442274046195
 20
-121.5519259678759
 10
103.7442274046195
 20
-121.3614121875416
 10
103.7442274046195
 20
-121.3614121875416
 10
103.9006347396498
 20
-121.380704722259
 10
104.1142306597353
 20
-121.380704722259
 10
104.1269775130308
 20
-121.380704722259
 10
104.1269775130308
 20
-121.380704722259
 10
104.4590847178088
 20
-121.380704722259
 10
104.4590847178088
 20
-121.380704722259
 10
104.4590847178088
 20
-121.380704722259
 10
104.4590847178088
 20
-121.173309974047
 10
104.4590847178088
 20
-121.173309974047
 10
104.4590847178088
 20
-121.173309974047
 10
104.1335231944527
 20
-121.173309974047
 10
104.1335231944527
 20
-121.173309974047
 10
104.0084662283382
 20
-121.173309974047
 10
103.8648057466033
 20
-121.173309974047
 10
103.750428576493
 20
-121.1839897700512
 10
103.750428576493
 20
-121.1839897700512
 10
103.750428576493
 20
-120.9934759897169
 10
103.750428576493
 20
-120.9934759897169
 10
103.9047688542321
 20
-121.0124240148858
 10
104.1187092838662
 20
-121.0124240148858
 10
104.1335231944527
 20
-121.0124240148858
 10
104.1335231944527
 20
-121.0124240148858
 10
104.2306748871368
 20
-121.0124240148858
 10
104.2306748871368
 20
-121.0124240148858
 10
104.2306748871368
 20
-121.0124240148858
 10
104.2306748871368
 20
-120.7629991017537
 10
104.2306748871368
 20
-120.7629991017537
 10
104.2306748871368
 20
-120.7629991017537
 10
104.1628065060774
 20
-120.7629991017537
 10
104.1628065060774
 20
-120.7629991017537
 10
104.0594536415199
 20
-120.7629991017537
 10
103.9388752995361
 20
-120.7629991017537
 10
103.8413790973035
 20
-120.7754014455006
 10
103.8413790973035
 20
-120.7754014455006
 10
103.8413790973035
 20
-120.5852321747148
 10
103.8413790973035
 20
-120.5852321747148
 10
103.9726372352916
 20
-120.6021131425925
 10
104.1524712196216
 20
-120.6021131425925
 10
104.1628065060774
 20
-120.6021131425925
 10
104.1628065060774
 20
-120.6021131425925
 10
104.2286078298456
 20
-120.6021131425925
 10
104.2286078298456
 20
-120.6021131425925
 10
104.2286078298456
 20
-120.4836018578999
 10
104.2265407725545
 20
-120.4708550046045
 10
104.2199950911325
 20
-120.3799044837939
 10
104.2199950911325
 20
-120.3799044837939
 10
104.4232557247622
 20
-120.388517222507
 10
104.4232557247622
 20
-120.388517222507
 10
104.44013669264
 20
-120.388517222507
 10
104.4656303992308
 20
-120.3905842797982
 10
104.4656303992308
 20
-120.4115993622582
 10
104.4656303992308
 20
-120.4264132728448
 10
104.4549506032265
 20
-120.4329589542668
 10
104.4294568966357
 20
-120.4477728648533
 10
104.4232557247622
 20
-120.5132296790731
 10
104.4232557247622
 20
-120.532177704242
 10
104.4232557247622
 20
-120.6021131425925
 10
104.4232557247622
 20
-120.6021131425925
 10
104.4845784243997
 20
-120.6021131425925
 10
104.4845784243997
 20
-120.6021131425925
 10
104.5224744747374
 20
-120.6021131425925
 10
104.6833604338986
 20
-120.6000460853014
 10
104.8060058331735
 20
-120.5852321747148
 10
104.8060058331735
 20
-120.5852321747148
 10
104.8060058331735
 20
-120.7733343882094
 10
104.8060058331735
 20
-120.7733343882094
 10
104.7067870831983
 20
-120.7629991017537
 10
104.5837971743749
 20
-120.7629991017537
 10
104.4845784243997
 20
-120.7629991017537
 10
104.4845784243997
 20
-120.7629991017537
 10
104.4191216101799
 20
-120.7629991017537
 10
104.4191216101799
 20
-120.7629991017537
 10
104.4191216101799
 20
-120.7629991017537
 10
104.4191216101799
 20
-121.0124240148858
 10
104.4191216101799
 20
-121.0124240148858
 10
104.4191216101799
 20
-121.0124240148858
 10
104.516273302864
 20
-121.0124240148858
 10
104.516273302864
 20
-121.0124240148858
 10
104.5352213280329
 20
-121.0124240148858
 10
104.7340033375318
 20
-121.0124240148858
 10
104.8990234112753
 20
-120.9934759897169
 10
104.8990234112753
 20
-120.9934759897169
 10
104.8990234112753
 20
-121.1839897700512
 10
104.8990234112753
 20
-121.1839897700512
 10
104.7956705467178
 20
-121.173309974047
 10
104.668546523312
 20
-121.173309974047
 10
104.6430528167212
 20
-121.173309974047
 97
        0
 97
        0
 92
        1
 93
        1
 72
     4
 94
        3
 73
     0
 74
     1
 95
       17
 96
       13
 40
0.0
 40
0.0
 40
0.0
 40
0.0
 40
1.0
 40
1.0
 40
1.0
 40
2.0
 40
2.0
 40
2.0
 40
3.0
 40
3.0
 40
3.0
 40
4.0
 40
4.0
 40
4.0
 40
4.0
 10
104.1121636024442
 20
-121.9749836934646
 10
104.0529079600979
 20
-121.8692192620674
 10
103.9833170312958
 20
-121.7930826518434
 10
103.8710069184767
 20
-121.7000650737417
 10
103.8710069184767
 20
-121.7000650737417
 10
104.012944852469
 20
-121.5943006423445
 10
104.012944852469
 20
-121.5943006423445
 10
104.1162977170265
 20
-121.6725043098597
 10
104.2072482378371
 20
-121.7720675693834
 10
104.2644368228922
 20
-121.8585394660631
 10
104.2644368228922
 20
-121.8585394660631
 10
104.1121636024442
 20
-121.9749836934646
 10
104.1121636024442
 20
-121.9749836934646
 97
        0
 97
        0
 75
     2
 76
     1
 98
        0
  0
SPLINE
  5
EF
330
E7
100
AcDbEntity
  8
_U+30EC_U+30A4_U+30E4_U+30FC 1
370
     0
100
AcDbSpline
210
0.0
220
0.0
230
1.0
 70
    11
 71
     3
 72
   182
 73
   178
 74
     0
 42
0.0000000001
 43
0.0000000001
 12
1.0
 22
0.0
 32
0.0
 13
1.0
 23
0.0
 33
0.0
 40
0.0
 40
0.0
 40
0.0
 40
0.0
 40
1.0
 40
1.0
 40
1.0
 40
2.0
 40
2.0
 40
2.0
 40
3.0
 40
3.0
 40
3.0
 40
4.0
 40
4.0
 40
4.0
 40
5.0
 40
5.0
 40
5.0
 40
6.0
 40
6.0
 40
6.0
 40
7.0
 40
7.0
 40
7.0
 40
8.0
 40
8.0
 40
8.0
 40
9.0
 40
9.0
 40
9.0
 40
10.0
 40
10.0
 40
10.0
 40
11.0
 40
11.0
 40
11.0
 40
12.0
 40
12.0
 40
12.0
 40
13.0
 40
13.0
 40
13.0
 40
14.0
 40
14.0
 40
14.0
 40
15.0
 40
15.0
 40
15.0
 40
16.0
 40
16.0
 40
16.0
 40
17.0
 40
17.0
 40
17.0
 40
18.0
 40
18.0
 40
18.0
 40
19.0
 40
19.0
 40
19.0
 40
20.0
 40
20.0
 40
20.0
 40
21.0
 40
21.0
 40
21.0
 40
22.0
 40
22.0
 40
22.0
 40
23.0
 40
23.0
 40
23.0
 40
24.0
 40
24.0
 40
24.0
 40
25.0
 40
25.0
 40
25.0
 40
26.0
 40
26.0
 40
26.0
 40
27.0
 40
27.0
 40
27.0
 40
28.0
 40
28.0
 40
28.0
 40
29.0
 40
29.0
 40
29.0
 40
30.0
 40
30.0
 40
30.0
 40
31.0
 40
31.0
 40
31.0
 40
32.0
 40
32.0
 40
32.0
 40
33.0
 40
33.0
 40
33.0
 40
34.0
 40
34.0
 40
34.0
 40
35.0
 40
35.0
 40
35.0
 40
36.0
 40
36.0
 40
36.0
 40
37.0
 40
37.0
 40
37.0
 40
38.0
 40
38.0
 40
38.0
 40
39.0
 40
39.0
 40
39.0
 40
40.0
 40
40.0
 40
40.0
 40
41.0
 40
41.0
 40
41.0
 40
42.0
 40
42.0
 40
42.0
 40
43.0
 40
43.0
 40
43.0
 40
44.0
 40
44.0
 40
44.0
 40
45.0
 40
45.0
 40
45.0
 40
46.0
 40
46.0
 40
46.0
 40
47.0
 40
47.0
 40
47.0
 40
48.0
 40
48.0
 40
48.0
 40
49.0
 40
49.0
 40
49.0
 40
50.0
 40
50.0
 40
50.0
 40
51.0
 40
51.0
 40
51.0
 40
52.0
 40
52.0
 40
52.0
 40
53.0
 40
53.0
 40
53.0
 40
54.0
 40
54.0
 40
54.0
 40
55.0
 40
55.0
 40
55.0
 40
56.0
 40
56.0
 40
56.0
 40
57.0
 40
57.0
 40
57.0
 40
58.0
 40
58.0
 40
58.0
 40
59.0
 40
59.0
 40
59.0
 40
59.0
 10
106.922672499311
 20
-122.118988684748
 30
0.0
 10
106.8210421824961
 20
-122.0531873609798
 30
0.0
 10
106.6074462624106
 20
-121.8947129686583
 30
0.0
 10
106.4996147737223
 20
-121.6618245138554
 30
0.0
 10
106.4996147737223
 20
-121.6618245138554
 30
0.0
 10
106.4996147737223
 20
-121.7613877733791
 30
0.0
 10
106.4996147737223
 20
-121.7613877733791
 30
0.0
 10
106.4996147737223
 20
-121.835457326312
 30
0.0
 10
106.5123616270178
 20
-122.1782443270943
 30
0.0
 10
106.5164957416001
 20
-122.2733289624872
 30
0.0
 10
106.5164957416001
 20
-122.2733289624872
 30
0.0
 10
106.3028998215146
 20
-122.2733289624872
 30
0.0
 10
106.3028998215146
 20
-122.2733289624872
 30
0.0
 10
106.3135796175188
 20
-122.1568847350858
 30
0.0
 10
106.3177137321011
 20
-121.8926459113671
 30
0.0
 10
106.3177137321011
 20
-121.7700005120922
 30
0.0
 10
106.3177137321011
 20
-121.7700005120922
 30
0.0
 10
106.3177137321011
 20
-121.7190130989105
 30
0.0
 10
106.3177137321011
 20
-121.7190130989105
 30
0.0
 10
106.1378797477711
 20
-121.9581027255869
 30
0.0
 10
105.9452989101456
 20
-122.0976290927395
 30
0.0
 10
105.7868245178241
 20
-122.1737657029635
 30
0.0
 10
105.7868245178241
 20
-122.1737657029635
 30
0.0
 10
105.6345512973761
 20
-122.0259711066463
 30
0.0
 10
105.6345512973761
 20
-122.0259711066463
 30
0.0
 10
105.9814724127407
 20
-121.8988470832406
 30
0.0
 10
106.1737087408177
 20
-121.6025688715091
 30
0.0
 10
106.267070828468
 20
-121.4186007725967
 30
0.0
 10
106.267070828468
 20
-121.4186007725967
 30
0.0
 10
106.2181504725774
 20
-121.4186007725967
 30
0.0
 10
106.2181504725774
 20
-121.4186007725967
 30
0.0
 10
106.0913709587202
 20
-121.4186007725967
 30
0.0
 10
105.9621798780233
 20
-121.422734887179
 30
0.0
 10
105.833333306875
 20
-121.4375487977656
 30
0.0
 10
105.833333306875
 20
-121.4375487977656
 30
0.0
 10
105.833333306875
 20
-121.228431501811
 30
0.0
 10
105.833333306875
 20
-121.228431501811
 30
0.0
 10
105.9666585021542
 20
-121.2432454123975
 30
0.0
 10
106.1613063970708
 20
-121.2473795269798
 30
0.0
 10
106.2181504725774
 20
-121.2473795269798
 30
0.0
 10
106.2181504725774
 20
-121.2473795269798
 30
0.0
 10
106.3177137321011
 20
-121.2473795269798
 30
0.0
 10
106.3177137321011
 20
-121.2473795269798
 30
0.0
 10
106.3177137321011
 20
-121.2473795269798
 30
0.0
 10
106.3177137321011
 20
-120.9552354298306
 30
0.0
 10
106.3177137321011
 20
-120.9552354298306
 30
0.0
 10
106.3177137321011
 20
-120.9552354298306
 30
0.0
 10
106.0893039014291
 20
-120.9552354298306
 30
0.0
 10
106.0893039014291
 20
-120.9552354298306
 30
0.0
 10
106.0235025776608
 20
-121.0782253386541
 30
0.0
 10
105.9687255594453
 20
-121.1416150955827
 30
0.0
 10
105.937030680981
 20
-121.1774440886293
 30
0.0
 10
105.937030680981
 20
-121.1774440886293
 30
0.0
 10
105.784757460533
 20
-121.0802923959452
 30
0.0
 10
105.784757460533
 20
-121.0802923959452
 30
0.0
 10
105.7379041619336
 20
-121.3679578689636
 30
0.0
 10
105.6493652079627
 20
-121.9243407898314
 30
0.0
 10
105.2387098261209
 20
-122.2647162237741
 30
0.0
 10
105.2387098261209
 20
-122.2647162237741
 30
0.0
 10
105.0695556377951
 20
-122.1251898566215
 30
0.0
 10
105.0695556377951
 20
-122.1251898566215
 30
0.0
 10
105.1605061586057
 20
-122.063867156984
 30
0.0
 10
105.3444742575181
 20
-121.9412217577091
 30
0.0
 10
105.4588514276283
 20
-121.6663031379862
 30
0.0
 10
105.3827148174043
 20
-121.5519259678759
 30
0.0
 10
105.3444742575181
 20
-121.5181640321205
 30
0.0
 10
105.2514566794163
 20
-121.4334146831833
 30
0.0
 10
105.2176947436609
 20
-121.4757893576519
 30
0.0
 10
105.1963351516523
 20
-121.4968044401119
 30
0.0
 10
105.17118595461
 20
-121.5264322612851
 30
0.0
 10
105.17118595461
 20
-121.5264322612851
 30
0.0
 10
104.9934190275711
 20
-121.4206678298879
 30
0.0
 10
104.9934190275711
 20
-121.4206678298879
 30
0.0
 10
105.1753200691923
 20
-121.2642604948576
 30
0.0
 10
105.3127793790538
 20
-121.0231038108901
 30
0.0
 10
105.3551540535223
 20
-120.6655028995211
 30
0.0
 10
105.3086452644715
 20
-120.6655028995211
 30
0.0
 10
105.2135606290786
 20
-120.6675699568123
 30
0.0
 10
105.095049344386
 20
-120.6823838673989
 30
0.0
 10
105.095049344386
 20
-120.6823838673989
 30
0.0
 10
105.095049344386
 20
-120.4749891191868
 30
0.0
 10
105.095049344386
 20
-120.4749891191868
 30
0.0
 10
105.2156276863697
 20
-120.4898030297734
 30
0.0
 10
105.3320719137712
 20
-120.4922145966131
 30
0.0
 10
105.3761691359824
 20
-120.4922145966131
 30
0.0
 10
105.3761691359824
 20
-120.4922145966131
 30
0.0
 10
105.646953641123
 20
-120.4922145966131
 30
0.0
 10
105.646953641123
 20
-120.4922145966131
 30
0.0
 10
105.7403157287733
 20
-120.4922145966131
 30
0.0
 10
105.833333306875
 20
-120.4877359724822
 30
0.0
 10
105.9263508849768
 20
-120.4749891191868
 30
0.0
 10
105.9263508849768
 20
-120.4749891191868
 30
0.0
 10
105.9263508849768
 20
-120.6823838673989
 30
0.0
 10
105.9263508849768
 20
-120.6823838673989
 30
0.0
 10
105.805772542993
 20
-120.6655028995211
 30
0.0
 10
105.6576334371273
 20
-120.6655028995211
 30
0.0
 10
105.646953641123
 20
-120.6655028995211
 30
0.0
 10
105.646953641123
 20
-120.6655028995211
 30
0.0
 10
105.5391221524347
 20
-120.6655028995211
 30
0.0
 10
105.5391221524347
 20
-120.6655028995211
 30
0.0
 10
105.5201741272658
 20
-120.8008951520914
 30
0.0
 10
105.5012261020969
 20
-120.8811658768978
 30
0.0
 10
105.4798665100884
 20
-120.9531683725395
 30
0.0
 10
105.4798665100884
 20
-120.9531683725395
 30
0.0
 10
105.6321397305364
 20
-120.9531683725395
 30
0.0
 10
105.6321397305364
 20
-120.9531683725395
 30
0.0
 10
105.6597004944184
 20
-120.9531683725395
 30
0.0
 10
105.7740776645287
 20
-120.946967200666
 30
0.0
 10
105.7995713711196
 20
-120.946967200666
 30
0.0
 10
105.7971598042799
 20
-120.9807291364215
 30
0.0
 10
105.7950927469887
 20
-120.9996771615904
 30
0.0
 10
105.7868245178241
 20
-121.0589328039367
 30
0.0
 10
106.0173014057874
 20
-120.7902153560872
 30
0.0
 10
106.0300482590828
 20
-120.5831651174237
 30
0.0
 10
106.0362494309562
 20
-120.5004828257777
 30
0.0
 10
106.0362494309562
 20
-120.5004828257777
 30
0.0
 10
106.2543239751725
 20
-120.5766194360017
 30
0.0
 10
106.2543239751725
 20
-120.5766194360017
 30
0.0
 10
106.2774061149237
 20
-120.5852321747148
 30
0.0
 10
106.288085910928
 20
-120.6000460853014
 30
0.0
 10
106.288085910928
 20
-120.614859995888
 30
0.0
 10
106.288085910928
 20
-120.6444878170611
 30
0.0
 10
106.239510064586
 20
-120.6548231035169
 30
0.0
 10
106.211949300704
 20
-120.6593017276477
 30
0.0
 10
106.1950683328262
 20
-120.7164903127028
 30
0.0
 10
106.1864555941131
 20
-120.739572452454
 30
0.0
 10
106.1695746262354
 20
-120.7840141842137
 30
0.0
 10
106.1695746262354
 20
-120.7840141842137
 30
0.0
 10
106.3177137321011
 20
-120.7840141842137
 30
0.0
 10
106.3177137321011
 20
-120.7840141842137
 30
0.0
 10
106.3115125602277
 20
-120.5111626217819
 30
0.0
 10
106.3115125602277
 20
-120.4794677433176
 30
0.0
 10
106.3028998215146
 20
-120.3840385983762
 30
0.0
 10
106.3028998215146
 20
-120.3840385983762
 30
0.0
 10
106.544056505482
 20
-120.416077986389
 30
0.0
 10
106.544056505482
 20
-120.416077986389
 30
0.0
 10
106.5609374733598
 20
-120.4181450436802
 30
0.0
 10
106.5757513839463
 20
-120.4284803301359
 30
0.0
 10
106.5757513839463
 20
-120.4477728648533
 30
0.0
 10
106.5757513839463
 20
-120.4646538327311
 30
0.0
 10
106.5757513839463
 20
-120.4646538327311
 30
0.0
 10
106.4996147737223
 20
-120.4963487111954
 30
0.0
 10
106.4996147737223
 20
-120.4963487111954
 30
0.0
 10
106.4996147737223
 20
-120.6971977779854
 30
0.0
 10
106.4996147737223
 20
-120.6971977779854
 30
0.0
 10
106.4996147737223
 20
-120.6971977779854
 30
0.0
 10
106.4996147737223
 20
-120.7840141842137
 30
0.0
 10
106.4996147737223
 20
-120.7840141842137
 30
0.0
 10
106.5082275124355
 20
-120.7840141842137
 30
0.0
 10
106.7366373431075
 20
-120.7819471269226
 30
0.0
 10
106.9037244741421
 20
-120.767133216336
 30
0.0
 10
106.9037244741421
 20
-120.767133216336
 30
0.0
 10
106.9037244741421
 20
-120.974527964548
 30
0.0
 10
106.9037244741421
 20
-120.974527964548
 30
0.0
 10
106.7790120175761
 20
-120.9617811112526
 30
0.0
 10
106.7300916616855
 20
-120.9617811112526
 30
0.0
 10
106.4996147737223
 20
-120.9552354298306
 30
0.0
 10
106.4996147737223
 20
-120.9552354298306
 30
0.0
 10
106.4996147737223
 20
-121.2473795269798
 30
0.0
 10
106.4996147737223
 20
-121.2473795269798
 30
0.0
 10
106.4996147737223
 20
-121.2473795269798
 30
0.0
 10
106.599178033246
 20
-121.2473795269798
 30
0.0
 10
106.599178033246
 20
-121.2473795269798
 30
0.0
 10
106.7300916616855
 20
-121.2473795269798
 30
0.0
 10
106.8592827423824
 20
-121.2432454123975
 30
0.0
 10
106.9884738230793
 20
-121.228431501811
 30
0.0
 10
106.9884738230793
 20
-121.228431501811
 30
0.0
 10
106.9884738230793
 20
-121.4375487977656
 30
0.0
 10
106.9884738230793
 20
-121.4375487977656
 30
0.0
 10
106.8296549212093
 20
-121.4206678298879
 30
0.0
 10
106.6391411408749
 20
-121.4186007725967
 30
0.0
 10
106.5905652945329
 20
-121.4186007725967
 30
0.0
 10
106.6370740835838
 20
-121.6556233419819
 30
0.0
 10
106.9419650340284
 20
-121.9009141405317
 30
0.0
 10
107.1066405982234
 20
-121.9835964321777
 30
0.0
 10
107.1066405982234
 20
-121.9835964321777
 30
0.0
 10
106.922672499311
 20
-122.118988684748
 30
0.0
 10
106.922672499311
 20
-122.118988684748
 30
0.0
  0
SPLINE
  5
F0
330
E7
100
AcDbEntity
  8
_U+30EC_U+30A4_U+30E4_U+30FC 1
370
     0
100
AcDbSpline
210
0.0
220
0.0
230
1.0
 70
    11
 71
     3
 72
    17
 73
    13
 74
     0
 42
0.0000000001
 43
0.0000000001
 12
1.0
 22
0.0
 32
0.0
 13
1.0
 23
0.0
 33
0.0
 40
0.0
 40
0.0
 40
0.0
 40
0.0
 40
1.0
 40
1.0
 40
1.0
 40
2.0
 40
2.0
 40
2.0
 40
3.0
 40
3.0
 40
3.0
 40
4.0
 40
4.0
 40
4.0
 40
4.0
 10
105.4250894918729
 20
-121.1119872744095
 30
0.0
 10
105.3847818746955
 20
-121.2156846485155
 30
0.0
 10
105.3592881681046
 20
-121.2601263802753
 30
0.0
 10
105.3444742575181
 20
-121.2873426346087
 30
0.0
 10
105.4144096958686
 20
-121.3403971050816
 30
0.0
 10
105.4185438104509
 20
-121.3445312196639
 30
0.0
 10
105.5370550951435
 20
-121.456841332483
 30
0.0
 10
105.570817030899
 20
-121.3593451302504
 30
0.0
 10
105.6028564189118
 20
-121.194325056507
 30
0.0
 10
105.6069905334941
 20
-121.1119872744095
 30
0.0
 10
105.6069905334941
 20
-121.1119872744095
 30
0.0
 10
105.4250894918729
 20
-121.1119872744095
 30
0.0
 10
105.4250894918729
 20
-121.1119872744095
 30
0.0
  0
HATCH
  5
F1
330
E7
100
AcDbEntity
  8
_U+30EC_U+30A4_U+30E4_U+30FC 1
 62
   179
420
  2234388
100
AcDbHatch
 10
0.0
 20
0.0
 30
0.0
210
0.0
220
0.0
230
1.0
  2
SOLID
 70
     1
 71
     0
 91
        2
 92
        1
 93
        1
 72
     4
 94
        3
 73
     0
 74
     1
 95
      182
 96
      178
 40
0.0
 40
0.0
 40
0.0
 40
0.0
 40
1.0
 40
1.0
 40
1.0
 40
2.0
 40
2.0
 40
2.0
 40
3.0
 40
3.0
 40
3.0
 40
4.0
 40
4.0
 40
4.0
 40
5.0
 40
5.0
 40
5.0
 40
6.0
 40
6.0
 40
6.0
 40
7.0
 40
7.0
 40
7.0
 40
8.0
 40
8.0
 40
8.0
 40
9.0
 40
9.0
 40
9.0
 40
10.0
 40
10.0
 40
10.0
 40
11.0
 40
11.0
 40
11.0
 40
12.0
 40
12.0
 40
12.0
 40
13.0
 40
13.0
 40
13.0
 40
14.0
 40
14.0
 40
14.0
 40
15.0
 40
15.0
 40
15.0
 40
16.0
 40
16.0
 40
16.0
 40
17.0
 40
17.0
 40
17.0
 40
18.0
 40
18.0
 40
18.0
 40
19.0
 40
19.0
 40
19.0
 40
20.0
 40
20.0
 40
20.0
 40
21.0
 40
21.0
 40
21.0
 40
22.0
 40
22.0
 40
22.0
 40
23.0
 40
23.0
 40
23.0
 40
24.0
 40
24.0
 40
24.0
 40
25.0
 40
25.0
 40
25.0
 40
26.0
 40
26.0
 40
26.0
 40
27.0
 40
27.0
 40
27.0
 40
28.0
 40
28.0
 40
28.0
 40
29.0
 40
29.0
 40
29.0
 40
30.0
 40
30.0
 40
30.0
 40
31.0
 40
31.0
 40
31.0
 40
32.0
 40
32.0
 40
32.0
 40
33.0
 40
33.0
 40
33.0
 40
34.0
 40
34.0
 40
34.0
 40
35.0
 40
35.0
 40
35.0
 40
36.0
 40
36.0
 40
36.0
 40
37.0
 40
37.0
 40
37.0
 40
38.0
 40
38.0
 40
38.0
 40
39.0
 40
39.0
 40
39.0
 40
40.0
 40
40.0
 40
40.0
 40
41.0
 40
41.0
 40
41.0
 40
42.0
 40
42.0
 40
42.0
 40
43.0
 40
43.0
 40
43.0
 40
44.0
 40
44.0
 40
44.0
 40
45.0
 40
45.0
 40
45.0
 40
46.0
 40
46.0
 40
46.0
 40
47.0
 40
47.0
 40
47.0
 40
48.0
 40
48.0
 40
48.0
 40
49.0
 40
49.0
 40
49.0
 40
50.0
 40
50.0
 40
50.0
 40
51.0
 40
51.0
 40
51.0
 40
52.0
 40
52.0
 40
52.0
 40
53.0
 40
53.0
 40
53.0
 40
54.0
 40
54.0
 40
54.0
 40
55.0
 40
55.0
 40
55.0
 40
56.0
 40
56.0
 40
56.0
 40
57.0
 40
57.0
 40
57.0
 40
58.0
 40
58.0
 40
58.0
 40
59.0
 40
59.0
 40
59.0
 40
59.0
 10
106.922672499311
 20
-122.118988684748
 10
106.8210421824961
 20
-122.0531873609798
 10
106.6074462624106
 20
-121.8947129686583
 10
106.4996147737223
 20
-121.6618245138554
 10
106.4996147737223
 20
-121.6618245138554
 10
106.4996147737223
 20
-121.7613877733791
 10
106.4996147737223
 20
-121.7613877733791
 10
106.4996147737223
 20
-121.835457326312
 10
106.5123616270178
 20
-122.1782443270943
 10
106.5164957416001
 20
-122.2733289624872
 10
106.5164957416001
 20
-122.2733289624872
 10
106.3028998215146
 20
-122.2733289624872
 10
106.3028998215146
 20
-122.2733289624872
 10
106.3135796175188
 20
-122.1568847350858
 10
106.3177137321011
 20
-121.8926459113671
 10
106.3177137321011
 20
-121.7700005120922
 10
106.3177137321011
 20
-121.7700005120922
 10
106.3177137321011
 20
-121.7190130989105
 10
106.3177137321011
 20
-121.7190130989105
 10
106.1378797477711
 20
-121.9581027255869
 10
105.9452989101456
 20
-122.0976290927395
 10
105.7868245178241
 20
-122.1737657029635
 10
105.7868245178241
 20
-122.1737657029635
 10
105.6345512973761
 20
-122.0259711066463
 10
105.6345512973761
 20
-122.0259711066463
 10
105.9814724127407
 20
-121.8988470832406
 10
106.1737087408177
 20
-121.6025688715091
 10
106.267070828468
 20
-121.4186007725967
 10
106.267070828468
 20
-121.4186007725967
 10
106.2181504725774
 20
-121.4186007725967
 10
106.2181504725774
 20
-121.4186007725967
 10
106.0913709587202
 20
-121.4186007725967
 10
105.9621798780233
 20
-121.422734887179
 10
105.833333306875
 20
-121.4375487977656
 10
105.833333306875
 20
-121.4375487977656
 10
105.833333306875
 20
-121.228431501811
 10
105.833333306875
 20
-121.228431501811
 10
105.9666585021542
 20
-121.2432454123975
 10
106.1613063970708
 20
-121.2473795269798
 10
106.2181504725774
 20
-121.2473795269798
 10
106.2181504725774
 20
-121.2473795269798
 10
106.3177137321011
 20
-121.2473795269798
 10
106.3177137321011
 20
-121.2473795269798
 10
106.3177137321011
 20
-121.2473795269798
 10
106.3177137321011
 20
-120.9552354298306
 10
106.3177137321011
 20
-120.9552354298306
 10
106.3177137321011
 20
-120.9552354298306
 10
106.0893039014291
 20
-120.9552354298306
 10
106.0893039014291
 20
-120.9552354298306
 10
106.0235025776608
 20
-121.0782253386541
 10
105.9687255594453
 20
-121.1416150955827
 10
105.937030680981
 20
-121.1774440886293
 10
105.937030680981
 20
-121.1774440886293
 10
105.784757460533
 20
-121.0802923959452
 10
105.784757460533
 20
-121.0802923959452
 10
105.7379041619336
 20
-121.3679578689636
 10
105.6493652079627
 20
-121.9243407898314
 10
105.2387098261209
 20
-122.2647162237741
 10
105.2387098261209
 20
-122.2647162237741
 10
105.0695556377951
 20
-122.1251898566215
 10
105.0695556377951
 20
-122.1251898566215
 10
105.1605061586057
 20
-122.063867156984
 10
105.3444742575181
 20
-121.9412217577091
 10
105.4588514276283
 20
-121.6663031379862
 10
105.3827148174043
 20
-121.5519259678759
 10
105.3444742575181
 20
-121.5181640321205
 10
105.2514566794163
 20
-121.4334146831833
 10
105.2176947436609
 20
-121.4757893576519
 10
105.1963351516523
 20
-121.4968044401119
 10
105.17118595461
 20
-121.5264322612851
 10
105.17118595461
 20
-121.5264322612851
 10
104.9934190275711
 20
-121.4206678298879
 10
104.9934190275711
 20
-121.4206678298879
 10
105.1753200691923
 20
-121.2642604948576
 10
105.3127793790538
 20
-121.0231038108901
 10
105.3551540535223
 20
-120.6655028995211
 10
105.3086452644715
 20
-120.6655028995211
 10
105.2135606290786
 20
-120.6675699568123
 10
105.095049344386
 20
-120.6823838673989
 10
105.095049344386
 20
-120.6823838673989
 10
105.095049344386
 20
-120.4749891191868
 10
105.095049344386
 20
-120.4749891191868
 10
105.2156276863697
 20
-120.4898030297734
 10
105.3320719137712
 20
-120.4922145966131
 10
105.3761691359824
 20
-120.4922145966131
 10
105.3761691359824
 20
-120.4922145966131
 10
105.646953641123
 20
-120.4922145966131
 10
105.646953641123
 20
-120.4922145966131
 10
105.7403157287733
 20
-120.4922145966131
 10
105.833333306875
 20
-120.4877359724822
 10
105.9263508849768
 20
-120.4749891191868
 10
105.9263508849768
 20
-120.4749891191868
 10
105.9263508849768
 20
-120.6823838673989
 10
105.9263508849768
 20
-120.6823838673989
 10
105.805772542993
 20
-120.6655028995211
 10
105.6576334371273
 20
-120.6655028995211
 10
105.646953641123
 20
-120.6655028995211
 10
105.646953641123
 20
-120.6655028995211
 10
105.5391221524347
 20
-120.6655028995211
 10
105.5391221524347
 20
-120.6655028995211
 10
105.5201741272658
 20
-120.8008951520914
 10
105.5012261020969
 20
-120.8811658768978
 10
105.4798665100884
 20
-120.9531683725395
 10
105.4798665100884
 20
-120.9531683725395
 10
105.6321397305364
 20
-120.9531683725395
 10
105.6321397305364
 20
-120.9531683725395
 10
105.6597004944184
 20
-120.9531683725395
 10
105.7740776645287
 20
-120.946967200666
 10
105.7995713711196
 20
-120.946967200666
 10
105.7971598042799
 20
-120.9807291364215
 10
105.7950927469887
 20
-120.9996771615904
 10
105.7868245178241
 20
-121.0589328039367
 10
106.0173014057874
 20
-120.7902153560872
 10
106.0300482590828
 20
-120.5831651174237
 10
106.0362494309562
 20
-120.5004828257777
 10
106.0362494309562
 20
-120.5004828257777
 10
106.2543239751725
 20
-120.5766194360017
 10
106.2543239751725
 20
-120.5766194360017
 10
106.2774061149237
 20
-120.5852321747148
 10
106.288085910928
 20
-120.6000460853014
 10
106.288085910928
 20
-120.614859995888
 10
106.288085910928
 20
-120.6444878170611
 10
106.239510064586
 20
-120.6548231035169
 10
106.211949300704
 20
-120.6593017276477
 10
106.1950683328262
 20
-120.7164903127028
 10
106.1864555941131
 20
-120.739572452454
 10
106.1695746262354
 20
-120.7840141842137
 10
106.1695746262354
 20
-120.7840141842137
 10
106.3177137321011
 20
-120.7840141842137
 10
106.3177137321011
 20
-120.7840141842137
 10
106.3115125602277
 20
-120.5111626217819
 10
106.3115125602277
 20
-120.4794677433176
 10
106.3028998215146
 20
-120.3840385983762
 10
106.3028998215146
 20
-120.3840385983762
 10
106.544056505482
 20
-120.416077986389
 10
106.544056505482
 20
-120.416077986389
 10
106.5609374733598
 20
-120.4181450436802
 10
106.5757513839463
 20
-120.4284803301359
 10
106.5757513839463
 20
-120.4477728648533
 10
106.5757513839463
 20
-120.4646538327311
 10
106.5757513839463
 20
-120.4646538327311
 10
106.4996147737223
 20
-120.4963487111954
 10
106.4996147737223
 20
-120.4963487111954
 10
106.4996147737223
 20
-120.6971977779854
 10
106.4996147737223
 20
-120.6971977779854
 10
106.4996147737223
 20
-120.6971977779854
 10
106.4996147737223
 20
-120.7840141842137
 10
106.4996147737223
 20
-120.7840141842137
 10
106.5082275124355
 20
-120.7840141842137
 10
106.7366373431075
 20
-120.7819471269226
 10
106.9037244741421
 20
-120.767133216336
 10
106.9037244741421
 20
-120.767133216336
 10
106.9037244741421
 20
-120.974527964548
 10
106.9037244741421
 20
-120.974527964548
 10
106.7790120175761
 20
-120.9617811112526
 10
106.7300916616855
 20
-120.9617811112526
 10
106.4996147737223
 20
-120.9552354298306
 10
106.4996147737223
 20
-120.9552354298306
 10
106.4996147737223
 20
-121.2473795269798
 10
106.4996147737223
 20
-121.2473795269798
 10
106.4996147737223
 20
-121.2473795269798
 10
106.599178033246
 20
-121.2473795269798
 10
106.599178033246
 20
-121.2473795269798
 10
106.7300916616855
 20
-121.2473795269798
 10
106.8592827423824
 20
-121.2432454123975
 10
106.9884738230793
 20
-121.228431501811
 10
106.9884738230793
 20
-121.228431501811
 10
106.9884738230793
 20
-121.4375487977656
 10
106.9884738230793
 20
-121.4375487977656
 10
106.8296549212093
 20
-121.4206678298879
 10
106.6391411408749
 20
-121.4186007725967
 10
106.5905652945329
 20
-121.4186007725967
 10
106.6370740835838
 20
-121.6556233419819
 10
106.9419650340284
 20
-121.9009141405317
 10
107.1066405982234
 20
-121.9835964321777
 10
107.1066405982234
 20
-121.9835964321777
 10
106.922672499311
 20
-122.118988684748
 10
106.922672499311
 20
-122.118988684748
 97
        0
 97
        0
 92
        1
 93
        1
 72
     4
 94
        3
 73
     0
 74
     1
 95
       17
 96
       13
 40
0.0
 40
0.0
 40
0.0
 40
0.0
 40
1.0
 40
1.0
 40
1.0
 40
2.0
 40
2.0
 40
2.0
 40
3.0
 40
3.0
 40
3.0
 40
4.0
 40
4.0
 40
4.0
 40
4.0
 10
105.4250894918729
 20
-121.1119872744095
 10
105.3847818746955
 20
-121.2156846485155
 10
105.3592881681046
 20
-121.2601263802753
 10
105.3444742575181
 20
-121.2873426346087
 10
105.4144096958686
 20
-121.3403971050816
 10
105.4185438104509
 20
-121.3445312196639
 10
105.5370550951435
 20
-121.456841332483
 10
105.570817030899
 20
-121.3593451302504
 10
105.6028564189118
 20
-121.194325056507
 10
105.6069905334941
 20
-121.1119872744095
 10
105.6069905334941
 20
-121.1119872744095
 10
105.4250894918729
 20
-121.1119872744095
 10
105.4250894918729
 20
-121.1119872744095
 97
        0
 97
        0
 75
     2
 76
     1
 98
        0
  0
SPLINE
  5
F2
330
E7
100
AcDbEntity
  8
_U+30EC_U+30A4_U+30E4_U+30FC 1
370
     0
100
AcDbSpline
210
0.0
220
0.0
230
1.0
 70
    11
 71
     3
 72
   191
 73
   187
 74
     0
 42
0.0000000001
 43
0.0000000001
 12
1.0
 22
0.0
 32
0.0
 13
1.0
 23
0.0
 33
0.0
 40
0.0
 40
0.0
 40
0.0
 40
0.0
 40
1.0
 40
1.0
 40
1.0
 40
2.0
 40
2.0
 40
2.0
 40
3.0
 40
3.0
 40
3.0
 40
4.0
 40
4.0
 40
4.0
 40
5.0
 40
5.0
 40
5.0
 40
6.0
 40
6.0
 40
6.0
 40
7.0
 40
7.0
 40
7.0
 40
8.0
 40
8.0
 40
8.0
 40
9.0
 40
9.0
 40
9.0
 40
10.0
 40
10.0
 40
10.0
 40
11.0
 40
11.0
 40
11.0
 40
12.0
 40
12.0
 40
12.0
 40
13.0
 40
13.0
 40
13.0
 40
14.0
 40
14.0
 40
14.0
 40
15.0
 40
15.0
 40
15.0
 40
16.0
 40
16.0
 40
16.0
 40
17.0
 40
17.0
 40
17.0
 40
18.0
 40
18.0
 40
18.0
 40
19.0
 40
19.0
 40
19.0
 40
20.0
 40
20.0
 40
20.0
 40
21.0
 40
21.0
 40
21.0
 40
22.0
 40
22.0
 40
22.0
 40
23.0
 40
23.0
 40
23.0
 40
24.0
 40
24.0
 40
24.0
 40
25.0
 40
25.0
 40
25.0
 40
26.0
 40
26.0
 40
26.0
 40
27.0
 40
27.0
 40
27.0
 40
28.0
 40
28.0
 40
28.0
 40
29.0
 40
29.0
 40
29.0
 40
30.0
 40
30.0
 40
30.0
 40
31.0
 40
31.0
 40
31.0
 40
32.0
 40
32.0
 40
32.0
 40
33.0
 40
33.0
 40
33.0
 40
34.0
 40
34.0
 40
34.0
 40
35.0
 40
35.0
 40
35.0
 40
36.0
 40
36.0
 40
36.0
 40
37.0
 40
37.0
 40
37.0
 40
38.0
 40
38.0
 40
38.0
 40
39.0
 40
39.0
 40
39.0
 40
40.0
 40
40.0
 40
40.0
 40
41.0
 40
41.0
 40
41.0
 40
42.0
 40
42.0
 40
42.0
 40
43.0
 40
43.0
 40
43.0
 40
44.0
 40
44.0
 40
44.0
 40
45.0
 40
45.0
 40
45.0
 40
46.0
 40
46.0
 40
46.0
 40
47.0
 40
47.0
 40
47.0
 40
48.0
 40
48.0
 40
48.0
 40
49.0
 40
49.0
 40
49.0
 40
50.0
 40
50.0
 40
50.0
 40
51.0
 40
51.0
 40
51.0
 40
52.0
 40
52.0
 40
52.0
 40
53.0
 40
53.0
 40
53.0
 40
54.0
 40
54.0
 40
54.0
 40
55.0
 40
55.0
 40
55.0
 40
56.0
 40
56.0
 40
56.0
 40
57.0
 40
57.0
 40
57.0
 40
58.0
 40
58.0
 40
58.0
 40
59.0
 40
59.0
 40
59.0
 40
60.0
 40
60.0
 40
60.0
 40
61.0
 40
61.0
 40
61.0
 40
62.0
 40
62.0
 40
62.0
 40
62.0
 10
108.9697482366465
 20
-122.2647162237741
 30
0.0
 10
108.8553710665362
 20
-122.2647162237741
 30
0.0
 10
108.770621717599
 20
-122.1169216274569
 30
0.0
 10
108.7137776420924
 20
-121.9856634894689
 30
0.0
 10
108.6035345865644
 20
-121.7403726909191
 30
0.0
 10
108.5656385362267
 20
-121.5116183506985
 30
0.0
 10
108.5442789442181
 20
-121.2432454123975
 30
0.0
 10
108.5442789442181
 20
-121.2432454123975
 30
0.0
 10
108.2841742350817
 20
-121.2432454123975
 30
0.0
 10
108.2841742350817
 20
-121.2432454123975
 30
0.0
 10
108.2841742350817
 20
-121.2432454123975
 30
0.0
 10
108.2841742350817
 20
-121.9539686110046
 30
0.0
 10
108.2841742350817
 20
-121.9539686110046
 30
0.0
 10
108.3138020562549
 20
-121.9432888150003
 30
0.0
 10
108.4491943088252
 20
-121.8926459113671
 30
0.0
 10
108.4767550727072
 20
-121.8819661153628
 30
0.0
 10
108.5739067653913
 20
-121.8482041796074
 30
0.0
 10
108.5845865613955
 20
-121.8437255554766
 30
0.0
 10
108.6290282931552
 20
-121.8227104730166
 30
0.0
 10
108.6290282931552
 20
-121.8227104730166
 30
0.0
 10
108.5825195041044
 20
-122.0132242533509
 30
0.0
 10
108.5825195041044
 20
-122.0132242533509
 30
0.0
 10
108.3751247558923
 20
-122.1169216274569
 30
0.0
 10
108.2417995606132
 20
-122.1696315883812
 30
0.0
 10
108.0726453722874
 20
-122.2309542880187
 30
0.0
 10
108.0705783149963
 20
-122.2499023131875
 30
0.0
 10
108.0619655762831
 20
-122.2819417012004
 30
0.0
 10
108.0368163792408
 20
-122.2819417012004
 30
0.0
 10
108.0302706978188
 20
-122.2819417012004
 30
0.0
 10
108.0195909018146
 20
-122.2795301343607
 30
0.0
 10
108.01132267265
 20
-122.2585150519007
 30
0.0
 10
108.01132267265
 20
-122.2585150519007
 30
0.0
 10
107.928640381004
 20
-122.0555989278194
 30
0.0
 10
107.928640381004
 20
-122.0555989278194
 30
0.0
 10
107.9582682021771
 20
-122.0490532463975
 30
0.0
 10
107.9923746474811
 20
-122.0449191318152
 30
0.0
 10
108.0960720215871
 20
-122.015291310642
 30
0.0
 10
108.0960720215871
 20
-122.015291310642
 30
0.0
 10
108.0960720215871
 20
-121.4251464540187
 30
0.0
 10
108.0960720215871
 20
-121.4251464540187
 30
0.0
 10
108.0960720215871
 20
-121.4251464540187
 30
0.0
 10
107.9245062664217
 20
-121.5202310894116
 30
0.0
 10
107.9245062664217
 20
-121.5202310894116
 30
0.0
 10
107.8990125598308
 20
-121.4375487977656
 30
0.0
 10
107.8969455025397
 20
-121.4272135113099
 30
0.0
 10
107.8841986492442
 20
-121.3975856901367
 30
0.0
 10
107.8314886883199
 20
-121.4058539193013
 30
0.0
 10
107.8208088923156
 20
-121.4079209765925
 30
0.0
 10
107.7215901423404
 20
-121.422734887179
 30
0.0
 10
107.7215901423404
 20
-121.422734887179
 30
0.0
 10
107.7215901423404
 20
-121.80789656243
 30
0.0
 10
107.7215901423404
 20
-121.80789656243
 30
0.0
 10
107.7215901423404
 20
-121.863018090194
 30
0.0
 10
107.7384711102182
 20
-122.2268201734364
 30
0.0
 10
107.7426052248005
 20
-122.2922769876561
 30
0.0
 10
107.7426052248005
 20
-122.2922769876561
 30
0.0
 10
107.5396891007192
 20
-122.2922769876561
 30
0.0
 10
107.5396891007192
 20
-122.2922769876561
 30
0.0
 10
107.5438232153015
 20
-122.2033935241367
 30
0.0
 10
107.5520914444661
 20
-121.9009141405317
 30
0.0
 10
107.5520914444661
 20
-121.8099636197211
 30
0.0
 10
107.5520914444661
 20
-121.8099636197211
 30
0.0
 10
107.5520914444661
 20
-121.4461615364787
 30
0.0
 10
107.5520914444661
 20
-121.4461615364787
 30
0.0
 10
107.4590738663644
 20
-121.4589083897742
 30
0.0
 10
107.4442599557778
 20
-121.4609754470653
 30
0.0
 10
107.3026665313341
 20
-121.4819905295253
 30
0.0
 10
107.3005994740429
 20
-121.4926703255296
 30
0.0
 10
107.2919867353298
 20
-121.5222981467028
 30
0.0
 10
107.2730387101609
 20
-121.5222981467028
 30
0.0
 10
107.2561577422832
 20
-121.5222981467028
 30
0.0
 10
107.2516791181524
 20
-121.5033501215339
 30
0.0
 10
107.2475450035701
 20
-121.4906032682385
 30
0.0
 10
107.2475450035701
 20
-121.4906032682385
 30
0.0
 10
107.2096489532323
 20
-121.298022430613
 30
0.0
 10
107.2096489532323
 20
-121.298022430613
 30
0.0
 10
107.2413438316966
 20
-121.298022430613
 30
0.0
 10
107.3788031415581
 20
-121.2852755773176
 30
0.0
 10
107.4063639054401
 20
-121.2832085200264
 30
0.0
 10
107.4887016875376
 20
-121.1860568273424
 30
0.0
 10
107.5331434192973
 20
-121.1309352995784
 30
0.0
 10
107.556570068597
 20
-121.0992404211141
 30
0.0
 10
107.5121283368373
 20
-121.0506645747721
 30
0.0
 10
107.4421928984867
 20
-120.9700493404172
 30
0.0
 10
107.4211778160267
 20
-120.9511013152483
 30
0.0
 10
107.3894829375624
 20
-120.9214734940752
 30
0.0
 10
107.2961208499121
 20
-120.8412027692689
 30
0.0
 10
107.1924234758061
 20
-120.7754014455006
 30
0.0
 10
107.1924234758061
 20
-120.7754014455006
 30
0.0
 10
107.3216145565029
 20
-120.6465548743523
 30
0.0
 10
107.3216145565029
 20
-120.6465548743523
 30
0.0
 10
107.3619221736804
 20
-120.6720485809431
 30
0.0
 10
107.4018852813093
 20
-120.6992648352766
 30
0.0
 10
107.4401258411955
 20
-120.7268255991586
 30
0.0
 10
107.550024387175
 20
-120.5490586721197
 30
0.0
 10
107.5903320043524
 20
-120.4581081513091
 30
0.0
 10
107.626160997399
 20
-120.3482096053296
 30
0.0
 10
107.626160997399
 20
-120.3482096053296
 30
0.0
 10
107.8166747777333
 20
-120.4308918969756
 30
0.0
 10
107.8166747777333
 20
-120.4308918969756
 30
0.0
 10
107.8376898601934
 20
-120.4391601261402
 30
0.0
 10
107.8463025989065
 20
-120.4477728648533
 30
0.0
 10
107.8463025989065
 20
-120.4601752086002
 30
0.0
 10
107.8463025989065
 20
-120.4836018578999
 30
0.0
 10
107.8252875164465
 20
-120.4877359724822
 30
0.0
 10
107.7911810711425
 20
-120.4898030297734
 30
0.0
 10
107.7594861926782
 20
-120.5514702389594
 30
0.0
 10
107.6771484105807
 20
-120.6992648352766
 30
0.0
 10
107.5796522083482
 20
-120.8370686546866
 30
0.0
 10
107.6178927682344
 20
-120.8749647050243
 30
0.0
 10
107.6409749079856
 20
-120.9025254689063
 30
0.0
 10
107.6685356718676
 20
-120.9342203473706
 30
0.0
 10
107.757419135387
 20
-120.7988280948003
 30
0.0
 10
107.7932481284336
 20
-120.7333712805806
 30
0.0
 10
107.8314886883199
 20
-120.6465548743523
 30
0.0
 10
107.8314886883199
 20
-120.6465548743523
 30
0.0
 10
108.0092556153588
 20
-120.7333712805806
 30
0.0
 10
108.0092556153588
 20
-120.7333712805806
 30
0.0
 10
108.0175238445234
 20
-120.7375053951629
 30
0.0
 10
108.0302706978188
 20
-120.7481851911671
 30
0.0
 10
108.0302706978188
 20
-120.760587534914
 30
0.0
 10
108.0302706978188
 20
-120.788148298796
 30
0.0
 10
107.9965087620634
 20
-120.7902153560872
 30
0.0
 10
107.9668809408902
 20
-120.7926269229268
 30
0.0
 10
107.9014241266705
 20
-120.9107936980709
 30
0.0
 10
107.7808457846867
 20
-121.0782253386541
 30
0.0
 10
107.7488063966739
 20
-121.1223225608653
 30
0.0
 10
107.7488063966739
 20
-121.1223225608653
 30
0.0
 10
107.8969455025397
 20
-121.0609998612278
 30
0.0
 10
107.8969455025397
 20
-121.0609998612278
 30
0.0
 10
107.9689479981814
 20
-121.1478162674561
 30
0.0
 10
108.0619655762831
 20
-121.3128363411996
 30
0.0
 10
108.0960720215871
 20
-121.4123996007233
 30
0.0
 10
108.0960720215871
 20
-121.4123996007233
 30
0.0
 10
108.0960720215871
 20
-120.8008951520914
 30
0.0
 10
108.0960720215871
 20
-120.8008951520914
 30
0.0
 10
108.0960720215871
 20
-120.7333712805806
 30
0.0
 10
108.0915933974563
 20
-120.5786864932928
 30
0.0
 10
108.0812581110005
 20
-120.5111626217819
 30
0.0
 10
108.1191541613383
 20
-120.5173637936554
 30
0.0
 10
108.1825439182669
 20
-120.5259765323685
 30
0.0
 10
108.246278184744
 20
-120.5259765323685
 30
0.0
 10
108.3541096734323
 20
-120.5259765323685
 30
0.0
 10
108.6438422037418
 20
-120.4667208900222
 30
0.0
 10
108.8446912705319
 20
-120.3568223440427
 30
0.0
 10
108.8446912705319
 20
-120.3568223440427
 30
0.0
 10
109.0162570256973
 20
-120.4877359724822
 30
0.0
 10
109.0162570256973
 20
-120.4877359724822
 30
0.0
 10
109.0265923121531
 20
-120.4942816539042
 30
0.0
 10
109.0331379935751
 20
-120.50461694036
 30
0.0
 10
109.0331379935751
 20
-120.5152967363642
 30
0.0
 10
109.0331379935751
 20
-120.5449245575374
 30
0.0
 10
108.984562147233
 20
-120.5387233856639
 30
0.0
 10
108.957001383351
 20
-120.5366563283728
 30
0.0
 10
108.9039469128782
 20
-120.5556043535417
 30
0.0
 10
108.8298773599453
 20
-120.5831651174237
 30
0.0
 10
108.7389268391347
 20
-120.6127929385968
 30
0.0
 10
108.728591552679
 20
-120.7099446312808
 30
0.0
 10
108.7241129285481
 20
-120.8074408335134
 30
0.0
 10
108.7241129285481
 20
-120.9066595834886
 30
0.0
 10
108.7241129285481
 20
-120.9807291364215
 30
0.0
 10
108.7261799858393
 20
-121.0272379254724
 30
0.0
 10
108.728591552679
 20
-121.0737467145232
 30
0.0
 10
108.8595051811185
 20
-121.0737467145232
 30
0.0
 10
108.9549343260599
 20
-121.0716796572321
 30
0.0
 10
109.1323567435502
 20
-121.0527316320632
 30
0.0
 10
109.1323567435502
 20
-121.0527316320632
 30
0.0
 10
109.1323567435502
 20
-121.2535806988533
 30
0.0
 10
109.1323567435502
 20
-121.2535806988533
 30
0.0
 10
109.060698757457
 20
-121.2515136415621
 30
0.0
 10
108.7685546603079
 20
-121.2432454123975
 30
0.0
 10
108.7389268391347
 20
-121.2432454123975
 30
0.0
 10
108.7537407497213
 20
-121.4272135113099
 30
0.0
 10
108.7813015136033
 20
-121.6091145529311
 30
0.0
 10
108.8446912705319
 20
-121.7824028558391
 30
0.0
 10
108.8660508625404
 20
-121.8437255554766
 30
0.0
 10
108.9104925943002
 20
-121.9643038974603
 30
0.0
 10
108.9549343260599
 20
-121.9643038974603
 30
0.0
 10
109.0035101724019
 20
-121.9643038974603
 30
0.0
 10
109.0352050508662
 20
-121.7910155945522
 30
0.0
 10
109.0458848468705
 20
-121.7338270094971
 30
0.0
 10
109.0458848468705
 20
-121.7338270094971
 30
0.0
 10
109.1833441567319
 20
-121.8967800259494
 30
0.0
 10
109.1833441567319
 20
-121.8967800259494
 30
0.0
 10
109.17679847531
 20
-121.939154700418
 30
0.0
 10
109.1220214570945
 20
-122.2647162237741
 30
0.0
 10
108.9697482366465
 20
-122.2647162237741
 30
0.0
  0
SPLINE
  5
F3
330
E7
100
AcDbEntity
  8
_U+30EC_U+30A4_U+30E4_U+30FC 1
370
     0
100
AcDbSpline
210
0.0
220
0.0
230
1.0
 70
    11
 71
     3
 72
    26
 73
    22
 74
     0
 42
0.0000000001
 43
0.0000000001
 12
1.0
 22
0.0
 32
0.0
 13
1.0
 23
0.0
 33
0.0
 40
0.0
 40
0.0
 40
0.0
 40
0.0
 40
1.0
 40
1.0
 40
1.0
 40
2.0
 40
2.0
 40
2.0
 40
3.0
 40
3.0
 40
3.0
 40
4.0
 40
4.0
 40
4.0
 40
5.0
 40
5.0
 40
5.0
 40
6.0
 40
6.0
 40
6.0
 40
7.0
 40
7.0
 40
7.0
 40
7.0
 10
107.4825005156641
 20
-121.6787054817331
 30
0.0
 10
107.4825005156641
 20
-121.7083333029063
 30
0.0
 10
107.4780218915333
 20
-121.9939317186335
 30
0.0
 10
107.4166991918958
 20
-122.1400037672081
 30
0.0
 10
107.4166991918958
 20
-122.1400037672081
 30
0.0
 10
107.2220512969792
 20
-122.1083088887438
 30
0.0
 10
107.2220512969792
 20
-122.1083088887438
 30
0.0
 10
107.2496120608612
 20
-122.042852074524
 30
0.0
 10
107.2878526207475
 20
-121.9519015537134
 30
0.0
 10
107.2985324167518
 20
-121.8037624478477
 30
0.0
 10
107.3047335886252
 20
-121.7338270094971
 30
0.0
 10
107.3068006459164
 20
-121.6597574565642
 30
0.0
 10
107.3026665313341
 20
-121.5901665277622
 30
0.0
 10
107.3026665313341
 20
-121.5901665277622
 30
0.0
 10
107.4887016875376
 20
-121.6111816102222
 30
0.0
 10
107.4887016875376
 20
-121.6111816102222
 30
0.0
 10
107.4973144262507
 20
-121.6132486675134
 30
0.0
 10
107.5183295087107
 20
-121.6153157248045
 30
0.0
 10
107.5183295087107
 20
-121.6346082595219
 30
0.0
 10
107.5183295087107
 20
-121.6556233419819
 30
0.0
 10
107.4973144262507
 20
-121.6704372525685
 30
0.0
 10
107.4825005156641
 20
-121.6787054817331
 30
0.0
  0
SPLINE
  5
F4
330
E7
100
AcDbEntity
  8
_U+30EC_U+30A4_U+30E4_U+30FC 1
370
     0
100
AcDbSpline
210
0.0
220
0.0
230
1.0
 70
    11
 71
     3
 72
    14
 73
    10
 74
     0
 42
0.0000000001
 43
0.0000000001
 12
1.0
 22
0.0
 32
0.0
 13
1.0
 23
0.0
 33
0.0
 40
0.0
 40
0.0
 40
0.0
 40
0.0
 40
1.0
 40
1.0
 40
1.0
 40
2.0
 40
2.0
 40
2.0
 40
3.0
 40
3.0
 40
3.0
 40
3.0
 10
107.7426052248005
 20
-121.1309352995784
 30
0.0
 10
107.708843289045
 20
-121.1774440886293
 30
0.0
 10
107.6750813532896
 20
-121.221885820389
 30
0.0
 10
107.6389078506945
 20
-121.2642604948576
 30
0.0
 10
107.6664686145764
 20
-121.2621934375664
 30
0.0
 10
107.7870469565602
 20
-121.249446584271
 30
0.0
 10
107.812540663151
 20
-121.249446584271
 30
0.0
 10
107.7722330459736
 20
-121.173309974047
 30
0.0
 10
107.7594861926782
 20
-121.1564290061692
 30
0.0
 10
107.7426052248005
 20
-121.1309352995784
 30
0.0
  0
SPLINE
  5
F5
330
E7
100
AcDbEntity
  8
_U+30EC_U+30A4_U+30E4_U+30FC 1
370
     0
100
AcDbSpline
210
0.0
220
0.0
230
1.0
 70
    11
 71
     3
 72
    17
 73
    13
 74
     0
 42
0.0000000001
 43
0.0000000001
 12
1.0
 22
0.0
 32
0.0
 13
1.0
 23
0.0
 33
0.0
 40
0.0
 40
0.0
 40
0.0
 40
0.0
 40
1.0
 40
1.0
 40
1.0
 40
2.0
 40
2.0
 40
2.0
 40
3.0
 40
3.0
 40
3.0
 40
4.0
 40
4.0
 40
4.0
 40
4.0
 10
107.8611165094931
 20
-122.0173583679332
 30
0.0
 10
107.8545708280711
 20
-121.939154700418
 30
0.0
 10
107.8208088923156
 20
-121.752775034666
 30
0.0
 10
107.7467393393828
 20
-121.5984347569268
 30
0.0
 10
107.7467393393828
 20
-121.5984347569268
 30
0.0
 10
107.8948784452485
 20
-121.5433132291628
 30
0.0
 10
107.8948784452485
 20
-121.5433132291628
 30
0.0
 10
107.9520670303037
 20
-121.6280625780999
 30
0.0
 10
108.0282036405277
 20
-121.8165093011431
 30
0.0
 10
108.0344048124011
 20
-121.9474229295826
 30
0.0
 10
108.0344048124011
 20
-121.9474229295826
 30
0.0
 10
107.8611165094931
 20
-122.0173583679332
 30
0.0
 10
107.8611165094931
 20
-122.0173583679332
 30
0.0
  0
SPLINE
  5
F6
330
E7
100
AcDbEntity
  8
_U+30EC_U+30A4_U+30E4_U+30FC 1
370
     0
100
AcDbSpline
210
0.0
220
0.0
230
1.0
 70
    11
 71
     3
 72
    17
 73
    13
 74
     0
 42
0.0000000001
 43
0.0000000001
 12
1.0
 22
0.0
 32
0.0
 13
1.0
 23
0.0
 33
0.0
 40
0.0
 40
0.0
 40
0.0
 40
0.0
 40
1.0
 40
1.0
 40
1.0
 40
2.0
 40
2.0
 40
2.0
 40
3.0
 40
3.0
 40
3.0
 40
4.0
 40
4.0
 40
4.0
 40
4.0
 10
108.2841742350817
 20
-120.7058105166985
 30
0.0
 10
108.2841742350817
 20
-120.7058105166985
 30
0.0
 10
108.2841742350817
 20
-121.0737467145232
 30
0.0
 10
108.2841742350817
 20
-121.0737467145232
 30
0.0
 10
108.2841742350817
 20
-121.0737467145232
 30
0.0
 10
108.5360107150535
 20
-121.0737467145232
 30
0.0
 10
108.5360107150535
 20
-121.0737467145232
 30
0.0
 10
108.5360107150535
 20
-121.0210367535989
 30
0.0
 10
108.5318766004712
 20
-120.8370686546866
 30
0.0
 10
108.5422118869269
 20
-120.6675699568123
 30
0.0
 10
108.4302462836563
 20
-120.690996606112
 30
0.0
 10
108.3623779025969
 20
-120.7016764021162
 30
0.0
 10
108.2841742350817
 20
-120.7058105166985
 30
0.0
  0
HATCH
  5
F7
330
E7
100
AcDbEntity
  8
_U+30EC_U+30A4_U+30E4_U+30FC 1
 62
   179
420
  2234388
100
AcDbHatch
 10
0.0
 20
0.0
 30
0.0
210
0.0
220
0.0
230
1.0
  2
SOLID
 70
     1
 71
     0
 91
        5
 92
        1
 93
        1
 72
     4
 94
        3
 73
     0
 74
     1
 95
      191
 96
      187
 40
0.0
 40
0.0
 40
0.0
 40
0.0
 40
1.0
 40
1.0
 40
1.0
 40
2.0
 40
2.0
 40
2.0
 40
3.0
 40
3.0
 40
3.0
 40
4.0
 40
4.0
 40
4.0
 40
5.0
 40
5.0
 40
5.0
 40
6.0
 40
6.0
 40
6.0
 40
7.0
 40
7.0
 40
7.0
 40
8.0
 40
8.0
 40
8.0
 40
9.0
 40
9.0
 40
9.0
 40
10.0
 40
10.0
 40
10.0
 40
11.0
 40
11.0
 40
11.0
 40
12.0
 40
12.0
 40
12.0
 40
13.0
 40
13.0
 40
13.0
 40
14.0
 40
14.0
 40
14.0
 40
15.0
 40
15.0
 40
15.0
 40
16.0
 40
16.0
 40
16.0
 40
17.0
 40
17.0
 40
17.0
 40
18.0
 40
18.0
 40
18.0
 40
19.0
 40
19.0
 40
19.0
 40
20.0
 40
20.0
 40
20.0
 40
21.0
 40
21.0
 40
21.0
 40
22.0
 40
22.0
 40
22.0
 40
23.0
 40
23.0
 40
23.0
 40
24.0
 40
24.0
 40
24.0
 40
25.0
 40
25.0
 40
25.0
 40
26.0
 40
26.0
 40
26.0
 40
27.0
 40
27.0
 40
27.0
 40
28.0
 40
28.0
 40
28.0
 40
29.0
 40
29.0
 40
29.0
 40
30.0
 40
30.0
 40
30.0
 40
31.0
 40
31.0
 40
31.0
 40
32.0
 40
32.0
 40
32.0
 40
33.0
 40
33.0
 40
33.0
 40
34.0
 40
34.0
 40
34.0
 40
35.0
 40
35.0
 40
35.0
 40
36.0
 40
36.0
 40
36.0
 40
37.0
 40
37.0
 40
37.0
 40
38.0
 40
38.0
 40
38.0
 40
39.0
 40
39.0
 40
39.0
 40
40.0
 40
40.0
 40
40.0
 40
41.0
 40
41.0
 40
41.0
 40
42.0
 40
42.0
 40
42.0
 40
43.0
 40
43.0
 40
43.0
 40
44.0
 40
44.0
 40
44.0
 40
45.0
 40
45.0
 40
45.0
 40
46.0
 40
46.0
 40
46.0
 40
47.0
 40
47.0
 40
47.0
 40
48.0
 40
48.0
 40
48.0
 40
49.0
 40
49.0
 40
49.0
 40
50.0
 40
50.0
 40
50.0
 40
51.0
 40
51.0
 40
51.0
 40
52.0
 40
52.0
 40
52.0
 40
53.0
 40
53.0
 40
53.0
 40
54.0
 40
54.0
 40
54.0
 40
55.0
 40
55.0
 40
55.0
 40
56.0
 40
56.0
 40
56.0
 40
57.0
 40
57.0
 40
57.0
 40
58.0
 40
58.0
 40
58.0
 40
59.0
 40
59.0
 40
59.0
 40
60.0
 40
60.0
 40
60.0
 40
61.0
 40
61.0
 40
61.0
 40
62.0
 40
62.0
 40
62.0
 40
62.0
 10
108.9697482366465
 20
-122.2647162237741
 10
108.8553710665362
 20
-122.2647162237741
 10
108.770621717599
 20
-122.1169216274569
 10
108.7137776420924
 20
-121.9856634894689
 10
108.6035345865644
 20
-121.7403726909191
 10
108.5656385362267
 20
-121.5116183506985
 10
108.5442789442181
 20
-121.2432454123975
 10
108.5442789442181
 20
-121.2432454123975
 10
108.2841742350817
 20
-121.2432454123975
 10
108.2841742350817
 20
-121.2432454123975
 10
108.2841742350817
 20
-121.2432454123975
 10
108.2841742350817
 20
-121.9539686110046
 10
108.2841742350817
 20
-121.9539686110046
 10
108.3138020562549
 20
-121.9432888150003
 10
108.4491943088252
 20
-121.8926459113671
 10
108.4767550727072
 20
-121.8819661153628
 10
108.5739067653913
 20
-121.8482041796074
 10
108.5845865613955
 20
-121.8437255554766
 10
108.6290282931552
 20
-121.8227104730166
 10
108.6290282931552
 20
-121.8227104730166
 10
108.5825195041044
 20
-122.0132242533509
 10
108.5825195041044
 20
-122.0132242533509
 10
108.3751247558923
 20
-122.1169216274569
 10
108.2417995606132
 20
-122.1696315883812
 10
108.0726453722874
 20
-122.2309542880187
 10
108.0705783149963
 20
-122.2499023131875
 10
108.0619655762831
 20
-122.2819417012004
 10
108.0368163792408
 20
-122.2819417012004
 10
108.0302706978188
 20
-122.2819417012004
 10
108.0195909018146
 20
-122.2795301343607
 10
108.01132267265
 20
-122.2585150519007
 10
108.01132267265
 20
-122.2585150519007
 10
107.928640381004
 20
-122.0555989278194
 10
107.928640381004
 20
-122.0555989278194
 10
107.9582682021771
 20
-122.0490532463975
 10
107.9923746474811
 20
-122.0449191318152
 10
108.0960720215871
 20
-122.015291310642
 10
108.0960720215871
 20
-122.015291310642
 10
108.0960720215871
 20
-121.4251464540187
 10
108.0960720215871
 20
-121.4251464540187
 10
108.0960720215871
 20
-121.4251464540187
 10
107.9245062664217
 20
-121.5202310894116
 10
107.9245062664217
 20
-121.5202310894116
 10
107.8990125598308
 20
-121.4375487977656
 10
107.8969455025397
 20
-121.4272135113099
 10
107.8841986492442
 20
-121.3975856901367
 10
107.8314886883199
 20
-121.4058539193013
 10
107.8208088923156
 20
-121.4079209765925
 10
107.7215901423404
 20
-121.422734887179
 10
107.7215901423404
 20
-121.422734887179
 10
107.7215901423404
 20
-121.80789656243
 10
107.7215901423404
 20
-121.80789656243
 10
107.7215901423404
 20
-121.863018090194
 10
107.7384711102182
 20
-122.2268201734364
 10
107.7426052248005
 20
-122.2922769876561
 10
107.7426052248005
 20
-122.2922769876561
 10
107.5396891007192
 20
-122.2922769876561
 10
107.5396891007192
 20
-122.2922769876561
 10
107.5438232153015
 20
-122.2033935241367
 10
107.5520914444661
 20
-121.9009141405317
 10
107.5520914444661
 20
-121.8099636197211
 10
107.5520914444661
 20
-121.8099636197211
 10
107.5520914444661
 20
-121.4461615364787
 10
107.5520914444661
 20
-121.4461615364787
 10
107.4590738663644
 20
-121.4589083897742
 10
107.4442599557778
 20
-121.4609754470653
 10
107.3026665313341
 20
-121.4819905295253
 10
107.3005994740429
 20
-121.4926703255296
 10
107.2919867353298
 20
-121.5222981467028
 10
107.2730387101609
 20
-121.5222981467028
 10
107.2561577422832
 20
-121.5222981467028
 10
107.2516791181524
 20
-121.5033501215339
 10
107.2475450035701
 20
-121.4906032682385
 10
107.2475450035701
 20
-121.4906032682385
 10
107.2096489532323
 20
-121.298022430613
 10
107.2096489532323
 20
-121.298022430613
 10
107.2413438316966
 20
-121.298022430613
 10
107.3788031415581
 20
-121.2852755773176
 10
107.4063639054401
 20
-121.2832085200264
 10
107.4887016875376
 20
-121.1860568273424
 10
107.5331434192973
 20
-121.1309352995784
 10
107.556570068597
 20
-121.0992404211141
 10
107.5121283368373
 20
-121.0506645747721
 10
107.4421928984867
 20
-120.9700493404172
 10
107.4211778160267
 20
-120.9511013152483
 10
107.3894829375624
 20
-120.9214734940752
 10
107.2961208499121
 20
-120.8412027692689
 10
107.1924234758061
 20
-120.7754014455006
 10
107.1924234758061
 20
-120.7754014455006
 10
107.3216145565029
 20
-120.6465548743523
 10
107.3216145565029
 20
-120.6465548743523
 10
107.3619221736804
 20
-120.6720485809431
 10
107.4018852813093
 20
-120.6992648352766
 10
107.4401258411955
 20
-120.7268255991586
 10
107.550024387175
 20
-120.5490586721197
 10
107.5903320043524
 20
-120.4581081513091
 10
107.626160997399
 20
-120.3482096053296
 10
107.626160997399
 20
-120.3482096053296
 10
107.8166747777333
 20
-120.4308918969756
 10
107.8166747777333
 20
-120.4308918969756
 10
107.8376898601934
 20
-120.4391601261402
 10
107.8463025989065
 20
-120.4477728648533
 10
107.8463025989065
 20
-120.4601752086002
 10
107.8463025989065
 20
-120.4836018578999
 10
107.8252875164465
 20
-120.4877359724822
 10
107.7911810711425
 20
-120.4898030297734
 10
107.7594861926782
 20
-120.5514702389594
 10
107.6771484105807
 20
-120.6992648352766
 10
107.5796522083482
 20
-120.8370686546866
 10
107.6178927682344
 20
-120.8749647050243
 10
107.6409749079856
 20
-120.9025254689063
 10
107.6685356718676
 20
-120.9342203473706
 10
107.757419135387
 20
-120.7988280948003
 10
107.7932481284336
 20
-120.7333712805806
 10
107.8314886883199
 20
-120.6465548743523
 10
107.8314886883199
 20
-120.6465548743523
 10
108.0092556153588
 20
-120.7333712805806
 10
108.0092556153588
 20
-120.7333712805806
 10
108.0175238445234
 20
-120.7375053951629
 10
108.0302706978188
 20
-120.7481851911671
 10
108.0302706978188
 20
-120.760587534914
 10
108.0302706978188
 20
-120.788148298796
 10
107.9965087620634
 20
-120.7902153560872
 10
107.9668809408902
 20
-120.7926269229268
 10
107.9014241266705
 20
-120.9107936980709
 10
107.7808457846867
 20
-121.0782253386541
 10
107.7488063966739
 20
-121.1223225608653
 10
107.7488063966739
 20
-121.1223225608653
 10
107.8969455025397
 20
-121.0609998612278
 10
107.8969455025397
 20
-121.0609998612278
 10
107.9689479981814
 20
-121.1478162674561
 10
108.0619655762831
 20
-121.3128363411996
 10
108.0960720215871
 20
-121.4123996007233
 10
108.0960720215871
 20
-121.4123996007233
 10
108.0960720215871
 20
-120.8008951520914
 10
108.0960720215871
 20
-120.8008951520914
 10
108.0960720215871
 20
-120.7333712805806
 10
108.0915933974563
 20
-120.5786864932928
 10
108.0812581110005
 20
-120.5111626217819
 10
108.1191541613383
 20
-120.5173637936554
 10
108.1825439182669
 20
-120.5259765323685
 10
108.246278184744
 20
-120.5259765323685
 10
108.3541096734323
 20
-120.5259765323685
 10
108.6438422037418
 20
-120.4667208900222
 10
108.8446912705319
 20
-120.3568223440427
 10
108.8446912705319
 20
-120.3568223440427
 10
109.0162570256973
 20
-120.4877359724822
 10
109.0162570256973
 20
-120.4877359724822
 10
109.0265923121531
 20
-120.4942816539042
 10
109.0331379935751
 20
-120.50461694036
 10
109.0331379935751
 20
-120.5152967363642
 10
109.0331379935751
 20
-120.5449245575374
 10
108.984562147233
 20
-120.5387233856639
 10
108.957001383351
 20
-120.5366563283728
 10
108.9039469128782
 20
-120.5556043535417
 10
108.8298773599453
 20
-120.5831651174237
 10
108.7389268391347
 20
-120.6127929385968
 10
108.728591552679
 20
-120.7099446312808
 10
108.7241129285481
 20
-120.8074408335134
 10
108.7241129285481
 20
-120.9066595834886
 10
108.7241129285481
 20
-120.9807291364215
 10
108.7261799858393
 20
-121.0272379254724
 10
108.728591552679
 20
-121.0737467145232
 10
108.8595051811185
 20
-121.0737467145232
 10
108.9549343260599
 20
-121.0716796572321
 10
109.1323567435502
 20
-121.0527316320632
 10
109.1323567435502
 20
-121.0527316320632
 10
109.1323567435502
 20
-121.2535806988533
 10
109.1323567435502
 20
-121.2535806988533
 10
109.060698757457
 20
-121.2515136415621
 10
108.7685546603079
 20
-121.2432454123975
 10
108.7389268391347
 20
-121.2432454123975
 10
108.7537407497213
 20
-121.4272135113099
 10
108.7813015136033
 20
-121.6091145529311
 10
108.8446912705319
 20
-121.7824028558391
 10
108.8660508625404
 20
-121.8437255554766
 10
108.9104925943002
 20
-121.9643038974603
 10
108.9549343260599
 20
-121.9643038974603
 10
109.0035101724019
 20
-121.9643038974603
 10
109.0352050508662
 20
-121.7910155945522
 10
109.0458848468705
 20
-121.7338270094971
 10
109.0458848468705
 20
-121.7338270094971
 10
109.1833441567319
 20
-121.8967800259494
 10
109.1833441567319
 20
-121.8967800259494
 10
109.17679847531
 20
-121.939154700418
 10
109.1220214570945
 20
-122.2647162237741
 10
108.9697482366465
 20
-122.2647162237741
 97
        0
 97
        0
 92
        1
 93
        1
 72
     4
 94
        3
 73
     0
 74
     1
 95
       26
 96
       22
 40
0.0
 40
0.0
 40
0.0
 40
0.0
 40
1.0
 40
1.0
 40
1.0
 40
2.0
 40
2.0
 40
2.0
 40
3.0
 40
3.0
 40
3.0
 40
4.0
 40
4.0
 40
4.0
 40
5.0
 40
5.0
 40
5.0
 40
6.0
 40
6.0
 40
6.0
 40
7.0
 40
7.0
 40
7.0
 40
7.0
 10
107.4825005156641
 20
-121.6787054817331
 10
107.4825005156641
 20
-121.7083333029063
 10
107.4780218915333
 20
-121.9939317186335
 10
107.4166991918958
 20
-122.1400037672081
 10
107.4166991918958
 20
-122.1400037672081
 10
107.2220512969792
 20
-122.1083088887438
 10
107.2220512969792
 20
-122.1083088887438
 10
107.2496120608612
 20
-122.042852074524
 10
107.2878526207475
 20
-121.9519015537134
 10
107.2985324167518
 20
-121.8037624478477
 10
107.3047335886252
 20
-121.7338270094971
 10
107.3068006459164
 20
-121.6597574565642
 10
107.3026665313341
 20
-121.5901665277622
 10
107.3026665313341
 20
-121.5901665277622
 10
107.4887016875376
 20
-121.6111816102222
 10
107.4887016875376
 20
-121.6111816102222
 10
107.4973144262507
 20
-121.6132486675134
 10
107.5183295087107
 20
-121.6153157248045
 10
107.5183295087107
 20
-121.6346082595219
 10
107.5183295087107
 20
-121.6556233419819
 10
107.4973144262507
 20
-121.6704372525685
 10
107.4825005156641
 20
-121.6787054817331
 97
        0
 97
        0
 92
        1
 93
        1
 72
     4
 94
        3
 73
     0
 74
     1
 95
       14
 96
       10
 40
0.0
 40
0.0
 40
0.0
 40
0.0
 40
1.0
 40
1.0
 40
1.0
 40
2.0
 40
2.0
 40
2.0
 40
3.0
 40
3.0
 40
3.0
 40
3.0
 10
107.7426052248005
 20
-121.1309352995784
 10
107.708843289045
 20
-121.1774440886293
 10
107.6750813532896
 20
-121.221885820389
 10
107.6389078506945
 20
-121.2642604948576
 10
107.6664686145764
 20
-121.2621934375664
 10
107.7870469565602
 20
-121.249446584271
 10
107.812540663151
 20
-121.249446584271
 10
107.7722330459736
 20
-121.173309974047
 10
107.7594861926782
 20
-121.1564290061692
 10
107.7426052248005
 20
-121.1309352995784
 97
        0
 97
        0
 92
        1
 93
        1
 72
     4
 94
        3
 73
     0
 74
     1
 95
       17
 96
       13
 40
0.0
 40
0.0
 40
0.0
 40
0.0
 40
1.0
 40
1.0
 40
1.0
 40
2.0
 40
2.0
 40
2.0
 40
3.0
 40
3.0
 40
3.0
 40
4.0
 40
4.0
 40
4.0
 40
4.0
 10
107.8611165094931
 20
-122.0173583679332
 10
107.8545708280711
 20
-121.939154700418
 10
107.8208088923156
 20
-121.752775034666
 10
107.7467393393828
 20
-121.5984347569268
 10
107.7467393393828
 20
-121.5984347569268
 10
107.8948784452485
 20
-121.5433132291628
 10
107.8948784452485
 20
-121.5433132291628
 10
107.9520670303037
 20
-121.6280625780999
 10
108.0282036405277
 20
-121.8165093011431
 10
108.0344048124011
 20
-121.9474229295826
 10
108.0344048124011
 20
-121.9474229295826
 10
107.8611165094931
 20
-122.0173583679332
 10
107.8611165094931
 20
-122.0173583679332
 97
        0
 97
        0
 92
        1
 93
        1
 72
     4
 94
        3
 73
     0
 74
     1
 95
       17
 96
       13
 40
0.0
 40
0.0
 40
0.0
 40
0.0
 40
1.0
 40
1.0
 40
1.0
 40
2.0
 40
2.0
 40
2.0
 40
3.0
 40
3.0
 40
3.0
 40
4.0
 40
4.0
 40
4.0
 40
4.0
 10
108.2841742350817
 20
-120.7058105166985
 10
108.2841742350817
 20
-120.7058105166985
 10
108.2841742350817
 20
-121.0737467145232
 10
108.2841742350817
 20
-121.0737467145232
 10
108.2841742350817
 20
-121.0737467145232
 10
108.5360107150535
 20
-121.0737467145232
 10
108.5360107150535
 20
-121.0737467145232
 10
108.5360107150535
 20
-121.0210367535989
 10
108.5318766004712
 20
-120.8370686546866
 10
108.5422118869269
 20
-120.6675699568123
 10
108.4302462836563
 20
-120.690996606112
 10
108.3623779025969
 20
-120.7016764021162
 10
108.2841742350817
 20
-120.7058105166985
 97
        0
 97
        0
 75
     2
 76
     1
 98
        0
  0
SPLINE
  5
F8
330
E7
100
AcDbEntity
  8
_U+30EC_U+30A4_U+30E4_U+30FC 1
370
     0
100
AcDbSpline
210
0.0
220
0.0
230
1.0
 70
    11
 71
     3
 72
    47
 73
    43
 74
     0
 42
0.0000000001
 43
0.0000000001
 12
1.0
 22
0.0
 32
0.0
 13
1.0
 23
0.0
 33
0.0
 40
0.0
 40
0.0
 40
0.0
 40
0.0
 40
1.0
 40
1.0
 40
1.0
 40
2.0
 40
2.0
 40
2.0
 40
3.0
 40
3.0
 40
3.0
 40
4.0
 40
4.0
 40
4.0
 40
5.0
 40
5.0
 40
5.0
 40
6.0
 40
6.0
 40
6.0
 40
7.0
 40
7.0
 40
7.0
 40
8.0
 40
8.0
 40
8.0
 40
9.0
 40
9.0
 40
9.0
 40
10.0
 40
10.0
 40
10.0
 40
11.0
 40
11.0
 40
11.0
 40
12.0
 40
12.0
 40
12.0
 40
13.0
 40
13.0
 40
13.0
 40
14.0
 40
14.0
 40
14.0
 40
14.0
 10
110.4642306581478
 20
-121.2601263802753
 30
0.0
 10
110.4642306581478
 20
-121.2601263802753
 30
0.0
 10
110.362600341333
 20
-121.2601263802753
 30
0.0
 10
110.362600341333
 20
-121.2601263802753
 30
0.0
 10
110.362600341333
 20
-121.346598276955
 30
0.0
 10
110.3415852588729
 20
-121.7358940667882
 30
0.0
 10
110.1448703066652
 20
-121.9560356682957
 30
0.0
 10
109.9922525766686
 20
-122.1251898566215
 30
0.0
 10
109.7852023380051
 20
-122.1951252949721
 30
0.0
 10
109.7004529890679
 20
-122.2226860588541
 30
0.0
 10
109.7004529890679
 20
-122.2226860588541
 30
0.0
 10
109.5058050941513
 20
-122.0555989278194
 30
0.0
 10
109.5058050941513
 20
-122.0555989278194
 30
0.0
 10
109.6033012963839
 20
-122.042852074524
 30
0.0
 10
109.7786566565831
 20
-122.0194254252243
 30
0.0
 10
109.9671033796263
 20
-121.8313232117297
 30
0.0
 10
110.0411729325591
 20
-121.759320716088
 30
0.0
 10
110.1448703066652
 20
-121.6197943489353
 30
0.0
 10
110.1448703066652
 20
-121.2601263802753
 30
0.0
 10
110.1448703066652
 20
-121.2601263802753
 30
0.0
 10
109.9140489091534
 20
-121.2601263802753
 30
0.0
 10
109.9140489091534
 20
-121.2601263802753
 30
0.0
 10
109.7280137529499
 20
-121.2601263802753
 30
0.0
 10
109.5416340871979
 20
-121.2642604948576
 30
0.0
 10
109.3555989309944
 20
-121.2790744054441
 30
0.0
 10
109.3555989309944
 20
-121.2790744054441
 30
0.0
 10
109.3555989309944
 20
-121.0589328039367
 30
0.0
 10
109.3555989309944
 20
-121.0589328039367
 30
0.0
 10
109.5440456540376
 20
-121.0737467145232
 30
0.0
 10
109.8296440697648
 20
-121.0782253386541
 30
0.0
 10
109.9140489091534
 20
-121.0782253386541
 30
0.0
 10
109.9140489091534
 20
-121.0782253386541
 30
0.0
 10
110.4642306581478
 20
-121.0782253386541
 30
0.0
 10
110.4642306581478
 20
-121.0782253386541
 30
0.0
 10
110.4831786833167
 20
-121.0782253386541
 30
0.0
 10
110.8004719775082
 20
-121.0782253386541
 30
0.0
 10
111.0288818081803
 20
-121.0589328039367
 30
0.0
 10
111.0288818081803
 20
-121.0589328039367
 30
0.0
 10
111.0288818081803
 20
-121.2790744054441
 30
0.0
 10
111.0288818081803
 20
-121.2790744054441
 30
0.0
 10
110.8407795946856
 20
-121.2642604948576
 30
0.0
 10
110.6523328716425
 20
-121.2601263802753
 30
0.0
 10
110.4642306581478
 20
-121.2601263802753
 30
0.0
  0
SPLINE
  5
F9
330
E7
100
AcDbEntity
  8
_U+30EC_U+30A4_U+30E4_U+30FC 1
370
     0
100
AcDbSpline
210
0.0
220
0.0
230
1.0
 70
    11
 71
     3
 72
    29
 73
    25
 74
     0
 42
0.0000000001
 43
0.0000000001
 12
1.0
 22
0.0
 32
0.0
 13
1.0
 23
0.0
 33
0.0
 40
0.0
 40
0.0
 40
0.0
 40
0.0
 40
1.0
 40
1.0
 40
1.0
 40
2.0
 40
2.0
 40
2.0
 40
3.0
 40
3.0
 40
3.0
 40
4.0
 40
4.0
 40
4.0
 40
5.0
 40
5.0
 40
5.0
 40
6.0
 40
6.0
 40
6.0
 40
7.0
 40
7.0
 40
7.0
 40
8.0
 40
8.0
 40
8.0
 40
8.0
 10
110.362600341333
 20
-120.7309597137409
 30
0.0
 10
110.362600341333
 20
-120.7309597137409
 30
0.0
 10
110.0091335445463
 20
-120.7309597137409
 30
0.0
 10
110.0091335445463
 20
-120.7309597137409
 30
0.0
 10
109.8971679412757
 20
-120.7309597137409
 30
0.0
 10
109.7576415741231
 20
-120.7375053951629
 30
0.0
 10
109.6498100854348
 20
-120.7502522484583
 30
0.0
 10
109.6498100854348
 20
-120.7502522484583
 30
0.0
 10
109.6498100854348
 20
-120.5152967363642
 30
0.0
 10
109.6498100854348
 20
-120.5152967363642
 30
0.0
 10
109.7679768605788
 20
-120.5301106469508
 30
0.0
 10
109.9522894690397
 20
-120.5342447615331
 30
0.0
 10
110.0091335445463
 20
-120.5342447615331
 30
0.0
 10
110.0091335445463
 20
-120.5342447615331
 30
0.0
 10
110.362600341333
 20
-120.5342447615331
 30
0.0
 10
110.362600341333
 20
-120.5342447615331
 30
0.0
 10
110.3815483665018
 20
-120.5342447615331
 30
0.0
 10
110.5848090001316
 20
-120.5342447615331
 30
0.0
 10
110.7264024245754
 20
-120.5152967363642
 30
0.0
 10
110.7264024245754
 20
-120.5152967363642
 30
0.0
 10
110.7264024245754
 20
-120.7502522484583
 30
0.0
 10
110.7264024245754
 20
-120.7502522484583
 30
0.0
 10
110.569995089545
 20
-120.7309597137409
 30
0.0
 10
110.3794813092107
 20
-120.7309597137409
 30
0.0
 10
110.362600341333
 20
-120.7309597137409
 30
0.0
  0
HATCH
  5
FA
330
E7
100
AcDbEntity
  8
_U+30EC_U+30A4_U+30E4_U+30FC 1
 62
   179
420
  2234388
100
AcDbHatch
 10
0.0
 20
0.0
 30
0.0
210
0.0
220
0.0
230
1.0
  2
SOLID
 70
     1
 71
     0
 91
        2
 92
        1
 93
        1
 72
     4
 94
        3
 73
     0
 74
     1
 95
       47
 96
       43
 40
0.0
 40
0.0
 40
0.0
 40
0.0
 40
1.0
 40
1.0
 40
1.0
 40
2.0
 40
2.0
 40
2.0
 40
3.0
 40
3.0
 40
3.0
 40
4.0
 40
4.0
 40
4.0
 40
5.0
 40
5.0
 40
5.0
 40
6.0
 40
6.0
 40
6.0
 40
7.0
 40
7.0
 40
7.0
 40
8.0
 40
8.0
 40
8.0
 40
9.0
 40
9.0
 40
9.0
 40
10.0
 40
10.0
 40
10.0
 40
11.0
 40
11.0
 40
11.0
 40
12.0
 40
12.0
 40
12.0
 40
13.0
 40
13.0
 40
13.0
 40
14.0
 40
14.0
 40
14.0
 40
14.0
 10
110.4642306581478
 20
-121.2601263802753
 10
110.4642306581478
 20
-121.2601263802753
 10
110.362600341333
 20
-121.2601263802753
 10
110.362600341333
 20
-121.2601263802753
 10
110.362600341333
 20
-121.346598276955
 10
110.3415852588729
 20
-121.7358940667882
 10
110.1448703066652
 20
-121.9560356682957
 10
109.9922525766686
 20
-122.1251898566215
 10
109.7852023380051
 20
-122.1951252949721
 10
109.7004529890679
 20
-122.2226860588541
 10
109.7004529890679
 20
-122.2226860588541
 10
109.5058050941513
 20
-122.0555989278194
 10
109.5058050941513
 20
-122.0555989278194
 10
109.6033012963839
 20
-122.042852074524
 10
109.7786566565831
 20
-122.0194254252243
 10
109.9671033796263
 20
-121.8313232117297
 10
110.0411729325591
 20
-121.759320716088
 10
110.1448703066652
 20
-121.6197943489353
 10
110.1448703066652
 20
-121.2601263802753
 10
110.1448703066652
 20
-121.2601263802753
 10
109.9140489091534
 20
-121.2601263802753
 10
109.9140489091534
 20
-121.2601263802753
 10
109.7280137529499
 20
-121.2601263802753
 10
109.5416340871979
 20
-121.2642604948576
 10
109.3555989309944
 20
-121.2790744054441
 10
109.3555989309944
 20
-121.2790744054441
 10
109.3555989309944
 20
-121.0589328039367
 10
109.3555989309944
 20
-121.0589328039367
 10
109.5440456540376
 20
-121.0737467145232
 10
109.8296440697648
 20
-121.0782253386541
 10
109.9140489091534
 20
-121.0782253386541
 10
109.9140489091534
 20
-121.0782253386541
 10
110.4642306581478
 20
-121.0782253386541
 10
110.4642306581478
 20
-121.0782253386541
 10
110.4831786833167
 20
-121.0782253386541
 10
110.8004719775082
 20
-121.0782253386541
 10
111.0288818081803
 20
-121.0589328039367
 10
111.0288818081803
 20
-121.0589328039367
 10
111.0288818081803
 20
-121.2790744054441
 10
111.0288818081803
 20
-121.2790744054441
 10
110.8407795946856
 20
-121.2642604948576
 10
110.6523328716425
 20
-121.2601263802753
 10
110.4642306581478
 20
-121.2601263802753
 97
        0
 97
        0
 92
        1
 93
        1
 72
     4
 94
        3
 73
     0
 74
     1
 95
       29
 96
       25
 40
0.0
 40
0.0
 40
0.0
 40
0.0
 40
1.0
 40
1.0
 40
1.0
 40
2.0
 40
2.0
 40
2.0
 40
3.0
 40
3.0
 40
3.0
 40
4.0
 40
4.0
 40
4.0
 40
5.0
 40
5.0
 40
5.0
 40
6.0
 40
6.0
 40
6.0
 40
7.0
 40
7.0
 40
7.0
 40
8.0
 40
8.0
 40
8.0
 40
8.0
 10
110.362600341333
 20
-120.7309597137409
 10
110.362600341333
 20
-120.7309597137409
 10
110.0091335445463
 20
-120.7309597137409
 10
110.0091335445463
 20
-120.7309597137409
 10
109.8971679412757
 20
-120.7309597137409
 10
109.7576415741231
 20
-120.7375053951629
 10
109.6498100854348
 20
-120.7502522484583
 10
109.6498100854348
 20
-120.7502522484583
 10
109.6498100854348
 20
-120.5152967363642
 10
109.6498100854348
 20
-120.5152967363642
 10
109.7679768605788
 20
-120.5301106469508
 10
109.9522894690397
 20
-120.5342447615331
 10
110.0091335445463
 20
-120.5342447615331
 10
110.0091335445463
 20
-120.5342447615331
 10
110.362600341333
 20
-120.5342447615331
 10
110.362600341333
 20
-120.5342447615331
 10
110.3815483665018
 20
-120.5342447615331
 10
110.5848090001316
 20
-120.5342447615331
 10
110.7264024245754
 20
-120.5152967363642
 10
110.7264024245754
 20
-120.5152967363642
 10
110.7264024245754
 20
-120.7502522484583
 10
110.7264024245754
 20
-120.7502522484583
 10
110.569995089545
 20
-120.7309597137409
 10
110.3794813092107
 20
-120.7309597137409
 10
110.362600341333
 20
-120.7309597137409
 97
        0
 97
        0
 75
     2
 76
     1
 98
        0
  0
SPLINE
  5
FB
330
E7
100
AcDbEntity
  8
_U+30EC_U+30A4_U+30E4_U+30FC 1
370
     0
100
AcDbSpline
210
0.0
220
0.0
230
1.0
 70
    11
 71
     3
 72
    29
 73
    25
 74
     0
 42
0.0000000001
 43
0.0000000001
 12
1.0
 22
0.0
 32
0.0
 13
1.0
 23
0.0
 33
0.0
 40
0.0
 40
0.0
 40
0.0
 40
0.0
 40
1.0
 40
1.0
 40
1.0
 40
2.0
 40
2.0
 40
2.0
 40
3.0
 40
3.0
 40
3.0
 40
4.0
 40
4.0
 40
4.0
 40
5.0
 40
5.0
 40
5.0
 40
6.0
 40
6.0
 40
6.0
 40
7.0
 40
7.0
 40
7.0
 40
8.0
 40
8.0
 40
8.0
 40
8.0
 10
112.3101128191447
 20
-121.422734887179
 30
0.0
 10
112.3101128191447
 20
-121.422734887179
 30
0.0
 10
111.8257323939186
 20
-121.422734887179
 30
0.0
 10
111.8257323939186
 20
-121.422734887179
 30
0.0
 10
111.7981716300366
 20
-121.422734887179
 30
0.0
 10
111.4808783358451
 20
-121.422734887179
 30
0.0
 10
111.2693494730507
 20
-121.4482285937699
 30
0.0
 10
111.2693494730507
 20
-121.4482285937699
 30
0.0
 10
111.2693494730507
 20
-121.2177517058067
 30
0.0
 10
111.2693494730507
 20
-121.2177517058067
 30
0.0
 10
111.4278238653722
 20
-121.2408338455579
 30
0.0
 10
111.6183376457065
 20
-121.2432454123975
 30
0.0
 10
111.8257323939186
 20
-121.2432454123975
 30
0.0
 10
111.8257323939186
 20
-121.2432454123975
 30
0.0
 10
112.3101128191447
 20
-121.2432454123975
 30
0.0
 10
112.3101128191447
 20
-121.2432454123975
 30
0.0
 10
112.4961479753482
 20
-121.2432454123975
 30
0.0
 10
112.6825276411002
 20
-121.2408338455579
 30
0.0
 10
112.8664957400126
 20
-121.2177517058067
 30
0.0
 10
112.8664957400126
 20
-121.2177517058067
 30
0.0
 10
112.8664957400126
 20
-121.4482285937699
 30
0.0
 10
112.8664957400126
 20
-121.4482285937699
 30
0.0
 10
112.6825276411002
 20
-121.4251464540187
 30
0.0
 10
112.4348252757108
 20
-121.422734887179
 30
0.0
 10
112.3101128191447
 20
-121.422734887179
 30
0.0
  0
HATCH
  5
FC
330
E7
100
AcDbEntity
  8
_U+30EC_U+30A4_U+30E4_U+30FC 1
 62
   179
420
  2234388
100
AcDbHatch
 10
0.0
 20
0.0
 30
0.0
210
0.0
220
0.0
230
1.0
  2
SOLID
 70
     1
 71
     0
 91
        1
 92
        1
 93
        1
 72
     4
 94
        3
 73
     0
 74
     1
 95
       29
 96
       25
 40
0.0
 40
0.0
 40
0.0
 40
0.0
 40
1.0
 40
1.0
 40
1.0
 40
2.0
 40
2.0
 40
2.0
 40
3.0
 40
3.0
 40
3.0
 40
4.0
 40
4.0
 40
4.0
 40
5.0
 40
5.0
 40
5.0
 40
6.0
 40
6.0
 40
6.0
 40
7.0
 40
7.0
 40
7.0
 40
8.0
 40
8.0
 40
8.0
 40
8.0
 10
112.3101128191447
 20
-121.422734887179
 10
112.3101128191447
 20
-121.422734887179
 10
111.8257323939186
 20
-121.422734887179
 10
111.8257323939186
 20
-121.422734887179
 10
111.7981716300366
 20
-121.422734887179
 10
111.4808783358451
 20
-121.422734887179
 10
111.2693494730507
 20
-121.4482285937699
 10
111.2693494730507
 20
-121.4482285937699
 10
111.2693494730507
 20
-121.2177517058067
 10
111.2693494730507
 20
-121.2177517058067
 10
111.4278238653722
 20
-121.2408338455579
 10
111.6183376457065
 20
-121.2432454123975
 10
111.8257323939186
 20
-121.2432454123975
 10
111.8257323939186
 20
-121.2432454123975
 10
112.3101128191447
 20
-121.2432454123975
 10
112.3101128191447
 20
-121.2432454123975
 10
112.4961479753482
 20
-121.2432454123975
 10
112.6825276411002
 20
-121.2408338455579
 10
112.8664957400126
 20
-121.2177517058067
 10
112.8664957400126
 20
-121.2177517058067
 10
112.8664957400126
 20
-121.4482285937699
 10
112.8664957400126
 20
-121.4482285937699
 10
112.6825276411002
 20
-121.4251464540187
 10
112.4348252757108
 20
-121.422734887179
 10
112.3101128191447
 20
-121.422734887179
 97
        0
 97
        0
 75
     2
 76
     1
 98
        0
  0
SPLINE
  5
FD
330
E7
100
AcDbEntity
  8
_U+30EC_U+30A4_U+30E4_U+30FC 1
370
     0
100
AcDbSpline
210
0.0
220
0.0
230
1.0
 70
    11
 71
     3
 72
    44
 73
    40
 74
     0
 42
0.0000000001
 43
0.0000000001
 12
1.0
 22
0.0
 32
0.0
 13
1.0
 23
0.0
 33
0.0
 40
0.0
 40
0.0
 40
0.0
 40
0.0
 40
1.0
 40
1.0
 40
1.0
 40
2.0
 40
2.0
 40
2.0
 40
3.0
 40
3.0
 40
3.0
 40
4.0
 40
4.0
 40
4.0
 40
5.0
 40
5.0
 40
5.0
 40
6.0
 40
6.0
 40
6.0
 40
7.0
 40
7.0
 40
7.0
 40
8.0
 40
8.0
 40
8.0
 40
9.0
 40
9.0
 40
9.0
 40
10.0
 40
10.0
 40
10.0
 40
11.0
 40
11.0
 40
11.0
 40
12.0
 40
12.0
 40
12.0
 40
13.0
 40
13.0
 40
13.0
 40
13.0
 10
114.5215196111266
 20
-120.9848632510038
 30
0.0
 10
114.4095540078559
 20
-121.353143958377
 30
0.0
 10
114.3589111042228
 20
-121.5116183506985
 30
0.0
 10
114.162196152015
 20
-121.7613877733791
 30
0.0
 10
113.9778835435541
 20
-121.9918646613423
 30
0.0
 10
113.7412054837175
 20
-122.1782443270943
 30
0.0
 10
113.4618082398637
 20
-122.2712619051961
 30
0.0
 10
113.4618082398637
 20
-122.2712619051961
 30
0.0
 10
113.2692274022383
 20
-122.091427920866
 30
0.0
 10
113.2692274022383
 20
-122.091427920866
 30
0.0
 10
113.9103596720432
 20
-121.939154700418
 30
0.0
 10
114.2403998195302
 20
-121.3827717795501
 30
0.0
 10
114.3037895764588
 20
-120.9428330860837
 30
0.0
 10
114.3037895764588
 20
-120.9428330860837
 30
0.0
 10
113.5379448500877
 20
-120.9428330860837
 30
0.0
 10
113.5379448500877
 20
-120.9428330860837
 30
0.0
 10
113.444927271986
 20
-120.9428330860837
 30
0.0
 10
113.2609591730737
 20
-120.946967200666
 30
0.0
 10
113.1042073284948
 20
-120.9659152258349
 30
0.0
 10
113.1042073284948
 20
-120.9659152258349
 30
0.0
 10
113.1042073284948
 20
-120.7457736243275
 30
0.0
 10
113.1042073284948
 20
-120.7457736243275
 30
0.0
 10
113.1910237347231
 20
-120.767133216336
 30
0.0
 10
113.4428602146948
 20
-120.767133216336
 30
0.0
 10
113.54207896467
 20
-120.767133216336
 30
0.0
 10
113.54207896467
 20
-120.767133216336
 30
0.0
 10
113.9737494289718
 20
-120.767133216336
 30
0.0
 10
113.9737494289718
 20
-120.767133216336
 30
0.0
 10
114.0161241034404
 20
-120.767133216336
 30
0.0
 10
114.2507351059859
 20
-120.7650661590448
 30
0.0
 10
114.2889756658722
 20
-120.7585204776229
 30
0.0
 10
114.3313503403408
 20
-120.7523193057494
 30
0.0
 10
114.3334173976319
 20
-120.7502522484583
 30
0.0
 10
114.3947400972694
 20
-120.7099446312808
 30
0.0
 10
114.3947400972694
 20
-120.7099446312808
 30
0.0
 10
114.582842310764
 20
-120.86428490902
 30
0.0
 10
114.582842310764
 20
-120.86428490902
 30
0.0
 10
114.5535589991394
 20
-120.8939127301932
 30
0.0
 10
114.5387450885528
 20
-120.9256076086575
 30
0.0
 10
114.5215196111266
 20
-120.9848632510038
 30
0.0
  0
SPLINE
  5
FE
330
E7
100
AcDbEntity
  8
_U+30EC_U+30A4_U+30E4_U+30FC 1
370
     0
100
AcDbSpline
210
0.0
220
0.0
230
1.0
 70
    11
 71
     3
 72
    17
 73
    13
 74
     0
 42
0.0000000001
 43
0.0000000001
 12
1.0
 22
0.0
 32
0.0
 13
1.0
 23
0.0
 33
0.0
 40
0.0
 40
0.0
 40
0.0
 40
0.0
 40
1.0
 40
1.0
 40
1.0
 40
2.0
 40
2.0
 40
2.0
 40
3.0
 40
3.0
 40
3.0
 40
4.0
 40
4.0
 40
4.0
 40
4.0
 10
114.7309814166298
 20
-120.7860812415049
 30
0.0
 10
114.6042019027726
 20
-120.7860812415049
 30
0.0
 10
114.5025715859577
 20
-120.68445092469
 30
0.0
 10
114.5025715859577
 20
-120.5576714108328
 30
0.0
 10
114.5025715859577
 20
-120.4308918969756
 30
0.0
 10
114.6042019027726
 20
-120.3271945228696
 30
0.0
 10
114.7309814166298
 20
-120.3271945228696
 30
0.0
 10
114.8581054400355
 20
-120.3271945228696
 30
0.0
 10
114.9618028141415
 20
-120.4308918969756
 30
0.0
 10
114.9618028141415
 20
-120.5576714108328
 30
0.0
 10
114.9618028141415
 20
-120.68445092469
 30
0.0
 10
114.8581054400355
 20
-120.7860812415049
 30
0.0
 10
114.7309814166298
 20
-120.7860812415049
 30
0.0
  0
SPLINE
  5
FF
330
E7
100
AcDbEntity
  8
_U+30EC_U+30A4_U+30E4_U+30FC 1
370
     0
100
AcDbSpline
210
0.0
220
0.0
230
1.0
 70
    11
 71
     3
 72
    17
 73
    13
 74
     0
 42
0.0000000001
 43
0.0000000001
 12
1.0
 22
0.0
 32
0.0
 13
1.0
 23
0.0
 33
0.0
 40
0.0
 40
0.0
 40
0.0
 40
0.0
 40
1.0
 40
1.0
 40
1.0
 40
2.0
 40
2.0
 40
2.0
 40
3.0
 40
3.0
 40
3.0
 40
4.0
 40
4.0
 40
4.0
 40
4.0
 10
114.7289143593386
 20
-120.4560410940179
 30
0.0
 10
114.6741373411231
 20
-120.4560410940179
 30
0.0
 10
114.6296956093634
 20
-120.5004828257777
 30
0.0
 10
114.6296956093634
 20
-120.5556043535417
 30
0.0
 10
114.6296956093634
 20
-120.6127929385968
 30
0.0
 10
114.6741373411231
 20
-120.6613687849388
 30
0.0
 10
114.7330484739209
 20
-120.6613687849388
 30
0.0
 10
114.7923041162672
 20
-120.6613687849388
 30
0.0
 10
114.8326117334446
 20
-120.6103813717571
 30
0.0
 10
114.8326117334446
 20
-120.5576714108328
 30
0.0
 10
114.8326117334446
 20
-120.5004828257777
 30
0.0
 10
114.7861029443938
 20
-120.4560410940179
 30
0.0
 10
114.7289143593386
 20
-120.4560410940179
 30
0.0
  0
HATCH
  5
100
330
E7
100
AcDbEntity
  8
_U+30EC_U+30A4_U+30E4_U+30FC 1
 62
   179
420
  2234388
100
AcDbHatch
 10
0.0
 20
0.0
 30
0.0
210
0.0
220
0.0
230
1.0
  2
SOLID
 70
     1
 71
     0
 91
        3
 92
        1
 93
        1
 72
     4
 94
        3
 73
     0
 74
     1
 95
       44
 96
       40
 40
0.0
 40
0.0
 40
0.0
 40
0.0
 40
1.0
 40
1.0
 40
1.0
 40
2.0
 40
2.0
 40
2.0
 40
3.0
 40
3.0
 40
3.0
 40
4.0
 40
4.0
 40
4.0
 40
5.0
 40
5.0
 40
5.0
 40
6.0
 40
6.0
 40
6.0
 40
7.0
 40
7.0
 40
7.0
 40
8.0
 40
8.0
 40
8.0
 40
9.0
 40
9.0
 40
9.0
 40
10.0
 40
10.0
 40
10.0
 40
11.0
 40
11.0
 40
11.0
 40
12.0
 40
12.0
 40
12.0
 40
13.0
 40
13.0
 40
13.0
 40
13.0
 10
114.5215196111266
 20
-120.9848632510038
 10
114.4095540078559
 20
-121.353143958377
 10
114.3589111042228
 20
-121.5116183506985
 10
114.162196152015
 20
-121.7613877733791
 10
113.9778835435541
 20
-121.9918646613423
 10
113.7412054837175
 20
-122.1782443270943
 10
113.4618082398637
 20
-122.2712619051961
 10
113.4618082398637
 20
-122.2712619051961
 10
113.2692274022383
 20
-122.091427920866
 10
113.2692274022383
 20
-122.091427920866
 10
113.9103596720432
 20
-121.939154700418
 10
114.2403998195302
 20
-121.3827717795501
 10
114.3037895764588
 20
-120.9428330860837
 10
114.3037895764588
 20
-120.9428330860837
 10
113.5379448500877
 20
-120.9428330860837
 10
113.5379448500877
 20
-120.9428330860837
 10
113.444927271986
 20
-120.9428330860837
 10
113.2609591730737
 20
-120.946967200666
 10
113.1042073284948
 20
-120.9659152258349
 10
113.1042073284948
 20
-120.9659152258349
 10
113.1042073284948
 20
-120.7457736243275
 10
113.1042073284948
 20
-120.7457736243275
 10
113.1910237347231
 20
-120.767133216336
 10
113.4428602146948
 20
-120.767133216336
 10
113.54207896467
 20
-120.767133216336
 10
113.54207896467
 20
-120.767133216336
 10
113.9737494289718
 20
-120.767133216336
 10
113.9737494289718
 20
-120.767133216336
 10
114.0161241034404
 20
-120.767133216336
 10
114.2507351059859
 20
-120.7650661590448
 10
114.2889756658722
 20
-120.7585204776229
 10
114.3313503403408
 20
-120.7523193057494
 10
114.3334173976319
 20
-120.7502522484583
 10
114.3947400972694
 20
-120.7099446312808
 10
114.3947400972694
 20
-120.7099446312808
 10
114.582842310764
 20
-120.86428490902
 10
114.582842310764
 20
-120.86428490902
 10
114.5535589991394
 20
-120.8939127301932
 10
114.5387450885528
 20
-120.9256076086575
 10
114.5215196111266
 20
-120.9848632510038
 97
        0
 97
        0
 92
        1
 93
        1
 72
     4
 94
        3
 73
     0
 74
     1
 95
       17
 96
       13
 40
0.0
 40
0.0
 40
0.0
 40
0.0
 40
1.0
 40
1.0
 40
1.0
 40
2.0
 40
2.0
 40
2.0
 40
3.0
 40
3.0
 40
3.0
 40
4.0
 40
4.0
 40
4.0
 40
4.0
 10
114.7309814166298
 20
-120.7860812415049
 10
114.6042019027726
 20
-120.7860812415049
 10
114.5025715859577
 20
-120.68445092469
 10
114.5025715859577
 20
-120.5576714108328
 10
114.5025715859577
 20
-120.4308918969756
 10
114.6042019027726
 20
-120.3271945228696
 10
114.7309814166298
 20
-120.3271945228696
 10
114.8581054400355
 20
-120.3271945228696
 10
114.9618028141415
 20
-120.4308918969756
 10
114.9618028141415
 20
-120.5576714108328
 10
114.9618028141415
 20
-120.68445092469
 10
114.8581054400355
 20
-120.7860812415049
 10
114.7309814166298
 20
-120.7860812415049
 97
        0
 97
        0
 92
        1
 93
        1
 72
     4
 94
        3
 73
     0
 74
     1
 95
       17
 96
       13
 40
0.0
 40
0.0
 40
0.0
 40
0.0
 40
1.0
 40
1.0
 40
1.0
 40
2.0
 40
2.0
 40
2.0
 40
3.0
 40
3.0
 40
3.0
 40
4.0
 40
4.0
 40
4.0
 40
4.0
 10
114.7289143593386
 20
-120.4560410940179
 10
114.6741373411231
 20
-120.4560410940179
 10
114.6296956093634
 20
-120.5004828257777
 10
114.6296956093634
 20
-120.5556043535417
 10
114.6296956093634
 20
-120.6127929385968
 10
114.6741373411231
 20
-120.6613687849388
 10
114.7330484739209
 20
-120.6613687849388
 10
114.7923041162672
 20
-120.6613687849388
 10
114.8326117334446
 20
-120.6103813717571
 10
114.8326117334446
 20
-120.5576714108328
 10
114.8326117334446
 20
-120.5004828257777
 10
114.7861029443938
 20
-120.4560410940179
 10
114.7289143593386
 20
-120.4560410940179
 97
        0
 97
        0
 75
     2
 76
     1
 98
        0
  0
ENDBLK
  5
EA
330
E7
100
AcDbEntity
  8
0
100
AcDbBlockEnd
  0
BLOCK
  5
10F
330
10D
100
AcDbEntity
  8
0
100
AcDbBlockBegin
  2
block 4
 70
     0
 10
0.0
 20
0.0
 30
0.0
  3
block 4
  1

  0
SPLINE
  5
111
330
10D
100
AcDbEntity
  8
_U+30EC_U+30A4_U+30E4_U+30FC 1
370
     0
100
AcDbSpline
210
0.0
220
0.0
230
1.0
 70
    11
 71
     3
 72
    26
 73
    22
 74
     0
 42
0.0000000001
 43
0.0000000001
 12
1.0
 22
0.0
 32
0.0
 13
1.0
 23
0.0
 33
0.0
 40
0.0
 40
0.0
 40
0.0
 40
0.0
 40
1.0
 40
1.0
 40
1.0
 40
2.0
 40
2.0
 40
2.0
 40
3.0
 40
3.0
 40
3.0
 40
4.0
 40
4.0
 40
4.0
 40
5.0
 40
5.0
 40
5.0
 40
6.0
 40
6.0
 40
6.0
 40
7.0
 40
7.0
 40
7.0
 40
7.0
 10
90.78257240568978
 20
-122.5451469962734
 30
0.0
 10
90.78257240568978
 20
-122.5451469962734
 30
0.0
 10
90.78257240568978
 20
-121.4409938932509
 30
0.0
 10
90.78257240568978
 20
-121.4409938932509
 30
0.0
 10
90.78257240568978
 20
-121.4409938932509
 30
0.0
 10
90.45253225820284
 20
-121.4409938932509
 30
0.0
 10
90.45253225820284
 20
-121.4409938932509
 30
0.0
 10
90.45253225820284
 20
-121.4409938932509
 30
0.0
 10
90.45253225820284
 20
-121.2928547873851
 30
0.0
 10
90.45253225820284
 20
-121.2928547873851
 30
0.0
 10
90.78463946298093
 20
-121.2780408767986
 30
0.0
 10
90.8311482520318
 20
-121.1150878603462
 30
0.0
 10
90.86077607320495
 20
-121.0007106902359
 30
0.0
 10
90.86077607320495
 20
-121.0007106902359
 30
0.0
 10
91.00684812177954
 20
-121.0007106902359
 30
0.0
 10
91.00684812177954
 20
-121.0007106902359
 30
0.0
 10
91.00684812177954
 20
-121.0007106902359
 30
0.0
 10
91.00684812177954
 20
-122.5451469962734
 30
0.0
 10
91.00684812177954
 20
-122.5451469962734
 30
0.0
 10
91.00684812177954
 20
-122.5451469962734
 30
0.0
 10
90.78257240568978
 20
-122.5451469962734
 30
0.0
 10
90.78257240568978
 20
-122.5451469962734
 30
0.0
  0
HATCH
  5
112
330
10D
100
AcDbEntity
  8
_U+30EC_U+30A4_U+30E4_U+30FC 1
 62
   179
420
  2234388
100
AcDbHatch
 10
0.0
 20
0.0
 30
0.0
210
0.0
220
0.0
230
1.0
  2
SOLID
 70
     1
 71
     0
 91
        1
 92
        1
 93
        1
 72
     4
 94
        3
 73
     0
 74
     1
 95
       26
 96
       22
 40
0.0
 40
0.0
 40
0.0
 40
0.0
 40
1.0
 40
1.0
 40
1.0
 40
2.0
 40
2.0
 40
2.0
 40
3.0
 40
3.0
 40
3.0
 40
4.0
 40
4.0
 40
4.0
 40
5.0
 40
5.0
 40
5.0
 40
6.0
 40
6.0
 40
6.0
 40
7.0
 40
7.0
 40
7.0
 40
7.0
 10
90.78257240568978
 20
-122.5451469962734
 10
90.78257240568978
 20
-122.5451469962734
 10
90.78257240568978
 20
-121.4409938932509
 10
90.78257240568978
 20
-121.4409938932509
 10
90.78257240568978
 20
-121.4409938932509
 10
90.45253225820284
 20
-121.4409938932509
 10
90.45253225820284
 20
-121.4409938932509
 10
90.45253225820284
 20
-121.4409938932509
 10
90.45253225820284
 20
-121.2928547873851
 10
90.45253225820284
 20
-121.2928547873851
 10
90.78463946298093
 20
-121.2780408767986
 10
90.8311482520318
 20
-121.1150878603462
 10
90.86077607320495
 20
-121.0007106902359
 10
90.86077607320495
 20
-121.0007106902359
 10
91.00684812177954
 20
-121.0007106902359
 10
91.00684812177954
 20
-121.0007106902359
 10
91.00684812177954
 20
-121.0007106902359
 10
91.00684812177954
 20
-122.5451469962734
 10
91.00684812177954
 20
-122.5451469962734
 10
91.00684812177954
 20
-122.5451469962734
 10
90.78257240568978
 20
-122.5451469962734
 10
90.78257240568978
 20
-122.5451469962734
 97
        0
 97
        0
 75
     2
 76
     1
 98
        0
  0
SPLINE
  5
113
330
10D
100
AcDbEntity
  8
_U+30EC_U+30A4_U+30E4_U+30FC 1
370
     0
100
AcDbSpline
210
0.0
220
0.0
230
1.0
 70
    11
 71
     3
 72
    29
 73
    25
 74
     0
 42
0.0000000001
 43
0.0000000001
 12
1.0
 22
0.0
 32
0.0
 13
1.0
 23
0.0
 33
0.0
 40
0.0
 40
0.0
 40
0.0
 40
0.0
 40
1.0
 40
1.0
 40
1.0
 40
2.0
 40
2.0
 40
2.0
 40
3.0
 40
3.0
 40
3.0
 40
4.0
 40
4.0
 40
4.0
 40
5.0
 40
5.0
 40
5.0
 40
6.0
 40
6.0
 40
6.0
 40
7.0
 40
7.0
 40
7.0
 40
8.0
 40
8.0
 40
8.0
 40
8.0
 10
92.40607365311376
 20
-122.3673800692345
 30
0.0
 10
92.29789765487692
 20
-122.5768418747377
 30
0.0
 10
92.12460935196886
 20
-122.5957898999066
 30
0.0
 10
92.00816512456741
 20
-122.5957898999066
 30
0.0
 10
91.84727916540623
 20
-122.5957898999066
 30
0.0
 10
91.70568574096247
 20
-122.5492811108557
 30
0.0
 10
91.61060110556957
 20
-122.3673800692345
 30
0.0
 10
91.50690373146355
 20
-122.1727321743179
 30
0.0
 10
91.48761119674616
 20
-121.9360541144813
 30
0.0
 10
91.48761119674616
 20
-121.7731010980289
 30
0.0
 10
91.48761119674616
 20
-121.6290961067455
 30
0.0
 10
91.50483667417241
 20
-121.3772596267737
 30
0.0
 10
91.61060110556957
 20
-121.1784776172748
 30
0.0
 10
91.71843259425789
 20
-120.9755614931936
 30
0.0
 10
91.87931855341907
 20
-120.9521348438939
 30
0.0
 10
92.00816512456741
 20
-120.9521348438939
 30
0.0
 10
92.16698402643742
 20
-120.9521348438939
 30
0.0
 10
92.31064450817235
 20
-120.9965765756536
 30
0.0
 10
92.40607365311376
 20
-121.1784776172748
 30
0.0
 10
92.50529240308896
 20
-121.3710584549003
 30
0.0
 10
92.52871905238865
 20
-121.5994682855724
 30
0.0
 10
92.52871905238865
 20
-121.7731010980289
 30
0.0
 10
92.52871905238865
 20
-121.9443223436459
 30
0.0
 10
92.50735946038012
 20
-122.1747992316091
 30
0.0
 10
92.40607365311376
 20
-122.3673800692345
 30
0.0
  0
SPLINE
  5
114
330
10D
100
AcDbEntity
  8
_U+30EC_U+30A4_U+30E4_U+30FC 1
370
     0
100
AcDbSpline
210
0.0
220
0.0
230
1.0
 70
    11
 71
     3
 72
    17
 73
    13
 74
     0
 42
0.0000000001
 43
0.0000000001
 12
1.0
 22
0.0
 32
0.0
 13
1.0
 23
0.0
 33
0.0
 40
0.0
 40
0.0
 40
0.0
 40
0.0
 40
1.0
 40
1.0
 40
1.0
 40
2.0
 40
2.0
 40
2.0
 40
3.0
 40
3.0
 40
3.0
 40
4.0
 40
4.0
 40
4.0
 40
4.0
 10
92.00816512456741
 20
-121.1447156815194
 30
0.0
 10
91.7583957018868
 20
-121.1447156815194
 30
0.0
 10
91.71188691283592
 20
-121.4282470399554
 30
0.0
 10
91.71188691283592
 20
-121.7731010980289
 30
0.0
 10
91.71188691283592
 20
-122.0924614495116
 30
0.0
 10
91.74806041543104
 20
-122.40114200499
 30
0.0
 10
92.00816512456741
 20
-122.40114200499
 30
0.0
 10
92.25586748995687
 20
-122.40114200499
 30
0.0
 10
92.30444333629889
 20
-122.1200222133936
 30
0.0
 10
92.30444333629889
 20
-121.7731010980289
 30
0.0
 10
92.30444333629889
 20
-121.4533962369978
 30
0.0
 10
92.26620277641263
 20
-121.1447156815194
 30
0.0
 10
92.00816512456741
 20
-121.1447156815194
 30
0.0
  0
HATCH
  5
115
330
10D
100
AcDbEntity
  8
_U+30EC_U+30A4_U+30E4_U+30FC 1
 62
   179
420
  2234388
100
AcDbHatch
 10
0.0
 20
0.0
 30
0.0
210
0.0
220
0.0
230
1.0
  2
SOLID
 70
     1
 71
     0
 91
        2
 92
        1
 93
        1
 72
     4
 94
        3
 73
     0
 74
     1
 95
       29
 96
       25
 40
0.0
 40
0.0
 40
0.0
 40
0.0
 40
1.0
 40
1.0
 40
1.0
 40
2.0
 40
2.0
 40
2.0
 40
3.0
 40
3.0
 40
3.0
 40
4.0
 40
4.0
 40
4.0
 40
5.0
 40
5.0
 40
5.0
 40
6.0
 40
6.0
 40
6.0
 40
7.0
 40
7.0
 40
7.0
 40
8.0
 40
8.0
 40
8.0
 40
8.0
 10
92.40607365311376
 20
-122.3673800692345
 10
92.29789765487692
 20
-122.5768418747377
 10
92.12460935196886
 20
-122.5957898999066
 10
92.00816512456741
 20
-122.5957898999066
 10
91.84727916540623
 20
-122.5957898999066
 10
91.70568574096247
 20
-122.5492811108557
 10
91.61060110556957
 20
-122.3673800692345
 10
91.50690373146355
 20
-122.1727321743179
 10
91.48761119674616
 20
-121.9360541144813
 10
91.48761119674616
 20
-121.7731010980289
 10
91.48761119674616
 20
-121.6290961067455
 10
91.50483667417241
 20
-121.3772596267737
 10
91.61060110556957
 20
-121.1784776172748
 10
91.71843259425789
 20
-120.9755614931936
 10
91.87931855341907
 20
-120.9521348438939
 10
92.00816512456741
 20
-120.9521348438939
 10
92.16698402643742
 20
-120.9521348438939
 10
92.31064450817235
 20
-120.9965765756536
 10
92.40607365311376
 20
-121.1784776172748
 10
92.50529240308896
 20
-121.3710584549003
 10
92.52871905238865
 20
-121.5994682855724
 10
92.52871905238865
 20
-121.7731010980289
 10
92.52871905238865
 20
-121.9443223436459
 10
92.50735946038012
 20
-122.1747992316091
 10
92.40607365311376
 20
-122.3673800692345
 97
        0
 97
        0
 92
        1
 93
        1
 72
     4
 94
        3
 73
     0
 74
     1
 95
       17
 96
       13
 40
0.0
 40
0.0
 40
0.0
 40
0.0
 40
1.0
 40
1.0
 40
1.0
 40
2.0
 40
2.0
 40
2.0
 40
3.0
 40
3.0
 40
3.0
 40
4.0
 40
4.0
 40
4.0
 40
4.0
 10
92.00816512456741
 20
-121.1447156815194
 10
91.7583957018868
 20
-121.1447156815194
 10
91.71188691283592
 20
-121.4282470399554
 10
91.71188691283592
 20
-121.7731010980289
 10
91.71188691283592
 20
-122.0924614495116
 10
91.74806041543104
 20
-122.40114200499
 10
92.00816512456741
 20
-122.40114200499
 10
92.25586748995687
 20
-122.40114200499
 10
92.30444333629889
 20
-122.1200222133936
 10
92.30444333629889
 20
-121.7731010980289
 10
92.30444333629889
 20
-121.4533962369978
 10
92.26620277641263
 20
-121.1447156815194
 10
92.00816512456741
 20
-121.1447156815194
 97
        0
 97
        0
 75
     2
 76
     1
 98
        0
  0
ENDBLK
  5
110
330
10D
100
AcDbEntity
  8
0
100
AcDbBlockEnd
  0
BLOCK
  5
124
330
122
100
AcDbEntity
  8
0
100
AcDbBlockBegin
  2
block 5
 70
     0
 10
0.0
 20
0.0
 30
0.0
  3
block 5
  1

  0
POLYLINE
  5
126
330
122
100
AcDbEntity
  8
_U+30EC_U+30A4_U+30E4_U+30FC 1
370
     0
100
AcDb2dPolyline
 66
     1
 10
0.0
 20
0.0
 30
0.0
  0
VERTEX
  5
127
330
126
100
AcDbEntity
  8
_U+30EC_U+30A4_U+30E4_U+30FC 1
370
     0
100
AcDbVertex
100
AcDb2dVertex
 10
91.16325545680988
 20
-134.6980658300408
 30
0.0
  0
VERTEX
  5
128
330
126
100
AcDbEntity
  8
_U+30EC_U+30A4_U+30E4_U+30FC 1
370
     0
100
AcDbVertex
100
AcDb2dVertex
 10
91.16325545680988
 20
-135.0449869454054
 30
0.0
  0
VERTEX
  5
129
330
126
100
AcDbEntity
  8
_U+30EC_U+30A4_U+30E4_U+30FC 1
370
     0
100
AcDbVertex
100
AcDb2dVertex
 10
90.9455254221421
 20
-135.0449869454054
 30
0.0
  0
VERTEX
  5
12A
330
126
100
AcDbEntity
  8
_U+30EC_U+30A4_U+30E4_U+30FC 1
370
     0
100
AcDbVertex
100
AcDb2dVertex
 10
90.9455254221421
 20
-134.6980658300408
 30
0.0
  0
VERTEX
  5
12B
330
126
100
AcDbEntity
  8
_U+30EC_U+30A4_U+30E4_U+30FC 1
370
     0
100
AcDbVertex
100
AcDb2dVertex
 10
90.28957924175053
 20
-134.6980658300408
 30
0.0
  0
VERTEX
  5
12C
330
126
100
AcDbEntity
  8
_U+30EC_U+30A4_U+30E4_U+30FC 1
370
     0
100
AcDbVertex
100
AcDb2dVertex
 10
90.28957924175053
 20
-134.473790113951
 30
0.0
  0
VERTEX
  5
12D
330
126
100
AcDbEntity
  8
_U+30EC_U+30A4_U+30E4_U+30FC 1
370
     0
100
AcDbVertex
100
AcDb2dVertex
 10
90.96860756189326
 20
-133.5005506393679
 30
0.0
  0
VERTEX
  5
12E
330
126
100
AcDbEntity
  8
_U+30EC_U+30A4_U+30E4_U+30FC 1
370
     0
100
AcDbVertex
100
AcDb2dVertex
 10
91.16325545680988
 20
-133.5005506393679
 30
0.0
  0
VERTEX
  5
12F
330
126
100
AcDbEntity
  8
_U+30EC_U+30A4_U+30E4_U+30FC 1
370
     0
100
AcDbVertex
100
AcDb2dVertex
 10
91.16325545680988
 20
-134.4992838205418
 30
0.0
  0
VERTEX
  5
130
330
126
100
AcDbEntity
  8
_U+30EC_U+30A4_U+30E4_U+30FC 1
370
     0
100
AcDbVertex
100
AcDb2dVertex
 10
91.37082245979619
 20
-134.4992838205418
 30
0.0
  0
VERTEX
  5
131
330
126
100
AcDbEntity
  8
_U+30EC_U+30A4_U+30E4_U+30FC 1
370
     0
100
AcDbVertex
100
AcDb2dVertex
 10
91.37082245979619
 20
-134.6980658300408
 30
0.0
  0
VERTEX
  5
132
330
126
100
AcDbEntity
  8
_U+30EC_U+30A4_U+30E4_U+30FC 1
370
     0
100
AcDbVertex
100
AcDb2dVertex
 10
91.16325545680988
 20
-134.6980658300408
 30
0.0
  0
SEQEND
  5
133
330
126
100
AcDbEntity
  8
_U+30EC_U+30A4_U+30E4_U+30FC 1
370
     0
  0
POLYLINE
  5
134
330
122
100
AcDbEntity
  8
_U+30EC_U+30A4_U+30E4_U+30FC 1
370
     0
100
AcDb2dPolyline
 66
     1
 10
0.0
 20
0.0
 30
0.0
  0
VERTEX
  5
135
330
134
100
AcDbEntity
  8
_U+30EC_U+30A4_U+30E4_U+30FC 1
370
     0
100
AcDbVertex
100
AcDb2dVertex
 10
90.9455254221421
 20
-133.8433376401503
 30
0.0
  0
VERTEX
  5
136
330
134
100
AcDbEntity
  8
_U+30EC_U+30A4_U+30E4_U+30FC 1
370
     0
100
AcDbVertex
100
AcDb2dVertex
 10
90.48836125124944
 20
-134.4992838205418
 30
0.0
  0
VERTEX
  5
137
330
134
100
AcDbEntity
  8
_U+30EC_U+30A4_U+30E4_U+30FC 1
370
     0
100
AcDbVertex
100
AcDb2dVertex
 10
90.9455254221421
 20
-134.4992838205418
 30
0.0
  0
VERTEX
  5
138
330
134
100
AcDbEntity
  8
_U+30EC_U+30A4_U+30E4_U+30FC 1
370
     0
100
AcDbVertex
100
AcDb2dVertex
 10
90.9455254221421
 20
-133.8433376401503
 30
0.0
  0
SEQEND
  5
139
330
134
100
AcDbEntity
  8
_U+30EC_U+30A4_U+30E4_U+30FC 1
370
     0
  0
HATCH
  5
13A
330
122
100
AcDbEntity
  8
_U+30EC_U+30A4_U+30E4_U+30FC 1
 62
   179
420
  2234388
100
AcDbHatch
 10
0.0
 20
0.0
 30
0.0
210
0.0
220
0.0
230
1.0
  2
SOLID
 70
     1
 71
     0
 91
        2
 92
        1
 93
       11
 72
     1
 10
91.16325545680988
 20
-134.6980658300408
 11
91.16325545680988
 21
-135.0449869454054
 72
     1
 10
91.16325545680988
 20
-135.0449869454054
 11
90.9455254221421
 21
-135.0449869454054
 72
     1
 10
90.9455254221421
 20
-135.0449869454054
 11
90.9455254221421
 21
-134.6980658300408
 72
     1
 10
90.9455254221421
 20
-134.6980658300408
 11
90.28957924175053
 21
-134.6980658300408
 72
     1
 10
90.28957924175053
 20
-134.6980658300408
 11
90.28957924175053
 21
-134.473790113951
 72
     1
 10
90.28957924175053
 20
-134.473790113951
 11
90.96860756189326
 21
-133.5005506393679
 72
     1
 10
90.96860756189326
 20
-133.5005506393679
 11
91.16325545680988
 21
-133.5005506393679
 72
     1
 10
91.16325545680988
 20
-133.5005506393679
 11
91.16325545680988
 21
-134.4992838205418
 72
     1
 10
91.16325545680988
 20
-134.4992838205418
 11
91.37082245979619
 21
-134.4992838205418
 72
     1
 10
91.37082245979619
 20
-134.4992838205418
 11
91.37082245979619
 21
-134.6980658300408
 72
     1
 10
91.37082245979619
 20
-134.6980658300408
 11
91.16325545680988
 21
-134.6980658300408
 97
        0
 92
        1
 93
        3
 72
     1
 10
90.9455254221421
 20
-133.8433376401503
 11
90.48836125124944
 21
-134.4992838205418
 72
     1
 10
90.48836125124944
 20
-134.4992838205418
 11
90.9455254221421
 21
-134.4992838205418
 72
     1
 10
90.9455254221421
 20
-134.4992838205418
 11
90.9455254221421
 21
-133.8433376401503
 97
        0
 75
     2
 76
     1
 98
        0
  0
SPLINE
  5
13B
330
122
100
AcDbEntity
  8
_U+30EC_U+30A4_U+30E4_U+30FC 1
370
     0
100
AcDbSpline
210
0.0
220
0.0
230
1.0
 70
    11
 71
     3
 72
    29
 73
    25
 74
     0
 42
0.0000000001
 43
0.0000000001
 12
1.0
 22
0.0
 32
0.0
 13
1.0
 23
0.0
 33
0.0
 40
0.0
 40
0.0
 40
0.0
 40
0.0
 40
1.0
 40
1.0
 40
1.0
 40
2.0
 40
2.0
 40
2.0
 40
3.0
 40
3.0
 40
3.0
 40
4.0
 40
4.0
 40
4.0
 40
5.0
 40
5.0
 40
5.0
 40
6.0
 40
6.0
 40
6.0
 40
7.0
 40
7.0
 40
7.0
 40
8.0
 40
8.0
 40
8.0
 40
8.0
 10
92.40607365311376
 20
-134.8672200183665
 30
0.0
 10
92.29789765487692
 20
-135.0766818238697
 30
0.0
 10
92.12460935196886
 20
-135.0956298490386
 30
0.0
 10
92.00816512456741
 20
-135.0956298490386
 30
0.0
 10
91.84727916540623
 20
-135.0956298490386
 30
0.0
 10
91.70568574096247
 20
-135.0491210599877
 30
0.0
 10
91.61060110556957
 20
-134.8672200183665
 30
0.0
 10
91.50690373146355
 20
-134.6725721234499
 30
0.0
 10
91.48761119674616
 20
-134.4355495540647
 30
0.0
 10
91.48761119674616
 20
-134.2729410471609
 30
0.0
 10
91.48761119674616
 20
-134.1289360558775
 30
0.0
 10
91.50483667417241
 20
-133.8770995759057
 30
0.0
 10
91.61060110556957
 20
-133.6783175664068
 30
0.0
 10
91.71843259425789
 20
-133.4754014423256
 30
0.0
 10
91.87931855341907
 20
-133.4519747930259
 30
0.0
 10
92.00816512456741
 20
-133.4519747930259
 30
0.0
 10
92.16698402643742
 20
-133.4519747930259
 30
0.0
 10
92.31064450817235
 20
-133.4964165247856
 30
0.0
 10
92.40607365311376
 20
-133.6783175664068
 30
0.0
 10
92.50529240308896
 20
-133.8708984040323
 30
0.0
 10
92.52871905238865
 20
-134.0993082347044
 30
0.0
 10
92.52871905238865
 20
-134.2729410471609
 30
0.0
 10
92.52871905238865
 20
-134.4441622927779
 30
0.0
 10
92.50735946038012
 20
-134.6746391807411
 30
0.0
 10
92.40607365311376
 20
-134.8672200183665
 30
0.0
  0
SPLINE
  5
13C
330
122
100
AcDbEntity
  8
_U+30EC_U+30A4_U+30E4_U+30FC 1
370
     0
100
AcDbSpline
210
0.0
220
0.0
230
1.0
 70
    11
 71
     3
 72
    17
 73
    13
 74
     0
 42
0.0000000001
 43
0.0000000001
 12
1.0
 22
0.0
 32
0.0
 13
1.0
 23
0.0
 33
0.0
 40
0.0
 40
0.0
 40
0.0
 40
0.0
 40
1.0
 40
1.0
 40
1.0
 40
2.0
 40
2.0
 40
2.0
 40
3.0
 40
3.0
 40
3.0
 40
4.0
 40
4.0
 40
4.0
 40
4.0
 10
92.00816512456741
 20
-133.6445556306514
 30
0.0
 10
91.7583957018868
 20
-133.6445556306514
 30
0.0
 10
91.71188691283592
 20
-133.9280869890874
 30
0.0
 10
91.71188691283592
 20
-134.2729410471609
 30
0.0
 10
91.71188691283592
 20
-134.5923013986436
 30
0.0
 10
91.74806041543104
 20
-134.900981954122
 30
0.0
 10
92.00816512456741
 20
-134.900981954122
 30
0.0
 10
92.25586748995687
 20
-134.900981954122
 30
0.0
 10
92.30444333629889
 20
-134.6198621625256
 30
0.0
 10
92.30444333629889
 20
-134.2729410471609
 30
0.0
 10
92.30444333629889
 20
-133.9532361861297
 30
0.0
 10
92.26620277641263
 20
-133.6445556306514
 30
0.0
 10
92.00816512456741
 20
-133.6445556306514
 30
0.0
  0
HATCH
  5
13D
330
122
100
AcDbEntity
  8
_U+30EC_U+30A4_U+30E4_U+30FC 1
 62
   179
420
  2234388
100
AcDbHatch
 10
0.0
 20
0.0
 30
0.0
210
0.0
220
0.0
230
1.0
  2
SOLID
 70
     1
 71
     0
 91
        2
 92
        1
 93
        1
 72
     4
 94
        3
 73
     0
 74
     1
 95
       29
 96
       25
 40
0.0
 40
0.0
 40
0.0
 40
0.0
 40
1.0
 40
1.0
 40
1.0
 40
2.0
 40
2.0
 40
2.0
 40
3.0
 40
3.0
 40
3.0
 40
4.0
 40
4.0
 40
4.0
 40
5.0
 40
5.0
 40
5.0
 40
6.0
 40
6.0
 40
6.0
 40
7.0
 40
7.0
 40
7.0
 40
8.0
 40
8.0
 40
8.0
 40
8.0
 10
92.40607365311376
 20
-134.8672200183665
 10
92.29789765487692
 20
-135.0766818238697
 10
92.12460935196886
 20
-135.0956298490386
 10
92.00816512456741
 20
-135.0956298490386
 10
91.84727916540623
 20
-135.0956298490386
 10
91.70568574096247
 20
-135.0491210599877
 10
91.61060110556957
 20
-134.8672200183665
 10
91.50690373146355
 20
-134.6725721234499
 10
91.48761119674616
 20
-134.4355495540647
 10
91.48761119674616
 20
-134.2729410471609
 10
91.48761119674616
 20
-134.1289360558775
 10
91.50483667417241
 20
-133.8770995759057
 10
91.61060110556957
 20
-133.6783175664068
 10
91.71843259425789
 20
-133.4754014423256
 10
91.87931855341907
 20
-133.4519747930259
 10
92.00816512456741
 20
-133.4519747930259
 10
92.16698402643742
 20
-133.4519747930259
 10
92.31064450817235
 20
-133.4964165247856
 10
92.40607365311376
 20
-133.6783175664068
 10
92.50529240308896
 20
-133.8708984040323
 10
92.52871905238865
 20
-134.0993082347044
 10
92.52871905238865
 20
-134.2729410471609
 10
92.52871905238865
 20
-134.4441622927779
 10
92.50735946038012
 20
-134.6746391807411
 10
92.40607365311376
 20
-134.8672200183665
 97
        0
 97
        0
 92
        1
 93
        1
 72
     4
 94
        3
 73
     0
 74
     1
 95
       17
 96
       13
 40
0.0
 40
0.0
 40
0.0
 40
0.0
 40
1.0
 40
1.0
 40
1.0
 40
2.0
 40
2.0
 40
2.0
 40
3.0
 40
3.0
 40
3.0
 40
4.0
 40
4.0
 40
4.0
 40
4.0
 10
92.00816512456741
 20
-133.6445556306514
 10
91.7583957018868
 20
-133.6445556306514
 10
91.71188691283592
 20
-133.9280869890874
 10
91.71188691283592
 20
-134.2729410471609
 10
91.71188691283592
 20
-134.5923013986436
 10
91.74806041543104
 20
-134.900981954122
 10
92.00816512456741
 20
-134.900981954122
 10
92.25586748995687
 20
-134.900981954122
 10
92.30444333629889
 20
-134.6198621625256
 10
92.30444333629889
 20
-134.2729410471609
 10
92.30444333629889
 20
-133.9532361861297
 10
92.26620277641263
 20
-133.6445556306514
 10
92.00816512456741
 20
-133.6445556306514
 97
        0
 97
        0
 75
     2
 76
     1
 98
        0
  0
ENDBLK
  5
125
330
122
100
AcDbEntity
  8
0
100
AcDbBlockEnd
  0
BLOCK
  5
14C
330
14A
100
AcDbEntity
  8
0
100
AcDbBlockBegin
  2
block 6
 70
     0
 10
0.0
 20
0.0
 30
0.0
  3
block 6
  1

  0
SPLINE
  5
14E
330
14A
100
AcDbEntity
  8
_U+30EC_U+30A4_U+30E4_U+30FC 1
370
     0
100
AcDbSpline
210
0.0
220
0.0
230
1.0
 70
    11
 71
     3
 72
    62
 73
    58
 74
     0
 42
0.0000000001
 43
0.0000000001
 12
1.0
 22
0.0
 32
0.0
 13
1.0
 23
0.0
 33
0.0
 40
0.0
 40
0.0
 40
0.0
 40
0.0
 40
1.0
 40
1.0
 40
1.0
 40
2.0
 40
2.0
 40
2.0
 40
3.0
 40
3.0
 40
3.0
 40
4.0
 40
4.0
 40
4.0
 40
5.0
 40
5.0
 40
5.0
 40
6.0
 40
6.0
 40
6.0
 40
7.0
 40
7.0
 40
7.0
 40
8.0
 40
8.0
 40
8.0
 40
9.0
 40
9.0
 40
9.0
 40
10.0
 40
10.0
 40
10.0
 40
11.0
 40
11.0
 40
11.0
 40
12.0
 40
12.0
 40
12.0
 40
13.0
 40
13.0
 40
13.0
 40
14.0
 40
14.0
 40
14.0
 40
15.0
 40
15.0
 40
15.0
 40
16.0
 40
16.0
 40
16.0
 40
17.0
 40
17.0
 40
17.0
 40
18.0
 40
18.0
 40
18.0
 40
19.0
 40
19.0
 40
19.0
 40
19.0
 10
66.95009085782846
 20
-129.1469834746577
 30
0.0
 10
66.95009085782846
 20
-129.2424126195991
 30
0.0
 10
66.92890352059416
 20
-129.4601426542669
 30
0.0
 10
66.74269610961642
 20
-129.5851996203815
 30
0.0
 10
66.63055825157153
 20
-129.6589246637658
 30
0.0
 10
66.53116724682208
 20
-129.6634032878966
 30
0.0
 10
66.44659015265918
 20
-129.667537402479
 30
0.0
 10
66.44659015265918
 20
-129.667537402479
 30
0.0
 10
66.44659015265918
 20
-129.4473958009715
 30
0.0
 10
66.44659015265918
 20
-129.4473958009715
 30
0.0
 10
66.52065970559207
 20
-129.4453287436803
 30
0.0
 10
66.75544296291184
 20
-129.4349934572246
 30
0.0
 10
66.75544296291184
 20
-129.1514620987885
 30
0.0
 10
66.75544296291184
 20
-129.0140027889271
 30
0.0
 10
66.68567977933553
 20
-128.8613850589305
 30
0.0
 10
66.4570976938892
 20
-128.8613850589305
 30
0.0
 10
66.34082572126202
 20
-128.8613850589305
 30
0.0
 10
66.29207762014573
 20
-128.8996256188168
 30
0.0
 10
66.26038274168144
 20
-128.9313204972811
 30
0.0
 10
66.18631318874856
 20
-129.0053900502139
 30
0.0
 10
66.1737385902274
 20
-129.1218342776154
 30
0.0
 10
66.1737385902274
 20
-129.1766112958309
 30
0.0
 10
66.1737385902274
 20
-129.1959038305482
 30
0.0
 10
66.17580564751856
 20
-129.2317328235949
 30
0.0
 10
66.17993976210086
 20
-129.2592935874769
 30
0.0
 10
66.17993976210086
 20
-129.2592935874769
 30
0.0
 10
65.98529186718423
 20
-129.2592935874769
 30
0.0
 10
65.98529186718423
 20
-129.2592935874769
 30
0.0
 10
65.99166529383194
 20
-129.2210530275906
 30
0.0
 10
65.99390460589736
 20
-129.1790228626705
 30
0.0
 10
65.99390460589736
 20
-129.1724771812486
 30
0.0
 10
65.99390460589736
 20
-129.1070203670288
 30
0.0
 10
65.97271726866308
 20
-128.9082383575299
 30
0.0
 10
65.73569469927789
 20
-128.9082383575299
 30
0.0
 10
65.55810002701325
 20
-128.9082383575299
 30
0.0
 10
65.50297849924925
 20
-129.0391519859694
 30
0.0
 10
65.50297849924925
 20
-129.1493950414974
 30
0.0
 10
65.50297849924925
 20
-129.413633865216
 30
0.0
 10
65.73569469927789
 20
-129.4222466039292
 30
0.0
 10
65.80769719491961
 20
-129.4263807185115
 30
0.0
 10
65.80769719491961
 20
-129.4263807185115
 30
0.0
 10
65.80769719491961
 20
-129.6296413521412
 30
0.0
 10
65.80769719491961
 20
-129.6296413521412
 30
0.0
 10
65.6828124835793
 20
-129.6210286134281
 30
0.0
 10
65.3062635470415
 20
-129.5934678495461
 30
0.0
 10
65.3062635470415
 20
-129.1366481882019
 30
0.0
 10
65.3062635470415
 20
-128.9123724721122
 30
0.0
 10
65.43321531567295
 20
-128.6712157881447
 30
0.0
 10
65.72932127263017
 20
-128.6712157881447
 30
0.0
 10
65.91552868360793
 20
-128.6712157881447
 30
0.0
 10
65.99803872047966
 20
-128.7663004235376
 30
0.0
 10
66.05936142011711
 20
-128.8658636830613
 30
0.0
 10
66.0869221839991
 20
-128.8045409834239
 30
0.0
 10
66.16736516357969
 20
-128.6224676870284
 30
0.0
 10
66.44452309536804
 20
-128.6224676870284
 30
0.0
 10
66.78300372679384
 20
-128.6224676870284
 30
0.0
 10
66.95009085782846
 20
-128.8699977976436
 30
0.0
 10
66.95009085782846
 20
-129.1469834746577
 30
0.0
  0
HATCH
  5
14F
330
14A
100
AcDbEntity
  8
_U+30EC_U+30A4_U+30E4_U+30FC 1
 62
   179
420
  2234388
100
AcDbHatch
 10
0.0
 20
0.0
 30
0.0
210
0.0
220
0.0
230
1.0
  2
SOLID
 70
     1
 71
     0
 91
        1
 92
        1
 93
        1
 72
     4
 94
        3
 73
     0
 74
     1
 95
       62
 96
       58
 40
0.0
 40
0.0
 40
0.0
 40
0.0
 40
1.0
 40
1.0
 40
1.0
 40
2.0
 40
2.0
 40
2.0
 40
3.0
 40
3.0
 40
3.0
 40
4.0
 40
4.0
 40
4.0
 40
5.0
 40
5.0
 40
5.0
 40
6.0
 40
6.0
 40
6.0
 40
7.0
 40
7.0
 40
7.0
 40
8.0
 40
8.0
 40
8.0
 40
9.0
 40
9.0
 40
9.0
 40
10.0
 40
10.0
 40
10.0
 40
11.0
 40
11.0
 40
11.0
 40
12.0
 40
12.0
 40
12.0
 40
13.0
 40
13.0
 40
13.0
 40
14.0
 40
14.0
 40
14.0
 40
15.0
 40
15.0
 40
15.0
 40
16.0
 40
16.0
 40
16.0
 40
17.0
 40
17.0
 40
17.0
 40
18.0
 40
18.0
 40
18.0
 40
19.0
 40
19.0
 40
19.0
 40
19.0
 10
66.95009085782846
 20
-129.1469834746577
 10
66.95009085782846
 20
-129.2424126195991
 10
66.92890352059416
 20
-129.4601426542669
 10
66.74269610961642
 20
-129.5851996203815
 10
66.63055825157153
 20
-129.6589246637658
 10
66.53116724682208
 20
-129.6634032878966
 10
66.44659015265918
 20
-129.667537402479
 10
66.44659015265918
 20
-129.667537402479
 10
66.44659015265918
 20
-129.4473958009715
 10
66.44659015265918
 20
-129.4473958009715
 10
66.52065970559207
 20
-129.4453287436803
 10
66.75544296291184
 20
-129.4349934572246
 10
66.75544296291184
 20
-129.1514620987885
 10
66.75544296291184
 20
-129.0140027889271
 10
66.68567977933553
 20
-128.8613850589305
 10
66.4570976938892
 20
-128.8613850589305
 10
66.34082572126202
 20
-128.8613850589305
 10
66.29207762014573
 20
-128.8996256188168
 10
66.26038274168144
 20
-128.9313204972811
 10
66.18631318874856
 20
-129.0053900502139
 10
66.1737385902274
 20
-129.1218342776154
 10
66.1737385902274
 20
-129.1766112958309
 10
66.1737385902274
 20
-129.1959038305482
 10
66.17580564751856
 20
-129.2317328235949
 10
66.17993976210086
 20
-129.2592935874769
 10
66.17993976210086
 20
-129.2592935874769
 10
65.98529186718423
 20
-129.2592935874769
 10
65.98529186718423
 20
-129.2592935874769
 10
65.99166529383194
 20
-129.2210530275906
 10
65.99390460589736
 20
-129.1790228626705
 10
65.99390460589736
 20
-129.1724771812486
 10
65.99390460589736
 20
-129.1070203670288
 10
65.97271726866308
 20
-128.9082383575299
 10
65.73569469927789
 20
-128.9082383575299
 10
65.55810002701325
 20
-128.9082383575299
 10
65.50297849924925
 20
-129.0391519859694
 10
65.50297849924925
 20
-129.1493950414974
 10
65.50297849924925
 20
-129.413633865216
 10
65.73569469927789
 20
-129.4222466039292
 10
65.80769719491961
 20
-129.4263807185115
 10
65.80769719491961
 20
-129.4263807185115
 10
65.80769719491961
 20
-129.6296413521412
 10
65.80769719491961
 20
-129.6296413521412
 10
65.6828124835793
 20
-129.6210286134281
 10
65.3062635470415
 20
-129.5934678495461
 10
65.3062635470415
 20
-129.1366481882019
 10
65.3062635470415
 20
-128.9123724721122
 10
65.43321531567295
 20
-128.6712157881447
 10
65.72932127263017
 20
-128.6712157881447
 10
65.91552868360793
 20
-128.6712157881447
 10
65.99803872047966
 20
-128.7663004235376
 10
66.05936142011711
 20
-128.8658636830613
 10
66.0869221839991
 20
-128.8045409834239
 10
66.16736516357969
 20
-128.6224676870284
 10
66.44452309536804
 20
-128.6224676870284
 10
66.78300372679384
 20
-128.6224676870284
 10
66.95009085782846
 20
-128.8699977976436
 10
66.95009085782846
 20
-129.1469834746577
 97
        0
 97
        0
 75
     2
 76
     1
 98
        0
  0
ENDBLK
  5
14D
330
14A
100
AcDbEntity
  8
0
100
AcDbBlockEnd
  0
ENDSEC
  0
SECTION
  2
ENTITIES
  0
POLYLINE
  5
41
330
1F
100
AcDbEntity
  8
_U+30EC_U+30A4_U+30E4_U+30FC 1
 62
   179
420
  2234388
370
    25
100
AcDb2dPolyline
 66
     1
 10
0.0
 20
0.0
 30
0.0
  0
VERTEX
  5
42
330
41
100
AcDbEntity
  8
_U+30EC_U+30A4_U+30E4_U+30FC 1
 62
   179
420
  2234388
370
    25
100
AcDbVertex
100
AcDb2dVertex
 10
71.49556539821839
 20
-131.6408974670899
 30
0.0
  0
VERTEX
  5
43
330
41
100
AcDbEntity
  8
_U+30EC_U+30A4_U+30E4_U+30FC 1
 62
   179
420
  2234388
370
    25
100
AcDbVertex
100
AcDb2dVertex
 10
87.49559164479285
 20
-131.6408974670899
 30
0.0
  0
SEQEND
  5
44
330
41
100
AcDbEntity
  8
_U+30EC_U+30A4_U+30E4_U+30FC 1
 62
   179
420
  2234388
370
    25
  0
POLYLINE
  5
45
330
1F
100
AcDbEntity
  8
_U+30EC_U+30A4_U+30E4_U+30FC 1
 62
   179
420
  2234388
370
    25
100
AcDb2dPolyline
 66
     1
 10
0.0
 20
0.0
 30
0.0
  0
VERTEX
  5
46
330
45
100
AcDbEntity
  8
_U+30EC_U+30A4_U+30E4_U+30FC 1
 62
   179
420
  2234388
370
    25
100
AcDbVertex
100
AcDb2dVertex
 10
71.49556539821839
 20
-130.6411252451174
 30
0.0
  0
VERTEX
  5
47
330
45
100
AcDbEntity
  8
_U+30EC_U+30A4_U+30E4_U+30FC 1
 62
   179
420
  2234388
370
    25
100
AcDbVertex
100
AcDb2dVertex
 10
86.49549973776041
 20
-130.6411252451174
 30
0.0
  0
SEQEND
  5
48
330
45
100
AcDbEntity
  8
_U+30EC_U+30A4_U+30E4_U+30FC 1
 62
   179
420
  2234388
370
    25
  0
POLYLINE
  5
49
330
1F
100
AcDbEntity
  8
_U+30EC_U+30A4_U+30E4_U+30FC 1
 62
   179
420
  2234388
370
    25
100
AcDb2dPolyline
 66
     1
 10
0.0
 20
0.0
 30
0.0
  0
VERTEX
  5
4A
330
49
100
AcDbEntity
  8
_U+30EC_U+30A4_U+30E4_U+30FC 1
 62
   179
420
  2234388
370
    25
100
AcDbVertex
100
AcDb2dVertex
 10
86.49549973776041
 20
-127.6404327458678
 30
0.0
  0
VERTEX
  5
4B
330
49
100
AcDbEntity
  8
_U+30EC_U+30A4_U+30E4_U+30FC 1
 62
   179
420
  2234388
370
    25
100
AcDbVertex
100
AcDb2dVertex
 10
96.49576170485469
 20
-127.6404327458678
 30
0.0
  0
SEQEND
  5
4C
330
49
100
AcDbEntity
  8
_U+30EC_U+30A4_U+30E4_U+30FC 1
 62
   179
420
  2234388
370
    25
  0
POLYLINE
  5
4D
330
1F
100
AcDbEntity
  8
_U+30EC_U+30A4_U+30E4_U+30FC 1
 62
   179
420
  2234388
370
    25
100
AcDb2dPolyline
 66
     1
 10
0.0
 20
0.0
 30
0.0
  0
VERTEX
  5
4E
330
4D
100
AcDbEntity
  8
_U+30EC_U+30A4_U+30E4_U+30FC 1
 62
   179
420
  2234388
370
    25
100
AcDbVertex
100
AcDb2dVertex
 10
87.49559164479285
 20
-128.6409105233952
 30
0.0
  0
VERTEX
  5
4F
330
4D
100
AcDbEntity
  8
_U+30EC_U+30A4_U+30E4_U+30FC 1
 62
   179
420
  2234388
370
    25
100
AcDbVertex
100
AcDb2dVertex
 10
95.49528395260123
 20
-128.6409105233952
 30
0.0
  0
SEQEND
  5
50
330
4D
100
AcDbEntity
  8
_U+30EC_U+30A4_U+30E4_U+30FC 1
 62
   179
420
  2234388
370
    25
  0
POLYLINE
  5
51
330
1F
100
AcDbEntity
  8
_U+30EC_U+30A4_U+30E4_U+30FC 1
 62
   179
420
  2234388
370
    25
100
AcDb2dPolyline
 66
     1
 10
0.0
 20
0.0
 30
0.0
  0
VERTEX
  5
52
330
51
100
AcDbEntity
  8
_U+30EC_U+30A4_U+30E4_U+30FC 1
 62
   179
420
  2234388
370
    25
100
AcDbVertex
100
AcDb2dVertex
 10
96.49576170485469
 20
-127.6404327458678
 30
0.0
  0
VERTEX
  5
53
330
51
100
AcDbEntity
  8
_U+30EC_U+30A4_U+30E4_U+30FC 1
 62
   179
420
  2234388
370
    25
100
AcDbVertex
100
AcDb2dVertex
 10
96.49576170485469
 20
-130.2869716340949
 30
0.0
  0
SEQEND
  5
54
330
51
100
AcDbEntity
  8
_U+30EC_U+30A4_U+30E4_U+30FC 1
 62
   179
420
  2234388
370
    25
  0
POLYLINE
  5
55
330
1F
100
AcDbEntity
  8
_U+30EC_U+30A4_U+30E4_U+30FC 1
 62
   179
420
  2234388
370
    25
100
AcDb2dPolyline
 66
     1
 10
0.0
 20
0.0
 30
0.0
  0
VERTEX
  5
56
330
55
100
AcDbEntity
  8
_U+30EC_U+30A4_U+30E4_U+30FC 1
 62
   179
420
  2234388
370
    25
100
AcDbVertex
100
AcDb2dVertex
 10
86.49549973776041
 20
-127.6404327458678
 30
0.0
  0
VERTEX
  5
57
330
55
100
AcDbEntity
  8
_U+30EC_U+30A4_U+30E4_U+30FC 1
 62
   179
420
  2234388
370
    25
100
AcDbVertex
100
AcDb2dVertex
 10
86.49549973776041
 20
-130.6411252451174
 30
0.0
  0
SEQEND
  5
58
330
55
100
AcDbEntity
  8
_U+30EC_U+30A4_U+30E4_U+30FC 1
 62
   179
420
  2234388
370
    25
  0
POLYLINE
  5
59
330
1F
100
AcDbEntity
  8
_U+30EC_U+30A4_U+30E4_U+30FC 1
 62
   179
420
  2234388
370
    25
100
AcDb2dPolyline
 66
     1
 10
0.0
 20
0.0
 30
0.0
  0
VERTEX
  5
5A
330
59
100
AcDbEntity
  8
_U+30EC_U+30A4_U+30E4_U+30FC 1
 62
   179
420
  2234388
370
    25
100
AcDbVertex
100
AcDb2dVertex
 10
87.49559164479285
 20
-128.6409105233952
 30
0.0
  0
VERTEX
  5
5B
330
59
100
AcDbEntity
  8
_U+30EC_U+30A4_U+30E4_U+30FC 1
 62
   179
420
  2234388
370
    25
100
AcDbVertex
100
AcDb2dVertex
 10
87.49559164479285
 20
-131.6408974670899
 30
0.0
  0
SEQEND
  5
5C
330
59
100
AcDbEntity
  8
_U+30EC_U+30A4_U+30E4_U+30FC 1
 62
   179
420
  2234388
370
    25
  0
POLYLINE
  5
5D
330
1F
100
AcDbEntity
  8
_U+30EC_U+30A4_U+30E4_U+30FC 1
 62
   179
420
  2234388
370
    25
100
AcDb2dPolyline
 66
     1
 10
0.0
 20
0.0
 30
0.0
  0
VERTEX
  5
5E
330
5D
100
AcDbEntity
  8
_U+30EC_U+30A4_U+30E4_U+30FC 1
 62
   179
420
  2234388
370
    25
100
AcDbVertex
100
AcDb2dVertex
 10
95.49528395260123
 20
-128.6409105233952
 30
0.0
  0
VERTEX
  5
5F
330
5D
100
AcDbEntity
  8
_U+30EC_U+30A4_U+30E4_U+30FC 1
 62
   179
420
  2234388
370
    25
100
AcDbVertex
100
AcDb2dVertex
 10
95.49528395260123
 20
-131.6408974670899
 30
0.0
  0
SEQEND
  5
60
330
5D
100
AcDbEntity
  8
_U+30EC_U+30A4_U+30E4_U+30FC 1
 62
   179
420
  2234388
370
    25
  0
POLYLINE
  5
61
330
1F
100
AcDbEntity
  8
_U+30EC_U+30A4_U+30E4_U+30FC 1
 62
   179
420
  2234388
370
    25
100
AcDb2dPolyline
 66
     1
 10
0.0
 20
0.0
 30
0.0
  0
VERTEX
  5
62
330
61
100
AcDbEntity
  8
_U+30EC_U+30A4_U+30E4_U+30FC 1
 62
   179
420
  2234388
370
    25
100
AcDbVertex
100
AcDb2dVertex
 10
96.84920975139303
 20
-130.6411252451174
 30
0.0
  0
VERTEX
  5
63
330
61
100
AcDbEntity
  8
_U+30EC_U+30A4_U+30E4_U+30FC 1
 62
   179
420
  2234388
370
    25
100
AcDbVertex
100
AcDb2dVertex
 10
111.4956960443967
 20
-130.6411252451174
 30
0.0
  0
SEQEND
  5
64
330
61
100
AcDbEntity
  8
_U+30EC_U+30A4_U+30E4_U+30FC 1
 62
   179
420
  2234388
370
    25
  0
POLYLINE
  5
65
330
1F
100
AcDbEntity
  8
_U+30EC_U+30A4_U+30E4_U+30FC 1
 62
   179
420
  2234388
370
    25
100
AcDb2dPolyline
 66
     1
 10
0.0
 20
0.0
 30
0.0
  0
VERTEX
  5
66
330
65
100
AcDbEntity
  8
_U+30EC_U+30A4_U+30E4_U+30FC 1
 62
   179
420
  2234388
370
    25
100
AcDbVertex
100
AcDb2dVertex
 10
95.49528395260123
 20
-131.6408974670899
 30
0.0
  0
VERTEX
  5
67
330
65
100
AcDbEntity
  8
_U+30EC_U+30A4_U+30E4_U+30FC 1
 62
   179
420
  2234388
370
    25
100
AcDbVertex
100
AcDb2dVertex
 10
111.4956960443967
 20
-131.6408974670899
 30
0.0
  0
SEQEND
  5
68
330
65
100
AcDbEntity
  8
_U+30EC_U+30A4_U+30E4_U+30FC 1
 62
   179
420
  2234388
370
    25
  0
POLYLINE
  5
69
330
1F
100
AcDbEntity
  8
_U+30EC_U+30A4_U+30E4_U+30FC 1
  6
AI-Linetype-1
 62
   154
420
    23468
370
    25
100
AcDb2dPolyline
 66
     1
 10
0.0
 20
0.0
 30
0.0
  0
VERTEX
  5
6A
330
69
100
AcDbEntity
  8
_U+30EC_U+30A4_U+30E4_U+30FC 1
  6
AI-Linetype-1
 62
   154
420
    23468
370
    25
100
AcDbVertex
100
AcDb2dVertex
 10
86.49549973776041
 20
-127.1408994126593
 30
0.0
  0
VERTEX
  5
6B
330
69
100
AcDbEntity
  8
_U+30EC_U+30A4_U+30E4_U+30FC 1
  6
AI-Linetype-1
 62
   154
420
    23468
370
    25
100
AcDbVertex
100
AcDb2dVertex
 10
96.49576170485469
 20
-127.1408994126593
 30
0.0
  0
SEQEND
  5
6D
330
69
100
AcDbEntity
  8
_U+30EC_U+30A4_U+30E4_U+30FC 1
  6
AI-Linetype-1
 62
   154
420
    23468
370
    25
  0
POLYLINE
  5
6E
330
1F
100
AcDbEntity
  8
_U+30EC_U+30A4_U+30E4_U+30FC 1
 62
   179
420
  2234388
370
    25
100
AcDb2dPolyline
 66
     1
 10
0.0
 20
0.0
 30
0.0
  0
VERTEX
  5
6F
330
6E
100
AcDbEntity
  8
_U+30EC_U+30A4_U+30E4_U+30FC 1
 62
   179
420
  2234388
370
    25
100
AcDbVertex
100
AcDb2dVertex
 10
95.64549672654675
 20
-131.6408974670899
 30
0.0
  0
VERTEX
  5
70
330
6E
100
AcDbEntity
  8
_U+30EC_U+30A4_U+30E4_U+30FC 1
 62
   179
420
  2234388
370
    25
100
AcDbVertex
100
AcDb2dVertex
 10
96.84920975139303
 20
-130.6411252451174
 30
0.0
  0
SEQEND
  5
71
330
6E
100
AcDbEntity
  8
_U+30EC_U+30A4_U+30E4_U+30FC 1
 62
   179
420
  2234388
370
    25
  0
POLYLINE
  5
72
330
1F
100
AcDbEntity
  8
_U+30EC_U+30A4_U+30E4_U+30FC 1
 62
   179
420
  2234388
370
    25
100
AcDb2dPolyline
 66
     1
 10
0.0
 20
0.0
 30
0.0
  0
VERTEX
  5
73
330
72
100
AcDbEntity
  8
_U+30EC_U+30A4_U+30E4_U+30FC 1
 62
   179
420
  2234388
370
    25
100
AcDbVertex
100
AcDb2dVertex
 10
96.49576170485469
 20
-130.2869716340949
 30
0.0
  0
VERTEX
  5
74
330
72
100
AcDbEntity
  8
_U+30EC_U+30A4_U+30E4_U+30FC 1
 62
   179
420
  2234388
370
    25
100
AcDbVertex
100
AcDb2dVertex
 10
95.49528395260123
 20
-131.4906846893494
 30
0.0
  0
SEQEND
  5
75
330
72
100
AcDbEntity
  8
_U+30EC_U+30A4_U+30E4_U+30FC 1
 62
   179
420
  2234388
370
    25
  0
POLYLINE
  5
76
330
1F
100
AcDbEntity
  8
_U+30EC_U+30A4_U+30E4_U+30FC 1
 62
   179
420
  2234388
370
     9
100
AcDb2dPolyline
 66
     1
 10
0.0
 20
0.0
 30
0.0
  0
VERTEX
  5
77
330
76
100
AcDbEntity
  8
_U+30EC_U+30A4_U+30E4_U+30FC 1
 62
   179
420
  2234388
370
     9
100
AcDbVertex
100
AcDb2dVertex
 10
96.91397974974062
 20
-130.285595800762
 30
0.0
  0
VERTEX
  5
78
330
76
100
AcDbEntity
  8
_U+30EC_U+30A4_U+30E4_U+30FC 1
 62
   179
420
  2234388
370
     9
100
AcDbVertex
100
AcDb2dVertex
 10
102.4874451631052
 20
-127.0678744126775
 30
0.0
  0
SEQEND
  5
79
330
76
100
AcDbEntity
  8
_U+30EC_U+30A4_U+30E4_U+30FC 1
 62
   179
420
  2234388
370
     9
  0
POLYLINE
  5
7A
330
1F
100
AcDbEntity
  8
_U+30EC_U+30A4_U+30E4_U+30FC 1
 62
   179
420
  2234388
370
     9
100
AcDb2dPolyline
 66
     1
 10
0.0
 20
0.0
 30
0.0
  0
VERTEX
  5
7B
330
7A
100
AcDbEntity
  8
_U+30EC_U+30A4_U+30E4_U+30FC 1
 62
   179
420
  2234388
370
     9
100
AcDbVertex
100
AcDb2dVertex
 10
102.4874451631052
 20
-127.0678744126775
 30
0.0
  0
VERTEX
  5
7C
330
7A
100
AcDbEntity
  8
_U+30EC_U+30A4_U+30E4_U+30FC 1
 62
   179
420
  2234388
370
     9
100
AcDbVertex
100
AcDb2dVertex
 10
114.3751034709369
 20
-127.0678744126775
 30
0.0
  0
SEQEND
  5
7D
330
7A
100
AcDbEntity
  8
_U+30EC_U+30A4_U+30E4_U+30FC 1
 62
   179
420
  2234388
370
     9
  0
POLYLINE
  5
7E
330
1F
100
AcDbEntity
  8
_U+30EC_U+30A4_U+30E4_U+30FC 1
 62
   179
420
  2234388
370
     9
100
AcDb2dPolyline
 66
     1
 10
0.0
 20
0.0
 30
0.0
  0
VERTEX
  5
7F
330
7E
100
AcDbEntity
  8
_U+30EC_U+30A4_U+30E4_U+30FC 1
 62
   179
420
  2234388
370
     9
100
AcDbVertex
100
AcDb2dVertex
 10
96.91397974974062
 20
-130.285595800762
 30
0.0
  0
VERTEX
  5
80
330
7E
100
AcDbEntity
  8
_U+30EC_U+30A4_U+30E4_U+30FC 1
 62
   179
420
  2234388
370
     9
100
AcDbVertex
100
AcDb2dVertex
 10
97.8799911139845
 20
-130.026515800827
 30
0.0
  0
SEQEND
  5
81
330
7E
100
AcDbEntity
  8
_U+30EC_U+30A4_U+30E4_U+30FC 1
 62
   179
420
  2234388
370
     9
  0
POLYLINE
  5
82
330
1F
100
AcDbEntity
  8
_U+30EC_U+30A4_U+30E4_U+30FC 1
 62
   179
420
  2234388
370
     9
100
AcDb2dPolyline
 66
     1
 10
0.0
 20
0.0
 30
0.0
  0
VERTEX
  5
83
330
82
100
AcDbEntity
  8
_U+30EC_U+30A4_U+30E4_U+30FC 1
 62
   179
420
  2234388
370
     9
100
AcDbVertex
100
AcDb2dVertex
 10
96.91397974974062
 20
-130.285595800762
 30
0.0
  0
VERTEX
  5
84
330
82
100
AcDbEntity
  8
_U+30EC_U+30A4_U+30E4_U+30FC 1
 62
   179
420
  2234388
370
     9
100
AcDbVertex
100
AcDb2dVertex
 10
97.62091112059419
 20
-129.5779588564944
 30
0.0
  0
SEQEND
  5
85
330
82
100
AcDbEntity
  8
_U+30EC_U+30A4_U+30E4_U+30FC 1
 62
   179
420
  2234388
370
     9
  0
POLYLINE
  5
86
330
1F
100
AcDbEntity
  8
_U+30EC_U+30A4_U+30E4_U+30FC 1
 62
   179
420
  2234388
370
     9
100
AcDb2dPolyline
 66
     1
 10
0.0
 20
0.0
 30
0.0
  0
VERTEX
  5
87
330
86
100
AcDbEntity
  8
_U+30EC_U+30A4_U+30E4_U+30FC 1
 62
   179
420
  2234388
370
     9
100
AcDbVertex
100
AcDb2dVertex
 10
96.90985224984591
 20
-126.5014896905969
 30
0.0
  0
VERTEX
  5
88
330
86
100
AcDbEntity
  8
_U+30EC_U+30A4_U+30E4_U+30FC 1
 62
   179
420
  2234388
370
     9
100
AcDbVertex
100
AcDb2dVertex
 10
97.61745389846016
 20
-125.7945583018846
 30
0.0
  0
SEQEND
  5
89
330
86
100
AcDbEntity
  8
_U+30EC_U+30A4_U+30E4_U+30FC 1
 62
   179
420
  2234388
370
     9
  0
POLYLINE
  5
8A
330
1F
100
AcDbEntity
  8
_U+30EC_U+30A4_U+30E4_U+30FC 1
 62
   179
420
  2234388
370
     9
100
AcDb2dPolyline
 66
     1
 10
0.0
 20
0.0
 30
0.0
  0
VERTEX
  5
8B
330
8A
100
AcDbEntity
  8
_U+30EC_U+30A4_U+30E4_U+30FC 1
 62
   179
420
  2234388
370
     9
100
AcDbVertex
100
AcDb2dVertex
 10
96.90985224984591
 20
-126.5014896905969
 30
0.0
  0
VERTEX
  5
8C
330
8A
100
AcDbEntity
  8
_U+30EC_U+30A4_U+30E4_U+30FC 1
 62
   179
420
  2234388
370
     9
100
AcDbVertex
100
AcDb2dVertex
 10
97.8758636140898
 20
-126.2424096906616
 30
0.0
  0
SEQEND
  5
8D
330
8A
100
AcDbEntity
  8
_U+30EC_U+30A4_U+30E4_U+30FC 1
 62
   179
420
  2234388
370
     9
  0
POLYLINE
  5
8E
330
1F
100
AcDbEntity
  8
_U+30EC_U+30A4_U+30E4_U+30FC 1
 62
   179
420
  2234388
370
     9
100
AcDb2dPolyline
 66
     1
 10
0.0
 20
0.0
 30
0.0
  0
VERTEX
  5
8F
330
8E
100
AcDbEntity
  8
_U+30EC_U+30A4_U+30E4_U+30FC 1
 62
   179
420
  2234388
370
     9
100
AcDbVertex
100
AcDb2dVertex
 10
96.90985224984591
 20
-126.5014896905969
 30
0.0
  0
VERTEX
  5
90
330
8E
100
AcDbEntity
  8
_U+30EC_U+30A4_U+30E4_U+30FC 1
 62
   179
420
  2234388
370
     9
100
AcDbVertex
100
AcDb2dVertex
 10
102.4833176632105
 20
-123.2837683025124
 30
0.0
  0
SEQEND
  5
91
330
8E
100
AcDbEntity
  8
_U+30EC_U+30A4_U+30E4_U+30FC 1
 62
   179
420
  2234388
370
     9
  0
POLYLINE
  5
92
330
1F
100
AcDbEntity
  8
_U+30EC_U+30A4_U+30E4_U+30FC 1
 62
   179
420
  2234388
370
    25
100
AcDb2dPolyline
 66
     1
 10
0.0
 20
0.0
 30
0.0
  0
VERTEX
  5
93
330
92
100
AcDbEntity
  8
_U+30EC_U+30A4_U+30E4_U+30FC 1
 62
   179
420
  2234388
370
    25
100
AcDbVertex
100
AcDb2dVertex
 10
111.4956960443967
 20
-130.6411252451174
 30
0.0
  0
VERTEX
  5
94
330
92
100
AcDbEntity
  8
_U+30EC_U+30A4_U+30E4_U+30FC 1
 62
   179
420
  2234388
370
    25
100
AcDbVertex
100
AcDb2dVertex
 10
111.4956960443967
 20
-131.6408974670899
 30
0.0
  0
SEQEND
  5
95
330
92
100
AcDbEntity
  8
_U+30EC_U+30A4_U+30E4_U+30FC 1
 62
   179
420
  2234388
370
    25
  0
POLYLINE
  5
96
330
1F
100
AcDbEntity
  8
_U+30EC_U+30A4_U+30E4_U+30FC 1
 62
   179
420
  2234388
370
    25
100
AcDb2dPolyline
 66
     1
 10
0.0
 20
0.0
 30
0.0
  0
VERTEX
  5
97
330
96
100
AcDbEntity
  8
_U+30EC_U+30A4_U+30E4_U+30FC 1
 62
   179
420
  2234388
370
    25
100
AcDbVertex
100
AcDb2dVertex
 10
71.49556539821839
 20
-130.6411252451174
 30
0.0
  0
VERTEX
  5
98
330
96
100
AcDbEntity
  8
_U+30EC_U+30A4_U+30E4_U+30FC 1
 62
   179
420
  2234388
370
    25
100
AcDbVertex
100
AcDb2dVertex
 10
71.49556539821839
 20
-131.6408974670899
 30
0.0
  0
SEQEND
  5
99
330
96
100
AcDbEntity
  8
_U+30EC_U+30A4_U+30E4_U+30FC 1
 62
   179
420
  2234388
370
    25
  0
SPLINE
  5
9A
330
1F
100
AcDbEntity
  8
_U+30EC_U+30A4_U+30E4_U+30FC 1
 62
   179
420
  2234388
370
     9
100
AcDbSpline
210
0.0
220
0.0
230
1.0
 70
    11
 71
     3
 72
    17
 73
    13
 74
     0
 42
0.0000000001
 43
0.0000000001
 12
1.0
 22
0.0
 32
0.0
 13
1.0
 23
0.0
 33
0.0
 40
0.0
 40
0.0
 40
0.0
 40
0.0
 40
1.0
 40
1.0
 40
1.0
 40
2.0
 40
2.0
 40
2.0
 40
3.0
 40
3.0
 40
3.0
 40
4.0
 40
4.0
 40
4.0
 40
4.0
 10
86.59575917964702
 20
-123.1404699692147
 30
0.0
 10
86.59575917964702
 20
-123.085330802562
 30
0.0
 10
86.55095640301225
 20
-123.0405633025731
 30
0.0
 10
86.49549973776041
 20
-123.0405633025731
 30
0.0
 10
86.44004307250856
 20
-123.0405633025731
 30
0.0
 10
86.39559307364257
 20
-123.085330802562
 30
0.0
 10
86.39559307364257
 20
-123.1404699692147
 30
0.0
 10
86.39559307364257
 20
-123.1962794136455
 30
0.0
 10
86.44004307250856
 20
-123.2410469136341
 30
0.0
 10
86.49549973776041
 20
-123.2410469136341
 30
0.0
 10
86.55095640301225
 20
-123.2410469136341
 30
0.0
 10
86.59575917964702
 20
-123.1962794136455
 30
0.0
 10
86.59575917964702
 20
-123.1404699692147
 30
0.0
  0
SPLINE
  5
9B
330
1F
100
AcDbEntity
  8
_U+30EC_U+30A4_U+30E4_U+30FC 1
 62
   179
420
  2234388
370
     9
100
AcDbSpline
210
0.0
220
0.0
230
1.0
 70
    11
 71
     3
 72
    17
 73
    13
 74
     0
 42
0.0000000001
 43
0.0000000001
 12
1.0
 22
0.0
 32
0.0
 13
1.0
 23
0.0
 33
0.0
 40
0.0
 40
0.0
 40
0.0
 40
0.0
 40
1.0
 40
1.0
 40
1.0
 40
2.0
 40
2.0
 40
2.0
 40
3.0
 40
3.0
 40
3.0
 40
4.0
 40
4.0
 40
4.0
 40
4.0
 10
96.59566836897253
 20
-123.1404699692147
 30
0.0
 10
96.59566836897253
 20
-123.085330802562
 30
0.0
 10
96.55086559233776
 20
-123.0405633025731
 30
0.0
 10
96.49576170485469
 20
-123.0405633025731
 30
0.0
 10
96.44062497588985
 20
-123.0405633025731
 30
0.0
 10
96.39582219812313
 20
-123.085330802562
 30
0.0
 10
96.39582219812313
 20
-123.1404699692147
 30
0.0
 10
96.39582219812313
 20
-123.1962794136455
 30
0.0
 10
96.44062497588985
 20
-123.2410469136341
 30
0.0
 10
96.49576170485469
 20
-123.2410469136341
 30
0.0
 10
96.55086559233776
 20
-123.2410469136341
 30
0.0
 10
96.59566836897253
 20
-123.1962794136455
 30
0.0
 10
96.59566836897253
 20
-123.1404699692147
 30
0.0
  0
SPLINE
  5
9C
330
1F
100
AcDbEntity
  8
_U+30EC_U+30A4_U+30E4_U+30FC 1
 62
   179
420
  2234388
370
     9
100
AcDbSpline
210
0.0
220
0.0
230
1.0
 70
    11
 71
     3
 72
    17
 73
    13
 74
     0
 42
0.0000000001
 43
0.0000000001
 12
1.0
 22
0.0
 32
0.0
 13
1.0
 23
0.0
 33
0.0
 40
0.0
 40
0.0
 40
0.0
 40
0.0
 40
1.0
 40
1.0
 40
1.0
 40
2.0
 40
2.0
 40
2.0
 40
3.0
 40
3.0
 40
3.0
 40
4.0
 40
4.0
 40
4.0
 40
4.0
 10
67.59553660882753
 20
-127.6404327458678
 30
0.0
 10
67.59553660882753
 20
-127.5853288569926
 30
0.0
 10
67.55073383219276
 20
-127.5405260792259
 30
0.0
 10
67.4954535558253
 20
-127.5405260792259
 30
0.0
 10
67.44031439056535
 20
-127.5405260792259
 30
0.0
 10
67.39554689170747
 20
-127.5853288569926
 30
0.0
 10
67.39554689170747
 20
-127.6404327458678
 30
0.0
 10
67.39554689170747
 20
-127.6962421902983
 30
0.0
 10
67.44031439056535
 20
-127.7410449680647
 30
0.0
 10
67.4954535558253
 20
-127.7410449680647
 30
0.0
 10
67.55073383219276
 20
-127.7410449680647
 30
0.0
 10
67.59553660882753
 20
-127.6962421902983
 30
0.0
 10
67.59553660882753
 20
-127.6404327458678
 30
0.0
  0
SPLINE
  5
9D
330
1F
100
AcDbEntity
  8
_U+30EC_U+30A4_U+30E4_U+30FC 1
 62
   179
420
  2234388
370
     9
100
AcDbSpline
210
0.0
220
0.0
230
1.0
 70
    11
 71
     3
 72
    17
 73
    13
 74
     0
 42
0.0000000001
 43
0.0000000001
 12
1.0
 22
0.0
 32
0.0
 13
1.0
 23
0.0
 33
0.0
 40
0.0
 40
0.0
 40
0.0
 40
0.0
 40
1.0
 40
1.0
 40
1.0
 40
2.0
 40
2.0
 40
2.0
 40
3.0
 40
3.0
 40
3.0
 40
4.0
 40
4.0
 40
4.0
 40
4.0
 10
67.59553660882753
 20
-130.6411252451174
 30
0.0
 10
67.59553660882753
 20
-130.5853158006869
 30
0.0
 10
67.55073383219276
 20
-130.5405130229202
 30
0.0
 10
67.4954535558253
 20
-130.5405130229202
 30
0.0
 10
67.44031439056535
 20
-130.5405130229202
 30
0.0
 10
67.39554689170747
 20
-130.5853158006869
 30
0.0
 10
67.39554689170747
 20
-130.6411252451174
 30
0.0
 10
67.39554689170747
 20
-130.6962291339929
 30
0.0
 10
67.44031439056535
 20
-130.741031911759
 30
0.0
 10
67.4954535558253
 20
-130.741031911759
 30
0.0
 10
67.55073383219276
 20
-130.741031911759
 30
0.0
 10
67.59553660882753
 20
-130.6962291339929
 30
0.0
 10
67.59553660882753
 20
-130.6411252451174
 30
0.0
  0
SPLINE
  5
9E
330
1F
100
AcDbEntity
  8
_U+30EC_U+30A4_U+30E4_U+30FC 1
 62
   179
420
  2234388
370
     9
100
AcDbSpline
210
0.0
220
0.0
230
1.0
 70
    11
 71
     3
 72
    17
 73
    13
 74
     0
 42
0.0000000001
 43
0.0000000001
 12
1.0
 22
0.0
 32
0.0
 13
1.0
 23
0.0
 33
0.0
 40
0.0
 40
0.0
 40
0.0
 40
0.0
 40
1.0
 40
1.0
 40
1.0
 40
2.0
 40
2.0
 40
2.0
 40
3.0
 40
3.0
 40
3.0
 40
4.0
 40
4.0
 40
4.0
 40
4.0
 10
71.59547206233623
 20
-135.6406566327568
 30
0.0
 10
71.59547206233623
 20
-135.5855174661037
 30
0.0
 10
71.55066928570146
 20
-135.5407499661145
 30
0.0
 10
71.49556539821839
 20
-135.5407499661145
 30
0.0
 10
71.44024984407405
 20
-135.5407499661145
 30
0.0
 10
71.39548234521617
 20
-135.5855174661037
 30
0.0
 10
71.39548234521617
 20
-135.6406566327568
 30
0.0
 10
71.39548234521617
 20
-135.6957605216317
 30
0.0
 10
71.44024984407405
 20
-135.7405632993984
 30
0.0
 10
71.49556539821839
 20
-135.7405632993984
 30
0.0
 10
71.55066928570146
 20
-135.7405632993984
 30
0.0
 10
71.59547206233623
 20
-135.6957605216317
 30
0.0
 10
71.59547206233623
 20
-135.6406566327568
 30
0.0
  0
SPLINE
  5
9F
330
1F
100
AcDbEntity
  8
_U+30EC_U+30A4_U+30E4_U+30FC 1
 62
   179
420
  2234388
370
     9
100
AcDbSpline
210
0.0
220
0.0
230
1.0
 70
    11
 71
     3
 72
    17
 73
    13
 74
     0
 42
0.0000000001
 43
0.0000000001
 12
1.0
 22
0.0
 32
0.0
 13
1.0
 23
0.0
 33
0.0
 40
0.0
 40
0.0
 40
0.0
 40
0.0
 40
1.0
 40
1.0
 40
1.0
 40
2.0
 40
2.0
 40
2.0
 40
3.0
 40
3.0
 40
3.0
 40
4.0
 40
4.0
 40
4.0
 40
4.0
 10
111.5956055276569
 20
-135.6406566327568
 30
0.0
 10
111.5956055276569
 20
-135.5855174661037
 30
0.0
 10
111.5508027498902
 20
-135.5407499661145
 30
0.0
 10
111.4956960443967
 20
-135.5407499661145
 30
0.0
 10
111.4405568791368
 20
-135.5407499661145
 30
0.0
 10
111.3957893802789
 20
-135.5855174661037
 30
0.0
 10
111.3957893802789
 20
-135.6406566327568
 30
0.0
 10
111.3957893802789
 20
-135.6957605216317
 30
0.0
 10
111.4405568791368
 20
-135.7405632993984
 30
0.0
 10
111.4956960443967
 20
-135.7405632993984
 30
0.0
 10
111.5508027498902
 20
-135.7405632993984
 30
0.0
 10
111.5956055276569
 20
-135.6957605216317
 30
0.0
 10
111.5956055276569
 20
-135.6406566327568
 30
0.0
  0
INSERT
  5
A1
330
1F
100
AcDbEntity
  8
_U+30EC_U+30A4_U+30E4_U+30FC 1
100
AcDbBlockReference
  2
block 2
 10
0.0
 20
0.0
 30
0.0
  0
INSERT
  5
E8
330
1F
100
AcDbEntity
  8
_U+30EC_U+30A4_U+30E4_U+30FC 1
100
AcDbBlockReference
  2
block 3
 10
0.0
 20
0.0
 30
0.0
  0
POLYLINE
  5
101
330
1F
100
AcDbEntity
  8
_U+30EC_U+30A4_U+30E4_U+30FC 1
 62
   179
420
  2234388
370
     9
100
AcDb2dPolyline
 66
     1
 10
0.0
 20
0.0
 30
0.0
  0
VERTEX
  5
102
330
101
100
AcDbEntity
  8
_U+30EC_U+30A4_U+30E4_U+30FC 1
 62
   179
420
  2234388
370
     9
100
AcDbVertex
100
AcDb2dVertex
 10
86.49549973776041
 20
-123.1404699692147
 30
0.0
  0
VERTEX
  5
103
330
101
100
AcDbEntity
  8
_U+30EC_U+30A4_U+30E4_U+30FC 1
 62
   179
420
  2234388
370
     9
100
AcDbVertex
100
AcDb2dVertex
 10
96.49576170485469
 20
-123.1404699692147
 30
0.0
  0
SEQEND
  5
104
330
101
100
AcDbEntity
  8
_U+30EC_U+30A4_U+30E4_U+30FC 1
 62
   179
420
  2234388
370
     9
  0
POLYLINE
  5
105
330
1F
100
AcDbEntity
  8
_U+30EC_U+30A4_U+30E4_U+30FC 1
 62
   179
420
  2234388
370
     9
100
AcDb2dPolyline
 66
     1
 10
0.0
 20
0.0
 30
0.0
  0
VERTEX
  5
106
330
105
100
AcDbEntity
  8
_U+30EC_U+30A4_U+30E4_U+30FC 1
 62
   179
420
  2234388
370
     9
100
AcDbVertex
100
AcDb2dVertex
 10
86.49549973776041
 20
-125.100714968725
 30
0.0
  0
VERTEX
  5
107
330
105
100
AcDbEntity
  8
_U+30EC_U+30A4_U+30E4_U+30FC 1
 62
   179
420
  2234388
370
     9
100
AcDbVertex
100
AcDb2dVertex
 10
86.49549973776041
 20
-122.1406977472425
 30
0.0
  0
SEQEND
  5
108
330
105
100
AcDbEntity
  8
_U+30EC_U+30A4_U+30E4_U+30FC 1
 62
   179
420
  2234388
370
     9
  0
POLYLINE
  5
109
330
1F
100
AcDbEntity
  8
_U+30EC_U+30A4_U+30E4_U+30FC 1
 62
   179
420
  2234388
370
     9
100
AcDb2dPolyline
 66
     1
 10
0.0
 20
0.0
 30
0.0
  0
VERTEX
  5
10A
330
109
100
AcDbEntity
  8
_U+30EC_U+30A4_U+30E4_U+30FC 1
 62
   179
420
  2234388
370
     9
100
AcDbVertex
100
AcDb2dVertex
 10
96.49576170485469
 20
-125.100714968725
 30
0.0
  0
VERTEX
  5
10B
330
109
100
AcDbEntity
  8
_U+30EC_U+30A4_U+30E4_U+30FC 1
 62
   179
420
  2234388
370
     9
100
AcDbVertex
100
AcDb2dVertex
 10
96.49576170485469
 20
-122.1406977472425
 30
0.0
  0
SEQEND
  5
10C
330
109
100
AcDbEntity
  8
_U+30EC_U+30A4_U+30E4_U+30FC 1
 62
   179
420
  2234388
370
     9
  0
INSERT
  5
10E
330
1F
100
AcDbEntity
  8
_U+30EC_U+30A4_U+30E4_U+30FC 1
100
AcDbBlockReference
  2
block 4
 10
0.0
 20
0.0
 30
0.0
  0
POLYLINE
  5
116
330
1F
100
AcDbEntity
  8
_U+30EC_U+30A4_U+30E4_U+30FC 1
 62
   179
420
  2234388
370
     9
100
AcDb2dPolyline
 66
     1
 10
0.0
 20
0.0
 30
0.0
  0
VERTEX
  5
117
330
116
100
AcDbEntity
  8
_U+30EC_U+30A4_U+30E4_U+30FC 1
 62
   179
420
  2234388
370
     9
100
AcDbVertex
100
AcDb2dVertex
 10
71.49556539821839
 20
-135.6406566327568
 30
0.0
  0
VERTEX
  5
118
330
116
100
AcDbEntity
  8
_U+30EC_U+30A4_U+30E4_U+30FC 1
 62
   179
420
  2234388
370
     9
100
AcDbVertex
100
AcDb2dVertex
 10
111.4956960443967
 20
-135.6406566327568
 30
0.0
  0
SEQEND
  5
119
330
116
100
AcDbEntity
  8
_U+30EC_U+30A4_U+30E4_U+30FC 1
 62
   179
420
  2234388
370
     9
  0
POLYLINE
  5
11A
330
1F
100
AcDbEntity
  8
_U+30EC_U+30A4_U+30E4_U+30FC 1
 62
   179
420
  2234388
370
     9
100
AcDb2dPolyline
 66
     1
 10
0.0
 20
0.0
 30
0.0
  0
VERTEX
  5
11B
330
11A
100
AcDbEntity
  8
_U+30EC_U+30A4_U+30E4_U+30FC 1
 62
   179
420
  2234388
370
     9
100
AcDbVertex
100
AcDb2dVertex
 10
71.49556539821839
 20
-134.1806152442324
 30
0.0
  0
VERTEX
  5
11C
330
11A
100
AcDbEntity
  8
_U+30EC_U+30A4_U+30E4_U+30FC 1
 62
   179
420
  2234388
370
     9
100
AcDbVertex
100
AcDb2dVertex
 10
71.49556539821839
 20
-136.6407463547289
 30
0.0
  0
SEQEND
  5
11D
330
11A
100
AcDbEntity
  8
_U+30EC_U+30A4_U+30E4_U+30FC 1
 62
   179
420
  2234388
370
     9
  0
POLYLINE
  5
11E
330
1F
100
AcDbEntity
  8
_U+30EC_U+30A4_U+30E4_U+30FC 1
 62
   179
420
  2234388
370
     9
100
AcDb2dPolyline
 66
     1
 10
0.0
 20
0.0
 30
0.0
  0
VERTEX
  5
11F
330
11E
100
AcDbEntity
  8
_U+30EC_U+30A4_U+30E4_U+30FC 1
 62
   179
420
  2234388
370
     9
100
AcDbVertex
100
AcDb2dVertex
 10
111.4956960443967
 20
-134.1806152442324
 30
0.0
  0
VERTEX
  5
120
330
11E
100
AcDbEntity
  8
_U+30EC_U+30A4_U+30E4_U+30FC 1
 62
   179
420
  2234388
370
     9
100
AcDbVertex
100
AcDb2dVertex
 10
111.4956960443967
 20
-136.6407463547289
 30
0.0
  0
SEQEND
  5
121
330
11E
100
AcDbEntity
  8
_U+30EC_U+30A4_U+30E4_U+30FC 1
 62
   179
420
  2234388
370
     9
  0
INSERT
  5
123
330
1F
100
AcDbEntity
  8
_U+30EC_U+30A4_U+30E4_U+30FC 1
100
AcDbBlockReference
  2
block 5
 10
0.0
 20
0.0
 30
0.0
  0
POLYLINE
  5
13E
330
1F
100
AcDbEntity
  8
_U+30EC_U+30A4_U+30E4_U+30FC 1
 62
   179
420
  2234388
370
     9
100
AcDb2dPolyline
 66
     1
 10
0.0
 20
0.0
 30
0.0
  0
VERTEX
  5
13F
330
13E
100
AcDbEntity
  8
_U+30EC_U+30A4_U+30E4_U+30FC 1
 62
   179
420
  2234388
370
     9
100
AcDbVertex
100
AcDb2dVertex
 10
67.4954535558253
 20
-130.6411252451174
 30
0.0
  0
VERTEX
  5
140
330
13E
100
AcDbEntity
  8
_U+30EC_U+30A4_U+30E4_U+30FC 1
 62
   179
420
  2234388
370
     9
100
AcDbVertex
100
AcDb2dVertex
 10
67.4954535558253
 20
-127.6404327458678
 30
0.0
  0
SEQEND
  5
141
330
13E
100
AcDbEntity
  8
_U+30EC_U+30A4_U+30E4_U+30FC 1
 62
   179
420
  2234388
370
     9
  0
POLYLINE
  5
142
330
1F
100
AcDbEntity
  8
_U+30EC_U+30A4_U+30E4_U+30FC 1
 62
   179
420
  2234388
370
     9
100
AcDb2dPolyline
 66
     1
 10
0.0
 20
0.0
 30
0.0
  0
VERTEX
  5
143
330
142
100
AcDbEntity
  8
_U+30EC_U+30A4_U+30E4_U+30FC 1
 62
   179
420
  2234388
370
     9
100
AcDbVertex
100
AcDb2dVertex
 10
68.95549490746544
 20
-130.6411252451174
 30
0.0
  0
VERTEX
  5
144
330
142
100
AcDbEntity
  8
_U+30EC_U+30A4_U+30E4_U+30FC 1
 62
   179
420
  2234388
370
     9
100
AcDbVertex
100
AcDb2dVertex
 10
66.495504970225
 20
-130.6411252451174
 30
0.0
  0
SEQEND
  5
145
330
142
100
AcDbEntity
  8
_U+30EC_U+30A4_U+30E4_U+30FC 1
 62
   179
420
  2234388
370
     9
  0
POLYLINE
  5
146
330
1F
100
AcDbEntity
  8
_U+30EC_U+30A4_U+30E4_U+30FC 1
 62
   179
420
  2234388
370
     9
100
AcDb2dPolyline
 66
     1
 10
0.0
 20
0.0
 30
0.0
  0
VERTEX
  5
147
330
146
100
AcDbEntity
  8
_U+30EC_U+30A4_U+30E4_U+30FC 1
 62
   179
420
  2234388
370
     9
100
AcDbVertex
100
AcDb2dVertex
 10
83.95542924700744
 20
-127.6404327458678
 30
0.0
  0
VERTEX
  5
148
330
146
100
AcDbEntity
  8
_U+30EC_U+30A4_U+30E4_U+30FC 1
 62
   179
420
  2234388
370
     9
100
AcDbVertex
100
AcDb2dVertex
 10
66.495504970225
 20
-127.6404327458678
 30
0.0
  0
SEQEND
  5
149
330
146
100
AcDbEntity
  8
_U+30EC_U+30A4_U+30E4_U+30FC 1
 62
   179
420
  2234388
370
     9
  0
INSERT
  5
14B
330
1F
100
AcDbEntity
  8
_U+30EC_U+30A4_U+30E4_U+30FC 1
100
AcDbBlockReference
  2
block 6
 10
0.0
 20
0.0
 30
0.0
  0
ENDSEC
  0
SECTION
  2
OBJECTS
  0
DICTIONARY
  5
C
330
0
100
AcDbDictionary
281
     1
  3
ACAD_GROUP
350
D
  3
ACAD_LAYOUT
350
1A
  3
ACAD_MATERIAL
350
3B
  3
ACAD_MLEADERSTYLE
350
151
  3
ACAD_MLINESTYLE
350
17
  3
ACAD_PLOTSETTINGS
350
19
  3
ACAD_PLOTSTYLENAME
350
E
  3
ACAD_TABLESTYLE
350
150
  3
ACAD_VISUALSTYLE
350
2A
  0
SUN
  5
3F
330
29
100
AcDbSun
 90
        1
290
     0
 63
     7
421
 16777215
 40
1.0
291
     1
 91
  2455826
 92
 54000000
292
     0
 70
     2
 71
   256
280
     1
  0
DICTIONARY
  5
D
102
{ACAD_REACTORS
330
C
102
}
330
C
100
AcDbDictionary
281
     1
  0
DICTIONARY
  5
1A
102
{ACAD_REACTORS
330
C
102
}
330
C
100
AcDbDictionary
281
     1
  3
Layout1
350
1E
  3
Layout2
350
26
  3
Model
350
22
  0
DICTIONARY
  5
3B
102
{ACAD_REACTORS
330
C
102
}
330
C
100
AcDbDictionary
281
     1
  3
ByBlock
350
3D
  3
ByLayer
350
3C
  3
Global
350
3E
  0
DICTIONARY
  5
151
102
{ACAD_REACTORS
330
C
102
}
330
C
100
AcDbDictionary
281
     1
  0
DICTIONARY
  5
17
102
{ACAD_REACTORS
330
C
102
}
330
C
100
AcDbDictionary
281
     1
  3
Standard
350
18
  0
DICTIONARY
  5
19
102
{ACAD_REACTORS
330
C
102
}
330
C
100
AcDbDictionary
281
     1
  0
ACDBDICTIONARYWDFLT
  5
E
102
{ACAD_REACTORS
330
C
102
}
330
C
100
AcDbDictionary
281
     1
  3
Normal
350
F
100
AcDbDictionaryWithDefault
340
F
  0
DICTIONARY
  5
150
102
{ACAD_REACTORS
330
C
102
}
330
C
100
AcDbDictionary
281
     1
  0
DICTIONARY
  5
2A
102
{ACAD_REACTORS
330
C
102
}
330
C
100
AcDbDictionary
281
     1
  3
2dWireframe
350
2F
  3
3D Hidden
350
31
  3
3dWireframe
350
30
  3
Basic
350
32
  3
Brighten
350
36
  3
ColorChange
350
3A
  3
Conceptual
350
34
  3
Dim
350
35
  3
Facepattern
350
39
  3
Flat
350
2B
  3
FlatWithEdges
350
2C
  3
Gouraud
350
2D
  3
GouraudWithEdges
350
2E
  3
Linepattern
350
38
  3
Realistic
350
33
  3
Thicken
350
37
  0
LAYOUT
  5
1E
102
{ACAD_REACTORS
330
1A
102
}
330
1A
100
AcDbPlotSettings
  1

  2
none_device
  4

  6

 40
0.0
 41
0.0
 42
0.0
 43
0.0
 44
0.0
 45
0.0
 46
0.0
 47
0.0
 48
0.0
 49
0.0
140
0.0
141
0.0
142
1.0
143
1.0
 70
   688
 72
     0
 73
     0
 74
     5
  7

 75
    16
 76
     0
 77
     2
 78
   300
147
1.0
148
0.0
149
0.0
100
AcDbLayout
  1
Layout1
 70
     1
 71
     1
 10
0.0
 20
0.0
 11
12.0
 21
9.0
 12
0.0
 22
0.0
 32
0.0
 14
1.000000000000000E+20
 24
1.000000000000000E+20
 34
1.000000000000000E+20
 15
-1.000000000000000E+20
 25
-1.000000000000000E+20
 35
-1.000000000000000E+20
146
0.0
 13
0.0
 23
0.0
 33
0.0
 16
1.0
 26
0.0
 36
0.0
 17
0.0
 27
1.0
 37
0.0
 76
     0
330
1B
  0
LAYOUT
  5
26
102
{ACAD_REACTORS
330
1A
102
}
330
1A
100
AcDbPlotSettings
  1

  2
none_device
  4

  6

 40
0.0
 41
0.0
 42
0.0
 43
0.0
 44
0.0
 45
0.0
 46
0.0
 47
0.0
 48
0.0
 49
0.0
140
0.0
141
0.0
142
1.0
143
1.0
 70
   688
 72
     0
 73
     0
 74
     5
  7

 75
    16
 76
     0
 77
     2
 78
   300
147
1.0
148
0.0
149
0.0
100
AcDbLayout
  1
Layout2
 70
     1
 71
     2
 10
0.0
 20
0.0
 11
0.0
 21
0.0
 12
0.0
 22
0.0
 32
0.0
 14
0.0
 24
0.0
 34
0.0
 15
0.0
 25
0.0
 35
0.0
146
0.0
 13
0.0
 23
0.0
 33
0.0
 16
1.0
 26
0.0
 36
0.0
 17
0.0
 27
1.0
 37
0.0
 76
     0
330
23
  0
LAYOUT
  5
22
102
{ACAD_REACTORS
330
1A
102
}
330
1A
100
AcDbPlotSettings
  1

  2
none_device
  4

  6

 40
0.0
 41
0.0
 42
0.0
 43
0.0
 44
0.0
 45
0.0
 46
0.0
 47
0.0
 48
0.0
 49
0.0
140
0.0
141
0.0
142
1.0
143
1.0
 70
  1712
 72
     0
 73
     0
 74
     0
  7

 75
     0
 76
     0
 77
     2
 78
   300
147
1.0
148
0.0
149
0.0
100
AcDbLayout
  1
Model
 70
     1
 71
     0
 10
0.0
 20
0.0
 11
12.0
 21
9.0
 12
0.0
 22
0.0
 32
0.0
 14
1.000000000000000E+20
 24
1.000000000000000E+20
 34
1.000000000000000E+20
 15
-1.000000000000000E+20
 25
-1.000000000000000E+20
 35
-1.000000000000000E+20
146
0.0
 13
0.0
 23
0.0
 33
0.0
 16
1.0
 26
0.0
 36
0.0
 17
0.0
 27
1.0
 37
0.0
 76
     0
330
1F
331
29
  0
MATERIAL
  5
3D
102
{ACAD_REACTORS
330
3B
102
}
330
3B
100
AcDbMaterial
  1
ByBlock
 72
     1
 94
      127
  0
MATERIAL
  5
3C
102
{ACAD_REACTORS
330
3B
102
}
330
3B
100
AcDbMaterial
  1
ByLayer
 72
     1
 94
      127
  0
MATERIAL
  5
3E
102
{ACAD_REACTORS
330
3B
102
}
330
3B
100
AcDbMaterial
  1
Global
 72
     1
 94
      127
  0
MLINESTYLE
  5
18
102
{ACAD_REACTORS
330
17
102
}
330
17
100
AcDbMlineStyle
  2
Standard
 70
     0
  3

 62
   256
 51
90.0
 52
90.0
 71
     2
 49
0.5
 62
   256
  6
BYLAYER
 49
-0.5
 62
   256
  6
BYLAYER
  0
ACDBPLACEHOLDER
  5
F
102
{ACAD_REACTORS
330
E
102
}
330
E
  0
VISUALSTYLE
  5
2F
102
{ACAD_REACTORS
330
2A
102
}
330
2A
100
AcDbVisualStyle
  2
2dWireframe
 70
     4
177
     2
291
     0
 71
     0
176
     1
 72
     2
176
     1
 73
     0
176
     1
 90
        0
176
     1
 40
-0.6
176
     1
 41
-30.0
176
     1
 62
     5
 63
     7
421
 16777215
176
     1
 74
     1
176
     1
 91
        4
176
     1
 64
     7
176
     1
 65
   257
176
     1
 75
     1
176
     1
175
     1
176
     1
 42
1.0
176
     1
 92
        0
176
     1
 66
   257
176
     1
 43
1.0
176
     1
 76
     1
176
     1
 77
     6
176
     1
 78
     2
176
     1
 67
     7
176
     1
 79
     5
176
     1
170
     0
176
     1
171
     0
176
     1
290
     0
176
     1
 93
        1
176
     1
 44
0.0
176
     1
173
     0
176
     1
  0
VISUALSTYLE
  5
31
102
{ACAD_REACTORS
330
2A
102
}
330
2A
100
AcDbVisualStyle
  2
3D Hidden
 70
     6
177
     2
291
     0
 71
     1
176
     1
 72
     2
176
     1
 73
     2
176
     1
 90
        0
176
     1
 40
-0.6
176
     1
 41
-30.0
176
     1
 62
     5
 63
     7
421
 16777215
176
     1
 74
     2
176
     1
 91
        2
176
     1
 64
     7
176
     1
 65
   257
176
     1
 75
     2
176
     1
175
     1
176
     1
 42
40.0
176
     1
 92
        0
176
     1
 66
   257
176
     1
 43
1.0
176
     1
 76
     1
176
     1
 77
     6
176
     1
 78
     2
176
     1
 67
     7
176
     1
 79
     3
176
     1
170
     0
176
     1
171
     0
176
     1
290
     0
176
     1
 93
        1
176
     1
 44
0.0
176
     1
173
     0
176
     1
  0
VISUALSTYLE
  5
30
102
{ACAD_REACTORS
330
2A
102
}
330
2A
100
AcDbVisualStyle
  2
3dWireframe
 70
     5
177
     2
291
     0
 71
     0
176
     1
 72
     2
176
     1
 73
     0
176
     1
 90
        0
176
     1
 40
-0.6
176
     1
 41
-30.0
176
     1
 62
     5
 63
     7
421
 16777215
176
     1
 74
     1
176
     1
 91
        4
176
     1
 64
     7
176
     1
 65
   257
176
     1
 75
     1
176
     1
175
     1
176
     1
 42
1.0
176
     1
 92
        0
176
     1
 66
   257
176
     1
 43
1.0
176
     1
 76
     1
176
     1
 77
     6
176
     1
 78
     2
176
     1
 67
     7
176
     1
 79
     5
176
     1
170
     0
176
     1
171
     0
176
     1
290
     0
176
     1
 93
        1
176
     1
 44
0.0
176
     1
173
     0
176
     1
  0
VISUALSTYLE
  5
32
102
{ACAD_REACTORS
330
2A
102
}
330
2A
100
AcDbVisualStyle
  2
Basic
 70
     7
177
     2
291
     1
 71
     1
176
     1
 72
     0
176
     1
 73
     1
176
     1
 90
        0
176
     1
 40
-0.6
176
     1
 41
-30.0
176
     1
 62
     5
 63
     7
421
 16777215
176
     1
 74
     0
176
     1
 91
        4
176
     1
 64
     7
176
     1
 65
   257
176
     1
 75
     1
176
     1
175
     1
176
     1
 42
1.0
176
     1
 92
        8
176
     1
 66
     7
176
     1
 43
1.0
176
     1
 76
     1
176
     1
 77
     6
176
     1
 78
     2
176
     1
 67
     7
176
     1
 79
     5
176
     1
170
     0
176
     1
171
     0
176
     1
290
     0
176
     1
 93
        1
176
     1
 44
0.0
176
     1
173
     0
176
     1
  0
VISUALSTYLE
  5
36
102
{ACAD_REACTORS
330
2A
102
}
330
2A
100
AcDbVisualStyle
  2
Brighten
 70
    12
177
     2
291
     1
 71
     2
176
     1
 72
     2
176
     1
 73
     0
176
     1
 90
        0
176
     1
 40
-0.6
176
     1
 41
-30.0
176
     1
 62
     5
 63
     7
421
 16777215
176
     1
 74
     1
176
     1
 91
        4
176
     1
 64
     7
176
     1
 65
   257
176
     1
 75
     1
176
     1
175
     1
176
     1
 42
1.0
176
     1
 92
        8
176
     1
 66
     7
176
     1
 43
1.0
176
     1
 76
     1
176
     1
 77
     6
176
     1
 78
     2
176
     1
 67
     7
176
     1
 79
     5
176
     1
170
     0
176
     1
171
     0
176
     1
290
     0
176
     1
 93
        1
176
     1
 44
50.0
176
     1
173
     0
176
     1
  0
VISUALSTYLE
  5
3A
102
{ACAD_REACTORS
330
2A
102
}
330
2A
100
AcDbVisualStyle
  2
ColorChange
 70
    16
177
     2
291
     1
 71
     2
176
     1
 72
     2
176
     1
 73
     3
176
     1
 90
        0
176
     1
 40
-0.6
176
     1
 41
-30.0
176
     1
 62
     5
 63
     8
421
  8421504
176
     1
 74
     1
176
     1
 91
        4
176
     1
 64
     7
176
     1
 65
   257
176
     1
 75
     1
176
     1
175
     1
176
     1
 42
1.0
176
     1
 92
        8
176
     1
 66
     8
424
  8421504
176
     1
 43
1.0
176
     1
 76
     1
176
     1
 77
     6
176
     1
 78
     2
176
     1
 67
     7
176
     1
 79
     5
176
     1
170
     0
176
     1
171
     0
176
     1
290
     0
176
     1
 93
        1
176
     1
 44
0.0
176
     1
173
     0
176
     1
  0
VISUALSTYLE
  5
34
102
{ACAD_REACTORS
330
2A
102
}
330
2A
100
AcDbVisualStyle
  2
Conceptual
 70
     9
177
     2
291
     0
 71
     3
176
     1
 72
     2
176
     1
 73
     0
176
     1
 90
        0
176
     1
 40
-0.6
176
     1
 41
-30.0
176
     1
 62
     5
 63
     7
421
 16777215
176
     1
 74
     2
176
     1
 91
        2
176
     1
 64
     7
176
     1
 65
   257
176
     1
 75
     1
176
     1
175
     1
176
     1
 42
40.0
176
     1
 92
        8
176
     1
 66
     7
176
     1
 43
1.0
176
     1
 76
     1
176
     1
 77
     6
176
     1
 78
     2
176
     1
 67
     7
176
     1
 79
     3
176
     1
170
     0
176
     1
171
     0
176
     1
290
     0
176
     1
 93
        1
176
     1
 44
0.0
176
     1
173
     0
176
     1
  0
VISUALSTYLE
  5
35
102
{ACAD_REACTORS
330
2A
102
}
330
2A
100
AcDbVisualStyle
  2
Dim
 70
    11
177
     2
291
     1
 71
     2
176
     1
 72
     2
176
     1
 73
     0
176
     1
 90
        0
176
     1
 40
-0.6
176
     1
 41
-30.0
176
     1
 62
     5
 63
     7
421
 16777215
176
     1
 74
     1
176
     1
 91
        4
176
     1
 64
     7
176
     1
 65
   257
176
     1
 75
     1
176
     1
175
     1
176
     1
 42
1.0
176
     1
 92
        8
176
     1
 66
     7
176
     1
 43
1.0
176
     1
 76
     1
176
     1
 77
     6
176
     1
 78
     2
176
     1
 67
     7
176
     1
 79
     5
176
     1
170
     0
176
     1
171
     0
176
     1
290
     0
176
     1
 93
        1
176
     1
 44
-50.0
176
     1
173
     0
176
     1
  0
VISUALSTYLE
  5
39
102
{ACAD_REACTORS
330
2A
102
}
330
2A
100
AcDbVisualStyle
  2
Facepattern
 70
    15
177
     2
291
     1
 71
     2
176
     1
 72
     2
176
     1
 73
     0
176
     1
 90
        0
176
     1
 40
-0.6
176
     1
 41
-30.0
176
     1
 62
     5
 63
     7
421
 16777215
176
     1
 74
     1
176
     1
 91
        4
176
     1
 64
     7
176
     1
 65
   257
176
     1
 75
     1
176
     1
175
     1
176
     1
 42
1.0
176
     1
 92
        8
176
     1
 66
     7
176
     1
 43
1.0
176
     1
 76
     1
176
     1
 77
     6
176
     1
 78
     2
176
     1
 67
     7
176
     1
 79
     5
176
     1
170
     0
176
     1
171
     0
176
     1
290
     0
176
     1
 93
        1
176
     1
 44
0.0
176
     1
173
     0
176
     1
  0
VISUALSTYLE
  5
2B
102
{ACAD_REACTORS
330
2A
102
}
330
2A
100
AcDbVisualStyle
  2
Flat
 70
     0
177
     2
291
     1
 71
     2
176
     1
 72
     1
176
     1
 73
     1
176
     1
 90
        2
176
     1
 40
-0.6
176
     1
 41
30.0
176
     1
 62
     5
 63
     7
421
 16777215
176
     1
 74
     0
176
     1
 91
        4
176
     1
 64
     7
176
     1
 65
   257
176
     1
 75
     1
176
     1
175
     1
176
     1
 42
1.0
176
     1
 92
        8
176
     1
 66
     7
176
     1
 43
1.0
176
     1
 76
     1
176
     1
 77
     6
176
     1
 78
     2
176
     1
 67
     7
176
     1
 79
     5
176
     1
170
     0
176
     1
171
     0
176
     1
290
     0
176
     1
 93
       13
176
     1
 44
0.0
176
     1
173
     0
176
     1
  0
VISUALSTYLE
  5
2C
102
{ACAD_REACTORS
330
2A
102
}
330
2A
100
AcDbVisualStyle
  2
FlatWithEdges
 70
     1
177
     2
291
     1
 71
     2
176
     1
 72
     1
176
     1
 73
     1
176
     1
 90
        2
176
     1
 40
-0.6
176
     1
 41
30.0
176
     1
 62
     5
 63
     7
421
 16777215
176
     1
 74
     1
176
     1
 91
        4
176
     1
 64
     7
176
     1
 65
   257
176
     1
 75
     1
176
     1
175
     1
176
     1
 42
1.0
176
     1
 92
        0
176
     1
 66
   257
176
     1
 43
1.0
176
     1
 76
     1
176
     1
 77
     6
176
     1
 78
     2
176
     1
 67
     7
176
     1
 79
     5
176
     1
170
     0
176
     1
171
     0
176
     1
290
     0
176
     1
 93
       13
176
     1
 44
0.0
176
     1
173
     0
176
     1
  0
VISUALSTYLE
  5
2D
102
{ACAD_REACTORS
330
2A
102
}
330
2A
100
AcDbVisualStyle
  2
Gouraud
 70
     2
177
     2
291
     1
 71
     2
176
     1
 72
     2
176
     1
 73
     1
176
     1
 90
        2
176
     1
 40
-0.6
176
     1
 41
30.0
176
     1
 62
     5
 63
     7
421
 16777215
176
     1
 74
     0
176
     1
 91
        4
176
     1
 64
     7
176
     1
 65
   257
176
     1
 75
     1
176
     1
175
     1
176
     1
 42
1.0
176
     1
 92
        0
176
     1
 66
     7
176
     1
 43
1.0
176
     1
 76
     1
176
     1
 77
     6
176
     1
 78
     2
176
     1
 67
     7
176
     1
 79
     5
176
     1
170
     0
176
     1
171
     0
176
     1
290
     0
176
     1
 93
       13
176
     1
 44
0.0
176
     1
173
     0
176
     1
  0
VISUALSTYLE
  5
2E
102
{ACAD_REACTORS
330
2A
102
}
330
2A
100
AcDbVisualStyle
  2
GouraudWithEdges
 70
     3
177
     2
291
     1
 71
     2
176
     1
 72
     2
176
     1
 73
     1
176
     1
 90
        2
176
     1
 40
-0.6
176
     1
 41
30.0
176
     1
 62
     5
 63
     7
421
 16777215
176
     1
 74
     1
176
     1
 91
        4
176
     1
 64
     7
176
     1
 65
   257
176
     1
 75
     1
176
     1
175
     1
176
     1
 42
1.0
176
     1
 92
        0
176
     1
 66
   257
176
     1
 43
1.0
176
     1
 76
     1
176
     1
 77
     6
176
     1
 78
     2
176
     1
 67
     7
176
     1
 79
     5
176
     1
170
     0
176
     1
171
     0
176
     1
290
     0
176
     1
 93
       13
176
     1
 44
0.0
176
     1
173
     0
176
     1
  0
VISUALSTYLE
  5
38
102
{ACAD_REACTORS
330
2A
102
}
330
2A
100
AcDbVisualStyle
  2
Linepattern
 70
    14
177
     2
291
     1
 71
     2
176
     1
 72
     2
176
     1
 73
     0
176
     1
 90
        0
176
     1
 40
-0.6
176
     1
 41
-30.0
176
     1
 62
     5
 63
     7
421
 16777215
176
     1
 74
     1
176
     1
 91
        4
176
     1
 64
     7
176
     1
 65
   257
176
     1
 75
     7
176
     1
175
     7
176
     1
 42
1.0
176
     1
 92
        8
176
     1
 66
     7
176
     1
 43
1.0
176
     1
 76
     1
176
     1
 77
     6
176
     1
 78
     2
176
     1
 67
     7
176
     1
 79
     5
176
     1
170
     0
176
     1
171
     0
176
     1
290
     0
176
     1
 93
        1
176
     1
 44
0.0
176
     1
173
     0
176
     1
  0
VISUALSTYLE
  5
33
102
{ACAD_REACTORS
330
2A
102
}
330
2A
100
AcDbVisualStyle
  2
Realistic
 70
     8
177
     2
291
     0
 71
     2
176
     1
 72
     2
176
     1
 73
     0
176
     1
 90
        0
176
     1
 40
-0.6
176
     1
 41
-30.0
176
     1
 62
     5
 63
     7
421
 16777215
176
     1
 74
     1
176
     1
 91
        0
176
     1
 64
     7
176
     1
 65
   257
176
     1
 75
     1
176
     1
175
     1
176
     1
 42
1.0
176
     1
 92
        8
176
     1
 66
     8
424
  7895160
176
     1
 43
1.0
176
     1
 76
     1
176
     1
 77
     6
176
     1
 78
     2
176
     1
 67
     7
176
     1
 79
     5
176
     1
170
     0
176
     1
171
     0
176
     1
290
     0
176
     1
 93
       13
176
     1
 44
0.0
176
     1
173
     0
176
     1
  0
VISUALSTYLE
  5
37
102
{ACAD_REACTORS
330
2A
102
}
330
2A
100
AcDbVisualStyle
  2
Thicken
 70
    13
177
     2
291
     1
 71
     2
176
     1
 72
     2
176
     1
 73
     0
176
     1
 90
        0
176
     1
 40
-0.6
176
     1
 41
-30.0
176
     1
 62
     5
 63
     7
421
 16777215
176
     1
 74
     1
176
     1
 91
        4
176
     1
 64
     7
176
     1
 65
   257
176
     1
 75
     1
176
     1
175
     1
176
     1
 42
1.0
176
     1
 92
       12
176
     1
 66
     7
176
     1
 43
1.0
176
     1
 76
     1
176
     1
 77
     6
176
     1
 78
     2
176
     1
 67
     7
176
     1
 79
     5
176
     1
170
     0
176
     1
171
     0
176
     1
290
     0
176
     1
 93
        1
176
     1
 44
0.0
176
     1
173
     0
176
     1
  0
ENDSEC
  0
EOF
