  0
SECTION
  2
HEADER
  9
$ACADVER
  1
AC1024
  9
$ACADMAINTVER
 70
   226
  9
$DWGCODEPAGE
  3
ANSI_932
  9
$INSBASE
 10
0.0
 20
0.0
 30
0.0
  9
$EXTMIN
 10
1.000000000000000E+20
 20
1.000000000000000E+20
 30
1.000000000000000E+20
  9
$EXTMAX
 10
-1.000000000000000E+20
 20
-1.000000000000000E+20
 30
-1.000000000000000E+20
  9
$LIMMIN
 10
0.0
 20
0.0
  9
$LIMMAX
 10
12.0
 20
9.0
  9
$ORTHOMODE
 70
     0
  9
$REGENMODE
 70
     1
  9
$FILLMODE
 70
     1
  9
$QTEXTMODE
 70
     0
  9
$MIRRTEXT
 70
     0
  9
$LTSCALE
 40
1.0
  9
$ATTMODE
 70
     1
  9
$TEXTSIZE
 40
0.2
  9
$TRACEWID
 40
0.05
  9
$TEXTSTYLE
  7
Standard
  9
$CLAYER
  8
0
  9
$CELTYPE
  6
ByLayer
  9
$CECOLOR
 62
   256
  9
$CELTSCALE
 40
1.0
  9
$DISPSILH
 70
     0
  9
$DIMSCALE
 40
1.0
  9
$DIMASZ
 40
0.18
  9
$DIMEXO
 40
0.0625
  9
$DIMDLI
 40
0.38
  9
$DIMRND
 40
0.0
  9
$DIMDLE
 40
0.0
  9
$DIMEXE
 40
0.18
  9
$DIMTP
 40
0.0
  9
$DIMTM
 40
0.0
  9
$DIMTXT
 40
0.18
  9
$DIMCEN
 40
0.09
  9
$DIMTSZ
 40
0.0
  9
$DIMTOL
 70
     0
  9
$DIMLIM
 70
     0
  9
$DIMTIH
 70
     1
  9
$DIMTOH
 70
     1
  9
$DIMSE1
 70
     0
  9
$DIMSE2
 70
     0
  9
$DIMTAD
 70
     0
  9
$DIMZIN
 70
     0
  9
$DIMBLK
  1

  9
$DIMASO
 70
     1
  9
$DIMSHO
 70
     1
  9
$DIMPOST
  1

  9
$DIMAPOST
  1

  9
$DIMALT
 70
     0
  9
$DIMALTD
 70
     2
  9
$DIMALTF
 40
25.4
  9
$DIMLFAC
 40
1.0
  9
$DIMTOFL
 70
     0
  9
$DIMTVP
 40
0.0
  9
$DIMTIX
 70
     0
  9
$DIMSOXD
 70
     0
  9
$DIMSAH
 70
     0
  9
$DIMBLK1
  1

  9
$DIMBLK2
  1

  9
$DIMSTYLE
  2
Standard
  9
$DIMCLRD
 70
     0
  9
$DIMCLRE
 70
     0
  9
$DIMCLRT
 70
     0
  9
$DIMTFAC
 40
1.0
  9
$DIMGAP
 40
0.09
  9
$DIMJUST
 70
     0
  9
$DIMSD1
 70
     0
  9
$DIMSD2
 70
     0
  9
$DIMTOLJ
 70
     1
  9
$DIMTZIN
 70
     0
  9
$DIMALTZ
 70
     0
  9
$DIMALTTZ
 70
     0
  9
$DIMUPT
 70
     0
  9
$DIMDEC
 70
     4
  9
$DIMTDEC
 70
     4
  9
$DIMALTU
 70
     2
  9
$DIMALTTD
 70
     2
  9
$DIMTXSTY
  7
Standard
  9
$DIMAUNIT
 70
     0
  9
$DIMADEC
 70
     0
  9
$DIMALTRND
 40
0.0
  9
$DIMAZIN
 70
     0
  9
$DIMDSEP
 70
    46
  9
$DIMATFIT
 70
     3
  9
$DIMFRAC
 70
     0
  9
$DIMLDRBLK
  1

  9
$DIMLUNIT
 70
     2
  9
$DIMLWD
 70
    -2
  9
$DIMLWE
 70
    -2
  9
$DIMTMOVE
 70
     0
  9
$DIMFXL
 40
1.0
  9
$DIMFXLON
 70
     0
  9
$DIMJOGANG
 40
0.7853981633974483
  9
$DIMTFILL
 70
     0
  9
$DIMTFILLCLR
 70
     0
  9
$DIMARCSYM
 70
     0
  9
$DIMLTYPE
  6

  9
$DIMLTEX1
  6

  9
$DIMLTEX2
  6

  9
$DIMTXTDIRECTION
 70
     0
  9
$LUNITS
 70
     2
  9
$LUPREC
 70
     4
  9
$SKETCHINC
 40
0.1
  9
$FILLETRAD
 40
0.0
  9
$AUNITS
 70
     0
  9
$AUPREC
 70
     0
  9
$MENU
  1
.
  9
$ELEVATION
 40
0.0
  9
$PELEVATION
 40
0.0
  9
$THICKNESS
 40
0.0
  9
$LIMCHECK
 70
     0
  9
$CHAMFERA
 40
0.0
  9
$CHAMFERB
 40
0.0
  9
$CHAMFERC
 40
0.0
  9
$CHAMFERD
 40
0.0
  9
$SKPOLY
 70
     0
  9
$TDCREATE
 40
2459569.503240741
  9
$TDUCREATE
 40
2459569.128240741
  9
$TDUPDATE
 40
2459569.503240741
  9
$TDUUPDATE
 40
2459569.128240741
  9
$TDINDWG
 40
0.0000000000
  9
$TDUSRTIMER
 40
0.0000000000
  9
$USRTIMER
 70
     1
  9
$ANGBASE
 50
0.0
  9
$ANGDIR
 70
     0
  9
$PDMODE
 70
     0
  9
$PDSIZE
 40
0.0
  9
$PLINEWID
 40
0.0
  9
$SPLFRAME
 70
     0
  9
$SPLINETYPE
 70
     6
  9
$SPLINESEGS
 70
     8
  9
$HANDSEED
  5
1DE
  9
$SURFTAB1
 70
     6
  9
$SURFTAB2
 70
     6
  9
$SURFTYPE
 70
     6
  9
$SURFU
 70
     6
  9
$SURFV
 70
     6
  9
$UCSBASE
  2

  9
$UCSNAME
  2

  9
$UCSORG
 10
0.0
 20
0.0
 30
0.0
  9
$UCSXDIR
 10
1.0
 20
0.0
 30
0.0
  9
$UCSYDIR
 10
0.0
 20
1.0
 30
0.0
  9
$UCSORTHOREF
  2

  9
$UCSORTHOVIEW
 70
     0
  9
$UCSORGTOP
 10
0.0
 20
0.0
 30
0.0
  9
$UCSORGBOTTOM
 10
0.0
 20
0.0
 30
0.0
  9
$UCSORGLEFT
 10
0.0
 20
0.0
 30
0.0
  9
$UCSORGRIGHT
 10
0.0
 20
0.0
 30
0.0
  9
$UCSORGFRONT
 10
0.0
 20
0.0
 30
0.0
  9
$UCSORGBACK
 10
0.0
 20
0.0
 30
0.0
  9
$PUCSBASE
  2

  9
$PUCSNAME
  2

  9
$PUCSORG
 10
0.0
 20
0.0
 30
0.0
  9
$PUCSXDIR
 10
1.0
 20
0.0
 30
0.0
  9
$PUCSYDIR
 10
0.0
 20
1.0
 30
0.0
  9
$PUCSORTHOREF
  2

  9
$PUCSORTHOVIEW
 70
     0
  9
$PUCSORGTOP
 10
0.0
 20
0.0
 30
0.0
  9
$PUCSORGBOTTOM
 10
0.0
 20
0.0
 30
0.0
  9
$PUCSORGLEFT
 10
0.0
 20
0.0
 30
0.0
  9
$PUCSORGRIGHT
 10
0.0
 20
0.0
 30
0.0
  9
$PUCSORGFRONT
 10
0.0
 20
0.0
 30
0.0
  9
$PUCSORGBACK
 10
0.0
 20
0.0
 30
0.0
  9
$USERI1
 70
     0
  9
$USERI2
 70
     0
  9
$USERI3
 70
     0
  9
$USERI4
 70
     0
  9
$USERI5
 70
     0
  9
$USERR1
 40
0.0
  9
$USERR2
 40
0.0
  9
$USERR3
 40
0.0
  9
$USERR4
 40
0.0
  9
$USERR5
 40
0.0
  9
$WORLDVIEW
 70
     1
  9
$SHADEDGE
 70
     3
  9
$SHADEDIF
 70
    70
  9
$TILEMODE
 70
     1
  9
$MAXACTVP
 70
    64
  9
$PINSBASE
 10
0.0
 20
0.0
 30
0.0
  9
$PLIMCHECK
 70
     0
  9
$PEXTMIN
 10
1.000000000000000E+20
 20
1.000000000000000E+20
 30
1.000000000000000E+20
  9
$PEXTMAX
 10
-1.000000000000000E+20
 20
-1.000000000000000E+20
 30
-1.000000000000000E+20
  9
$PLIMMIN
 10
0.0
 20
0.0
  9
$PLIMMAX
 10
12.0
 20
9.0
  9
$UNITMODE
 70
     0
  9
$VISRETAIN
 70
     1
  9
$PLINEGEN
 70
     0
  9
$PSLTSCALE
 70
     1
  9
$TREEDEPTH
 70
  3020
  9
$CMLSTYLE
  2
Standard
  9
$CMLJUST
 70
     0
  9
$CMLSCALE
 40
1.0
  9
$PROXYGRAPHICS
 70
     1
  9
$MEASUREMENT
 70
     0
  9
$CELWEIGHT
370
    -1
  9
$ENDCAPS
280
     0
  9
$JOINSTYLE
280
     0
  9
$LWDISPLAY
290
     1
  9
$INSUNITS
 70
     4
  9
$HYPERLINKBASE
  1

  9
$STYLESHEET
  1

  9
$XEDIT
290
     1
  9
$CEPSNTYPE
380
     0
  9
$PSTYLEMODE
290
     1
  9
$FINGERPRINTGUID
  2
{2D245719-79D1-574D-AFA1-F8DE1008312E}
  9
$VERSIONGUID
  2
{D2E60EDA-D2FE-8A4F-ADA7-BAB4AD9C0C3F}
  9
$EXTNAMES
290
     1
  9
$PSVPSCALE
 40
0.0
  9
$OLESTARTUP
290
     0
  9
$SORTENTS
280
   127
  9
$INDEXCTL
280
     0
  9
$HIDETEXT
280
     1
  9
$XCLIPFRAME
280
     2
  9
$HALOGAP
280
     0
  9
$OBSCOLOR
 70
   257
  9
$OBSLTYPE
280
     0
  9
$INTERSECTIONDISPLAY
280
     0
  9
$INTERSECTIONCOLOR
 70
   257
  9
$DIMASSOC
280
     2
  9
$PROJECTNAME
  1

  9
$CAMERADISPLAY
290
     0
  9
$LENSLENGTH
 40
50.0
  9
$CAMERAHEIGHT
 40
0.0
  9
$STEPSPERSEC
 40
2.0
  9
$STEPSIZE
 40
6.0
  9
$3DDWFPREC
 40
2.0
  9
$PSOLWIDTH
 40
0.25
  9
$PSOLHEIGHT
 40
4.0
  9
$LOFTANG1
 40
1.570796326794896
  9
$LOFTANG2
 40
1.570796326794896
  9
$LOFTMAG1
 40
0.0
  9
$LOFTMAG2
 40
0.0
  9
$LOFTPARAM
 70
     7
  9
$LOFTNORMALS
280
     1
  9
$LATITUDE
 40
37.795
  9
$LONGITUDE
 40
-122.394
  9
$NORTHDIRECTION
 40
0.0
  9
$TIMEZONE
 70
 -8000
  9
$LIGHTGLYPHDISPLAY
280
     1
  9
$TILEMODELIGHTSYNCH
280
     1
  9
$CMATERIAL
347
11
  9
$SOLIDHIST
280
     0
  9
$SHOWHIST
280
     1
  9
$DWFFRAME
280
     2
  9
$DGNFRAME
280
     0
  9
$REALWORLDSCALE
290
     1
  9
$INTERFERECOLOR
 62
     1
  9
$INTERFEREOBJVS
345
33
  9
$INTERFEREVPVS
346
30
  9
$CSHADOW
280
     0
  9
$SHADOWPLANELOCATION
 40
0.0
  0
ENDSEC
  0
SECTION
  2
CLASSES
  0
CLASS
  1
ACDBDICTIONARYWDFLT
  2
AcDbDictionaryWithDefault
  3
ObjectDBX Classes
 90
        0
 91
        1
280
     0
281
     0
  0
CLASS
  1
MATERIAL
  2
AcDbMaterial
  3
ObjectDBX Classes
 90
     1153
 91
        3
280
     0
281
     0
  0
CLASS
  1
VISUALSTYLE
  2
AcDbVisualStyle
  3
ObjectDBX Classes
 90
     4095
 91
       24
280
     0
281
     0
  0
CLASS
  1
SCALE
  2
AcDbScale
  3
ObjectDBX Classes
 90
     1153
 91
       17
280
     0
281
     0
  0
CLASS
  1
TABLESTYLE
  2
AcDbTableStyle
  3
ObjectDBX Classes
 90
     4095
 91
        1
280
     0
281
     0
  0
CLASS
  1
MLEADERSTYLE
  2
AcDbMLeaderStyle
  3
ACDB_MLEADERSTYLE_CLASS
 90
     4095
 91
        1
280
     0
281
     0
  0
CLASS
  1
ACDBSECTIONVIEWSTYLE
  2
AcDbSectionViewStyle
  3
ObjectDBX Classes
 90
     1025
 91
        1
280
     0
281
     0
  0
CLASS
  1
ACDBDETAILVIEWSTYLE
  2
AcDbDetailViewStyle
  3
ObjectDBX Classes
 90
     1025
 91
        1
280
     0
281
     0
  0
CLASS
  1
DICTIONARYVAR
  2
AcDbDictionaryVar
  3
ObjectDBX Classes
 90
        0
 91
        5
280
     0
281
     0
  0
CLASS
  1
CELLSTYLEMAP
  2
AcDbCellStyleMap
  3
ObjectDBX Classes
 90
     1152
 91
        1
280
     0
281
     0
  0
ENDSEC
  0
SECTION
  2
TABLES
  0
TABLE
  2
VPORT
  5
8
330
0
100
AcDbSymbolTable
 70
     1
  0
VPORT
  5
57
330
8
100
AcDbSymbolTableRecord
100
AcDbViewportTableRecord
  2
*Active
 70
     0
 10
0.0
 20
0.0
 11
1.0
 21
1.0
 12
0.0
 22
0.0
 13
0.0
 23
0.0
 14
1.0
 24
1.0
 15
0.0
 25
0.0
 16
0.0
 26
0.0
 36
1.0
 17
104.9999999737534
 27
-148.4999999628701
 37
0.0
 40
302.939999924255
 41
0.7070707070707534
 42
50.0
 43
0.0
 44
0.0
 50
0.0
 51
0.0
 71
     0
 72
   100
 73
     1
 74
     0
 75
     1
 76
     0
 77
     0
 78
     0
281
     0
 65
     1
110
0.0
120
0.0
130
0.0
111
1.0
121
0.0
131
0.0
112
0.0
122
1.0
132
0.0
 79
     0
146
0.0
 60
     3
 61
     5
292
     1
282
     1
141
0.0
142
0.0
 63
   250
421
  3355443
  0
ENDTAB
  0
TABLE
  2
LTYPE
  5
5
330
0
100
AcDbSymbolTable
 70
     3
  0
LTYPE
  5
5B
330
5
100
AcDbSymbolTableRecord
100
AcDbLinetypeTableRecord
  2
ByBlock
 70
     0
  3

 72
    65
 73
     0
 40
0.0
  0
LTYPE
  5
5C
330
5
100
AcDbSymbolTableRecord
100
AcDbLinetypeTableRecord
  2
ByLayer
 70
     0
  3

 72
    65
 73
     0
 40
0.0
  0
LTYPE
  5
5D
330
5
100
AcDbSymbolTableRecord
100
AcDbLinetypeTableRecord
  2
Continuous
 70
     0
  3
Solid line
 72
    65
 73
     0
 40
0.0
  0
LTYPE
  5
B8
330
5
100
AcDbSymbolTableRecord
100
AcDbLinetypeTableRecord
  2
AI-Linetype-0
 70
     0
  3
Adobe Illustrator Linetype No. 0
 72
    65
 73
     2
 40
1.411111110758333
 49
0.7055555553791667
 74
     0
 49
-0.7055555553791667
 74
     0
  0
LTYPE
  5
BA
330
5
100
AcDbSymbolTableRecord
100
AcDbLinetypeTableRecord
  2
AI-Linetype-1
 70
     0
  3
Adobe Illustrator Linetype No. 1
 72
    65
 73
     2
 40
1.411111110758333
 49
0.7055555553791667
 74
     0
 49
-0.7055555553791667
 74
     0
  0
ENDTAB
  0
TABLE
  2
LAYER
  5
2
330
0
100
AcDbSymbolTable
 70
     2
  0
LAYER
  5
54
330
2
100
AcDbSymbolTableRecord
100
AcDbLayerTableRecord
  2
0
 70
     0
 62
     7
  6
Continuous
370
    -3
390
F
347
21
  0
LAYER
  5
78
330
2
100
AcDbSymbolTableRecord
100
AcDbLayerTableRecord
  2
レイヤー 1
 70
     0
 62
     7
  6
Continuous
370
     0
390
F
347
21
  0
ENDTAB
  0
TABLE
  2
STYLE
  5
3
330
0
100
AcDbSymbolTable
 70
     2
  0
STYLE
  5
55
330
3
100
AcDbSymbolTableRecord
100
AcDbTextStyleTableRecord
  2
Standard
 70
     0
 40
0.0
 41
1.0
 50
0.0
 71
     0
 42
0.2
  3
txt
  4

  0
STYLE
  5
5A
330
3
100
AcDbSymbolTableRecord
100
AcDbTextStyleTableRecord
  2
Annotative
 70
     0
 40
0.0
 41
1.0
 50
0.0
 71
     0
 42
0.2
  3
txt
  4

1001
AcadAnnotative
1000
AnnotativeData
1002
{
1070
     1
1070
     1
1002
}
  0
ENDTAB
  0
TABLE
  2
VIEW
  5
6
330
0
100
AcDbSymbolTable
 70
     0
  0
ENDTAB
  0
TABLE
  2
UCS
  5
7
330
0
100
AcDbSymbolTable
 70
     0
  0
ENDTAB
  0
TABLE
  2
APPID
  5
9
330
0
100
AcDbSymbolTable
 70
     2
  0
APPID
  5
56
330
9
100
AcDbSymbolTableRecord
100
AcDbRegAppTableRecord
  2
ACAD
 70
     0
  0
APPID
  5
5E
330
9
100
AcDbSymbolTableRecord
100
AcDbRegAppTableRecord
  2
AcadAnnotative
 70
     0
  0
ENDTAB
  0
TABLE
  2
DIMSTYLE
  5
A
330
0
100
AcDbSymbolTable
 70
     2
100
AcDbDimStyleTable
 71
     0
  0
DIMSTYLE
105
58
330
A
100
AcDbSymbolTableRecord
100
AcDbDimStyleTableRecord
  2
Standard
 70
     0
340
55
  0
DIMSTYLE
105
59
330
A
100
AcDbSymbolTableRecord
100
AcDbDimStyleTableRecord
  2
Annotative
 70
     0
340
55
1001
AcadAnnotative
1000
AnnotativeData
1002
{
1070
     1
1070
     1
1002
}
  0
ENDTAB
  0
TABLE
  2
BLOCK_RECORD
  5
1
330
0
100
AcDbSymbolTable
 70
    18
  0
BLOCK_RECORD
  5
70
330
1
100
AcDbSymbolTableRecord
100
AcDbBlockTableRecord
  2
*Model_Space
340
73
 70
     0
280
     1
281
     0
  0
BLOCK_RECORD
  5
6C
330
1
100
AcDbSymbolTableRecord
100
AcDbBlockTableRecord
  2
*Paper_Space
340
6F
 70
     0
280
     1
281
     0
  0
BLOCK_RECORD
  5
74
330
1
100
AcDbSymbolTableRecord
100
AcDbBlockTableRecord
  2
*Paper_Space0
340
77
 70
     0
280
     1
281
     0
  0
BLOCK_RECORD
  5
79
330
1
100
AcDbSymbolTableRecord
100
AcDbBlockTableRecord
  2
Block_0
340
0
102
{BLKREFS
331
7A
102
}
 70
     0
280
     1
281
     0
  0
BLOCK_RECORD
  5
B3
330
1
100
AcDbSymbolTableRecord
100
AcDbBlockTableRecord
  2
Block_1
340
0
102
{BLKREFS
331
B4
102
}
 70
     0
280
     1
281
     0
  0
BLOCK_RECORD
  5
123
330
1
100
AcDbSymbolTableRecord
100
AcDbBlockTableRecord
  2
Block_2
340
0
102
{BLKREFS
331
124
102
}
 70
     0
280
     1
281
     0
  0
BLOCK_RECORD
  5
129
330
1
100
AcDbSymbolTableRecord
100
AcDbBlockTableRecord
  2
Block_3
340
0
102
{BLKREFS
331
12A
102
}
 70
     0
280
     1
281
     0
  0
BLOCK_RECORD
  5
133
330
1
100
AcDbSymbolTableRecord
100
AcDbBlockTableRecord
  2
Block_4
340
0
102
{BLKREFS
331
134
102
}
 70
     0
280
     1
281
     0
  0
BLOCK_RECORD
  5
137
330
1
100
AcDbSymbolTableRecord
100
AcDbBlockTableRecord
  2
Block_5
340
0
102
{BLKREFS
331
138
102
}
 70
     0
280
     1
281
     0
  0
BLOCK_RECORD
  5
146
330
1
100
AcDbSymbolTableRecord
100
AcDbBlockTableRecord
  2
Block_6
340
0
102
{BLKREFS
331
147
102
}
 70
     0
280
     1
281
     0
  0
BLOCK_RECORD
  5
14A
330
1
100
AcDbSymbolTableRecord
100
AcDbBlockTableRecord
  2
Block_7
340
0
102
{BLKREFS
331
14B
102
}
 70
     0
280
     1
281
     0
  0
BLOCK_RECORD
  5
157
330
1
100
AcDbSymbolTableRecord
100
AcDbBlockTableRecord
  2
Block_8
340
0
102
{BLKREFS
331
158
102
}
 70
     0
280
     1
281
     0
  0
BLOCK_RECORD
  5
15B
330
1
100
AcDbSymbolTableRecord
100
AcDbBlockTableRecord
  2
Block_9
340
0
102
{BLKREFS
331
15C
102
}
 70
     0
280
     1
281
     0
  0
BLOCK_RECORD
  5
165
330
1
100
AcDbSymbolTableRecord
100
AcDbBlockTableRecord
  2
Block_10
340
0
102
{BLKREFS
331
166
102
}
 70
     0
280
     1
281
     0
  0
BLOCK_RECORD
  5
169
330
1
100
AcDbSymbolTableRecord
100
AcDbBlockTableRecord
  2
Block_11
340
0
102
{BLKREFS
331
16A
102
}
 70
     0
280
     1
281
     0
  0
BLOCK_RECORD
  5
173
330
1
100
AcDbSymbolTableRecord
100
AcDbBlockTableRecord
  2
Block_12
340
0
102
{BLKREFS
331
174
102
}
 70
     0
280
     1
281
     0
  0
BLOCK_RECORD
  5
179
330
1
100
AcDbSymbolTableRecord
100
AcDbBlockTableRecord
  2
Block_13
340
0
102
{BLKREFS
331
17A
102
}
 70
     0
280
     1
281
     0
  0
BLOCK_RECORD
  5
17D
330
1
100
AcDbSymbolTableRecord
100
AcDbBlockTableRecord
  2
Block_14
340
0
102
{BLKREFS
331
17E
102
}
 70
     0
280
     1
281
     0
  0
BLOCK_RECORD
  5
184
330
1
100
AcDbSymbolTableRecord
100
AcDbBlockTableRecord
  2
Block_15
340
0
102
{BLKREFS
331
185
102
}
 70
     0
280
     1
281
     0
  0
BLOCK_RECORD
  5
188
330
1
100
AcDbSymbolTableRecord
100
AcDbBlockTableRecord
  2
Block_16
340
0
102
{BLKREFS
331
189
102
}
 70
     0
280
     1
281
     0
  0
ENDTAB
  0
ENDSEC
  0
SECTION
  2
BLOCKS
  0
BLOCK
  5
71
330
70
100
AcDbEntity
  8
0
100
AcDbBlockBegin
  2
*Model_Space
 70
     0
 10
0.0
 20
0.0
 30
0.0
  3
*Model_Space
  1

  0
ENDBLK
  5
72
330
70
100
AcDbEntity
  8
0
100
AcDbBlockEnd
  0
BLOCK
  5
6D
330
6C
100
AcDbEntity
 67
     1
  8
0
100
AcDbBlockBegin
  2
*Paper_Space
 70
     0
 10
0.0
 20
0.0
 30
0.0
  3
*Paper_Space
  1

  0
ENDBLK
  5
6E
330
6C
100
AcDbEntity
 67
     1
  8
0
100
AcDbBlockEnd
  0
BLOCK
  5
75
330
74
100
AcDbEntity
 67
     1
  8
0
100
AcDbBlockBegin
  2
*Paper_Space0
 70
     0
 10
0.0
 20
0.0
 30
0.0
  3
*Paper_Space0
  1

  0
ENDBLK
  5
76
330
74
100
AcDbEntity
 67
     1
  8
0
100
AcDbBlockEnd
  0
BLOCK
  5
7B
330
79
100
AcDbEntity
  8
0
100
AcDbBlockBegin
  2
Block_0
 70
     0
 10
0.0
 20
0.0
 30
0.0
  3
Block_0
  1

  0
SPLINE
  5
7D
330
79
100
AcDbEntity
  8
レイヤー 1
 62
   250
420
  2299925
370
     9
100
AcDbSpline
210
0.0
220
0.0
230
1.0
 70
     9
 71
     3
 72
    17
 73
    13
 74
     0
 42
0.0000000001
 43
0.0000000001
 40
0.0
 40
0.0
 40
0.0
 40
0.0
 40
1.0
 40
1.0
 40
1.0
 40
2.0
 40
2.0
 40
2.0
 40
3.0
 40
3.0
 40
3.0
 40
4.0
 40
4.0
 40
4.0
 40
4.0
 10
139.6330115301957
 20
-153.8195109035064
 30
0.0
 10
139.6330115301957
 20
-154.0380920145628
 30
0.0
 10
139.3267651491198
 20
-154.2155392367409
 30
0.0
 10
138.9505671666973
 20
-154.2155392367409
 30
0.0
 10
138.5733023905644
 20
-154.2155392367409
 30
0.0
 10
138.268079065018
 20
-154.0380920145628
 30
0.0
 10
138.268079065018
 20
-153.8195109035064
 30
0.0
 10
138.268079065018
 20
-153.6012825702277
 30
0.0
 10
138.5733023905644
 20
-153.4238353480496
 30
0.0
 10
138.9505671666973
 20
-153.4238353480496
 30
0.0
 10
139.3267651491198
 20
-153.4238353480496
 30
0.0
 10
139.6330115301957
 20
-153.6012825702277
 30
0.0
 10
139.6330115301957
 20
-153.8195109035064
 30
0.0
  0
SPLINE
  5
7E
330
79
100
AcDbEntity
  8
レイヤー 1
 62
   250
420
  2299925
370
     9
100
AcDbSpline
210
0.0
220
0.0
230
1.0
 70
     8
 71
     3
 72
    11
 73
     7
 74
     0
 42
0.0000000001
 43
0.0000000001
 40
0.0
 40
0.0
 40
0.0
 40
0.0
 40
1.0
 40
1.0
 40
1.0
 40
2.0
 40
2.0
 40
2.0
 40
2.0
 10
138.3869298953192
 20
-154.0368925701188
 30
0.0
 10
138.3869298953192
 20
-154.0368925701188
 30
0.0
 10
138.3666098958376
 20
-153.5619831257931
 30
0.0
 10
139.1383112650388
 20
-153.601952848005
 30
0.0
 10
139.1383112650388
 20
-153.601952848005
 30
0.0
 10
139.5937473645307
 20
-153.6610431257685
 30
0.0
 10
139.5145134776633
 20
-154.0174192367901
 30
0.0
  0
SPLINE
  5
7F
330
79
100
AcDbEntity
  8
レイヤー 1
 62
   250
420
  2299925
370
     9
100
AcDbSpline
210
0.0
220
0.0
230
1.0
 70
     9
 71
     3
 72
    17
 73
    13
 74
     0
 42
0.0000000001
 43
0.0000000001
 40
0.0
 40
0.0
 40
0.0
 40
0.0
 40
1.0
 40
1.0
 40
1.0
 40
2.0
 40
2.0
 40
2.0
 40
3.0
 40
3.0
 40
3.0
 40
4.0
 40
4.0
 40
4.0
 40
4.0
 10
139.9475481888378
 20
-155.1181564587376
 30
0.0
 10
139.9475481888378
 20
-155.3370903475712
 30
0.0
 10
139.6416588331908
 20
-155.5141495141939
 30
0.0
 10
139.2647468173687
 20
-155.5141495141939
 30
0.0
 10
138.8878390492066
 20
-155.5141495141939
 30
0.0
 10
138.5826199445665
 20
-155.3370903475712
 30
0.0
 10
138.5826199445665
 20
-155.1181564587376
 30
0.0
 10
138.5826199445665
 20
-154.9000692365696
 30
0.0
 10
138.8878390492066
 20
-154.7226572921697
 30
0.0
 10
139.2647468173687
 20
-154.7226572921697
 30
0.0
 10
139.6416588331908
 20
-154.7226572921697
 30
0.0
 10
139.9475481888378
 20
-154.9000692365696
 30
0.0
 10
139.9475481888378
 20
-155.1181564587376
 30
0.0
  0
SPLINE
  5
80
330
79
100
AcDbEntity
  8
レイヤー 1
 62
   250
420
  2299925
370
     9
100
AcDbSpline
210
0.0
220
0.0
230
1.0
 70
     8
 71
     3
 72
    11
 73
     7
 74
     0
 42
0.0000000001
 43
0.0000000001
 40
0.0
 40
0.0
 40
0.0
 40
0.0
 40
1.0
 40
1.0
 40
1.0
 40
2.0
 40
2.0
 40
2.0
 40
2.0
 10
138.7014665539614
 20
-155.3357145142383
 30
0.0
 10
138.7014665539614
 20
-155.3357145142383
 30
0.0
 10
138.6811465544798
 20
-154.8608050699126
 30
0.0
 10
139.4532007014497
 20
-154.9005984032362
 30
0.0
 10
139.4532007014497
 20
-154.9005984032362
 30
0.0
 10
139.9079312454041
 20
-154.9600061809993
 30
0.0
 10
139.8286973585367
 20
-155.3164175697991
 30
0.0
  0
SPLINE
  5
81
330
79
100
AcDbEntity
  8
レイヤー 1
 62
   250
420
  2299925
370
     9
100
AcDbSpline
210
0.0
220
0.0
230
1.0
 70
     9
 71
     3
 72
    17
 73
    13
 74
     0
 42
0.0000000001
 43
0.0000000001
 40
0.0
 40
0.0
 40
0.0
 40
0.0
 40
1.0
 40
1.0
 40
1.0
 40
2.0
 40
2.0
 40
2.0
 40
3.0
 40
3.0
 40
3.0
 40
4.0
 40
4.0
 40
4.0
 40
4.0
 10
139.4239201466412
 20
-152.6885053482335
 30
0.0
 10
139.4239201466412
 20
-152.9072628481789
 30
0.0
 10
139.1176384877884
 20
-153.0844984036905
 30
0.0
 10
138.7414362751639
 20
-153.0844984036905
 30
0.0
 10
138.3642110070099
 20
-153.0844984036905
 30
0.0
 10
138.0585996259178
 20
-152.9072628481789
 30
0.0
 10
138.0585996259178
 20
-152.6885053482335
 30
0.0
 10
138.0585996259178
 20
-152.4700653482884
 30
0.0
 10
138.3642110070099
 20
-152.2928297927774
 30
0.0
 10
138.7414362751639
 20
-152.2928297927774
 30
0.0
 10
139.1176384877884
 20
-152.2928297927774
 30
0.0
 10
139.4239201466412
 20
-152.4700653482884
 30
0.0
 10
139.4239201466412
 20
-152.6885053482335
 30
0.0
  0
SPLINE
  5
82
330
79
100
AcDbEntity
  8
レイヤー 1
 62
   250
420
  2299925
370
     9
100
AcDbSpline
210
0.0
220
0.0
230
1.0
 70
     8
 71
     3
 72
    11
 73
     7
 74
     0
 42
0.0000000001
 43
0.0000000001
 40
0.0
 40
0.0
 40
0.0
 40
0.0
 40
1.0
 40
1.0
 40
1.0
 40
2.0
 40
2.0
 40
2.0
 40
2.0
 10
138.1778032339878
 20
-152.9060634037349
 30
0.0
 10
138.1778032339878
 20
-152.9060634037349
 30
0.0
 10
138.1574832345062
 20
-152.4309775705203
 30
0.0
 10
138.9288318259386
 20
-152.4709472927328
 30
0.0
 10
138.9288318259386
 20
-152.4709472927328
 30
0.0
 10
139.3843032032074
 20
-152.5300022927175
 30
0.0
 10
139.3047165385712
 20
-152.8864136815179
 30
0.0
  0
SPLINE
  5
83
330
79
100
AcDbEntity
  8
レイヤー 1
 62
   250
420
  2299925
370
     9
100
AcDbSpline
210
0.0
220
0.0
230
1.0
 70
     9
 71
     3
 72
    17
 73
    13
 74
     0
 42
0.0000000001
 43
0.0000000001
 40
0.0
 40
0.0
 40
0.0
 40
0.0
 40
1.0
 40
1.0
 40
1.0
 40
2.0
 40
2.0
 40
2.0
 40
3.0
 40
3.0
 40
3.0
 40
4.0
 40
4.0
 40
4.0
 40
4.0
 10
135.1499116445691
 20
-147.9537336827508
 30
0.0
 10
135.1499116445691
 20
-148.1724911826962
 30
0.0
 10
134.8439827634851
 20
-148.3497267382072
 30
0.0
 10
134.4674671678172
 20
-148.3497267382072
 30
0.0
 10
134.0902025049379
 20
-148.3497267382072
 30
0.0
 10
133.7846264016226
 20
-148.1724911826962
 30
0.0
 10
133.7846264016226
 20
-147.9537336827508
 30
0.0
 10
133.7846264016226
 20
-147.7352936828051
 30
0.0
 10
134.0902025049379
 20
-147.5582345161832
 30
0.0
 10
134.4674671678172
 20
-147.5582345161832
 30
0.0
 10
134.8439827634851
 20
-147.5582345161832
 30
0.0
 10
135.1499116445691
 20
-147.7352936828051
 30
0.0
 10
135.1499116445691
 20
-147.9537336827508
 30
0.0
  0
SPLINE
  5
84
330
79
100
AcDbEntity
  8
レイヤー 1
 62
   250
420
  2299925
370
     9
100
AcDbSpline
210
0.0
220
0.0
230
1.0
 70
     8
 71
     3
 72
    11
 73
     7
 74
     0
 42
0.0000000001
 43
0.0000000001
 40
0.0
 40
0.0
 40
0.0
 40
0.0
 40
1.0
 40
1.0
 40
1.0
 40
2.0
 40
2.0
 40
2.0
 40
2.0
 10
133.9034772319238
 20
-148.171468127141
 30
0.0
 10
133.9034772319238
 20
-148.171468127141
 30
0.0
 10
133.8838627879798
 20
-147.6962059050376
 30
0.0
 10
134.6552113794122
 20
-147.7361756272494
 30
0.0
 10
134.6552113794122
 20
-147.7361756272494
 30
0.0
 10
135.1106474789041
 20
-147.7954070161237
 30
0.0
 10
135.0310608142679
 20
-148.1516420160349
 30
0.0
  0
SPLINE
  5
85
330
79
100
AcDbEntity
  8
レイヤー 1
 62
   250
420
  2299925
370
     9
100
AcDbSpline
210
0.0
220
0.0
230
1.0
 70
     9
 71
     3
 72
    17
 73
    13
 74
     0
 42
0.0000000001
 43
0.0000000001
 40
0.0
 40
0.0
 40
0.0
 40
0.0
 40
1.0
 40
1.0
 40
1.0
 40
2.0
 40
2.0
 40
2.0
 40
3.0
 40
3.0
 40
3.0
 40
4.0
 40
4.0
 40
4.0
 40
4.0
 10
135.4431052482002
 20
-149.0428997935898
 30
0.0
 10
135.4431052482002
 20
-149.2618336824233
 30
0.0
 10
135.1371763671162
 20
-149.4388928490461
 30
0.0
 10
134.7609782788557
 20
-149.4388928490461
 30
0.0
 10
134.3837488863377
 20
-149.4388928490461
 30
0.0
 10
134.0784902830144
 20
-149.2618336824233
 30
0.0
 10
134.0784902830144
 20
-149.0428997935898
 30
0.0
 10
134.0784902830144
 20
-148.8246361825329
 30
0.0
 10
134.3837488863377
 20
-148.6475770159108
 30
0.0
 10
134.7609782788557
 20
-148.6475770159108
 30
0.0
 10
135.1371763671162
 20
-148.6475770159108
 30
0.0
 10
135.4431052482002
 20
-148.8246361825329
 30
0.0
 10
135.4431052482002
 20
-149.0428997935898
 30
0.0
  0
SPLINE
  5
86
330
79
100
AcDbEntity
  8
レイヤー 1
 62
   250
420
  2299925
370
     9
100
AcDbSpline
210
0.0
220
0.0
230
1.0
 70
     8
 71
     3
 72
    11
 73
     7
 74
     0
 42
0.0000000001
 43
0.0000000001
 40
0.0
 40
0.0
 40
0.0
 40
0.0
 40
1.0
 40
1.0
 40
1.0
 40
2.0
 40
2.0
 40
2.0
 40
2.0
 10
134.1970236133237
 20
-149.26063423798
 30
0.0
 10
134.1970236133237
 20
-149.26063423798
 30
0.0
 10
134.177021113834
 20
-148.7853720158765
 30
0.0
 10
134.9483697052664
 20
-148.8253417380884
 30
0.0
 10
134.9483697052664
 20
-148.8253417380884
 30
0.0
 10
135.4038410825353
 20
-148.8845731269626
 30
0.0
 10
135.3245719178909
 20
-149.2409845157624
 30
0.0
  0
SPLINE
  5
87
330
79
100
AcDbEntity
  8
レイヤー 1
 62
   250
420
  2299925
370
     9
100
AcDbSpline
210
0.0
220
0.0
230
1.0
 70
    11
 71
     3
 72
    17
 73
    13
 74
     0
 42
0.0000000001
 43
0.0000000001
 40
0.0
 40
0.0
 40
0.0
 40
0.0
 40
1.0
 40
1.0
 40
1.0
 40
2.0
 40
2.0
 40
2.0
 40
3.0
 40
3.0
 40
3.0
 40
4.0
 40
4.0
 40
4.0
 40
4.0
 10
137.2028665921938
 20
-146.9274325718963
 30
0.0
 10
137.2028665921938
 20
-147.1460136829527
 30
0.0
 10
136.8965849333411
 20
-147.3231081273531
 30
0.0
 10
136.5203827207166
 20
-147.3231081273531
 30
0.0
 10
136.1434749525545
 20
-147.3231081273531
 30
0.0
 10
135.8378988492393
 20
-147.1460136829527
 30
0.0
 10
135.8378988492393
 20
-146.9274325718963
 30
0.0
 10
135.8378988492393
 20
-146.7088514608398
 30
0.0
 10
136.1434749525545
 20
-146.5315806275506
 30
0.0
 10
136.5203827207166
 20
-146.5315806275506
 30
0.0
 10
136.8965849333411
 20
-146.5315806275506
 30
0.0
 10
137.2028665921938
 20
-146.7088514608398
 30
0.0
 10
137.2028665921938
 20
-146.9274325718963
 30
0.0
  0
SPLINE
  5
88
330
79
100
AcDbEntity
  8
レイヤー 1
 62
   250
420
  2299925
370
     9
100
AcDbSpline
210
0.0
220
0.0
230
1.0
 70
     8
 71
     3
 72
    11
 73
     7
 74
     0
 42
0.0000000001
 43
0.0000000001
 40
0.0
 40
0.0
 40
0.0
 40
0.0
 40
1.0
 40
1.0
 40
1.0
 40
2.0
 40
2.0
 40
2.0
 40
2.0
 10
135.9567496795405
 20
-147.1448142385094
 30
0.0
 10
135.9567496795405
 20
-147.1448142385094
 30
0.0
 10
135.9364338341169
 20
-146.6695520164052
 30
0.0
 10
136.70813104926
 20
-146.7095217386171
 30
0.0
 10
136.70813104926
 20
-146.7095217386171
 30
0.0
 10
137.1628968709913
 20
-146.7689647941578
 30
0.0
 10
137.0840199449413
 20
-147.1251645162911
 30
0.0
  0
SPLINE
  5
89
330
79
100
AcDbEntity
  8
レイヤー 1
 62
   250
420
  2299925
370
     9
100
AcDbSpline
210
0.0
220
0.0
230
1.0
 70
    11
 71
     3
 72
    17
 73
    13
 74
     0
 42
0.0000000001
 43
0.0000000001
 40
0.0
 40
0.0
 40
0.0
 40
0.0
 40
1.0
 40
1.0
 40
1.0
 40
2.0
 40
2.0
 40
2.0
 40
3.0
 40
3.0
 40
3.0
 40
4.0
 40
4.0
 40
4.0
 40
4.0
 10
137.4963776958169
 20
-148.0165986827352
 30
0.0
 10
137.4963776958169
 20
-148.2351797937917
 30
0.0
 10
137.1900960369641
 20
-148.4124506270802
 30
0.0
 10
136.8138938243396
 20
-148.4124506270802
 30
0.0
 10
136.4366727228812
 20
-148.4124506270802
 30
0.0
 10
136.1310924528704
 20
-148.2351797937917
 30
0.0
 10
136.1310924528704
 20
-148.0165986827352
 30
0.0
 10
136.1310924528704
 20
-147.7980175716787
 30
0.0
 10
136.4366727228812
 20
-147.6209231272784
 30
0.0
 10
136.8138938243396
 20
-147.6209231272784
 30
0.0
 10
137.1900960369641
 20
-147.6209231272784
 30
0.0
 10
137.4963776958169
 20
-147.7980175716787
 30
0.0
 10
137.4963776958169
 20
-148.0165986827352
 30
0.0
  0
SPLINE
  5
8A
330
79
100
AcDbEntity
  8
レイヤー 1
 62
   250
420
  2299925
370
     9
100
AcDbSpline
210
0.0
220
0.0
230
1.0
 70
     8
 71
     3
 72
    11
 73
     7
 74
     0
 42
0.0000000001
 43
0.0000000001
 40
0.0
 40
0.0
 40
0.0
 40
0.0
 40
1.0
 40
1.0
 40
1.0
 40
2.0
 40
2.0
 40
2.0
 40
2.0
 10
136.2502960609404
 20
-148.233980349347
 30
0.0
 10
136.2502960609404
 20
-148.233980349347
 30
0.0
 10
136.2302977229331
 20
-147.7588945161331
 30
0.0
 10
137.0016774306599
 20
-147.7990406272338
 30
0.0
 10
137.0016774306599
 20
-147.7990406272338
 30
0.0
 10
137.4567607523831
 20
-147.8579545161085
 30
0.0
 10
137.377178278202
 20
-148.2143306271301
 30
0.0
  0
SPLINE
  5
8B
330
79
100
AcDbEntity
  8
レイヤー 1
 62
   250
420
  2299925
370
     9
100
AcDbSpline
210
0.0
220
0.0
230
1.0
 70
     9
 71
     3
 72
    17
 73
    13
 74
     0
 42
0.0000000001
 43
0.0000000001
 40
0.0
 40
0.0
 40
0.0
 40
0.0
 40
1.0
 40
1.0
 40
1.0
 40
2.0
 40
2.0
 40
2.0
 40
3.0
 40
3.0
 40
3.0
 40
4.0
 40
4.0
 40
4.0
 40
4.0
 10
134.7940294314262
 20
-147.0113231274314
 30
0.0
 10
134.7940294314262
 20
-147.2300806273764
 30
0.0
 10
134.4877830503503
 20
-147.4071750717761
 30
0.0
 10
134.1118983377177
 20
-147.4071750717761
 30
0.0
 10
133.7343202917949
 20
-147.4071750717761
 30
0.0
 10
133.4287441884797
 20
-147.2300806273764
 30
0.0
 10
133.4287441884797
 20
-147.0113231274314
 30
0.0
 10
133.4287441884797
 20
-146.7928831274857
 30
0.0
 10
133.7343202917949
 20
-146.6158239608632
 30
0.0
 10
134.1118983377177
 20
-146.6158239608632
 30
0.0
 10
134.4877830503503
 20
-146.6158239608632
 30
0.0
 10
134.7940294314262
 20
-146.7928831274857
 30
0.0
 10
134.7940294314262
 20
-147.0113231274314
 30
0.0
  0
SPLINE
  5
8C
330
79
100
AcDbEntity
  8
レイヤー 1
 62
   250
420
  2299925
370
     9
100
AcDbSpline
210
0.0
220
0.0
230
1.0
 70
     8
 71
     3
 72
    11
 73
     7
 74
     0
 42
0.0000000001
 43
0.0000000001
 40
0.0
 40
0.0
 40
0.0
 40
0.0
 40
1.0
 40
1.0
 40
1.0
 40
2.0
 40
2.0
 40
2.0
 40
2.0
 10
133.5475950187809
 20
-147.2288811829318
 30
0.0
 10
133.5475950187809
 20
-147.2288811829318
 30
0.0
 10
133.5276277970681
 20
-146.7537953497179
 30
0.0
 10
134.2993291662692
 20
-146.7937650719298
 30
0.0
 10
134.2993291662692
 20
-146.7937650719298
 30
0.0
 10
134.7540949880005
 20
-146.8528553496926
 30
0.0
 10
134.675178601125
 20
-147.2092314607142
 30
0.0
  0
SPLINE
  5
8D
330
79
100
AcDbEntity
  8
レイヤー 1
 62
   250
420
  2299925
370
     9
100
AcDbSpline
210
0.0
220
0.0
230
1.0
 70
     9
 71
     3
 72
    17
 73
    13
 74
     0
 42
0.0000000001
 43
0.0000000001
 40
0.0
 40
0.0
 40
0.0
 40
0.0
 40
1.0
 40
1.0
 40
1.0
 40
2.0
 40
2.0
 40
2.0
 40
3.0
 40
3.0
 40
3.0
 40
4.0
 40
4.0
 40
4.0
 40
4.0
 10
133.0129250324215
 20
-148.8335967380864
 30
0.0
 10
133.0129250324215
 20
-149.0525306269206
 30
0.0
 10
132.7069961513375
 20
-149.2296250713202
 30
0.0
 10
132.330793938713
 20
-149.2296250713202
 30
0.0
 10
131.9535727240024
 20
-149.2296250713202
 30
0.0
 10
131.6479925672438
 20
-149.0525306269206
 30
0.0
 10
131.6479925672438
 20
-148.8335967380864
 30
0.0
 10
131.6479925672438
 20
-148.6155095159184
 30
0.0
 10
131.9535727240024
 20
-148.4382739604077
 30
0.0
 10
132.330793938713
 20
-148.4382739604077
 30
0.0
 10
132.7069961513375
 20
-148.4382739604077
 30
0.0
 10
133.0129250324215
 20
-148.6155095159184
 30
0.0
 10
133.0129250324215
 20
-148.8335967380864
 30
0.0
  0
SPLINE
  5
8E
330
79
100
AcDbEntity
  8
レイヤー 1
 62
   250
420
  2299925
370
     9
100
AcDbSpline
210
0.0
220
0.0
230
1.0
 70
     8
 71
     3
 72
    11
 73
     7
 74
     0
 42
0.0000000001
 43
0.0000000001
 40
0.0
 40
0.0
 40
0.0
 40
0.0
 40
1.0
 40
1.0
 40
1.0
 40
2.0
 40
2.0
 40
2.0
 40
2.0
 10
131.7671961753138
 20
-149.0513311824766
 30
0.0
 10
131.7671961753138
 20
-149.0513311824766
 30
0.0
 10
131.7465233980634
 20
-148.5760689603731
 30
0.0
 10
132.5185422672565
 20
-148.6162150714739
 30
0.0
 10
132.5185422672565
 20
-148.6162150714739
 30
0.0
 10
132.9733080889877
 20
-148.6751289603485
 30
0.0
 10
132.8944310570998
 20
-149.031681460259
 30
0.0
  0
SPLINE
  5
8F
330
79
100
AcDbEntity
  8
レイヤー 1
 62
   250
420
  2299925
370
     9
100
AcDbSpline
210
0.0
220
0.0
230
1.0
 70
     9
 71
     3
 72
    17
 73
    13
 74
     0
 42
0.0000000001
 43
0.0000000001
 40
0.0
 40
0.0
 40
0.0
 40
0.0
 40
1.0
 40
1.0
 40
1.0
 40
2.0
 40
2.0
 40
2.0
 40
3.0
 40
3.0
 40
3.0
 40
4.0
 40
4.0
 40
4.0
 40
4.0
 10
133.3064361360445
 20
-149.9227628489253
 30
0.0
 10
133.3064361360445
 20
-150.1415203488706
 30
0.0
 10
133.0001897549686
 20
-150.3191086821594
 30
0.0
 10
132.6243403201129
 20
-150.3191086821594
 30
0.0
 10
132.2467310572619
 20
-150.3191086821594
 30
0.0
 10
131.9415036708668
 20
-150.1415203488706
 30
0.0
 10
131.9415036708668
 20
-149.9227628489253
 30
0.0
 10
131.9415036708668
 20
-149.7045345156459
 30
0.0
 10
132.2467310572619
 20
-149.5274400712463
 30
0.0
 10
132.6243403201129
 20
-149.5274400712463
 30
0.0
 10
133.0001897549686
 20
-149.5274400712463
 30
0.0
 10
133.3064361360445
 20
-149.7045345156459
 30
0.0
 10
133.3064361360445
 20
-149.9227628489253
 30
0.0
  0
SPLINE
  5
90
330
79
100
AcDbEntity
  8
レイヤー 1
 62
   250
420
  2299925
370
     9
100
AcDbSpline
210
0.0
220
0.0
230
1.0
 70
     8
 71
     3
 72
    11
 73
     7
 74
     0
 42
0.0000000001
 43
0.0000000001
 40
0.0
 40
0.0
 40
0.0
 40
0.0
 40
1.0
 40
1.0
 40
1.0
 40
2.0
 40
2.0
 40
2.0
 40
2.0
 10
132.060354501168
 20
-150.140320904426
 30
0.0
 10
132.060354501168
 20
-150.140320904426
 30
0.0
 10
132.0403872794552
 20
-149.6655878489898
 30
0.0
 10
132.8120886486564
 20
-149.7053811823128
 30
0.0
 10
132.8120886486564
 20
-149.7053811823128
 30
0.0
 10
133.2671719703796
 20
-149.7644714600757
 30
0.0
 10
133.1879421681382
 20
-150.120671182209
 30
0.0
  0
SPLINE
  5
91
330
79
100
AcDbEntity
  8
レイヤー 1
 62
   250
420
  2299925
370
     9
100
AcDbSpline
210
0.0
220
0.0
230
1.0
 70
     9
 71
     3
 72
    17
 73
    13
 74
     0
 42
0.0000000001
 43
0.0000000001
 40
0.0
 40
0.0
 40
0.0
 40
0.0
 40
1.0
 40
1.0
 40
1.0
 40
2.0
 40
2.0
 40
2.0
 40
3.0
 40
3.0
 40
3.0
 40
4.0
 40
4.0
 40
4.0
 40
4.0
 10
132.6570428192786
 20
-147.8911861827667
 30
0.0
 10
132.6570428192786
 20
-148.1099436827123
 30
0.0
 10
132.3511139381946
 20
-148.2872145160006
 30
0.0
 10
131.9745942255782
 20
-148.2872145160006
 30
0.0
 10
131.5973336796473
 20
-148.2872145160006
 30
0.0
 10
131.2921143908345
 20
-148.1099436827123
 30
0.0
 10
131.2921143908345
 20
-147.8911861827667
 30
0.0
 10
131.2921143908345
 20
-147.6727814605994
 30
0.0
 10
131.5973336796473
 20
-147.4956870161988
 30
0.0
 10
131.9745942255782
 20
-147.4956870161988
 30
0.0
 10
132.3511139381946
 20
-147.4956870161988
 30
0.0
 10
132.6570428192786
 20
-147.6727814605994
 30
0.0
 10
132.6570428192786
 20
-147.8911861827667
 30
0.0
  0
SPLINE
  5
92
330
79
100
AcDbEntity
  8
レイヤー 1
 62
   250
420
  2299925
370
     9
100
AcDbSpline
210
0.0
220
0.0
230
1.0
 70
     8
 71
     3
 72
    11
 73
     7
 74
     0
 42
0.0000000001
 43
0.0000000001
 40
0.0
 40
0.0
 40
0.0
 40
0.0
 40
1.0
 40
1.0
 40
1.0
 40
2.0
 40
2.0
 40
2.0
 40
2.0
 10
131.4113139621709
 20
-148.1087442382674
 30
0.0
 10
131.4113139621709
 20
-148.1087442382674
 30
0.0
 10
131.3909939626893
 20
-147.6336584050534
 30
0.0
 10
132.1626953318904
 20
-147.6736281272653
 30
0.0
 10
132.1626953318904
 20
-147.6736281272653
 30
0.0
 10
132.6174258758449
 20
-147.732894793917
 30
0.0
 10
132.5385447667462
 20
-148.0892709049393
 30
0.0
  0
SPLINE
  5
93
330
79
100
AcDbEntity
  8
レイヤー 1
 62
   250
420
  2299925
370
     9
100
AcDbSpline
210
0.0
220
0.0
230
1.0
 70
     9
 71
     3
 72
    17
 73
    13
 74
     0
 42
0.0000000001
 43
0.0000000001
 40
0.0
 40
0.0
 40
0.0
 40
0.0
 40
1.0
 40
1.0
 40
1.0
 40
2.0
 40
2.0
 40
2.0
 40
3.0
 40
3.0
 40
3.0
 40
4.0
 40
4.0
 40
4.0
 40
4.0
 10
130.8652532798291
 20
-149.6823095156521
 30
0.0
 10
130.8652532798291
 20
-149.9010670155975
 30
0.0
 10
130.5593203727959
 20
-150.0779850711083
 30
0.0
 10
130.1831181601714
 20
-150.0779850711083
 30
0.0
 10
129.8058928920175
 20
-150.0779850711083
 30
0.0
 10
129.5003167887023
 20
-149.9010670155975
 30
0.0
 10
129.5003167887023
 20
-149.6823095156521
 30
0.0
 10
129.5003167887023
 20
-149.4638695157064
 30
0.0
 10
129.8058928920175
 20
-149.2864575713064
 30
0.0
 10
130.1831181601714
 20
-149.2864575713064
 30
0.0
 10
130.5593203727959
 20
-149.2864575713064
 30
0.0
 10
130.8652532798291
 20
-149.4638695157064
 30
0.0
 10
130.8652532798291
 20
-149.6823095156521
 30
0.0
  0
SPLINE
  5
94
330
79
100
AcDbEntity
  8
レイヤー 1
 62
   250
420
  2299925
370
     9
100
AcDbSpline
210
0.0
220
0.0
230
1.0
 70
     8
 71
     3
 72
    11
 73
     7
 74
     0
 42
0.0000000001
 43
0.0000000001
 40
0.0
 40
0.0
 40
0.0
 40
0.0
 40
1.0
 40
1.0
 40
1.0
 40
2.0
 40
2.0
 40
2.0
 40
2.0
 10
129.6195203967722
 20
-149.8998675711528
 30
0.0
 10
129.6195203967722
 20
-149.8998675711528
 30
0.0
 10
129.5995178972825
 20
-149.4246053490494
 30
0.0
 10
130.3712192664837
 20
-149.4645750712619
 30
0.0
 10
130.3712192664837
 20
-149.4645750712619
 30
0.0
 10
130.8256323104462
 20
-149.5238417379136
 30
0.0
 10
130.7467512013475
 20
-149.8803942378247
 30
0.0
  0
SPLINE
  5
95
330
79
100
AcDbEntity
  8
レイヤー 1
 62
   250
420
  2299925
370
     9
100
AcDbSpline
210
0.0
220
0.0
230
1.0
 70
     9
 71
     3
 72
    17
 73
    13
 74
     0
 42
0.0000000001
 43
0.0000000001
 40
0.0
 40
0.0
 40
0.0
 40
0.0
 40
1.0
 40
1.0
 40
1.0
 40
2.0
 40
2.0
 40
2.0
 40
3.0
 40
3.0
 40
3.0
 40
4.0
 40
4.0
 40
4.0
 40
4.0
 10
128.2679934868081
 20
-149.5356950712442
 30
0.0
 10
128.2679934868081
 20
-149.7543114600782
 30
0.0
 10
127.9617471057322
 20
-149.9315470155899
 30
0.0
 10
127.5851921153389
 20
-149.9315470155899
 30
0.0
 10
127.2082843471769
 20
-149.9315470155899
 30
0.0
 10
126.9030610216304
 20
-149.7543114600782
 30
0.0
 10
126.9030610216304
 20
-149.5356950712442
 30
0.0
 10
126.9030610216304
 20
-149.3171139601878
 30
0.0
 10
127.2082843471769
 20
-149.1398784046767
 30
0.0
 10
127.5851921153389
 20
-149.1398784046767
 30
0.0
 10
127.9617471057322
 20
-149.1398784046767
 30
0.0
 10
128.2679934868081
 20
-149.3171139601878
 30
0.0
 10
128.2679934868081
 20
-149.5356950712442
 30
0.0
  0
SPLINE
  5
96
330
79
100
AcDbEntity
  8
レイヤー 1
 62
   250
420
  2299925
370
     9
100
AcDbSpline
210
0.0
220
0.0
230
1.0
 70
     8
 71
     3
 72
    11
 73
     7
 74
     0
 42
0.0000000001
 43
0.0000000001
 40
0.0
 40
0.0
 40
0.0
 40
0.0
 40
1.0
 40
1.0
 40
1.0
 40
2.0
 40
2.0
 40
2.0
 40
2.0
 10
127.0212062963941
 20
-149.7531120156342
 30
0.0
 10
127.0212062963941
 20
-149.7531120156342
 30
0.0
 10
127.0012390746813
 20
-149.2780261824196
 30
0.0
 10
127.7729404438824
 20
-149.3178195157427
 30
0.0
 10
127.7729404438824
 20
-149.3178195157427
 30
0.0
 10
128.2283765433744
 20
-149.3772272935064
 30
0.0
 10
128.1491426565069
 20
-149.7334622934173
 30
0.0
  0
SPLINE
  5
97
330
79
100
AcDbEntity
  8
レイヤー 1
 62
   250
420
  2299925
370
     9
100
AcDbSpline
210
0.0
220
0.0
230
1.0
 70
     9
 71
     3
 72
    17
 73
    13
 74
     0
 42
0.0000000001
 43
0.0000000001
 40
0.0
 40
0.0
 40
0.0
 40
0.0
 40
1.0
 40
1.0
 40
1.0
 40
2.0
 40
2.0
 40
2.0
 40
3.0
 40
3.0
 40
3.0
 40
4.0
 40
4.0
 40
4.0
 40
4.0
 10
131.1587956352798
 20
-150.7714756264911
 30
0.0
 10
131.1587956352798
 20
-150.9902331264364
 30
0.0
 10
130.8528667541958
 20
-151.1672922930586
 30
0.0
 10
130.4766645415713
 20
-151.1672922930586
 30
0.0
 10
130.0990512178717
 20
-151.1672922930586
 30
0.0
 10
129.7938278923253
 20
-150.9902331264364
 30
0.0
 10
129.7938278923253
 20
-150.7714756264911
 30
0.0
 10
129.7938278923253
 20
-150.5530356265453
 30
0.0
 10
130.0990512178717
 20
-150.3758000710343
 30
0.0
 10
130.4766645415713
 20
-150.3758000710343
 30
0.0
 10
130.8528667541958
 20
-150.3758000710343
 30
0.0
 10
131.1587956352798
 20
-150.5530356265453
 30
0.0
 10
131.1587956352798
 20
-150.7714756264911
 30
0.0
  0
SPLINE
  5
98
330
79
100
AcDbEntity
  8
レイヤー 1
 62
   250
420
  2299925
370
     9
100
AcDbSpline
210
0.0
220
0.0
230
1.0
 70
     8
 71
     3
 72
    11
 73
     7
 74
     0
 42
0.0000000001
 43
0.0000000001
 40
0.0
 40
0.0
 40
0.0
 40
0.0
 40
1.0
 40
1.0
 40
1.0
 40
2.0
 40
2.0
 40
2.0
 40
2.0
 10
129.9130315003953
 20
-150.9890336819917
 30
0.0
 10
129.9130315003953
 20
-150.9890336819917
 30
0.0
 10
129.8930642786824
 20
-150.5139478487778
 30
0.0
 10
130.6644128701148
 20
-150.5539175709897
 30
0.0
 10
130.6644128701148
 20
-150.5539175709897
 30
0.0
 10
131.119496191838
 20
-150.6130078487526
 30
0.0
 10
131.0402623049705
 20
-150.9695603486637
 30
0.0
  0
SPLINE
  5
99
330
79
100
AcDbEntity
  8
レイヤー 1
 62
   250
420
  2299925
370
     9
100
AcDbSpline
210
0.0
220
0.0
230
1.0
 70
     9
 71
     3
 72
    17
 73
    13
 74
     0
 42
0.0000000001
 43
0.0000000001
 40
0.0
 40
0.0
 40
0.0
 40
0.0
 40
1.0
 40
1.0
 40
1.0
 40
2.0
 40
2.0
 40
2.0
 40
3.0
 40
3.0
 40
3.0
 40
4.0
 40
4.0
 40
4.0
 40
4.0
 10
130.5097198185058
 20
-148.7398989603324
 30
0.0
 10
130.5097198185058
 20
-148.9586564602777
 30
0.0
 10
130.2034421688834
 20
-149.1357509046775
 30
0.0
 10
129.8269184470366
 20
-149.1357509046775
 30
0.0
 10
129.4500106788746
 20
-149.1357509046775
 30
0.0
 10
129.1447873533281
 20
-148.9586564602777
 30
0.0
 10
129.1447873533281
 20
-148.7398989603324
 30
0.0
 10
129.1447873533281
 20
-148.5214589603867
 30
0.0
 10
129.4500106788746
 20
-148.3440470159868
 30
0.0
 10
129.8269184470366
 20
-148.3440470159868
 30
0.0
 10
130.2034421688834
 20
-148.3440470159868
 30
0.0
 10
130.5097198185058
 20
-148.5214589603867
 30
0.0
 10
130.5097198185058
 20
-148.7398989603324
 30
0.0
  0
SPLINE
  5
9A
330
79
100
AcDbEntity
  8
レイヤー 1
 62
   250
420
  2299925
370
     9
100
AcDbSpline
210
0.0
220
0.0
230
1.0
 70
     8
 71
     3
 72
    11
 73
     7
 74
     0
 42
0.0000000001
 43
0.0000000001
 40
0.0
 40
0.0
 40
0.0
 40
0.0
 40
1.0
 40
1.0
 40
1.0
 40
2.0
 40
2.0
 40
2.0
 40
2.0
 10
129.2636421691194
 20
-148.9572806269442
 30
0.0
 10
129.2636421691194
 20
-148.9572806269442
 30
0.0
 10
129.2436356841396
 20
-148.4821947937297
 30
0.0
 10
130.0150195533489
 20
-148.5221645159422
 30
0.0
 10
130.0150195533489
 20
-148.5221645159422
 30
0.0
 10
130.4701028750721
 20
-148.5814311825939
 30
0.0
 10
130.3908689882046
 20
-148.9379836825051
 30
0.0
  0
SPLINE
  5
9B
330
79
100
AcDbEntity
  8
レイヤー 1
 62
   250
420
  2299925
370
     9
100
AcDbSpline
210
0.0
220
0.0
230
1.0
 70
     9
 71
     3
 72
    17
 73
    13
 74
     0
 42
0.0000000001
 43
0.0000000001
 40
0.0
 40
0.0
 40
0.0
 40
0.0
 40
1.0
 40
1.0
 40
1.0
 40
2.0
 40
2.0
 40
2.0
 40
3.0
 40
3.0
 40
3.0
 40
4.0
 40
4.0
 40
4.0
 40
4.0
 10
141.770350920112
 20
-152.898302292626
 30
0.0
 10
141.770350920112
 20
-153.1168834036819
 30
0.0
 10
141.4637560549578
 20
-153.2939778480822
 30
0.0
 10
141.0879023264117
 20
-153.2939778480822
 30
0.0
 10
140.7106417804808
 20
-153.2939778480822
 30
0.0
 10
140.4050699441113
 20
-153.1168834036819
 30
0.0
 10
140.4050699441113
 20
-152.898302292626
 30
0.0
 10
140.4050699441113
 20
-152.6797211815689
 30
0.0
 10
140.7106417804808
 20
-152.5026267371699
 30
0.0
 10
141.0879023264117
 20
-152.5026267371699
 30
0.0
 10
141.4637560549578
 20
-152.5026267371699
 30
0.0
 10
141.770350920112
 20
-152.6797211815689
 30
0.0
 10
141.770350920112
 20
-152.898302292626
 30
0.0
  0
SPLINE
  5
9C
330
79
100
AcDbEntity
  8
レイヤー 1
 62
   250
420
  2299925
370
     9
100
AcDbSpline
210
0.0
220
0.0
230
1.0
 70
     8
 71
     3
 72
    11
 73
     7
 74
     0
 42
0.0000000001
 43
0.0000000001
 40
0.0
 40
0.0
 40
0.0
 40
0.0
 40
1.0
 40
1.0
 40
1.0
 40
2.0
 40
2.0
 40
2.0
 40
2.0
 10
140.5236032774148
 20
-153.1158603481267
 30
0.0
 10
140.5236032774148
 20
-153.1158603481267
 30
0.0
 10
140.503949285754
 20
-152.640421737135
 30
0.0
 10
141.2752978771863
 20
-152.6807442371247
 30
0.0
 10
141.2752978771863
 20
-152.6807442371247
 30
0.0
 10
141.7304164766864
 20
-152.7398345148875
 30
0.0
 10
141.6511473120421
 20
-153.0962106259092
 30
0.0
  0
SPLINE
  5
9D
330
79
100
AcDbEntity
  8
レイヤー 1
 62
   250
420
  2299925
370
     9
100
AcDbSpline
210
0.0
220
0.0
230
1.0
 70
     9
 71
     3
 72
    17
 73
    13
 74
     0
 42
0.0000000001
 43
0.0000000001
 40
0.0
 40
0.0
 40
0.0
 40
0.0
 40
1.0
 40
1.0
 40
1.0
 40
2.0
 40
2.0
 40
2.0
 40
3.0
 40
3.0
 40
3.0
 40
4.0
 40
4.0
 40
4.0
 40
4.0
 10
142.0845700787623
 20
-154.1969125700784
 30
0.0
 10
142.0845700787623
 20
-154.415705347802
 30
0.0
 10
141.7782884199096
 20
-154.5929409033136
 30
0.0
 10
141.402086207285
 20
-154.5929409033136
 30
0.0
 10
141.0248609391311
 20
-154.5929409033136
 30
0.0
 10
140.719249558039
 20
-154.415705347802
 30
0.0
 10
140.719249558039
 20
-154.1969125700784
 30
0.0
 10
140.719249558039
 20
-153.9785078479109
 30
0.0
 10
141.0248609391311
 20
-153.8014134035112
 30
0.0
 10
141.402086207285
 20
-153.8014134035112
 30
0.0
 10
141.7782884199096
 20
-153.8014134035112
 30
0.0
 10
142.0845700787623
 20
-153.9785078479109
 30
0.0
 10
142.0845700787623
 20
-154.1969125700784
 30
0.0
  0
SPLINE
  5
9E
330
79
100
AcDbEntity
  8
レイヤー 1
 62
   250
420
  2299925
370
     9
100
AcDbSpline
210
0.0
220
0.0
230
1.0
 70
     8
 71
     3
 72
    11
 73
     7
 74
     0
 42
0.0000000001
 43
0.0000000001
 40
0.0
 40
0.0
 40
0.0
 40
0.0
 40
1.0
 40
1.0
 40
1.0
 40
2.0
 40
2.0
 40
2.0
 40
2.0
 10
140.8381356661171
 20
-154.4146470144687
 30
0.0
 10
140.8381356661171
 20
-154.4146470144687
 30
0.0
 10
140.8184859443961
 20
-153.9395611812547
 30
0.0
 10
141.5894817580598
 20
-153.9793545145777
 30
0.0
 10
141.5894817580598
 20
-153.9793545145777
 30
0.0
 10
142.0452706353205
 20
-154.0386211812295
 30
0.0
 10
141.9656839706842
 20
-154.3948561811403
 30
0.0
  0
SPLINE
  5
9F
330
79
100
AcDbEntity
  8
レイヤー 1
 62
   250
420
  2299925
370
     9
100
AcDbSpline
210
0.0
220
0.0
230
1.0
 70
     9
 71
     3
 72
    17
 73
    13
 74
     0
 42
0.0000000001
 43
0.0000000001
 40
0.0
 40
0.0
 40
0.0
 40
0.0
 40
1.0
 40
1.0
 40
1.0
 40
2.0
 40
2.0
 40
2.0
 40
3.0
 40
3.0
 40
3.0
 40
4.0
 40
4.0
 40
4.0
 40
4.0
 10
141.56055398102
 20
-151.7670850706861
 30
0.0
 10
141.56055398102
 20
-151.9858778484096
 30
0.0
 10
141.254625099936
 20
-152.1629370150318
 30
0.0
 10
140.8784228873115
 20
-152.1629370150318
 30
0.0
 10
140.5008448413887
 20
-152.1629370150318
 30
0.0
 10
140.1956215158423
 20
-151.9858778484096
 30
0.0
 10
140.1956215158423
 20
-151.7670850706861
 30
0.0
 10
140.1956215158423
 20
-151.5488567374075
 30
0.0
 10
140.5008448413887
 20
-151.3717622930078
 30
0.0
 10
140.8784228873115
 20
-151.3717622930078
 30
0.0
 10
141.254625099936
 20
-151.3717622930078
 30
0.0
 10
141.56055398102
 20
-151.5488567374075
 30
0.0
 10
141.56055398102
 20
-151.7670850706861
 30
0.0
  0
SPLINE
  5
A0
330
79
100
AcDbEntity
  8
レイヤー 1
 62
   250
420
  2299925
370
     9
100
AcDbSpline
210
0.0
220
0.0
230
1.0
 70
     8
 71
     3
 72
    11
 73
     7
 74
     0
 42
0.0000000001
 43
0.0000000001
 40
0.0
 40
0.0
 40
0.0
 40
0.0
 40
1.0
 40
1.0
 40
1.0
 40
2.0
 40
2.0
 40
2.0
 40
2.0
 10
140.3148251239123
 20
-151.9846431261875
 30
0.0
 10
140.3148251239123
 20
-151.9846431261875
 30
0.0
 10
140.2944698466538
 20
-151.5094161818615
 30
0.0
 10
141.0661754995015
 20
-151.5495270151854
 30
0.0
 10
141.0661754995015
 20
-151.5495270151854
 30
0.0
 10
141.5209370375862
 20
-151.6087936818365
 30
0.0
 10
141.4420559284875
 20
-151.965028681748
 30
0.0
  0
SPLINE
  5
A1
330
79
100
AcDbEntity
  8
レイヤー 1
 62
   250
420
  2299925
370
     9
100
AcDbSpline
210
0.0
220
0.0
230
1.0
 70
     9
 71
     3
 72
    17
 73
    13
 74
     0
 42
0.0000000001
 43
0.0000000001
 40
0.0
 40
0.0
 40
0.0
 40
0.0
 40
1.0
 40
1.0
 40
1.0
 40
2.0
 40
2.0
 40
2.0
 40
3.0
 40
3.0
 40
3.0
 40
4.0
 40
4.0
 40
4.0
 40
4.0
 10
143.906667254499
 20
-152.0396059039523
 30
0.0
 10
143.906667254499
 20
-152.2585397927859
 30
0.0
 10
143.6003855956462
 20
-152.4354578482967
 30
0.0
 10
143.2238658830298
 20
-152.4354578482967
 30
0.0
 10
142.8469581148677
 20
-152.4354578482967
 30
0.0
 10
142.5417347893213
 20
-152.2585397927859
 30
0.0
 10
142.5417347893213
 20
-152.0396059039523
 30
0.0
 10
142.5417347893213
 20
-151.8213422928948
 30
0.0
 10
142.8469581148677
 20
-151.6441067373838
 30
0.0
 10
143.2238658830298
 20
-151.6441067373838
 30
0.0
 10
143.6003855956462
 20
-151.6441067373838
 30
0.0
 10
143.906667254499
 20
-151.8213422928948
 30
0.0
 10
143.906667254499
 20
-152.0396059039523
 30
0.0
  0
SPLINE
  5
A2
330
79
100
AcDbEntity
  8
レイヤー 1
 62
   250
420
  2299925
370
     9
100
AcDbSpline
210
0.0
220
0.0
230
1.0
 70
     8
 71
     3
 72
    11
 73
     7
 74
     0
 42
0.0000000001
 43
0.0000000001
 40
0.0
 40
0.0
 40
0.0
 40
0.0
 40
1.0
 40
1.0
 40
1.0
 40
2.0
 40
2.0
 40
2.0
 40
2.0
 10
142.6605856196225
 20
-152.2573403483413
 30
0.0
 10
142.6605856196225
 20
-152.2573403483413
 30
0.0
 10
142.6402699435523
 20
-151.7822545151273
 30
0.0
 10
143.412284489334
 20
-151.8222242373392
 30
0.0
 10
143.412284489334
 20
-151.8222242373392
 30
0.0
 10
143.8670503110652
 20
-151.8813145151021
 30
0.0
 10
143.7878164241978
 20
-152.2376906261243
 30
0.0
  0
SPLINE
  5
A3
330
79
100
AcDbEntity
  8
レイヤー 1
 62
   250
420
  2299925
370
     9
100
AcDbSpline
210
0.0
220
0.0
230
1.0
 70
     9
 71
     3
 72
    17
 73
    13
 74
     0
 42
0.0000000001
 43
0.0000000001
 40
0.0
 40
0.0
 40
0.0
 40
0.0
 40
1.0
 40
1.0
 40
1.0
 40
2.0
 40
2.0
 40
2.0
 40
3.0
 40
3.0
 40
3.0
 40
4.0
 40
4.0
 40
4.0
 40
4.0
 10
144.2208511353724
 20
-153.3383925702936
 30
0.0
 10
144.2208511353724
 20
-153.5571853480165
 30
0.0
 10
143.9146047542965
 20
-153.7344209035281
 30
0.0
 10
143.5387200416639
 20
-153.7344209035281
 30
0.0
 10
143.1611419957411
 20
-153.7344209035281
 30
0.0
 10
142.8555658924259
 20
-153.5571853480165
 30
0.0
 10
142.8555658924259
 20
-153.3383925702936
 30
0.0
 10
142.8555658924259
 20
-153.1199878481267
 30
0.0
 10
143.1611419957411
 20
-152.9428934037257
 30
0.0
 10
143.5387200416639
 20
-152.9428934037257
 30
0.0
 10
143.9146047542965
 20
-152.9428934037257
 30
0.0
 10
144.2208511353724
 20
-153.1199878481267
 30
0.0
 10
144.2208511353724
 20
-153.3383925702936
 30
0.0
  0
SPLINE
  5
A4
330
79
100
AcDbEntity
  8
レイヤー 1
 62
   250
420
  2299925
370
     9
100
AcDbSpline
210
0.0
220
0.0
230
1.0
 70
     8
 71
     3
 72
    11
 73
     7
 74
     0
 42
0.0000000001
 43
0.0000000001
 40
0.0
 40
0.0
 40
0.0
 40
0.0
 40
1.0
 40
1.0
 40
1.0
 40
2.0
 40
2.0
 40
2.0
 40
2.0
 10
142.9747695004959
 20
-153.5561270146832
 30
0.0
 10
142.9747695004959
 20
-153.5561270146832
 30
0.0
 10
142.9548022787831
 20
-153.0809000703579
 30
0.0
 10
143.7265036479842
 20
-153.1208345147923
 30
0.0
 10
143.7265036479842
 20
-153.1208345147923
 30
0.0
 10
144.1812341919386
 20
-153.180101181444
 30
0.0
 10
144.1027058606087
 20
-153.5363361813555
 30
0.0
  0
SPLINE
  5
A5
330
79
100
AcDbEntity
  8
レイヤー 1
 62
   250
420
  2299925
370
     9
100
AcDbSpline
210
0.0
220
0.0
230
1.0
 70
     9
 71
     3
 72
    17
 73
    13
 74
     0
 42
0.0000000001
 43
0.0000000001
 40
0.0
 40
0.0
 40
0.0
 40
0.0
 40
1.0
 40
1.0
 40
1.0
 40
2.0
 40
2.0
 40
2.0
 40
3.0
 40
3.0
 40
3.0
 40
4.0
 40
4.0
 40
4.0
 40
4.0
 10
143.6971921655099
 20
-150.9087414597902
 30
0.0
 10
143.6971921655099
 20
-151.1273578486242
 30
0.0
 10
143.3912942120917
 20
-151.3044170152463
 30
0.0
 10
143.0147392216984
 20
-151.3044170152463
 30
0.0
 10
142.6378314535363
 20
-151.3044170152463
 30
0.0
 10
142.3326081279899
 20
-151.1273578486242
 30
0.0
 10
142.3326081279899
 20
-150.9087414597902
 30
0.0
 10
142.3326081279899
 20
-150.6903367376226
 30
0.0
 10
142.6378314535363
 20
-150.5131011821109
 30
0.0
 10
143.0147392216984
 20
-150.5131011821109
 30
0.0
 10
143.3912942120917
 20
-150.5131011821109
 30
0.0
 10
143.6971921655099
 20
-150.6903367376226
 30
0.0
 10
143.6971921655099
 20
-150.9087414597902
 30
0.0
  0
SPLINE
  5
A6
330
79
100
AcDbEntity
  8
レイヤー 1
 62
   250
420
  2299925
370
     9
100
AcDbSpline
210
0.0
220
0.0
230
1.0
 70
     8
 71
     3
 72
    11
 73
     7
 74
     0
 42
0.0000000001
 43
0.0000000001
 40
0.0
 40
0.0
 40
0.0
 40
0.0
 40
1.0
 40
1.0
 40
1.0
 40
2.0
 40
2.0
 40
2.0
 40
2.0
 10
142.4511061805223
 20
-151.126123126402
 30
0.0
 10
142.4511061805223
 20
-151.126123126402
 30
0.0
 10
142.4311389588095
 20
-150.6510725709656
 30
0.0
 10
143.2024875502419
 20
-150.6910070154
 30
0.0
 10
143.2024875502419
 20
-150.6910070154
 30
0.0
 10
143.6579236497339
 20
-150.7502736820517
 30
0.0
 10
143.5786897628664
 20
-151.1065086819626
 30
0.0
  0
SPLINE
  5
A7
330
79
100
AcDbEntity
  8
レイヤー 1
 62
   250
420
  2299925
370
     9
100
AcDbSpline
210
0.0
220
0.0
230
1.0
 70
     9
 71
     3
 72
    17
 73
    13
 74
     0
 42
0.0000000001
 43
0.0000000001
 40
0.0
 40
0.0
 40
0.0
 40
0.0
 40
1.0
 40
1.0
 40
1.0
 40
2.0
 40
2.0
 40
2.0
 40
3.0
 40
3.0
 40
3.0
 40
4.0
 40
4.0
 40
4.0
 40
4.0
 10
146.0436538666466
 20
-151.0551795153086
 30
0.0
 10
146.0436538666466
 20
-151.2737606263657
 30
0.0
 10
145.7374074855707
 20
-151.450996181876
 30
0.0
 10
145.3611699951693
 20
-151.450996181876
 30
0.0
 10
144.9839447270153
 20
-151.450996181876
 30
0.0
 10
144.6783686237001
 20
-151.2737606263657
 30
0.0
 10
144.6783686237001
 20
-151.0551795153086
 30
0.0
 10
144.6783686237001
 20
-150.8367395153635
 30
0.0
 10
144.9839447270153
 20
-150.6595039598524
 30
0.0
 10
145.3611699951693
 20
-150.6595039598524
 30
0.0
 10
145.7374074855707
 20
-150.6595039598524
 30
0.0
 10
146.0436538666466
 20
-150.8367395153635
 30
0.0
 10
146.0436538666466
 20
-151.0551795153086
 30
0.0
  0
SPLINE
  5
A8
330
79
100
AcDbEntity
  8
レイヤー 1
 62
   250
420
  2299925
370
     9
100
AcDbSpline
210
0.0
220
0.0
230
1.0
 70
     8
 71
     3
 72
    11
 73
     7
 74
     0
 42
0.0000000001
 43
0.0000000001
 40
0.0
 40
0.0
 40
0.0
 40
0.0
 40
1.0
 40
1.0
 40
1.0
 40
2.0
 40
2.0
 40
2.0
 40
2.0
 10
144.7972194540013
 20
-151.2727375708099
 30
0.0
 10
144.7972194540013
 20
-151.2727375708099
 30
0.0
 10
144.7775697322804
 20
-150.7976517375953
 30
0.0
 10
145.5486008237209
 20
-150.8376214598079
 30
0.0
 10
145.5486008237209
 20
-150.8376214598079
 30
0.0
 10
146.0043897009816
 20
-150.8967117375707
 30
0.0
 10
145.9251558141141
 20
-151.2530878485929
 30
0.0
  0
SPLINE
  5
A9
330
79
100
AcDbEntity
  8
レイヤー 1
 62
   250
420
  2299925
370
     9
100
AcDbSpline
210
0.0
220
0.0
230
1.0
 70
     9
 71
     3
 72
    17
 73
    13
 74
     0
 42
0.0000000001
 43
0.0000000001
 40
0.0
 40
0.0
 40
0.0
 40
0.0
 40
1.0
 40
1.0
 40
1.0
 40
2.0
 40
2.0
 40
2.0
 40
3.0
 40
3.0
 40
3.0
 40
4.0
 40
4.0
 40
4.0
 40
4.0
 10
146.358194942623
 20
-152.3537897927622
 30
0.0
 10
146.358194942623
 20
-152.5725472927076
 30
0.0
 10
146.0519441442128
 20
-152.749994514885
 30
0.0
 10
145.6757066538115
 20
-152.749994514885
 30
0.0
 10
145.2984813856575
 20
-152.749994514885
 30
0.0
 10
144.9929052823423
 20
-152.5725472927076
 30
0.0
 10
144.9929052823423
 20
-152.3537897927622
 30
0.0
 10
144.9929052823423
 20
-152.1353850705946
 30
0.0
 10
145.2984813856575
 20
-151.9581142373048
 30
0.0
 10
145.6757066538115
 20
-151.9581142373048
 30
0.0
 10
146.0519441442128
 20
-151.9581142373048
 30
0.0
 10
146.358194942623
 20
-152.1353850705946
 30
0.0
 10
146.358194942623
 20
-152.3537897927622
 30
0.0
  0
SPLINE
  5
AA
330
79
100
AcDbEntity
  8
レイヤー 1
 62
   250
420
  2299925
370
     9
100
AcDbSpline
210
0.0
220
0.0
230
1.0
 70
     8
 71
     3
 72
    11
 73
     7
 74
     0
 42
0.0000000001
 43
0.0000000001
 40
0.0
 40
0.0
 40
0.0
 40
0.0
 40
1.0
 40
1.0
 40
1.0
 40
2.0
 40
2.0
 40
2.0
 40
2.0
 10
145.1121088904123
 20
-152.5715242371518
 30
0.0
 10
145.1121088904123
 20
-152.5715242371518
 30
0.0
 10
145.0917888909307
 20
-152.0964384039372
 30
0.0
 10
145.8631374823631
 20
-152.1364081261498
 30
0.0
 10
145.8631374823631
 20
-152.1364081261498
 30
0.0
 10
146.318573581855
 20
-152.1954984039126
 30
0.0
 10
146.2389869172188
 20
-152.5520509038231
 30
0.0
  0
SPLINE
  5
AB
330
79
100
AcDbEntity
  8
レイヤー 1
 62
   250
420
  2299925
370
     9
100
AcDbSpline
210
0.0
220
0.0
230
1.0
 70
     9
 71
     3
 72
    17
 73
    13
 74
     0
 42
0.0000000001
 43
0.0000000001
 40
0.0
 40
0.0
 40
0.0
 40
0.0
 40
1.0
 40
1.0
 40
1.0
 40
2.0
 40
2.0
 40
2.0
 40
3.0
 40
3.0
 40
3.0
 40
4.0
 40
4.0
 40
4.0
 40
4.0
 10
137.307571033967
 20
-153.6312334035535
 30
0.0
 10
137.307571033967
 20
-153.8501672923877
 30
0.0
 10
137.0013246528912
 20
-154.027261736788
 30
0.0
 10
136.6251224402667
 20
-154.027261736788
 30
0.0
 10
136.2478618943358
 20
-154.027261736788
 30
0.0
 10
135.9426385687894
 20
-153.8501672923877
 30
0.0
 10
135.9426385687894
 20
-153.6312334035535
 30
0.0
 10
135.9426385687894
 20
-153.4130050702747
 30
0.0
 10
136.2478618943358
 20
-153.2357342369862
 30
0.0
 10
136.6251224402667
 20
-153.2357342369862
 30
0.0
 10
137.0013246528912
 20
-153.2357342369862
 30
0.0
 10
137.307571033967
 20
-153.4130050702747
 30
0.0
 10
137.307571033967
 20
-153.6312334035535
 30
0.0
  0
SPLINE
  5
AC
330
79
100
AcDbEntity
  8
レイヤー 1
 62
   250
420
  2299925
370
     9
100
AcDbSpline
210
0.0
220
0.0
230
1.0
 70
     8
 71
     3
 72
    11
 73
     7
 74
     0
 42
0.0000000001
 43
0.0000000001
 40
0.0
 40
0.0
 40
0.0
 40
0.0
 40
1.0
 40
1.0
 40
1.0
 40
2.0
 40
2.0
 40
2.0
 40
2.0
 10
136.0614893990906
 20
-153.8489678479437
 30
0.0
 10
136.0614893990906
 20
-153.8489678479437
 30
0.0
 10
136.041169399609
 20
-153.3737056258402
 30
0.0
 10
136.8132235465789
 20
-153.4136753480521
 30
0.0
 10
136.8132235465789
 20
-153.4136753480521
 30
0.0
 10
137.2679540905333
 20
-153.4729420147045
 30
0.0
 10
137.1887202036659
 20
-153.8293181257267
 30
0.0
  0
SPLINE
  5
AD
330
79
100
AcDbEntity
  8
レイヤー 1
 62
   250
420
  2299925
370
     9
100
AcDbSpline
210
0.0
220
0.0
230
1.0
 70
     8
 71
     3
 72
    23
 73
    19
 74
     0
 42
0.0000000001
 43
0.0000000001
 40
0.0
 40
0.0
 40
0.0
 40
0.0
 40
1.0
 40
1.0
 40
1.0
 40
2.0
 40
2.0
 40
2.0
 40
3.0
 40
3.0
 40
3.0
 40
4.0
 40
4.0
 40
4.0
 40
5.0
 40
5.0
 40
5.0
 40
6.0
 40
6.0
 40
6.0
 40
6.0
 10
134.201825501218
 20
-146.0776967387754
 30
0.0
 10
134.201825501218
 20
-146.0776967387754
 30
0.0
 10
126.0982690977179
 20
-149.188773404664
 30
0.0
 10
126.0982690977179
 20
-149.188773404664
 30
0.0
 10
126.0982690977179
 20
-149.188773404664
 30
0.0
 10
124.7688260760793
 20
-149.5276164601352
 30
0.0
 10
125.7468671622385
 20
-149.9916603489079
 30
0.0
 10
125.7468671622385
 20
-149.9916603489079
 30
0.0
 10
131.4175228509014
 20
-152.638552014913
 30
0.0
 10
131.4175228509014
 20
-152.638552014913
 30
0.0
 10
131.4175228509014
 20
-152.638552014913
 30
0.0
 10
131.316910631246
 20
-155.1227778476254
 30
0.0
 10
131.316910631246
 20
-155.1227778476254
 30
0.0
 10
131.316910631246
 20
-155.1227778476254
 30
0.0
 10
133.3116219692455
 20
-156.1261836807081
 30
0.0
 10
133.3116219692455
 20
-156.1261836807081
 30
0.0
 10
133.3116219692455
 20
-156.1261836807081
 30
0.0
 10
136.1217791197747
 20
-154.8966120143483
 30
0.0
 10
136.1217791197747
 20
-154.8966120143483
 30
0.0
  0
SPLINE
  5
AE
330
79
100
AcDbEntity
  8
レイヤー 1
 62
   250
420
  2299925
370
     9
100
AcDbSpline
210
0.0
220
0.0
230
1.0
 70
     8
 71
     3
 72
    26
 73
    22
 74
     0
 42
0.0000000001
 43
0.0000000001
 40
0.0
 40
0.0
 40
0.0
 40
0.0
 40
1.0
 40
1.0
 40
1.0
 40
2.0
 40
2.0
 40
2.0
 40
3.0
 40
3.0
 40
3.0
 40
4.0
 40
4.0
 40
4.0
 40
5.0
 40
5.0
 40
5.0
 40
6.0
 40
6.0
 40
6.0
 40
7.0
 40
7.0
 40
7.0
 40
7.0
 10
134.2903727234182
 20
-146.1653620165311
 30
0.0
 10
134.2903727234182
 20
-146.1653620165311
 30
0.0
 10
125.9477388237805
 20
-149.4397747934905
 30
0.0
 10
125.9477388237805
 20
-149.4397747934905
 30
0.0
 10
125.9477388237805
 20
-149.4397747934905
 30
0.0
 10
125.5587699478232
 20
-149.5276164601352
 30
0.0
 10
125.6593782755816
 20
-149.6657642378781
 30
0.0
 10
125.6593782755816
 20
-149.6657642378781
 30
0.0
 10
131.7813072860649
 20
-152.4631861816233
 30
0.0
 10
131.7813072860649
 20
-152.4631861816233
 30
0.0
 10
131.7813072860649
 20
-152.4631861816233
 30
0.0
 10
131.6555772892725
 20
-154.9219414587863
 30
0.0
 10
131.6555772892725
 20
-154.9219414587863
 30
0.0
 10
131.6555772892725
 20
-154.9219414587863
 30
0.0
 10
132.9726378112271
 20
-155.5992395141728
 30
0.0
 10
132.9726378112271
 20
-155.5992395141728
 30
0.0
 10
132.9726378112271
 20
-155.5992395141728
 30
0.0
 10
132.7848542049067
 20
-152.9522067370569
 30
0.0
 10
132.7848542049067
 20
-152.9522067370569
 30
0.0
 10
132.7848542049067
 20
-152.9522067370569
 30
0.0
 10
141.4658331501032
 20
-148.9756956269397
 30
0.0
 10
141.4658331501032
 20
-148.9756956269397
 30
0.0
  0
LINE
  5
AF
330
79
100
AcDbEntity
  8
レイヤー 1
 62
   250
420
  2299925
370
     9
100
AcDbLine
 10
131.8064643907055
 20
-152.5007217371697
 30
0.0
 11
140.4374506763394
 21
-148.624293682583
 31
0.0
  0
LINE
  5
B0
330
79
100
AcDbEntity
  8
レイヤー 1
 62
   250
420
  2299925
370
     9
100
AcDbLine
 10
131.6555772892725
 20
-154.9219414587863
 30
0.0
 11
132.8344900369737
 21
-154.4325681255756
 31
0.0
  0
SPLINE
  5
B1
330
79
100
AcDbEntity
  8
レイヤー 1
 62
   250
420
  2299925
370
     9
100
AcDbSpline
210
0.0
220
0.0
230
1.0
 70
     8
 71
     3
 72
    20
 73
    16
 74
     0
 42
0.0000000001
 43
0.0000000001
 40
0.0
 40
0.0
 40
0.0
 40
0.0
 40
1.0
 40
1.0
 40
1.0
 40
2.0
 40
2.0
 40
2.0
 40
3.0
 40
3.0
 40
3.0
 40
4.0
 40
4.0
 40
4.0
 40
5.0
 40
5.0
 40
5.0
 40
5.0
 10
132.7848542049067
 20
-153.0026892370441
 30
0.0
 10
132.7848542049067
 20
-153.0026892370441
 30
0.0
 10
132.8727311471093
 20
-152.7515467371068
 30
0.0
 10
133.3619280790732
 20
-153.0652014592507
 30
0.0
 10
133.3619280790732
 20
-153.0652014592507
 30
0.0
 10
136.8366479904258
 20
-154.972071180997
 30
0.0
 10
136.8366479904258
 20
-154.972071180997
 30
0.0
 10
136.8366479904258
 20
-154.972071180997
 30
0.0
 10
138.693211554172
 20
-156.0884717362722
 30
0.0
 10
138.693211554172
 20
-156.0884717362722
 30
0.0
 10
138.693211554172
 20
-156.0884717362722
 30
0.0
 10
139.3580918149872
 20
-156.640533680579
 30
0.0
 10
140.1112060552963
 20
-156.1137659029327
 30
0.0
 10
140.1112060552963
 20
-156.1137659029327
 30
0.0
 10
148.854869350482
 20
-152.3124442372168
 30
0.0
 10
148.854869350482
 20
-152.3124442372168
 30
0.0
  0
SPLINE
  5
B2
330
79
100
AcDbEntity
  8
レイヤー 1
 62
   250
420
  2299925
370
     9
100
AcDbSpline
210
0.0
220
0.0
230
1.0
 70
     8
 71
     3
 72
    23
 73
    19
 74
     0
 42
0.0000000001
 43
0.0000000001
 40
0.0
 40
0.0
 40
0.0
 40
0.0
 40
1.0
 40
1.0
 40
1.0
 40
2.0
 40
2.0
 40
2.0
 40
3.0
 40
3.0
 40
3.0
 40
4.0
 40
4.0
 40
4.0
 40
5.0
 40
5.0
 40
5.0
 40
6.0
 40
6.0
 40
6.0
 40
6.0
 10
133.3116219692455
 20
-156.1261836807081
 30
0.0
 10
133.3116219692455
 20
-156.1261836807081
 30
0.0
 10
132.8603133696482
 20
-153.3036086814136
 30
0.0
 10
133.1231680851645
 20
-153.3413206258483
 30
0.0
 10
133.1231680851645
 20
-153.3413206258483
 30
0.0
 10
133.1738310570304
 20
-153.3036086814136
 30
0.0
 10
133.4373560569642
 20
-153.5043039591407
 30
0.0
 10
133.4373560569642
 20
-153.5043039591407
 30
0.0
 10
136.4728282774853
 20
-155.0597364587521
 30
0.0
 10
136.4728282774853
 20
-155.0597364587521
 30
0.0
 10
136.4728282774853
 20
-155.0597364587521
 30
0.0
 10
138.7186821090777
 20
-156.4021264584161
 30
0.0
 10
138.7186821090777
 20
-156.4021264584161
 30
0.0
 10
138.7186821090777
 20
-156.4021264584161
 30
0.0
 10
139.5713459762133
 20
-156.828811180532
 30
0.0
 10
140.2114612376604
 20
-156.3644145139815
 30
0.0
 10
140.2114612376604
 20
-156.3644145139815
 30
0.0
 10
148.9550935145918
 20
-152.52569840383
 30
0.0
 10
148.9550935145918
 20
-152.52569840383
 30
0.0
  0
ENDBLK
  5
7C
330
79
100
AcDbEntity
  8
0
100
AcDbBlockEnd
  0
BLOCK
  5
B5
330
B3
100
AcDbEntity
  8
0
100
AcDbBlockBegin
  2
Block_1
 70
     0
 10
0.0
 20
0.0
 30
0.0
  3
Block_1
  1

  0
LINE
  5
B7
330
B3
100
AcDbEntity
  8
レイヤー 1
  6
AI-Linetype-0
 62
   154
420
    23468
370
    25
100
AcDbLine
 10
68.40206718433425
 20
-148.1371781271496
 30
0.0
 11
78.40197392566327
 21
-148.1371781271496
 31
0.0
  0
LINE
  5
B9
330
B3
100
AcDbEntity
  8
レイヤー 1
  6
AI-Linetype-1
 62
   154
420
    23468
370
    25
100
AcDbLine
 10
102.9014021895193
 20
-148.1371781271496
 30
0.0
 11
113.4013738660872
 21
-148.1371781271496
 31
0.0
  0
LINE
  5
BB
330
B3
100
AcDbEntity
  8
レイヤー 1
 62
   250
420
  2299925
370
    25
100
AcDbLine
 10
94.1519138016266
 20
-152.7015934037863
 30
0.0
 11
87.65240674522061
 21
-152.7015934037863
 31
0.0
  0
LINE
  5
BC
330
B3
100
AcDbEntity
  8
レイヤー 1
 62
   250
420
  2299925
370
    25
100
AcDbLine
 10
68.40206718433425
 20
-147.1921922940523
 30
0.0
 11
68.40206718433425
 21
-147.6923959050385
 31
0.0
  0
LINE
  5
BD
330
B3
100
AcDbEntity
  8
レイヤー 1
 62
   250
420
  2299925
370
    25
100
AcDbLine
 10
88.49300561266405
 20
-147.6923959050385
 30
0.0
 11
68.40206718433425
 21
-147.6923959050385
 31
0.0
  0
LINE
  5
BE
330
B3
100
AcDbEntity
  8
レイヤー 1
 62
   250
420
  2299925
370
    25
100
AcDbLine
 10
93.26926382414489
 20
-151.7507514595791
 30
0.0
 11
88.53502144492546
 21
-151.7507514595791
 31
0.0
  0
LINE
  5
BF
330
B3
100
AcDbEntity
  8
レイヤー 1
 62
   250
420
  2299925
370
    25
100
AcDbLine
 10
87.65240674522061
 20
-152.692280070455
 30
0.0
 11
88.49300561266405
 21
-147.6923959050385
 31
0.0
  0
LINE
  5
C0
330
B3
100
AcDbEntity
  8
レイヤー 1
 62
   250
420
  2299925
370
    25
100
AcDbLine
 10
88.53502144492546
 20
-151.6921550707048
 30
0.0
 11
89.4032075338873
 21
-146.4301217386872
 31
0.0
  0
LINE
  5
C1
330
B3
100
AcDbEntity
  8
レイヤー 1
 62
   250
420
  2299925
370
    25
100
AcDbLine
 10
68.40206718433425
 20
-147.1921922940523
 30
0.0
 11
68.91606440642842
 21
-147.5746034050674
 31
0.0
  0
LINE
  5
C2
330
B3
100
AcDbEntity
  8
レイヤー 1
 62
   250
420
  2299925
370
    25
100
AcDbLine
 10
68.91606440642842
 20
-147.5746034050674
 30
0.0
 11
69.40148662852871
 21
-147.157055627394
 31
0.0
  0
LINE
  5
C3
330
B3
100
AcDbEntity
  8
レイヤー 1
 62
   250
420
  2299925
370
    25
100
AcDbLine
 10
69.91548385062255
 20
-147.5387611828548
 30
0.0
 11
70.40090607272349
 21
-147.1212134051814
 31
0.0
  0
LINE
  5
C4
330
B3
100
AcDbEntity
  8
レイヤー 1
 62
   250
420
  2299925
370
    25
100
AcDbLine
 10
69.40148662852871
 20
-147.157055627394
 30
0.0
 11
69.91548385062255
 21
-147.5387611828548
 31
0.0
  0
LINE
  5
C5
330
B3
100
AcDbEntity
  8
レイヤー 1
 62
   250
420
  2299925
370
    25
100
AcDbLine
 10
70.40090607272349
 20
-147.1212134051814
 30
0.0
 11
70.914903294817
 21
-147.502918960641
 31
0.0
  0
LINE
  5
C6
330
B3
100
AcDbEntity
  8
レイヤー 1
 62
   250
420
  2299925
370
    25
100
AcDbLine
 10
70.914903294817
 20
-147.502918960641
 30
0.0
 11
71.40032551691795
 21
-147.0853711829675
 31
0.0
  0
LINE
  5
C7
330
B3
100
AcDbEntity
  8
レイヤー 1
 62
   250
420
  2299925
370
    25
100
AcDbLine
 10
71.40032551691795
 20
-147.0853711829675
 30
0.0
 11
71.91400270229664
 21
-147.4671120162059
 31
0.0
  0
LINE
  5
C8
330
B3
100
AcDbEntity
  8
レイヤー 1
 62
   250
420
  2299925
370
    25
100
AcDbLine
 10
71.91400270229664
 20
-147.4671120162059
 30
0.0
 11
72.39974496111305
 21
-147.0495642385324
 31
0.0
  0
LINE
  5
C9
330
B3
100
AcDbEntity
  8
レイヤー 1
 62
   250
420
  2299925
370
    25
100
AcDbLine
 10
72.39974496111305
 20
-147.0495642385324
 30
0.0
 11
72.91377489901222
 21
-147.4312697939926
 31
0.0
  0
LINE
  5
CA
330
B3
100
AcDbEntity
  8
レイヤー 1
 62
   250
420
  2299925
370
    25
100
AcDbLine
 10
72.91377489901222
 20
-147.4312697939926
 30
0.0
 11
73.39884433108152
 21
-147.0137220163191
 31
0.0
  0
LINE
  5
CB
330
B3
100
AcDbEntity
  8
レイヤー 1
 62
   250
420
  2299925
370
    25
100
AcDbLine
 10
73.39884433108152
 20
-147.0137220163191
 30
0.0
 11
73.91284154019058
 21
-147.3961331273343
 31
0.0
  0
LINE
  5
CC
330
B3
100
AcDbEntity
  8
レイヤー 1
 62
   250
420
  2299925
370
    25
100
AcDbLine
 10
73.91284154019058
 20
-147.3961331273343
 30
0.0
 11
74.39858384950165
 21
-146.9785853496608
 31
0.0
  0
LINE
  5
CD
330
B3
100
AcDbEntity
  8
レイヤー 1
 62
   250
420
  2299925
370
    25
100
AcDbLine
 10
74.39858384950165
 20
-146.9785853496608
 30
0.0
 11
74.91226095913771
 21
-147.360290905122
 31
0.0
  0
LINE
  5
CE
330
B3
100
AcDbEntity
  8
レイヤー 1
 62
   250
420
  2299925
370
    25
100
AcDbLine
 10
74.91226095913771
 20
-147.360290905122
 30
0.0
 11
75.39768316897577
 21
-146.9427431274482
 31
0.0
  0
LINE
  5
CF
330
B3
100
AcDbEntity
  8
レイヤー 1
 62
   250
420
  2299925
370
    25
100
AcDbLine
 10
75.91168037808484
 20
-147.3244839606859
 30
0.0
 11
76.39710258792259
 21
-146.9069361830124
 31
0.0
  0
LINE
  5
D0
330
B3
100
AcDbEntity
  8
レイヤー 1
 62
   250
420
  2299925
370
    25
100
AcDbLine
 10
75.39768316897577
 20
-146.9427431274482
 30
0.0
 11
75.91168037808484
 21
-147.3244839606859
 31
0.0
  0
LINE
  5
D1
330
B3
100
AcDbEntity
  8
レイヤー 1
 62
   250
420
  2299925
370
    25
100
AcDbLine
 10
76.39710258792259
 20
-146.9069361830124
 30
0.0
 11
76.91109979703229
 21
-147.2886417384726
 31
0.0
  0
LINE
  5
D2
330
B3
100
AcDbEntity
  8
レイヤー 1
 62
   250
420
  2299925
370
    25
100
AcDbLine
 10
76.91109979703229
 20
-147.2886417384726
 30
0.0
 11
77.39669839575443
 21
-146.8710939607992
 31
0.0
  0
LINE
  5
D3
330
B3
100
AcDbEntity
  8
レイヤー 1
 62
   250
420
  2299925
370
    25
100
AcDbLine
 10
77.91069560486349
 20
-147.2528347940369
 30
0.0
 11
78.39576503693279
 21
-146.8352870163641
 31
0.0
  0
LINE
  5
D4
330
B3
100
AcDbEntity
  8
レイヤー 1
 62
   250
420
  2299925
370
    25
100
AcDbLine
 10
77.39669839575443
 20
-146.8710939607992
 30
0.0
 11
77.91069560486349
 21
-147.2528347940369
 31
0.0
  0
LINE
  5
D5
330
B3
100
AcDbEntity
  8
レイヤー 1
 62
   250
420
  2299925
370
    25
100
AcDbLine
 10
78.90976224604185
 20
-147.2176628496011
 30
0.0
 11
79.3955372336487
 21
-146.8001150719282
 31
0.0
  0
LINE
  5
D6
330
B3
100
AcDbEntity
  8
レイヤー 1
 62
   250
420
  2299925
370
    25
100
AcDbLine
 10
78.39576503693279
 20
-146.8352870163641
 30
0.0
 11
78.90976224604185
 21
-147.2176628496011
 31
0.0
  0
LINE
  5
D7
330
B3
100
AcDbEntity
  8
レイヤー 1
 62
   250
420
  2299925
370
    25
100
AcDbLine
 10
79.3955372336487
 20
-146.8001150719282
 30
0.0
 11
79.90953444275774
 21
-147.1818559051659
 31
0.0
  0
LINE
  5
D8
330
B3
100
AcDbEntity
  8
レイヤー 1
 62
   250
420
  2299925
370
    25
100
AcDbLine
 10
79.90953444275774
 20
-147.1818559051659
 30
0.0
 11
80.39495665259583
 21
-146.7643081274925
 31
0.0
  0
LINE
  5
D9
330
B3
100
AcDbEntity
  8
レイヤー 1
 62
   250
420
  2299925
370
    25
100
AcDbLine
 10
80.39495665259583
 20
-146.7643081274925
 30
0.0
 11
80.90828358394452
 21
-147.1460136829527
 31
0.0
  0
LINE
  5
DA
330
B3
100
AcDbEntity
  8
レイヤー 1
 62
   250
420
  2299925
370
    25
100
AcDbLine
 10
80.90828358394452
 20
-147.1460136829527
 30
0.0
 11
81.3936705160054
 21
-146.7284659052792
 31
0.0
  0
LINE
  5
DB
330
B3
100
AcDbEntity
  8
レイヤー 1
 62
   250
420
  2299925
370
    25
100
AcDbLine
 10
81.3936705160054
 20
-146.7284659052792
 30
0.0
 11
81.90805578066012
 21
-147.110206738517
 31
0.0
  0
LINE
  5
DC
330
B3
100
AcDbEntity
  8
レイヤー 1
 62
   250
420
  2299925
370
    25
100
AcDbLine
 10
81.90805578066012
 20
-147.110206738517
 30
0.0
 11
82.39312521272941
 21
-146.6926589608435
 31
0.0
  0
LINE
  5
DD
330
B3
100
AcDbEntity
  8
レイヤー 1
 62
   250
420
  2299925
370
    25
100
AcDbLine
 10
82.39312521272941
 20
-146.6926589608435
 30
0.0
 11
82.90712242183847
 21
-147.0743645163044
 31
0.0
  0
LINE
  5
DE
330
B3
100
AcDbEntity
  8
レイヤー 1
 62
   250
420
  2299925
370
    25
100
AcDbLine
 10
82.90712242183847
 20
-147.0743645163044
 30
0.0
 11
83.39286213166843
 21
-146.6568167386309
 31
0.0
  0
LINE
  5
DF
330
B3
100
AcDbEntity
  8
レイヤー 1
 62
   250
420
  2299925
370
    25
100
AcDbLine
 10
83.39286213166843
 20
-146.6568167386309
 30
0.0
 11
83.90618906301682
 21
-147.039227849646
 31
0.0
  0
LINE
  5
E0
330
B3
100
AcDbEntity
  8
レイヤー 1
 62
   250
420
  2299925
370
    25
100
AcDbLine
 10
83.90618906301682
 20
-147.039227849646
 30
0.0
 11
84.39196405062366
 21
-146.6216800719725
 31
0.0
  0
LINE
  5
E1
330
B3
100
AcDbEntity
  8
レイヤー 1
 62
   250
420
  2299925
370
    25
100
AcDbLine
 10
84.39196405062366
 20
-146.6216800719725
 30
0.0
 11
84.90596125973274
 21
-147.0033856274327
 31
0.0
  0
LINE
  5
E2
330
B3
100
AcDbEntity
  8
レイヤー 1
 62
   250
420
  2299925
370
    25
100
AcDbLine
 10
84.90596125973274
 20
-147.0033856274327
 30
0.0
 11
85.39103069180201
 21
-146.5858378497593
 31
0.0
  0
LINE
  5
E3
330
B3
100
AcDbEntity
  8
レイヤー 1
 62
   250
420
  2299925
370
    25
100
AcDbLine
 10
85.39103069180201
 20
-146.5858378497593
 30
0.0
 11
85.90502790091107
 21
-146.9675786829977
 31
0.0
  0
LINE
  5
E4
330
B3
100
AcDbEntity
  8
レイヤー 1
 62
   250
420
  2299925
370
    25
100
AcDbLine
 10
85.90502790091107
 20
-146.9675786829977
 30
0.0
 11
86.39080288851792
 21
-146.5500309053242
 31
0.0
  0
LINE
  5
E5
330
B3
100
AcDbEntity
  8
レイヤー 1
 62
   250
420
  2299925
370
    25
100
AcDbLine
 10
86.39080288851792
 20
-146.5500309053242
 30
0.0
 11
86.90480009762699
 21
-146.9317364607838
 31
0.0
  0
LINE
  5
E6
330
B3
100
AcDbEntity
  8
レイヤー 1
 62
   250
420
  2299925
370
    25
100
AcDbLine
 10
86.90480009762699
 20
-146.9317364607838
 30
0.0
 11
87.38986952969661
 21
-146.5141886831103
 31
0.0
  0
LINE
  5
E7
330
B3
100
AcDbEntity
  8
レイヤー 1
 62
   250
420
  2299925
370
    25
100
AcDbLine
 10
87.38986952969661
 20
-146.5141886831103
 30
0.0
 11
87.90390201658222
 21
-146.8958942385712
 31
0.0
  0
LINE
  5
E8
330
B3
100
AcDbEntity
  8
レイヤー 1
 62
   250
420
  2299925
370
    25
100
AcDbLine
 10
87.90390201658222
 20
-146.8958942385712
 30
0.0
 11
88.38964172641219
 21
-146.478346460898
 31
0.0
  0
LINE
  5
E9
330
B3
100
AcDbEntity
  8
レイヤー 1
 62
   250
420
  2299925
370
    25
100
AcDbLine
 10
88.38964172641219
 20
-146.478346460898
 30
0.0
 11
89.4032075338873
 21
-146.4301217386872
 31
0.0
  0
LINE
  5
EA
330
B3
100
AcDbEntity
  8
レイヤー 1
 62
   250
420
  2299925
370
    25
100
AcDbLine
 10
103.4082060644714
 20
-146.8352870163641
 30
0.0
 11
102.8941702452597
 21
-147.2176628496011
 31
0.0
  0
LINE
  5
EB
330
B3
100
AcDbEntity
  8
レイヤー 1
 62
   250
420
  2299925
370
    25
100
AcDbLine
 10
108.4049505076672
 20
-147.0137220163191
 30
0.0
 11
107.8909532855728
 21
-147.3961331273343
 31
0.0
  0
LINE
  5
EC
330
B3
100
AcDbEntity
  8
レイヤー 1
 62
   250
420
  2299925
370
    25
100
AcDbLine
 10
103.8939424419753
 20
-147.2528347940369
 30
0.0
 11
103.4082060644714
 21
-146.8352870163641
 31
0.0
  0
LINE
  5
ED
330
B3
100
AcDbEntity
  8
レイヤー 1
 62
   250
420
  2299925
370
    25
100
AcDbLine
 10
104.8930477307675
 20
-147.2886417384726
 30
0.0
 11
104.4079782864443
 21
-146.8710939607992
 31
0.0
  0
LINE
  5
EE
330
B3
100
AcDbEntity
  8
レイヤー 1
 62
   250
420
  2299925
370
    25
100
AcDbLine
 10
102.8941702452597
 20
-147.2176628496011
 30
0.0
 11
102.4091008131904
 21
-146.8001150719282
 31
0.0
  0
LINE
  5
EF
330
B3
100
AcDbEntity
  8
レイヤー 1
 62
   250
420
  2299925
370
    25
100
AcDbLine
 10
104.4079782864443
 20
-146.8710939607992
 30
0.0
 11
103.8939424419753
 21
-147.2528347940369
 31
0.0
  0
LINE
  5
F0
330
B3
100
AcDbEntity
  8
レイヤー 1
 62
   250
420
  2299925
370
    25
100
AcDbLine
 10
112.4026600026776
 20
-147.157055627394
 30
0.0
 11
111.8886310623519
 21
-147.5387611828548
 31
0.0
  0
LINE
  5
F1
330
B3
100
AcDbEntity
  8
レイヤー 1
 62
   250
420
  2299925
370
    25
100
AcDbLine
 10
105.407044952861
 20
-146.9069361830124
 30
0.0
 11
104.8930477307675
 21
-147.2886417384726
 31
0.0
  0
LINE
  5
F2
330
B3
100
AcDbEntity
  8
レイヤー 1
 62
   250
420
  2299925
370
    25
100
AcDbLine
 10
106.4068171748332
 20
-146.9427431274482
 30
0.0
 11
105.8927812798696
 21
-147.3244839606859
 31
0.0
  0
LINE
  5
F3
330
B3
100
AcDbEntity
  8
レイヤー 1
 62
   250
420
  2299925
370
    25
100
AcDbLine
 10
105.8927812798696
 20
-147.3244839606859
 30
0.0
 11
105.407044952861
 21
-146.9069361830124
 31
0.0
  0
LINE
  5
F4
330
B3
100
AcDbEntity
  8
レイヤー 1
 62
   250
420
  2299925
370
    25
100
AcDbLine
 10
106.8918866191564
 20
-147.360290905122
 30
0.0
 11
106.4068171748332
 21
-146.9427431274482
 31
0.0
  0
LINE
  5
F5
330
B3
100
AcDbEntity
  8
レイヤー 1
 62
   250
420
  2299925
370
    25
100
AcDbLine
 10
111.8886310623519
 20
-147.5387611828548
 30
0.0
 11
111.4035616180287
 21
-147.1212134051814
 31
0.0
  0
LINE
  5
F6
330
B3
100
AcDbEntity
  8
レイヤー 1
 62
   250
420
  2299925
370
    25
100
AcDbLine
 10
107.4058838412496
 20
-146.9785853496608
 30
0.0
 11
106.8918866191564
 21
-147.360290905122
 31
0.0
  0
LINE
  5
F7
330
B3
100
AcDbEntity
  8
レイヤー 1
 62
   250
420
  2299925
370
    25
100
AcDbLine
 10
107.8909532855728
 20
-147.3961331273343
 30
0.0
 11
107.4058838412496
 21
-146.9785853496608
 31
0.0
  0
LINE
  5
F8
330
B3
100
AcDbEntity
  8
レイヤー 1
 62
   250
420
  2299925
370
    25
100
AcDbLine
 10
112.8877294347469
 20
-147.5746034050674
 30
0.0
 11
112.4026600026776
 21
-147.157055627394
 31
0.0
  0
LINE
  5
F9
330
B3
100
AcDbEntity
  8
レイヤー 1
 62
   250
420
  2299925
370
    25
100
AcDbLine
 10
109.4047227296391
 20
-147.0495642385324
 30
0.0
 11
108.8907255075459
 21
-147.4312697939926
 31
0.0
  0
LINE
  5
FA
330
B3
100
AcDbEntity
  8
レイヤー 1
 62
   250
420
  2299925
370
    25
100
AcDbLine
 10
110.4037893960555
 20
-147.0853711829675
 30
0.0
 11
109.8897921739623
 21
-147.4671120162059
 31
0.0
  0
LINE
  5
FB
330
B3
100
AcDbEntity
  8
レイヤー 1
 62
   250
420
  2299925
370
    25
100
AcDbLine
 10
109.8897921739623
 20
-147.4671120162059
 30
0.0
 11
109.4047227296391
 21
-147.0495642385324
 31
0.0
  0
LINE
  5
FC
330
B3
100
AcDbEntity
  8
レイヤー 1
 62
   250
420
  2299925
370
    25
100
AcDbLine
 10
113.401726643856
 20
-147.1921922940523
 30
0.0
 11
112.8877294347469
 21
-147.5746034050674
 31
0.0
  0
LINE
  5
FD
330
B3
100
AcDbEntity
  8
レイヤー 1
 62
   250
420
  2299925
370
    25
100
AcDbLine
 10
108.8907255075459
 20
-147.4312697939926
 30
0.0
 11
108.4049505076672
 21
-147.0137220163191
 31
0.0
  0
LINE
  5
FE
330
B3
100
AcDbEntity
  8
レイヤー 1
 62
   250
420
  2299925
370
    25
100
AcDbLine
 10
93.26926382414489
 20
-151.6921550707048
 30
0.0
 11
92.40040745742236
 21
-146.4301217386872
 31
0.0
  0
LINE
  5
FF
330
B3
100
AcDbEntity
  8
レイヤー 1
 62
   250
420
  2299925
370
    25
100
AcDbLine
 10
111.4035616180287
 20
-147.1212134051814
 30
0.0
 11
110.8895643959342
 21
-147.502918960641
 31
0.0
  0
LINE
  5
100
330
B3
100
AcDbEntity
  8
レイヤー 1
 62
   250
420
  2299925
370
    25
100
AcDbLine
 10
110.8895643959342
 20
-147.502918960641
 30
0.0
 11
110.4037893960555
 21
-147.0853711829675
 31
0.0
  0
LINE
  5
101
330
B3
100
AcDbEntity
  8
レイヤー 1
 62
   250
420
  2299925
370
    25
100
AcDbLine
 10
94.1519138016266
 20
-152.692280070455
 30
0.0
 11
93.31131493418318
 21
-147.6923959050385
 31
0.0
  0
LINE
  5
102
330
B3
100
AcDbEntity
  8
レイヤー 1
 62
   250
420
  2299925
370
    25
100
AcDbLine
 10
113.401726643856
 20
-147.1921922940523
 30
0.0
 11
113.401726643856
 21
-147.6923959050385
 31
0.0
  0
LINE
  5
103
330
B3
100
AcDbEntity
  8
レイヤー 1
 62
   250
420
  2299925
370
    25
100
AcDbLine
 10
93.31131493418318
 20
-147.6923959050385
 30
0.0
 11
113.401726643856
 21
-147.6923959050385
 31
0.0
  0
LINE
  5
104
330
B3
100
AcDbEntity
  8
レイヤー 1
 62
   250
420
  2299925
370
    25
100
AcDbLine
 10
102.4091008131904
 20
-146.8001150719282
 30
0.0
 11
101.8951036040814
 21
-147.1818559051659
 31
0.0
  0
LINE
  5
105
330
B3
100
AcDbEntity
  8
レイヤー 1
 62
   250
420
  2299925
370
    25
100
AcDbLine
 10
101.8951036040814
 20
-147.1818559051659
 30
0.0
 11
101.4093671760828
 21
-146.7643081274925
 31
0.0
  0
LINE
  5
106
330
B3
100
AcDbEntity
  8
レイヤー 1
 62
   250
420
  2299925
370
    25
100
AcDbLine
 10
101.4093671760828
 20
-146.7643081274925
 30
0.0
 11
100.896036962903
 21
-147.1460136829527
 31
0.0
  0
LINE
  5
107
330
B3
100
AcDbEntity
  8
レイヤー 1
 62
   250
420
  2299925
370
    25
100
AcDbLine
 10
100.896036962903
 20
-147.1460136829527
 30
0.0
 11
100.4102619752962
 21
-146.7284659052792
 31
0.0
  0
LINE
  5
108
330
B3
100
AcDbEntity
  8
レイヤー 1
 62
   250
420
  2299925
370
    25
100
AcDbLine
 10
100.4102619752962
 20
-146.7284659052792
 30
0.0
 11
99.89626476618711
 21
-147.110206738517
 31
0.0
  0
LINE
  5
109
330
B3
100
AcDbEntity
  8
レイヤー 1
 62
   250
420
  2299925
370
    25
100
AcDbLine
 10
99.89626476618711
 20
-147.110206738517
 30
0.0
 11
99.41119533411782
 21
-146.6926589608435
 31
0.0
  0
LINE
  5
10A
330
B3
100
AcDbEntity
  8
レイヤー 1
 62
   250
420
  2299925
370
    25
100
AcDbLine
 10
99.41119533411782
 20
-146.6926589608435
 30
0.0
 11
98.89719812500876
 21
-147.0743645163044
 31
0.0
  0
LINE
  5
10B
330
B3
100
AcDbEntity
  8
レイヤー 1
 62
   250
420
  2299925
370
    25
100
AcDbLine
 10
98.89719812500876
 20
-147.0743645163044
 30
0.0
 11
98.41142313740192
 21
-146.6568167386309
 31
0.0
  0
LINE
  5
10C
330
B3
100
AcDbEntity
  8
レイヤー 1
 62
   250
420
  2299925
370
    25
100
AcDbLine
 10
98.41142313740192
 20
-146.6568167386309
 30
0.0
 11
97.89742592829284
 21
-147.039227849646
 31
0.0
  0
LINE
  5
10D
330
B3
100
AcDbEntity
  8
レイヤー 1
 62
   250
420
  2299925
370
    25
100
AcDbLine
 10
97.89742592829284
 20
-147.039227849646
 30
0.0
 11
97.41235649622325
 21
-146.6216800719725
 31
0.0
  0
LINE
  5
10E
330
B3
100
AcDbEntity
  8
レイヤー 1
 62
   250
420
  2299925
370
    25
100
AcDbLine
 10
97.41235649622325
 20
-146.6216800719725
 30
0.0
 11
96.89832400933763
 21
-147.0033856274327
 31
0.0
  0
LINE
  5
10F
330
B3
100
AcDbEntity
  8
レイヤー 1
 62
   250
420
  2299925
370
    25
100
AcDbLine
 10
96.89832400933763
 20
-147.0033856274327
 30
0.0
 11
96.41258429950767
 21
-146.5858378497593
 31
0.0
  0
LINE
  5
110
330
B3
100
AcDbEntity
  8
レイヤー 1
 62
   250
420
  2299925
370
    25
100
AcDbLine
 10
96.41258429950767
 20
-146.5858378497593
 30
0.0
 11
95.89858709039859
 21
-146.9675786829977
 31
0.0
  0
LINE
  5
111
330
B3
100
AcDbEntity
  8
レイヤー 1
 62
   250
420
  2299925
370
    25
100
AcDbLine
 10
95.89858709039859
 20
-146.9675786829977
 30
0.0
 11
95.4135176583293
 21
-146.5500309053242
 31
0.0
  0
LINE
  5
112
330
B3
100
AcDbEntity
  8
レイヤー 1
 62
   250
420
  2299925
370
    25
100
AcDbLine
 10
95.4135176583293
 20
-146.5500309053242
 30
0.0
 11
94.89948517144336
 21
-146.9317364607838
 31
0.0
  0
LINE
  5
113
330
B3
100
AcDbEntity
  8
レイヤー 1
 62
   250
420
  2299925
370
    25
100
AcDbLine
 10
94.89948517144336
 20
-146.9317364607838
 30
0.0
 11
94.41441573937439
 21
-146.5141886831103
 31
0.0
  0
LINE
  5
114
330
B3
100
AcDbEntity
  8
レイヤー 1
 62
   250
420
  2299925
370
    25
100
AcDbLine
 10
94.41441573937439
 20
-146.5141886831103
 30
0.0
 11
93.90041853026469
 21
-146.8958942385712
 31
0.0
  0
LINE
  5
115
330
B3
100
AcDbEntity
  8
レイヤー 1
 62
   250
420
  2299925
370
    25
100
AcDbLine
 10
93.90041853026469
 20
-146.8958942385712
 30
0.0
 11
93.41464354265815
 21
-146.478346460898
 31
0.0
  0
LINE
  5
116
330
B3
100
AcDbEntity
  8
レイヤー 1
 62
   250
420
  2299925
370
    25
100
AcDbLine
 10
93.41464354265815
 20
-146.478346460898
 30
0.0
 11
92.40040745742236
 21
-146.4301217386872
 31
0.0
  0
SPLINE
  5
117
330
B3
100
AcDbEntity
  8
レイヤー 1
 62
   250
420
  2299925
370
     9
100
AcDbSpline
210
0.0
220
0.0
230
1.0
 70
     9
 71
     3
 72
    17
 73
    13
 74
     0
 42
0.0000000001
 43
0.0000000001
 40
0.0
 40
0.0
 40
0.0
 40
0.0
 40
1.0
 40
1.0
 40
1.0
 40
2.0
 40
2.0
 40
2.0
 40
3.0
 40
3.0
 40
3.0
 40
4.0
 40
4.0
 40
4.0
 40
4.0
 10
68.5019714004556
 20
-142.4303625730203
 30
0.0
 10
68.5019714004556
 20
-142.3752586841454
 30
0.0
 10
68.45716862382147
 20
-142.3304559063787
 30
0.0
 10
68.40206718433425
 20
-142.3304559063787
 30
0.0
 10
68.34692557107782
 20
-142.3304559063787
 30
0.0
 10
68.30215807221993
 20
-142.3752586841454
 30
0.0
 10
68.30215807221993
 20
-142.4303625730203
 30
0.0
 10
68.30215807221993
 20
-142.4855017396734
 30
0.0
 10
68.34692557107782
 20
-142.5302692396626
 30
0.0
 10
68.40206718433425
 20
-142.5302692396626
 30
0.0
 10
68.45716862382147
 20
-142.5302692396626
 30
0.0
 10
68.5019714004556
 20
-142.4855017396734
 30
0.0
 10
68.5019714004556
 20
-142.4303625730203
 30
0.0
  0
CIRCLE
  5
118
330
B3
100
AcDbEntity
  8
レイヤー 1
 62
   250
420
  2299925
370
     9
100
AcDbCircle
 10
64.40230567171345
 20
-147.1921922940523
 30
0.0
 40
0.0999066653797365
  0
CIRCLE
  5
119
330
B3
100
AcDbEntity
  8
レイヤー 1
 62
   250
420
  2299925
370
     9
100
AcDbCircle
 10
64.40230567171345
 20
-147.6923959050384
 30
0.0
 40
0.0999066653799771
  0
CIRCLE
  5
11A
330
B3
100
AcDbEntity
  8
レイヤー 1
 62
   250
420
  2299925
370
     9
100
AcDbCircle
 10
64.40230567171345
 20
-152.7642820148815
 30
0.0
 40
0.0999066653798969
  0
SPLINE
  5
11B
330
B3
100
AcDbEntity
  8
レイヤー 1
 62
   250
420
  2299925
370
     9
100
AcDbSpline
210
0.0
220
0.0
230
1.0
 70
     9
 71
     3
 72
    17
 73
    13
 74
     0
 42
0.0000000001
 43
0.0000000001
 40
0.0
 40
0.0
 40
0.0
 40
0.0
 40
1.0
 40
1.0
 40
1.0
 40
2.0
 40
2.0
 40
2.0
 40
3.0
 40
3.0
 40
3.0
 40
4.0
 40
4.0
 40
4.0
 40
4.0
 10
87.75231340933846
 20
-156.7371595138883
 30
0.0
 10
87.75231340933846
 20
-156.6820556250127
 30
0.0
 10
87.70751063270337
 20
-156.6372528472466
 30
0.0
 10
87.65240674522061
 20
-156.6372528472466
 30
0.0
 10
87.59659730219999
 20
-156.6372528472466
 30
0.0
 10
87.55179452556523
 20
-156.6820556250127
 30
0.0
 10
87.55179452556523
 20
-156.7371595138883
 30
0.0
 10
87.55179452556523
 20
-156.7922986805407
 30
0.0
 10
87.59659730219999
 20
-156.8370661805299
 30
0.0
 10
87.65240674522061
 20
-156.8370661805299
 30
0.0
 10
87.70751063270337
 20
-156.8370661805299
 30
0.0
 10
87.75231340933846
 20
-156.7922986805407
 30
0.0
 10
87.75231340933846
 20
-156.7371595138883
 30
0.0
  0
CIRCLE
  5
11C
330
B3
100
AcDbEntity
  8
レイヤー 1
 62
   250
420
  2299925
370
     9
100
AcDbCircle
 10
94.1519138016266
 20
-156.7371595138883
 30
0.0
 40
0.0999066653797365
  0
SPLINE
  5
11D
330
B3
100
AcDbEntity
  8
レイヤー 1
 62
   250
420
  2299925
370
     9
100
AcDbSpline
210
0.0
220
0.0
230
1.0
 70
     9
 71
     3
 72
    17
 73
    13
 74
     0
 42
0.0000000001
 43
0.0000000001
 40
0.0
 40
0.0
 40
0.0
 40
0.0
 40
1.0
 40
1.0
 40
1.0
 40
2.0
 40
2.0
 40
2.0
 40
3.0
 40
3.0
 40
3.0
 40
4.0
 40
4.0
 40
4.0
 40
4.0
 10
113.5023388635113
 20
-142.4303625730203
 30
0.0
 10
113.5023388635113
 20
-142.3752586841454
 30
0.0
 10
113.4575360868766
 20
-142.3304559063787
 30
0.0
 10
113.401726643856
 20
-142.3304559063787
 30
0.0
 10
113.346587478596
 20
-142.3304559063787
 30
0.0
 10
113.3018199797381
 20
-142.3752586841454
 30
0.0
 10
113.3018199797381
 20
-142.4303625730203
 30
0.0
 10
113.3018199797381
 20
-142.4855017396734
 30
0.0
 10
113.346587478596
 20
-142.5302692396626
 30
0.0
 10
113.401726643856
 20
-142.5302692396626
 30
0.0
 10
113.4575360868766
 20
-142.5302692396626
 30
0.0
 10
113.5023388635113
 20
-142.4855017396734
 30
0.0
 10
113.5023388635113
 20
-142.4303625730203
 30
0.0
  0
SPLINE
  5
11E
330
B3
100
AcDbEntity
  8
レイヤー 1
 62
   250
420
  2299925
370
     9
100
AcDbSpline
210
0.0
220
0.0
230
1.0
 70
     9
 71
     3
 72
    17
 73
    13
 74
     0
 42
0.0000000001
 43
0.0000000001
 40
0.0
 40
0.0
 40
0.0
 40
0.0
 40
1.0
 40
1.0
 40
1.0
 40
2.0
 40
2.0
 40
2.0
 40
3.0
 40
3.0
 40
3.0
 40
4.0
 40
4.0
 40
4.0
 40
4.0
 10
92.50102273386502
 20
-142.4303625730203
 30
0.0
 10
92.50102273386502
 20
-142.3752586841454
 30
0.0
 10
92.4562199560983
 20
-142.3304559063787
 30
0.0
 10
92.40040745742236
 20
-142.3304559063787
 30
0.0
 10
92.34530356993928
 20
-142.3304559063787
 30
0.0
 10
92.30050079330453
 20
-142.3752586841454
 30
0.0
 10
92.30050079330453
 20
-142.4303625730203
 30
0.0
 10
92.30050079330453
 20
-142.4855017396734
 30
0.0
 10
92.34530356993928
 20
-142.5302692396626
 30
0.0
 10
92.40040745742236
 20
-142.5302692396626
 30
0.0
 10
92.4562199560983
 20
-142.5302692396626
 30
0.0
 10
92.50102273386502
 20
-142.4855017396734
 30
0.0
 10
92.50102273386502
 20
-142.4303625730203
 30
0.0
  0
SPLINE
  5
11F
330
B3
100
AcDbEntity
  8
レイヤー 1
 62
   250
420
  2299925
370
     9
100
AcDbSpline
210
0.0
220
0.0
230
1.0
 70
     9
 71
     3
 72
    17
 73
    13
 74
     0
 42
0.0000000001
 43
0.0000000001
 40
0.0
 40
0.0
 40
0.0
 40
0.0
 40
1.0
 40
1.0
 40
1.0
 40
2.0
 40
2.0
 40
2.0
 40
3.0
 40
3.0
 40
3.0
 40
4.0
 40
4.0
 40
4.0
 40
4.0
 10
89.50311717905877
 20
-142.4303625730203
 30
0.0
 10
89.50311717905877
 20
-142.3752586841454
 30
0.0
 10
89.45831440129238
 20
-142.3304559063787
 30
0.0
 10
89.4032075338873
 20
-142.3304559063787
 30
0.0
 10
89.34806836862767
 20
-142.3304559063787
 30
0.0
 10
89.3032655919926
 20
-142.3752586841454
 30
0.0
 10
89.3032655919926
 20
-142.4303625730203
 30
0.0
 10
89.3032655919926
 20
-142.4855017396734
 30
0.0
 10
89.34806836862767
 20
-142.5302692396626
 30
0.0
 10
89.4032075338873
 20
-142.5302692396626
 30
0.0
 10
89.45831440129238
 20
-142.5302692396626
 30
0.0
 10
89.50311717905877
 20
-142.4855017396734
 30
0.0
 10
89.50311717905877
 20
-142.4303625730203
 30
0.0
  0
LINE
  5
120
330
B3
100
AcDbEntity
  8
レイヤー 1
 62
   250
420
  2299925
370
     9
100
AcDbLine
 10
89.4032075338873
 20
-142.4303625730203
 30
0.0
 11
92.40040745742236
 21
-142.4303625730203
 31
0.0
  0
LINE
  5
121
330
B3
100
AcDbEntity
  8
レイヤー 1
 62
   250
420
  2299925
370
     9
100
AcDbLine
 10
89.4032075338873
 20
-143.890403961544
 30
0.0
 11
89.4032075338873
 21
-141.4305903510484
 31
0.0
  0
LINE
  5
122
330
B3
100
AcDbEntity
  8
レイヤー 1
 62
   250
420
  2299925
370
     9
100
AcDbLine
 10
92.40040745742236
 20
-143.890403961544
 30
0.0
 11
92.40040745742236
 21
-141.4305903510484
 31
0.0
  0
INSERT
  5
124
330
B3
100
AcDbEntity
  8
レイヤー 1
100
AcDbBlockReference
  2
Block_2
 10
0.0
 20
0.0
 30
0.0
  0
INSERT
  5
12A
330
B3
100
AcDbEntity
  8
レイヤー 1
100
AcDbBlockReference
  2
Block_3
 10
0.0
 20
0.0
 30
0.0
  0
LINE
  5
12F
330
B3
100
AcDbEntity
  8
レイヤー 1
 62
   250
420
  2299925
370
     9
100
AcDbLine
 10
94.1519138016266
 20
-156.7371595138883
 30
0.0
 11
87.65240674522061
 21
-156.7371595138883
 31
0.0
  0
LINE
  5
130
330
B3
100
AcDbEntity
  8
レイヤー 1
 62
   250
420
  2299925
370
     9
100
AcDbLine
 10
98.95988673452055
 20
-150.0378389600075
 30
0.0
 11
92.46037967811425
 21
-150.0378389600075
 31
0.0
  0
LINE
  5
131
330
B3
100
AcDbEntity
  8
レイヤー 1
 62
   250
420
  2299925
370
     9
100
AcDbLine
 10
94.1519138016266
 20
-155.2771181253645
 30
0.0
 11
94.1519138016266
 21
-157.7369317358602
 31
0.0
  0
LINE
  5
132
330
B3
100
AcDbEntity
  8
レイヤー 1
 62
   250
420
  2299925
370
     9
100
AcDbLine
 10
87.65240674522061
 20
-155.2771181253645
 30
0.0
 11
87.65240674522061
 21
-157.7369317358602
 31
0.0
  0
INSERT
  5
134
330
B3
100
AcDbEntity
  8
レイヤー 1
100
AcDbBlockReference
  2
Block_4
 10
0.0
 20
0.0
 30
0.0
  0
LINE
  5
142
330
B3
100
AcDbEntity
  8
レイヤー 1
 62
   250
420
  2299925
370
     9
100
AcDbLine
 10
64.40230567171345
 20
-147.1921922940523
 30
0.0
 11
64.40230567171345
 21
-145.340108961182
 31
0.0
  0
LINE
  5
143
330
B3
100
AcDbEntity
  8
レイヤー 1
 62
   250
420
  2299925
370
     9
100
AcDbLine
 10
64.40230567171345
 20
-147.1921922940523
 30
0.0
 11
64.40230567171345
 21
-147.6923959050385
 31
0.0
  0
LINE
  5
144
330
B3
100
AcDbEntity
  8
レイヤー 1
 62
   250
420
  2299925
370
     9
100
AcDbLine
 10
65.86234702335358
 20
-147.1921922940523
 30
0.0
 11
63.40218069722876
 21
-147.1921922940523
 31
0.0
  0
LINE
  5
145
330
B3
100
AcDbEntity
  8
レイヤー 1
 62
   250
420
  2299925
370
     9
100
AcDbLine
 10
65.86234702335358
 20
-147.6923959050385
 30
0.0
 11
63.40218069722876
 21
-147.6923959050385
 31
0.0
  0
INSERT
  5
147
330
B3
100
AcDbEntity
  8
レイヤー 1
100
AcDbBlockReference
  2
Block_6
 10
0.0
 20
0.0
 30
0.0
  0
LINE
  5
155
330
B3
100
AcDbEntity
  8
レイヤー 1
 62
   250
420
  2299925
370
     9
100
AcDbLine
 10
68.40206718433425
 20
-142.4303625730203
 30
0.0
 11
89.4032075338873
 21
-142.4303625730203
 31
0.0
  0
LINE
  5
156
330
B3
100
AcDbEntity
  8
レイヤー 1
 62
   250
420
  2299925
370
     9
100
AcDbLine
 10
68.40206718433425
 20
-144.6524745169098
 30
0.0
 11
68.40206718433425
 21
-141.4305903510484
 31
0.0
  0
INSERT
  5
158
330
B3
100
AcDbEntity
  8
レイヤー 1
100
AcDbBlockReference
  2
Block_8
 10
0.0
 20
0.0
 30
0.0
  0
LINE
  5
163
330
B3
100
AcDbEntity
  8
レイヤー 1
 62
   250
420
  2299925
370
     9
100
AcDbLine
 10
92.40040745742236
 20
-142.4303625730203
 30
0.0
 11
113.401726643856
 21
-142.4303625730203
 31
0.0
  0
LINE
  5
164
330
B3
100
AcDbEntity
  8
レイヤー 1
 62
   250
420
  2299925
370
     9
100
AcDbLine
 10
113.401726643856
 20
-144.6524745169098
 30
0.0
 11
113.401726643856
 21
-141.4305903510484
 31
0.0
  0
INSERT
  5
166
330
B3
100
AcDbEntity
  8
レイヤー 1
100
AcDbBlockReference
  2
Block_10
 10
0.0
 20
0.0
 30
0.0
  0
LINE
  5
171
330
B3
100
AcDbEntity
  8
レイヤー 1
 62
   250
420
  2299925
370
     9
100
AcDbLine
 10
64.40230567171345
 20
-147.6923959050385
 30
0.0
 11
64.40230567171345
 21
-152.6926328482328
 31
0.0
  0
LINE
  5
172
330
B3
100
AcDbEntity
  8
レイヤー 1
 62
   250
420
  2299925
370
     9
100
AcDbLine
 10
85.11198347669887
 20
-152.7642820148818
 30
0.0
 11
63.40218069722876
 21
-152.7642820148818
 31
0.0
  0
INSERT
  5
174
330
B3
100
AcDbEntity
  8
レイヤー 1
100
AcDbBlockReference
  2
Block_12
 10
0.0
 20
0.0
 30
0.0
  0
ENDBLK
  5
B6
330
B3
100
AcDbEntity
  8
0
100
AcDbBlockEnd
  0
BLOCK
  5
125
330
123
100
AcDbEntity
  8
0
100
AcDbBlockBegin
  2
Block_2
 70
     0
 10
0.0
 20
0.0
 30
0.0
  3
Block_2
  1

  0
SPLINE
  5
127
330
123
100
AcDbEntity
  8
レイヤー 1
100
AcDbSpline
210
0.0
220
0.0
230
1.0
 70
     9
 71
     3
 72
    62
 73
    58
 74
     0
 42
0.0000000001
 43
0.0000000001
 40
0.0
 40
0.0
 40
0.0
 40
0.0
 40
1.0
 40
1.0
 40
1.0
 40
2.0
 40
2.0
 40
2.0
 40
3.0
 40
3.0
 40
3.0
 40
4.0
 40
4.0
 40
4.0
 40
5.0
 40
5.0
 40
5.0
 40
6.0
 40
6.0
 40
6.0
 40
7.0
 40
7.0
 40
7.0
 40
8.0
 40
8.0
 40
8.0
 40
9.0
 40
9.0
 40
9.0
 40
10.0
 40
10.0
 40
10.0
 40
11.0
 40
11.0
 40
11.0
 40
12.0
 40
12.0
 40
12.0
 40
13.0
 40
13.0
 40
13.0
 40
14.0
 40
14.0
 40
14.0
 40
15.0
 40
15.0
 40
15.0
 40
16.0
 40
16.0
 40
16.0
 40
17.0
 40
17.0
 40
17.0
 40
18.0
 40
18.0
 40
18.0
 40
19.0
 40
19.0
 40
19.0
 40
19.0
 10
90.89574379238023
 20
-141.7670572562249
 30
0.0
 10
90.80048690221309
 20
-141.7670572562249
 30
0.0
 10
90.58258461277103
 20
-141.7458699189906
 30
0.0
 10
90.45787215620498
 20
-141.5596625080129
 30
0.0
 10
90.38380260327212
 20
-141.447524649968
 30
0.0
 10
90.37949623391554
 20
-141.3481336452185
 30
0.0
 10
90.37536211933325
 20
-141.2635565510556
 30
0.0
 10
90.37536211933325
 20
-141.2635565510556
 30
0.0
 10
90.59533146606645
 20
-141.2635565510556
 30
0.0
 10
90.59533146606645
 20
-141.2635565510556
 30
0.0
 10
90.59739852335759
 20
-141.3376261039885
 30
0.0
 10
90.60807831936187
 20
-141.5724093613083
 30
0.0
 10
90.89160967779793
 20
-141.5724093613083
 30
0.0
 10
91.0290689876594
 20
-141.5724093613083
 30
0.0
 10
91.18134220810745
 20
-141.502646177732
 30
0.0
 10
91.18134220810745
 20
-141.2740640922856
 30
0.0
 10
91.18134220810745
 20
-141.1577921196584
 30
0.0
 10
91.14327390299543
 20
-141.1090440185422
 30
0.0
 10
91.11157902453113
 20
-141.0773491400779
 30
0.0
 10
91.03750947159827
 20
-141.003279587145
 30
0.0
 10
90.92106524419682
 20
-140.9907049886238
 30
0.0
 10
90.86611597120707
 20
-140.9907049886238
 30
0.0
 10
90.84716794603821
 20
-140.9907049886238
 30
0.0
 10
90.81116669821735
 20
-140.992772045915
 30
0.0
 10
90.78360593433535
 20
-140.9969061604973
 30
0.0
 10
90.78360593433535
 20
-140.9969061604973
 30
0.0
 10
90.78360593433535
 20
-140.8024305203549
 30
0.0
 10
90.78360593433535
 20
-140.8024305203549
 30
0.0
 10
90.82167423944737
 20
-140.8086316922284
 30
0.0
 10
90.86404891391593
 20
-140.8108710042938
 30
0.0
 10
90.87042234056365
 20
-140.8108710042938
 30
0.0
 10
90.93587915478339
 20
-140.8108710042938
 30
0.0
 10
91.13483341905658
 20
-140.7896836670595
 30
0.0
 10
91.13483341905658
 20
-140.5526610976743
 30
0.0
 10
91.13483341905658
 20
-140.3750664254097
 30
0.0
 10
91.00357528106854
 20
-140.3199448976457
 30
0.0
 10
90.89367673508908
 20
-140.3199448976457
 30
0.0
 10
90.62926565659616
 20
-140.3199448976457
 30
0.0
 10
90.62082517265729
 20
-140.5526610976743
 30
0.0
 10
90.61651880330073
 20
-140.624663593316
 30
0.0
 10
90.61651880330073
 20
-140.624663593316
 30
0.0
 10
90.41343042444525
 20
-140.624663593316
 30
0.0
 10
90.41343042444525
 20
-140.624663593316
 30
0.0
 10
90.42187090838412
 20
-140.4997788819757
 30
0.0
 10
90.44943167226611
 20
-140.1232299454379
 30
0.0
 10
90.90625133361024
 20
-140.1232299454379
 30
0.0
 10
91.1305270497
 20
-140.1232299454379
 30
0.0
 10
91.37168373366749
 20
-140.2501817140694
 30
0.0
 10
91.37168373366749
 20
-140.5462876710266
 30
0.0
 10
91.37168373366749
 20
-140.7324950820044
 30
0.0
 10
91.2765990982746
 20
-140.8150051188761
 30
0.0
 10
91.17703583875089
 20
-140.8763278185135
 30
0.0
 10
91.2385307931626
 20
-140.9038885823955
 30
0.0
 10
91.42043183478378
 20
-140.9843315619761
 30
0.0
 10
91.42043183478378
 20
-141.2614894937645
 30
0.0
 10
91.42043183478378
 20
-141.5999701251902
 30
0.0
 10
91.17290172416858
 20
-141.7670572562249
 30
0.0
 10
90.89574379238023
 20
-141.7670572562249
 30
0.0
  0
HATCH
  5
128
330
123
100
AcDbEntity
  8
レイヤー 1
 62
   250
420
  2299925
440
 33554687
100
AcDbHatch
 10
0.0
 20
0.0
 30
0.0
210
0.0
220
0.0
230
1.0
  2
SOLID
 70
     1
 71
     1
 91
        1
 92
        1
 93
        1
 72
     4
 94
        3
 73
     0
 74
     0
 95
       62
 96
       58
 40
0.0
 40
0.0
 40
0.0
 40
0.0
 40
1.0
 40
1.0
 40
1.0
 40
2.0
 40
2.0
 40
2.0
 40
3.0
 40
3.0
 40
3.0
 40
4.0
 40
4.0
 40
4.0
 40
5.0
 40
5.0
 40
5.0
 40
6.0
 40
6.0
 40
6.0
 40
7.0
 40
7.0
 40
7.0
 40
8.0
 40
8.0
 40
8.0
 40
9.0
 40
9.0
 40
9.0
 40
10.0
 40
10.0
 40
10.0
 40
11.0
 40
11.0
 40
11.0
 40
12.0
 40
12.0
 40
12.0
 40
13.0
 40
13.0
 40
13.0
 40
14.0
 40
14.0
 40
14.0
 40
15.0
 40
15.0
 40
15.0
 40
16.0
 40
16.0
 40
16.0
 40
17.0
 40
17.0
 40
17.0
 40
18.0
 40
18.0
 40
18.0
 40
19.0
 40
19.0
 40
19.0
 40
19.0
 10
90.89574379238023
 20
-141.7670572562249
 10
90.80048690221309
 20
-141.7670572562249
 10
90.58258461277103
 20
-141.7458699189906
 10
90.45787215620498
 20
-141.5596625080129
 10
90.38380260327212
 20
-141.447524649968
 10
90.37949623391554
 20
-141.3481336452185
 10
90.37536211933325
 20
-141.2635565510556
 10
90.37536211933325
 20
-141.2635565510556
 10
90.59533146606645
 20
-141.2635565510556
 10
90.59533146606645
 20
-141.2635565510556
 10
90.59739852335759
 20
-141.3376261039885
 10
90.60807831936187
 20
-141.5724093613083
 10
90.89160967779793
 20
-141.5724093613083
 10
91.0290689876594
 20
-141.5724093613083
 10
91.18134220810745
 20
-141.502646177732
 10
91.18134220810745
 20
-141.2740640922856
 10
91.18134220810745
 20
-141.1577921196584
 10
91.14327390299543
 20
-141.1090440185422
 10
91.11157902453113
 20
-141.0773491400779
 10
91.03750947159827
 20
-141.003279587145
 10
90.92106524419682
 20
-140.9907049886238
 10
90.86611597120707
 20
-140.9907049886238
 10
90.84716794603821
 20
-140.9907049886238
 10
90.81116669821735
 20
-140.992772045915
 10
90.78360593433535
 20
-140.9969061604973
 10
90.78360593433535
 20
-140.9969061604973
 10
90.78360593433535
 20
-140.8024305203549
 10
90.78360593433535
 20
-140.8024305203549
 10
90.82167423944737
 20
-140.8086316922284
 10
90.86404891391593
 20
-140.8108710042938
 10
90.87042234056365
 20
-140.8108710042938
 10
90.93587915478339
 20
-140.8108710042938
 10
91.13483341905658
 20
-140.7896836670595
 10
91.13483341905658
 20
-140.5526610976743
 10
91.13483341905658
 20
-140.3750664254097
 10
91.00357528106854
 20
-140.3199448976457
 10
90.89367673508908
 20
-140.3199448976457
 10
90.62926565659616
 20
-140.3199448976457
 10
90.62082517265729
 20
-140.5526610976743
 10
90.61651880330073
 20
-140.624663593316
 10
90.61651880330073
 20
-140.624663593316
 10
90.41343042444525
 20
-140.624663593316
 10
90.41343042444525
 20
-140.624663593316
 10
90.42187090838412
 20
-140.4997788819757
 10
90.44943167226611
 20
-140.1232299454379
 10
90.90625133361024
 20
-140.1232299454379
 10
91.1305270497
 20
-140.1232299454379
 10
91.37168373366749
 20
-140.2501817140694
 10
91.37168373366749
 20
-140.5462876710266
 10
91.37168373366749
 20
-140.7324950820044
 10
91.2765990982746
 20
-140.8150051188761
 10
91.17703583875089
 20
-140.8763278185135
 10
91.2385307931626
 20
-140.9038885823955
 10
91.42043183478378
 20
-140.9843315619761
 10
91.42043183478378
 20
-141.2614894937645
 10
91.42043183478378
 20
-141.5999701251902
 10
91.17290172416858
 20
-141.7670572562249
 10
90.89574379238023
 20
-141.7670572562249
 97
        0
 97
        1
330
127
 75
     2
 76
     1
 98
        1
 10
0.0
 20
0.0
450
        0
451
        0
460
0.0
461
0.0
452
        0
462
0.0
453
        0
470

  0
ENDBLK
  5
126
330
123
100
AcDbEntity
  8
0
100
AcDbBlockEnd
  0
BLOCK
  5
12B
330
129
100
AcDbEntity
  8
0
100
AcDbBlockBegin
  2
Block_3
 70
     0
 10
0.0
 20
0.0
 30
0.0
  3
Block_3
  1

  0
SPLINE
  5
12D
330
129
100
AcDbEntity
  8
レイヤー 1
100
AcDbSpline
210
0.0
220
0.0
230
1.0
 70
    11
 71
     3
 72
    26
 73
    22
 74
     0
 42
0.0000000001
 43
0.0000000001
 40
0.0
 40
0.0
 40
0.0
 40
0.0
 40
1.0
 40
1.0
 40
1.0
 40
2.0
 40
2.0
 40
2.0
 40
3.0
 40
3.0
 40
3.0
 40
4.0
 40
4.0
 40
4.0
 40
5.0
 40
5.0
 40
5.0
 40
6.0
 40
6.0
 40
6.0
 40
7.0
 40
7.0
 40
7.0
 40
7.0
 10
100.0574584710794
 20
-150.7997531090014
 30
0.0
 10
100.0574584710794
 20
-150.7997531090014
 30
0.0
 10
100.0574584710794
 20
-149.6956000059789
 30
0.0
 10
100.0574584710794
 20
-149.6956000059789
 30
0.0
 10
100.0574584710794
 20
-149.6956000059789
 30
0.0
 10
99.72741832359247
 20
-149.6956000059789
 30
0.0
 10
99.72741832359247
 20
-149.6956000059789
 30
0.0
 10
99.72741832359247
 20
-149.6956000059789
 30
0.0
 10
99.72741832359247
 20
-149.5474609001131
 30
0.0
 10
99.72741832359247
 20
-149.5474609001131
 30
0.0
 10
100.0595255283705
 20
-149.5326469895266
 30
0.0
 10
100.1060343174214
 20
-149.3696939730742
 30
0.0
 10
100.1356621385945
 20
-149.2553168029639
 30
0.0
 10
100.1356621385945
 20
-149.2553168029639
 30
0.0
 10
100.2817341871691
 20
-149.2553168029639
 30
0.0
 10
100.2817341871691
 20
-149.2553168029639
 30
0.0
 10
100.2817341871691
 20
-149.2553168029639
 30
0.0
 10
100.2817341871691
 20
-150.7997531090014
 30
0.0
 10
100.2817341871691
 20
-150.7997531090014
 30
0.0
 10
100.2817341871691
 20
-150.7997531090014
 30
0.0
 10
100.0574584710794
 20
-150.7997531090014
 30
0.0
 10
100.0574584710794
 20
-150.7997531090014
 30
0.0
  0
HATCH
  5
12E
330
129
100
AcDbEntity
  8
レイヤー 1
 62
   250
420
  2299925
440
 33554687
100
AcDbHatch
 10
0.0
 20
0.0
 30
0.0
210
0.0
220
0.0
230
1.0
  2
SOLID
 70
     1
 71
     1
 91
        1
 92
        1
 93
        1
 72
     4
 94
        3
 73
     0
 74
     0
 95
       26
 96
       22
 40
0.0
 40
0.0
 40
0.0
 40
0.0
 40
1.0
 40
1.0
 40
1.0
 40
2.0
 40
2.0
 40
2.0
 40
3.0
 40
3.0
 40
3.0
 40
4.0
 40
4.0
 40
4.0
 40
5.0
 40
5.0
 40
5.0
 40
6.0
 40
6.0
 40
6.0
 40
7.0
 40
7.0
 40
7.0
 40
7.0
 10
100.0574584710794
 20
-150.7997531090014
 10
100.0574584710794
 20
-150.7997531090014
 10
100.0574584710794
 20
-149.6956000059789
 10
100.0574584710794
 20
-149.6956000059789
 10
100.0574584710794
 20
-149.6956000059789
 10
99.72741832359247
 20
-149.6956000059789
 10
99.72741832359247
 20
-149.6956000059789
 10
99.72741832359247
 20
-149.6956000059789
 10
99.72741832359247
 20
-149.5474609001131
 10
99.72741832359247
 20
-149.5474609001131
 10
100.0595255283705
 20
-149.5326469895266
 10
100.1060343174214
 20
-149.3696939730742
 10
100.1356621385945
 20
-149.2553168029639
 10
100.1356621385945
 20
-149.2553168029639
 10
100.2817341871691
 20
-149.2553168029639
 10
100.2817341871691
 20
-149.2553168029639
 10
100.2817341871691
 20
-149.2553168029639
 10
100.2817341871691
 20
-150.7997531090014
 10
100.2817341871691
 20
-150.7997531090014
 10
100.2817341871691
 20
-150.7997531090014
 10
100.0574584710794
 20
-150.7997531090014
 10
100.0574584710794
 20
-150.7997531090014
 97
        0
 97
        1
330
12D
 75
     2
 76
     1
 98
        1
 10
0.0
 20
0.0
450
        0
451
        0
460
0.0
461
0.0
452
        0
462
0.0
453
        0
470

  0
ENDBLK
  5
12C
330
129
100
AcDbEntity
  8
0
100
AcDbBlockEnd
  0
BLOCK
  5
135
330
133
100
AcDbEntity
  8
0
100
AcDbBlockBegin
  2
Block_4
 70
     0
 10
0.0
 20
0.0
 30
0.0
  3
Block_4
  1

  0
INSERT
  5
138
330
133
100
AcDbEntity
  8
レイヤー 1
100
AcDbBlockReference
  2
Block_5
 10
0.0
 20
0.0
 30
0.0
  0
ENDBLK
  5
136
330
133
100
AcDbEntity
  8
0
100
AcDbBlockEnd
  0
BLOCK
  5
139
330
137
100
AcDbEntity
  8
0
100
AcDbBlockBegin
  2
Block_5
 70
     0
 10
0.0
 20
0.0
 30
0.0
  3
Block_5
  1

  0
SPLINE
  5
13B
330
137
100
AcDbEntity
  8
レイヤー 1
100
AcDbSpline
210
0.0
220
0.0
230
1.0
 70
     9
 71
     3
 72
    17
 73
    13
 74
     0
 42
0.0000000001
 43
0.0000000001
 40
0.0
 40
0.0
 40
0.0
 40
0.0
 40
1.0
 40
1.0
 40
1.0
 40
2.0
 40
2.0
 40
2.0
 40
3.0
 40
3.0
 40
3.0
 40
4.0
 40
4.0
 40
4.0
 40
4.0
 10
90.10802270967785
 20
-155.2146429733491
 30
0.0
 10
89.84585094325034
 20
-155.2146429733491
 30
0.0
 10
89.8079548929126
 20
-155.4261718361434
 30
0.0
 10
89.8079548929126
 20
-155.5426160635449
 30
0.0
 10
89.8079548929126
 20
-155.7183159332926
 30
0.0
 10
89.90303952830549
 20
-155.8812689497449
 30
0.0
 10
90.08700762721783
 20
-155.8812689497449
 30
0.0
 10
90.20758596920158
 20
-155.8812689497449
 30
0.0
 10
90.38328583894932
 20
-155.8220133073986
 30
0.0
 10
90.38328583894932
 20
-155.5364148916714
 30
0.0
 10
90.38328583894932
 20
-155.3121391755817
 30
0.0
 10
90.2437594717967
 20
-155.2146429733491
 30
0.0
 10
90.10802270967785
 20
-155.2146429733491
 30
0.0
  0
SPLINE
  5
13C
330
137
100
AcDbEntity
  8
レイヤー 1
100
AcDbSpline
210
0.0
220
0.0
230
1.0
 70
     9
 71
     3
 72
    32
 73
    28
 74
     0
 42
0.0000000001
 43
0.0000000001
 40
0.0
 40
0.0
 40
0.0
 40
0.0
 40
1.0
 40
1.0
 40
1.0
 40
2.0
 40
2.0
 40
2.0
 40
3.0
 40
3.0
 40
3.0
 40
4.0
 40
4.0
 40
4.0
 40
5.0
 40
5.0
 40
5.0
 40
6.0
 40
6.0
 40
6.0
 40
7.0
 40
7.0
 40
7.0
 40
8.0
 40
8.0
 40
8.0
 40
9.0
 40
9.0
 40
9.0
 40
9.0
 10
90.09114174180012
 20
-156.0735052778219
 30
0.0
 10
89.57506643810971
 20
-156.0735052778219
 30
0.0
 10
89.56645369939659
 20
-155.5195339237937
 30
0.0
 10
89.56645369939659
 20
-155.3055934941597
 30
0.0
 10
89.56645369939659
 20
-155.0751166061965
 30
0.0
 10
89.58574623411399
 20
-154.4277831645181
 30
0.0
 10
90.12938230168641
 20
-154.4277831645181
 30
0.0
 10
90.30267060459449
 20
-154.4277831645181
 30
0.0
 10
90.54830591269277
 20
-154.4977186028686
 30
0.0
 10
90.58620196303053
 20
-154.8298258076467
 30
0.0
 10
90.58620196303053
 20
-154.8298258076467
 30
0.0
 10
90.37260604294505
 20
-154.8298258076467
 30
0.0
 10
90.37260604294505
 20
-154.8298258076467
 30
0.0
 10
90.36192624694077
 20
-154.7726372225915
 30
0.0
 10
90.33023136847647
 20
-154.6244981167258
 30
0.0
 10
90.12731524439526
 20
-154.6244981167258
 30
0.0
 10
89.83517114724607
 20
-154.6244981167258
 30
0.0
 10
89.79520803961717
 20
-154.9524712069216
 30
0.0
 10
89.78246118632176
 20
-155.157454388294
 30
0.0
 10
89.87547876442349
 20
-155.0792507207788
 30
0.0
 10
89.94334714548292
 20
-155.0199950784325
 30
0.0
 10
90.1252481871041
 20
-155.0199950784325
 30
0.0
 10
90.30508217143415
 20
-155.0199950784325
 30
0.0
 10
90.60756155503908
 20
-155.1281710766693
 30
0.0
 10
90.60756155503908
 20
-155.5343478343803
 30
0.0
 10
90.60756155503908
 20
-155.8537081858629
 30
0.0
 10
90.40843503599164
 20
-156.0735052778219
 30
0.0
 10
90.09114174180012
 20
-156.0735052778219
 30
0.0
  0
HATCH
  5
13D
330
137
100
AcDbEntity
  8
レイヤー 1
 62
   250
420
  2299925
440
 33554687
100
AcDbHatch
 10
0.0
 20
0.0
 30
0.0
210
0.0
220
0.0
230
1.0
  2
SOLID
 70
     1
 71
     1
 91
        2
 92
        1
 93
        1
 72
     4
 94
        3
 73
     0
 74
     0
 95
       17
 96
       13
 40
0.0
 40
0.0
 40
0.0
 40
0.0
 40
1.0
 40
1.0
 40
1.0
 40
2.0
 40
2.0
 40
2.0
 40
3.0
 40
3.0
 40
3.0
 40
4.0
 40
4.0
 40
4.0
 40
4.0
 10
90.10802270967785
 20
-155.2146429733491
 10
89.84585094325034
 20
-155.2146429733491
 10
89.8079548929126
 20
-155.4261718361434
 10
89.8079548929126
 20
-155.5426160635449
 10
89.8079548929126
 20
-155.7183159332926
 10
89.90303952830549
 20
-155.8812689497449
 10
90.08700762721783
 20
-155.8812689497449
 10
90.20758596920158
 20
-155.8812689497449
 10
90.38328583894932
 20
-155.8220133073986
 10
90.38328583894932
 20
-155.5364148916714
 10
90.38328583894932
 20
-155.3121391755817
 10
90.2437594717967
 20
-155.2146429733491
 10
90.10802270967785
 20
-155.2146429733491
 97
        0
 97
        1
330
13B
 92
        1
 93
        1
 72
     4
 94
        3
 73
     0
 74
     0
 95
       32
 96
       28
 40
0.0
 40
0.0
 40
0.0
 40
0.0
 40
1.0
 40
1.0
 40
1.0
 40
2.0
 40
2.0
 40
2.0
 40
3.0
 40
3.0
 40
3.0
 40
4.0
 40
4.0
 40
4.0
 40
5.0
 40
5.0
 40
5.0
 40
6.0
 40
6.0
 40
6.0
 40
7.0
 40
7.0
 40
7.0
 40
8.0
 40
8.0
 40
8.0
 40
9.0
 40
9.0
 40
9.0
 40
9.0
 10
90.09114174180012
 20
-156.0735052778219
 10
89.57506643810971
 20
-156.0735052778219
 10
89.56645369939659
 20
-155.5195339237937
 10
89.56645369939659
 20
-155.3055934941597
 10
89.56645369939659
 20
-155.0751166061965
 10
89.58574623411399
 20
-154.4277831645181
 10
90.12938230168641
 20
-154.4277831645181
 10
90.30267060459449
 20
-154.4277831645181
 10
90.54830591269277
 20
-154.4977186028686
 10
90.58620196303053
 20
-154.8298258076467
 10
90.58620196303053
 20
-154.8298258076467
 10
90.37260604294505
 20
-154.8298258076467
 10
90.37260604294505
 20
-154.8298258076467
 10
90.36192624694077
 20
-154.7726372225915
 10
90.33023136847647
 20
-154.6244981167258
 10
90.12731524439526
 20
-154.6244981167258
 10
89.83517114724607
 20
-154.6244981167258
 10
89.79520803961717
 20
-154.9524712069216
 10
89.78246118632176
 20
-155.157454388294
 10
89.87547876442349
 20
-155.0792507207788
 10
89.94334714548292
 20
-155.0199950784325
 10
90.1252481871041
 20
-155.0199950784325
 10
90.30508217143415
 20
-155.0199950784325
 10
90.60756155503908
 20
-155.1281710766693
 10
90.60756155503908
 20
-155.5343478343803
 10
90.60756155503908
 20
-155.8537081858629
 10
90.40843503599164
 20
-156.0735052778219
 10
90.09114174180012
 20
-156.0735052778219
 97
        0
 97
        1
330
13C
 75
     2
 76
     1
 98
        1
 10
0.0
 20
0.0
450
        0
451
        0
460
0.0
461
0.0
452
        0
462
0.0
453
        0
470

  0
SPLINE
  5
13E
330
137
100
AcDbEntity
  8
レイヤー 1
100
AcDbSpline
210
0.0
220
0.0
230
1.0
 70
    11
 71
     3
 72
    17
 73
    13
 74
     0
 42
0.0000000001
 43
0.0000000001
 40
0.0
 40
0.0
 40
0.0
 40
0.0
 40
1.0
 40
1.0
 40
1.0
 40
2.0
 40
2.0
 40
2.0
 40
3.0
 40
3.0
 40
3.0
 40
4.0
 40
4.0
 40
4.0
 40
4.0
 10
90.82391355151278
 20
-156.0228623741887
 30
0.0
 10
90.82391355151278
 20
-156.0228623741887
 30
0.0
 10
90.82391355151278
 20
-155.7710258942169
 30
0.0
 10
90.82391355151278
 20
-155.7710258942169
 30
0.0
 10
90.82391355151278
 20
-155.7710258942169
 30
0.0
 10
91.07575003148454
 20
-155.7710258942169
 30
0.0
 10
91.07575003148454
 20
-155.7710258942169
 30
0.0
 10
91.07575003148454
 20
-155.7710258942169
 30
0.0
 10
91.07575003148454
 20
-156.0228623741887
 30
0.0
 10
91.07575003148454
 20
-156.0228623741887
 30
0.0
 10
91.07575003148454
 20
-156.0228623741887
 30
0.0
 10
90.82391355151278
 20
-156.0228623741887
 30
0.0
 10
90.82391355151278
 20
-156.0228623741887
 30
0.0
  0
HATCH
  5
13F
330
137
100
AcDbEntity
  8
レイヤー 1
 62
   250
420
  2299925
440
 33554687
100
AcDbHatch
 10
0.0
 20
0.0
 30
0.0
210
0.0
220
0.0
230
1.0
  2
SOLID
 70
     1
 71
     1
 91
        1
 92
        1
 93
        1
 72
     4
 94
        3
 73
     0
 74
     0
 95
       17
 96
       13
 40
0.0
 40
0.0
 40
0.0
 40
0.0
 40
1.0
 40
1.0
 40
1.0
 40
2.0
 40
2.0
 40
2.0
 40
3.0
 40
3.0
 40
3.0
 40
4.0
 40
4.0
 40
4.0
 40
4.0
 10
90.82391355151278
 20
-156.0228623741887
 10
90.82391355151278
 20
-156.0228623741887
 10
90.82391355151278
 20
-155.7710258942169
 10
90.82391355151278
 20
-155.7710258942169
 10
90.82391355151278
 20
-155.7710258942169
 10
91.07575003148454
 20
-155.7710258942169
 10
91.07575003148454
 20
-155.7710258942169
 10
91.07575003148454
 20
-155.7710258942169
 10
91.07575003148454
 20
-156.0228623741887
 10
91.07575003148454
 20
-156.0228623741887
 10
91.07575003148454
 20
-156.0228623741887
 10
90.82391355151278
 20
-156.0228623741887
 10
90.82391355151278
 20
-156.0228623741887
 97
        0
 97
        1
330
13E
 75
     2
 76
     1
 98
        1
 10
0.0
 20
0.0
450
        0
451
        0
460
0.0
461
0.0
452
        0
462
0.0
453
        0
470

  0
SPLINE
  5
140
330
137
100
AcDbEntity
  8
レイヤー 1
100
AcDbSpline
210
0.0
220
0.0
230
1.0
 70
     9
 71
     3
 72
    53
 73
    49
 74
     0
 42
0.0000000001
 43
0.0000000001
 40
0.0
 40
0.0
 40
0.0
 40
0.0
 40
1.0
 40
1.0
 40
1.0
 40
2.0
 40
2.0
 40
2.0
 40
3.0
 40
3.0
 40
3.0
 40
4.0
 40
4.0
 40
4.0
 40
5.0
 40
5.0
 40
5.0
 40
6.0
 40
6.0
 40
6.0
 40
7.0
 40
7.0
 40
7.0
 40
8.0
 40
8.0
 40
8.0
 40
9.0
 40
9.0
 40
9.0
 40
10.0
 40
10.0
 40
10.0
 40
11.0
 40
11.0
 40
11.0
 40
12.0
 40
12.0
 40
12.0
 40
13.0
 40
13.0
 40
13.0
 40
14.0
 40
14.0
 40
14.0
 40
15.0
 40
15.0
 40
15.0
 40
16.0
 40
16.0
 40
16.0
 40
16.0
 10
91.79301891151355
 20
-156.0735052778219
 30
0.0
 10
91.71481524399839
 20
-156.0735052778219
 30
0.0
 10
91.61318492718351
 20
-156.0566243099442
 30
0.0
 10
91.51155461036864
 20
-155.9932345530156
 30
0.0
 10
91.33826630746057
 20
-155.8833360070361
 30
0.0
 10
91.31690671545202
 20
-155.7520778690481
 30
0.0
 10
91.29795869028315
 20
-155.6442463803598
 30
0.0
 10
91.29795869028315
 20
-155.6442463803598
 30
0.0
 10
91.52016734908178
 20
-155.6442463803598
 30
0.0
 10
91.52016734908178
 20
-155.6442463803598
 30
0.0
 10
91.57494436729724
 20
-155.8430283898587
 30
0.0
 10
91.70206839070296
 20
-155.8726562110318
 30
0.0
 10
91.7950859688047
 20
-155.8726562110318
 30
0.0
 10
91.93461233595732
 20
-155.8726562110318
 30
0.0
 10
92.08688555640536
 20
-155.7730929515081
 30
0.0
 10
92.08688555640536
 20
-155.5405490062538
 30
0.0
 10
92.08688555640536
 20
-155.2845784116997
 30
0.0
 10
91.90705157207531
 20
-155.2146429733491
 30
0.0
 10
91.78647323009156
 20
-155.2146429733491
 30
0.0
 10
91.75477835162729
 20
-155.2146429733491
 30
0.0
 10
91.61318492718351
 20
-155.2146429733491
 30
0.0
 10
91.52430146366407
 20
-155.343834054046
 30
0.0
 10
91.52430146366407
 20
-155.343834054046
 30
0.0
 10
91.34860159391633
 20
-155.3248860288771
 30
0.0
 10
91.34860159391633
 20
-155.3248860288771
 30
0.0
 10
91.34860159391633
 20
-155.3248860288771
 30
0.0
 10
91.46917993590006
 20
-154.4784260681512
 30
0.0
 10
91.46917993590006
 20
-154.4784260681512
 30
0.0
 10
91.46917993590006
 20
-154.4784260681512
 30
0.0
 10
92.24777151556653
 20
-154.4784260681512
 30
0.0
 10
92.24777151556653
 20
-154.4784260681512
 30
0.0
 10
92.24777151556653
 20
-154.4784260681512
 30
0.0
 10
92.24777151556653
 20
-154.6730739630678
 30
0.0
 10
92.24777151556653
 20
-154.6730739630678
 30
0.0
 10
92.24777151556653
 20
-154.6730739630678
 30
0.0
 10
91.63213295235239
 20
-154.6730739630678
 30
0.0
 10
91.63213295235239
 20
-154.6730739630678
 30
0.0
 10
91.63213295235239
 20
-154.6730739630678
 30
0.0
 10
91.56667613813263
 20
-155.0961316886565
 30
0.0
 10
91.56667613813263
 20
-155.0961316886565
 30
0.0
 10
91.6279988377701
 20
-155.0623697529011
 30
0.0
 10
91.71033661986756
 20
-155.0220621357236
 30
0.0
 10
91.82884790456014
 20
-155.0220621357236
 30
0.0
 10
92.08275144182307
 20
-155.0220621357236
 30
0.0
 10
92.31977401120825
 20
-155.2084418014757
 30
0.0
 10
92.31977401120825
 20
-155.5216009810848
 30
0.0
 10
92.31977401120825
 20
-155.8388942752764
 30
0.0
 10
92.09549829511848
 20
-156.0735052778219
 30
0.0
 10
91.79301891151355
 20
-156.0735052778219
 30
0.0
  0
HATCH
  5
141
330
137
100
AcDbEntity
  8
レイヤー 1
 62
   250
420
  2299925
440
 33554687
100
AcDbHatch
 10
0.0
 20
0.0
 30
0.0
210
0.0
220
0.0
230
1.0
  2
SOLID
 70
     1
 71
     1
 91
        1
 92
        1
 93
        1
 72
     4
 94
        3
 73
     0
 74
     0
 95
       53
 96
       49
 40
0.0
 40
0.0
 40
0.0
 40
0.0
 40
1.0
 40
1.0
 40
1.0
 40
2.0
 40
2.0
 40
2.0
 40
3.0
 40
3.0
 40
3.0
 40
4.0
 40
4.0
 40
4.0
 40
5.0
 40
5.0
 40
5.0
 40
6.0
 40
6.0
 40
6.0
 40
7.0
 40
7.0
 40
7.0
 40
8.0
 40
8.0
 40
8.0
 40
9.0
 40
9.0
 40
9.0
 40
10.0
 40
10.0
 40
10.0
 40
11.0
 40
11.0
 40
11.0
 40
12.0
 40
12.0
 40
12.0
 40
13.0
 40
13.0
 40
13.0
 40
14.0
 40
14.0
 40
14.0
 40
15.0
 40
15.0
 40
15.0
 40
16.0
 40
16.0
 40
16.0
 40
16.0
 10
91.79301891151355
 20
-156.0735052778219
 10
91.71481524399839
 20
-156.0735052778219
 10
91.61318492718351
 20
-156.0566243099442
 10
91.51155461036864
 20
-155.9932345530156
 10
91.33826630746057
 20
-155.8833360070361
 10
91.31690671545202
 20
-155.7520778690481
 10
91.29795869028315
 20
-155.6442463803598
 10
91.29795869028315
 20
-155.6442463803598
 10
91.52016734908178
 20
-155.6442463803598
 10
91.52016734908178
 20
-155.6442463803598
 10
91.57494436729724
 20
-155.8430283898587
 10
91.70206839070296
 20
-155.8726562110318
 10
91.7950859688047
 20
-155.8726562110318
 10
91.93461233595732
 20
-155.8726562110318
 10
92.08688555640536
 20
-155.7730929515081
 10
92.08688555640536
 20
-155.5405490062538
 10
92.08688555640536
 20
-155.2845784116997
 10
91.90705157207531
 20
-155.2146429733491
 10
91.78647323009156
 20
-155.2146429733491
 10
91.75477835162729
 20
-155.2146429733491
 10
91.61318492718351
 20
-155.2146429733491
 10
91.52430146366407
 20
-155.343834054046
 10
91.52430146366407
 20
-155.343834054046
 10
91.34860159391633
 20
-155.3248860288771
 10
91.34860159391633
 20
-155.3248860288771
 10
91.34860159391633
 20
-155.3248860288771
 10
91.46917993590006
 20
-154.4784260681512
 10
91.46917993590006
 20
-154.4784260681512
 10
91.46917993590006
 20
-154.4784260681512
 10
92.24777151556653
 20
-154.4784260681512
 10
92.24777151556653
 20
-154.4784260681512
 10
92.24777151556653
 20
-154.4784260681512
 10
92.24777151556653
 20
-154.6730739630678
 10
92.24777151556653
 20
-154.6730739630678
 10
92.24777151556653
 20
-154.6730739630678
 10
91.63213295235239
 20
-154.6730739630678
 10
91.63213295235239
 20
-154.6730739630678
 10
91.63213295235239
 20
-154.6730739630678
 10
91.56667613813263
 20
-155.0961316886565
 10
91.56667613813263
 20
-155.0961316886565
 10
91.6279988377701
 20
-155.0623697529011
 10
91.71033661986756
 20
-155.0220621357236
 10
91.82884790456014
 20
-155.0220621357236
 10
92.08275144182307
 20
-155.0220621357236
 10
92.31977401120825
 20
-155.2084418014757
 10
92.31977401120825
 20
-155.5216009810848
 10
92.31977401120825
 20
-155.8388942752764
 10
92.09549829511848
 20
-156.0735052778219
 10
91.79301891151355
 20
-156.0735052778219
 97
        0
 97
        1
330
140
 75
     2
 76
     1
 98
        1
 10
0.0
 20
0.0
450
        0
451
        0
460
0.0
461
0.0
452
        0
462
0.0
453
        0
470

  0
ENDBLK
  5
13A
330
137
100
AcDbEntity
  8
0
100
AcDbBlockEnd
  0
BLOCK
  5
148
330
146
100
AcDbEntity
  8
0
100
AcDbBlockBegin
  2
Block_6
 70
     0
 10
0.0
 20
0.0
 30
0.0
  3
Block_6
  1

  0
INSERT
  5
14B
330
146
100
AcDbEntity
  8
レイヤー 1
100
AcDbBlockReference
  2
Block_7
 10
0.0
 20
0.0
 30
0.0
  0
ENDBLK
  5
149
330
146
100
AcDbEntity
  8
0
100
AcDbBlockEnd
  0
BLOCK
  5
14C
330
14A
100
AcDbEntity
  8
0
100
AcDbBlockBegin
  2
Block_7
 70
     0
 10
0.0
 20
0.0
 30
0.0
  3
Block_7
  1

  0
SPLINE
  5
14E
330
14A
100
AcDbEntity
  8
レイヤー 1
100
AcDbSpline
210
0.0
220
0.0
230
1.0
 70
     9
 71
     3
 72
    17
 73
    13
 74
     0
 42
0.0000000001
 43
0.0000000001
 40
0.0
 40
0.0
 40
0.0
 40
0.0
 40
1.0
 40
1.0
 40
1.0
 40
2.0
 40
2.0
 40
2.0
 40
3.0
 40
3.0
 40
3.0
 40
4.0
 40
4.0
 40
4.0
 40
4.0
 10
61.46102022117989
 20
-145.888252730455
 30
0.0
 10
61.46102022117989
 20
-146.1380221531356
 30
0.0
 10
61.74437932484169
 20
-146.1845309421865
 30
0.0
 10
62.08923338291519
 20
-146.1845309421865
 30
0.0
 10
62.40876598917211
 20
-146.1845309421865
 30
0.0
 10
62.71761879942476
 20
-146.1483574395914
 30
0.0
 10
62.71761879942476
 20
-145.888252730455
 30
0.0
 10
62.71761879942476
 20
-145.6407226198398
 30
0.0
 10
62.43615449827985
 20
-145.5919745187235
 30
0.0
 10
62.08923338291519
 20
-145.5919745187235
 30
0.0
 10
61.76987303143253
 20
-145.5919745187235
 30
0.0
 10
61.46102022117989
 20
-145.6302150786098
 30
0.0
 10
61.46102022117989
 20
-145.888252730455
 30
0.0
  0
SPLINE
  5
14F
330
14A
100
AcDbEntity
  8
レイヤー 1
100
AcDbSpline
210
0.0
220
0.0
230
1.0
 70
     9
 71
     3
 72
    29
 73
    25
 74
     0
 42
0.0000000001
 43
0.0000000001
 40
0.0
 40
0.0
 40
0.0
 40
0.0
 40
1.0
 40
1.0
 40
1.0
 40
2.0
 40
2.0
 40
2.0
 40
3.0
 40
3.0
 40
3.0
 40
4.0
 40
4.0
 40
4.0
 40
5.0
 40
5.0
 40
5.0
 40
6.0
 40
6.0
 40
6.0
 40
7.0
 40
7.0
 40
7.0
 40
8.0
 40
8.0
 40
8.0
 40
8.0
 10
62.68368460889505
 20
-145.4905164566829
 30
0.0
 10
62.89314641439824
 20
-145.5983479453712
 30
0.0
 10
62.91226669434138
 20
-145.7718085030536
 30
0.0
 10
62.91226669434138
 20
-145.888252730455
 30
0.0
 10
62.91226669434138
 20
-146.0491386896162
 30
0.0
 10
62.86575790529051
 20
-146.1907321140599
 30
0.0
 10
62.68368460889505
 20
-146.2858167494528
 30
0.0
 10
62.4892089687527
 20
-146.3895141235589
 30
0.0
 10
62.25218639936751
 20
-146.4088066582763
 30
0.0
 10
62.08923338291519
 20
-146.4088066582763
 30
0.0
 10
61.94540064640602
 20
-146.4088066582763
 30
0.0
 10
61.69373642120851
 20
-146.39158118085
 30
0.0
 10
61.49478215693534
 20
-146.2858167494528
 30
0.0
 10
61.29169377807986
 20
-146.1779852607645
 30
0.0
 10
61.26843938355442
 20
-146.0170993016033
 30
0.0
 10
61.26843938355442
 20
-145.888252730455
 30
0.0
 10
61.26843938355442
 20
-145.729433828585
 30
0.0
 10
61.31288111531414
 20
-145.5857733468501
 30
0.0
 10
61.49478215693534
 20
-145.4905164566829
 30
0.0
 10
61.6873629945608
 20
-145.3911254519335
 30
0.0
 10
61.91577282523287
 20
-145.367871057408
 30
0.0
 10
62.08923338291519
 20
-145.367871057408
 30
0.0
 10
62.26062688330637
 20
-145.367871057408
 30
0.0
 10
62.49127602604385
 20
-145.388886139868
 30
0.0
 10
62.68368460889505
 20
-145.4905164566829
 30
0.0
  0
HATCH
  5
150
330
14A
100
AcDbEntity
  8
レイヤー 1
 62
   250
420
  2299925
440
 33554687
100
AcDbHatch
 10
0.0
 20
0.0
 30
0.0
210
0.0
220
0.0
230
1.0
  2
SOLID
 70
     1
 71
     1
 91
        2
 92
        1
 93
        1
 72
     4
 94
        3
 73
     0
 74
     0
 95
       17
 96
       13
 40
0.0
 40
0.0
 40
0.0
 40
0.0
 40
1.0
 40
1.0
 40
1.0
 40
2.0
 40
2.0
 40
2.0
 40
3.0
 40
3.0
 40
3.0
 40
4.0
 40
4.0
 40
4.0
 40
4.0
 10
61.46102022117989
 20
-145.888252730455
 10
61.46102022117989
 20
-146.1380221531356
 10
61.74437932484169
 20
-146.1845309421865
 10
62.08923338291519
 20
-146.1845309421865
 10
62.40876598917211
 20
-146.1845309421865
 10
62.71761879942476
 20
-146.1483574395914
 10
62.71761879942476
 20
-145.888252730455
 10
62.71761879942476
 20
-145.6407226198398
 10
62.43615449827985
 20
-145.5919745187235
 10
62.08923338291519
 20
-145.5919745187235
 10
61.76987303143253
 20
-145.5919745187235
 10
61.46102022117989
 20
-145.6302150786098
 10
61.46102022117989
 20
-145.888252730455
 97
        0
 97
        1
330
14E
 92
        1
 93
        1
 72
     4
 94
        3
 73
     0
 74
     0
 95
       29
 96
       25
 40
0.0
 40
0.0
 40
0.0
 40
0.0
 40
1.0
 40
1.0
 40
1.0
 40
2.0
 40
2.0
 40
2.0
 40
3.0
 40
3.0
 40
3.0
 40
4.0
 40
4.0
 40
4.0
 40
5.0
 40
5.0
 40
5.0
 40
6.0
 40
6.0
 40
6.0
 40
7.0
 40
7.0
 40
7.0
 40
8.0
 40
8.0
 40
8.0
 40
8.0
 10
62.68368460889505
 20
-145.4905164566829
 10
62.89314641439824
 20
-145.5983479453712
 10
62.91226669434138
 20
-145.7718085030536
 10
62.91226669434138
 20
-145.888252730455
 10
62.91226669434138
 20
-146.0491386896162
 10
62.86575790529051
 20
-146.1907321140599
 10
62.68368460889505
 20
-146.2858167494528
 10
62.4892089687527
 20
-146.3895141235589
 10
62.25218639936751
 20
-146.4088066582763
 10
62.08923338291519
 20
-146.4088066582763
 10
61.94540064640602
 20
-146.4088066582763
 10
61.69373642120851
 20
-146.39158118085
 10
61.49478215693534
 20
-146.2858167494528
 10
61.29169377807986
 20
-146.1779852607645
 10
61.26843938355442
 20
-146.0170993016033
 10
61.26843938355442
 20
-145.888252730455
 10
61.26843938355442
 20
-145.729433828585
 10
61.31288111531414
 20
-145.5857733468501
 10
61.49478215693534
 20
-145.4905164566829
 10
61.6873629945608
 20
-145.3911254519335
 10
61.91577282523287
 20
-145.367871057408
 10
62.08923338291519
 20
-145.367871057408
 10
62.26062688330637
 20
-145.367871057408
 10
62.49127602604385
 20
-145.388886139868
 10
62.68368460889505
 20
-145.4905164566829
 97
        0
 97
        1
330
14F
 75
     2
 76
     1
 98
        1
 10
0.0
 20
0.0
450
        0
451
        0
460
0.0
461
0.0
452
        0
462
0.0
453
        0
470

  0
SPLINE
  5
151
330
14A
100
AcDbEntity
  8
レイヤー 1
100
AcDbSpline
210
0.0
220
0.0
230
1.0
 70
    11
 71
     3
 72
    17
 73
    13
 74
     0
 42
0.0000000001
 43
0.0000000001
 40
0.0
 40
0.0
 40
0.0
 40
0.0
 40
1.0
 40
1.0
 40
1.0
 40
2.0
 40
2.0
 40
2.0
 40
3.0
 40
3.0
 40
3.0
 40
4.0
 40
4.0
 40
4.0
 40
4.0
 10
62.86145153593395
 20
-145.1513468061601
 30
0.0
 10
62.86145153593395
 20
-145.1513468061601
 30
0.0
 10
62.60978731073644
 20
-145.1513468061601
 30
0.0
 10
62.60978731073644
 20
-145.1513468061601
 30
0.0
 10
62.60978731073644
 20
-145.1513468061601
 30
0.0
 10
62.60978731073644
 20
-144.8996825809626
 30
0.0
 10
62.60978731073644
 20
-144.8996825809626
 30
0.0
 10
62.60978731073644
 20
-144.8996825809626
 30
0.0
 10
62.86145153593395
 20
-144.8996825809626
 30
0.0
 10
62.86145153593395
 20
-144.8996825809626
 30
0.0
 10
62.86145153593395
 20
-144.8996825809626
 30
0.0
 10
62.86145153593395
 20
-145.1513468061601
 30
0.0
 10
62.86145153593395
 20
-145.1513468061601
 30
0.0
  0
HATCH
  5
152
330
14A
100
AcDbEntity
  8
レイヤー 1
 62
   250
420
  2299925
440
 33554687
100
AcDbHatch
 10
0.0
 20
0.0
 30
0.0
210
0.0
220
0.0
230
1.0
  2
SOLID
 70
     1
 71
     1
 91
        1
 92
        1
 93
        1
 72
     4
 94
        3
 73
     0
 74
     0
 95
       17
 96
       13
 40
0.0
 40
0.0
 40
0.0
 40
0.0
 40
1.0
 40
1.0
 40
1.0
 40
2.0
 40
2.0
 40
2.0
 40
3.0
 40
3.0
 40
3.0
 40
4.0
 40
4.0
 40
4.0
 40
4.0
 10
62.86145153593395
 20
-145.1513468061601
 10
62.86145153593395
 20
-145.1513468061601
 10
62.60978731073644
 20
-145.1513468061601
 10
62.60978731073644
 20
-145.1513468061601
 10
62.60978731073644
 20
-145.1513468061601
 10
62.60978731073644
 20
-144.8996825809626
 10
62.60978731073644
 20
-144.8996825809626
 10
62.60978731073644
 20
-144.8996825809626
 10
62.86145153593395
 20
-144.8996825809626
 10
62.86145153593395
 20
-144.8996825809626
 10
62.86145153593395
 20
-144.8996825809626
 10
62.86145153593395
 20
-145.1513468061601
 10
62.86145153593395
 20
-145.1513468061601
 97
        0
 97
        1
330
151
 75
     2
 76
     1
 98
        1
 10
0.0
 20
0.0
450
        0
451
        0
460
0.0
461
0.0
452
        0
462
0.0
453
        0
470

  0
SPLINE
  5
153
330
14A
100
AcDbEntity
  8
レイヤー 1
100
AcDbSpline
210
0.0
220
0.0
230
1.0
 70
     9
 71
     3
 72
    53
 73
    49
 74
     0
 42
0.0000000001
 43
0.0000000001
 40
0.0
 40
0.0
 40
0.0
 40
0.0
 40
1.0
 40
1.0
 40
1.0
 40
2.0
 40
2.0
 40
2.0
 40
3.0
 40
3.0
 40
3.0
 40
4.0
 40
4.0
 40
4.0
 40
5.0
 40
5.0
 40
5.0
 40
6.0
 40
6.0
 40
6.0
 40
7.0
 40
7.0
 40
7.0
 40
8.0
 40
8.0
 40
8.0
 40
9.0
 40
9.0
 40
9.0
 40
10.0
 40
10.0
 40
10.0
 40
11.0
 40
11.0
 40
11.0
 40
12.0
 40
12.0
 40
12.0
 40
13.0
 40
13.0
 40
13.0
 40
14.0
 40
14.0
 40
14.0
 40
15.0
 40
15.0
 40
15.0
 40
16.0
 40
16.0
 40
16.0
 40
16.0
 10
62.91226669434138
 20
-144.182069191385
 30
0.0
 10
62.91226669434138
 20
-144.2604451136745
 30
0.0
 10
62.89538572646366
 20
-144.3619031757151
 30
0.0
 10
62.8318237147608
 20
-144.4635334925299
 30
0.0
 10
62.72175291400706
 20
-144.6369940502123
 30
0.0
 10
62.5906670307933
 20
-144.6581813874465
 30
0.0
 10
62.48283554210498
 20
-144.6771294126154
 30
0.0
 10
62.48283554210498
 20
-144.6771294126154
 30
0.0
 10
62.48283554210498
 20
-144.4550930085911
 30
0.0
 10
62.48283554210498
 20
-144.4550930085911
 30
0.0
 10
62.68161755160391
 20
-144.3999714808271
 30
0.0
 10
62.71124537277705
 20
-144.2730197121956
 30
0.0
 10
62.71124537277705
 20
-144.1800021340938
 30
0.0
 10
62.71124537277705
 20
-144.040303512167
 30
0.0
 10
62.61185436802759
 20
-143.8880302917189
 30
0.0
 10
62.37913816799896
 20
-143.8880302917189
 30
0.0
 10
62.1231675734449
 20
-143.8880302917189
 30
0.0
 10
62.05340438986859
 20
-144.067864276049
 30
0.0
 10
62.05340438986859
 20
-144.1884426180327
 30
0.0
 10
62.05340438986859
 20
-144.220137496497
 30
0.0
 10
62.05340438986859
 20
-144.3619031757151
 30
0.0
 10
62.1824232157912
 20
-144.4507866392345
 30
0.0
 10
62.1824232157912
 20
-144.4507866392345
 30
0.0
 10
62.16330293584807
 20
-144.626314254208
 30
0.0
 10
62.16330293584807
 20
-144.626314254208
 30
0.0
 10
62.16330293584807
 20
-144.626314254208
 30
0.0
 10
61.3171874846707
 20
-144.5057359122242
 30
0.0
 10
61.3171874846707
 20
-144.5057359122242
 30
0.0
 10
61.3171874846707
 20
-144.5057359122242
 30
0.0
 10
61.3171874846707
 20
-143.727316587332
 30
0.0
 10
61.3171874846707
 20
-143.727316587332
 30
0.0
 10
61.3171874846707
 20
-143.727316587332
 30
0.0
 10
61.51183537958733
 20
-143.727316587332
 30
0.0
 10
61.51183537958733
 20
-143.727316587332
 30
0.0
 10
61.51183537958733
 20
-143.727316587332
 30
0.0
 10
61.51183537958733
 20
-144.3429551505462
 30
0.0
 10
61.51183537958733
 20
-144.3429551505462
 30
0.0
 10
61.51183537958733
 20
-144.3429551505462
 30
0.0
 10
61.934893105176
 20
-144.4084119647659
 30
0.0
 10
61.934893105176
 20
-144.4084119647659
 30
0.0
 10
61.90095891464629
 20
-144.3470892651285
 30
0.0
 10
61.86082355224313
 20
-144.2645792282568
 30
0.0
 10
61.86082355224313
 20
-144.1462401983384
 30
0.0
 10
61.86082355224313
 20
-143.8923366610755
 30
0.0
 10
62.04703096322088
 20
-143.6553140916903
 30
0.0
 10
62.36001788805583
 20
-143.6553140916903
 30
0.0
 10
62.67748343702161
 20
-143.6553140916903
 30
0.0
 10
62.91226669434138
 20
-143.8795898077801
 30
0.0
 10
62.91226669434138
 20
-144.182069191385
 30
0.0
  0
HATCH
  5
154
330
14A
100
AcDbEntity
  8
レイヤー 1
 62
   250
420
  2299925
440
 33554687
100
AcDbHatch
 10
0.0
 20
0.0
 30
0.0
210
0.0
220
0.0
230
1.0
  2
SOLID
 70
     1
 71
     1
 91
        1
 92
        1
 93
        1
 72
     4
 94
        3
 73
     0
 74
     0
 95
       53
 96
       49
 40
0.0
 40
0.0
 40
0.0
 40
0.0
 40
1.0
 40
1.0
 40
1.0
 40
2.0
 40
2.0
 40
2.0
 40
3.0
 40
3.0
 40
3.0
 40
4.0
 40
4.0
 40
4.0
 40
5.0
 40
5.0
 40
5.0
 40
6.0
 40
6.0
 40
6.0
 40
7.0
 40
7.0
 40
7.0
 40
8.0
 40
8.0
 40
8.0
 40
9.0
 40
9.0
 40
9.0
 40
10.0
 40
10.0
 40
10.0
 40
11.0
 40
11.0
 40
11.0
 40
12.0
 40
12.0
 40
12.0
 40
13.0
 40
13.0
 40
13.0
 40
14.0
 40
14.0
 40
14.0
 40
15.0
 40
15.0
 40
15.0
 40
16.0
 40
16.0
 40
16.0
 40
16.0
 10
62.91226669434138
 20
-144.182069191385
 10
62.91226669434138
 20
-144.2604451136745
 10
62.89538572646366
 20
-144.3619031757151
 10
62.8318237147608
 20
-144.4635334925299
 10
62.72175291400706
 20
-144.6369940502123
 10
62.5906670307933
 20
-144.6581813874465
 10
62.48283554210498
 20
-144.6771294126154
 10
62.48283554210498
 20
-144.6771294126154
 10
62.48283554210498
 20
-144.4550930085911
 10
62.48283554210498
 20
-144.4550930085911
 10
62.68161755160391
 20
-144.3999714808271
 10
62.71124537277705
 20
-144.2730197121956
 10
62.71124537277705
 20
-144.1800021340938
 10
62.71124537277705
 20
-144.040303512167
 10
62.61185436802759
 20
-143.8880302917189
 10
62.37913816799896
 20
-143.8880302917189
 10
62.1231675734449
 20
-143.8880302917189
 10
62.05340438986859
 20
-144.067864276049
 10
62.05340438986859
 20
-144.1884426180327
 10
62.05340438986859
 20
-144.220137496497
 10
62.05340438986859
 20
-144.3619031757151
 10
62.1824232157912
 20
-144.4507866392345
 10
62.1824232157912
 20
-144.4507866392345
 10
62.16330293584807
 20
-144.626314254208
 10
62.16330293584807
 20
-144.626314254208
 10
62.16330293584807
 20
-144.626314254208
 10
61.3171874846707
 20
-144.5057359122242
 10
61.3171874846707
 20
-144.5057359122242
 10
61.3171874846707
 20
-144.5057359122242
 10
61.3171874846707
 20
-143.727316587332
 10
61.3171874846707
 20
-143.727316587332
 10
61.3171874846707
 20
-143.727316587332
 10
61.51183537958733
 20
-143.727316587332
 10
61.51183537958733
 20
-143.727316587332
 10
61.51183537958733
 20
-143.727316587332
 10
61.51183537958733
 20
-144.3429551505462
 10
61.51183537958733
 20
-144.3429551505462
 10
61.51183537958733
 20
-144.3429551505462
 10
61.934893105176
 20
-144.4084119647659
 10
61.934893105176
 20
-144.4084119647659
 10
61.90095891464629
 20
-144.3470892651285
 10
61.86082355224313
 20
-144.2645792282568
 10
61.86082355224313
 20
-144.1462401983384
 10
61.86082355224313
 20
-143.8923366610755
 10
62.04703096322088
 20
-143.6553140916903
 10
62.36001788805583
 20
-143.6553140916903
 10
62.67748343702161
 20
-143.6553140916903
 10
62.91226669434138
 20
-143.8795898077801
 10
62.91226669434138
 20
-144.182069191385
 97
        0
 97
        1
330
153
 75
     2
 76
     1
 98
        1
 10
0.0
 20
0.0
450
        0
451
        0
460
0.0
461
0.0
452
        0
462
0.0
453
        0
470

  0
ENDBLK
  5
14D
330
14A
100
AcDbEntity
  8
0
100
AcDbBlockEnd
  0
BLOCK
  5
159
330
157
100
AcDbEntity
  8
0
100
AcDbBlockBegin
  2
Block_8
 70
     0
 10
0.0
 20
0.0
 30
0.0
  3
Block_8
  1

  0
INSERT
  5
15C
330
157
100
AcDbEntity
  8
レイヤー 1
100
AcDbBlockReference
  2
Block_9
 10
0.0
 20
0.0
 30
0.0
  0
ENDBLK
  5
15A
330
157
100
AcDbEntity
  8
0
100
AcDbBlockEnd
  0
BLOCK
  5
15D
330
15B
100
AcDbEntity
  8
0
100
AcDbBlockBegin
  2
Block_9
 70
     0
 10
0.0
 20
0.0
 30
0.0
  3
Block_9
  1

  0
SPLINE
  5
15F
330
15B
100
AcDbEntity
  8
レイヤー 1
100
AcDbSpline
210
0.0
220
0.0
230
1.0
 70
     9
 71
     3
 72
    44
 73
    40
 74
     0
 42
0.0000000001
 43
0.0000000001
 40
0.0
 40
0.0
 40
0.0
 40
0.0
 40
1.0
 40
1.0
 40
1.0
 40
2.0
 40
2.0
 40
2.0
 40
3.0
 40
3.0
 40
3.0
 40
4.0
 40
4.0
 40
4.0
 40
5.0
 40
5.0
 40
5.0
 40
6.0
 40
6.0
 40
6.0
 40
7.0
 40
7.0
 40
7.0
 40
8.0
 40
8.0
 40
8.0
 40
9.0
 40
9.0
 40
9.0
 40
10.0
 40
10.0
 40
10.0
 40
11.0
 40
11.0
 40
11.0
 40
12.0
 40
12.0
 40
12.0
 40
13.0
 40
13.0
 40
13.0
 40
13.0
 10
78.33130830289981
 20
-141.1348822346815
 30
0.0
 10
78.11340601345776
 20
-141.2935288817773
 30
0.0
 10
78.02021618058176
 20
-141.3675984347102
 30
0.0
 10
77.97164033423974
 20
-141.5114311712193
 30
0.0
 10
77.97164033423974
 20
-141.5114311712193
 30
0.0
 10
78.75005965913193
 20
-141.5114311712193
 30
0.0
 10
78.75005965913193
 20
-141.5114311712193
 30
0.0
 10
78.75005965913193
 20
-141.5114311712193
 30
0.0
 10
78.75005965913193
 20
-141.716586607366
 30
0.0
 10
78.75005965913193
 20
-141.716586607366
 30
0.0
 10
78.75005965913193
 20
-141.716586607366
 30
0.0
 10
77.72204316633338
 20
-141.716586607366
 30
0.0
 10
77.72204316633338
 20
-141.716586607366
 30
0.0
 10
77.75373804479769
 20
-141.358985695997
 30
0.0
 10
77.81936711379168
 20
-141.2807820284819
 30
0.0
 10
78.20435653426835
 20
-140.9824367594592
 30
0.0
 10
78.46032712882243
 20
-140.7836547499603
 30
0.0
 10
78.52578394304217
 20
-140.7159586236752
 30
0.0
 10
78.52578394304217
 20
-140.5784993138137
 30
0.0
 10
78.52578394304217
 20
-140.4599880291211
 30
0.0
 10
78.45395370217471
 20
-140.3289021459073
 30
0.0
 10
78.25723874996694
 20
-140.3289021459073
 30
0.0
 10
77.99696178605632
 20
-140.3289021459073
 30
0.0
 10
77.98852130211746
 20
-140.5593790338706
 30
0.0
 10
77.98421493276089
 20
-140.675823261272
 30
0.0
 10
77.98421493276089
 20
-140.675823261272
 30
0.0
 10
77.7601114714454
 20
-140.675823261272
 30
0.0
 10
77.7601114714454
 20
-140.675823261272
 30
0.0
 10
77.76855195538425
 20
-140.5488714926405
 30
0.0
 10
77.77905949661427
 20
-140.4367336345957
 30
0.0
 10
77.85950247619485
 20
-140.3182223499031
 30
0.0
 10
77.96940102217432
 20
-140.1575086455161
 30
0.0
 10
78.15560843315207
 20
-140.1235744549865
 30
0.0
 10
78.27205266055351
 20
-140.1235744549865
 30
0.0
 10
78.54921059234186
 20
-140.1235744549865
 30
0.0
 10
78.75643308577965
 20
-140.3077148086731
 30
0.0
 10
78.75643308577965
 20
-140.5805663711048
 30
0.0
 10
78.75643308577965
 20
-140.8089762017769
 30
0.0
 10
78.64016111315246
 20
-140.9085394613006
 30
0.0
 10
78.33130830289981
 20
-141.1348822346815
 30
0.0
  0
HATCH
  5
160
330
15B
100
AcDbEntity
  8
レイヤー 1
 62
   250
420
  2299925
440
 33554687
100
AcDbHatch
 10
0.0
 20
0.0
 30
0.0
210
0.0
220
0.0
230
1.0
  2
SOLID
 70
     1
 71
     1
 91
        1
 92
        1
 93
        1
 72
     4
 94
        3
 73
     0
 74
     0
 95
       44
 96
       40
 40
0.0
 40
0.0
 40
0.0
 40
0.0
 40
1.0
 40
1.0
 40
1.0
 40
2.0
 40
2.0
 40
2.0
 40
3.0
 40
3.0
 40
3.0
 40
4.0
 40
4.0
 40
4.0
 40
5.0
 40
5.0
 40
5.0
 40
6.0
 40
6.0
 40
6.0
 40
7.0
 40
7.0
 40
7.0
 40
8.0
 40
8.0
 40
8.0
 40
9.0
 40
9.0
 40
9.0
 40
10.0
 40
10.0
 40
10.0
 40
11.0
 40
11.0
 40
11.0
 40
12.0
 40
12.0
 40
12.0
 40
13.0
 40
13.0
 40
13.0
 40
13.0
 10
78.33130830289981
 20
-141.1348822346815
 10
78.11340601345776
 20
-141.2935288817773
 10
78.02021618058176
 20
-141.3675984347102
 10
77.97164033423974
 20
-141.5114311712193
 10
77.97164033423974
 20
-141.5114311712193
 10
78.75005965913193
 20
-141.5114311712193
 10
78.75005965913193
 20
-141.5114311712193
 10
78.75005965913193
 20
-141.5114311712193
 10
78.75005965913193
 20
-141.716586607366
 10
78.75005965913193
 20
-141.716586607366
 10
78.75005965913193
 20
-141.716586607366
 10
77.72204316633338
 20
-141.716586607366
 10
77.72204316633338
 20
-141.716586607366
 10
77.75373804479769
 20
-141.358985695997
 10
77.81936711379168
 20
-141.2807820284819
 10
78.20435653426835
 20
-140.9824367594592
 10
78.46032712882243
 20
-140.7836547499603
 10
78.52578394304217
 20
-140.7159586236752
 10
78.52578394304217
 20
-140.5784993138137
 10
78.52578394304217
 20
-140.4599880291211
 10
78.45395370217471
 20
-140.3289021459073
 10
78.25723874996694
 20
-140.3289021459073
 10
77.99696178605632
 20
-140.3289021459073
 10
77.98852130211746
 20
-140.5593790338706
 10
77.98421493276089
 20
-140.675823261272
 10
77.98421493276089
 20
-140.675823261272
 10
77.7601114714454
 20
-140.675823261272
 10
77.7601114714454
 20
-140.675823261272
 10
77.76855195538425
 20
-140.5488714926405
 10
77.77905949661427
 20
-140.4367336345957
 10
77.85950247619485
 20
-140.3182223499031
 10
77.96940102217432
 20
-140.1575086455161
 10
78.15560843315207
 20
-140.1235744549865
 10
78.27205266055351
 20
-140.1235744549865
 10
78.54921059234186
 20
-140.1235744549865
 10
78.75643308577965
 20
-140.3077148086731
 10
78.75643308577965
 20
-140.5805663711048
 10
78.75643308577965
 20
-140.8089762017769
 10
78.64016111315246
 20
-140.9085394613006
 10
78.33130830289981
 20
-141.1348822346815
 97
        0
 97
        1
330
15F
 75
     2
 76
     1
 98
        1
 10
0.0
 20
0.0
450
        0
451
        0
460
0.0
461
0.0
452
        0
462
0.0
453
        0
470

  0
SPLINE
  5
161
330
15B
100
AcDbEntity
  8
レイヤー 1
100
AcDbSpline
210
0.0
220
0.0
230
1.0
 70
    11
 71
     3
 72
    26
 73
    22
 74
     0
 42
0.0000000001
 43
0.0000000001
 40
0.0
 40
0.0
 40
0.0
 40
0.0
 40
1.0
 40
1.0
 40
1.0
 40
2.0
 40
2.0
 40
2.0
 40
3.0
 40
3.0
 40
3.0
 40
4.0
 40
4.0
 40
4.0
 40
5.0
 40
5.0
 40
5.0
 40
6.0
 40
6.0
 40
6.0
 40
7.0
 40
7.0
 40
7.0
 40
7.0
 10
79.36638724144313
 20
-141.716586607366
 30
0.0
 10
79.36638724144313
 20
-141.716586607366
 30
0.0
 10
79.36638724144313
 20
-140.6122612495692
 30
0.0
 10
79.36638724144313
 20
-140.6122612495692
 30
0.0
 10
79.36638724144313
 20
-140.6122612495692
 30
0.0
 10
79.03634709395619
 20
-140.6122612495692
 30
0.0
 10
79.03634709395619
 20
-140.6122612495692
 30
0.0
 10
79.03634709395619
 20
-140.6122612495692
 30
0.0
 10
79.03634709395619
 20
-140.4642943984776
 30
0.0
 10
79.03634709395619
 20
-140.4642943984776
 30
0.0
 10
79.36845429873428
 20
-140.4494804878911
 30
0.0
 10
79.41496308778515
 20
-140.2865274714388
 30
0.0
 10
79.4445909089583
 20
-140.1723225561027
 30
0.0
 10
79.4445909089583
 20
-140.1723225561027
 30
0.0
 10
79.5906629575329
 20
-140.1723225561027
 30
0.0
 10
79.5906629575329
 20
-140.1723225561027
 30
0.0
 10
79.5906629575329
 20
-140.1723225561027
 30
0.0
 10
79.5906629575329
 20
-141.716586607366
 30
0.0
 10
79.5906629575329
 20
-141.716586607366
 30
0.0
 10
79.5906629575329
 20
-141.716586607366
 30
0.0
 10
79.36638724144313
 20
-141.716586607366
 30
0.0
 10
79.36638724144313
 20
-141.716586607366
 30
0.0
  0
HATCH
  5
162
330
15B
100
AcDbEntity
  8
レイヤー 1
 62
   250
420
  2299925
440
 33554687
100
AcDbHatch
 10
0.0
 20
0.0
 30
0.0
210
0.0
220
0.0
230
1.0
  2
SOLID
 70
     1
 71
     1
 91
        1
 92
        1
 93
        1
 72
     4
 94
        3
 73
     0
 74
     0
 95
       26
 96
       22
 40
0.0
 40
0.0
 40
0.0
 40
0.0
 40
1.0
 40
1.0
 40
1.0
 40
2.0
 40
2.0
 40
2.0
 40
3.0
 40
3.0
 40
3.0
 40
4.0
 40
4.0
 40
4.0
 40
5.0
 40
5.0
 40
5.0
 40
6.0
 40
6.0
 40
6.0
 40
7.0
 40
7.0
 40
7.0
 40
7.0
 10
79.36638724144313
 20
-141.716586607366
 10
79.36638724144313
 20
-141.716586607366
 10
79.36638724144313
 20
-140.6122612495692
 10
79.36638724144313
 20
-140.6122612495692
 10
79.36638724144313
 20
-140.6122612495692
 10
79.03634709395619
 20
-140.6122612495692
 10
79.03634709395619
 20
-140.6122612495692
 10
79.03634709395619
 20
-140.6122612495692
 10
79.03634709395619
 20
-140.4642943984776
 10
79.03634709395619
 20
-140.4642943984776
 10
79.36845429873428
 20
-140.4494804878911
 10
79.41496308778515
 20
-140.2865274714388
 10
79.4445909089583
 20
-140.1723225561027
 10
79.4445909089583
 20
-140.1723225561027
 10
79.5906629575329
 20
-140.1723225561027
 10
79.5906629575329
 20
-140.1723225561027
 10
79.5906629575329
 20
-140.1723225561027
 10
79.5906629575329
 20
-141.716586607366
 10
79.5906629575329
 20
-141.716586607366
 10
79.5906629575329
 20
-141.716586607366
 10
79.36638724144313
 20
-141.716586607366
 10
79.36638724144313
 20
-141.716586607366
 97
        0
 97
        1
330
161
 75
     2
 76
     1
 98
        1
 10
0.0
 20
0.0
450
        0
451
        0
460
0.0
461
0.0
452
        0
462
0.0
453
        0
470

  0
ENDBLK
  5
15E
330
15B
100
AcDbEntity
  8
0
100
AcDbBlockEnd
  0
BLOCK
  5
167
330
165
100
AcDbEntity
  8
0
100
AcDbBlockBegin
  2
Block_10
 70
     0
 10
0.0
 20
0.0
 30
0.0
  3
Block_10
  1

  0
INSERT
  5
16A
330
165
100
AcDbEntity
  8
レイヤー 1
100
AcDbBlockReference
  2
Block_11
 10
0.0
 20
0.0
 30
0.0
  0
ENDBLK
  5
168
330
165
100
AcDbEntity
  8
0
100
AcDbBlockEnd
  0
BLOCK
  5
16B
330
169
100
AcDbEntity
  8
0
100
AcDbBlockBegin
  2
Block_11
 70
     0
 10
0.0
 20
0.0
 30
0.0
  3
Block_11
  1

  0
SPLINE
  5
16D
330
169
100
AcDbEntity
  8
レイヤー 1
100
AcDbSpline
210
0.0
220
0.0
230
1.0
 70
     9
 71
     3
 72
    44
 73
    40
 74
     0
 42
0.0000000001
 43
0.0000000001
 40
0.0
 40
0.0
 40
0.0
 40
0.0
 40
1.0
 40
1.0
 40
1.0
 40
2.0
 40
2.0
 40
2.0
 40
3.0
 40
3.0
 40
3.0
 40
4.0
 40
4.0
 40
4.0
 40
5.0
 40
5.0
 40
5.0
 40
6.0
 40
6.0
 40
6.0
 40
7.0
 40
7.0
 40
7.0
 40
8.0
 40
8.0
 40
8.0
 40
9.0
 40
9.0
 40
9.0
 40
10.0
 40
10.0
 40
10.0
 40
11.0
 40
11.0
 40
11.0
 40
12.0
 40
12.0
 40
12.0
 40
13.0
 40
13.0
 40
13.0
 40
13.0
 10
102.3298434531502
 20
-141.1348822346815
 30
0.0
 10
102.1121134184824
 20
-141.2935288817773
 30
0.0
 10
102.0190958403806
 20
-141.3675984347102
 30
0.0
 10
101.9701754844901
 20
-141.5114311712193
 30
0.0
 10
101.9701754844901
 20
-141.5114311712193
 30
0.0
 10
102.7487670641565
 20
-141.5114311712193
 30
0.0
 10
102.7487670641565
 20
-141.5114311712193
 30
0.0
 10
102.7487670641565
 20
-141.5114311712193
 30
0.0
 10
102.7487670641565
 20
-141.716586607366
 30
0.0
 10
102.7487670641565
 20
-141.716586607366
 30
0.0
 10
102.7487670641565
 20
-141.716586607366
 30
0.0
 10
101.720750571358
 20
-141.716586607366
 30
0.0
 10
101.720750571358
 20
-141.716586607366
 30
0.0
 10
101.7524454498223
 20
-141.358985695997
 30
0.0
 10
101.817902264042
 20
-141.2807820284819
 30
0.0
 10
102.203063939293
 20
-140.9824367594592
 30
0.0
 10
102.459034533847
 20
-140.7836547499603
 30
0.0
 10
102.5244913480668
 20
-140.7159586236752
 30
0.0
 10
102.5244913480668
 20
-140.5784993138137
 30
0.0
 10
102.5244913480668
 20
-140.4599880291211
 30
0.0
 10
102.4524888524251
 20
-140.3289021459073
 30
0.0
 10
102.2557739002173
 20
-140.3289021459073
 30
0.0
 10
101.9956691910809
 20
-140.3289021459073
 30
0.0
 10
101.9874009619163
 20
-140.5593790338706
 30
0.0
 10
101.9829223377855
 20
-140.675823261272
 30
0.0
 10
101.9829223377855
 20
-140.675823261272
 30
0.0
 10
101.7586466216957
 20
-140.675823261272
 30
0.0
 10
101.7586466216957
 20
-140.675823261272
 30
0.0
 10
101.7672593604089
 20
-140.5488714926405
 30
0.0
 10
101.7779391564131
 20
-140.4367336345957
 30
0.0
 10
101.8582098812194
 20
-140.3182223499031
 30
0.0
 10
101.9681084271989
 20
-140.1575086455161
 30
0.0
 10
102.154488092951
 20
-140.1235744549865
 30
0.0
 10
102.2705878108039
 20
-140.1235744549865
 30
0.0
 10
102.5479179973665
 20
-140.1235744549865
 30
0.0
 10
102.7553127455785
 20
-140.3077148086731
 30
0.0
 10
102.7553127455785
 20
-140.5805663711048
 30
0.0
 10
102.7553127455785
 20
-140.8089762017769
 30
0.0
 10
102.6388685181771
 20
-140.9085394613006
 30
0.0
 10
102.3298434531502
 20
-141.1348822346815
 30
0.0
  0
HATCH
  5
16E
330
169
100
AcDbEntity
  8
レイヤー 1
 62
   250
420
  2299925
440
 33554687
100
AcDbHatch
 10
0.0
 20
0.0
 30
0.0
210
0.0
220
0.0
230
1.0
  2
SOLID
 70
     1
 71
     1
 91
        1
 92
        1
 93
        1
 72
     4
 94
        3
 73
     0
 74
     0
 95
       44
 96
       40
 40
0.0
 40
0.0
 40
0.0
 40
0.0
 40
1.0
 40
1.0
 40
1.0
 40
2.0
 40
2.0
 40
2.0
 40
3.0
 40
3.0
 40
3.0
 40
4.0
 40
4.0
 40
4.0
 40
5.0
 40
5.0
 40
5.0
 40
6.0
 40
6.0
 40
6.0
 40
7.0
 40
7.0
 40
7.0
 40
8.0
 40
8.0
 40
8.0
 40
9.0
 40
9.0
 40
9.0
 40
10.0
 40
10.0
 40
10.0
 40
11.0
 40
11.0
 40
11.0
 40
12.0
 40
12.0
 40
12.0
 40
13.0
 40
13.0
 40
13.0
 40
13.0
 10
102.3298434531502
 20
-141.1348822346815
 10
102.1121134184824
 20
-141.2935288817773
 10
102.0190958403806
 20
-141.3675984347102
 10
101.9701754844901
 20
-141.5114311712193
 10
101.9701754844901
 20
-141.5114311712193
 10
102.7487670641565
 20
-141.5114311712193
 10
102.7487670641565
 20
-141.5114311712193
 10
102.7487670641565
 20
-141.5114311712193
 10
102.7487670641565
 20
-141.716586607366
 10
102.7487670641565
 20
-141.716586607366
 10
102.7487670641565
 20
-141.716586607366
 10
101.720750571358
 20
-141.716586607366
 10
101.720750571358
 20
-141.716586607366
 10
101.7524454498223
 20
-141.358985695997
 10
101.817902264042
 20
-141.2807820284819
 10
102.203063939293
 20
-140.9824367594592
 10
102.459034533847
 20
-140.7836547499603
 10
102.5244913480668
 20
-140.7159586236752
 10
102.5244913480668
 20
-140.5784993138137
 10
102.5244913480668
 20
-140.4599880291211
 10
102.4524888524251
 20
-140.3289021459073
 10
102.2557739002173
 20
-140.3289021459073
 10
101.9956691910809
 20
-140.3289021459073
 10
101.9874009619163
 20
-140.5593790338706
 10
101.9829223377855
 20
-140.675823261272
 10
101.9829223377855
 20
-140.675823261272
 10
101.7586466216957
 20
-140.675823261272
 10
101.7586466216957
 20
-140.675823261272
 10
101.7672593604089
 20
-140.5488714926405
 10
101.7779391564131
 20
-140.4367336345957
 10
101.8582098812194
 20
-140.3182223499031
 10
101.9681084271989
 20
-140.1575086455161
 10
102.154488092951
 20
-140.1235744549865
 10
102.2705878108039
 20
-140.1235744549865
 10
102.5479179973665
 20
-140.1235744549865
 10
102.7553127455785
 20
-140.3077148086731
 10
102.7553127455785
 20
-140.5805663711048
 10
102.7553127455785
 20
-140.8089762017769
 10
102.6388685181771
 20
-140.9085394613006
 10
102.3298434531502
 20
-141.1348822346815
 97
        0
 97
        1
330
16D
 75
     2
 76
     1
 98
        1
 10
0.0
 20
0.0
450
        0
451
        0
460
0.0
461
0.0
452
        0
462
0.0
453
        0
470

  0
SPLINE
  5
16F
330
169
100
AcDbEntity
  8
レイヤー 1
100
AcDbSpline
210
0.0
220
0.0
230
1.0
 70
    11
 71
     3
 72
    26
 73
    22
 74
     0
 42
0.0000000001
 43
0.0000000001
 40
0.0
 40
0.0
 40
0.0
 40
0.0
 40
1.0
 40
1.0
 40
1.0
 40
2.0
 40
2.0
 40
2.0
 40
3.0
 40
3.0
 40
3.0
 40
4.0
 40
4.0
 40
4.0
 40
5.0
 40
5.0
 40
5.0
 40
6.0
 40
6.0
 40
6.0
 40
7.0
 40
7.0
 40
7.0
 40
7.0
 10
103.3650946464677
 20
-141.716586607366
 30
0.0
 10
103.3650946464677
 20
-141.716586607366
 30
0.0
 10
103.3650946464677
 20
-140.6122612495692
 30
0.0
 10
103.3650946464677
 20
-140.6122612495692
 30
0.0
 10
103.3650946464677
 20
-140.6122612495692
 30
0.0
 10
103.0350544989808
 20
-140.6122612495692
 30
0.0
 10
103.0350544989808
 20
-140.6122612495692
 30
0.0
 10
103.0350544989808
 20
-140.6122612495692
 30
0.0
 10
103.0350544989808
 20
-140.4642943984776
 30
0.0
 10
103.0350544989808
 20
-140.4642943984776
 30
0.0
 10
103.3671617037589
 20
-140.4494804878911
 30
0.0
 10
103.4136704928098
 20
-140.2865274714388
 30
0.0
 10
103.4432983139829
 20
-140.1723225561027
 30
0.0
 10
103.4432983139829
 20
-140.1723225561027
 30
0.0
 10
103.5893703625575
 20
-140.1723225561027
 30
0.0
 10
103.5893703625575
 20
-140.1723225561027
 30
0.0
 10
103.5893703625575
 20
-140.1723225561027
 30
0.0
 10
103.5893703625575
 20
-141.716586607366
 30
0.0
 10
103.5893703625575
 20
-141.716586607366
 30
0.0
 10
103.5893703625575
 20
-141.716586607366
 30
0.0
 10
103.3650946464677
 20
-141.716586607366
 30
0.0
 10
103.3650946464677
 20
-141.716586607366
 30
0.0
  0
HATCH
  5
170
330
169
100
AcDbEntity
  8
レイヤー 1
 62
   250
420
  2299925
440
 33554687
100
AcDbHatch
 10
0.0
 20
0.0
 30
0.0
210
0.0
220
0.0
230
1.0
  2
SOLID
 70
     1
 71
     1
 91
        1
 92
        1
 93
        1
 72
     4
 94
        3
 73
     0
 74
     0
 95
       26
 96
       22
 40
0.0
 40
0.0
 40
0.0
 40
0.0
 40
1.0
 40
1.0
 40
1.0
 40
2.0
 40
2.0
 40
2.0
 40
3.0
 40
3.0
 40
3.0
 40
4.0
 40
4.0
 40
4.0
 40
5.0
 40
5.0
 40
5.0
 40
6.0
 40
6.0
 40
6.0
 40
7.0
 40
7.0
 40
7.0
 40
7.0
 10
103.3650946464677
 20
-141.716586607366
 10
103.3650946464677
 20
-141.716586607366
 10
103.3650946464677
 20
-140.6122612495692
 10
103.3650946464677
 20
-140.6122612495692
 10
103.3650946464677
 20
-140.6122612495692
 10
103.0350544989808
 20
-140.6122612495692
 10
103.0350544989808
 20
-140.6122612495692
 10
103.0350544989808
 20
-140.6122612495692
 10
103.0350544989808
 20
-140.4642943984776
 10
103.0350544989808
 20
-140.4642943984776
 10
103.3671617037589
 20
-140.4494804878911
 10
103.4136704928098
 20
-140.2865274714388
 10
103.4432983139829
 20
-140.1723225561027
 10
103.4432983139829
 20
-140.1723225561027
 10
103.5893703625575
 20
-140.1723225561027
 10
103.5893703625575
 20
-140.1723225561027
 10
103.5893703625575
 20
-140.1723225561027
 10
103.5893703625575
 20
-141.716586607366
 10
103.5893703625575
 20
-141.716586607366
 10
103.5893703625575
 20
-141.716586607366
 10
103.3650946464677
 20
-141.716586607366
 10
103.3650946464677
 20
-141.716586607366
 97
        0
 97
        1
330
16F
 75
     2
 76
     1
 98
        1
 10
0.0
 20
0.0
450
        0
451
        0
460
0.0
461
0.0
452
        0
462
0.0
453
        0
470

  0
ENDBLK
  5
16C
330
169
100
AcDbEntity
  8
0
100
AcDbBlockEnd
  0
BLOCK
  5
175
330
173
100
AcDbEntity
  8
0
100
AcDbBlockBegin
  2
Block_12
 70
     0
 10
0.0
 20
0.0
 30
0.0
  3
Block_12
  1

  0
SPLINE
  5
177
330
173
100
AcDbEntity
  8
レイヤー 1
100
AcDbSpline
210
0.0
220
0.0
230
1.0
 70
     9
 71
     3
 72
    53
 73
    49
 74
     0
 42
0.0000000001
 43
0.0000000001
 40
0.0
 40
0.0
 40
0.0
 40
0.0
 40
1.0
 40
1.0
 40
1.0
 40
2.0
 40
2.0
 40
2.0
 40
3.0
 40
3.0
 40
3.0
 40
4.0
 40
4.0
 40
4.0
 40
5.0
 40
5.0
 40
5.0
 40
6.0
 40
6.0
 40
6.0
 40
7.0
 40
7.0
 40
7.0
 40
8.0
 40
8.0
 40
8.0
 40
9.0
 40
9.0
 40
9.0
 40
10.0
 40
10.0
 40
10.0
 40
11.0
 40
11.0
 40
11.0
 40
12.0
 40
12.0
 40
12.0
 40
13.0
 40
13.0
 40
13.0
 40
14.0
 40
14.0
 40
14.0
 40
15.0
 40
15.0
 40
15.0
 40
16.0
 40
16.0
 40
16.0
 40
16.0
 10
62.9117499300186
 20
-150.4735025665483
 30
0.0
 10
62.9117499300186
 20
-150.5517062340634
 30
0.0
 10
62.89469670736661
 20
-150.6533365508783
 30
0.0
 10
62.83130695043801
 20
-150.7549668676932
 30
0.0
 10
62.72123614968428
 20
-150.9282551706013
 30
0.0
 10
62.59015026647052
 20
-150.9496147626098
 30
0.0
 10
62.4823187777822
 20
-150.9685627877787
 30
0.0
 10
62.4823187777822
 20
-150.9685627877787
 30
0.0
 10
62.4823187777822
 20
-150.74635412898
 30
0.0
 10
62.4823187777822
 20
-150.74635412898
 30
0.0
 10
62.68110078728112
 20
-150.6915771107646
 30
0.0
 10
62.71072860845427
 20
-150.5644530873589
 30
0.0
 10
62.71072860845427
 20
-150.4714355092571
 30
0.0
 10
62.71072860845427
 20
-150.3319091421045
 30
0.0
 10
62.6113376037048
 20
-150.1796359216565
 30
0.0
 10
62.37862140367617
 20
-150.1796359216565
 30
0.0
 10
62.12265080912212
 20
-150.1796359216565
 30
0.0
 10
62.0528876255458
 20
-150.3594699059865
 30
0.0
 10
62.0528876255458
 20
-150.4800482479702
 30
0.0
 10
62.0528876255458
 20
-150.5117431264345
 30
0.0
 10
62.0528876255458
 20
-150.6533365508783
 30
0.0
 10
62.18190645146841
 20
-150.7422200143978
 30
0.0
 10
62.18190645146841
 20
-150.7422200143978
 30
0.0
 10
62.16278617152528
 20
-150.9179198841455
 30
0.0
 10
62.16278617152528
 20
-150.9179198841455
 30
0.0
 10
62.16278617152528
 20
-150.9179198841455
 30
0.0
 10
61.31667072034792
 20
-150.7973415421617
 30
0.0
 10
61.31667072034792
 20
-150.7973415421617
 30
0.0
 10
61.31667072034792
 20
-150.7973415421617
 30
0.0
 10
61.31667072034792
 20
-150.0187499624953
 30
0.0
 10
61.31667072034792
 20
-150.0187499624953
 30
0.0
 10
61.31667072034792
 20
-150.0187499624953
 30
0.0
 10
61.51131861526454
 20
-150.0187499624953
 30
0.0
 10
61.51131861526454
 20
-150.0187499624953
 30
0.0
 10
61.51131861526454
 20
-150.0187499624953
 30
0.0
 10
61.51131861526454
 20
-150.6343885257094
 30
0.0
 10
61.51131861526454
 20
-150.6343885257094
 30
0.0
 10
61.51131861526454
 20
-150.6343885257094
 30
0.0
 10
61.93437634085321
 20
-150.6998453399292
 30
0.0
 10
61.93437634085321
 20
-150.6998453399292
 30
0.0
 10
61.90044215032351
 20
-150.6385226402917
 30
0.0
 10
61.86030678792034
 20
-150.5561848581943
 30
0.0
 10
61.86030678792034
 20
-150.4376735735017
 30
0.0
 10
61.86030678792034
 20
-150.1837700362388
 30
0.0
 10
62.0465141988981
 20
-149.9467474668536
 30
0.0
 10
62.35950112373305
 20
-149.9467474668536
 30
0.0
 10
62.67696667269881
 20
-149.9467474668536
 30
0.0
 10
62.9117499300186
 20
-150.1710231829433
 30
0.0
 10
62.9117499300186
 20
-150.4735025665483
 30
0.0
  0
HATCH
  5
178
330
173
100
AcDbEntity
  8
レイヤー 1
 62
   250
420
  2299925
440
 33554687
100
AcDbHatch
 10
0.0
 20
0.0
 30
0.0
210
0.0
220
0.0
230
1.0
  2
SOLID
 70
     1
 71
     1
 91
        1
 92
        1
 93
        1
 72
     4
 94
        3
 73
     0
 74
     0
 95
       53
 96
       49
 40
0.0
 40
0.0
 40
0.0
 40
0.0
 40
1.0
 40
1.0
 40
1.0
 40
2.0
 40
2.0
 40
2.0
 40
3.0
 40
3.0
 40
3.0
 40
4.0
 40
4.0
 40
4.0
 40
5.0
 40
5.0
 40
5.0
 40
6.0
 40
6.0
 40
6.0
 40
7.0
 40
7.0
 40
7.0
 40
8.0
 40
8.0
 40
8.0
 40
9.0
 40
9.0
 40
9.0
 40
10.0
 40
10.0
 40
10.0
 40
11.0
 40
11.0
 40
11.0
 40
12.0
 40
12.0
 40
12.0
 40
13.0
 40
13.0
 40
13.0
 40
14.0
 40
14.0
 40
14.0
 40
15.0
 40
15.0
 40
15.0
 40
16.0
 40
16.0
 40
16.0
 40
16.0
 10
62.9117499300186
 20
-150.4735025665483
 10
62.9117499300186
 20
-150.5517062340634
 10
62.89469670736661
 20
-150.6533365508783
 10
62.83130695043801
 20
-150.7549668676932
 10
62.72123614968428
 20
-150.9282551706013
 10
62.59015026647052
 20
-150.9496147626098
 10
62.4823187777822
 20
-150.9685627877787
 10
62.4823187777822
 20
-150.9685627877787
 10
62.4823187777822
 20
-150.74635412898
 10
62.4823187777822
 20
-150.74635412898
 10
62.68110078728112
 20
-150.6915771107646
 10
62.71072860845427
 20
-150.5644530873589
 10
62.71072860845427
 20
-150.4714355092571
 10
62.71072860845427
 20
-150.3319091421045
 10
62.6113376037048
 20
-150.1796359216565
 10
62.37862140367617
 20
-150.1796359216565
 10
62.12265080912212
 20
-150.1796359216565
 10
62.0528876255458
 20
-150.3594699059865
 10
62.0528876255458
 20
-150.4800482479702
 10
62.0528876255458
 20
-150.5117431264345
 10
62.0528876255458
 20
-150.6533365508783
 10
62.18190645146841
 20
-150.7422200143978
 10
62.18190645146841
 20
-150.7422200143978
 10
62.16278617152528
 20
-150.9179198841455
 10
62.16278617152528
 20
-150.9179198841455
 10
62.16278617152528
 20
-150.9179198841455
 10
61.31667072034792
 20
-150.7973415421617
 10
61.31667072034792
 20
-150.7973415421617
 10
61.31667072034792
 20
-150.7973415421617
 10
61.31667072034792
 20
-150.0187499624953
 10
61.31667072034792
 20
-150.0187499624953
 10
61.31667072034792
 20
-150.0187499624953
 10
61.51131861526454
 20
-150.0187499624953
 10
61.51131861526454
 20
-150.0187499624953
 10
61.51131861526454
 20
-150.0187499624953
 10
61.51131861526454
 20
-150.6343885257094
 10
61.51131861526454
 20
-150.6343885257094
 10
61.51131861526454
 20
-150.6343885257094
 10
61.93437634085321
 20
-150.6998453399292
 10
61.93437634085321
 20
-150.6998453399292
 10
61.90044215032351
 20
-150.6385226402917
 10
61.86030678792034
 20
-150.5561848581943
 10
61.86030678792034
 20
-150.4376735735017
 10
61.86030678792034
 20
-150.1837700362388
 10
62.0465141988981
 20
-149.9467474668536
 10
62.35950112373305
 20
-149.9467474668536
 10
62.67696667269881
 20
-149.9467474668536
 10
62.9117499300186
 20
-150.1710231829433
 10
62.9117499300186
 20
-150.4735025665483
 97
        0
 97
        1
330
177
 75
     2
 76
     1
 98
        1
 10
0.0
 20
0.0
450
        0
451
        0
460
0.0
461
0.0
452
        0
462
0.0
453
        0
470

  0
ENDBLK
  5
176
330
173
100
AcDbEntity
  8
0
100
AcDbBlockEnd
  0
BLOCK
  5
17B
330
179
100
AcDbEntity
  8
0
100
AcDbBlockBegin
  2
Block_13
 70
     0
 10
0.0
 20
0.0
 30
0.0
  3
Block_13
  1

  0
INSERT
  5
17E
330
179
100
AcDbEntity
  8
レイヤー 1
100
AcDbBlockReference
  2
Block_14
 10
0.0
 20
0.0
 30
0.0
  0
INSERT
  5
185
330
179
100
AcDbEntity
  8
レイヤー 1
100
AcDbBlockReference
  2
Block_15
 10
0.0
 20
0.0
 30
0.0
  0
ENDBLK
  5
17C
330
179
100
AcDbEntity
  8
0
100
AcDbBlockEnd
  0
BLOCK
  5
17F
330
17D
100
AcDbEntity
  8
0
100
AcDbBlockBegin
  2
Block_14
 70
     0
 10
0.0
 20
0.0
 30
0.0
  3
Block_14
  1

  0
LINE
  5
181
330
17D
100
AcDbEntity
  8
レイヤー 1
 62
    18
420
        0
370
     9
100
AcDbLine
 10
107.5919001254103
 20
-148.4253622937441
 30
0.0
 11
108.4032184380452
 21
-149.0099856269312
 31
0.0
  0
LINE
  5
182
330
17D
100
AcDbEntity
  8
レイヤー 1
 62
    18
420
        0
370
     9
100
AcDbLine
 10
107.5919001254103
 20
-148.4253622937441
 30
0.0
 11
110.1695449516707
 21
-151.582441181844
 31
0.0
  0
LINE
  5
183
330
17D
100
AcDbEntity
  8
レイヤー 1
 62
    18
420
        0
370
     9
100
AcDbLine
 10
107.5919001254103
 20
-148.4253622937441
 30
0.0
 11
108.0022159482756
 21
-149.3374339601827
 31
0.0
  0
ENDBLK
  5
180
330
17D
100
AcDbEntity
  8
0
100
AcDbBlockEnd
  0
BLOCK
  5
186
330
184
100
AcDbEntity
  8
0
100
AcDbBlockBegin
  2
Block_15
 70
     0
 10
0.0
 20
0.0
 30
0.0
  3
Block_15
  1

  0
INSERT
  5
189
330
184
100
AcDbEntity
  8
レイヤー 1
100
AcDbBlockReference
  2
Block_16
 10
0.0
 20
0.0
 30
0.0
  0
ENDBLK
  5
187
330
184
100
AcDbEntity
  8
0
100
AcDbBlockEnd
  0
BLOCK
  5
18A
330
188
100
AcDbEntity
  8
0
100
AcDbBlockBegin
  2
Block_16
 70
     0
 10
0.0
 20
0.0
 30
0.0
  3
Block_16
  1

  0
SPLINE
  5
18C
330
188
100
AcDbEntity
  8
レイヤー 1
100
AcDbSpline
210
0.0
220
0.0
230
1.0
 70
     9
 71
     3
 72
    17
 73
    13
 74
     0
 42
0.0000000001
 43
0.0000000001
 40
0.0
 40
0.0
 40
0.0
 40
0.0
 40
1.0
 40
1.0
 40
1.0
 40
2.0
 40
2.0
 40
2.0
 40
3.0
 40
3.0
 40
3.0
 40
4.0
 40
4.0
 40
4.0
 40
4.0
 10
111.8360676803743
 20
-152.0289631781386
 30
0.0
 10
111.8191867124966
 20
-152.0585909993117
 30
0.0
 10
111.7685438088634
 20
-152.1516085774135
 30
0.0
 10
111.7578640128591
 20
-152.1705566025823
 30
0.0
 10
111.9483777931934
 20
-152.2298122449286
 30
0.0
 10
111.9693928756535
 20
-152.2363579263506
 30
0.0
 10
112.0413953712952
 20
-152.2635741806841
 30
0.0
 10
112.0961723895107
 20
-152.1771022840043
 30
0.0
 10
112.1195990388104
 20
-152.1030327310714
 30
0.0
 10
112.1344129493969
 20
-152.0289631781386
 30
0.0
 10
112.1344129493969
 20
-152.0289631781386
 30
0.0
 10
111.8360676803743
 20
-152.0289631781386
 30
0.0
 10
111.8360676803743
 20
-152.0289631781386
 30
0.0
  0
SPLINE
  5
18D
330
188
100
AcDbEntity
  8
レイヤー 1
100
AcDbSpline
210
0.0
220
0.0
230
1.0
 70
    11
 71
     3
 72
    20
 73
    16
 74
     0
 42
0.0000000001
 43
0.0000000001
 40
0.0
 40
0.0
 40
0.0
 40
0.0
 40
1.0
 40
1.0
 40
1.0
 40
2.0
 40
2.0
 40
2.0
 40
3.0
 40
3.0
 40
3.0
 40
4.0
 40
4.0
 40
4.0
 40
5.0
 40
5.0
 40
5.0
 40
5.0
 10
111.7726779234457
 20
-151.1783691028304
 30
0.0
 10
111.7726779234457
 20
-151.1783691028304
 30
0.0
 10
111.7409830449814
 20
-151.1783691028304
 30
0.0
 10
111.7409830449814
 20
-151.1783691028304
 30
0.0
 10
111.7874918340323
 20
-151.2779323623541
 30
0.0
 10
111.8191867124966
 20
-151.3582030871604
 30
0.0
 10
111.852948648252
 20
-151.4853271105661
 30
0.0
 10
111.852948648252
 20
-151.4853271105661
 30
0.0
 10
112.0603433964641
 20
-151.4853271105661
 30
0.0
 10
112.0603433964641
 20
-151.4853271105661
 30
0.0
 10
112.0920382749284
 20
-151.3923095324644
 30
0.0
 10
112.1154649242281
 20
-151.3075601835272
 30
0.0
 10
112.1385470639792
 20
-151.1783691028304
 30
0.0
 10
112.1385470639792
 20
-151.1783691028304
 30
0.0
 10
111.7726779234457
 20
-151.1783691028304
 30
0.0
 10
111.7726779234457
 20
-151.1783691028304
 30
0.0
  0
SPLINE
  5
18E
330
188
100
AcDbEntity
  8
レイヤー 1
100
AcDbSpline
210
0.0
220
0.0
230
1.0
 70
     9
 71
     3
 72
   242
 73
   238
 74
     0
 42
0.0000000001
 43
0.0000000001
 40
0.0
 40
0.0
 40
0.0
 40
0.0
 40
1.0
 40
1.0
 40
1.0
 40
2.0
 40
2.0
 40
2.0
 40
3.0
 40
3.0
 40
3.0
 40
4.0
 40
4.0
 40
4.0
 40
5.0
 40
5.0
 40
5.0
 40
6.0
 40
6.0
 40
6.0
 40
7.0
 40
7.0
 40
7.0
 40
8.0
 40
8.0
 40
8.0
 40
9.0
 40
9.0
 40
9.0
 40
10.0
 40
10.0
 40
10.0
 40
11.0
 40
11.0
 40
11.0
 40
12.0
 40
12.0
 40
12.0
 40
13.0
 40
13.0
 40
13.0
 40
14.0
 40
14.0
 40
14.0
 40
15.0
 40
15.0
 40
15.0
 40
16.0
 40
16.0
 40
16.0
 40
17.0
 40
17.0
 40
17.0
 40
18.0
 40
18.0
 40
18.0
 40
19.0
 40
19.0
 40
19.0
 40
20.0
 40
20.0
 40
20.0
 40
21.0
 40
21.0
 40
21.0
 40
22.0
 40
22.0
 40
22.0
 40
23.0
 40
23.0
 40
23.0
 40
24.0
 40
24.0
 40
24.0
 40
25.0
 40
25.0
 40
25.0
 40
26.0
 40
26.0
 40
26.0
 40
27.0
 40
27.0
 40
27.0
 40
28.0
 40
28.0
 40
28.0
 40
29.0
 40
29.0
 40
29.0
 40
30.0
 40
30.0
 40
30.0
 40
31.0
 40
31.0
 40
31.0
 40
32.0
 40
32.0
 40
32.0
 40
33.0
 40
33.0
 40
33.0
 40
34.0
 40
34.0
 40
34.0
 40
35.0
 40
35.0
 40
35.0
 40
36.0
 40
36.0
 40
36.0
 40
37.0
 40
37.0
 40
37.0
 40
38.0
 40
38.0
 40
38.0
 40
39.0
 40
39.0
 40
39.0
 40
40.0
 40
40.0
 40
40.0
 40
41.0
 40
41.0
 40
41.0
 40
42.0
 40
42.0
 40
42.0
 40
43.0
 40
43.0
 40
43.0
 40
44.0
 40
44.0
 40
44.0
 40
45.0
 40
45.0
 40
45.0
 40
46.0
 40
46.0
 40
46.0
 40
47.0
 40
47.0
 40
47.0
 40
48.0
 40
48.0
 40
48.0
 40
49.0
 40
49.0
 40
49.0
 40
50.0
 40
50.0
 40
50.0
 40
51.0
 40
51.0
 40
51.0
 40
52.0
 40
52.0
 40
52.0
 40
53.0
 40
53.0
 40
53.0
 40
54.0
 40
54.0
 40
54.0
 40
55.0
 40
55.0
 40
55.0
 40
56.0
 40
56.0
 40
56.0
 40
57.0
 40
57.0
 40
57.0
 40
58.0
 40
58.0
 40
58.0
 40
59.0
 40
59.0
 40
59.0
 40
60.0
 40
60.0
 40
60.0
 40
61.0
 40
61.0
 40
61.0
 40
62.0
 40
62.0
 40
62.0
 40
63.0
 40
63.0
 40
63.0
 40
64.0
 40
64.0
 40
64.0
 40
65.0
 40
65.0
 40
65.0
 40
66.0
 40
66.0
 40
66.0
 40
67.0
 40
67.0
 40
67.0
 40
68.0
 40
68.0
 40
68.0
 40
69.0
 40
69.0
 40
69.0
 40
70.0
 40
70.0
 40
70.0
 40
71.0
 40
71.0
 40
71.0
 40
72.0
 40
72.0
 40
72.0
 40
73.0
 40
73.0
 40
73.0
 40
74.0
 40
74.0
 40
74.0
 40
75.0
 40
75.0
 40
75.0
 40
76.0
 40
76.0
 40
76.0
 40
77.0
 40
77.0
 40
77.0
 40
78.0
 40
78.0
 40
78.0
 40
79.0
 40
79.0
 40
79.0
 40
79.0
 10
112.4010633399553
 20
-151.6438015028876
 30
0.0
 10
112.4010633399553
 20
-151.6438015028876
 30
0.0
 10
112.1471598026924
 20
-151.6438015028876
 30
0.0
 10
112.1471598026924
 20
-151.6438015028876
 30
0.0
 10
112.1471598026924
 20
-151.6438015028876
 30
0.0
 10
111.8698296161297
 20
-151.6438015028876
 30
0.0
 10
111.8698296161297
 20
-151.6438015028876
 30
0.0
 10
111.8698296161297
 20
-151.6438015028876
 30
0.0
 10
111.9969536395355
 20
-151.6861761773562
 30
0.0
 10
111.9969536395355
 20
-151.6861761773562
 30
0.0
 10
112.0076334355397
 20
-151.6903102919385
 30
0.0
 10
112.0200357792866
 20
-151.6968559733605
 30
0.0
 10
112.0200357792866
 20
-151.7096028266559
 30
0.0
 10
112.0200357792866
 20
-151.7306179091159
 30
0.0
 10
111.9883409008223
 20
-151.7368190809894
 30
0.0
 10
111.9673258183623
 20
-151.7412977051202
 30
0.0
 10
111.956646022358
 20
-151.7643798448714
 30
0.0
 10
111.9270182011849
 20
-151.8301811686397
 30
0.0
 10
111.908070176016
 20
-151.8746229003994
 30
0.0
 10
111.908070176016
 20
-151.8746229003994
 30
0.0
 10
112.1788546811567
 20
-151.8746229003994
 30
0.0
 10
112.1788546811567
 20
-151.8746229003994
 30
0.0
 10
112.2698052019672
 20
-151.8746229003994
 30
0.0
 10
112.466520154175
 20
-151.8701442762685
 30
0.0
 10
112.6081135786188
 20
-151.8618760471039
 30
0.0
 10
112.6081135786188
 20
-151.8618760471039
 30
0.0
 10
112.6081135786188
 20
-152.0396429741428
 30
0.0
 10
112.6081135786188
 20
-152.0396429741428
 30
0.0
 10
112.5257757965213
 20
-152.035164350012
 30
0.0
 10
112.5047607140613
 20
-152.035164350012
 30
0.0
 10
112.3249267297312
 20
-152.0310302354297
 30
0.0
 10
112.293231851267
 20
-152.1853705131689
 30
0.0
 10
112.2487901195072
 20
-152.2659857475238
 30
0.0
 10
112.2043483877475
 20
-152.3355766763258
 30
0.0
 10
112.3249267297312
 20
-152.3948323186721
 30
0.0
 10
112.4306911611284
 20
-152.4627006997315
 30
0.0
 10
112.5343885352344
 20
-152.545038481829
 30
0.0
 10
112.5343885352344
 20
-152.545038481829
 30
0.0
 10
112.4158772505418
 20
-152.7121256128636
 30
0.0
 10
112.4158772505418
 20
-152.7121256128636
 30
0.0
 10
112.3924506012421
 20
-152.6931775876948
 30
0.0
 10
112.3797037479467
 20
-152.6845648489816
 30
0.0
 10
112.2677381446761
 20
-152.600160009593
 30
0.0
 10
112.2191622983341
 20
-152.5619194497067
 30
0.0
 10
112.1599066559878
 20
-152.5260904566601
 30
0.0
 10
112.0792914216329
 20
-152.4816487249004
 30
0.0
 10
111.8677625588386
 20
-152.6676838811039
 30
0.0
 10
111.6627793774662
 20
-152.6911105304036
 30
0.0
 10
111.3727023376082
 20
-152.7207383515767
 30
0.0
 10
111.3727023376082
 20
-152.7207383515767
 30
0.0
 10
111.2690049635022
 20
-152.5409043672467
 30
0.0
 10
111.2690049635022
 20
-152.5409043672467
 30
0.0
 10
111.5866427672422
 20
-152.5367702526644
 30
0.0
 10
111.7619981274414
 20
-152.5112765460736
 30
0.0
 10
111.9142713478895
 20
-152.4013780000941
 30
0.0
 10
111.7957600631969
 20
-152.3503905869124
 30
0.0
 10
111.707221109226
 20
-152.3228298230304
 30
0.0
 10
111.6710476066308
 20
-152.3104274792835
 30
0.0
 10
111.652099581462
 20
-152.3376437336169
 30
0.0
 10
111.6372856708754
 20
-152.3569362683343
 30
0.0
 10
111.6097249069934
 20
-152.3906982040898
 30
0.0
 10
111.6097249069934
 20
-152.3906982040898
 30
0.0
 10
111.4130099547856
 20
-152.3080159124438
 30
0.0
 10
111.4130099547856
 20
-152.3080159124438
 30
0.0
 10
111.4956922464316
 20
-152.2277451876375
 30
0.0
 10
111.5570149460691
 20
-152.1326605522446
 30
0.0
 10
111.6138590215757
 20
-152.0310302354297
 30
0.0
 10
111.4236897507899
 20
-152.035164350012
 30
0.0
 10
111.4023301587813
 20
-152.035164350012
 30
0.0
 10
111.3199923766839
 20
-152.0396429741428
 30
0.0
 10
111.3199923766839
 20
-152.0396429741428
 30
0.0
 10
111.3199923766839
 20
-151.8618760471039
 30
0.0
 10
111.3199923766839
 20
-151.8618760471039
 30
0.0
 10
111.4595187438365
 20
-151.8680772189774
 30
0.0
 10
111.6689805493397
 20
-151.8722113335597
 30
0.0
 10
111.6944742559305
 20
-151.8722113335597
 30
0.0
 10
111.7113552238083
 20
-151.8384493978043
 30
0.0
 10
111.7664767515722
 20
-151.7178710558205
 30
0.0
 10
111.7854247767411
 20
-151.6438015028876
 30
0.0
 10
111.7664767515722
 20
-151.6438015028876
 30
0.0
 10
111.5887098245334
 20
-151.6503471843096
 30
0.0
 10
111.3940619296167
 20
-151.663094037605
 30
0.0
 10
111.3940619296167
 20
-151.663094037605
 30
0.0
 10
111.3940619296167
 20
-151.7960747233357
 30
0.0
 10
111.3940619296167
 20
-151.7960747233357
 30
0.0
 10
111.3454860832747
 20
-151.8215684299265
 30
0.0
 10
111.2862304409284
 20
-151.8532633083908
 30
0.0
 10
111.1529052456493
 20
-151.9190646321591
 30
0.0
 10
111.1529052456493
 20
-151.9190646321591
 30
0.0
 10
111.1529052456493
 20
-152.0647921711852
 30
0.0
 10
111.1529052456493
 20
-152.0647921711852
 30
0.0
 10
111.1529052456493
 20
-152.0647921711852
 30
0.0
 10
111.1529052456493
 20
-152.5322916285336
 30
0.0
 10
111.1529052456493
 20
-152.5322916285336
 30
0.0
 10
111.1529052456493
 20
-152.6594156519393
 30
0.0
 10
111.1167317430541
 20
-152.7186712942856
 30
0.0
 10
110.8332003846181
 20
-152.7100585555725
 30
0.0
 10
110.8332003846181
 20
-152.7100585555725
 30
0.0
 10
110.7298475200606
 20
-152.5026638073604
 30
0.0
 10
110.7298475200606
 20
-152.5026638073604
 30
0.0
 10
110.7932372769892
 20
-152.5154106606558
 30
0.0
 10
110.8418131233312
 20
-152.5198892847867
 30
0.0
 10
110.8821207405086
 20
-152.5198892847867
 30
0.0
 10
110.9582573507326
 20
-152.5198892847867
 30
0.0
 10
110.9685926371884
 20
-152.496462635487
 30
0.0
 10
110.9685926371884
 20
-152.4310058212672
 30
0.0
 10
110.9685926371884
 20
-152.4310058212672
 30
0.0
 10
110.9685926371884
 20
-152.0014024142566
 30
0.0
 10
110.9685926371884
 20
-152.0014024142566
 30
0.0
 10
110.8714409445044
 20
-152.041710031434
 30
0.0
 10
110.8545599766266
 20
-152.0479112033074
 30
0.0
 10
110.8080511875757
 20
-152.0668592284763
 30
0.0
 10
110.8039170729934
 20
-152.0882188204849
 30
0.0
 10
110.7994384488626
 20
-152.117846641658
 30
0.0
 10
110.7804904236938
 20
-152.117846641658
 30
0.0
 10
110.7718776849806
 20
-152.117846641658
 30
0.0
 10
110.7615423985249
 20
-152.1133680175272
 30
0.0
 10
110.7549967171029
 20
-152.090285877776
 30
0.0
 10
110.7549967171029
 20
-152.090285877776
 30
0.0
 10
110.7022867561786
 20
-151.8977050401506
 30
0.0
 10
110.7022867561786
 20
-151.8977050401506
 30
0.0
 10
110.8480142952046
 20
-151.8511962510997
 30
0.0
 10
110.9138156189729
 20
-151.8281141113485
 30
0.0
 10
110.9685926371884
 20
-151.80675451934
 30
0.0
 10
110.9685926371884
 20
-151.80675451934
 30
0.0
 10
110.9685926371884
 20
-151.3943765897556
 30
0.0
 10
110.9685926371884
 20
-151.3943765897556
 30
0.0
 10
110.9685926371884
 20
-151.3943765897556
 30
0.0
 10
110.9158826762641
 20
-151.3943765897556
 30
0.0
 10
110.9158826762641
 20
-151.3943765897556
 30
0.0
 10
110.9158826762641
 20
-151.3943765897556
 30
0.0
 10
110.8376790087489
 20
-151.3943765897556
 30
0.0
 10
110.8376790087489
 20
-151.3943765897556
 30
0.0
 10
110.7698106276895
 20
-151.3943765897556
 30
0.0
 10
110.7615423985249
 20
-151.3943765897556
 30
0.0
 10
110.7253688959298
 20
-151.400577761629
 30
0.0
 10
110.7253688959298
 20
-151.400577761629
 30
0.0
 10
110.7253688959298
 20
-151.2059298667124
 30
0.0
 10
110.7253688959298
 20
-151.2059298667124
 30
0.0
 10
110.7529296598118
 20
-151.2124755481344
 30
0.0
 10
110.7615423985249
 20
-151.2124755481344
 30
0.0
 10
110.8311333273269
 20
-151.2124755481344
 30
0.0
 10
110.8311333273269
 20
-151.2124755481344
 30
0.0
 10
110.9644585226061
 20
-151.2124755481344
 30
0.0
 10
110.9644585226061
 20
-151.2124755481344
 30
0.0
 10
110.9644585226061
 20
-151.1425401097838
 30
0.0
 10
110.9644585226061
 20
-151.0598578181378
 30
0.0
 10
110.9623914653149
 20
-151.0557237035555
 30
0.0
 10
110.9541232361503
 20
-150.8758897192255
 30
0.0
 10
110.9541232361503
 20
-150.8569416940566
 30
0.0
 10
110.9517116693107
 20
-150.8104329050057
 30
0.0
 10
110.9517116693107
 20
-150.8104329050057
 30
0.0
 10
111.1677191562358
 20
-150.8187011341703
 30
0.0
 10
111.1677191562358
 20
-150.8187011341703
 30
0.0
 10
111.1780544426916
 20
-150.8187011341703
 30
0.0
 10
111.1994140347001
 20
-150.82111270101
 30
0.0
 10
111.1994140347001
 20
-150.8379936688877
 30
0.0
 10
111.1994140347001
 20
-150.8569416940566
 30
0.0
 10
111.1846001241135
 20
-150.8676214900608
 30
0.0
 10
111.1591064175227
 20
-150.8865695152297
 30
0.0
 10
111.1591064175227
 20
-150.9372124188629
 30
0.0
 10
111.1529052456493
 20
-151.1659667590835
 30
0.0
 10
111.1549723029404
 20
-151.2124755481344
 30
0.0
 10
111.2838188740887
 20
-151.2124755481344
 30
0.0
 10
111.2965657273842
 20
-151.2124755481344
 30
0.0
 10
111.3940619296167
 20
-151.2038628094212
 30
0.0
 10
111.3940619296167
 20
-151.2038628094212
 30
0.0
 10
111.3940619296167
 20
-151.3985107043378
 30
0.0
 10
111.3940619296167
 20
-151.3985107043378
 30
0.0
 10
111.3558213697305
 20
-151.3964436470467
 30
0.0
 10
111.2882974982196
 20
-151.3923095324644
 30
0.0
 10
111.1529052456493
 20
-151.3943765897556
 30
0.0
 10
111.1529052456493
 20
-151.3943765897556
 30
0.0
 10
111.1529052456493
 20
-151.7326849664071
 30
0.0
 10
111.1529052456493
 20
-151.7326849664071
 30
0.0
 10
111.2076822638647
 20
-151.7096028266559
 30
0.0
 10
111.273483587633
 20
-151.6820420627739
 30
0.0
 10
111.322059433975
 20
-151.6586154134742
 30
0.0
 10
111.322059433975
 20
-151.6586154134742
 30
0.0
 10
111.322059433975
 20
-151.4808484864353
 30
0.0
 10
111.322059433975
 20
-151.4808484864353
 30
0.0
 10
111.4364366040853
 20
-151.4935953397307
 30
0.0
 10
111.5546033792294
 20
-151.4935953397307
 30
0.0
 10
111.6710476066308
 20
-151.4935953397307
 30
0.0
 10
111.6479654668797
 20
-151.3985107043378
 30
0.0
 10
111.6204047029976
 20
-151.3158284126918
 30
0.0
 10
111.5570149460691
 20
-151.1828477269612
 30
0.0
 10
111.5125732143093
 20
-151.1849147842523
 30
0.0
 10
111.4298909226633
 20
-151.1890488988347
 30
0.0
 10
111.3919948723256
 20
-151.1911159561258
 30
0.0
 10
111.3919948723256
 20
-151.1911159561258
 30
0.0
 10
111.3919948723256
 20
-151.0112819717958
 30
0.0
 10
111.3919948723256
 20
-151.0112819717958
 30
0.0
 10
111.5167073288916
 20
-151.0198947105089
 30
0.0
 10
111.6899956317997
 20
-151.0240288250912
 30
0.0
 10
111.7726779234457
 20
-151.0240288250912
 30
0.0
 10
111.7726779234457
 20
-151.0240288250912
 30
0.0
 10
111.8550157055432
 20
-151.0240288250912
 30
0.0
 10
111.8550157055432
 20
-151.0240288250912
 30
0.0
 10
111.8550157055432
 20
-150.8610758086389
 30
0.0
 10
111.8550157055432
 20
-150.8507405221831
 30
0.0
 10
111.852948648252
 20
-150.7956189944191
 30
0.0
 10
111.852948648252
 20
-150.7956189944191
 30
0.0
 10
112.0772243643418
 20
-150.82111270101
 30
0.0
 10
112.0772243643418
 20
-150.82111270101
 30
0.0
 10
112.0813584789241
 20
-150.82111270101
 30
0.0
 10
112.1027180709326
 20
-150.8231797583011
 30
0.0
 10
112.1027180709326
 20
-150.8400607261789
 30
0.0
 10
112.1027180709326
 20
-150.8548746367654
 30
0.0
 10
112.0920382749284
 20
-150.86314286593
 30
0.0
 10
112.0644775110464
 20
-150.8779567765166
 30
0.0
 10
112.0582763391729
 20
-150.9437581002849
 30
0.0
 10
112.0562092818818
 20
-150.9647731827449
 30
0.0
 10
112.0562092818818
 20
-151.0240288250912
 30
0.0
 10
112.0562092818818
 20
-151.0240288250912
 30
0.0
 10
112.1512939172747
 20
-151.0240288250912
 30
0.0
 10
112.1512939172747
 20
-151.0240288250912
 30
0.0
 10
112.2339762089207
 20
-151.0240288250912
 30
0.0
 10
112.4072645118287
 20
-151.0198947105089
 30
0.0
 10
112.5319769683948
 20
-151.0112819717958
 30
0.0
 10
112.5319769683948
 20
-151.0112819717958
 30
0.0
 10
112.5319769683948
 20
-151.1911159561258
 30
0.0
 10
112.5319769683948
 20
-151.1911159561258
 30
0.0
 10
112.5023491472216
 20
-151.1890488988347
 30
0.0
 10
112.3841823720775
 20
-151.1849147842523
 30
0.0
 10
112.3438747549001
 20
-151.1828477269612
 30
0.0
 10
112.3290608443135
 20
-151.2334906305944
 30
0.0
 10
112.2952989085581
 20
-151.345456233865
 30
0.0
 10
112.2294975847898
 20
-151.4853271105661
 30
0.0
 10
112.2718722592584
 20
-151.4853271105661
 30
0.0
 10
112.549202445821
 20
-151.4660345758487
 30
0.0
 10
112.6105251454585
 20
-151.4639675185576
 30
0.0
 10
112.6105251454585
 20
-151.4639675185576
 30
0.0
 10
112.6105251454585
 20
-151.6482801270185
 30
0.0
 10
112.6105251454585
 20
-151.6482801270185
 30
0.0
 10
112.5808973242853
 20
-151.6482801270185
 30
0.0
 10
112.5640163564076
 20
-151.6438015028876
 30
0.0
 10
112.4010633399553
 20
-151.6438015028876
 30
0.0
  0
HATCH
  5
18F
330
188
100
AcDbEntity
  8
レイヤー 1
 62
    18
420
        0
440
 33554687
100
AcDbHatch
 10
0.0
 20
0.0
 30
0.0
210
0.0
220
0.0
230
1.0
  2
SOLID
 70
     1
 71
     1
 91
        3
 92
        1
 93
        1
 72
     4
 94
        3
 73
     0
 74
     0
 95
       17
 96
       13
 40
0.0
 40
0.0
 40
0.0
 40
0.0
 40
1.0
 40
1.0
 40
1.0
 40
2.0
 40
2.0
 40
2.0
 40
3.0
 40
3.0
 40
3.0
 40
4.0
 40
4.0
 40
4.0
 40
4.0
 10
111.8360676803743
 20
-152.0289631781386
 10
111.8191867124966
 20
-152.0585909993117
 10
111.7685438088634
 20
-152.1516085774135
 10
111.7578640128591
 20
-152.1705566025823
 10
111.9483777931934
 20
-152.2298122449286
 10
111.9693928756535
 20
-152.2363579263506
 10
112.0413953712952
 20
-152.2635741806841
 10
112.0961723895107
 20
-152.1771022840043
 10
112.1195990388104
 20
-152.1030327310714
 10
112.1344129493969
 20
-152.0289631781386
 10
112.1344129493969
 20
-152.0289631781386
 10
111.8360676803743
 20
-152.0289631781386
 10
111.8360676803743
 20
-152.0289631781386
 97
        0
 97
        1
330
18C
 92
        1
 93
        1
 72
     4
 94
        3
 73
     0
 74
     0
 95
       20
 96
       16
 40
0.0
 40
0.0
 40
0.0
 40
0.0
 40
1.0
 40
1.0
 40
1.0
 40
2.0
 40
2.0
 40
2.0
 40
3.0
 40
3.0
 40
3.0
 40
4.0
 40
4.0
 40
4.0
 40
5.0
 40
5.0
 40
5.0
 40
5.0
 10
111.7726779234457
 20
-151.1783691028304
 10
111.7726779234457
 20
-151.1783691028304
 10
111.7409830449814
 20
-151.1783691028304
 10
111.7409830449814
 20
-151.1783691028304
 10
111.7874918340323
 20
-151.2779323623541
 10
111.8191867124966
 20
-151.3582030871604
 10
111.852948648252
 20
-151.4853271105661
 10
111.852948648252
 20
-151.4853271105661
 10
112.0603433964641
 20
-151.4853271105661
 10
112.0603433964641
 20
-151.4853271105661
 10
112.0920382749284
 20
-151.3923095324644
 10
112.1154649242281
 20
-151.3075601835272
 10
112.1385470639792
 20
-151.1783691028304
 10
112.1385470639792
 20
-151.1783691028304
 10
111.7726779234457
 20
-151.1783691028304
 10
111.7726779234457
 20
-151.1783691028304
 97
        0
 97
        1
330
18D
 92
        1
 93
        1
 72
     4
 94
        3
 73
     0
 74
     0
 95
      242
 96
      238
 40
0.0
 40
0.0
 40
0.0
 40
0.0
 40
1.0
 40
1.0
 40
1.0
 40
2.0
 40
2.0
 40
2.0
 40
3.0
 40
3.0
 40
3.0
 40
4.0
 40
4.0
 40
4.0
 40
5.0
 40
5.0
 40
5.0
 40
6.0
 40
6.0
 40
6.0
 40
7.0
 40
7.0
 40
7.0
 40
8.0
 40
8.0
 40
8.0
 40
9.0
 40
9.0
 40
9.0
 40
10.0
 40
10.0
 40
10.0
 40
11.0
 40
11.0
 40
11.0
 40
12.0
 40
12.0
 40
12.0
 40
13.0
 40
13.0
 40
13.0
 40
14.0
 40
14.0
 40
14.0
 40
15.0
 40
15.0
 40
15.0
 40
16.0
 40
16.0
 40
16.0
 40
17.0
 40
17.0
 40
17.0
 40
18.0
 40
18.0
 40
18.0
 40
19.0
 40
19.0
 40
19.0
 40
20.0
 40
20.0
 40
20.0
 40
21.0
 40
21.0
 40
21.0
 40
22.0
 40
22.0
 40
22.0
 40
23.0
 40
23.0
 40
23.0
 40
24.0
 40
24.0
 40
24.0
 40
25.0
 40
25.0
 40
25.0
 40
26.0
 40
26.0
 40
26.0
 40
27.0
 40
27.0
 40
27.0
 40
28.0
 40
28.0
 40
28.0
 40
29.0
 40
29.0
 40
29.0
 40
30.0
 40
30.0
 40
30.0
 40
31.0
 40
31.0
 40
31.0
 40
32.0
 40
32.0
 40
32.0
 40
33.0
 40
33.0
 40
33.0
 40
34.0
 40
34.0
 40
34.0
 40
35.0
 40
35.0
 40
35.0
 40
36.0
 40
36.0
 40
36.0
 40
37.0
 40
37.0
 40
37.0
 40
38.0
 40
38.0
 40
38.0
 40
39.0
 40
39.0
 40
39.0
 40
40.0
 40
40.0
 40
40.0
 40
41.0
 40
41.0
 40
41.0
 40
42.0
 40
42.0
 40
42.0
 40
43.0
 40
43.0
 40
43.0
 40
44.0
 40
44.0
 40
44.0
 40
45.0
 40
45.0
 40
45.0
 40
46.0
 40
46.0
 40
46.0
 40
47.0
 40
47.0
 40
47.0
 40
48.0
 40
48.0
 40
48.0
 40
49.0
 40
49.0
 40
49.0
 40
50.0
 40
50.0
 40
50.0
 40
51.0
 40
51.0
 40
51.0
 40
52.0
 40
52.0
 40
52.0
 40
53.0
 40
53.0
 40
53.0
 40
54.0
 40
54.0
 40
54.0
 40
55.0
 40
55.0
 40
55.0
 40
56.0
 40
56.0
 40
56.0
 40
57.0
 40
57.0
 40
57.0
 40
58.0
 40
58.0
 40
58.0
 40
59.0
 40
59.0
 40
59.0
 40
60.0
 40
60.0
 40
60.0
 40
61.0
 40
61.0
 40
61.0
 40
62.0
 40
62.0
 40
62.0
 40
63.0
 40
63.0
 40
63.0
 40
64.0
 40
64.0
 40
64.0
 40
65.0
 40
65.0
 40
65.0
 40
66.0
 40
66.0
 40
66.0
 40
67.0
 40
67.0
 40
67.0
 40
68.0
 40
68.0
 40
68.0
 40
69.0
 40
69.0
 40
69.0
 40
70.0
 40
70.0
 40
70.0
 40
71.0
 40
71.0
 40
71.0
 40
72.0
 40
72.0
 40
72.0
 40
73.0
 40
73.0
 40
73.0
 40
74.0
 40
74.0
 40
74.0
 40
75.0
 40
75.0
 40
75.0
 40
76.0
 40
76.0
 40
76.0
 40
77.0
 40
77.0
 40
77.0
 40
78.0
 40
78.0
 40
78.0
 40
79.0
 40
79.0
 40
79.0
 40
79.0
 10
112.4010633399553
 20
-151.6438015028876
 10
112.4010633399553
 20
-151.6438015028876
 10
112.1471598026924
 20
-151.6438015028876
 10
112.1471598026924
 20
-151.6438015028876
 10
112.1471598026924
 20
-151.6438015028876
 10
111.8698296161297
 20
-151.6438015028876
 10
111.8698296161297
 20
-151.6438015028876
 10
111.8698296161297
 20
-151.6438015028876
 10
111.9969536395355
 20
-151.6861761773562
 10
111.9969536395355
 20
-151.6861761773562
 10
112.0076334355397
 20
-151.6903102919385
 10
112.0200357792866
 20
-151.6968559733605
 10
112.0200357792866
 20
-151.7096028266559
 10
112.0200357792866
 20
-151.7306179091159
 10
111.9883409008223
 20
-151.7368190809894
 10
111.9673258183623
 20
-151.7412977051202
 10
111.956646022358
 20
-151.7643798448714
 10
111.9270182011849
 20
-151.8301811686397
 10
111.908070176016
 20
-151.8746229003994
 10
111.908070176016
 20
-151.8746229003994
 10
112.1788546811567
 20
-151.8746229003994
 10
112.1788546811567
 20
-151.8746229003994
 10
112.2698052019672
 20
-151.8746229003994
 10
112.466520154175
 20
-151.8701442762685
 10
112.6081135786188
 20
-151.8618760471039
 10
112.6081135786188
 20
-151.8618760471039
 10
112.6081135786188
 20
-152.0396429741428
 10
112.6081135786188
 20
-152.0396429741428
 10
112.5257757965213
 20
-152.035164350012
 10
112.5047607140613
 20
-152.035164350012
 10
112.3249267297312
 20
-152.0310302354297
 10
112.293231851267
 20
-152.1853705131689
 10
112.2487901195072
 20
-152.2659857475238
 10
112.2043483877475
 20
-152.3355766763258
 10
112.3249267297312
 20
-152.3948323186721
 10
112.4306911611284
 20
-152.4627006997315
 10
112.5343885352344
 20
-152.545038481829
 10
112.5343885352344
 20
-152.545038481829
 10
112.4158772505418
 20
-152.7121256128636
 10
112.4158772505418
 20
-152.7121256128636
 10
112.3924506012421
 20
-152.6931775876948
 10
112.3797037479467
 20
-152.6845648489816
 10
112.2677381446761
 20
-152.600160009593
 10
112.2191622983341
 20
-152.5619194497067
 10
112.1599066559878
 20
-152.5260904566601
 10
112.0792914216329
 20
-152.4816487249004
 10
111.8677625588386
 20
-152.6676838811039
 10
111.6627793774662
 20
-152.6911105304036
 10
111.3727023376082
 20
-152.7207383515767
 10
111.3727023376082
 20
-152.7207383515767
 10
111.2690049635022
 20
-152.5409043672467
 10
111.2690049635022
 20
-152.5409043672467
 10
111.5866427672422
 20
-152.5367702526644
 10
111.7619981274414
 20
-152.5112765460736
 10
111.9142713478895
 20
-152.4013780000941
 10
111.7957600631969
 20
-152.3503905869124
 10
111.707221109226
 20
-152.3228298230304
 10
111.6710476066308
 20
-152.3104274792835
 10
111.652099581462
 20
-152.3376437336169
 10
111.6372856708754
 20
-152.3569362683343
 10
111.6097249069934
 20
-152.3906982040898
 10
111.6097249069934
 20
-152.3906982040898
 10
111.4130099547856
 20
-152.3080159124438
 10
111.4130099547856
 20
-152.3080159124438
 10
111.4956922464316
 20
-152.2277451876375
 10
111.5570149460691
 20
-152.1326605522446
 10
111.6138590215757
 20
-152.0310302354297
 10
111.4236897507899
 20
-152.035164350012
 10
111.4023301587813
 20
-152.035164350012
 10
111.3199923766839
 20
-152.0396429741428
 10
111.3199923766839
 20
-152.0396429741428
 10
111.3199923766839
 20
-151.8618760471039
 10
111.3199923766839
 20
-151.8618760471039
 10
111.4595187438365
 20
-151.8680772189774
 10
111.6689805493397
 20
-151.8722113335597
 10
111.6944742559305
 20
-151.8722113335597
 10
111.7113552238083
 20
-151.8384493978043
 10
111.7664767515722
 20
-151.7178710558205
 10
111.7854247767411
 20
-151.6438015028876
 10
111.7664767515722
 20
-151.6438015028876
 10
111.5887098245334
 20
-151.6503471843096
 10
111.3940619296167
 20
-151.663094037605
 10
111.3940619296167
 20
-151.663094037605
 10
111.3940619296167
 20
-151.7960747233357
 10
111.3940619296167
 20
-151.7960747233357
 10
111.3454860832747
 20
-151.8215684299265
 10
111.2862304409284
 20
-151.8532633083908
 10
111.1529052456493
 20
-151.9190646321591
 10
111.1529052456493
 20
-151.9190646321591
 10
111.1529052456493
 20
-152.0647921711852
 10
111.1529052456493
 20
-152.0647921711852
 10
111.1529052456493
 20
-152.0647921711852
 10
111.1529052456493
 20
-152.5322916285336
 10
111.1529052456493
 20
-152.5322916285336
 10
111.1529052456493
 20
-152.6594156519393
 10
111.1167317430541
 20
-152.7186712942856
 10
110.8332003846181
 20
-152.7100585555725
 10
110.8332003846181
 20
-152.7100585555725
 10
110.7298475200606
 20
-152.5026638073604
 10
110.7298475200606
 20
-152.5026638073604
 10
110.7932372769892
 20
-152.5154106606558
 10
110.8418131233312
 20
-152.5198892847867
 10
110.8821207405086
 20
-152.5198892847867
 10
110.9582573507326
 20
-152.5198892847867
 10
110.9685926371884
 20
-152.496462635487
 10
110.9685926371884
 20
-152.4310058212672
 10
110.9685926371884
 20
-152.4310058212672
 10
110.9685926371884
 20
-152.0014024142566
 10
110.9685926371884
 20
-152.0014024142566
 10
110.8714409445044
 20
-152.041710031434
 10
110.8545599766266
 20
-152.0479112033074
 10
110.8080511875757
 20
-152.0668592284763
 10
110.8039170729934
 20
-152.0882188204849
 10
110.7994384488626
 20
-152.117846641658
 10
110.7804904236938
 20
-152.117846641658
 10
110.7718776849806
 20
-152.117846641658
 10
110.7615423985249
 20
-152.1133680175272
 10
110.7549967171029
 20
-152.090285877776
 10
110.7549967171029
 20
-152.090285877776
 10
110.7022867561786
 20
-151.8977050401506
 10
110.7022867561786
 20
-151.8977050401506
 10
110.8480142952046
 20
-151.8511962510997
 10
110.9138156189729
 20
-151.8281141113485
 10
110.9685926371884
 20
-151.80675451934
 10
110.9685926371884
 20
-151.80675451934
 10
110.9685926371884
 20
-151.3943765897556
 10
110.9685926371884
 20
-151.3943765897556
 10
110.9685926371884
 20
-151.3943765897556
 10
110.9158826762641
 20
-151.3943765897556
 10
110.9158826762641
 20
-151.3943765897556
 10
110.9158826762641
 20
-151.3943765897556
 10
110.8376790087489
 20
-151.3943765897556
 10
110.8376790087489
 20
-151.3943765897556
 10
110.7698106276895
 20
-151.3943765897556
 10
110.7615423985249
 20
-151.3943765897556
 10
110.7253688959298
 20
-151.400577761629
 10
110.7253688959298
 20
-151.400577761629
 10
110.7253688959298
 20
-151.2059298667124
 10
110.7253688959298
 20
-151.2059298667124
 10
110.7529296598118
 20
-151.2124755481344
 10
110.7615423985249
 20
-151.2124755481344
 10
110.8311333273269
 20
-151.2124755481344
 10
110.8311333273269
 20
-151.2124755481344
 10
110.9644585226061
 20
-151.2124755481344
 10
110.9644585226061
 20
-151.2124755481344
 10
110.9644585226061
 20
-151.1425401097838
 10
110.9644585226061
 20
-151.0598578181378
 10
110.9623914653149
 20
-151.0557237035555
 10
110.9541232361503
 20
-150.8758897192255
 10
110.9541232361503
 20
-150.8569416940566
 10
110.9517116693107
 20
-150.8104329050057
 10
110.9517116693107
 20
-150.8104329050057
 10
111.1677191562358
 20
-150.8187011341703
 10
111.1677191562358
 20
-150.8187011341703
 10
111.1780544426916
 20
-150.8187011341703
 10
111.1994140347001
 20
-150.82111270101
 10
111.1994140347001
 20
-150.8379936688877
 10
111.1994140347001
 20
-150.8569416940566
 10
111.1846001241135
 20
-150.8676214900608
 10
111.1591064175227
 20
-150.8865695152297
 10
111.1591064175227
 20
-150.9372124188629
 10
111.1529052456493
 20
-151.1659667590835
 10
111.1549723029404
 20
-151.2124755481344
 10
111.2838188740887
 20
-151.2124755481344
 10
111.2965657273842
 20
-151.2124755481344
 10
111.3940619296167
 20
-151.2038628094212
 10
111.3940619296167
 20
-151.2038628094212
 10
111.3940619296167
 20
-151.3985107043378
 10
111.3940619296167
 20
-151.3985107043378
 10
111.3558213697305
 20
-151.3964436470467
 10
111.2882974982196
 20
-151.3923095324644
 10
111.1529052456493
 20
-151.3943765897556
 10
111.1529052456493
 20
-151.3943765897556
 10
111.1529052456493
 20
-151.7326849664071
 10
111.1529052456493
 20
-151.7326849664071
 10
111.2076822638647
 20
-151.7096028266559
 10
111.273483587633
 20
-151.6820420627739
 10
111.322059433975
 20
-151.6586154134742
 10
111.322059433975
 20
-151.6586154134742
 10
111.322059433975
 20
-151.4808484864353
 10
111.322059433975
 20
-151.4808484864353
 10
111.4364366040853
 20
-151.4935953397307
 10
111.5546033792294
 20
-151.4935953397307
 10
111.6710476066308
 20
-151.4935953397307
 10
111.6479654668797
 20
-151.3985107043378
 10
111.6204047029976
 20
-151.3158284126918
 10
111.5570149460691
 20
-151.1828477269612
 10
111.5125732143093
 20
-151.1849147842523
 10
111.4298909226633
 20
-151.1890488988347
 10
111.3919948723256
 20
-151.1911159561258
 10
111.3919948723256
 20
-151.1911159561258
 10
111.3919948723256
 20
-151.0112819717958
 10
111.3919948723256
 20
-151.0112819717958
 10
111.5167073288916
 20
-151.0198947105089
 10
111.6899956317997
 20
-151.0240288250912
 10
111.7726779234457
 20
-151.0240288250912
 10
111.7726779234457
 20
-151.0240288250912
 10
111.8550157055432
 20
-151.0240288250912
 10
111.8550157055432
 20
-151.0240288250912
 10
111.8550157055432
 20
-150.8610758086389
 10
111.8550157055432
 20
-150.8507405221831
 10
111.852948648252
 20
-150.7956189944191
 10
111.852948648252
 20
-150.7956189944191
 10
112.0772243643418
 20
-150.82111270101
 10
112.0772243643418
 20
-150.82111270101
 10
112.0813584789241
 20
-150.82111270101
 10
112.1027180709326
 20
-150.8231797583011
 10
112.1027180709326
 20
-150.8400607261789
 10
112.1027180709326
 20
-150.8548746367654
 10
112.0920382749284
 20
-150.86314286593
 10
112.0644775110464
 20
-150.8779567765166
 10
112.0582763391729
 20
-150.9437581002849
 10
112.0562092818818
 20
-150.9647731827449
 10
112.0562092818818
 20
-151.0240288250912
 10
112.0562092818818
 20
-151.0240288250912
 10
112.1512939172747
 20
-151.0240288250912
 10
112.1512939172747
 20
-151.0240288250912
 10
112.2339762089207
 20
-151.0240288250912
 10
112.4072645118287
 20
-151.0198947105089
 10
112.5319769683948
 20
-151.0112819717958
 10
112.5319769683948
 20
-151.0112819717958
 10
112.5319769683948
 20
-151.1911159561258
 10
112.5319769683948
 20
-151.1911159561258
 10
112.5023491472216
 20
-151.1890488988347
 10
112.3841823720775
 20
-151.1849147842523
 10
112.3438747549001
 20
-151.1828477269612
 10
112.3290608443135
 20
-151.2334906305944
 10
112.2952989085581
 20
-151.345456233865
 10
112.2294975847898
 20
-151.4853271105661
 10
112.2718722592584
 20
-151.4853271105661
 10
112.549202445821
 20
-151.4660345758487
 10
112.6105251454585
 20
-151.4639675185576
 10
112.6105251454585
 20
-151.4639675185576
 10
112.6105251454585
 20
-151.6482801270185
 10
112.6105251454585
 20
-151.6482801270185
 10
112.5808973242853
 20
-151.6482801270185
 10
112.5640163564076
 20
-151.6438015028876
 10
112.4010633399553
 20
-151.6438015028876
 97
        0
 97
        1
330
18E
 75
     2
 76
     1
 98
        1
 10
0.0
 20
0.0
450
        0
451
        0
460
0.0
461
0.0
452
        0
462
0.0
453
        0
470

  0
SPLINE
  5
190
330
188
100
AcDbEntity
  8
レイヤー 1
100
AcDbSpline
210
0.0
220
0.0
230
1.0
 70
    11
 71
     3
 72
    17
 73
    13
 74
     0
 42
0.0000000001
 43
0.0000000001
 40
0.0
 40
0.0
 40
0.0
 40
0.0
 40
1.0
 40
1.0
 40
1.0
 40
2.0
 40
2.0
 40
2.0
 40
3.0
 40
3.0
 40
3.0
 40
4.0
 40
4.0
 40
4.0
 40
4.0
 10
114.2572807874079
 20
-152.4434081650141
 30
0.0
 10
114.2572807874079
 20
-152.4434081650141
 30
0.0
 10
113.5506917033831
 20
-152.4434081650141
 30
0.0
 10
113.5506917033831
 20
-152.4434081650141
 30
0.0
 10
113.5506917033831
 20
-152.4434081650141
 30
0.0
 10
113.5506917033831
 20
-152.5577853351244
 30
0.0
 10
113.5506917033831
 20
-152.5577853351244
 30
0.0
 10
113.5506917033831
 20
-152.5577853351244
 30
0.0
 10
114.2572807874079
 20
-152.5577853351244
 30
0.0
 10
114.2572807874079
 20
-152.5577853351244
 30
0.0
 10
114.2572807874079
 20
-152.5577853351244
 30
0.0
 10
114.2572807874079
 20
-152.4434081650141
 30
0.0
 10
114.2572807874079
 20
-152.4434081650141
 30
0.0
  0
SPLINE
  5
191
330
188
100
AcDbEntity
  8
レイヤー 1
100
AcDbSpline
210
0.0
220
0.0
230
1.0
 70
    11
 71
     3
 72
    17
 73
    13
 74
     0
 42
0.0000000001
 43
0.0000000001
 40
0.0
 40
0.0
 40
0.0
 40
0.0
 40
1.0
 40
1.0
 40
1.0
 40
2.0
 40
2.0
 40
2.0
 40
3.0
 40
3.0
 40
3.0
 40
4.0
 40
4.0
 40
4.0
 40
4.0
 10
114.2572807874079
 20
-152.2001844237555
 30
0.0
 10
114.2572807874079
 20
-152.2001844237555
 30
0.0
 10
113.5506917033831
 20
-152.2001844237555
 30
0.0
 10
113.5506917033831
 20
-152.2001844237555
 30
0.0
 10
113.5506917033831
 20
-152.2001844237555
 30
0.0
 10
113.5506917033831
 20
-152.3145615938658
 30
0.0
 10
113.5506917033831
 20
-152.3145615938658
 30
0.0
 10
113.5506917033831
 20
-152.3145615938658
 30
0.0
 10
114.2572807874079
 20
-152.3145615938658
 30
0.0
 10
114.2572807874079
 20
-152.3145615938658
 30
0.0
 10
114.2572807874079
 20
-152.3145615938658
 30
0.0
 10
114.2572807874079
 20
-152.2001844237555
 30
0.0
 10
114.2572807874079
 20
-152.2001844237555
 30
0.0
  0
SPLINE
  5
192
330
188
100
AcDbEntity
  8
レイヤー 1
100
AcDbSpline
210
0.0
220
0.0
230
1.0
 70
    11
 71
     3
 72
    17
 73
    13
 74
     0
 42
0.0000000001
 43
0.0000000001
 40
0.0
 40
0.0
 40
0.0
 40
0.0
 40
1.0
 40
1.0
 40
1.0
 40
2.0
 40
2.0
 40
2.0
 40
3.0
 40
3.0
 40
3.0
 40
4.0
 40
4.0
 40
4.0
 40
4.0
 10
114.2572807874079
 20
-151.9676404785011
 30
0.0
 10
114.2572807874079
 20
-151.9676404785011
 30
0.0
 10
113.5506917033831
 20
-151.9676404785011
 30
0.0
 10
113.5506917033831
 20
-151.9676404785011
 30
0.0
 10
113.5506917033831
 20
-151.9676404785011
 30
0.0
 10
113.5506917033831
 20
-152.0754719671895
 30
0.0
 10
113.5506917033831
 20
-152.0754719671895
 30
0.0
 10
113.5506917033831
 20
-152.0754719671895
 30
0.0
 10
114.2572807874079
 20
-152.0754719671895
 30
0.0
 10
114.2572807874079
 20
-152.0754719671895
 30
0.0
 10
114.2572807874079
 20
-152.0754719671895
 30
0.0
 10
114.2572807874079
 20
-151.9676404785011
 30
0.0
 10
114.2572807874079
 20
-151.9676404785011
 30
0.0
  0
SPLINE
  5
193
330
188
100
AcDbEntity
  8
レイヤー 1
100
AcDbSpline
210
0.0
220
0.0
230
1.0
 70
     9
 71
     3
 72
   203
 73
   199
 74
     0
 42
0.0000000001
 43
0.0000000001
 40
0.0
 40
0.0
 40
0.0
 40
0.0
 40
1.0
 40
1.0
 40
1.0
 40
2.0
 40
2.0
 40
2.0
 40
3.0
 40
3.0
 40
3.0
 40
4.0
 40
4.0
 40
4.0
 40
5.0
 40
5.0
 40
5.0
 40
6.0
 40
6.0
 40
6.0
 40
7.0
 40
7.0
 40
7.0
 40
8.0
 40
8.0
 40
8.0
 40
9.0
 40
9.0
 40
9.0
 40
10.0
 40
10.0
 40
10.0
 40
11.0
 40
11.0
 40
11.0
 40
12.0
 40
12.0
 40
12.0
 40
13.0
 40
13.0
 40
13.0
 40
14.0
 40
14.0
 40
14.0
 40
15.0
 40
15.0
 40
15.0
 40
16.0
 40
16.0
 40
16.0
 40
17.0
 40
17.0
 40
17.0
 40
18.0
 40
18.0
 40
18.0
 40
19.0
 40
19.0
 40
19.0
 40
20.0
 40
20.0
 40
20.0
 40
21.0
 40
21.0
 40
21.0
 40
22.0
 40
22.0
 40
22.0
 40
23.0
 40
23.0
 40
23.0
 40
24.0
 40
24.0
 40
24.0
 40
25.0
 40
25.0
 40
25.0
 40
26.0
 40
26.0
 40
26.0
 40
27.0
 40
27.0
 40
27.0
 40
28.0
 40
28.0
 40
28.0
 40
29.0
 40
29.0
 40
29.0
 40
30.0
 40
30.0
 40
30.0
 40
31.0
 40
31.0
 40
31.0
 40
32.0
 40
32.0
 40
32.0
 40
33.0
 40
33.0
 40
33.0
 40
34.0
 40
34.0
 40
34.0
 40
35.0
 40
35.0
 40
35.0
 40
36.0
 40
36.0
 40
36.0
 40
37.0
 40
37.0
 40
37.0
 40
38.0
 40
38.0
 40
38.0
 40
39.0
 40
39.0
 40
39.0
 40
40.0
 40
40.0
 40
40.0
 40
41.0
 40
41.0
 40
41.0
 40
42.0
 40
42.0
 40
42.0
 40
43.0
 40
43.0
 40
43.0
 40
44.0
 40
44.0
 40
44.0
 40
45.0
 40
45.0
 40
45.0
 40
46.0
 40
46.0
 40
46.0
 40
47.0
 40
47.0
 40
47.0
 40
48.0
 40
48.0
 40
48.0
 40
49.0
 40
49.0
 40
49.0
 40
50.0
 40
50.0
 40
50.0
 40
51.0
 40
51.0
 40
51.0
 40
52.0
 40
52.0
 40
52.0
 40
53.0
 40
53.0
 40
53.0
 40
54.0
 40
54.0
 40
54.0
 40
55.0
 40
55.0
 40
55.0
 40
56.0
 40
56.0
 40
56.0
 40
57.0
 40
57.0
 40
57.0
 40
58.0
 40
58.0
 40
58.0
 40
59.0
 40
59.0
 40
59.0
 40
60.0
 40
60.0
 40
60.0
 40
61.0
 40
61.0
 40
61.0
 40
62.0
 40
62.0
 40
62.0
 40
63.0
 40
63.0
 40
63.0
 40
64.0
 40
64.0
 40
64.0
 40
65.0
 40
65.0
 40
65.0
 40
66.0
 40
66.0
 40
66.0
 40
66.0
 10
114.0922607136644
 20
-151.7116698839471
 30
0.0
 10
114.0922607136644
 20
-151.7116698839471
 30
0.0
 10
113.5338107355054
 20
-151.7116698839471
 30
0.0
 10
113.5338107355054
 20
-151.7116698839471
 30
0.0
 10
113.5234754490497
 20
-151.7561116157068
 30
0.0
 10
113.5148627103365
 20
-151.7878064941711
 30
0.0
 10
113.5021158570411
 20
-151.8257025445088
 30
0.0
 10
113.527609563632
 20
-151.8257025445088
 30
0.0
 10
113.5424234742185
 20
-151.8281141113485
 30
0.0
 10
113.548624646092
 20
-151.8281141113485
 30
0.0
 10
113.548624646092
 20
-151.8281141113485
 30
0.0
 10
113.7370713691352
 20
-151.8281141113485
 30
0.0
 10
113.7370713691352
 20
-151.8281141113485
 30
0.0
 10
113.7370713691352
 20
-151.8281141113485
 30
0.0
 10
114.1115532483818
 20
-151.8281141113485
 30
0.0
 10
114.1115532483818
 20
-151.8281141113485
 30
0.0
 10
114.162196152015
 20
-151.8281141113485
 30
0.0
 10
114.4457275104511
 20
-151.8153672580531
 30
0.0
 10
114.4774223889154
 20
-151.8153672580531
 30
0.0
 10
114.4753553316242
 20
-151.8425835123866
 30
0.0
 10
114.473288274333
 20
-151.8618760471039
 30
0.0
 10
114.473288274333
 20
-151.8915038682771
 30
0.0
 10
114.4712212170419
 20
-151.9231987467414
 30
0.0
 10
114.4712212170419
 20
-152.0585909993117
 30
0.0
 10
114.4712212170419
 20
-152.0861517631937
 30
0.0
 10
114.4712212170419
 20
-152.0861517631937
 30
0.0
 10
114.4712212170419
 20
-152.3314425617435
 30
0.0
 10
114.4712212170419
 20
-152.3314425617435
 30
0.0
 10
114.4712212170419
 20
-152.3758842935032
 30
0.0
 10
114.4753553316242
 20
-152.572599245711
 30
0.0
 10
114.4794894462065
 20
-152.724872466159
 30
0.0
 10
114.4794894462065
 20
-152.724872466159
 30
0.0
 10
114.2531466728256
 20
-152.724872466159
 30
0.0
 10
114.2531466728256
 20
-152.724872466159
 30
0.0
 10
114.2531466728256
 20
-152.724872466159
 30
0.0
 10
114.2552137301167
 20
-152.6911105304036
 30
0.0
 10
114.2552137301167
 20
-152.6911105304036
 30
0.0
 10
114.2552137301167
 20
-152.6911105304036
 30
0.0
 10
113.5531032702228
 20
-152.6911105304036
 30
0.0
 10
113.5531032702228
 20
-152.6911105304036
 30
0.0
 10
113.5531032702228
 20
-152.6911105304036
 30
0.0
 10
113.555170327514
 20
-152.724872466159
 30
0.0
 10
113.555170327514
 20
-152.724872466159
 30
0.0
 10
113.555170327514
 20
-152.724872466159
 30
0.0
 10
113.3370957832976
 20
-152.724872466159
 30
0.0
 10
113.3370957832976
 20
-152.724872466159
 30
0.0
 10
113.3415744074285
 20
-152.669750938395
 30
0.0
 10
113.3415744074285
 20
-152.6573485946481
 30
0.0
 10
113.3477755793019
 20
-152.5429714245379
 30
0.0
 10
113.3498426365931
 20
-152.5154106606558
 30
0.0
 10
113.3519096938842
 20
-152.3820854653767
 30
0.0
 10
113.3519096938842
 20
-152.3631374402078
 30
0.0
 10
113.3519096938842
 20
-152.3631374402078
 30
0.0
 10
113.3519096938842
 20
-152.1602213161266
 30
0.0
 10
113.3519096938842
 20
-152.1602213161266
 30
0.0
 10
113.2123833267316
 20
-152.4096462292587
 30
0.0
 10
113.0432291384058
 20
-152.5409043672467
 30
0.0
 10
112.9374647070087
 20
-152.6063611814664
 30
0.0
 10
112.9374647070087
 20
-152.6063611814664
 30
0.0
 10
112.7638318945521
 20
-152.4668348143138
 30
0.0
 10
112.7638318945521
 20
-152.4668348143138
 30
0.0
 10
112.8527153580715
 20
-152.4161919106806
 30
0.0
 10
112.996720349355
 20
-152.3293755044524
 30
0.0
 10
113.1341796592164
 20
-152.1347276095357
 30
0.0
 10
113.225130180027
 20
-152.00760358613
 30
0.0
 10
113.2905869942468
 20
-151.8639431043951
 30
0.0
 10
113.3243489300022
 20
-151.7116698839471
 30
0.0
 10
113.0959390993302
 20
-151.7137369412382
 30
0.0
 10
112.9161051150001
 20
-151.7199381131117
 30
0.0
 10
112.8210204796072
 20
-151.7220051704028
 30
0.0
 10
112.8210204796072
 20
-151.7220051704028
 30
0.0
 10
112.8210204796072
 20
-151.5445827529124
 30
0.0
 10
112.8210204796072
 20
-151.5445827529124
 30
0.0
 10
113.017735431815
 20
-151.5507839247859
 30
0.0
 10
113.301266790251
 20
-151.5549180393682
 30
0.0
 10
113.451472953408
 20
-151.5549180393682
 30
0.0
 10
113.451472953408
 20
-151.5549180393682
 30
0.0
 10
113.6650688734934
 20
-151.5549180393682
 30
0.0
 10
113.6650688734934
 20
-151.5549180393682
 30
0.0
 10
113.6650688734934
 20
-151.5549180393682
 30
0.0
 10
113.6650688734934
 20
-151.4470865506799
 30
0.0
 10
113.6650688734934
 20
-151.4470865506799
 30
0.0
 10
113.6650688734934
 20
-151.4470865506799
 30
0.0
 10
113.5189968249189
 20
-151.4470865506799
 30
0.0
 10
113.5189968249189
 20
-151.4470865506799
 30
0.0
 10
113.3498426365931
 20
-151.4470865506799
 30
0.0
 10
113.1806884482673
 20
-151.4512206652622
 30
0.0
 10
113.0136013172327
 20
-151.4577663466841
 30
0.0
 10
113.0136013172327
 20
-151.4577663466841
 30
0.0
 10
113.0136013172327
 20
-151.2865451010672
 30
0.0
 10
113.0136013172327
 20
-151.2865451010672
 30
0.0
 10
113.1679415949719
 20
-151.296880387523
 30
0.0
 10
113.3539767511754
 20
-151.296880387523
 30
0.0
 10
113.5189968249189
 20
-151.296880387523
 30
0.0
 10
113.5189968249189
 20
-151.296880387523
 30
0.0
 10
113.6650688734934
 20
-151.296880387523
 30
0.0
 10
113.6650688734934
 20
-151.296880387523
 30
0.0
 10
113.6650688734934
 20
-151.296880387523
 30
0.0
 10
113.6650688734934
 20
-151.1783691028304
 30
0.0
 10
113.6650688734934
 20
-151.1783691028304
 30
0.0
 10
113.6650688734934
 20
-151.1783691028304
 30
0.0
 10
113.5338107355054
 20
-151.1783691028304
 30
0.0
 10
113.5338107355054
 20
-151.1783691028304
 30
0.0
 10
113.4873019464545
 20
-151.1783691028304
 30
0.0
 10
113.2843858223733
 20
-151.1869818415435
 30
0.0
 10
113.2420111479047
 20
-151.1869818415435
 30
0.0
 10
113.038750514275
 20
-151.1911159561258
 30
0.0
 10
112.962613904051
 20
-151.193183013417
 30
0.0
 10
112.8844102365358
 20
-151.1952500707081
 30
0.0
 10
112.8844102365358
 20
-151.1952500707081
 30
0.0
 10
112.8844102365358
 20
-151.0112819717958
 30
0.0
 10
112.8844102365358
 20
-151.0112819717958
 30
0.0
 10
112.9987874066461
 20
-151.0198947105089
 30
0.0
 10
113.0432291384058
 20
-151.0198947105089
 30
0.0
 10
113.4259792468171
 20
-151.0281629396735
 30
0.0
 10
113.3625894898885
 20
-150.9330783042806
 30
0.0
 10
113.3350287260065
 20
-150.9055175403986
 30
0.0
 10
113.2991997329599
 20
-150.869688547352
 30
0.0
 10
113.2991997329599
 20
-150.869688547352
 30
0.0
 10
113.4745550931591
 20
-150.787006255706
 30
0.0
 10
113.4745550931591
 20
-150.787006255706
 30
0.0
 10
113.5148627103365
 20
-150.8231797583011
 30
0.0
 10
113.5593044420963
 20
-150.8655544327697
 30
0.0
 10
113.6333739950291
 20
-150.9754529787492
 30
0.0
 10
113.6333739950291
 20
-150.9754529787492
 30
0.0
 10
113.5189968249189
 20
-151.0302299969646
 30
0.0
 10
113.5189968249189
 20
-151.0302299969646
 30
0.0
 10
113.5189968249189
 20
-151.0302299969646
 30
0.0
 10
113.5296766209231
 20
-151.0302299969646
 30
0.0
 10
113.5296766209231
 20
-151.0302299969646
 30
0.0
 10
113.5296766209231
 20
-151.0302299969646
 30
0.0
 10
114.0522976060355
 20
-151.0302299969646
 30
0.0
 10
114.0522976060355
 20
-151.0302299969646
 30
0.0
 10
114.0522976060355
 20
-151.0302299969646
 30
0.0
 10
113.9568684610941
 20
-150.9861327747534
 30
0.0
 10
113.9568684610941
 20
-150.9861327747534
 30
0.0
 10
113.9844292249761
 20
-150.9478922148672
 30
0.0
 10
114.0416178100313
 20
-150.8676214900608
 30
0.0
 10
114.0564317206178
 20
-150.793551937128
 30
0.0
 10
114.0564317206178
 20
-150.793551937128
 30
0.0
 10
114.2700276407033
 20
-150.8569416940566
 30
0.0
 10
114.2700276407033
 20
-150.8569416940566
 30
0.0
 10
114.2786403794164
 20
-150.8590087513477
 30
0.0
 10
114.2996554618765
 20
-150.869688547352
 30
0.0
 10
114.2996554618765
 20
-150.890703629812
 30
0.0
 10
114.2996554618765
 20
-150.9289441896983
 30
0.0
 10
114.2341986476567
 20
-150.9289441896983
 30
0.0
 10
114.2152506224878
 20
-150.9289441896983
 30
0.0
 10
114.2045708264836
 20
-150.9478922148672
 30
0.0
 10
114.1811441771839
 20
-150.9881998320446
 30
0.0
 10
114.1515163560107
 20
-151.0281629396735
 30
0.0
 10
114.5514919418482
 20
-151.0219617678
 30
0.0
 10
114.5811197630214
 20
-151.0198947105089
 30
0.0
 10
114.6572563732454
 20
-151.0133490290869
 30
0.0
 10
114.6572563732454
 20
-151.0133490290869
 30
0.0
 10
114.6572563732454
 20
-151.1952500707081
 30
0.0
 10
114.6572563732454
 20
-151.1952500707081
 30
0.0
 10
114.6383083480765
 20
-151.1952500707081
 30
0.0
 10
114.6128146414857
 20
-151.193183013417
 30
0.0
 10
114.3926730399782
 20
-151.1849147842523
 30
0.0
 10
114.342030136345
 20
-151.1828477269612
 30
0.0
 10
114.1218885348376
 20
-151.1783691028304
 30
0.0
 10
114.0774468030778
 20
-151.1783691028304
 30
0.0
 10
114.0774468030778
 20
-151.1783691028304
 30
0.0
 10
113.8617838257012
 20
-151.1783691028304
 30
0.0
 10
113.8617838257012
 20
-151.1783691028304
 30
0.0
 10
113.8617838257012
 20
-151.1783691028304
 30
0.0
 10
113.8617838257012
 20
-151.296880387523
 30
0.0
 10
113.8617838257012
 20
-151.296880387523
 30
0.0
 10
113.8617838257012
 20
-151.296880387523
 30
0.0
 10
114.0354166381578
 20
-151.296880387523
 30
0.0
 10
114.0354166381578
 20
-151.296880387523
 30
0.0
 10
114.1980251450616
 20
-151.296880387523
 30
0.0
 10
114.3885389253959
 20
-151.296880387523
 30
0.0
 10
114.5452907699748
 20
-151.2865451010672
 30
0.0
 10
114.5452907699748
 20
-151.2865451010672
 30
0.0
 10
114.5452907699748
 20
-151.4577663466841
 30
0.0
 10
114.5452907699748
 20
-151.4577663466841
 30
0.0
 10
114.3358289644716
 20
-151.449153607971
 30
0.0
 10
114.1391140122638
 20
-151.4470865506799
 30
0.0
 10
114.0354166381578
 20
-151.4470865506799
 30
0.0
 10
114.0354166381578
 20
-151.4470865506799
 30
0.0
 10
113.8617838257012
 20
-151.4470865506799
 30
0.0
 10
113.8617838257012
 20
-151.4470865506799
 30
0.0
 10
113.8617838257012
 20
-151.4470865506799
 30
0.0
 10
113.8617838257012
 20
-151.5549180393682
 30
0.0
 10
113.8617838257012
 20
-151.5549180393682
 30
0.0
 10
113.8617838257012
 20
-151.5549180393682
 30
0.0
 10
114.0922607136644
 20
-151.5549180393682
 30
0.0
 10
114.0922607136644
 20
-151.5549180393682
 30
0.0
 10
114.2255859089436
 20
-151.5549180393682
 30
0.0
 10
114.513251381962
 20
-151.5507839247859
 30
0.0
 10
114.7227131874651
 20
-151.5445827529124
 30
0.0
 10
114.7227131874651
 20
-151.5445827529124
 30
0.0
 10
114.7227131874651
 20
-151.7220051704028
 30
0.0
 10
114.7227131874651
 20
-151.7220051704028
 30
0.0
 10
114.5304768593882
 20
-151.7158039985294
 30
0.0
 10
114.217317679779
 20
-151.7116698839471
 30
0.0
 10
114.0922607136644
 20
-151.7116698839471
 30
0.0
  0
HATCH
  5
194
330
188
100
AcDbEntity
  8
レイヤー 1
 62
    18
420
        0
440
 33554687
100
AcDbHatch
 10
0.0
 20
0.0
 30
0.0
210
0.0
220
0.0
230
1.0
  2
SOLID
 70
     1
 71
     1
 91
        4
 92
        1
 93
        1
 72
     4
 94
        3
 73
     0
 74
     0
 95
       17
 96
       13
 40
0.0
 40
0.0
 40
0.0
 40
0.0
 40
1.0
 40
1.0
 40
1.0
 40
2.0
 40
2.0
 40
2.0
 40
3.0
 40
3.0
 40
3.0
 40
4.0
 40
4.0
 40
4.0
 40
4.0
 10
114.2572807874079
 20
-152.4434081650141
 10
114.2572807874079
 20
-152.4434081650141
 10
113.5506917033831
 20
-152.4434081650141
 10
113.5506917033831
 20
-152.4434081650141
 10
113.5506917033831
 20
-152.4434081650141
 10
113.5506917033831
 20
-152.5577853351244
 10
113.5506917033831
 20
-152.5577853351244
 10
113.5506917033831
 20
-152.5577853351244
 10
114.2572807874079
 20
-152.5577853351244
 10
114.2572807874079
 20
-152.5577853351244
 10
114.2572807874079
 20
-152.5577853351244
 10
114.2572807874079
 20
-152.4434081650141
 10
114.2572807874079
 20
-152.4434081650141
 97
        0
 97
        1
330
190
 92
        1
 93
        1
 72
     4
 94
        3
 73
     0
 74
     0
 95
       17
 96
       13
 40
0.0
 40
0.0
 40
0.0
 40
0.0
 40
1.0
 40
1.0
 40
1.0
 40
2.0
 40
2.0
 40
2.0
 40
3.0
 40
3.0
 40
3.0
 40
4.0
 40
4.0
 40
4.0
 40
4.0
 10
114.2572807874079
 20
-152.2001844237555
 10
114.2572807874079
 20
-152.2001844237555
 10
113.5506917033831
 20
-152.2001844237555
 10
113.5506917033831
 20
-152.2001844237555
 10
113.5506917033831
 20
-152.2001844237555
 10
113.5506917033831
 20
-152.3145615938658
 10
113.5506917033831
 20
-152.3145615938658
 10
113.5506917033831
 20
-152.3145615938658
 10
114.2572807874079
 20
-152.3145615938658
 10
114.2572807874079
 20
-152.3145615938658
 10
114.2572807874079
 20
-152.3145615938658
 10
114.2572807874079
 20
-152.2001844237555
 10
114.2572807874079
 20
-152.2001844237555
 97
        0
 97
        1
330
191
 92
        1
 93
        1
 72
     4
 94
        3
 73
     0
 74
     0
 95
       17
 96
       13
 40
0.0
 40
0.0
 40
0.0
 40
0.0
 40
1.0
 40
1.0
 40
1.0
 40
2.0
 40
2.0
 40
2.0
 40
3.0
 40
3.0
 40
3.0
 40
4.0
 40
4.0
 40
4.0
 40
4.0
 10
114.2572807874079
 20
-151.9676404785011
 10
114.2572807874079
 20
-151.9676404785011
 10
113.5506917033831
 20
-151.9676404785011
 10
113.5506917033831
 20
-151.9676404785011
 10
113.5506917033831
 20
-151.9676404785011
 10
113.5506917033831
 20
-152.0754719671895
 10
113.5506917033831
 20
-152.0754719671895
 10
113.5506917033831
 20
-152.0754719671895
 10
114.2572807874079
 20
-152.0754719671895
 10
114.2572807874079
 20
-152.0754719671895
 10
114.2572807874079
 20
-152.0754719671895
 10
114.2572807874079
 20
-151.9676404785011
 10
114.2572807874079
 20
-151.9676404785011
 97
        0
 97
        1
330
192
 92
        1
 93
        1
 72
     4
 94
        3
 73
     0
 74
     0
 95
      203
 96
      199
 40
0.0
 40
0.0
 40
0.0
 40
0.0
 40
1.0
 40
1.0
 40
1.0
 40
2.0
 40
2.0
 40
2.0
 40
3.0
 40
3.0
 40
3.0
 40
4.0
 40
4.0
 40
4.0
 40
5.0
 40
5.0
 40
5.0
 40
6.0
 40
6.0
 40
6.0
 40
7.0
 40
7.0
 40
7.0
 40
8.0
 40
8.0
 40
8.0
 40
9.0
 40
9.0
 40
9.0
 40
10.0
 40
10.0
 40
10.0
 40
11.0
 40
11.0
 40
11.0
 40
12.0
 40
12.0
 40
12.0
 40
13.0
 40
13.0
 40
13.0
 40
14.0
 40
14.0
 40
14.0
 40
15.0
 40
15.0
 40
15.0
 40
16.0
 40
16.0
 40
16.0
 40
17.0
 40
17.0
 40
17.0
 40
18.0
 40
18.0
 40
18.0
 40
19.0
 40
19.0
 40
19.0
 40
20.0
 40
20.0
 40
20.0
 40
21.0
 40
21.0
 40
21.0
 40
22.0
 40
22.0
 40
22.0
 40
23.0
 40
23.0
 40
23.0
 40
24.0
 40
24.0
 40
24.0
 40
25.0
 40
25.0
 40
25.0
 40
26.0
 40
26.0
 40
26.0
 40
27.0
 40
27.0
 40
27.0
 40
28.0
 40
28.0
 40
28.0
 40
29.0
 40
29.0
 40
29.0
 40
30.0
 40
30.0
 40
30.0
 40
31.0
 40
31.0
 40
31.0
 40
32.0
 40
32.0
 40
32.0
 40
33.0
 40
33.0
 40
33.0
 40
34.0
 40
34.0
 40
34.0
 40
35.0
 40
35.0
 40
35.0
 40
36.0
 40
36.0
 40
36.0
 40
37.0
 40
37.0
 40
37.0
 40
38.0
 40
38.0
 40
38.0
 40
39.0
 40
39.0
 40
39.0
 40
40.0
 40
40.0
 40
40.0
 40
41.0
 40
41.0
 40
41.0
 40
42.0
 40
42.0
 40
42.0
 40
43.0
 40
43.0
 40
43.0
 40
44.0
 40
44.0
 40
44.0
 40
45.0
 40
45.0
 40
45.0
 40
46.0
 40
46.0
 40
46.0
 40
47.0
 40
47.0
 40
47.0
 40
48.0
 40
48.0
 40
48.0
 40
49.0
 40
49.0
 40
49.0
 40
50.0
 40
50.0
 40
50.0
 40
51.0
 40
51.0
 40
51.0
 40
52.0
 40
52.0
 40
52.0
 40
53.0
 40
53.0
 40
53.0
 40
54.0
 40
54.0
 40
54.0
 40
55.0
 40
55.0
 40
55.0
 40
56.0
 40
56.0
 40
56.0
 40
57.0
 40
57.0
 40
57.0
 40
58.0
 40
58.0
 40
58.0
 40
59.0
 40
59.0
 40
59.0
 40
60.0
 40
60.0
 40
60.0
 40
61.0
 40
61.0
 40
61.0
 40
62.0
 40
62.0
 40
62.0
 40
63.0
 40
63.0
 40
63.0
 40
64.0
 40
64.0
 40
64.0
 40
65.0
 40
65.0
 40
65.0
 40
66.0
 40
66.0
 40
66.0
 40
66.0
 10
114.0922607136644
 20
-151.7116698839471
 10
114.0922607136644
 20
-151.7116698839471
 10
113.5338107355054
 20
-151.7116698839471
 10
113.5338107355054
 20
-151.7116698839471
 10
113.5234754490497
 20
-151.7561116157068
 10
113.5148627103365
 20
-151.7878064941711
 10
113.5021158570411
 20
-151.8257025445088
 10
113.527609563632
 20
-151.8257025445088
 10
113.5424234742185
 20
-151.8281141113485
 10
113.548624646092
 20
-151.8281141113485
 10
113.548624646092
 20
-151.8281141113485
 10
113.7370713691352
 20
-151.8281141113485
 10
113.7370713691352
 20
-151.8281141113485
 10
113.7370713691352
 20
-151.8281141113485
 10
114.1115532483818
 20
-151.8281141113485
 10
114.1115532483818
 20
-151.8281141113485
 10
114.162196152015
 20
-151.8281141113485
 10
114.4457275104511
 20
-151.8153672580531
 10
114.4774223889154
 20
-151.8153672580531
 10
114.4753553316242
 20
-151.8425835123866
 10
114.473288274333
 20
-151.8618760471039
 10
114.473288274333
 20
-151.8915038682771
 10
114.4712212170419
 20
-151.9231987467414
 10
114.4712212170419
 20
-152.0585909993117
 10
114.4712212170419
 20
-152.0861517631937
 10
114.4712212170419
 20
-152.0861517631937
 10
114.4712212170419
 20
-152.3314425617435
 10
114.4712212170419
 20
-152.3314425617435
 10
114.4712212170419
 20
-152.3758842935032
 10
114.4753553316242
 20
-152.572599245711
 10
114.4794894462065
 20
-152.724872466159
 10
114.4794894462065
 20
-152.724872466159
 10
114.2531466728256
 20
-152.724872466159
 10
114.2531466728256
 20
-152.724872466159
 10
114.2531466728256
 20
-152.724872466159
 10
114.2552137301167
 20
-152.6911105304036
 10
114.2552137301167
 20
-152.6911105304036
 10
114.2552137301167
 20
-152.6911105304036
 10
113.5531032702228
 20
-152.6911105304036
 10
113.5531032702228
 20
-152.6911105304036
 10
113.5531032702228
 20
-152.6911105304036
 10
113.555170327514
 20
-152.724872466159
 10
113.555170327514
 20
-152.724872466159
 10
113.555170327514
 20
-152.724872466159
 10
113.3370957832976
 20
-152.724872466159
 10
113.3370957832976
 20
-152.724872466159
 10
113.3415744074285
 20
-152.669750938395
 10
113.3415744074285
 20
-152.6573485946481
 10
113.3477755793019
 20
-152.5429714245379
 10
113.3498426365931
 20
-152.5154106606558
 10
113.3519096938842
 20
-152.3820854653767
 10
113.3519096938842
 20
-152.3631374402078
 10
113.3519096938842
 20
-152.3631374402078
 10
113.3519096938842
 20
-152.1602213161266
 10
113.3519096938842
 20
-152.1602213161266
 10
113.2123833267316
 20
-152.4096462292587
 10
113.0432291384058
 20
-152.5409043672467
 10
112.9374647070087
 20
-152.6063611814664
 10
112.9374647070087
 20
-152.6063611814664
 10
112.7638318945521
 20
-152.4668348143138
 10
112.7638318945521
 20
-152.4668348143138
 10
112.8527153580715
 20
-152.4161919106806
 10
112.996720349355
 20
-152.3293755044524
 10
113.1341796592164
 20
-152.1347276095357
 10
113.225130180027
 20
-152.00760358613
 10
113.2905869942468
 20
-151.8639431043951
 10
113.3243489300022
 20
-151.7116698839471
 10
113.0959390993302
 20
-151.7137369412382
 10
112.9161051150001
 20
-151.7199381131117
 10
112.8210204796072
 20
-151.7220051704028
 10
112.8210204796072
 20
-151.7220051704028
 10
112.8210204796072
 20
-151.5445827529124
 10
112.8210204796072
 20
-151.5445827529124
 10
113.017735431815
 20
-151.5507839247859
 10
113.301266790251
 20
-151.5549180393682
 10
113.451472953408
 20
-151.5549180393682
 10
113.451472953408
 20
-151.5549180393682
 10
113.6650688734934
 20
-151.5549180393682
 10
113.6650688734934
 20
-151.5549180393682
 10
113.6650688734934
 20
-151.5549180393682
 10
113.6650688734934
 20
-151.4470865506799
 10
113.6650688734934
 20
-151.4470865506799
 10
113.6650688734934
 20
-151.4470865506799
 10
113.5189968249189
 20
-151.4470865506799
 10
113.5189968249189
 20
-151.4470865506799
 10
113.3498426365931
 20
-151.4470865506799
 10
113.1806884482673
 20
-151.4512206652622
 10
113.0136013172327
 20
-151.4577663466841
 10
113.0136013172327
 20
-151.4577663466841
 10
113.0136013172327
 20
-151.2865451010672
 10
113.0136013172327
 20
-151.2865451010672
 10
113.1679415949719
 20
-151.296880387523
 10
113.3539767511754
 20
-151.296880387523
 10
113.5189968249189
 20
-151.296880387523
 10
113.5189968249189
 20
-151.296880387523
 10
113.6650688734934
 20
-151.296880387523
 10
113.6650688734934
 20
-151.296880387523
 10
113.6650688734934
 20
-151.296880387523
 10
113.6650688734934
 20
-151.1783691028304
 10
113.6650688734934
 20
-151.1783691028304
 10
113.6650688734934
 20
-151.1783691028304
 10
113.5338107355054
 20
-151.1783691028304
 10
113.5338107355054
 20
-151.1783691028304
 10
113.4873019464545
 20
-151.1783691028304
 10
113.2843858223733
 20
-151.1869818415435
 10
113.2420111479047
 20
-151.1869818415435
 10
113.038750514275
 20
-151.1911159561258
 10
112.962613904051
 20
-151.193183013417
 10
112.8844102365358
 20
-151.1952500707081
 10
112.8844102365358
 20
-151.1952500707081
 10
112.8844102365358
 20
-151.0112819717958
 10
112.8844102365358
 20
-151.0112819717958
 10
112.9987874066461
 20
-151.0198947105089
 10
113.0432291384058
 20
-151.0198947105089
 10
113.4259792468171
 20
-151.0281629396735
 10
113.3625894898885
 20
-150.9330783042806
 10
113.3350287260065
 20
-150.9055175403986
 10
113.2991997329599
 20
-150.869688547352
 10
113.2991997329599
 20
-150.869688547352
 10
113.4745550931591
 20
-150.787006255706
 10
113.4745550931591
 20
-150.787006255706
 10
113.5148627103365
 20
-150.8231797583011
 10
113.5593044420963
 20
-150.8655544327697
 10
113.6333739950291
 20
-150.9754529787492
 10
113.6333739950291
 20
-150.9754529787492
 10
113.5189968249189
 20
-151.0302299969646
 10
113.5189968249189
 20
-151.0302299969646
 10
113.5189968249189
 20
-151.0302299969646
 10
113.5296766209231
 20
-151.0302299969646
 10
113.5296766209231
 20
-151.0302299969646
 10
113.5296766209231
 20
-151.0302299969646
 10
114.0522976060355
 20
-151.0302299969646
 10
114.0522976060355
 20
-151.0302299969646
 10
114.0522976060355
 20
-151.0302299969646
 10
113.9568684610941
 20
-150.9861327747534
 10
113.9568684610941
 20
-150.9861327747534
 10
113.9844292249761
 20
-150.9478922148672
 10
114.0416178100313
 20
-150.8676214900608
 10
114.0564317206178
 20
-150.793551937128
 10
114.0564317206178
 20
-150.793551937128
 10
114.2700276407033
 20
-150.8569416940566
 10
114.2700276407033
 20
-150.8569416940566
 10
114.2786403794164
 20
-150.8590087513477
 10
114.2996554618765
 20
-150.869688547352
 10
114.2996554618765
 20
-150.890703629812
 10
114.2996554618765
 20
-150.9289441896983
 10
114.2341986476567
 20
-150.9289441896983
 10
114.2152506224878
 20
-150.9289441896983
 10
114.2045708264836
 20
-150.9478922148672
 10
114.1811441771839
 20
-150.9881998320446
 10
114.1515163560107
 20
-151.0281629396735
 10
114.5514919418482
 20
-151.0219617678
 10
114.5811197630214
 20
-151.0198947105089
 10
114.6572563732454
 20
-151.0133490290869
 10
114.6572563732454
 20
-151.0133490290869
 10
114.6572563732454
 20
-151.1952500707081
 10
114.6572563732454
 20
-151.1952500707081
 10
114.6383083480765
 20
-151.1952500707081
 10
114.6128146414857
 20
-151.193183013417
 10
114.3926730399782
 20
-151.1849147842523
 10
114.342030136345
 20
-151.1828477269612
 10
114.1218885348376
 20
-151.1783691028304
 10
114.0774468030778
 20
-151.1783691028304
 10
114.0774468030778
 20
-151.1783691028304
 10
113.8617838257012
 20
-151.1783691028304
 10
113.8617838257012
 20
-151.1783691028304
 10
113.8617838257012
 20
-151.1783691028304
 10
113.8617838257012
 20
-151.296880387523
 10
113.8617838257012
 20
-151.296880387523
 10
113.8617838257012
 20
-151.296880387523
 10
114.0354166381578
 20
-151.296880387523
 10
114.0354166381578
 20
-151.296880387523
 10
114.1980251450616
 20
-151.296880387523
 10
114.3885389253959
 20
-151.296880387523
 10
114.5452907699748
 20
-151.2865451010672
 10
114.5452907699748
 20
-151.2865451010672
 10
114.5452907699748
 20
-151.4577663466841
 10
114.5452907699748
 20
-151.4577663466841
 10
114.3358289644716
 20
-151.449153607971
 10
114.1391140122638
 20
-151.4470865506799
 10
114.0354166381578
 20
-151.4470865506799
 10
114.0354166381578
 20
-151.4470865506799
 10
113.8617838257012
 20
-151.4470865506799
 10
113.8617838257012
 20
-151.4470865506799
 10
113.8617838257012
 20
-151.4470865506799
 10
113.8617838257012
 20
-151.5549180393682
 10
113.8617838257012
 20
-151.5549180393682
 10
113.8617838257012
 20
-151.5549180393682
 10
114.0922607136644
 20
-151.5549180393682
 10
114.0922607136644
 20
-151.5549180393682
 10
114.2255859089436
 20
-151.5549180393682
 10
114.513251381962
 20
-151.5507839247859
 10
114.7227131874651
 20
-151.5445827529124
 10
114.7227131874651
 20
-151.5445827529124
 10
114.7227131874651
 20
-151.7220051704028
 10
114.7227131874651
 20
-151.7220051704028
 10
114.5304768593882
 20
-151.7158039985294
 10
114.217317679779
 20
-151.7116698839471
 10
114.0922607136644
 20
-151.7116698839471
 97
        0
 97
        1
330
193
 75
     2
 76
     1
 98
        1
 10
0.0
 20
0.0
450
        0
451
        0
460
0.0
461
0.0
452
        0
462
0.0
453
        0
470

  0
SPLINE
  5
195
330
188
100
AcDbEntity
  8
レイヤー 1
100
AcDbSpline
210
0.0
220
0.0
230
1.0
 70
     9
 71
     3
 72
    29
 73
    25
 74
     0
 42
0.0000000001
 43
0.0000000001
 40
0.0
 40
0.0
 40
0.0
 40
0.0
 40
1.0
 40
1.0
 40
1.0
 40
2.0
 40
2.0
 40
2.0
 40
3.0
 40
3.0
 40
3.0
 40
4.0
 40
4.0
 40
4.0
 40
5.0
 40
5.0
 40
5.0
 40
6.0
 40
6.0
 40
6.0
 40
7.0
 40
7.0
 40
7.0
 40
8.0
 40
8.0
 40
8.0
 40
8.0
 10
115.9677706958344
 20
-151.1594210776615
 30
0.0
 10
115.9677706958344
 20
-151.1594210776615
 30
0.0
 10
115.6146484085963
 20
-151.1594210776615
 30
0.0
 10
115.6146484085963
 20
-151.1594210776615
 30
0.0
 10
115.5023382957772
 20
-151.1594210776615
 30
0.0
 10
115.3628119286246
 20
-151.1659667590835
 30
0.0
 10
115.2549804399362
 20
-151.1783691028304
 30
0.0
 10
115.2549804399362
 20
-151.1783691028304
 30
0.0
 10
115.2549804399362
 20
-150.9437581002849
 30
0.0
 10
115.2549804399362
 20
-150.9437581002849
 30
0.0
 10
115.3734917246288
 20
-150.9585720108715
 30
0.0
 10
115.5574598235412
 20
-150.9627061254537
 30
0.0
 10
115.6146484085963
 20
-150.9627061254537
 30
0.0
 10
115.6146484085963
 20
-150.9627061254537
 30
0.0
 10
115.9677706958344
 20
-150.9627061254537
 30
0.0
 10
115.9677706958344
 20
-150.9627061254537
 30
0.0
 10
115.9870632305518
 20
-150.9627061254537
 30
0.0
 10
116.189979354633
 20
-150.9627061254537
 30
0.0
 10
116.3315727790768
 20
-150.9437581002849
 30
0.0
 10
116.3315727790768
 20
-150.9437581002849
 30
0.0
 10
116.3315727790768
 20
-151.1783691028304
 30
0.0
 10
116.3315727790768
 20
-151.1783691028304
 30
0.0
 10
116.1751654440465
 20
-151.1594210776615
 30
0.0
 10
115.9846516637121
 20
-151.1594210776615
 30
0.0
 10
115.9677706958344
 20
-151.1594210776615
 30
0.0
  0
SPLINE
  5
196
330
188
100
AcDbEntity
  8
レイヤー 1
100
AcDbSpline
210
0.0
220
0.0
230
1.0
 70
     9
 71
     3
 72
    47
 73
    43
 74
     0
 42
0.0000000001
 43
0.0000000001
 40
0.0
 40
0.0
 40
0.0
 40
0.0
 40
1.0
 40
1.0
 40
1.0
 40
2.0
 40
2.0
 40
2.0
 40
3.0
 40
3.0
 40
3.0
 40
4.0
 40
4.0
 40
4.0
 40
5.0
 40
5.0
 40
5.0
 40
6.0
 40
6.0
 40
6.0
 40
7.0
 40
7.0
 40
7.0
 40
8.0
 40
8.0
 40
8.0
 40
9.0
 40
9.0
 40
9.0
 40
10.0
 40
10.0
 40
10.0
 40
11.0
 40
11.0
 40
11.0
 40
12.0
 40
12.0
 40
12.0
 40
13.0
 40
13.0
 40
13.0
 40
14.0
 40
14.0
 40
14.0
 40
14.0
 10
116.0694010126493
 20
-151.6882432346474
 30
0.0
 10
116.0694010126493
 20
-151.6882432346474
 30
0.0
 10
115.9677706958344
 20
-151.6882432346474
 30
0.0
 10
115.9677706958344
 20
-151.6882432346474
 30
0.0
 10
115.9677706958344
 20
-151.7750596408757
 30
0.0
 10
115.9467556133744
 20
-152.1643554307089
 30
0.0
 10
115.7500406611666
 20
-152.3841525226678
 30
0.0
 10
115.5977674407186
 20
-152.5536512205421
 30
0.0
 10
115.3903726925066
 20
-152.6232421493442
 30
0.0
 10
115.3056233435694
 20
-152.6508029132262
 30
0.0
 10
115.3056233435694
 20
-152.6508029132262
 30
0.0
 10
115.1109754486528
 20
-152.4837157821916
 30
0.0
 10
115.1109754486528
 20
-152.4837157821916
 30
0.0
 10
115.2084716508854
 20
-152.4709689288961
 30
0.0
 10
115.3838270110846
 20
-152.447886789145
 30
0.0
 10
115.5722737341277
 20
-152.2594400661018
 30
0.0
 10
115.6463432870606
 20
-152.1874375704601
 30
0.0
 10
115.7500406611666
 20
-152.0479112033074
 30
0.0
 10
115.7500406611666
 20
-151.6882432346474
 30
0.0
 10
115.7500406611666
 20
-151.6882432346474
 30
0.0
 10
115.5192192636549
 20
-151.6882432346474
 30
0.0
 10
115.5192192636549
 20
-151.6882432346474
 30
0.0
 10
115.3331841074514
 20
-151.6882432346474
 30
0.0
 10
115.1471489512479
 20
-151.6927218587782
 30
0.0
 10
114.9607692854959
 20
-151.7075357693648
 30
0.0
 10
114.9607692854959
 20
-151.7075357693648
 30
0.0
 10
114.9607692854959
 20
-151.4873941678573
 30
0.0
 10
114.9607692854959
 20
-151.4873941678573
 30
0.0
 10
115.1492160085391
 20
-151.5022080784438
 30
0.0
 10
115.4348144242663
 20
-151.5063421930262
 30
0.0
 10
115.5192192636549
 20
-151.5063421930262
 30
0.0
 10
115.5192192636549
 20
-151.5063421930262
 30
0.0
 10
116.0694010126493
 20
-151.5063421930262
 30
0.0
 10
116.0694010126493
 20
-151.5063421930262
 30
0.0
 10
116.0883490378182
 20
-151.5063421930262
 30
0.0
 10
116.4056423320097
 20
-151.5063421930262
 30
0.0
 10
116.6343966722303
 20
-151.4873941678573
 30
0.0
 10
116.6343966722303
 20
-151.4873941678573
 30
0.0
 10
116.6343966722303
 20
-151.7075357693648
 30
0.0
 10
116.6343966722303
 20
-151.7075357693648
 30
0.0
 10
116.4459499491871
 20
-151.6927218587782
 30
0.0
 10
116.2578477356925
 20
-151.6882432346474
 30
0.0
 10
116.0694010126493
 20
-151.6882432346474
 30
0.0
  0
HATCH
  5
197
330
188
100
AcDbEntity
  8
レイヤー 1
 62
    18
420
        0
440
 33554687
100
AcDbHatch
 10
0.0
 20
0.0
 30
0.0
210
0.0
220
0.0
230
1.0
  2
SOLID
 70
     1
 71
     1
 91
        2
 92
        1
 93
        1
 72
     4
 94
        3
 73
     0
 74
     0
 95
       29
 96
       25
 40
0.0
 40
0.0
 40
0.0
 40
0.0
 40
1.0
 40
1.0
 40
1.0
 40
2.0
 40
2.0
 40
2.0
 40
3.0
 40
3.0
 40
3.0
 40
4.0
 40
4.0
 40
4.0
 40
5.0
 40
5.0
 40
5.0
 40
6.0
 40
6.0
 40
6.0
 40
7.0
 40
7.0
 40
7.0
 40
8.0
 40
8.0
 40
8.0
 40
8.0
 10
115.9677706958344
 20
-151.1594210776615
 10
115.9677706958344
 20
-151.1594210776615
 10
115.6146484085963
 20
-151.1594210776615
 10
115.6146484085963
 20
-151.1594210776615
 10
115.5023382957772
 20
-151.1594210776615
 10
115.3628119286246
 20
-151.1659667590835
 10
115.2549804399362
 20
-151.1783691028304
 10
115.2549804399362
 20
-151.1783691028304
 10
115.2549804399362
 20
-150.9437581002849
 10
115.2549804399362
 20
-150.9437581002849
 10
115.3734917246288
 20
-150.9585720108715
 10
115.5574598235412
 20
-150.9627061254537
 10
115.6146484085963
 20
-150.9627061254537
 10
115.6146484085963
 20
-150.9627061254537
 10
115.9677706958344
 20
-150.9627061254537
 10
115.9677706958344
 20
-150.9627061254537
 10
115.9870632305518
 20
-150.9627061254537
 10
116.189979354633
 20
-150.9627061254537
 10
116.3315727790768
 20
-150.9437581002849
 10
116.3315727790768
 20
-150.9437581002849
 10
116.3315727790768
 20
-151.1783691028304
 10
116.3315727790768
 20
-151.1783691028304
 10
116.1751654440465
 20
-151.1594210776615
 10
115.9846516637121
 20
-151.1594210776615
 10
115.9677706958344
 20
-151.1594210776615
 97
        0
 97
        1
330
195
 92
        1
 93
        1
 72
     4
 94
        3
 73
     0
 74
     0
 95
       47
 96
       43
 40
0.0
 40
0.0
 40
0.0
 40
0.0
 40
1.0
 40
1.0
 40
1.0
 40
2.0
 40
2.0
 40
2.0
 40
3.0
 40
3.0
 40
3.0
 40
4.0
 40
4.0
 40
4.0
 40
5.0
 40
5.0
 40
5.0
 40
6.0
 40
6.0
 40
6.0
 40
7.0
 40
7.0
 40
7.0
 40
8.0
 40
8.0
 40
8.0
 40
9.0
 40
9.0
 40
9.0
 40
10.0
 40
10.0
 40
10.0
 40
11.0
 40
11.0
 40
11.0
 40
12.0
 40
12.0
 40
12.0
 40
13.0
 40
13.0
 40
13.0
 40
14.0
 40
14.0
 40
14.0
 40
14.0
 10
116.0694010126493
 20
-151.6882432346474
 10
116.0694010126493
 20
-151.6882432346474
 10
115.9677706958344
 20
-151.6882432346474
 10
115.9677706958344
 20
-151.6882432346474
 10
115.9677706958344
 20
-151.7750596408757
 10
115.9467556133744
 20
-152.1643554307089
 10
115.7500406611666
 20
-152.3841525226678
 10
115.5977674407186
 20
-152.5536512205421
 10
115.3903726925066
 20
-152.6232421493442
 10
115.3056233435694
 20
-152.6508029132262
 10
115.3056233435694
 20
-152.6508029132262
 10
115.1109754486528
 20
-152.4837157821916
 10
115.1109754486528
 20
-152.4837157821916
 10
115.2084716508854
 20
-152.4709689288961
 10
115.3838270110846
 20
-152.447886789145
 10
115.5722737341277
 20
-152.2594400661018
 10
115.6463432870606
 20
-152.1874375704601
 10
115.7500406611666
 20
-152.0479112033074
 10
115.7500406611666
 20
-151.6882432346474
 10
115.7500406611666
 20
-151.6882432346474
 10
115.5192192636549
 20
-151.6882432346474
 10
115.5192192636549
 20
-151.6882432346474
 10
115.3331841074514
 20
-151.6882432346474
 10
115.1471489512479
 20
-151.6927218587782
 10
114.9607692854959
 20
-151.7075357693648
 10
114.9607692854959
 20
-151.7075357693648
 10
114.9607692854959
 20
-151.4873941678573
 10
114.9607692854959
 20
-151.4873941678573
 10
115.1492160085391
 20
-151.5022080784438
 10
115.4348144242663
 20
-151.5063421930262
 10
115.5192192636549
 20
-151.5063421930262
 10
115.5192192636549
 20
-151.5063421930262
 10
116.0694010126493
 20
-151.5063421930262
 10
116.0694010126493
 20
-151.5063421930262
 10
116.0883490378182
 20
-151.5063421930262
 10
116.4056423320097
 20
-151.5063421930262
 10
116.6343966722303
 20
-151.4873941678573
 10
116.6343966722303
 20
-151.4873941678573
 10
116.6343966722303
 20
-151.7075357693648
 10
116.6343966722303
 20
-151.7075357693648
 10
116.4459499491871
 20
-151.6927218587782
 10
116.2578477356925
 20
-151.6882432346474
 10
116.0694010126493
 20
-151.6882432346474
 97
        0
 97
        1
330
196
 75
     2
 76
     1
 98
        1
 10
0.0
 20
0.0
450
        0
451
        0
460
0.0
461
0.0
452
        0
462
0.0
453
        0
470

  0
SPLINE
  5
198
330
188
100
AcDbEntity
  8
レイヤー 1
100
AcDbSpline
210
0.0
220
0.0
230
1.0
 70
     9
 71
     3
 72
    29
 73
    25
 74
     0
 42
0.0000000001
 43
0.0000000001
 40
0.0
 40
0.0
 40
0.0
 40
0.0
 40
1.0
 40
1.0
 40
1.0
 40
2.0
 40
2.0
 40
2.0
 40
3.0
 40
3.0
 40
3.0
 40
4.0
 40
4.0
 40
4.0
 40
5.0
 40
5.0
 40
5.0
 40
6.0
 40
6.0
 40
6.0
 40
7.0
 40
7.0
 40
7.0
 40
8.0
 40
8.0
 40
8.0
 40
8.0
 10
117.9152831736462
 20
-151.8511962510997
 30
0.0
 10
117.9152831736462
 20
-151.8511962510997
 30
0.0
 10
117.43090274842
 20
-151.8511962510997
 30
0.0
 10
117.43090274842
 20
-151.8511962510997
 30
0.0
 10
117.403341984538
 20
-151.8511962510997
 30
0.0
 10
117.0860486903465
 20
-151.8511962510997
 30
0.0
 10
116.8745198275522
 20
-151.8766899576905
 30
0.0
 10
116.8745198275522
 20
-151.8766899576905
 30
0.0
 10
116.8745198275522
 20
-151.6458685601788
 30
0.0
 10
116.8745198275522
 20
-151.6458685601788
 30
0.0
 10
117.0329942198737
 20
-151.6692952094785
 30
0.0
 10
117.223508000208
 20
-151.6713622667696
 30
0.0
 10
117.43090274842
 20
-151.6713622667696
 30
0.0
 10
117.43090274842
 20
-151.6713622667696
 30
0.0
 10
117.9152831736462
 20
-151.6713622667696
 30
0.0
 10
117.9152831736462
 20
-151.6713622667696
 30
0.0
 10
118.1013183298496
 20
-151.6713622667696
 30
0.0
 10
118.2873534860531
 20
-151.6692952094785
 30
0.0
 10
118.471666094514
 20
-151.6458685601788
 30
0.0
 10
118.471666094514
 20
-151.6458685601788
 30
0.0
 10
118.471666094514
 20
-151.8766899576905
 30
0.0
 10
118.471666094514
 20
-151.8766899576905
 30
0.0
 10
118.2873534860531
 20
-151.8532633083908
 30
0.0
 10
118.0399956302122
 20
-151.8511962510997
 30
0.0
 10
117.9152831736462
 20
-151.8511962510997
 30
0.0
  0
HATCH
  5
199
330
188
100
AcDbEntity
  8
レイヤー 1
 62
    18
420
        0
440
 33554687
100
AcDbHatch
 10
0.0
 20
0.0
 30
0.0
210
0.0
220
0.0
230
1.0
  2
SOLID
 70
     1
 71
     1
 91
        1
 92
        1
 93
        1
 72
     4
 94
        3
 73
     0
 74
     0
 95
       29
 96
       25
 40
0.0
 40
0.0
 40
0.0
 40
0.0
 40
1.0
 40
1.0
 40
1.0
 40
2.0
 40
2.0
 40
2.0
 40
3.0
 40
3.0
 40
3.0
 40
4.0
 40
4.0
 40
4.0
 40
5.0
 40
5.0
 40
5.0
 40
6.0
 40
6.0
 40
6.0
 40
7.0
 40
7.0
 40
7.0
 40
8.0
 40
8.0
 40
8.0
 40
8.0
 10
117.9152831736462
 20
-151.8511962510997
 10
117.9152831736462
 20
-151.8511962510997
 10
117.43090274842
 20
-151.8511962510997
 10
117.43090274842
 20
-151.8511962510997
 10
117.403341984538
 20
-151.8511962510997
 10
117.0860486903465
 20
-151.8511962510997
 10
116.8745198275522
 20
-151.8766899576905
 10
116.8745198275522
 20
-151.8766899576905
 10
116.8745198275522
 20
-151.6458685601788
 10
116.8745198275522
 20
-151.6458685601788
 10
117.0329942198737
 20
-151.6692952094785
 10
117.223508000208
 20
-151.6713622667696
 10
117.43090274842
 20
-151.6713622667696
 10
117.43090274842
 20
-151.6713622667696
 10
117.9152831736462
 20
-151.6713622667696
 10
117.9152831736462
 20
-151.6713622667696
 10
118.1013183298496
 20
-151.6713622667696
 10
118.2873534860531
 20
-151.6692952094785
 10
118.471666094514
 20
-151.6458685601788
 10
118.471666094514
 20
-151.6458685601788
 10
118.471666094514
 20
-151.8766899576905
 10
118.471666094514
 20
-151.8766899576905
 10
118.2873534860531
 20
-151.8532633083908
 10
118.0399956302122
 20
-151.8511962510997
 10
117.9152831736462
 20
-151.8511962510997
 97
        0
 97
        1
330
198
 75
     2
 76
     1
 98
        1
 10
0.0
 20
0.0
450
        0
451
        0
460
0.0
461
0.0
452
        0
462
0.0
453
        0
470

  0
SPLINE
  5
19A
330
188
100
AcDbEntity
  8
レイヤー 1
100
AcDbSpline
210
0.0
220
0.0
230
1.0
 70
     9
 71
     3
 72
    47
 73
    43
 74
     0
 42
0.0000000001
 43
0.0000000001
 40
0.0
 40
0.0
 40
0.0
 40
0.0
 40
1.0
 40
1.0
 40
1.0
 40
2.0
 40
2.0
 40
2.0
 40
3.0
 40
3.0
 40
3.0
 40
4.0
 40
4.0
 40
4.0
 40
5.0
 40
5.0
 40
5.0
 40
6.0
 40
6.0
 40
6.0
 40
7.0
 40
7.0
 40
7.0
 40
8.0
 40
8.0
 40
8.0
 40
9.0
 40
9.0
 40
9.0
 40
10.0
 40
10.0
 40
10.0
 40
11.0
 40
11.0
 40
11.0
 40
12.0
 40
12.0
 40
12.0
 40
13.0
 40
13.0
 40
13.0
 40
14.0
 40
14.0
 40
14.0
 40
14.0
 10
120.1353027043412
 20
-151.2569172798941
 30
0.0
 10
120.0657117755391
 20
-151.5359700141993
 30
0.0
 10
119.9892306557666
 20
-151.8405164550954
 30
0.0
 10
119.6764159857059
 20
-152.1726236598735
 30
0.0
 10
119.4393934163207
 20
-152.4223930825541
 30
0.0
 10
119.1941026177709
 20
-152.5219563420778
 30
0.0
 10
119.0883381863737
 20
-152.5639865069979
 30
0.0
 10
119.0883381863737
 20
-152.5639865069979
 30
0.0
 10
118.8936902914571
 20
-152.3820854653767
 30
0.0
 10
118.8936902914571
 20
-152.3820854653767
 30
0.0
 10
119.0797254476606
 20
-152.3355766763258
 30
0.0
 10
119.4414604736119
 20
-152.2425590982241
 30
0.0
 10
119.7377386853433
 20
-151.7474988769937
 30
0.0
 10
119.898280134956
 20
-151.4808484864353
 30
0.0
 10
119.9110269882514
 20
-151.3075601835272
 30
0.0
 10
119.9196397269645
 20
-151.2166096627167
 30
0.0
 10
119.9196397269645
 20
-151.2166096627167
 30
0.0
 10
119.4138997097298
 20
-151.2166096627167
 30
0.0
 10
119.4138997097298
 20
-151.2166096627167
 30
0.0
 10
119.2953884250373
 20
-151.2166096627167
 30
0.0
 10
118.8743977567397
 20
-151.2355576878855
 30
0.0
 10
118.7221245362917
 20
-151.2462374838898
 30
0.0
 10
118.7221245362917
 20
-151.2462374838898
 30
0.0
 10
118.7221245362917
 20
-151.0367756783866
 30
0.0
 10
118.7221245362917
 20
-151.0367756783866
 30
0.0
 10
118.864062470284
 20
-151.049522531682
 30
0.0
 10
119.1410481472981
 20
-151.0536566462643
 30
0.0
 10
119.2574923746995
 20
-151.0536566462643
 30
0.0
 10
119.2574923746995
 20
-151.0536566462643
 30
0.0
 10
119.6126817192288
 20
-151.0536566462643
 30
0.0
 10
119.6126817192288
 20
-151.0536566462643
 30
0.0
 10
119.6402424831108
 20
-151.0536566462643
 30
0.0
 10
119.8011284422719
 20
-151.0515895889732
 30
0.0
 10
119.9110269882514
 20
-151.0367756783866
 30
0.0
 10
119.9682155733065
 20
-151.0302299969646
 30
0.0
 10
119.9850965411843
 20
-151.0112819717958
 30
0.0
 10
120.008523190484
 20
-150.9881998320446
 30
0.0
 10
120.008523190484
 20
-150.9881998320446
 30
0.0
 10
120.1966254039786
 20
-151.1384059952015
 30
0.0
 10
120.1966254039786
 20
-151.1384059952015
 30
0.0
 10
120.181811493392
 20
-151.1680338163746
 30
0.0
 10
120.1714762069363
 20
-151.1869818415435
 30
0.0
 10
120.1353027043412
 20
-151.2569172798941
 30
0.0
  0
HATCH
  5
19B
330
188
100
AcDbEntity
  8
レイヤー 1
 62
    18
420
        0
440
 33554687
100
AcDbHatch
 10
0.0
 20
0.0
 30
0.0
210
0.0
220
0.0
230
1.0
  2
SOLID
 70
     1
 71
     1
 91
        1
 92
        1
 93
        1
 72
     4
 94
        3
 73
     0
 74
     0
 95
       47
 96
       43
 40
0.0
 40
0.0
 40
0.0
 40
0.0
 40
1.0
 40
1.0
 40
1.0
 40
2.0
 40
2.0
 40
2.0
 40
3.0
 40
3.0
 40
3.0
 40
4.0
 40
4.0
 40
4.0
 40
5.0
 40
5.0
 40
5.0
 40
6.0
 40
6.0
 40
6.0
 40
7.0
 40
7.0
 40
7.0
 40
8.0
 40
8.0
 40
8.0
 40
9.0
 40
9.0
 40
9.0
 40
10.0
 40
10.0
 40
10.0
 40
11.0
 40
11.0
 40
11.0
 40
12.0
 40
12.0
 40
12.0
 40
13.0
 40
13.0
 40
13.0
 40
14.0
 40
14.0
 40
14.0
 40
14.0
 10
120.1353027043412
 20
-151.2569172798941
 10
120.0657117755391
 20
-151.5359700141993
 10
119.9892306557666
 20
-151.8405164550954
 10
119.6764159857059
 20
-152.1726236598735
 10
119.4393934163207
 20
-152.4223930825541
 10
119.1941026177709
 20
-152.5219563420778
 10
119.0883381863737
 20
-152.5639865069979
 10
119.0883381863737
 20
-152.5639865069979
 10
118.8936902914571
 20
-152.3820854653767
 10
118.8936902914571
 20
-152.3820854653767
 10
119.0797254476606
 20
-152.3355766763258
 10
119.4414604736119
 20
-152.2425590982241
 10
119.7377386853433
 20
-151.7474988769937
 10
119.898280134956
 20
-151.4808484864353
 10
119.9110269882514
 20
-151.3075601835272
 10
119.9196397269645
 20
-151.2166096627167
 10
119.9196397269645
 20
-151.2166096627167
 10
119.4138997097298
 20
-151.2166096627167
 10
119.4138997097298
 20
-151.2166096627167
 10
119.2953884250373
 20
-151.2166096627167
 10
118.8743977567397
 20
-151.2355576878855
 10
118.7221245362917
 20
-151.2462374838898
 10
118.7221245362917
 20
-151.2462374838898
 10
118.7221245362917
 20
-151.0367756783866
 10
118.7221245362917
 20
-151.0367756783866
 10
118.864062470284
 20
-151.049522531682
 10
119.1410481472981
 20
-151.0536566462643
 10
119.2574923746995
 20
-151.0536566462643
 10
119.2574923746995
 20
-151.0536566462643
 10
119.6126817192288
 20
-151.0536566462643
 10
119.6126817192288
 20
-151.0536566462643
 10
119.6402424831108
 20
-151.0536566462643
 10
119.8011284422719
 20
-151.0515895889732
 10
119.9110269882514
 20
-151.0367756783866
 10
119.9682155733065
 20
-151.0302299969646
 10
119.9850965411843
 20
-151.0112819717958
 10
120.008523190484
 20
-150.9881998320446
 10
120.008523190484
 20
-150.9881998320446
 10
120.1966254039786
 20
-151.1384059952015
 10
120.1966254039786
 20
-151.1384059952015
 10
120.181811493392
 20
-151.1680338163746
 10
120.1714762069363
 20
-151.1869818415435
 10
120.1353027043412
 20
-151.2569172798941
 97
        0
 97
        1
330
19A
 75
     2
 76
     1
 98
        1
 10
0.0
 20
0.0
450
        0
451
        0
460
0.0
461
0.0
452
        0
462
0.0
453
        0
470

  0
SPLINE
  5
19C
330
188
100
AcDbEntity
  8
レイヤー 1
100
AcDbSpline
210
0.0
220
0.0
230
1.0
 70
    11
 71
     3
 72
    17
 73
    13
 74
     0
 42
0.0000000001
 43
0.0000000001
 40
0.0
 40
0.0
 40
0.0
 40
0.0
 40
1.0
 40
1.0
 40
1.0
 40
2.0
 40
2.0
 40
2.0
 40
3.0
 40
3.0
 40
3.0
 40
4.0
 40
4.0
 40
4.0
 40
4.0
 10
120.52563202282
 20
-151.0388427356778
 30
0.0
 10
120.52563202282
 20
-151.0980983780241
 30
0.0
 10
120.5721408118708
 20
-151.144607167075
 30
0.0
 10
120.6313964542171
 20
-151.144607167075
 30
0.0
 10
120.6906520965634
 20
-151.144607167075
 30
0.0
 10
120.7392279429055
 20
-151.0980983780241
 30
0.0
 10
120.7392279429055
 20
-151.0388427356778
 30
0.0
 10
120.7392279429055
 20
-150.9795870933315
 30
0.0
 10
120.6906520965634
 20
-150.9310112469894
 30
0.0
 10
120.6313964542171
 20
-150.9310112469894
 30
0.0
 10
120.5721408118708
 20
-150.9310112469894
 30
0.0
 10
120.52563202282
 20
-150.9795870933315
 30
0.0
 10
120.52563202282
 20
-151.0388427356778
 30
0.0
  0
SPLINE
  5
19D
330
188
100
AcDbEntity
  8
レイヤー 1
100
AcDbSpline
210
0.0
220
0.0
230
1.0
 70
     9
 71
     3
 72
    17
 73
    13
 74
     0
 42
0.0000000001
 43
0.0000000001
 40
0.0
 40
0.0
 40
0.0
 40
0.0
 40
1.0
 40
1.0
 40
1.0
 40
2.0
 40
2.0
 40
2.0
 40
3.0
 40
3.0
 40
3.0
 40
4.0
 40
4.0
 40
4.0
 40
4.0
 10
120.8408582597203
 20
-151.0388427356778
 30
0.0
 10
120.8408582597203
 20
-151.1532199057881
 30
0.0
 10
120.7478406816186
 20
-151.248304541181
 30
0.0
 10
120.6313964542171
 20
-151.248304541181
 30
0.0
 10
120.5170192841068
 20
-151.248304541181
 30
0.0
 10
120.421934648714
 20
-151.1532199057881
 30
0.0
 10
120.421934648714
 20
-151.0388427356778
 30
0.0
 10
120.421934648714
 20
-150.9223985082763
 30
0.0
 10
120.5170192841068
 20
-150.8293809301746
 30
0.0
 10
120.6313964542171
 20
-150.8293809301746
 30
0.0
 10
120.7457736243274
 20
-150.8293809301746
 30
0.0
 10
120.8408582597203
 20
-150.9223985082763
 30
0.0
 10
120.8408582597203
 20
-151.0388427356778
 30
0.0
  0
HATCH
  5
19E
330
188
100
AcDbEntity
  8
レイヤー 1
 62
    18
420
        0
440
 33554687
100
AcDbHatch
 10
0.0
 20
0.0
 30
0.0
210
0.0
220
0.0
230
1.0
  2
SOLID
 70
     1
 71
     1
 91
        2
 92
        1
 93
        1
 72
     4
 94
        3
 73
     0
 74
     0
 95
       17
 96
       13
 40
0.0
 40
0.0
 40
0.0
 40
0.0
 40
1.0
 40
1.0
 40
1.0
 40
2.0
 40
2.0
 40
2.0
 40
3.0
 40
3.0
 40
3.0
 40
4.0
 40
4.0
 40
4.0
 40
4.0
 10
120.52563202282
 20
-151.0388427356778
 10
120.52563202282
 20
-151.0980983780241
 10
120.5721408118708
 20
-151.144607167075
 10
120.6313964542171
 20
-151.144607167075
 10
120.6906520965634
 20
-151.144607167075
 10
120.7392279429055
 20
-151.0980983780241
 10
120.7392279429055
 20
-151.0388427356778
 10
120.7392279429055
 20
-150.9795870933315
 10
120.6906520965634
 20
-150.9310112469894
 10
120.6313964542171
 20
-150.9310112469894
 10
120.5721408118708
 20
-150.9310112469894
 10
120.52563202282
 20
-150.9795870933315
 10
120.52563202282
 20
-151.0388427356778
 97
        0
 97
        1
330
19C
 92
        1
 93
        1
 72
     4
 94
        3
 73
     0
 74
     0
 95
       17
 96
       13
 40
0.0
 40
0.0
 40
0.0
 40
0.0
 40
1.0
 40
1.0
 40
1.0
 40
2.0
 40
2.0
 40
2.0
 40
3.0
 40
3.0
 40
3.0
 40
4.0
 40
4.0
 40
4.0
 40
4.0
 10
120.8408582597203
 20
-151.0388427356778
 10
120.8408582597203
 20
-151.1532199057881
 10
120.7478406816186
 20
-151.248304541181
 10
120.6313964542171
 20
-151.248304541181
 10
120.5170192841068
 20
-151.248304541181
 10
120.421934648714
 20
-151.1532199057881
 10
120.421934648714
 20
-151.0388427356778
 10
120.421934648714
 20
-150.9223985082763
 10
120.5170192841068
 20
-150.8293809301746
 10
120.6313964542171
 20
-150.8293809301746
 10
120.7457736243274
 20
-150.8293809301746
 10
120.8408582597203
 20
-150.9223985082763
 10
120.8408582597203
 20
-151.0388427356778
 97
        0
 97
        1
330
19D
 75
     2
 76
     1
 98
        1
 10
0.0
 20
0.0
450
        0
451
        0
460
0.0
461
0.0
452
        0
462
0.0
453
        0
470

  0
ENDBLK
  5
18B
330
188
100
AcDbEntity
  8
0
100
AcDbBlockEnd
  0
ENDSEC
  0
SECTION
  2
ENTITIES
  0
INSERT
  5
7A
330
70
100
AcDbEntity
  8
レイヤー 1
100
AcDbBlockReference
  2
Block_0
 10
0.0
 20
0.0
 30
0.0
  0
INSERT
  5
B4
330
70
100
AcDbEntity
  8
レイヤー 1
100
AcDbBlockReference
  2
Block_1
 10
0.0
 20
0.0
 30
0.0
  0
INSERT
  5
17A
330
70
100
AcDbEntity
  8
レイヤー 1
100
AcDbBlockReference
  2
Block_13
 10
0.0
 20
0.0
 30
0.0
  0
ENDSEC
  0
SECTION
  2
OBJECTS
  0
DICTIONARY
  5
C
330
0
100
AcDbDictionary
281
     1
  3
ACAD_COLOR
350
63
  3
ACAD_DETAILVIEWSTYLE
350
6A
  3
ACAD_GROUP
350
D
  3
ACAD_LAYOUT
350
62
  3
ACAD_MATERIAL
350
10
  3
ACAD_MLEADERSTYLE
350
66
  3
ACAD_MLINESTYLE
350
5F
  3
ACAD_PLOTSETTINGS
350
61
  3
ACAD_PLOTSTYLENAME
350
E
  3
ACAD_SCALELIST
350
42
  3
ACAD_SECTIONVIEWSTYLE
350
68
  3
ACAD_TABLESTYLE
350
64
  3
ACAD_VISUALSTYLE
350
29
  3
ACDB_RECOMPOSE_DATA
350
1A7
  3
AcDbVariableDictionary
350
19F
  0
DICTIONARY
  5
63
102
{ACAD_REACTORS
330
C
102
}
330
C
100
AcDbDictionary
281
     1
  0
DICTIONARY
  5
6A
102
{ACAD_REACTORS
330
C
102
}
330
C
100
AcDbDictionary
281
     1
  3
Imperial24
350
6B
  0
DICTIONARY
  5
D
102
{ACAD_REACTORS
330
C
102
}
330
C
100
AcDbDictionary
281
     1
  0
DICTIONARY
  5
62
102
{ACAD_REACTORS
330
C
102
}
330
C
100
AcDbDictionary
281
     1
  3
Layout1
350
6F
  3
Layout2
350
77
  3
Model
350
73
  0
DICTIONARY
  5
10
102
{ACAD_REACTORS
330
C
102
}
330
C
100
AcDbDictionary
281
     1
  3
ByBlock
350
19
  3
ByLayer
350
11
  3
Global
350
21
  0
DICTIONARY
  5
66
102
{ACAD_REACTORS
330
C
102
}
330
C
100
AcDbDictionary
281
     1
  3
Standard
350
67
  0
DICTIONARY
  5
5F
102
{ACAD_REACTORS
330
C
102
}
330
C
100
AcDbDictionary
281
     1
  3
Standard
350
60
  0
DICTIONARY
  5
61
102
{ACAD_REACTORS
330
C
102
}
330
C
100
AcDbDictionary
281
     1
  0
ACDBDICTIONARYWDFLT
  5
E
102
{ACAD_REACTORS
330
C
102
}
330
C
100
AcDbDictionary
281
     1
  3
Normal
350
F
100
AcDbDictionaryWithDefault
340
F
  0
DICTIONARY
  5
42
102
{ACAD_REACTORS
330
C
102
}
330
C
100
AcDbDictionary
281
     1
  3
A0
350
43
  3
A1
350
44
  3
A2
350
45
  3
A3
350
46
  3
A4
350
47
  3
A5
350
48
  3
A6
350
49
  3
A7
350
4A
  3
A8
350
4B
  3
A9
350
4C
  3
B0
350
4D
  3
B1
350
4E
  3
B2
350
4F
  3
B3
350
50
  3
B4
350
51
  3
B5
350
52
  3
B6
350
53
  0
DICTIONARY
  5
68
102
{ACAD_REACTORS
330
C
102
}
330
C
100
AcDbDictionary
281
     1
  3
Imperial24
350
69
  0
DICTIONARY
  5
64
102
{ACAD_REACTORS
330
C
102
}
330
C
100
AcDbDictionary
281
     1
  3
Standard
350
65
  0
DICTIONARY
  5
29
102
{ACAD_REACTORS
330
C
102
}
330
C
100
AcDbDictionary
281
     1
  3
2dWireframe
350
2F
  3
Basic
350
2E
  3
Brighten
350
35
  3
ColorChange
350
39
  3
Conceptual
350
32
  3
Dim
350
34
  3
EdgeColorOff
350
41
  3
Facepattern
350
38
  3
Flat
350
2A
  3
FlatWithEdges
350
2B
  3
Gouraud
350
2C
  3
GouraudWithEdges
350
2D
  3
Hidden
350
31
  3
JitterOff
350
3F
  3
Linepattern
350
37
  3
OverhangOff
350
40
  3
Realistic
350
33
  3
Shaded
350
3E
  3
Shaded with edges
350
3D
  3
Shades of Gray
350
3A
  3
Sketchy
350
3B
  3
Thicken
350
36
  3
Wireframe
350
30
  3
X-Ray
350
3C
  0
XRECORD
  5
1A7
102
{ACAD_REACTORS
330
C
102
}
330
C
100
AcDbXrecord
280
     1
 90
        1
330
65
  0
DICTIONARY
  5
19F
102
{ACAD_REACTORS
330
C
102
}
330
C
100
AcDbDictionary
281
     1
  3
CANNOSCALE
350
1A4
  3
CMLEADERSTYLE
350
1A1
  3
CTABLESTYLE
350
1A0
  3
CVIEWDETAILSTYLE
350
1A2
  3
CVIEWSECTIONSTYLE
350
1A3
  0
ACDBDETAILVIEWSTYLE
  5
6B
102
{ACAD_XDICTIONARY
360
1DC
102
}
102
{ACAD_REACTORS
330
6A
102
}
330
6A
100
AcDbModelDocViewStyle
 70
     0
  3
Imperial24
290
     0
100
AcDbDetailViewStyle
 70
     0
 71
     0
 90
        3
 71
     1
340
55
 62
   256
 40
0.24
340
0
 62
   256
 40
0.24
300

 40
0.36
280
     3
 71
     2
340
5D
 90
       25
 62
   256
 71
     3
340
55
 62
   256
 40
0.24
 90
        1
 40
0.75
 90
        1
300
%<\AcVar ViewType \f "%tc1">% %<\AcVar ViewDetailId>%\PSCALE %<\AcVar ViewScale \f "%sn">%
 71
     4
340
5D
 90
       25
 62
   256
340
5D
 90
       25
 62
   256
280
     0
  0
LAYOUT
  5
6F
102
{ACAD_REACTORS
330
62
102
}
330
62
100
AcDbPlotSettings
  1

  2

  4

  6

 40
0.0
 41
0.0
 42
0.0
 43
0.0
 44
0.0
 45
0.0
 46
0.0
 47
0.0
 48
0.0
 49
0.0
140
0.0
141
0.0
142
1.0
143
1.0
 70
   688
 72
     0
 73
     0
 74
     5
  7

 75
    16
147
1.0
 76
     0
 77
     2
 78
   300
148
0.0
149
0.0
100
AcDbLayout
  1
Layout1
 70
     1
 71
     1
 10
0.0
 20
0.0
 11
12.0
 21
9.0
 12
0.0
 22
0.0
 32
0.0
 14
0.0
 24
0.0
 34
0.0
 15
0.0
 25
0.0
 35
0.0
146
0.0
 13
0.0
 23
0.0
 33
0.0
 16
1.0
 26
0.0
 36
0.0
 17
0.0
 27
1.0
 37
0.0
 76
     0
330
6C
  0
LAYOUT
  5
77
102
{ACAD_REACTORS
330
62
102
}
330
62
100
AcDbPlotSettings
  1

  2

  4

  6

 40
0.0
 41
0.0
 42
0.0
 43
0.0
 44
0.0
 45
0.0
 46
0.0
 47
0.0
 48
0.0
 49
0.0
140
0.0
141
0.0
142
1.0
143
1.0
 70
   688
 72
     0
 73
     0
 74
     5
  7

 75
    16
147
1.0
 76
     0
 77
     2
 78
   300
148
0.0
149
0.0
100
AcDbLayout
  1
Layout2
 70
     1
 71
     2
 10
0.0
 20
0.0
 11
12.0
 21
9.0
 12
0.0
 22
0.0
 32
0.0
 14
0.0
 24
0.0
 34
0.0
 15
0.0
 25
0.0
 35
0.0
146
0.0
 13
0.0
 23
0.0
 33
0.0
 16
1.0
 26
0.0
 36
0.0
 17
0.0
 27
1.0
 37
0.0
 76
     0
330
74
  0
LAYOUT
  5
73
102
{ACAD_REACTORS
330
62
102
}
330
62
100
AcDbPlotSettings
  1

  2

  4

  6

 40
0.0
 41
0.0
 42
0.0
 43
0.0
 44
0.0
 45
0.0
 46
0.0
 47
0.0
 48
0.0
 49
0.0
140
0.0
141
0.0
142
1.0
143
1.0
 70
  1712
 72
     0
 73
     0
 74
     0
  7

 75
     0
147
1.0
 76
     0
 77
     2
 78
   300
148
0.0
149
0.0
100
AcDbLayout
  1
Model
 70
     1
 71
     0
 10
0.0
 20
0.0
 11
12.0
 21
9.0
 12
0.0
 22
0.0
 32
0.0
 14
0.0
 24
0.0
 34
0.0
 15
0.0
 25
0.0
 35
0.0
146
0.0
 13
0.0
 23
0.0
 33
0.0
 16
1.0
 26
0.0
 36
0.0
 17
0.0
 27
1.0
 37
0.0
 76
     0
330
70
  0
MATERIAL
  5
19
102
{ACAD_XDICTIONARY
360
1A
102
}
102
{ACAD_REACTORS
330
10
102
}
330
10
100
AcDbMaterial
  1
ByBlock
 72
     0
 43
0.0208333333333333
 43
0.0
 43
0.0
 43
0.0
 43
0.0
 43
0.0208333333333333
 43
0.0
 43
0.0
 43
0.0
 43
0.0
 43
1.0
 43
0.0
 43
0.0
 43
0.0
 43
0.0
 43
1.0
 77
     0
 47
0.0208333333333333
 47
0.0
 47
0.0
 47
0.0
 47
0.0
 47
0.0208333333333333
 47
0.0
 47
0.0
 47
0.0
 47
0.0
 47
1.0
 47
0.0
 47
0.0
 47
0.0
 47
0.0
 47
1.0
171
     0
 49
0.0208333333333333
 49
0.0
 49
0.0
 49
0.0
 49
0.0
 49
0.0208333333333333
 49
0.0
 49
0.0
 49
0.0
 49
0.0
 49
1.0
 49
0.0
 49
0.0
 49
0.0
 49
0.0
 49
1.0
175
     0
142
0.0208333333333333
142
0.0
142
0.0
142
0.0
142
0.0
142
0.0208333333333333
142
0.0
142
0.0
142
0.0
142
0.0
142
1.0
142
0.0
142
0.0
142
0.0
142
0.0
142
1.0
179
     0
144
0.0208333333333333
144
0.0
144
0.0
144
0.0
144
0.0
144
0.0208333333333333
144
0.0
144
0.0
144
0.0
144
0.0
144
1.0
144
0.0
144
0.0
144
0.0
144
0.0
144
1.0
147
0.0208333333333333
147
0.0
147
0.0
147
0.0
147
0.0
147
0.0208333333333333
147
0.0
147
0.0
147
0.0
147
0.0
147
1.0
147
0.0
147
0.0
147
0.0
147
0.0
147
1.0
  0
MATERIAL
  5
11
102
{ACAD_XDICTIONARY
360
12
102
}
102
{ACAD_REACTORS
330
10
102
}
330
10
100
AcDbMaterial
  1
ByLayer
 72
     0
 43
0.0208333333333333
 43
0.0
 43
0.0
 43
0.0
 43
0.0
 43
0.0208333333333333
 43
0.0
 43
0.0
 43
0.0
 43
0.0
 43
1.0
 43
0.0
 43
0.0
 43
0.0
 43
0.0
 43
1.0
 77
     0
 47
0.0208333333333333
 47
0.0
 47
0.0
 47
0.0
 47
0.0
 47
0.0208333333333333
 47
0.0
 47
0.0
 47
0.0
 47
0.0
 47
1.0
 47
0.0
 47
0.0
 47
0.0
 47
0.0
 47
1.0
171
     0
 49
0.0208333333333333
 49
0.0
 49
0.0
 49
0.0
 49
0.0
 49
0.0208333333333333
 49
0.0
 49
0.0
 49
0.0
 49
0.0
 49
1.0
 49
0.0
 49
0.0
 49
0.0
 49
0.0
 49
1.0
175
     0
142
0.0208333333333333
142
0.0
142
0.0
142
0.0
142
0.0
142
0.0208333333333333
142
0.0
142
0.0
142
0.0
142
0.0
142
1.0
142
0.0
142
0.0
142
0.0
142
0.0
142
1.0
179
     0
144
0.0208333333333333
144
0.0
144
0.0
144
0.0
144
0.0
144
0.0208333333333333
144
0.0
144
0.0
144
0.0
144
0.0
144
1.0
144
0.0
144
0.0
144
0.0
144
0.0
144
1.0
147
0.0208333333333333
147
0.0
147
0.0
147
0.0
147
0.0
147
0.0208333333333333
147
0.0
147
0.0
147
0.0
147
0.0
147
1.0
147
0.0
147
0.0
147
0.0
147
0.0
147
1.0
  0
MATERIAL
  5
21
102
{ACAD_XDICTIONARY
360
22
102
}
102
{ACAD_REACTORS
330
10
102
}
330
10
100
AcDbMaterial
  1
Global
 72
     0
 43
0.0208333333333333
 43
0.0
 43
0.0
 43
0.0
 43
0.0
 43
0.0208333333333333
 43
0.0
 43
0.0
 43
0.0
 43
0.0
 43
1.0
 43
0.0
 43
0.0
 43
0.0
 43
0.0
 43
1.0
 77
     0
 47
0.0208333333333333
 47
0.0
 47
0.0
 47
0.0
 47
0.0
 47
0.0208333333333333
 47
0.0
 47
0.0
 47
0.0
 47
0.0
 47
1.0
 47
0.0
 47
0.0
 47
0.0
 47
0.0
 47
1.0
171
     0
 49
0.0208333333333333
 49
0.0
 49
0.0
 49
0.0
 49
0.0
 49
0.0208333333333333
 49
0.0
 49
0.0
 49
0.0
 49
0.0
 49
1.0
 49
0.0
 49
0.0
 49
0.0
 49
0.0
 49
1.0
175
     0
142
0.0208333333333333
142
0.0
142
0.0
142
0.0
142
0.0
142
0.0208333333333333
142
0.0
142
0.0
142
0.0
142
0.0
142
1.0
142
0.0
142
0.0
142
0.0
142
0.0
142
1.0
179
     0
144
0.0208333333333333
144
0.0
144
0.0
144
0.0
144
0.0
144
0.0208333333333333
144
0.0
144
0.0
144
0.0
144
0.0
144
1.0
144
0.0
144
0.0
144
0.0
144
0.0
144
1.0
147
0.0208333333333333
147
0.0
147
0.0
147
0.0
147
0.0
147
0.0208333333333333
147
0.0
147
0.0
147
0.0
147
0.0
147
1.0
147
0.0
147
0.0
147
0.0
147
0.0
147
1.0
  0
MLEADERSTYLE
  5
67
102
{ACAD_XDICTIONARY
360
1D8
102
}
102
{ACAD_REACTORS
330
66
102
}
330
66
100
AcDbMLeaderStyle
179
     2
170
     2
171
     1
172
     0
 90
        2
 40
0.0
 41
0.0
173
     1
 91
-1056964608
340
5B
 92
       -2
290
     1
 42
0.09
291
     1
 43
0.36
  3
Standard
 44
0.18
300

342
55
174
     1
178
     6
175
     1
176
     0
 93
-1056964608
 45
0.18
292
     0
297
     0
 46
0.18
 94
-1056964608
 47
1.0
 49
1.0
140
1.0
293
     1
141
0.0
294
     1
177
     0
142
1.0
295
     0
296
     0
143
0.125
271
     0
272
     9
273
     9
  0
MLINESTYLE
  5
60
102
{ACAD_REACTORS
330
5F
102
}
330
5F
100
AcDbMlineStyle
  2
STANDARD
 70
     0
  3

 62
   256
 51
90.0
 52
90.0
 71
     2
 49
0.5
 62
   256
  6
BYLAYER
 49
-0.5
 62
   256
  6
BYLAYER
  0
ACDBPLACEHOLDER
  5
F
102
{ACAD_REACTORS
330
E
102
}
330
E
  0
SCALE
  5
43
102
{ACAD_REACTORS
330
42
102
}
330
42
100
AcDbScale
 70
     0
300
1:1
140
1.0
141
1.0
290
     1
  0
SCALE
  5
44
102
{ACAD_REACTORS
330
42
102
}
330
42
100
AcDbScale
 70
     0
300
1/128" = 1'-0"
140
0.0078125
141
12.0
290
     0
  0
SCALE
  5
45
102
{ACAD_REACTORS
330
42
102
}
330
42
100
AcDbScale
 70
     0
300
1/64" = 1'-0"
140
0.015625
141
12.0
290
     0
  0
SCALE
  5
46
102
{ACAD_REACTORS
330
42
102
}
330
42
100
AcDbScale
 70
     0
300
1/32" = 1'-0"
140
0.03125
141
12.0
290
     0
  0
SCALE
  5
47
102
{ACAD_REACTORS
330
42
102
}
330
42
100
AcDbScale
 70
     0
300
1/16" = 1'-0"
140
0.0625
141
12.0
290
     0
  0
SCALE
  5
48
102
{ACAD_REACTORS
330
42
102
}
330
42
100
AcDbScale
 70
     0
300
3/32" = 1'-0"
140
0.09375
141
12.0
290
     0
  0
SCALE
  5
49
102
{ACAD_REACTORS
330
42
102
}
330
42
100
AcDbScale
 70
     0
300
1/8" = 1'-0"
140
0.125
141
12.0
290
     0
  0
SCALE
  5
4A
102
{ACAD_REACTORS
330
42
102
}
330
42
100
AcDbScale
 70
     0
300
3/16" = 1'-0"
140
0.1875
141
12.0
290
     0
  0
SCALE
  5
4B
102
{ACAD_REACTORS
330
42
102
}
330
42
100
AcDbScale
 70
     0
300
1/4" = 1'-0"
140
0.25
141
12.0
290
     0
  0
SCALE
  5
4C
102
{ACAD_REACTORS
330
42
102
}
330
42
100
AcDbScale
 70
     0
300
3/8" = 1'-0"
140
0.375
141
12.0
290
     0
  0
SCALE
  5
4D
102
{ACAD_REACTORS
330
42
102
}
330
42
100
AcDbScale
 70
     0
300
1/2" = 1'-0"
140
0.5
141
12.0
290
     0
  0
SCALE
  5
4E
102
{ACAD_REACTORS
330
42
102
}
330
42
100
AcDbScale
 70
     0
300
3/4" = 1'-0"
140
0.75
141
12.0
290
     0
  0
SCALE
  5
4F
102
{ACAD_REACTORS
330
42
102
}
330
42
100
AcDbScale
 70
     0
300
1" = 1'-0"
140
1.0
141
12.0
290
     0
  0
SCALE
  5
50
102
{ACAD_REACTORS
330
42
102
}
330
42
100
AcDbScale
 70
     0
300
1-1/2" = 1'-0"
140
1.5
141
12.0
290
     0
  0
SCALE
  5
51
102
{ACAD_REACTORS
330
42
102
}
330
42
100
AcDbScale
 70
     0
300
3" = 1'-0"
140
3.0
141
12.0
290
     0
  0
SCALE
  5
52
102
{ACAD_REACTORS
330
42
102
}
330
42
100
AcDbScale
 70
     0
300
6" = 1'-0"
140
6.0
141
12.0
290
     0
  0
SCALE
  5
53
102
{ACAD_REACTORS
330
42
102
}
330
42
100
AcDbScale
 70
     0
300
1'-0" = 1'-0"
140
12.0
141
12.0
290
     0
  0
ACDBSECTIONVIEWSTYLE
  5
69
102
{ACAD_XDICTIONARY
360
1DA
102
}
102
{ACAD_REACTORS
330
68
102
}
330
68
100
AcDbModelDocViewStyle
 70
     0
  3
Imperial24
290
     0
100
AcDbSectionViewStyle
 70
     0
 71
     0
 90
       78
 71
     1
340
55
 62
   256
 40
0.24
340
0
340
0
 62
   256
 40
0.24
300
I, O, Q, S, X, Z
 40
0.48
 90
        3
 40
0.18
 90
        1
 71
     2
340
5D
 90
       25
 62
   256
340
5D
 90
       50
 62
   256
 40
0.24
 40
0.0
 40
0.24
 71
     3
340
55
 62
   256
 40
0.24
 90
        1
 40
0.75
 90
        1
300
%<\AcVar ViewType \f "%tc1">% %<\AcVar ViewSectionStartId>%-%<\AcVar ViewSectionEndId>%\PSCALE %<\AcVar ViewScale \f "%sn">%
 71
     4
 62
   256
 62
   257
300
ANSI31
 40
1.0
 90
        0
290
     0
290
     0
 90
        6
 40
0.0
 40
1.570796326794896
 40
0.2617993877991494
 40
1.308996938995747
 40
-0.2617993877991494
 40
1.832595714594046
  0
TABLESTYLE
  5
65
102
{ACAD_XDICTIONARY
360
1A5
102
}
102
{ACAD_REACTORS
330
64
102
}
330
64
100
AcDbTableStyle
280
     0
  3
Standard
 70
     0
 71
     0
 40
0.06
 41
0.06
280
     0
281
     0
  7
Standard
140
0.18
170
     2
 62
     0
 63
     7
283
     0
 90
      512
 91
        0
  1

274
    -2
284
     1
 64
     0
275
    -2
285
     1
 65
     0
276
    -2
286
     1
 66
     0
277
    -2
287
     1
 67
     0
278
    -2
288
     1
 68
     0
279
    -2
289
     1
 69
     0
  7
Standard
140
0.25
170
     5
 62
     0
 63
     7
283
     0
 90
      512
 91
        0
  1

274
    -2
284
     1
 64
     0
275
    -2
285
     1
 65
     0
276
    -2
286
     1
 66
     0
277
    -2
287
     1
 67
     0
278
    -2
288
     1
 68
     0
279
    -2
289
     1
 69
     0
  7
Standard
140
0.18
170
     5
 62
     0
 63
     7
283
     0
 90
      512
 91
        0
  1

274
    -2
284
     1
 64
     0
275
    -2
285
     1
 65
     0
276
    -2
286
     1
 66
     0
277
    -2
287
     1
 67
     0
278
    -2
288
     1
 68
     0
279
    -2
289
     1
 69
     0
  0
VISUALSTYLE
  5
2F
102
{ACAD_XDICTIONARY
360
1B2
102
}
102
{ACAD_REACTORS
330
29
102
}
330
29
100
AcDbVisualStyle
  2
2dWireframe
 70
     4
177
     2
291
     0
 71
     0
176
     1
 72
     2
176
     1
 73
     0
176
     1
 90
        0
176
     1
 40
0.6
176
     1
 41
30.0
176
     1
 63
     7
421
 16777215
176
     1
 74
     1
176
     1
 91
        4
176
     1
 64
     7
176
     1
 65
   257
176
     1
 75
     1
176
     1
175
     1
176
     1
 42
1.0
176
     1
 92
        0
176
     1
 66
   257
176
     1
 43
1.0
176
     1
 76
     1
176
     1
 77
     6
176
     1
 78
     2
176
     1
 67
     7
176
     1
 79
     5
176
     1
170
     0
176
     1
171
     0
176
     1
290
     0
176
     1
 93
        1
176
     1
 44
0.0
176
     1
173
     0
176
     1
1001
ACAD
1000
AcDbSavedByObjectVersion
1070
     0
  0
VISUALSTYLE
  5
2E
102
{ACAD_XDICTIONARY
360
1B0
102
}
102
{ACAD_REACTORS
330
29
102
}
330
29
100
AcDbVisualStyle
  2
Basic
 70
     7
177
     2
291
     1
 71
     1
176
     1
 72
     0
176
     1
 73
     1
176
     1
 90
        0
176
     1
 40
0.6
176
     1
 41
30.0
176
     1
 63
     7
421
 16777215
176
     1
 74
     0
176
     1
 91
        4
176
     1
 64
     7
176
     1
 65
   257
176
     1
 75
     1
176
     1
175
     1
176
     1
 42
1.0
176
     1
 92
        8
176
     1
 66
     7
176
     1
 43
1.0
176
     1
 76
     1
176
     1
 77
     6
176
     1
 78
     2
176
     1
 67
     7
176
     1
 79
     5
176
     1
170
     0
176
     1
171
     0
176
     1
290
     0
176
     1
 93
        1
176
     1
 44
0.0
176
     1
173
     0
176
     1
1001
ACAD
1000
AcDbSavedByObjectVersion
1070
     0
  0
VISUALSTYLE
  5
35
102
{ACAD_XDICTIONARY
360
1BE
102
}
102
{ACAD_REACTORS
330
29
102
}
330
29
100
AcDbVisualStyle
  2
Brighten
 70
    12
177
     2
291
     1
 71
     2
176
     1
 72
     2
176
     1
 73
     0
176
     1
 90
        0
176
     1
 40
0.6
176
     1
 41
30.0
176
     1
 63
     7
421
 16777215
176
     1
 74
     1
176
     1
 91
        4
176
     1
 64
     7
176
     1
 65
   257
176
     1
 75
     1
176
     1
175
     1
176
     1
 42
1.0
176
     1
 92
        8
176
     1
 66
     7
176
     1
 43
1.0
176
     1
 76
     1
176
     1
 77
     6
176
     1
 78
     2
176
     1
 67
     7
176
     1
 79
     5
176
     1
170
     0
176
     1
171
     0
176
     1
290
     0
176
     1
 93
        1
176
     1
 44
50.0
176
     1
173
     0
176
     1
1001
ACAD
1000
AcDbSavedByObjectVersion
1070
     0
  0
VISUALSTYLE
  5
39
102
{ACAD_XDICTIONARY
360
1C6
102
}
102
{ACAD_REACTORS
330
29
102
}
330
29
100
AcDbVisualStyle
  2
ColorChange
 70
    16
177
     2
291
     1
 71
     2
176
     1
 72
     2
176
     1
 73
     3
176
     1
 90
        0
176
     1
 40
0.6
176
     1
 41
30.0
176
     1
 63
     8
421
  8421504
176
     1
 74
     1
176
     1
 91
        4
176
     1
 64
     7
176
     1
 65
   257
176
     1
 75
     1
176
     1
175
     1
176
     1
 42
1.0
176
     1
 92
        8
176
     1
 66
     8
424
  8421504
176
     1
 43
1.0
176
     1
 76
     1
176
     1
 77
     6
176
     1
 78
     2
176
     1
 67
     7
176
     1
 79
     5
176
     1
170
     0
176
     1
171
     0
176
     1
290
     0
176
     1
 93
        1
176
     1
 44
0.0
176
     1
173
     0
176
     1
1001
ACAD
1000
AcDbSavedByObjectVersion
1070
     0
  0
VISUALSTYLE
  5
32
102
{ACAD_XDICTIONARY
360
1B8
102
}
102
{ACAD_REACTORS
330
29
102
}
330
29
100
AcDbVisualStyle
  2
Conceptual
 70
     9
177
     2
291
     0
 71
     3
176
     1
 72
     2
176
     1
 73
     0
176
     1
 90
        0
176
     1
 40
0.6
176
     1
 41
30.0
176
     1
 63
     7
421
 16777215
176
     1
 74
     2
176
     1
 91
        2
176
     1
 64
     7
176
     1
 65
   257
176
     1
 75
     1
176
     1
175
     1
176
     1
 42
179.0
176
     1
 92
        8
176
     1
 66
     7
176
     1
 43
1.0
176
     1
 76
     1
176
     1
 77
     6
176
     1
 78
     2
176
     1
 67
     7
176
     1
 79
     3
176
     1
170
     0
176
     1
171
     0
176
     1
290
     0
176
     1
 93
        1
176
     1
 44
0.0
176
     1
173
     0
176
     1
1001
ACAD
1000
AcDbSavedByObjectVersion
1070
     0
  0
VISUALSTYLE
  5
34
102
{ACAD_XDICTIONARY
360
1BC
102
}
102
{ACAD_REACTORS
330
29
102
}
330
29
100
AcDbVisualStyle
  2
Dim
 70
    11
177
     2
291
     1
 71
     2
176
     1
 72
     2
176
     1
 73
     0
176
     1
 90
        0
176
     1
 40
0.6
176
     1
 41
30.0
176
     1
 63
     7
421
 16777215
176
     1
 74
     1
176
     1
 91
        4
176
     1
 64
     7
176
     1
 65
   257
176
     1
 75
     1
176
     1
175
     1
176
     1
 42
1.0
176
     1
 92
        8
176
     1
 66
     7
176
     1
 43
1.0
176
     1
 76
     1
176
     1
 77
     6
176
     1
 78
     2
176
     1
 67
     7
176
     1
 79
     5
176
     1
170
     0
176
     1
171
     0
176
     1
290
     0
176
     1
 93
        1
176
     1
 44
-50.0
176
     1
173
     0
176
     1
1001
ACAD
1000
AcDbSavedByObjectVersion
1070
     0
  0
VISUALSTYLE
  5
41
102
{ACAD_XDICTIONARY
360
1D6
102
}
102
{ACAD_REACTORS
330
29
102
}
330
29
100
AcDbVisualStyle
  2
EdgeColorOff
 70
    22
177
     2
291
     1
 71
     2
176
     0
 72
     2
176
     0
 73
     0
176
     0
 90
        0
176
     0
 40
0.6
176
     0
 41
30.0
176
     0
 63
     7
421
 16777215
176
     0
 74
     1
176
     0
 91
        4
176
     0
 64
     7
176
     0
 65
   257
176
     0
 75
     1
176
     0
175
     1
176
     0
 42
1.0
176
     0
 92
        8
176
     2
 66
     7
176
     0
 43
1.0
176
     0
 76
     1
176
     0
 77
     6
176
     0
 78
     2
176
     0
 67
     7
176
     0
 79
     5
176
     0
170
     0
176
     0
171
     0
176
     0
290
     0
176
     0
 93
        1
176
     0
 44
0.0
176
     0
173
     0
176
     0
1001
ACAD
1000
AcDbSavedByObjectVersion
1070
     0
  0
VISUALSTYLE
  5
38
102
{ACAD_XDICTIONARY
360
1C4
102
}
102
{ACAD_REACTORS
330
29
102
}
330
29
100
AcDbVisualStyle
  2
Facepattern
 70
    15
177
     2
291
     1
 71
     2
176
     1
 72
     2
176
     1
 73
     0
176
     1
 90
        0
176
     1
 40
0.6
176
     1
 41
30.0
176
     1
 63
     7
421
 16777215
176
     1
 74
     1
176
     1
 91
        4
176
     1
 64
     7
176
     1
 65
   257
176
     1
 75
     1
176
     1
175
     1
176
     1
 42
1.0
176
     1
 92
        8
176
     1
 66
     7
176
     1
 43
1.0
176
     1
 76
     1
176
     1
 77
     6
176
     1
 78
     2
176
     1
 67
     7
176
     1
 79
     5
176
     1
170
     0
176
     1
171
     0
176
     1
290
     0
176
     1
 93
        1
176
     1
 44
0.0
176
     1
173
     0
176
     1
1001
ACAD
1000
AcDbSavedByObjectVersion
1070
     0
  0
VISUALSTYLE
  5
2A
102
{ACAD_XDICTIONARY
360
1A8
102
}
102
{ACAD_REACTORS
330
29
102
}
330
29
100
AcDbVisualStyle
  2
Flat
 70
     0
177
     2
291
     1
 71
     2
176
     1
 72
     1
176
     1
 73
     1
176
     1
 90
        2
176
     1
 40
0.6
176
     1
 41
30.0
176
     1
 63
     7
421
 16777215
176
     1
 74
     0
176
     1
 91
        0
176
     1
 64
     7
176
     1
 65
   257
176
     1
 75
     1
176
     1
175
     1
176
     1
 42
1.0
176
     1
 92
        8
176
     1
 66
     7
176
     1
 43
1.0
176
     1
 76
     1
176
     1
 77
     6
176
     1
 78
     2
176
     1
 67
     7
176
     1
 79
     5
176
     1
170
     0
176
     1
171
     0
176
     1
290
     0
176
     1
 93
       13
176
     1
 44
0.0
176
     1
173
     0
176
     1
1001
ACAD
1000
AcDbSavedByObjectVersion
1070
     0
  0
VISUALSTYLE
  5
2B
102
{ACAD_XDICTIONARY
360
1AA
102
}
102
{ACAD_REACTORS
330
29
102
}
330
29
100
AcDbVisualStyle
  2
FlatWithEdges
 70
     1
177
     2
291
     1
 71
     2
176
     1
 72
     1
176
     1
 73
     1
176
     1
 90
        2
176
     1
 40
0.6
176
     1
 41
30.0
176
     1
 63
     7
421
 16777215
176
     1
 74
     1
176
     1
 91
        0
176
     1
 64
     7
176
     1
 65
   257
176
     1
 75
     1
176
     1
175
     1
176
     1
 42
1.0
176
     1
 92
        0
176
     1
 66
   257
176
     1
 43
1.0
176
     1
 76
     1
176
     1
 77
     6
176
     1
 78
     2
176
     1
 67
     7
176
     1
 79
     5
176
     1
170
     0
176
     1
171
     0
176
     1
290
     0
176
     1
 93
       13
176
     1
 44
0.0
176
     1
173
     0
176
     1
1001
ACAD
1000
AcDbSavedByObjectVersion
1070
     0
  0
VISUALSTYLE
  5
2C
102
{ACAD_XDICTIONARY
360
1AC
102
}
102
{ACAD_REACTORS
330
29
102
}
330
29
100
AcDbVisualStyle
  2
Gouraud
 70
     2
177
     2
291
     1
 71
     2
176
     1
 72
     2
176
     1
 73
     1
176
     1
 90
        2
176
     1
 40
0.6
176
     1
 41
30.0
176
     1
 63
     7
421
 16777215
176
     1
 74
     0
176
     1
 91
        0
176
     1
 64
     7
176
     1
 65
   257
176
     1
 75
     1
176
     1
175
     1
176
     1
 42
1.0
176
     1
 92
        0
176
     1
 66
     7
176
     1
 43
1.0
176
     1
 76
     1
176
     1
 77
     6
176
     1
 78
     2
176
     1
 67
     7
176
     1
 79
     5
176
     1
170
     0
176
     1
171
     0
176
     1
290
     0
176
     1
 93
       13
176
     1
 44
0.0
176
     1
173
     0
176
     1
1001
ACAD
1000
AcDbSavedByObjectVersion
1070
     0
  0
VISUALSTYLE
  5
2D
102
{ACAD_XDICTIONARY
360
1AE
102
}
102
{ACAD_REACTORS
330
29
102
}
330
29
100
AcDbVisualStyle
  2
GouraudWithEdges
 70
     3
177
     2
291
     1
 71
     2
176
     1
 72
     2
176
     1
 73
     1
176
     1
 90
        2
176
     1
 40
0.6
176
     1
 41
30.0
176
     1
 63
     7
421
 16777215
176
     1
 74
     1
176
     1
 91
        0
176
     1
 64
     7
176
     1
 65
   257
176
     1
 75
     1
176
     1
175
     1
176
     1
 42
1.0
176
     1
 92
        0
176
     1
 66
   257
176
     1
 43
1.0
176
     1
 76
     1
176
     1
 77
     6
176
     1
 78
     2
176
     1
 67
     7
176
     1
 79
     5
176
     1
170
     0
176
     1
171
     0
176
     1
290
     0
176
     1
 93
       13
176
     1
 44
0.0
176
     1
173
     0
176
     1
1001
ACAD
1000
AcDbSavedByObjectVersion
1070
     0
  0
VISUALSTYLE
  5
31
102
{ACAD_XDICTIONARY
360
1B6
102
}
102
{ACAD_REACTORS
330
29
102
}
330
29
100
AcDbVisualStyle
  2
Hidden
 70
     6
177
     2
291
     0
 71
     1
176
     1
 72
     2
176
     1
 73
     2
176
     1
 90
        0
176
     1
 40
0.6
176
     1
 41
30.0
176
     1
 63
     7
421
 16777215
176
     1
 74
     2
176
     1
 91
        2
176
     1
 64
     7
176
     1
 65
   257
176
     1
 75
     2
176
     1
175
     1
176
     1
 42
40.0
176
     1
 92
        0
176
     1
 66
   257
176
     1
 43
1.0
176
     1
 76
     1
176
     1
 77
     6
176
     1
 78
     2
176
     1
 67
     7
176
     1
 79
     3
176
     1
170
     0
176
     1
171
     0
176
     1
290
     0
176
     1
 93
        1
176
     1
 44
0.0
176
     1
173
     0
176
     1
1001
ACAD
1000
AcDbSavedByObjectVersion
1070
     0
  0
VISUALSTYLE
  5
3F
102
{ACAD_XDICTIONARY
360
1D2
102
}
102
{ACAD_REACTORS
330
29
102
}
330
29
100
AcDbVisualStyle
  2
JitterOff
 70
    20
177
     2
291
     1
 71
     2
176
     0
 72
     2
176
     0
 73
     0
176
     0
 90
        0
176
     0
 40
0.6
176
     0
 41
30.0
176
     0
 63
     7
421
 16777215
176
     0
 74
     1
176
     0
 91
        4
176
     0
 64
     7
176
     0
 65
   257
176
     0
 75
     1
176
     0
175
     1
176
     0
 42
1.0
176
     0
 92
       10
176
     2
 66
     7
176
     0
 43
1.0
176
     0
 76
     1
176
     0
 77
     6
176
     0
 78
     2
176
     0
 67
     7
176
     0
 79
     5
176
     0
170
     0
176
     0
171
     0
176
     0
290
     0
176
     0
 93
        1
176
     0
 44
0.0
176
     0
173
     0
176
     0
1001
ACAD
1000
AcDbSavedByObjectVersion
1070
     0
  0
VISUALSTYLE
  5
37
102
{ACAD_XDICTIONARY
360
1C2
102
}
102
{ACAD_REACTORS
330
29
102
}
330
29
100
AcDbVisualStyle
  2
Linepattern
 70
    14
177
     2
291
     1
 71
     2
176
     1
 72
     2
176
     1
 73
     0
176
     1
 90
        0
176
     1
 40
0.6
176
     1
 41
30.0
176
     1
 63
     7
421
 16777215
176
     1
 74
     1
176
     1
 91
        4
176
     1
 64
     7
176
     1
 65
   257
176
     1
 75
     7
176
     1
175
     7
176
     1
 42
1.0
176
     1
 92
        8
176
     1
 66
     7
176
     1
 43
1.0
176
     1
 76
     1
176
     1
 77
     6
176
     1
 78
     2
176
     1
 67
     7
176
     1
 79
     5
176
     1
170
     0
176
     1
171
     0
176
     1
290
     0
176
     1
 93
        1
176
     1
 44
0.0
176
     1
173
     0
176
     1
1001
ACAD
1000
AcDbSavedByObjectVersion
1070
     0
  0
VISUALSTYLE
  5
40
102
{ACAD_XDICTIONARY
360
1D4
102
}
102
{ACAD_REACTORS
330
29
102
}
330
29
100
AcDbVisualStyle
  2
OverhangOff
 70
    21
177
     2
291
     1
 71
     2
176
     0
 72
     2
176
     0
 73
     0
176
     0
 90
        0
176
     0
 40
0.6
176
     0
 41
30.0
176
     0
 63
     7
421
 16777215
176
     0
 74
     1
176
     0
 91
        4
176
     0
 64
     7
176
     0
 65
   257
176
     0
 75
     1
176
     0
175
     1
176
     0
 42
1.0
176
     0
 92
        9
176
     2
 66
     7
176
     0
 43
1.0
176
     0
 76
     1
176
     0
 77
     6
176
     0
 78
     2
176
     0
 67
     7
176
     0
 79
     5
176
     0
170
     0
176
     0
171
     0
176
     0
290
     0
176
     0
 93
        1
176
     0
 44
0.0
176
     0
173
     0
176
     0
1001
ACAD
1000
AcDbSavedByObjectVersion
1070
     0
  0
VISUALSTYLE
  5
33
102
{ACAD_XDICTIONARY
360
1BA
102
}
102
{ACAD_REACTORS
330
29
102
}
330
29
100
AcDbVisualStyle
  2
Realistic
 70
     8
177
     2
291
     0
 71
     2
176
     1
 72
     3
176
     1
 73
     0
176
     1
 90
        2
176
     1
 40
0.6
176
     1
 41
30.0
176
     1
 63
     7
421
 16777215
176
     1
 74
     0
176
     1
 91
        0
176
     1
 64
     7
176
     1
 65
   257
176
     1
 75
     1
176
     1
175
     1
176
     1
 42
1.0
176
     1
 92
        8
176
     1
 66
   257
176
     1
 43
1.0
176
     1
 76
     1
176
     1
 77
     6
176
     1
 78
     2
176
     1
 67
     7
176
     1
 79
     3
176
     1
170
     0
176
     1
171
     0
176
     1
290
     0
176
     1
 93
       13
176
     1
 44
0.0
176
     1
173
     0
176
     1
1001
ACAD
1000
AcDbSavedByObjectVersion
1070
     0
  0
VISUALSTYLE
  5
3E
102
{ACAD_XDICTIONARY
360
1D0
102
}
102
{ACAD_REACTORS
330
29
102
}
330
29
100
AcDbVisualStyle
  2
Shaded
 70
    27
177
     2
291
     0
 71
     2
176
     1
 72
     2
176
     1
 73
     1
176
     1
 90
        2
176
     1
 40
0.6
176
     1
 41
30.0
176
     1
 63
     7
421
 16777215
176
     1
 74
     0
176
     1
 91
        4
176
     1
 64
     7
176
     1
 65
   257
176
     1
 75
     1
176
     1
175
     1
176
     1
 42
1.0
176
     1
 92
        8
176
     1
 66
   257
176
     1
 43
1.0
176
     1
 76
     1
176
     1
 77
     6
176
     1
 78
     2
176
     1
 67
     8
425
  7895160
176
     1
 79
     3
176
     1
170
     0
176
     1
171
     0
176
     1
290
     0
176
     1
 93
        5
176
     1
 44
0.0
176
     1
173
     0
176
     1
1001
ACAD
1000
AcDbSavedByObjectVersion
1070
     0
  0
VISUALSTYLE
  5
3D
102
{ACAD_XDICTIONARY
360
1CE
102
}
102
{ACAD_REACTORS
330
29
102
}
330
29
100
AcDbVisualStyle
  2
Shaded with edges
 70
    26
177
     2
291
     0
 71
     2
176
     1
 72
     2
176
     1
 73
     1
176
     1
 90
        2
176
     1
 40
0.6
176
     1
 41
30.0
176
     1
 63
     7
421
 16777215
176
     1
 74
     1
176
     1
 91
        2
176
     1
 64
     7
176
     1
 65
   257
176
     1
 75
     2
176
     1
175
     1
176
     1
 42
1.0
176
     1
 92
        8
176
     1
 66
   257
176
     1
 43
1.0
176
     1
 76
     1
176
     1
 77
     6
176
     1
 78
     2
176
     1
 67
     7
176
     1
 79
     3
176
     1
170
     0
176
     1
171
     0
176
     1
290
     0
176
     1
 93
        5
176
     1
 44
0.0
176
     1
173
     0
176
     1
1001
ACAD
1000
AcDbSavedByObjectVersion
1070
     0
  0
VISUALSTYLE
  5
3A
102
{ACAD_XDICTIONARY
360
1C8
102
}
102
{ACAD_REACTORS
330
29
102
}
330
29
100
AcDbVisualStyle
  2
Shades of Gray
 70
    23
177
     2
291
     0
 71
     2
176
     1
 72
     2
176
     1
 73
     3
176
     1
 90
        0
176
     1
 40
0.6
176
     1
 41
30.0
176
     1
 63
     7
421
 16777215
176
     1
 74
     2
176
     1
 91
        2
176
     1
 64
     7
176
     1
 65
     7
176
     1
 75
     1
176
     1
175
     1
176
     1
 42
40.0
176
     1
 92
        8
176
     1
 66
     7
176
     1
 43
1.0
176
     1
 76
     1
176
     1
 77
     6
176
     1
 78
     2
176
     1
 67
     7
176
     1
 79
     3
176
     1
170
     0
176
     1
171
     0
176
     1
290
     0
176
     1
 93
        1
176
     1
 44
0.0
176
     1
173
     0
176
     1
1001
ACAD
1000
AcDbSavedByObjectVersion
1070
     0
  0
VISUALSTYLE
  5
3B
102
{ACAD_XDICTIONARY
360
1CA
102
}
102
{ACAD_REACTORS
330
29
102
}
330
29
100
AcDbVisualStyle
  2
Sketchy
 70
    24
177
     2
291
     0
 71
     1
176
     1
 72
     2
176
     1
 73
     2
176
     1
 90
        0
176
     1
 40
0.6
176
     1
 41
30.0
176
     1
 63
     7
421
 16777215
176
     1
 74
     2
176
     1
 91
        2
176
     1
 64
     7
176
     1
 65
     7
176
     1
 75
     1
176
     1
175
     1
176
     1
 42
40.0
176
     1
 92
       11
176
     1
 66
     7
176
     1
 43
1.0
176
     1
 76
     1
176
     1
 77
     6
176
     1
 78
     2
176
     1
 67
     7
176
     1
 79
     6
176
     1
170
     0
176
     1
171
     0
176
     1
290
     0
176
     1
 93
        1
176
     1
 44
0.0
176
     1
173
     0
176
     1
1001
ACAD
1000
AcDbSavedByObjectVersion
1070
     0
  0
VISUALSTYLE
  5
36
102
{ACAD_XDICTIONARY
360
1C0
102
}
102
{ACAD_REACTORS
330
29
102
}
330
29
100
AcDbVisualStyle
  2
Thicken
 70
    13
177
     2
291
     1
 71
     2
176
     1
 72
     2
176
     1
 73
     0
176
     1
 90
        0
176
     1
 40
0.6
176
     1
 41
30.0
176
     1
 63
     7
421
 16777215
176
     1
 74
     1
176
     1
 91
        4
176
     1
 64
     7
176
     1
 65
   257
176
     1
 75
     1
176
     1
175
     1
176
     1
 42
1.0
176
     1
 92
       12
176
     1
 66
     7
176
     1
 43
1.0
176
     1
 76
     1
176
     1
 77
     6
176
     1
 78
     2
176
     1
 67
     7
176
     1
 79
     5
176
     1
170
     0
176
     1
171
     0
176
     1
290
     0
176
     1
 93
        1
176
     1
 44
0.0
176
     1
173
     0
176
     1
1001
ACAD
1000
AcDbSavedByObjectVersion
1070
     0
  0
VISUALSTYLE
  5
30
102
{ACAD_XDICTIONARY
360
1B4
102
}
102
{ACAD_REACTORS
330
29
102
}
330
29
100
AcDbVisualStyle
  2
Wireframe
 70
     5
177
     2
291
     0
 71
     0
176
     1
 72
     2
176
     1
 73
     0
176
     1
 90
        0
176
     1
 40
0.6
176
     1
 41
30.0
176
     1
 63
     7
421
 16777215
176
     1
 74
     1
176
     1
 91
        4
176
     1
 64
     7
176
     1
 65
   257
176
     1
 75
     1
176
     1
175
     1
176
     1
 42
1.0
176
     1
 92
        0
176
     1
 66
   257
176
     1
 43
1.0
176
     1
 76
     1
176
     1
 77
     6
176
     1
 78
     2
176
     1
 67
     7
176
     1
 79
     3
176
     1
170
     0
176
     1
171
     0
176
     1
290
     0
176
     1
 93
        1
176
     1
 44
0.0
176
     1
173
     0
176
     1
1001
ACAD
1000
AcDbSavedByObjectVersion
1070
     0
  0
VISUALSTYLE
  5
3C
102
{ACAD_XDICTIONARY
360
1CC
102
}
102
{ACAD_REACTORS
330
29
102
}
330
29
100
AcDbVisualStyle
  2
X-Ray
 70
    25
177
     2
291
     0
 71
     2
176
     1
 72
     2
176
     1
 73
     1
176
     1
 90
        1
176
     1
 40
0.5
176
     1
 41
30.0
176
     1
 63
     7
421
 16777215
176
     1
 74
     1
176
     1
 91
        0
176
     1
 64
     7
176
     1
 65
   257
176
     1
 75
     1
176
     1
175
     1
176
     1
 42
1.0
176
     1
 92
        8
176
     1
 66
     7
176
     1
 43
1.0
176
     1
 76
     1
176
     1
 77
     6
176
     1
 78
     2
176
     1
 67
     7
176
     1
 79
     3
176
     1
170
     0
176
     1
171
     0
176
     1
290
     0
176
     1
 93
       13
176
     1
 44
0.0
176
     1
173
     0
176
     1
1001
ACAD
1000
AcDbSavedByObjectVersion
1070
     0
  0
DICTIONARYVAR
  5
1A4
102
{ACAD_REACTORS
330
19F
102
}
330
19F
100
DictionaryVariables
280
     0
  1
1:1
  0
DICTIONARYVAR
  5
1A1
102
{ACAD_REACTORS
330
19F
102
}
330
19F
100
DictionaryVariables
280
     0
  1
STANDARD
  0
DICTIONARYVAR
  5
1A0
102
{ACAD_REACTORS
330
19F
102
}
330
19F
100
DictionaryVariables
280
     0
  1
STANDARD
  0
DICTIONARYVAR
  5
1A2
102
{ACAD_REACTORS
330
19F
102
}
330
19F
100
DictionaryVariables
280
     0
  1
Imperial24
  0
DICTIONARYVAR
  5
1A3
102
{ACAD_REACTORS
330
19F
102
}
330
19F
100
DictionaryVariables
280
     0
  1
Imperial24
  0
DICTIONARY
  5
1DC
330
6B
100
AcDbDictionary
280
     1
281
     1
  3
ACAD_XREC_ROUNDTRIP
360
1DD
  0
DICTIONARY
  5
1A
330
19
100
AcDbDictionary
280
     1
281
     1
  3
BUMPTILE
360
1C
  3
DIFFUSETILE
360
1B
  3
OPACITYTILE
360
1F
  3
REFLECTIONTILE
360
1E
  3
REFRACTIONTILE
360
20
  3
SPECULARTILE
360
1D
  0
DICTIONARY
  5
12
330
11
100
AcDbDictionary
280
     1
281
     1
  3
BUMPTILE
360
14
  3
DIFFUSETILE
360
13
  3
OPACITYTILE
360
17
  3
REFLECTIONTILE
360
16
  3
REFRACTIONTILE
360
18
  3
SPECULARTILE
360
15
  0
DICTIONARY
  5
22
330
21
100
AcDbDictionary
280
     1
281
     1
  3
BUMPTILE
360
24
  3
DIFFUSETILE
360
23
  3
OPACITYTILE
360
27
  3
REFLECTIONTILE
360
26
  3
REFRACTIONTILE
360
28
  3
SPECULARTILE
360
25
  0
DICTIONARY
  5
1D8
330
67
100
AcDbDictionary
280
     1
281
     1
  3
ACAD_XREC_ROUNDTRIP
360
1D9
  0
DICTIONARY
  5
1DA
330
69
100
AcDbDictionary
280
     1
281
     1
  3
ACAD_XREC_ROUNDTRIP
360
1DB
  0
DICTIONARY
  5
1A5
330
65
100
AcDbDictionary
280
     1
281
     1
  3
ACAD_ROUNDTRIP_2008_TABLESTYLE_CELLSTYLEMAP
360
1A6
  0
DICTIONARY
  5
1B2
330
2F
100
AcDbDictionary
280
     1
281
     1
  3
ACAD_XREC_ROUNDTRIP
360
1B3
  0
DICTIONARY
  5
1B0
330
2E
100
AcDbDictionary
280
     1
281
     1
  3
ACAD_XREC_ROUNDTRIP
360
1B1
  0
DICTIONARY
  5
1BE
330
35
100
AcDbDictionary
280
     1
281
     1
  3
ACAD_XREC_ROUNDTRIP
360
1BF
  0
DICTIONARY
  5
1C6
330
39
100
AcDbDictionary
280
     1
281
     1
  3
ACAD_XREC_ROUNDTRIP
360
1C7
  0
DICTIONARY
  5
1B8
330
32
100
AcDbDictionary
280
     1
281
     1
  3
ACAD_XREC_ROUNDTRIP
360
1B9
  0
DICTIONARY
  5
1BC
330
34
100
AcDbDictionary
280
     1
281
     1
  3
ACAD_XREC_ROUNDTRIP
360
1BD
  0
DICTIONARY
  5
1D6
330
41
100
AcDbDictionary
280
     1
281
     1
  3
ACAD_XREC_ROUNDTRIP
360
1D7
  0
DICTIONARY
  5
1C4
330
38
100
AcDbDictionary
280
     1
281
     1
  3
ACAD_XREC_ROUNDTRIP
360
1C5
  0
DICTIONARY
  5
1A8
330
2A
100
AcDbDictionary
280
     1
281
     1
  3
ACAD_XREC_ROUNDTRIP
360
1A9
  0
DICTIONARY
  5
1AA
330
2B
100
AcDbDictionary
280
     1
281
     1
  3
ACAD_XREC_ROUNDTRIP
360
1AB
  0
DICTIONARY
  5
1AC
330
2C
100
AcDbDictionary
280
     1
281
     1
  3
ACAD_XREC_ROUNDTRIP
360
1AD
  0
DICTIONARY
  5
1AE
330
2D
100
AcDbDictionary
280
     1
281
     1
  3
ACAD_XREC_ROUNDTRIP
360
1AF
  0
DICTIONARY
  5
1B6
330
31
100
AcDbDictionary
280
     1
281
     1
  3
ACAD_XREC_ROUNDTRIP
360
1B7
  0
DICTIONARY
  5
1D2
330
3F
100
AcDbDictionary
280
     1
281
     1
  3
ACAD_XREC_ROUNDTRIP
360
1D3
  0
DICTIONARY
  5
1C2
330
37
100
AcDbDictionary
280
     1
281
     1
  3
ACAD_XREC_ROUNDTRIP
360
1C3
  0
DICTIONARY
  5
1D4
330
40
100
AcDbDictionary
280
     1
281
     1
  3
ACAD_XREC_ROUNDTRIP
360
1D5
  0
DICTIONARY
  5
1BA
330
33
100
AcDbDictionary
280
     1
281
     1
  3
ACAD_XREC_ROUNDTRIP
360
1BB
  0
DICTIONARY
  5
1D0
330
3E
100
AcDbDictionary
280
     1
281
     1
  3
ACAD_XREC_ROUNDTRIP
360
1D1
  0
DICTIONARY
  5
1CE
330
3D
100
AcDbDictionary
280
     1
281
     1
  3
ACAD_XREC_ROUNDTRIP
360
1CF
  0
DICTIONARY
  5
1C8
330
3A
100
AcDbDictionary
280
     1
281
     1
  3
ACAD_XREC_ROUNDTRIP
360
1C9
  0
DICTIONARY
  5
1CA
330
3B
100
AcDbDictionary
280
     1
281
     1
  3
ACAD_XREC_ROUNDTRIP
360
1CB
  0
DICTIONARY
  5
1C0
330
36
100
AcDbDictionary
280
     1
281
     1
  3
ACAD_XREC_ROUNDTRIP
360
1C1
  0
DICTIONARY
  5
1B4
330
30
100
AcDbDictionary
280
     1
281
     1
  3
ACAD_XREC_ROUNDTRIP
360
1B5
  0
DICTIONARY
  5
1CC
330
3C
100
AcDbDictionary
280
     1
281
     1
  3
ACAD_XREC_ROUNDTRIP
360
1CD
  0
XRECORD
  5
1DD
102
{ACAD_REACTORS
330
1DC
102
}
330
1DC
100
AcDbXrecord
280
     1
102
DISPLAYNAME
  1
Imperial24
102
FLAGS
 90
        0
  0
XRECORD
  5
1C
102
{ACAD_REACTORS
330
1A
102
}
330
1A
100
AcDbXrecord
280
     1
270
     1
271
     1
  0
XRECORD
  5
1B
102
{ACAD_REACTORS
330
1A
102
}
330
1A
100
AcDbXrecord
280
     1
270
     1
271
     1
  0
XRECORD
  5
1F
102
{ACAD_REACTORS
330
1A
102
}
330
1A
100
AcDbXrecord
280
     1
270
     1
271
     1
  0
XRECORD
  5
1E
102
{ACAD_REACTORS
330
1A
102
}
330
1A
100
AcDbXrecord
280
     1
270
     1
271
     1
  0
XRECORD
  5
20
102
{ACAD_REACTORS
330
1A
102
}
330
1A
100
AcDbXrecord
280
     1
270
     1
271
     1
  0
XRECORD
  5
1D
102
{ACAD_REACTORS
330
1A
102
}
330
1A
100
AcDbXrecord
280
     1
270
     1
271
     1
  0
XRECORD
  5
14
102
{ACAD_REACTORS
330
12
102
}
330
12
100
AcDbXrecord
280
     1
270
     1
271
     1
  0
XRECORD
  5
13
102
{ACAD_REACTORS
330
12
102
}
330
12
100
AcDbXrecord
280
     1
270
     1
271
     1
  0
XRECORD
  5
17
102
{ACAD_REACTORS
330
12
102
}
330
12
100
AcDbXrecord
280
     1
270
     1
271
     1
  0
XRECORD
  5
16
102
{ACAD_REACTORS
330
12
102
}
330
12
100
AcDbXrecord
280
     1
270
     1
271
     1
  0
XRECORD
  5
18
102
{ACAD_REACTORS
330
12
102
}
330
12
100
AcDbXrecord
280
     1
270
     1
271
     1
  0
XRECORD
  5
15
102
{ACAD_REACTORS
330
12
102
}
330
12
100
AcDbXrecord
280
     1
270
     1
271
     1
  0
XRECORD
  5
24
102
{ACAD_REACTORS
330
22
102
}
330
22
100
AcDbXrecord
280
     1
270
     1
271
     1
  0
XRECORD
  5
23
102
{ACAD_REACTORS
330
22
102
}
330
22
100
AcDbXrecord
280
     1
270
     1
271
     1
  0
XRECORD
  5
27
102
{ACAD_REACTORS
330
22
102
}
330
22
100
AcDbXrecord
280
     1
270
     1
271
     1
  0
XRECORD
  5
26
102
{ACAD_REACTORS
330
22
102
}
330
22
100
AcDbXrecord
280
     1
270
     1
271
     1
  0
XRECORD
  5
28
102
{ACAD_REACTORS
330
22
102
}
330
22
100
AcDbXrecord
280
     1
270
     1
271
     1
  0
XRECORD
  5
25
102
{ACAD_REACTORS
330
22
102
}
330
22
100
AcDbXrecord
280
     1
270
     1
271
     1
  0
XRECORD
  5
1D9
102
{ACAD_REACTORS
330
1D8
102
}
330
1D8
100
AcDbXrecord
280
     1
102
ACAD_ROUNDTRIP_2012_MLEADER_STYLE
298
     1
  0
XRECORD
  5
1DB
102
{ACAD_REACTORS
330
1DA
102
}
330
1DA
100
AcDbXrecord
280
     1
102
DISPLAYNAME
  1
Imperial24
102
FLAGS
 90
        0
  0
CELLSTYLEMAP
  5
1A6
102
{ACAD_REACTORS
330
1A5
102
}
330
1A5
100
AcDbCellStyleMap
 90
        3
300
CELLSTYLE
  1
TABLEFORMAT_BEGIN
 90
        5
170
     1
 91
        0
 92
    32768
 62
   257
 93
        1
300
CONTENTFORMAT
  1
CONTENTFORMAT_BEGIN
 90
        0
 91
        0
 92
      512
 93
        0
300

 40
0.0
140
1.0
 94
        5
 62
     0
340
55
144
0.25
309
CONTENTFORMAT_END
171
     0
 94
        0
309
TABLEFORMAT_END
  1
CELLSTYLE_BEGIN
 90
        1
 91
        1
300
_TITLE
309
CELLSTYLE_END
300
CELLSTYLE
  1
TABLEFORMAT_BEGIN
 90
        5
170
     1
 91
        0
 92
        0
 62
   257
 93
        1
300
CONTENTFORMAT
  1
CONTENTFORMAT_BEGIN
 90
        0
 91
        0
 92
      512
 93
        0
300

 40
0.0
140
1.0
 94
        5
 62
     0
340
55
144
0.18
309
CONTENTFORMAT_END
171
     0
 94
        0
309
TABLEFORMAT_END
  1
CELLSTYLE_BEGIN
 90
        2
 91
        1
300
_HEADER
309
CELLSTYLE_END
300
CELLSTYLE
  1
TABLEFORMAT_BEGIN
 90
        5
170
     1
 91
        0
 92
        0
 62
   257
 93
        1
300
CONTENTFORMAT
  1
CONTENTFORMAT_BEGIN
 90
        0
 91
        0
 92
      512
 93
        0
300

 40
0.0
140
1.0
 94
        2
 62
     0
340
55
144
0.18
309
CONTENTFORMAT_END
171
     0
 94
        0
309
TABLEFORMAT_END
  1
CELLSTYLE_BEGIN
 90
        3
 91
        2
300
_DATA
309
CELLSTYLE_END
  0
XRECORD
  5
1B3
102
{ACAD_REACTORS
330
1B2
102
}
330
1B2
100
AcDbXrecord
280
     1
102
RTVSPost2010Prop28
280
     1
102
RTVSPost2010PropOp28
 70
     1
102
RTVSPost2010Prop29
280
     1
102
RTVSPost2010PropOp29
 70
     1
102
RTVSPost2010Prop30
280
     0
102
RTVSPost2010PropOp30
 70
     1
102
RTVSPost2010Prop31
280
     0
102
RTVSPost2010PropOp31
 70
     1
102
RTVSPost2010Prop32
280
     0
102
RTVSPost2010PropOp32
 70
     1
102
RTVSPost2010Prop33
280
     0
102
RTVSPost2010PropOp33
 70
     1
102
RTVSPost2010Prop34
280
     0
102
RTVSPost2010PropOp34
 70
     1
102
RTVSPost2010Prop35
280
     0
102
RTVSPost2010PropOp35
 70
     1
102
RTVSPost2010Prop36
280
     0
102
RTVSPost2010PropOp36
 70
     1
102
RTVSPost2010Prop37
 90
       50
102
RTVSPost2010PropOp37
 70
     1
102
RTVSPost2010Prop38
140
0.0
102
RTVSPost2010PropOp38
 70
     1
102
RTVSPost2010Prop39
140
1.0
102
RTVSPost2010PropOp39
 70
     1
102
RTVSPost2010Prop40
 90
        0
102
RTVSPost2010PropOp40
 70
     1
102
RTVSPost2010Prop41ColorIndex
 90
       18
102
RTVSPost2010Prop41ColorRGB
 90
        0
102
RTVSPost2010PropOp41
 70
     1
102
RTVSPost2010Prop42
 90
       50
102
RTVSPost2010PropOp42
 70
     1
102
RTVSPost2010Prop43
 90
        3
102
RTVSPost2010PropOp43
 70
     1
102
RTVSPost2010Prop44ColorIndex
 90
        5
102
RTVSPost2010Prop44ColorRGB
 90
      255
102
RTVSPost2010PropOp44
 70
     1
102
RTVSPost2010Prop45
280
     0
102
RTVSPost2010PropOp45
 70
     1
102
RTVSPost2010Prop46
 90
       50
102
RTVSPost2010PropOp46
 70
     1
102
RTVSPost2010Prop47
 90
       50
102
RTVSPost2010PropOp47
 70
     1
102
RTVSPost2010Prop48
 90
       50
102
RTVSPost2010PropOp48
 70
     1
102
RTVSPost2010Prop49
280
     0
102
RTVSPost2010PropOp49
 70
     1
102
RTVSPost2010Prop50
 90
       50
102
RTVSPost2010PropOp50
 70
     1
102
RTVSPost2010Prop51ColorIndex
 90
      256
102
RTVSPost2010Prop51ColorRGB
 90
-16777216
102
RTVSPost2010PropOp51
 70
     0
102
RTVSPost2010Prop52
140
1.0
102
RTVSPost2010PropOp52
 70
     0
102
RTVSPost2010Prop53
 90
        2
102
RTVSPost2010PropOp53
 70
     1
102
RTVSPost2010Prop54
  1
strokes_ogs.tif
102
RTVSPost2010PropOp54
 70
     1
102
RTVSPost2010Prop55
280
     0
102
RTVSPost2010PropOp55
 70
     1
102
RTVSPost2010Prop56
140
1.0
102
RTVSPost2010PropOp56
 70
     1
102
RTVSPost2010Prop57
140
1.0
102
RTVSPost2010PropOp57
 70
     1
  0
XRECORD
  5
1B1
102
{ACAD_REACTORS
330
1B0
102
}
330
1B0
100
AcDbXrecord
280
     1
102
RTVSPost2010Prop28
280
     0
102
RTVSPost2010PropOp28
 70
     1
102
RTVSPost2010Prop29
280
     1
102
RTVSPost2010PropOp29
 70
     1
102
RTVSPost2010Prop30
280
     1
102
RTVSPost2010PropOp30
 70
     1
102
RTVSPost2010Prop31
280
     0
102
RTVSPost2010PropOp31
 70
     1
102
RTVSPost2010Prop32
280
     0
102
RTVSPost2010PropOp32
 70
     1
102
RTVSPost2010Prop33
280
     0
102
RTVSPost2010PropOp33
 70
     1
102
RTVSPost2010Prop34
280
     0
102
RTVSPost2010PropOp34
 70
     1
102
RTVSPost2010Prop35
280
     0
102
RTVSPost2010PropOp35
 70
     1
102
RTVSPost2010Prop36
280
     0
102
RTVSPost2010PropOp36
 70
     1
102
RTVSPost2010Prop37
 90
       50
102
RTVSPost2010PropOp37
 70
     1
102
RTVSPost2010Prop38
140
0.0
102
RTVSPost2010PropOp38
 70
     1
102
RTVSPost2010Prop39
140
1.0
102
RTVSPost2010PropOp39
 70
     1
102
RTVSPost2010Prop40
 90
        0
102
RTVSPost2010PropOp40
 70
     1
102
RTVSPost2010Prop41ColorIndex
 90
       18
102
RTVSPost2010Prop41ColorRGB
 90
        0
102
RTVSPost2010PropOp41
 70
     1
102
RTVSPost2010Prop42
 90
       50
102
RTVSPost2010PropOp42
 70
     1
102
RTVSPost2010Prop43
 90
        3
102
RTVSPost2010PropOp43
 70
     1
102
RTVSPost2010Prop44ColorIndex
 90
        5
102
RTVSPost2010Prop44ColorRGB
 90
      255
102
RTVSPost2010PropOp44
 70
     1
102
RTVSPost2010Prop45
280
     0
102
RTVSPost2010PropOp45
 70
     1
102
RTVSPost2010Prop46
 90
       50
102
RTVSPost2010PropOp46
 70
     1
102
RTVSPost2010Prop47
 90
       50
102
RTVSPost2010PropOp47
 70
     1
102
RTVSPost2010Prop48
 90
       50
102
RTVSPost2010PropOp48
 70
     1
102
RTVSPost2010Prop49
280
     0
102
RTVSPost2010PropOp49
 70
     1
102
RTVSPost2010Prop50
 90
       50
102
RTVSPost2010PropOp50
 70
     1
102
RTVSPost2010Prop51ColorIndex
 90
      256
102
RTVSPost2010Prop51ColorRGB
 90
-16777216
102
RTVSPost2010PropOp51
 70
     0
102
RTVSPost2010Prop52
140
1.0
102
RTVSPost2010PropOp52
 70
     0
102
RTVSPost2010Prop53
 90
        2
102
RTVSPost2010PropOp53
 70
     1
102
RTVSPost2010Prop54
  1
strokes_ogs.tif
102
RTVSPost2010PropOp54
 70
     1
102
RTVSPost2010Prop55
280
     0
102
RTVSPost2010PropOp55
 70
     1
102
RTVSPost2010Prop56
140
1.0
102
RTVSPost2010PropOp56
 70
     1
102
RTVSPost2010Prop57
140
1.0
102
RTVSPost2010PropOp57
 70
     1
  0
XRECORD
  5
1BF
102
{ACAD_REACTORS
330
1BE
102
}
330
1BE
100
AcDbXrecord
280
     1
102
RTVSPost2010Prop28
280
     0
102
RTVSPost2010PropOp28
 70
     1
102
RTVSPost2010Prop29
280
     1
102
RTVSPost2010PropOp29
 70
     1
102
RTVSPost2010Prop30
280
     1
102
RTVSPost2010PropOp30
 70
     1
102
RTVSPost2010Prop31
280
     0
102
RTVSPost2010PropOp31
 70
     1
102
RTVSPost2010Prop32
280
     0
102
RTVSPost2010PropOp32
 70
     1
102
RTVSPost2010Prop33
280
     0
102
RTVSPost2010PropOp33
 70
     1
102
RTVSPost2010Prop34
280
     0
102
RTVSPost2010PropOp34
 70
     1
102
RTVSPost2010Prop35
280
     0
102
RTVSPost2010PropOp35
 70
     1
102
RTVSPost2010Prop36
280
     0
102
RTVSPost2010PropOp36
 70
     1
102
RTVSPost2010Prop37
 90
       50
102
RTVSPost2010PropOp37
 70
     1
102
RTVSPost2010Prop38
140
0.0
102
RTVSPost2010PropOp38
 70
     1
102
RTVSPost2010Prop39
140
1.0
102
RTVSPost2010PropOp39
 70
     1
102
RTVSPost2010Prop40
 90
        0
102
RTVSPost2010PropOp40
 70
     1
102
RTVSPost2010Prop41ColorIndex
 90
       18
102
RTVSPost2010Prop41ColorRGB
 90
        0
102
RTVSPost2010PropOp41
 70
     1
102
RTVSPost2010Prop42
 90
       50
102
RTVSPost2010PropOp42
 70
     1
102
RTVSPost2010Prop43
 90
        3
102
RTVSPost2010PropOp43
 70
     1
102
RTVSPost2010Prop44ColorIndex
 90
        5
102
RTVSPost2010Prop44ColorRGB
 90
      255
102
RTVSPost2010PropOp44
 70
     1
102
RTVSPost2010Prop45
280
     0
102
RTVSPost2010PropOp45
 70
     1
102
RTVSPost2010Prop46
 90
       50
102
RTVSPost2010PropOp46
 70
     1
102
RTVSPost2010Prop47
 90
       50
102
RTVSPost2010PropOp47
 70
     1
102
RTVSPost2010Prop48
 90
       50
102
RTVSPost2010PropOp48
 70
     1
102
RTVSPost2010Prop49
280
     0
102
RTVSPost2010PropOp49
 70
     1
102
RTVSPost2010Prop50
 90
       50
102
RTVSPost2010PropOp50
 70
     1
102
RTVSPost2010Prop51ColorIndex
 90
      256
102
RTVSPost2010Prop51ColorRGB
 90
-16777216
102
RTVSPost2010PropOp51
 70
     0
102
RTVSPost2010Prop52
140
1.0
102
RTVSPost2010PropOp52
 70
     0
102
RTVSPost2010Prop53
 90
        2
102
RTVSPost2010PropOp53
 70
     1
102
RTVSPost2010Prop54
  1
strokes_ogs.tif
102
RTVSPost2010PropOp54
 70
     1
102
RTVSPost2010Prop55
280
     0
102
RTVSPost2010PropOp55
 70
     1
102
RTVSPost2010Prop56
140
1.0
102
RTVSPost2010PropOp56
 70
     1
102
RTVSPost2010Prop57
140
1.0
102
RTVSPost2010PropOp57
 70
     1
  0
XRECORD
  5
1C7
102
{ACAD_REACTORS
330
1C6
102
}
330
1C6
100
AcDbXrecord
280
     1
102
RTVSPost2010Prop28
280
     0
102
RTVSPost2010PropOp28
 70
     1
102
RTVSPost2010Prop29
280
     1
102
RTVSPost2010PropOp29
 70
     1
102
RTVSPost2010Prop30
280
     1
102
RTVSPost2010PropOp30
 70
     1
102
RTVSPost2010Prop31
280
     0
102
RTVSPost2010PropOp31
 70
     1
102
RTVSPost2010Prop32
280
     0
102
RTVSPost2010PropOp32
 70
     1
102
RTVSPost2010Prop33
280
     0
102
RTVSPost2010PropOp33
 70
     1
102
RTVSPost2010Prop34
280
     0
102
RTVSPost2010PropOp34
 70
     1
102
RTVSPost2010Prop35
280
     0
102
RTVSPost2010PropOp35
 70
     1
102
RTVSPost2010Prop36
280
     0
102
RTVSPost2010PropOp36
 70
     1
102
RTVSPost2010Prop37
 90
       50
102
RTVSPost2010PropOp37
 70
     1
102
RTVSPost2010Prop38
140
0.0
102
RTVSPost2010PropOp38
 70
     1
102
RTVSPost2010Prop39
140
1.0
102
RTVSPost2010PropOp39
 70
     1
102
RTVSPost2010Prop40
 90
        0
102
RTVSPost2010PropOp40
 70
     1
102
RTVSPost2010Prop41ColorIndex
 90
       18
102
RTVSPost2010Prop41ColorRGB
 90
        0
102
RTVSPost2010PropOp41
 70
     1
102
RTVSPost2010Prop42
 90
       50
102
RTVSPost2010PropOp42
 70
     1
102
RTVSPost2010Prop43
 90
        3
102
RTVSPost2010PropOp43
 70
     1
102
RTVSPost2010Prop44ColorIndex
 90
        5
102
RTVSPost2010Prop44ColorRGB
 90
      255
102
RTVSPost2010PropOp44
 70
     1
102
RTVSPost2010Prop45
280
     0
102
RTVSPost2010PropOp45
 70
     1
102
RTVSPost2010Prop46
 90
       50
102
RTVSPost2010PropOp46
 70
     1
102
RTVSPost2010Prop47
 90
       50
102
RTVSPost2010PropOp47
 70
     1
102
RTVSPost2010Prop48
 90
       50
102
RTVSPost2010PropOp48
 70
     1
102
RTVSPost2010Prop49
280
     0
102
RTVSPost2010PropOp49
 70
     1
102
RTVSPost2010Prop50
 90
       50
102
RTVSPost2010PropOp50
 70
     1
102
RTVSPost2010Prop51ColorIndex
 90
      256
102
RTVSPost2010Prop51ColorRGB
 90
-16777216
102
RTVSPost2010PropOp51
 70
     0
102
RTVSPost2010Prop52
140
1.0
102
RTVSPost2010PropOp52
 70
     0
102
RTVSPost2010Prop53
 90
        2
102
RTVSPost2010PropOp53
 70
     1
102
RTVSPost2010Prop54
  1
strokes_ogs.tif
102
RTVSPost2010PropOp54
 70
     1
102
RTVSPost2010Prop55
280
     0
102
RTVSPost2010PropOp55
 70
     1
102
RTVSPost2010Prop56
140
1.0
102
RTVSPost2010PropOp56
 70
     1
102
RTVSPost2010Prop57
140
1.0
102
RTVSPost2010PropOp57
 70
     1
  0
XRECORD
  5
1B9
102
{ACAD_REACTORS
330
1B8
102
}
330
1B8
100
AcDbXrecord
280
     1
102
RTVSPost2010Prop28
280
     0
102
RTVSPost2010PropOp28
 70
     1
102
RTVSPost2010Prop29
280
     1
102
RTVSPost2010PropOp29
 70
     1
102
RTVSPost2010Prop30
280
     1
102
RTVSPost2010PropOp30
 70
     1
102
RTVSPost2010Prop31
280
     0
102
RTVSPost2010PropOp31
 70
     1
102
RTVSPost2010Prop32
280
     0
102
RTVSPost2010PropOp32
 70
     1
102
RTVSPost2010Prop33
280
     0
102
RTVSPost2010PropOp33
 70
     1
102
RTVSPost2010Prop34
280
     0
102
RTVSPost2010PropOp34
 70
     1
102
RTVSPost2010Prop35
280
     0
102
RTVSPost2010PropOp35
 70
     1
102
RTVSPost2010Prop36
280
     0
102
RTVSPost2010PropOp36
 70
     1
102
RTVSPost2010Prop37
 90
       50
102
RTVSPost2010PropOp37
 70
     1
102
RTVSPost2010Prop38
140
0.0
102
RTVSPost2010PropOp38
 70
     1
102
RTVSPost2010Prop39
140
1.0
102
RTVSPost2010PropOp39
 70
     1
102
RTVSPost2010Prop40
 90
        0
102
RTVSPost2010PropOp40
 70
     1
102
RTVSPost2010Prop41ColorIndex
 90
       18
102
RTVSPost2010Prop41ColorRGB
 90
        0
102
RTVSPost2010PropOp41
 70
     1
102
RTVSPost2010Prop42
 90
       50
102
RTVSPost2010PropOp42
 70
     1
102
RTVSPost2010Prop43
 90
        3
102
RTVSPost2010PropOp43
 70
     1
102
RTVSPost2010Prop44ColorIndex
 90
        5
102
RTVSPost2010Prop44ColorRGB
 90
      255
102
RTVSPost2010PropOp44
 70
     1
102
RTVSPost2010Prop45
280
     0
102
RTVSPost2010PropOp45
 70
     1
102
RTVSPost2010Prop46
 90
       50
102
RTVSPost2010PropOp46
 70
     1
102
RTVSPost2010Prop47
 90
       50
102
RTVSPost2010PropOp47
 70
     1
102
RTVSPost2010Prop48
 90
       50
102
RTVSPost2010PropOp48
 70
     1
102
RTVSPost2010Prop49
280
     0
102
RTVSPost2010PropOp49
 70
     1
102
RTVSPost2010Prop50
 90
       50
102
RTVSPost2010PropOp50
 70
     1
102
RTVSPost2010Prop51ColorIndex
 90
      256
102
RTVSPost2010Prop51ColorRGB
 90
-16777216
102
RTVSPost2010PropOp51
 70
     0
102
RTVSPost2010Prop52
140
1.0
102
RTVSPost2010PropOp52
 70
     0
102
RTVSPost2010Prop53
 90
        2
102
RTVSPost2010PropOp53
 70
     1
102
RTVSPost2010Prop54
  1
strokes_ogs.tif
102
RTVSPost2010PropOp54
 70
     1
102
RTVSPost2010Prop55
280
     0
102
RTVSPost2010PropOp55
 70
     1
102
RTVSPost2010Prop56
140
1.0
102
RTVSPost2010PropOp56
 70
     1
102
RTVSPost2010Prop57
140
1.0
102
RTVSPost2010PropOp57
 70
     1
  0
XRECORD
  5
1BD
102
{ACAD_REACTORS
330
1BC
102
}
330
1BC
100
AcDbXrecord
280
     1
102
RTVSPost2010Prop28
280
     0
102
RTVSPost2010PropOp28
 70
     1
102
RTVSPost2010Prop29
280
     1
102
RTVSPost2010PropOp29
 70
     1
102
RTVSPost2010Prop30
280
     1
102
RTVSPost2010PropOp30
 70
     1
102
RTVSPost2010Prop31
280
     0
102
RTVSPost2010PropOp31
 70
     1
102
RTVSPost2010Prop32
280
     0
102
RTVSPost2010PropOp32
 70
     1
102
RTVSPost2010Prop33
280
     0
102
RTVSPost2010PropOp33
 70
     1
102
RTVSPost2010Prop34
280
     0
102
RTVSPost2010PropOp34
 70
     1
102
RTVSPost2010Prop35
280
     0
102
RTVSPost2010PropOp35
 70
     1
102
RTVSPost2010Prop36
280
     0
102
RTVSPost2010PropOp36
 70
     1
102
RTVSPost2010Prop37
 90
       50
102
RTVSPost2010PropOp37
 70
     1
102
RTVSPost2010Prop38
140
0.0
102
RTVSPost2010PropOp38
 70
     1
102
RTVSPost2010Prop39
140
1.0
102
RTVSPost2010PropOp39
 70
     1
102
RTVSPost2010Prop40
 90
        0
102
RTVSPost2010PropOp40
 70
     1
102
RTVSPost2010Prop41ColorIndex
 90
       18
102
RTVSPost2010Prop41ColorRGB
 90
        0
102
RTVSPost2010PropOp41
 70
     1
102
RTVSPost2010Prop42
 90
       50
102
RTVSPost2010PropOp42
 70
     1
102
RTVSPost2010Prop43
 90
        3
102
RTVSPost2010PropOp43
 70
     1
102
RTVSPost2010Prop44ColorIndex
 90
        5
102
RTVSPost2010Prop44ColorRGB
 90
      255
102
RTVSPost2010PropOp44
 70
     1
102
RTVSPost2010Prop45
280
     0
102
RTVSPost2010PropOp45
 70
     1
102
RTVSPost2010Prop46
 90
       50
102
RTVSPost2010PropOp46
 70
     1
102
RTVSPost2010Prop47
 90
       50
102
RTVSPost2010PropOp47
 70
     1
102
RTVSPost2010Prop48
 90
       50
102
RTVSPost2010PropOp48
 70
     1
102
RTVSPost2010Prop49
280
     0
102
RTVSPost2010PropOp49
 70
     1
102
RTVSPost2010Prop50
 90
       50
102
RTVSPost2010PropOp50
 70
     1
102
RTVSPost2010Prop51ColorIndex
 90
      256
102
RTVSPost2010Prop51ColorRGB
 90
-16777216
102
RTVSPost2010PropOp51
 70
     0
102
RTVSPost2010Prop52
140
1.0
102
RTVSPost2010PropOp52
 70
     0
102
RTVSPost2010Prop53
 90
        2
102
RTVSPost2010PropOp53
 70
     1
102
RTVSPost2010Prop54
  1
strokes_ogs.tif
102
RTVSPost2010PropOp54
 70
     1
102
RTVSPost2010Prop55
280
     0
102
RTVSPost2010PropOp55
 70
     1
102
RTVSPost2010Prop56
140
1.0
102
RTVSPost2010PropOp56
 70
     1
102
RTVSPost2010Prop57
140
1.0
102
RTVSPost2010PropOp57
 70
     1
  0
XRECORD
  5
1D7
102
{ACAD_REACTORS
330
1D6
102
}
330
1D6
100
AcDbXrecord
280
     1
102
RTVSPost2010Prop28
280
     0
102
RTVSPost2010PropOp28
 70
     0
102
RTVSPost2010Prop29
280
     1
102
RTVSPost2010PropOp29
 70
     0
102
RTVSPost2010Prop30
280
     1
102
RTVSPost2010PropOp30
 70
     0
102
RTVSPost2010Prop31
280
     0
102
RTVSPost2010PropOp31
 70
     0
102
RTVSPost2010Prop32
280
     0
102
RTVSPost2010PropOp32
 70
     0
102
RTVSPost2010Prop33
280
     0
102
RTVSPost2010PropOp33
 70
     0
102
RTVSPost2010Prop34
280
     0
102
RTVSPost2010PropOp34
 70
     0
102
RTVSPost2010Prop35
280
     0
102
RTVSPost2010PropOp35
 70
     0
102
RTVSPost2010Prop36
280
     0
102
RTVSPost2010PropOp36
 70
     0
102
RTVSPost2010Prop37
 90
       50
102
RTVSPost2010PropOp37
 70
     0
102
RTVSPost2010Prop38
140
0.0
102
RTVSPost2010PropOp38
 70
     0
102
RTVSPost2010Prop39
140
1.0
102
RTVSPost2010PropOp39
 70
     0
102
RTVSPost2010Prop40
 90
        0
102
RTVSPost2010PropOp40
 70
     0
102
RTVSPost2010Prop41ColorIndex
 90
       18
102
RTVSPost2010Prop41ColorRGB
 90
        0
102
RTVSPost2010PropOp41
 70
     0
102
RTVSPost2010Prop42
 90
       50
102
RTVSPost2010PropOp42
 70
     0
102
RTVSPost2010Prop43
 90
        3
102
RTVSPost2010PropOp43
 70
     0
102
RTVSPost2010Prop44ColorIndex
 90
        5
102
RTVSPost2010Prop44ColorRGB
 90
      255
102
RTVSPost2010PropOp44
 70
     0
102
RTVSPost2010Prop45
280
     0
102
RTVSPost2010PropOp45
 70
     0
102
RTVSPost2010Prop46
 90
       50
102
RTVSPost2010PropOp46
 70
     0
102
RTVSPost2010Prop47
 90
       50
102
RTVSPost2010PropOp47
 70
     0
102
RTVSPost2010Prop48
 90
       50
102
RTVSPost2010PropOp48
 70
     0
102
RTVSPost2010Prop49
280
     0
102
RTVSPost2010PropOp49
 70
     0
102
RTVSPost2010Prop50
 90
       50
102
RTVSPost2010PropOp50
 70
     0
102
RTVSPost2010Prop51ColorIndex
 90
      256
102
RTVSPost2010Prop51ColorRGB
 90
-16777216
102
RTVSPost2010PropOp51
 70
     0
102
RTVSPost2010Prop52
140
1.0
102
RTVSPost2010PropOp52
 70
     0
102
RTVSPost2010Prop53
 90
        2
102
RTVSPost2010PropOp53
 70
     0
102
RTVSPost2010Prop54
  1
strokes_ogs.tif
102
RTVSPost2010PropOp54
 70
     0
102
RTVSPost2010Prop55
280
     0
102
RTVSPost2010PropOp55
 70
     0
102
RTVSPost2010Prop56
140
1.0
102
RTVSPost2010PropOp56
 70
     0
102
RTVSPost2010Prop57
140
1.0
102
RTVSPost2010PropOp57
 70
     0
  0
XRECORD
  5
1C5
102
{ACAD_REACTORS
330
1C4
102
}
330
1C4
100
AcDbXrecord
280
     1
102
RTVSPost2010Prop28
280
     0
102
RTVSPost2010PropOp28
 70
     1
102
RTVSPost2010Prop29
280
     1
102
RTVSPost2010PropOp29
 70
     1
102
RTVSPost2010Prop30
280
     1
102
RTVSPost2010PropOp30
 70
     1
102
RTVSPost2010Prop31
280
     0
102
RTVSPost2010PropOp31
 70
     1
102
RTVSPost2010Prop32
280
     0
102
RTVSPost2010PropOp32
 70
     1
102
RTVSPost2010Prop33
280
     0
102
RTVSPost2010PropOp33
 70
     1
102
RTVSPost2010Prop34
280
     0
102
RTVSPost2010PropOp34
 70
     1
102
RTVSPost2010Prop35
280
     0
102
RTVSPost2010PropOp35
 70
     1
102
RTVSPost2010Prop36
280
     0
102
RTVSPost2010PropOp36
 70
     1
102
RTVSPost2010Prop37
 90
       50
102
RTVSPost2010PropOp37
 70
     1
102
RTVSPost2010Prop38
140
0.0
102
RTVSPost2010PropOp38
 70
     1
102
RTVSPost2010Prop39
140
1.0
102
RTVSPost2010PropOp39
 70
     1
102
RTVSPost2010Prop40
 90
        0
102
RTVSPost2010PropOp40
 70
     1
102
RTVSPost2010Prop41ColorIndex
 90
       18
102
RTVSPost2010Prop41ColorRGB
 90
        0
102
RTVSPost2010PropOp41
 70
     1
102
RTVSPost2010Prop42
 90
       50
102
RTVSPost2010PropOp42
 70
     1
102
RTVSPost2010Prop43
 90
        3
102
RTVSPost2010PropOp43
 70
     1
102
RTVSPost2010Prop44ColorIndex
 90
        5
102
RTVSPost2010Prop44ColorRGB
 90
      255
102
RTVSPost2010PropOp44
 70
     1
102
RTVSPost2010Prop45
280
     0
102
RTVSPost2010PropOp45
 70
     1
102
RTVSPost2010Prop46
 90
       50
102
RTVSPost2010PropOp46
 70
     1
102
RTVSPost2010Prop47
 90
       50
102
RTVSPost2010PropOp47
 70
     1
102
RTVSPost2010Prop48
 90
       50
102
RTVSPost2010PropOp48
 70
     1
102
RTVSPost2010Prop49
280
     0
102
RTVSPost2010PropOp49
 70
     1
102
RTVSPost2010Prop50
 90
       50
102
RTVSPost2010PropOp50
 70
     1
102
RTVSPost2010Prop51ColorIndex
 90
      256
102
RTVSPost2010Prop51ColorRGB
 90
-16777216
102
RTVSPost2010PropOp51
 70
     0
102
RTVSPost2010Prop52
140
1.0
102
RTVSPost2010PropOp52
 70
     0
102
RTVSPost2010Prop53
 90
        2
102
RTVSPost2010PropOp53
 70
     1
102
RTVSPost2010Prop54
  1
strokes_ogs.tif
102
RTVSPost2010PropOp54
 70
     1
102
RTVSPost2010Prop55
280
     0
102
RTVSPost2010PropOp55
 70
     1
102
RTVSPost2010Prop56
140
1.0
102
RTVSPost2010PropOp56
 70
     1
102
RTVSPost2010Prop57
140
1.0
102
RTVSPost2010PropOp57
 70
     1
  0
XRECORD
  5
1A9
102
{ACAD_REACTORS
330
1A8
102
}
330
1A8
100
AcDbXrecord
280
     1
102
RTVSPost2010Prop28
280
     0
102
RTVSPost2010PropOp28
 70
     1
102
RTVSPost2010Prop29
280
     1
102
RTVSPost2010PropOp29
 70
     1
102
RTVSPost2010Prop30
280
     1
102
RTVSPost2010PropOp30
 70
     1
102
RTVSPost2010Prop31
280
     0
102
RTVSPost2010PropOp31
 70
     1
102
RTVSPost2010Prop32
280
     0
102
RTVSPost2010PropOp32
 70
     1
102
RTVSPost2010Prop33
280
     0
102
RTVSPost2010PropOp33
 70
     1
102
RTVSPost2010Prop34
280
     0
102
RTVSPost2010PropOp34
 70
     1
102
RTVSPost2010Prop35
280
     0
102
RTVSPost2010PropOp35
 70
     1
102
RTVSPost2010Prop36
280
     0
102
RTVSPost2010PropOp36
 70
     1
102
RTVSPost2010Prop37
 90
       50
102
RTVSPost2010PropOp37
 70
     1
102
RTVSPost2010Prop38
140
0.0
102
RTVSPost2010PropOp38
 70
     1
102
RTVSPost2010Prop39
140
1.0
102
RTVSPost2010PropOp39
 70
     1
102
RTVSPost2010Prop40
 90
        0
102
RTVSPost2010PropOp40
 70
     1
102
RTVSPost2010Prop41ColorIndex
 90
       18
102
RTVSPost2010Prop41ColorRGB
 90
        0
102
RTVSPost2010PropOp41
 70
     1
102
RTVSPost2010Prop42
 90
       50
102
RTVSPost2010PropOp42
 70
     1
102
RTVSPost2010Prop43
 90
        3
102
RTVSPost2010PropOp43
 70
     1
102
RTVSPost2010Prop44ColorIndex
 90
        5
102
RTVSPost2010Prop44ColorRGB
 90
      255
102
RTVSPost2010PropOp44
 70
     1
102
RTVSPost2010Prop45
280
     0
102
RTVSPost2010PropOp45
 70
     1
102
RTVSPost2010Prop46
 90
       50
102
RTVSPost2010PropOp46
 70
     1
102
RTVSPost2010Prop47
 90
       50
102
RTVSPost2010PropOp47
 70
     1
102
RTVSPost2010Prop48
 90
       50
102
RTVSPost2010PropOp48
 70
     1
102
RTVSPost2010Prop49
280
     0
102
RTVSPost2010PropOp49
 70
     1
102
RTVSPost2010Prop50
 90
       50
102
RTVSPost2010PropOp50
 70
     1
102
RTVSPost2010Prop51ColorIndex
 90
      256
102
RTVSPost2010Prop51ColorRGB
 90
-16777216
102
RTVSPost2010PropOp51
 70
     0
102
RTVSPost2010Prop52
140
1.0
102
RTVSPost2010PropOp52
 70
     0
102
RTVSPost2010Prop53
 90
        2
102
RTVSPost2010PropOp53
 70
     1
102
RTVSPost2010Prop54
  1
strokes_ogs.tif
102
RTVSPost2010PropOp54
 70
     1
102
RTVSPost2010Prop55
280
     0
102
RTVSPost2010PropOp55
 70
     1
102
RTVSPost2010Prop56
140
1.0
102
RTVSPost2010PropOp56
 70
     1
102
RTVSPost2010Prop57
140
1.0
102
RTVSPost2010PropOp57
 70
     1
  0
XRECORD
  5
1AB
102
{ACAD_REACTORS
330
1AA
102
}
330
1AA
100
AcDbXrecord
280
     1
102
RTVSPost2010Prop28
280
     0
102
RTVSPost2010PropOp28
 70
     1
102
RTVSPost2010Prop29
280
     1
102
RTVSPost2010PropOp29
 70
     1
102
RTVSPost2010Prop30
280
     1
102
RTVSPost2010PropOp30
 70
     1
102
RTVSPost2010Prop31
280
     0
102
RTVSPost2010PropOp31
 70
     1
102
RTVSPost2010Prop32
280
     0
102
RTVSPost2010PropOp32
 70
     1
102
RTVSPost2010Prop33
280
     0
102
RTVSPost2010PropOp33
 70
     1
102
RTVSPost2010Prop34
280
     0
102
RTVSPost2010PropOp34
 70
     1
102
RTVSPost2010Prop35
280
     0
102
RTVSPost2010PropOp35
 70
     1
102
RTVSPost2010Prop36
280
     0
102
RTVSPost2010PropOp36
 70
     1
102
RTVSPost2010Prop37
 90
       50
102
RTVSPost2010PropOp37
 70
     1
102
RTVSPost2010Prop38
140
0.0
102
RTVSPost2010PropOp38
 70
     1
102
RTVSPost2010Prop39
140
1.0
102
RTVSPost2010PropOp39
 70
     1
102
RTVSPost2010Prop40
 90
        0
102
RTVSPost2010PropOp40
 70
     1
102
RTVSPost2010Prop41ColorIndex
 90
       18
102
RTVSPost2010Prop41ColorRGB
 90
        0
102
RTVSPost2010PropOp41
 70
     1
102
RTVSPost2010Prop42
 90
       50
102
RTVSPost2010PropOp42
 70
     1
102
RTVSPost2010Prop43
 90
        3
102
RTVSPost2010PropOp43
 70
     1
102
RTVSPost2010Prop44ColorIndex
 90
        5
102
RTVSPost2010Prop44ColorRGB
 90
      255
102
RTVSPost2010PropOp44
 70
     1
102
RTVSPost2010Prop45
280
     0
102
RTVSPost2010PropOp45
 70
     1
102
RTVSPost2010Prop46
 90
       50
102
RTVSPost2010PropOp46
 70
     1
102
RTVSPost2010Prop47
 90
       50
102
RTVSPost2010PropOp47
 70
     1
102
RTVSPost2010Prop48
 90
       50
102
RTVSPost2010PropOp48
 70
     1
102
RTVSPost2010Prop49
280
     0
102
RTVSPost2010PropOp49
 70
     1
102
RTVSPost2010Prop50
 90
       50
102
RTVSPost2010PropOp50
 70
     1
102
RTVSPost2010Prop51ColorIndex
 90
      256
102
RTVSPost2010Prop51ColorRGB
 90
-16777216
102
RTVSPost2010PropOp51
 70
     0
102
RTVSPost2010Prop52
140
1.0
102
RTVSPost2010PropOp52
 70
     0
102
RTVSPost2010Prop53
 90
        2
102
RTVSPost2010PropOp53
 70
     1
102
RTVSPost2010Prop54
  1
strokes_ogs.tif
102
RTVSPost2010PropOp54
 70
     1
102
RTVSPost2010Prop55
280
     0
102
RTVSPost2010PropOp55
 70
     1
102
RTVSPost2010Prop56
140
1.0
102
RTVSPost2010PropOp56
 70
     1
102
RTVSPost2010Prop57
140
1.0
102
RTVSPost2010PropOp57
 70
     1
  0
XRECORD
  5
1AD
102
{ACAD_REACTORS
330
1AC
102
}
330
1AC
100
AcDbXrecord
280
     1
102
RTVSPost2010Prop28
280
     0
102
RTVSPost2010PropOp28
 70
     1
102
RTVSPost2010Prop29
280
     1
102
RTVSPost2010PropOp29
 70
     1
102
RTVSPost2010Prop30
280
     1
102
RTVSPost2010PropOp30
 70
     1
102
RTVSPost2010Prop31
280
     0
102
RTVSPost2010PropOp31
 70
     1
102
RTVSPost2010Prop32
280
     0
102
RTVSPost2010PropOp32
 70
     1
102
RTVSPost2010Prop33
280
     0
102
RTVSPost2010PropOp33
 70
     1
102
RTVSPost2010Prop34
280
     0
102
RTVSPost2010PropOp34
 70
     1
102
RTVSPost2010Prop35
280
     0
102
RTVSPost2010PropOp35
 70
     1
102
RTVSPost2010Prop36
280
     0
102
RTVSPost2010PropOp36
 70
     1
102
RTVSPost2010Prop37
 90
       50
102
RTVSPost2010PropOp37
 70
     1
102
RTVSPost2010Prop38
140
0.0
102
RTVSPost2010PropOp38
 70
     1
102
RTVSPost2010Prop39
140
1.0
102
RTVSPost2010PropOp39
 70
     1
102
RTVSPost2010Prop40
 90
        0
102
RTVSPost2010PropOp40
 70
     1
102
RTVSPost2010Prop41ColorIndex
 90
       18
102
RTVSPost2010Prop41ColorRGB
 90
        0
102
RTVSPost2010PropOp41
 70
     1
102
RTVSPost2010Prop42
 90
       50
102
RTVSPost2010PropOp42
 70
     1
102
RTVSPost2010Prop43
 90
        3
102
RTVSPost2010PropOp43
 70
     1
102
RTVSPost2010Prop44ColorIndex
 90
        5
102
RTVSPost2010Prop44ColorRGB
 90
      255
102
RTVSPost2010PropOp44
 70
     1
102
RTVSPost2010Prop45
280
     0
102
RTVSPost2010PropOp45
 70
     1
102
RTVSPost2010Prop46
 90
       50
102
RTVSPost2010PropOp46
 70
     1
102
RTVSPost2010Prop47
 90
       50
102
RTVSPost2010PropOp47
 70
     1
102
RTVSPost2010Prop48
 90
       50
102
RTVSPost2010PropOp48
 70
     1
102
RTVSPost2010Prop49
280
     0
102
RTVSPost2010PropOp49
 70
     1
102
RTVSPost2010Prop50
 90
       50
102
RTVSPost2010PropOp50
 70
     1
102
RTVSPost2010Prop51ColorIndex
 90
      256
102
RTVSPost2010Prop51ColorRGB
 90
-16777216
102
RTVSPost2010PropOp51
 70
     0
102
RTVSPost2010Prop52
140
1.0
102
RTVSPost2010PropOp52
 70
     0
102
RTVSPost2010Prop53
 90
        2
102
RTVSPost2010PropOp53
 70
     1
102
RTVSPost2010Prop54
  1
strokes_ogs.tif
102
RTVSPost2010PropOp54
 70
     1
102
RTVSPost2010Prop55
280
     0
102
RTVSPost2010PropOp55
 70
     1
102
RTVSPost2010Prop56
140
1.0
102
RTVSPost2010PropOp56
 70
     1
102
RTVSPost2010Prop57
140
1.0
102
RTVSPost2010PropOp57
 70
     1
  0
XRECORD
  5
1AF
102
{ACAD_REACTORS
330
1AE
102
}
330
1AE
100
AcDbXrecord
280
     1
102
RTVSPost2010Prop28
280
     0
102
RTVSPost2010PropOp28
 70
     1
102
RTVSPost2010Prop29
280
     1
102
RTVSPost2010PropOp29
 70
     1
102
RTVSPost2010Prop30
280
     1
102
RTVSPost2010PropOp30
 70
     1
102
RTVSPost2010Prop31
280
     0
102
RTVSPost2010PropOp31
 70
     1
102
RTVSPost2010Prop32
280
     0
102
RTVSPost2010PropOp32
 70
     1
102
RTVSPost2010Prop33
280
     0
102
RTVSPost2010PropOp33
 70
     1
102
RTVSPost2010Prop34
280
     0
102
RTVSPost2010PropOp34
 70
     1
102
RTVSPost2010Prop35
280
     0
102
RTVSPost2010PropOp35
 70
     1
102
RTVSPost2010Prop36
280
     0
102
RTVSPost2010PropOp36
 70
     1
102
RTVSPost2010Prop37
 90
       50
102
RTVSPost2010PropOp37
 70
     1
102
RTVSPost2010Prop38
140
0.0
102
RTVSPost2010PropOp38
 70
     1
102
RTVSPost2010Prop39
140
1.0
102
RTVSPost2010PropOp39
 70
     1
102
RTVSPost2010Prop40
 90
        0
102
RTVSPost2010PropOp40
 70
     1
102
RTVSPost2010Prop41ColorIndex
 90
       18
102
RTVSPost2010Prop41ColorRGB
 90
        0
102
RTVSPost2010PropOp41
 70
     1
102
RTVSPost2010Prop42
 90
       50
102
RTVSPost2010PropOp42
 70
     1
102
RTVSPost2010Prop43
 90
        3
102
RTVSPost2010PropOp43
 70
     1
102
RTVSPost2010Prop44ColorIndex
 90
        5
102
RTVSPost2010Prop44ColorRGB
 90
      255
102
RTVSPost2010PropOp44
 70
     1
102
RTVSPost2010Prop45
280
     0
102
RTVSPost2010PropOp45
 70
     1
102
RTVSPost2010Prop46
 90
       50
102
RTVSPost2010PropOp46
 70
     1
102
RTVSPost2010Prop47
 90
       50
102
RTVSPost2010PropOp47
 70
     1
102
RTVSPost2010Prop48
 90
       50
102
RTVSPost2010PropOp48
 70
     1
102
RTVSPost2010Prop49
280
     0
102
RTVSPost2010PropOp49
 70
     1
102
RTVSPost2010Prop50
 90
       50
102
RTVSPost2010PropOp50
 70
     1
102
RTVSPost2010Prop51ColorIndex
 90
      256
102
RTVSPost2010Prop51ColorRGB
 90
-16777216
102
RTVSPost2010PropOp51
 70
     0
102
RTVSPost2010Prop52
140
1.0
102
RTVSPost2010PropOp52
 70
     0
102
RTVSPost2010Prop53
 90
        2
102
RTVSPost2010PropOp53
 70
     1
102
RTVSPost2010Prop54
  1
strokes_ogs.tif
102
RTVSPost2010PropOp54
 70
     1
102
RTVSPost2010Prop55
280
     0
102
RTVSPost2010PropOp55
 70
     1
102
RTVSPost2010Prop56
140
1.0
102
RTVSPost2010PropOp56
 70
     1
102
RTVSPost2010Prop57
140
1.0
102
RTVSPost2010PropOp57
 70
     1
  0
XRECORD
  5
1B7
102
{ACAD_REACTORS
330
1B6
102
}
330
1B6
100
AcDbXrecord
280
     1
102
RTVSPost2010Prop28
280
     0
102
RTVSPost2010PropOp28
 70
     1
102
RTVSPost2010Prop29
280
     1
102
RTVSPost2010PropOp29
 70
     1
102
RTVSPost2010Prop30
280
     1
102
RTVSPost2010PropOp30
 70
     1
102
RTVSPost2010Prop31
280
     0
102
RTVSPost2010PropOp31
 70
     1
102
RTVSPost2010Prop32
280
     0
102
RTVSPost2010PropOp32
 70
     1
102
RTVSPost2010Prop33
280
     0
102
RTVSPost2010PropOp33
 70
     1
102
RTVSPost2010Prop34
280
     0
102
RTVSPost2010PropOp34
 70
     1
102
RTVSPost2010Prop35
280
     0
102
RTVSPost2010PropOp35
 70
     1
102
RTVSPost2010Prop36
280
     0
102
RTVSPost2010PropOp36
 70
     1
102
RTVSPost2010Prop37
 90
       50
102
RTVSPost2010PropOp37
 70
     1
102
RTVSPost2010Prop38
140
0.0
102
RTVSPost2010PropOp38
 70
     1
102
RTVSPost2010Prop39
140
1.0
102
RTVSPost2010PropOp39
 70
     1
102
RTVSPost2010Prop40
 90
        0
102
RTVSPost2010PropOp40
 70
     1
102
RTVSPost2010Prop41ColorIndex
 90
       18
102
RTVSPost2010Prop41ColorRGB
 90
        0
102
RTVSPost2010PropOp41
 70
     1
102
RTVSPost2010Prop42
 90
       50
102
RTVSPost2010PropOp42
 70
     1
102
RTVSPost2010Prop43
 90
        3
102
RTVSPost2010PropOp43
 70
     1
102
RTVSPost2010Prop44ColorIndex
 90
        5
102
RTVSPost2010Prop44ColorRGB
 90
      255
102
RTVSPost2010PropOp44
 70
     1
102
RTVSPost2010Prop45
280
     0
102
RTVSPost2010PropOp45
 70
     1
102
RTVSPost2010Prop46
 90
       50
102
RTVSPost2010PropOp46
 70
     1
102
RTVSPost2010Prop47
 90
       50
102
RTVSPost2010PropOp47
 70
     1
102
RTVSPost2010Prop48
 90
       50
102
RTVSPost2010PropOp48
 70
     1
102
RTVSPost2010Prop49
280
     0
102
RTVSPost2010PropOp49
 70
     1
102
RTVSPost2010Prop50
 90
       50
102
RTVSPost2010PropOp50
 70
     1
102
RTVSPost2010Prop51ColorIndex
 90
      256
102
RTVSPost2010Prop51ColorRGB
 90
-16777216
102
RTVSPost2010PropOp51
 70
     0
102
RTVSPost2010Prop52
140
1.0
102
RTVSPost2010PropOp52
 70
     0
102
RTVSPost2010Prop53
 90
        2
102
RTVSPost2010PropOp53
 70
     1
102
RTVSPost2010Prop54
  1
strokes_ogs.tif
102
RTVSPost2010PropOp54
 70
     1
102
RTVSPost2010Prop55
280
     0
102
RTVSPost2010PropOp55
 70
     1
102
RTVSPost2010Prop56
140
1.0
102
RTVSPost2010PropOp56
 70
     1
102
RTVSPost2010Prop57
140
1.0
102
RTVSPost2010PropOp57
 70
     1
  0
XRECORD
  5
1D3
102
{ACAD_REACTORS
330
1D2
102
}
330
1D2
100
AcDbXrecord
280
     1
102
RTVSPost2010Prop28
280
     0
102
RTVSPost2010PropOp28
 70
     0
102
RTVSPost2010Prop29
280
     1
102
RTVSPost2010PropOp29
 70
     0
102
RTVSPost2010Prop30
280
     1
102
RTVSPost2010PropOp30
 70
     0
102
RTVSPost2010Prop31
280
     0
102
RTVSPost2010PropOp31
 70
     0
102
RTVSPost2010Prop32
280
     0
102
RTVSPost2010PropOp32
 70
     0
102
RTVSPost2010Prop33
280
     0
102
RTVSPost2010PropOp33
 70
     0
102
RTVSPost2010Prop34
280
     0
102
RTVSPost2010PropOp34
 70
     0
102
RTVSPost2010Prop35
280
     0
102
RTVSPost2010PropOp35
 70
     0
102
RTVSPost2010Prop36
280
     0
102
RTVSPost2010PropOp36
 70
     0
102
RTVSPost2010Prop37
 90
       50
102
RTVSPost2010PropOp37
 70
     0
102
RTVSPost2010Prop38
140
0.0
102
RTVSPost2010PropOp38
 70
     0
102
RTVSPost2010Prop39
140
1.0
102
RTVSPost2010PropOp39
 70
     0
102
RTVSPost2010Prop40
 90
        0
102
RTVSPost2010PropOp40
 70
     0
102
RTVSPost2010Prop41ColorIndex
 90
       18
102
RTVSPost2010Prop41ColorRGB
 90
        0
102
RTVSPost2010PropOp41
 70
     0
102
RTVSPost2010Prop42
 90
       50
102
RTVSPost2010PropOp42
 70
     0
102
RTVSPost2010Prop43
 90
        3
102
RTVSPost2010PropOp43
 70
     0
102
RTVSPost2010Prop44ColorIndex
 90
        5
102
RTVSPost2010Prop44ColorRGB
 90
      255
102
RTVSPost2010PropOp44
 70
     0
102
RTVSPost2010Prop45
280
     0
102
RTVSPost2010PropOp45
 70
     0
102
RTVSPost2010Prop46
 90
       50
102
RTVSPost2010PropOp46
 70
     0
102
RTVSPost2010Prop47
 90
       50
102
RTVSPost2010PropOp47
 70
     0
102
RTVSPost2010Prop48
 90
       50
102
RTVSPost2010PropOp48
 70
     0
102
RTVSPost2010Prop49
280
     0
102
RTVSPost2010PropOp49
 70
     0
102
RTVSPost2010Prop50
 90
       50
102
RTVSPost2010PropOp50
 70
     0
102
RTVSPost2010Prop51ColorIndex
 90
      256
102
RTVSPost2010Prop51ColorRGB
 90
-16777216
102
RTVSPost2010PropOp51
 70
     0
102
RTVSPost2010Prop52
140
1.0
102
RTVSPost2010PropOp52
 70
     0
102
RTVSPost2010Prop53
 90
        2
102
RTVSPost2010PropOp53
 70
     0
102
RTVSPost2010Prop54
  1
strokes_ogs.tif
102
RTVSPost2010PropOp54
 70
     0
102
RTVSPost2010Prop55
280
     0
102
RTVSPost2010PropOp55
 70
     0
102
RTVSPost2010Prop56
140
1.0
102
RTVSPost2010PropOp56
 70
     0
102
RTVSPost2010Prop57
140
1.0
102
RTVSPost2010PropOp57
 70
     0
  0
XRECORD
  5
1C3
102
{ACAD_REACTORS
330
1C2
102
}
330
1C2
100
AcDbXrecord
280
     1
102
RTVSPost2010Prop28
280
     0
102
RTVSPost2010PropOp28
 70
     1
102
RTVSPost2010Prop29
280
     1
102
RTVSPost2010PropOp29
 70
     1
102
RTVSPost2010Prop30
280
     1
102
RTVSPost2010PropOp30
 70
     1
102
RTVSPost2010Prop31
280
     0
102
RTVSPost2010PropOp31
 70
     1
102
RTVSPost2010Prop32
280
     0
102
RTVSPost2010PropOp32
 70
     1
102
RTVSPost2010Prop33
280
     0
102
RTVSPost2010PropOp33
 70
     1
102
RTVSPost2010Prop34
280
     0
102
RTVSPost2010PropOp34
 70
     1
102
RTVSPost2010Prop35
280
     0
102
RTVSPost2010PropOp35
 70
     1
102
RTVSPost2010Prop36
280
     0
102
RTVSPost2010PropOp36
 70
     1
102
RTVSPost2010Prop37
 90
       50
102
RTVSPost2010PropOp37
 70
     1
102
RTVSPost2010Prop38
140
0.0
102
RTVSPost2010PropOp38
 70
     1
102
RTVSPost2010Prop39
140
1.0
102
RTVSPost2010PropOp39
 70
     1
102
RTVSPost2010Prop40
 90
        0
102
RTVSPost2010PropOp40
 70
     1
102
RTVSPost2010Prop41ColorIndex
 90
       18
102
RTVSPost2010Prop41ColorRGB
 90
        0
102
RTVSPost2010PropOp41
 70
     1
102
RTVSPost2010Prop42
 90
       50
102
RTVSPost2010PropOp42
 70
     1
102
RTVSPost2010Prop43
 90
        3
102
RTVSPost2010PropOp43
 70
     1
102
RTVSPost2010Prop44ColorIndex
 90
        5
102
RTVSPost2010Prop44ColorRGB
 90
      255
102
RTVSPost2010PropOp44
 70
     1
102
RTVSPost2010Prop45
280
     0
102
RTVSPost2010PropOp45
 70
     1
102
RTVSPost2010Prop46
 90
       50
102
RTVSPost2010PropOp46
 70
     1
102
RTVSPost2010Prop47
 90
       50
102
RTVSPost2010PropOp47
 70
     1
102
RTVSPost2010Prop48
 90
       50
102
RTVSPost2010PropOp48
 70
     1
102
RTVSPost2010Prop49
280
     0
102
RTVSPost2010PropOp49
 70
     1
102
RTVSPost2010Prop50
 90
       50
102
RTVSPost2010PropOp50
 70
     1
102
RTVSPost2010Prop51ColorIndex
 90
      256
102
RTVSPost2010Prop51ColorRGB
 90
-16777216
102
RTVSPost2010PropOp51
 70
     0
102
RTVSPost2010Prop52
140
1.0
102
RTVSPost2010PropOp52
 70
     0
102
RTVSPost2010Prop53
 90
        2
102
RTVSPost2010PropOp53
 70
     1
102
RTVSPost2010Prop54
  1
strokes_ogs.tif
102
RTVSPost2010PropOp54
 70
     1
102
RTVSPost2010Prop55
280
     0
102
RTVSPost2010PropOp55
 70
     1
102
RTVSPost2010Prop56
140
1.0
102
RTVSPost2010PropOp56
 70
     1
102
RTVSPost2010Prop57
140
1.0
102
RTVSPost2010PropOp57
 70
     1
  0
XRECORD
  5
1D5
102
{ACAD_REACTORS
330
1D4
102
}
330
1D4
100
AcDbXrecord
280
     1
102
RTVSPost2010Prop28
280
     0
102
RTVSPost2010PropOp28
 70
     0
102
RTVSPost2010Prop29
280
     1
102
RTVSPost2010PropOp29
 70
     0
102
RTVSPost2010Prop30
280
     1
102
RTVSPost2010PropOp30
 70
     0
102
RTVSPost2010Prop31
280
     0
102
RTVSPost2010PropOp31
 70
     0
102
RTVSPost2010Prop32
280
     0
102
RTVSPost2010PropOp32
 70
     0
102
RTVSPost2010Prop33
280
     0
102
RTVSPost2010PropOp33
 70
     0
102
RTVSPost2010Prop34
280
     0
102
RTVSPost2010PropOp34
 70
     0
102
RTVSPost2010Prop35
280
     0
102
RTVSPost2010PropOp35
 70
     0
102
RTVSPost2010Prop36
280
     0
102
RTVSPost2010PropOp36
 70
     0
102
RTVSPost2010Prop37
 90
       50
102
RTVSPost2010PropOp37
 70
     0
102
RTVSPost2010Prop38
140
0.0
102
RTVSPost2010PropOp38
 70
     0
102
RTVSPost2010Prop39
140
1.0
102
RTVSPost2010PropOp39
 70
     0
102
RTVSPost2010Prop40
 90
        0
102
RTVSPost2010PropOp40
 70
     0
102
RTVSPost2010Prop41ColorIndex
 90
       18
102
RTVSPost2010Prop41ColorRGB
 90
        0
102
RTVSPost2010PropOp41
 70
     0
102
RTVSPost2010Prop42
 90
       50
102
RTVSPost2010PropOp42
 70
     0
102
RTVSPost2010Prop43
 90
        3
102
RTVSPost2010PropOp43
 70
     0
102
RTVSPost2010Prop44ColorIndex
 90
        5
102
RTVSPost2010Prop44ColorRGB
 90
      255
102
RTVSPost2010PropOp44
 70
     0
102
RTVSPost2010Prop45
280
     0
102
RTVSPost2010PropOp45
 70
     0
102
RTVSPost2010Prop46
 90
       50
102
RTVSPost2010PropOp46
 70
     0
102
RTVSPost2010Prop47
 90
       50
102
RTVSPost2010PropOp47
 70
     0
102
RTVSPost2010Prop48
 90
       50
102
RTVSPost2010PropOp48
 70
     0
102
RTVSPost2010Prop49
280
     0
102
RTVSPost2010PropOp49
 70
     0
102
RTVSPost2010Prop50
 90
       50
102
RTVSPost2010PropOp50
 70
     0
102
RTVSPost2010Prop51ColorIndex
 90
      256
102
RTVSPost2010Prop51ColorRGB
 90
-16777216
102
RTVSPost2010PropOp51
 70
     0
102
RTVSPost2010Prop52
140
1.0
102
RTVSPost2010PropOp52
 70
     0
102
RTVSPost2010Prop53
 90
        2
102
RTVSPost2010PropOp53
 70
     0
102
RTVSPost2010Prop54
  1
strokes_ogs.tif
102
RTVSPost2010PropOp54
 70
     0
102
RTVSPost2010Prop55
280
     0
102
RTVSPost2010PropOp55
 70
     0
102
RTVSPost2010Prop56
140
1.0
102
RTVSPost2010PropOp56
 70
     0
102
RTVSPost2010Prop57
140
1.0
102
RTVSPost2010PropOp57
 70
     0
  0
XRECORD
  5
1BB
102
{ACAD_REACTORS
330
1BA
102
}
330
1BA
100
AcDbXrecord
280
     1
102
RTVSPost2010Prop28
280
     0
102
RTVSPost2010PropOp28
 70
     1
102
RTVSPost2010Prop29
280
     1
102
RTVSPost2010PropOp29
 70
     1
102
RTVSPost2010Prop30
280
     1
102
RTVSPost2010PropOp30
 70
     1
102
RTVSPost2010Prop31
280
     0
102
RTVSPost2010PropOp31
 70
     1
102
RTVSPost2010Prop32
280
     0
102
RTVSPost2010PropOp32
 70
     1
102
RTVSPost2010Prop33
280
     0
102
RTVSPost2010PropOp33
 70
     1
102
RTVSPost2010Prop34
280
     0
102
RTVSPost2010PropOp34
 70
     1
102
RTVSPost2010Prop35
280
     0
102
RTVSPost2010PropOp35
 70
     1
102
RTVSPost2010Prop36
280
     0
102
RTVSPost2010PropOp36
 70
     1
102
RTVSPost2010Prop37
 90
       50
102
RTVSPost2010PropOp37
 70
     1
102
RTVSPost2010Prop38
140
0.0
102
RTVSPost2010PropOp38
 70
     1
102
RTVSPost2010Prop39
140
1.0
102
RTVSPost2010PropOp39
 70
     1
102
RTVSPost2010Prop40
 90
        0
102
RTVSPost2010PropOp40
 70
     1
102
RTVSPost2010Prop41ColorIndex
 90
       18
102
RTVSPost2010Prop41ColorRGB
 90
        0
102
RTVSPost2010PropOp41
 70
     1
102
RTVSPost2010Prop42
 90
       50
102
RTVSPost2010PropOp42
 70
     1
102
RTVSPost2010Prop43
 90
        3
102
RTVSPost2010PropOp43
 70
     1
102
RTVSPost2010Prop44ColorIndex
 90
        5
102
RTVSPost2010Prop44ColorRGB
 90
      255
102
RTVSPost2010PropOp44
 70
     1
102
RTVSPost2010Prop45
280
     0
102
RTVSPost2010PropOp45
 70
     1
102
RTVSPost2010Prop46
 90
       50
102
RTVSPost2010PropOp46
 70
     1
102
RTVSPost2010Prop47
 90
       50
102
RTVSPost2010PropOp47
 70
     1
102
RTVSPost2010Prop48
 90
       50
102
RTVSPost2010PropOp48
 70
     1
102
RTVSPost2010Prop49
280
     0
102
RTVSPost2010PropOp49
 70
     1
102
RTVSPost2010Prop50
 90
       50
102
RTVSPost2010PropOp50
 70
     1
102
RTVSPost2010Prop51ColorIndex
 90
      256
102
RTVSPost2010Prop51ColorRGB
 90
-16777216
102
RTVSPost2010PropOp51
 70
     0
102
RTVSPost2010Prop52
140
1.0
102
RTVSPost2010PropOp52
 70
     0
102
RTVSPost2010Prop53
 90
        2
102
RTVSPost2010PropOp53
 70
     1
102
RTVSPost2010Prop54
  1
strokes_ogs.tif
102
RTVSPost2010PropOp54
 70
     1
102
RTVSPost2010Prop55
280
     0
102
RTVSPost2010PropOp55
 70
     1
102
RTVSPost2010Prop56
140
1.0
102
RTVSPost2010PropOp56
 70
     1
102
RTVSPost2010Prop57
140
1.0
102
RTVSPost2010PropOp57
 70
     1
  0
XRECORD
  5
1D1
102
{ACAD_REACTORS
330
1D0
102
}
330
1D0
100
AcDbXrecord
280
     1
102
RTVSPost2010Prop28
280
     0
102
RTVSPost2010PropOp28
 70
     1
102
RTVSPost2010Prop29
280
     1
102
RTVSPost2010PropOp29
 70
     1
102
RTVSPost2010Prop30
280
     1
102
RTVSPost2010PropOp30
 70
     1
102
RTVSPost2010Prop31
280
     0
102
RTVSPost2010PropOp31
 70
     1
102
RTVSPost2010Prop32
280
     0
102
RTVSPost2010PropOp32
 70
     1
102
RTVSPost2010Prop33
280
     0
102
RTVSPost2010PropOp33
 70
     1
102
RTVSPost2010Prop34
280
     0
102
RTVSPost2010PropOp34
 70
     1
102
RTVSPost2010Prop35
280
     0
102
RTVSPost2010PropOp35
 70
     1
102
RTVSPost2010Prop36
280
     0
102
RTVSPost2010PropOp36
 70
     1
102
RTVSPost2010Prop37
 90
       50
102
RTVSPost2010PropOp37
 70
     1
102
RTVSPost2010Prop38
140
0.0
102
RTVSPost2010PropOp38
 70
     1
102
RTVSPost2010Prop39
140
1.0
102
RTVSPost2010PropOp39
 70
     1
102
RTVSPost2010Prop40
 90
        0
102
RTVSPost2010PropOp40
 70
     1
102
RTVSPost2010Prop41ColorIndex
 90
       18
102
RTVSPost2010Prop41ColorRGB
 90
        0
102
RTVSPost2010PropOp41
 70
     1
102
RTVSPost2010Prop42
 90
       50
102
RTVSPost2010PropOp42
 70
     1
102
RTVSPost2010Prop43
 90
        3
102
RTVSPost2010PropOp43
 70
     1
102
RTVSPost2010Prop44ColorIndex
 90
        5
102
RTVSPost2010Prop44ColorRGB
 90
      255
102
RTVSPost2010PropOp44
 70
     1
102
RTVSPost2010Prop45
280
     0
102
RTVSPost2010PropOp45
 70
     1
102
RTVSPost2010Prop46
 90
       50
102
RTVSPost2010PropOp46
 70
     1
102
RTVSPost2010Prop47
 90
       50
102
RTVSPost2010PropOp47
 70
     1
102
RTVSPost2010Prop48
 90
       50
102
RTVSPost2010PropOp48
 70
     1
102
RTVSPost2010Prop49
280
     0
102
RTVSPost2010PropOp49
 70
     1
102
RTVSPost2010Prop50
 90
       50
102
RTVSPost2010PropOp50
 70
     1
102
RTVSPost2010Prop51ColorIndex
 90
      256
102
RTVSPost2010Prop51ColorRGB
 90
-16777216
102
RTVSPost2010PropOp51
 70
     0
102
RTVSPost2010Prop52
140
1.0
102
RTVSPost2010PropOp52
 70
     0
102
RTVSPost2010Prop53
 90
        2
102
RTVSPost2010PropOp53
 70
     1
102
RTVSPost2010Prop54
  1
strokes_ogs.tif
102
RTVSPost2010PropOp54
 70
     1
102
RTVSPost2010Prop55
280
     0
102
RTVSPost2010PropOp55
 70
     1
102
RTVSPost2010Prop56
140
1.0
102
RTVSPost2010PropOp56
 70
     1
102
RTVSPost2010Prop57
140
1.0
102
RTVSPost2010PropOp57
 70
     1
  0
XRECORD
  5
1CF
102
{ACAD_REACTORS
330
1CE
102
}
330
1CE
100
AcDbXrecord
280
     1
102
RTVSPost2010Prop28
280
     0
102
RTVSPost2010PropOp28
 70
     1
102
RTVSPost2010Prop29
280
     1
102
RTVSPost2010PropOp29
 70
     1
102
RTVSPost2010Prop30
280
     1
102
RTVSPost2010PropOp30
 70
     1
102
RTVSPost2010Prop31
280
     0
102
RTVSPost2010PropOp31
 70
     1
102
RTVSPost2010Prop32
280
     0
102
RTVSPost2010PropOp32
 70
     1
102
RTVSPost2010Prop33
280
     0
102
RTVSPost2010PropOp33
 70
     1
102
RTVSPost2010Prop34
280
     0
102
RTVSPost2010PropOp34
 70
     1
102
RTVSPost2010Prop35
280
     0
102
RTVSPost2010PropOp35
 70
     1
102
RTVSPost2010Prop36
280
     0
102
RTVSPost2010PropOp36
 70
     1
102
RTVSPost2010Prop37
 90
       50
102
RTVSPost2010PropOp37
 70
     1
102
RTVSPost2010Prop38
140
0.0
102
RTVSPost2010PropOp38
 70
     1
102
RTVSPost2010Prop39
140
1.0
102
RTVSPost2010PropOp39
 70
     1
102
RTVSPost2010Prop40
 90
        0
102
RTVSPost2010PropOp40
 70
     1
102
RTVSPost2010Prop41ColorIndex
 90
       18
102
RTVSPost2010Prop41ColorRGB
 90
        0
102
RTVSPost2010PropOp41
 70
     1
102
RTVSPost2010Prop42
 90
       50
102
RTVSPost2010PropOp42
 70
     1
102
RTVSPost2010Prop43
 90
        3
102
RTVSPost2010PropOp43
 70
     1
102
RTVSPost2010Prop44ColorIndex
 90
        5
102
RTVSPost2010Prop44ColorRGB
 90
      255
102
RTVSPost2010PropOp44
 70
     1
102
RTVSPost2010Prop45
280
     0
102
RTVSPost2010PropOp45
 70
     1
102
RTVSPost2010Prop46
 90
       50
102
RTVSPost2010PropOp46
 70
     1
102
RTVSPost2010Prop47
 90
       50
102
RTVSPost2010PropOp47
 70
     1
102
RTVSPost2010Prop48
 90
       50
102
RTVSPost2010PropOp48
 70
     1
102
RTVSPost2010Prop49
280
     0
102
RTVSPost2010PropOp49
 70
     1
102
RTVSPost2010Prop50
 90
       50
102
RTVSPost2010PropOp50
 70
     1
102
RTVSPost2010Prop51ColorIndex
 90
      256
102
RTVSPost2010Prop51ColorRGB
 90
-16777216
102
RTVSPost2010PropOp51
 70
     0
102
RTVSPost2010Prop52
140
1.0
102
RTVSPost2010PropOp52
 70
     0
102
RTVSPost2010Prop53
 90
        2
102
RTVSPost2010PropOp53
 70
     1
102
RTVSPost2010Prop54
  1
strokes_ogs.tif
102
RTVSPost2010PropOp54
 70
     1
102
RTVSPost2010Prop55
280
     0
102
RTVSPost2010PropOp55
 70
     1
102
RTVSPost2010Prop56
140
1.0
102
RTVSPost2010PropOp56
 70
     1
102
RTVSPost2010Prop57
140
1.0
102
RTVSPost2010PropOp57
 70
     1
  0
XRECORD
  5
1C9
102
{ACAD_REACTORS
330
1C8
102
}
330
1C8
100
AcDbXrecord
280
     1
102
RTVSPost2010Prop28
280
     0
102
RTVSPost2010PropOp28
 70
     1
102
RTVSPost2010Prop29
280
     1
102
RTVSPost2010PropOp29
 70
     1
102
RTVSPost2010Prop30
280
     1
102
RTVSPost2010PropOp30
 70
     1
102
RTVSPost2010Prop31
280
     0
102
RTVSPost2010PropOp31
 70
     1
102
RTVSPost2010Prop32
280
     0
102
RTVSPost2010PropOp32
 70
     1
102
RTVSPost2010Prop33
280
     0
102
RTVSPost2010PropOp33
 70
     1
102
RTVSPost2010Prop34
280
     0
102
RTVSPost2010PropOp34
 70
     1
102
RTVSPost2010Prop35
280
     0
102
RTVSPost2010PropOp35
 70
     1
102
RTVSPost2010Prop36
280
     0
102
RTVSPost2010PropOp36
 70
     1
102
RTVSPost2010Prop37
 90
       50
102
RTVSPost2010PropOp37
 70
     1
102
RTVSPost2010Prop38
140
0.0
102
RTVSPost2010PropOp38
 70
     1
102
RTVSPost2010Prop39
140
1.0
102
RTVSPost2010PropOp39
 70
     1
102
RTVSPost2010Prop40
 90
        0
102
RTVSPost2010PropOp40
 70
     1
102
RTVSPost2010Prop41ColorIndex
 90
       18
102
RTVSPost2010Prop41ColorRGB
 90
        0
102
RTVSPost2010PropOp41
 70
     1
102
RTVSPost2010Prop42
 90
       50
102
RTVSPost2010PropOp42
 70
     1
102
RTVSPost2010Prop43
 90
        3
102
RTVSPost2010PropOp43
 70
     1
102
RTVSPost2010Prop44ColorIndex
 90
        5
102
RTVSPost2010Prop44ColorRGB
 90
      255
102
RTVSPost2010PropOp44
 70
     1
102
RTVSPost2010Prop45
280
     0
102
RTVSPost2010PropOp45
 70
     1
102
RTVSPost2010Prop46
 90
       50
102
RTVSPost2010PropOp46
 70
     1
102
RTVSPost2010Prop47
 90
       50
102
RTVSPost2010PropOp47
 70
     1
102
RTVSPost2010Prop48
 90
       50
102
RTVSPost2010PropOp48
 70
     1
102
RTVSPost2010Prop49
280
     0
102
RTVSPost2010PropOp49
 70
     1
102
RTVSPost2010Prop50
 90
       50
102
RTVSPost2010PropOp50
 70
     1
102
RTVSPost2010Prop51ColorIndex
 90
      256
102
RTVSPost2010Prop51ColorRGB
 90
-16777216
102
RTVSPost2010PropOp51
 70
     0
102
RTVSPost2010Prop52
140
1.0
102
RTVSPost2010PropOp52
 70
     0
102
RTVSPost2010Prop53
 90
        2
102
RTVSPost2010PropOp53
 70
     1
102
RTVSPost2010Prop54
  1
strokes_ogs.tif
102
RTVSPost2010PropOp54
 70
     1
102
RTVSPost2010Prop55
280
     0
102
RTVSPost2010PropOp55
 70
     1
102
RTVSPost2010Prop56
140
1.0
102
RTVSPost2010PropOp56
 70
     1
102
RTVSPost2010Prop57
140
1.0
102
RTVSPost2010PropOp57
 70
     1
  0
XRECORD
  5
1CB
102
{ACAD_REACTORS
330
1CA
102
}
330
1CA
100
AcDbXrecord
280
     1
102
RTVSPost2010Prop28
280
     0
102
RTVSPost2010PropOp28
 70
     1
102
RTVSPost2010Prop29
280
     1
102
RTVSPost2010PropOp29
 70
     1
102
RTVSPost2010Prop30
280
     1
102
RTVSPost2010PropOp30
 70
     1
102
RTVSPost2010Prop31
280
     0
102
RTVSPost2010PropOp31
 70
     1
102
RTVSPost2010Prop32
280
     0
102
RTVSPost2010PropOp32
 70
     1
102
RTVSPost2010Prop33
280
     0
102
RTVSPost2010PropOp33
 70
     1
102
RTVSPost2010Prop34
280
     0
102
RTVSPost2010PropOp34
 70
     1
102
RTVSPost2010Prop35
280
     0
102
RTVSPost2010PropOp35
 70
     1
102
RTVSPost2010Prop36
280
     0
102
RTVSPost2010PropOp36
 70
     1
102
RTVSPost2010Prop37
 90
       50
102
RTVSPost2010PropOp37
 70
     1
102
RTVSPost2010Prop38
140
0.0
102
RTVSPost2010PropOp38
 70
     1
102
RTVSPost2010Prop39
140
1.0
102
RTVSPost2010PropOp39
 70
     1
102
RTVSPost2010Prop40
 90
        0
102
RTVSPost2010PropOp40
 70
     1
102
RTVSPost2010Prop41ColorIndex
 90
       18
102
RTVSPost2010Prop41ColorRGB
 90
        0
102
RTVSPost2010PropOp41
 70
     1
102
RTVSPost2010Prop42
 90
       50
102
RTVSPost2010PropOp42
 70
     1
102
RTVSPost2010Prop43
 90
        3
102
RTVSPost2010PropOp43
 70
     1
102
RTVSPost2010Prop44ColorIndex
 90
        5
102
RTVSPost2010Prop44ColorRGB
 90
      255
102
RTVSPost2010PropOp44
 70
     1
102
RTVSPost2010Prop45
280
     0
102
RTVSPost2010PropOp45
 70
     1
102
RTVSPost2010Prop46
 90
       50
102
RTVSPost2010PropOp46
 70
     1
102
RTVSPost2010Prop47
 90
       50
102
RTVSPost2010PropOp47
 70
     1
102
RTVSPost2010Prop48
 90
       50
102
RTVSPost2010PropOp48
 70
     1
102
RTVSPost2010Prop49
280
     0
102
RTVSPost2010PropOp49
 70
     1
102
RTVSPost2010Prop50
 90
       50
102
RTVSPost2010PropOp50
 70
     1
102
RTVSPost2010Prop51ColorIndex
 90
      256
102
RTVSPost2010Prop51ColorRGB
 90
-16777216
102
RTVSPost2010PropOp51
 70
     0
102
RTVSPost2010Prop52
140
1.0
102
RTVSPost2010PropOp52
 70
     0
102
RTVSPost2010Prop53
 90
        2
102
RTVSPost2010PropOp53
 70
     1
102
RTVSPost2010Prop54
  1
strokes_ogs.tif
102
RTVSPost2010PropOp54
 70
     1
102
RTVSPost2010Prop55
280
     0
102
RTVSPost2010PropOp55
 70
     1
102
RTVSPost2010Prop56
140
1.0
102
RTVSPost2010PropOp56
 70
     1
102
RTVSPost2010Prop57
140
1.0
102
RTVSPost2010PropOp57
 70
     1
  0
XRECORD
  5
1C1
102
{ACAD_REACTORS
330
1C0
102
}
330
1C0
100
AcDbXrecord
280
     1
102
RTVSPost2010Prop28
280
     0
102
RTVSPost2010PropOp28
 70
     1
102
RTVSPost2010Prop29
280
     1
102
RTVSPost2010PropOp29
 70
     1
102
RTVSPost2010Prop30
280
     1
102
RTVSPost2010PropOp30
 70
     1
102
RTVSPost2010Prop31
280
     0
102
RTVSPost2010PropOp31
 70
     1
102
RTVSPost2010Prop32
280
     0
102
RTVSPost2010PropOp32
 70
     1
102
RTVSPost2010Prop33
280
     0
102
RTVSPost2010PropOp33
 70
     1
102
RTVSPost2010Prop34
280
     0
102
RTVSPost2010PropOp34
 70
     1
102
RTVSPost2010Prop35
280
     0
102
RTVSPost2010PropOp35
 70
     1
102
RTVSPost2010Prop36
280
     0
102
RTVSPost2010PropOp36
 70
     1
102
RTVSPost2010Prop37
 90
       50
102
RTVSPost2010PropOp37
 70
     1
102
RTVSPost2010Prop38
140
0.0
102
RTVSPost2010PropOp38
 70
     1
102
RTVSPost2010Prop39
140
1.0
102
RTVSPost2010PropOp39
 70
     1
102
RTVSPost2010Prop40
 90
        0
102
RTVSPost2010PropOp40
 70
     1
102
RTVSPost2010Prop41ColorIndex
 90
       18
102
RTVSPost2010Prop41ColorRGB
 90
        0
102
RTVSPost2010PropOp41
 70
     1
102
RTVSPost2010Prop42
 90
       50
102
RTVSPost2010PropOp42
 70
     1
102
RTVSPost2010Prop43
 90
        3
102
RTVSPost2010PropOp43
 70
     1
102
RTVSPost2010Prop44ColorIndex
 90
        5
102
RTVSPost2010Prop44ColorRGB
 90
      255
102
RTVSPost2010PropOp44
 70
     1
102
RTVSPost2010Prop45
280
     0
102
RTVSPost2010PropOp45
 70
     1
102
RTVSPost2010Prop46
 90
       50
102
RTVSPost2010PropOp46
 70
     1
102
RTVSPost2010Prop47
 90
       50
102
RTVSPost2010PropOp47
 70
     1
102
RTVSPost2010Prop48
 90
       50
102
RTVSPost2010PropOp48
 70
     1
102
RTVSPost2010Prop49
280
     0
102
RTVSPost2010PropOp49
 70
     1
102
RTVSPost2010Prop50
 90
       50
102
RTVSPost2010PropOp50
 70
     1
102
RTVSPost2010Prop51ColorIndex
 90
      256
102
RTVSPost2010Prop51ColorRGB
 90
-16777216
102
RTVSPost2010PropOp51
 70
     0
102
RTVSPost2010Prop52
140
1.0
102
RTVSPost2010PropOp52
 70
     0
102
RTVSPost2010Prop53
 90
        2
102
RTVSPost2010PropOp53
 70
     1
102
RTVSPost2010Prop54
  1
strokes_ogs.tif
102
RTVSPost2010PropOp54
 70
     1
102
RTVSPost2010Prop55
280
     0
102
RTVSPost2010PropOp55
 70
     1
102
RTVSPost2010Prop56
140
1.0
102
RTVSPost2010PropOp56
 70
     1
102
RTVSPost2010Prop57
140
1.0
102
RTVSPost2010PropOp57
 70
     1
  0
XRECORD
  5
1B5
102
{ACAD_REACTORS
330
1B4
102
}
330
1B4
100
AcDbXrecord
280
     1
102
RTVSPost2010Prop28
280
     0
102
RTVSPost2010PropOp28
 70
     1
102
RTVSPost2010Prop29
280
     1
102
RTVSPost2010PropOp29
 70
     1
102
RTVSPost2010Prop30
280
     1
102
RTVSPost2010PropOp30
 70
     1
102
RTVSPost2010Prop31
280
     0
102
RTVSPost2010PropOp31
 70
     1
102
RTVSPost2010Prop32
280
     0
102
RTVSPost2010PropOp32
 70
     1
102
RTVSPost2010Prop33
280
     0
102
RTVSPost2010PropOp33
 70
     1
102
RTVSPost2010Prop34
280
     0
102
RTVSPost2010PropOp34
 70
     1
102
RTVSPost2010Prop35
280
     0
102
RTVSPost2010PropOp35
 70
     1
102
RTVSPost2010Prop36
280
     0
102
RTVSPost2010PropOp36
 70
     1
102
RTVSPost2010Prop37
 90
       50
102
RTVSPost2010PropOp37
 70
     1
102
RTVSPost2010Prop38
140
0.0
102
RTVSPost2010PropOp38
 70
     1
102
RTVSPost2010Prop39
140
1.0
102
RTVSPost2010PropOp39
 70
     1
102
RTVSPost2010Prop40
 90
        0
102
RTVSPost2010PropOp40
 70
     1
102
RTVSPost2010Prop41ColorIndex
 90
       18
102
RTVSPost2010Prop41ColorRGB
 90
        0
102
RTVSPost2010PropOp41
 70
     1
102
RTVSPost2010Prop42
 90
       50
102
RTVSPost2010PropOp42
 70
     1
102
RTVSPost2010Prop43
 90
        3
102
RTVSPost2010PropOp43
 70
     1
102
RTVSPost2010Prop44ColorIndex
 90
        5
102
RTVSPost2010Prop44ColorRGB
 90
      255
102
RTVSPost2010PropOp44
 70
     1
102
RTVSPost2010Prop45
280
     0
102
RTVSPost2010PropOp45
 70
     1
102
RTVSPost2010Prop46
 90
       50
102
RTVSPost2010PropOp46
 70
     1
102
RTVSPost2010Prop47
 90
       50
102
RTVSPost2010PropOp47
 70
     1
102
RTVSPost2010Prop48
 90
       50
102
RTVSPost2010PropOp48
 70
     1
102
RTVSPost2010Prop49
280
     0
102
RTVSPost2010PropOp49
 70
     1
102
RTVSPost2010Prop50
 90
       50
102
RTVSPost2010PropOp50
 70
     1
102
RTVSPost2010Prop51ColorIndex
 90
      256
102
RTVSPost2010Prop51ColorRGB
 90
-16777216
102
RTVSPost2010PropOp51
 70
     0
102
RTVSPost2010Prop52
140
1.0
102
RTVSPost2010PropOp52
 70
     0
102
RTVSPost2010Prop53
 90
        2
102
RTVSPost2010PropOp53
 70
     1
102
RTVSPost2010Prop54
  1
strokes_ogs.tif
102
RTVSPost2010PropOp54
 70
     1
102
RTVSPost2010Prop55
280
     0
102
RTVSPost2010PropOp55
 70
     1
102
RTVSPost2010Prop56
140
1.0
102
RTVSPost2010PropOp56
 70
     1
102
RTVSPost2010Prop57
140
1.0
102
RTVSPost2010PropOp57
 70
     1
  0
XRECORD
  5
1CD
102
{ACAD_REACTORS
330
1CC
102
}
330
1CC
100
AcDbXrecord
280
     1
102
RTVSPost2010Prop28
280
     0
102
RTVSPost2010PropOp28
 70
     1
102
RTVSPost2010Prop29
280
     1
102
RTVSPost2010PropOp29
 70
     1
102
RTVSPost2010Prop30
280
     1
102
RTVSPost2010PropOp30
 70
     1
102
RTVSPost2010Prop31
280
     0
102
RTVSPost2010PropOp31
 70
     1
102
RTVSPost2010Prop32
280
     0
102
RTVSPost2010PropOp32
 70
     1
102
RTVSPost2010Prop33
280
     0
102
RTVSPost2010PropOp33
 70
     1
102
RTVSPost2010Prop34
280
     0
102
RTVSPost2010PropOp34
 70
     1
102
RTVSPost2010Prop35
280
     0
102
RTVSPost2010PropOp35
 70
     1
102
RTVSPost2010Prop36
280
     0
102
RTVSPost2010PropOp36
 70
     1
102
RTVSPost2010Prop37
 90
       50
102
RTVSPost2010PropOp37
 70
     1
102
RTVSPost2010Prop38
140
0.0
102
RTVSPost2010PropOp38
 70
     1
102
RTVSPost2010Prop39
140
1.0
102
RTVSPost2010PropOp39
 70
     1
102
RTVSPost2010Prop40
 90
        0
102
RTVSPost2010PropOp40
 70
     1
102
RTVSPost2010Prop41ColorIndex
 90
       18
102
RTVSPost2010Prop41ColorRGB
 90
        0
102
RTVSPost2010PropOp41
 70
     1
102
RTVSPost2010Prop42
 90
       50
102
RTVSPost2010PropOp42
 70
     1
102
RTVSPost2010Prop43
 90
        3
102
RTVSPost2010PropOp43
 70
     1
102
RTVSPost2010Prop44ColorIndex
 90
        5
102
RTVSPost2010Prop44ColorRGB
 90
      255
102
RTVSPost2010PropOp44
 70
     1
102
RTVSPost2010Prop45
280
     0
102
RTVSPost2010PropOp45
 70
     1
102
RTVSPost2010Prop46
 90
       50
102
RTVSPost2010PropOp46
 70
     1
102
RTVSPost2010Prop47
 90
       50
102
RTVSPost2010PropOp47
 70
     1
102
RTVSPost2010Prop48
 90
       50
102
RTVSPost2010PropOp48
 70
     1
102
RTVSPost2010Prop49
280
     0
102
RTVSPost2010PropOp49
 70
     1
102
RTVSPost2010Prop50
 90
       50
102
RTVSPost2010PropOp50
 70
     1
102
RTVSPost2010Prop51ColorIndex
 90
      256
102
RTVSPost2010Prop51ColorRGB
 90
-16777216
102
RTVSPost2010PropOp51
 70
     0
102
RTVSPost2010Prop52
140
1.0
102
RTVSPost2010PropOp52
 70
     0
102
RTVSPost2010Prop53
 90
        2
102
RTVSPost2010PropOp53
 70
     1
102
RTVSPost2010Prop54
  1
strokes_ogs.tif
102
RTVSPost2010PropOp54
 70
     1
102
RTVSPost2010Prop55
280
     0
102
RTVSPost2010PropOp55
 70
     1
102
RTVSPost2010Prop56
140
1.0
102
RTVSPost2010PropOp56
 70
     1
102
RTVSPost2010Prop57
140
1.0
102
RTVSPost2010PropOp57
 70
     1
  0
ENDSEC
  0
EOF
