  0
SECTION
  2
HEADER
  9
$ACADVER
  1
AC1024
  9
$ACADMAINTVER
 70
     6
  9
$DWGCODEPAGE
  3
UNDEFINED
  9
$INSBASE
 10
0.0
 20
0.0
 30
0.0
  9
$EXTMIN
 10
1.000000000000000E+20
 20
1.000000000000000E+20
 30
1.000000000000000E+20
  9
$EXTMAX
 10
-1.000000000000000E+20
 20
-1.000000000000000E+20
 30
-1.000000000000000E+20
  9
$LIMMIN
 10
0.0
 20
0.0
  9
$LIMMAX
 10
12.0
 20
9.0
  9
$ORTHOMODE
 70
     0
  9
$REGENMODE
 70
     1
  9
$FILLMODE
 70
     1
  9
$QTEXTMODE
 70
     0
  9
$MIRRTEXT
 70
     1
  9
$LTSCALE
 40
1.0
  9
$ATTMODE
 70
     1
  9
$TEXTSIZE
 40
0.2
  9
$TRACEWID
 40
0.05
  9
$TEXTSTYLE
  7
Standard
  9
$CLAYER
  8
0
  9
$CELTYPE
  6
ByLayer
  9
$CECOLOR
 62
   256
  9
$CELTSCALE
 40
1.0
  9
$DISPSILH
 70
     0
  9
$DIMSCALE
 40
1.0
  9
$DIMASZ
 40
0.18
  9
$DIMEXO
 40
0.0625
  9
$DIMDLI
 40
0.38
  9
$DIMRND
 40
0.0
  9
$DIMDLE
 40
0.0
  9
$DIMEXE
 40
0.18
  9
$DIMTP
 40
0.0
  9
$DIMTM
 40
0.0
  9
$DIMTXT
 40
0.18
  9
$DIMCEN
 40
0.09
  9
$DIMTSZ
 40
0.0
  9
$DIMTOL
 70
     0
  9
$DIMLIM
 70
     0
  9
$DIMTIH
 70
     1
  9
$DIMTOH
 70
     1
  9
$DIMSE1
 70
     0
  9
$DIMSE2
 70
     0
  9
$DIMTAD
 70
     0
  9
$DIMZIN
 70
     0
  9
$DIMBLK
  1

  9
$DIMASO
 70
     1
  9
$DIMSHO
 70
     1
  9
$DIMPOST
  1

  9
$DIMAPOST
  1

  9
$DIMALT
 70
     0
  9
$DIMALTD
 70
     2
  9
$DIMALTF
 40
25.4
  9
$DIMLFAC
 40
1.0
  9
$DIMTOFL
 70
     0
  9
$DIMTVP
 40
0.0
  9
$DIMTIX
 70
     0
  9
$DIMSOXD
 70
     0
  9
$DIMSAH
 70
     0
  9
$DIMBLK1
  1

  9
$DIMBLK2
  1

  9
$DIMSTYLE
  2
Standard
  9
$DIMCLRD
 70
     0
  9
$DIMCLRE
 70
     0
  9
$DIMCLRT
 70
     0
  9
$DIMTFAC
 40
1.0
  9
$DIMGAP
 40
0.09
  9
$DIMJUST
 70
     0
  9
$DIMSD1
 70
     0
  9
$DIMSD2
 70
     0
  9
$DIMTOLJ
 70
     1
  9
$DIMTZIN
 70
     0
  9
$DIMALTZ
 70
     0
  9
$DIMALTTZ
 70
     0
  9
$DIMUPT
 70
     0
  9
$DIMDEC
 70
     4
  9
$DIMTDEC
 70
     4
  9
$DIMALTU
 70
     2
  9
$DIMALTTD
 70
     2
  9
$DIMTXSTY
  7
Standard
  9
$DIMAUNIT
 70
     0
  9
$DIMADEC
 70
     0
  9
$DIMALTRND
 40
0.0
  9
$DIMAZIN
 70
     0
  9
$DIMDSEP
 70
    46
  9
$DIMATFIT
 70
     3
  9
$DIMFRAC
 70
     0
  9
$DIMLDRBLK
  1

  9
$DIMLUNIT
 70
     2
  9
$DIMLWD
 70
    -2
  9
$DIMLWE
 70
    -2
  9
$DIMTMOVE
 70
     0
  9
$DIMFXL
 40
1.0
  9
$DIMFXLON
 70
     0
  9
$DIMJOGANG
 40
0.7853981633974483
  9
$DIMTFILL
 70
     0
  9
$DIMTFILLCLR
 70
     0
  9
$DIMARCSYM
 70
     0
  9
$DIMLTYPE
  6

  9
$DIMLTEX1
  6

  9
$DIMLTEX2
  6

  9
$DIMTXTDIRECTION
 70
     0
  9
$LUNITS
 70
     2
  9
$LUPREC
 70
     4
  9
$SKETCHINC
 40
0.1
  9
$FILLETRAD
 40
0.5
  9
$AUNITS
 70
     0
  9
$AUPREC
 70
     0
  9
$MENU
  1
.
  9
$ELEVATION
 40
0.0
  9
$PELEVATION
 40
0.0
  9
$THICKNESS
 40
0.0
  9
$LIMCHECK
 70
     0
  9
$CHAMFERA
 40
0.5
  9
$CHAMFERB
 40
0.5
  9
$CHAMFERC
 40
1.0
  9
$CHAMFERD
 40
0.0
  9
$SKPOLY
 70
     0
  9
$TDCREATE
 40
2457917.597569433
  9
$TDUCREATE
 40
2457917.222569444
  9
$TDUPDATE
 40
2457917.597569433
  9
$TDUUPDATE
 40
2457917.222569444
  9
$TDINDWG
 40
0.0000000116
  9
$TDUSRTIMER
 40
0.0000000116
  9
$USRTIMER
 70
     1
  9
$ANGBASE
 50
0.0
  9
$ANGDIR
 70
     0
  9
$PDMODE
 70
     0
  9
$PDSIZE
 40
0.0
  9
$PLINEWID
 40
0.0
  9
$SPLFRAME
 70
     0
  9
$SPLINETYPE
 70
     6
  9
$SPLINESEGS
 70
     8
  9
$HANDSEED
  5
214
  9
$SURFTAB1
 70
     6
  9
$SURFTAB2
 70
     6
  9
$SURFTYPE
 70
     6
  9
$SURFU
 70
     6
  9
$SURFV
 70
     6
  9
$UCSBASE
  2

  9
$UCSNAME
  2

  9
$UCSORG
 10
0.0
 20
0.0
 30
0.0
  9
$UCSXDIR
 10
1.0
 20
0.0
 30
0.0
  9
$UCSYDIR
 10
0.0
 20
1.0
 30
0.0
  9
$UCSORTHOREF
  2

  9
$UCSORTHOVIEW
 70
     0
  9
$UCSORGTOP
 10
0.0
 20
0.0
 30
0.0
  9
$UCSORGBOTTOM
 10
0.0
 20
0.0
 30
0.0
  9
$UCSORGLEFT
 10
0.0
 20
0.0
 30
0.0
  9
$UCSORGRIGHT
 10
0.0
 20
0.0
 30
0.0
  9
$UCSORGFRONT
 10
0.0
 20
0.0
 30
0.0
  9
$UCSORGBACK
 10
0.0
 20
0.0
 30
0.0
  9
$PUCSBASE
  2

  9
$PUCSNAME
  2

  9
$PUCSORG
 10
0.0
 20
0.0
 30
0.0
  9
$PUCSXDIR
 10
1.0
 20
0.0
 30
0.0
  9
$PUCSYDIR
 10
0.0
 20
1.0
 30
0.0
  9
$PUCSORTHOREF
  2

  9
$PUCSORTHOVIEW
 70
     0
  9
$PUCSORGTOP
 10
0.0
 20
0.0
 30
0.0
  9
$PUCSORGBOTTOM
 10
0.0
 20
0.0
 30
0.0
  9
$PUCSORGLEFT
 10
0.0
 20
0.0
 30
0.0
  9
$PUCSORGRIGHT
 10
0.0
 20
0.0
 30
0.0
  9
$PUCSORGFRONT
 10
0.0
 20
0.0
 30
0.0
  9
$PUCSORGBACK
 10
0.0
 20
0.0
 30
0.0
  9
$USERI1
 70
     0
  9
$USERI2
 70
     0
  9
$USERI3
 70
     0
  9
$USERI4
 70
     0
  9
$USERI5
 70
     0
  9
$USERR1
 40
0.0
  9
$USERR2
 40
0.0
  9
$USERR3
 40
0.0
  9
$USERR4
 40
0.0
  9
$USERR5
 40
0.0
  9
$WORLDVIEW
 70
     1
  9
$SHADEDGE
 70
     3
  9
$SHADEDIF
 70
    70
  9
$TILEMODE
 70
     1
  9
$MAXACTVP
 70
    64
  9
$PINSBASE
 10
0.0
 20
0.0
 30
0.0
  9
$PLIMCHECK
 70
     0
  9
$PEXTMIN
 10
1.000000000000000E+20
 20
1.000000000000000E+20
 30
1.000000000000000E+20
  9
$PEXTMAX
 10
-1.000000000000000E+20
 20
-1.000000000000000E+20
 30
-1.000000000000000E+20
  9
$PLIMMIN
 10
0.0
 20
0.0
  9
$PLIMMAX
 10
12.0
 20
9.0
  9
$UNITMODE
 70
     0
  9
$VISRETAIN
 70
     1
  9
$PLINEGEN
 70
     0
  9
$PSLTSCALE
 70
     1
  9
$TREEDEPTH
 70
  3020
  9
$CMLSTYLE
  2
Standard
  9
$CMLJUST
 70
     0
  9
$CMLSCALE
 40
1.0
  9
$PROXYGRAPHICS
 70
     1
  9
$MEASUREMENT
 70
     0
  9
$CELWEIGHT
370
    -1
  9
$ENDCAPS
280
     0
  9
$JOINSTYLE
280
     0
  9
$LWDISPLAY
290
     1
  9
$INSUNITS
 70
     1
  9
$HYPERLINKBASE
  1

  9
$STYLESHEET
  1

  9
$XEDIT
290
     1
  9
$CEPSNTYPE
380
     0
  9
$PSTYLEMODE
290
     1
  9
$FINGERPRINTGUID
  2
{09B76986-2581-97B9-DFA7-67B5BA706A6B}
  9
$VERSIONGUID
  2
{FAEB1C32-E019-11D5-929B-00C0DF256EC4}
  9
$EXTNAMES
290
     1
  9
$PSVPSCALE
 40
0.0
  9
$OLESTARTUP
290
     0
  9
$SORTENTS
280
   127
  9
$INDEXCTL
280
     0
  9
$HIDETEXT
280
     1
  9
$XCLIPFRAME
280
     2
  9
$HALOGAP
280
     0
  9
$OBSCOLOR
 70
   257
  9
$OBSLTYPE
280
     0
  9
$INTERSECTIONDISPLAY
280
     0
  9
$INTERSECTIONCOLOR
 70
   257
  9
$DIMASSOC
280
     2
  9
$PROJECTNAME
  1

  9
$CAMERADISPLAY
290
     0
  9
$LENSLENGTH
 40
50.0
  9
$CAMERAHEIGHT
 40
0.0
  9
$STEPSPERSEC
 40
2.0
  9
$STEPSIZE
 40
6.0
  9
$3DDWFPREC
 40
2.0
  9
$PSOLWIDTH
 40
0.25
  9
$PSOLHEIGHT
 40
4.0
  9
$LOFTANG1
 40
1.570796326794897
  9
$LOFTANG2
 40
1.570796326794897
  9
$LOFTMAG1
 40
0.0
  9
$LOFTMAG2
 40
0.0
  9
$LOFTPARAM
 70
     7
  9
$LOFTNORMALS
280
     1
  9
$LATITUDE
 40
37.795
  9
$LONGITUDE
 40
-122.394
  9
$NORTHDIRECTION
 40
0.0
  9
$TIMEZONE
 70
 -8000
  9
$LIGHTGLYPHDISPLAY
280
     1
  9
$TILEMODELIGHTSYNCH
280
     1
  9
$CMATERIAL
347
3C
  9
$SOLIDHIST
280
     1
  9
$SHOWHIST
280
     1
  9
$DWFFRAME
280
     2
  9
$DGNFRAME
280
     2
  9
$REALWORLDSCALE
290
     1
  9
$INTERFERECOLOR
 62
   256
  9
$CSHADOW
280
     0
  9
$SHADOWPLANELOCATION
 40
0.0
  0
ENDSEC
  0
SECTION
  2
CLASSES
  0
CLASS
  1
ACDBDICTIONARYWDFLT
  2
AcDbDictionaryWithDefault
  3
ObjectDBX Classes
 90
        0
 91
        4
280
     0
281
     0
  0
CLASS
  1
VISUALSTYLE
  2
AcDbVisualStyle
  3
ObjectDBX Classes
 90
     4095
 91
        4
280
     0
281
     0
  0
CLASS
  1
MATERIAL
  2
AcDbMaterial
  3
ObjectDBX Classes
 90
     1153
 91
        4
280
     0
281
     0
  0
CLASS
  1
SUN
  2
AcDbSun
  3
SCENEOE
 90
     1024
 91
        4
280
     0
281
     0
  0
ENDSEC
  0
SECTION
  2
TABLES
  0
TABLE
  2
VPORT
  5
8
330
0
100
AcDbSymbolTable
 70
     1
  0
VPORT
  5
29
330
8
100
AcDbSymbolTableRecord
100
AcDbViewportTableRecord
  2
*Active
 70
     0
 10
0.0
 20
0.0
 11
1.0
 21
1.0
 12
0.0
 22
0.0
 13
0.0
 23
0.0
 14
0.5
 24
0.5
 15
0.5
 25
0.5
 16
0.0
 26
0.0
 36
1.0
 17
91.00082462281999
 27
-128.4993055234307
 37
0.0
 40
256.9986110468615
 41
0.7081814508812795
 42
50.0
 43
0.0
 44
0.0
 50
0.0
 51
0.0
 71
     0
 72
   100
 73
     1
 74
     3
 75
     0
 76
     0
 77
     0
 78
     0
281
     0
 65
     1
110
0.0
120
0.0
130
0.0
111
1.0
121
0.0
131
0.0
112
0.0
122
1.0
132
0.0
 79
     0
146
0.0
 60
     3
 61
     5
292
     1
282
     1
141
0.0
142
0.0
 63
   250
361
3F
  0
ENDTAB
  0
TABLE
  2
LTYPE
  5
5
330
0
100
AcDbSymbolTable
 70
     2
  0
LTYPE
  5
14
330
5
100
AcDbSymbolTableRecord
100
AcDbLinetypeTableRecord
  2
ByBlock
 70
     0
  3

 72
    65
 73
     0
 40
0.0
  0
LTYPE
  5
15
330
5
100
AcDbSymbolTableRecord
100
AcDbLinetypeTableRecord
  2
ByLayer
 70
     0
  3

 72
    65
 73
     0
 40
0.0
  0
LTYPE
  5
16
330
5
100
AcDbSymbolTableRecord
100
AcDbLinetypeTableRecord
  2
Continuous
 70
     0
  3
Solid line
 72
    65
 73
     0
 40
0.0
  0
LTYPE
  5
85
330
5
100
AcDbSymbolTableRecord
100
AcDbLinetypeTableRecord
  2
AI-Linetype-1
 70
     0
  3
Adobe Illustrator Linetype No. 1
 72
    65
 73
     2
 40
1.411111110758333
 49
0.7055555553791667
 74
     0
 49
-0.7055555553791667
 74
     0
  0
ENDTAB
  0
TABLE
  2
LAYER
  5
2
330
0
100
AcDbSymbolTable
 70
     2
  0
LAYER
  5
10
330
2
100
AcDbSymbolTableRecord
100
AcDbLayerTableRecord
  2
0
 70
     0
 62
     7
  6
Continuous
370
    -3
390
F
347
3E
  0
LAYER
  5
40
330
2
100
AcDbSymbolTableRecord
100
AcDbLayerTableRecord
  2
_U+30EC_U+30A4_U+30E4_U+30FC 1
 70
     0
 62
     7
  6
Continuous
370
    -3
390
F
347
3E
  0
ENDTAB
  0
TABLE
  2
STYLE
  5
3
330
0
100
AcDbSymbolTable
 70
     1
  0
STYLE
  5
11
330
3
100
AcDbSymbolTableRecord
100
AcDbTextStyleTableRecord
  2
Standard
 70
     0
 40
0.0
 41
1.0
 50
0.0
 71
     0
 42
0.2
  3
txt
  4

  0
ENDTAB
  0
TABLE
  2
VIEW
  5
6
330
0
100
AcDbSymbolTable
 70
     0
  0
ENDTAB
  0
TABLE
  2
UCS
  5
7
330
0
100
AcDbSymbolTable
 70
     0
  0
ENDTAB
  0
TABLE
  2
APPID
  5
9
330
0
100
AcDbSymbolTable
 70
     1
  0
APPID
  5
12
330
9
100
AcDbSymbolTableRecord
100
AcDbRegAppTableRecord
  2
ACAD
 70
     0
  0
ENDTAB
  0
TABLE
  2
DIMSTYLE
  5
A
330
0
100
AcDbSymbolTable
 70
     1
100
AcDbDimStyleTable
  0
DIMSTYLE
105
27
330
A
100
AcDbSymbolTableRecord
100
AcDbDimStyleTableRecord
  2
Standard
 70
     0
178
     0
340
11
  0
ENDTAB
  0
TABLE
  2
BLOCK_RECORD
  5
1
330
0
100
AcDbSymbolTable
 70
    12
  0
BLOCK_RECORD
  5
1F
330
1
100
AcDbSymbolTableRecord
100
AcDbBlockTableRecord
  2
*Model_Space
340
22
 70
     0
280
     1
281
     0
  0
BLOCK_RECORD
  5
1B
330
1
100
AcDbSymbolTableRecord
100
AcDbBlockTableRecord
  2
*Paper_Space
340
1E
 70
     0
280
     1
281
     0
  0
BLOCK_RECORD
  5
23
330
1
100
AcDbSymbolTableRecord
100
AcDbBlockTableRecord
  2
*Paper_Space0
340
26
 70
     0
280
     1
281
     0
  0
BLOCK_RECORD
  5
41
330
1
100
AcDbSymbolTableRecord
100
AcDbBlockTableRecord
  2
block 2
340
0
102
{BLKREFS
331
42
102
}
 70
     0
280
     1
281
     0
  0
BLOCK_RECORD
  5
49
330
1
100
AcDbSymbolTableRecord
100
AcDbBlockTableRecord
  2
block 3
340
0
102
{BLKREFS
331
4A
102
}
 70
     0
280
     1
281
     0
  0
BLOCK_RECORD
  5
15D
330
1
100
AcDbSymbolTableRecord
100
AcDbBlockTableRecord
  2
block 4
340
0
102
{BLKREFS
331
15E
102
}
 70
     0
280
     1
281
     0
  0
BLOCK_RECORD
  5
176
330
1
100
AcDbSymbolTableRecord
100
AcDbBlockTableRecord
  2
block 5
340
0
102
{BLKREFS
331
177
102
}
 70
     0
280
     1
281
     0
  0
BLOCK_RECORD
  5
186
330
1
100
AcDbSymbolTableRecord
100
AcDbBlockTableRecord
  2
block 6
340
0
102
{BLKREFS
331
187
102
}
 70
     0
280
     1
281
     0
  0
BLOCK_RECORD
  5
19A
330
1
100
AcDbSymbolTableRecord
100
AcDbBlockTableRecord
  2
block 7
340
0
102
{BLKREFS
331
19B
102
}
 70
     0
280
     1
281
     0
  0
BLOCK_RECORD
  5
1AE
330
1
100
AcDbSymbolTableRecord
100
AcDbBlockTableRecord
  2
block 8
340
0
102
{BLKREFS
331
1AF
102
}
 70
     0
280
     1
281
     0
  0
BLOCK_RECORD
  5
1CF
330
1
100
AcDbSymbolTableRecord
100
AcDbBlockTableRecord
  2
block 9
340
0
102
{BLKREFS
331
1D0
102
}
 70
     0
280
     1
281
     0
  0
BLOCK_RECORD
  5
1D5
330
1
100
AcDbSymbolTableRecord
100
AcDbBlockTableRecord
  2
block 10
340
0
102
{BLKREFS
331
1D6
102
}
 70
     0
280
     1
281
     0
  0
BLOCK_RECORD
  5
1D9
330
1
100
AcDbSymbolTableRecord
100
AcDbBlockTableRecord
  2
block 11
340
0
102
{BLKREFS
331
1DA
102
}
 70
     0
280
     1
281
     0
  0
BLOCK_RECORD
  5
1E9
330
1
100
AcDbSymbolTableRecord
100
AcDbBlockTableRecord
  2
block 12
340
0
102
{BLKREFS
331
1EA
102
}
 70
     0
280
     1
281
     0
  0
ENDTAB
  0
ENDSEC
  0
SECTION
  2
BLOCKS
  0
BLOCK
  5
20
330
1F
100
AcDbEntity
  8
0
100
AcDbBlockBegin
  2
*Model_Space
 70
     0
 10
0.0
 20
0.0
 30
0.0
  3
*Model_Space
  1

  0
ENDBLK
  5
21
330
1F
100
AcDbEntity
  8
0
100
AcDbBlockEnd
  0
BLOCK
  5
1C
330
1B
100
AcDbEntity
 67
     1
  8
0
100
AcDbBlockBegin
  2
*Paper_Space
 70
     0
 10
0.0
 20
0.0
 30
0.0
  3
*Paper_Space
  1

  0
ENDBLK
  5
1D
330
1B
100
AcDbEntity
 67
     1
  8
0
100
AcDbBlockEnd
  0
BLOCK
  5
24
330
23
100
AcDbEntity
  8
0
100
AcDbBlockBegin
  2
*Paper_Space0
 70
     0
 10
0.0
 20
0.0
 30
0.0
  3
*Paper_Space0
  1

  0
ENDBLK
  5
25
330
23
100
AcDbEntity
  8
0
100
AcDbBlockEnd
  0
BLOCK
  5
43
330
41
100
AcDbEntity
  8
0
100
AcDbBlockBegin
  2
block 2
 70
     0
 10
0.0
 20
0.0
 30
0.0
  3
block 2
  1

  0
POLYLINE
  5
45
330
41
100
AcDbEntity
  8
_U+30EC_U+30A4_U+30E4_U+30FC 1
 62
   179
420
  2234388
370
     9
100
AcDb2dPolyline
 66
     1
 10
0.0
 20
0.0
 30
0.0
  0
VERTEX
  5
46
330
45
100
AcDbEntity
  8
_U+30EC_U+30A4_U+30E4_U+30FC 1
 62
   179
420
  2234388
370
     9
100
AcDbVertex
100
AcDb2dVertex
 10
109.855138308473
 20
-136.9425477435423
 30
0.0
  0
VERTEX
  5
47
330
45
100
AcDbEntity
  8
_U+30EC_U+30A4_U+30E4_U+30FC 1
 62
   179
420
  2234388
370
     9
100
AcDbVertex
100
AcDb2dVertex
 10
111.5218749721195
 20
-137.8275966322097
 30
0.0
  0
SEQEND
  5
48
330
45
100
AcDbEntity
  8
_U+30EC_U+30A4_U+30E4_U+30FC 1
 62
   179
420
  2234388
370
     9
  0
INSERT
  5
4A
330
41
100
AcDbEntity
  8
_U+30EC_U+30A4_U+30E4_U+30FC 1
100
AcDbBlockReference
  2
block 3
 10
0.0
 20
0.0
 30
0.0
  0
ENDBLK
  5
44
330
41
100
AcDbEntity
  8
0
100
AcDbBlockEnd
  0
BLOCK
  5
4B
330
49
100
AcDbEntity
  8
0
100
AcDbBlockBegin
  2
block 3
 70
     0
 10
0.0
 20
0.0
 30
0.0
  3
block 3
  1

  0
POLYLINE
  5
4D
330
49
100
AcDbEntity
  8
_U+30EC_U+30A4_U+30E4_U+30FC 1
 62
   179
420
  2234388
370
     9
100
AcDb2dPolyline
 66
     1
 10
0.0
 20
0.0
 30
0.0
  0
VERTEX
  5
4E
330
4D
100
AcDbEntity
  8
_U+30EC_U+30A4_U+30E4_U+30FC 1
 62
   179
420
  2234388
370
     9
100
AcDbVertex
100
AcDb2dVertex
 10
104.2458333072719
 20
-131.76422857817
 30
0.0
  0
VERTEX
  5
4F
330
4D
100
AcDbEntity
  8
_U+30EC_U+30A4_U+30E4_U+30FC 1
 62
   179
420
  2234388
370
     9
100
AcDbVertex
100
AcDb2dVertex
 10
109.8358413645209
 20
-134.4345094108355
 30
0.0
  0
VERTEX
  5
50
330
4D
100
AcDbEntity
  8
_U+30EC_U+30A4_U+30E4_U+30FC 1
 62
   179
420
  2234388
370
     9
100
AcDbVertex
100
AcDb2dVertex
 10
109.7297258116726
 20
-137.0341994101859
 30
0.0
  0
VERTEX
  5
51
330
4D
100
AcDbEntity
  8
_U+30EC_U+30A4_U+30E4_U+30FC 1
 62
   179
420
  2234388
370
     9
100
AcDbVertex
100
AcDb2dVertex
 10
111.4336805276971
 20
-137.9288791321842
 30
0.0
  0
VERTEX
  5
52
330
4D
100
AcDbEntity
  8
_U+30EC_U+30A4_U+30E4_U+30FC 1
 62
   179
420
  2234388
370
     9
100
AcDbVertex
100
AcDb2dVertex
 10
120.5755960905269
 20
-134.1575435775717
 30
0.0
  0
SEQEND
  5
53
330
4D
100
AcDbEntity
  8
_U+30EC_U+30A4_U+30E4_U+30FC 1
 62
   179
420
  2234388
370
     9
  0
POLYLINE
  5
54
330
49
100
AcDbEntity
  8
_U+30EC_U+30A4_U+30E4_U+30FC 1
 62
   179
420
  2234388
370
     9
100
AcDb2dPolyline
 66
     1
 10
0.0
 20
0.0
 30
0.0
  0
VERTEX
  5
55
330
54
100
AcDbEntity
  8
_U+30EC_U+30A4_U+30E4_U+30FC 1
 62
   179
420
  2234388
370
     9
100
AcDbVertex
100
AcDb2dVertex
 10
113.5007437710214
 20
-127.8502649680375
 30
0.0
  0
VERTEX
  5
56
330
54
100
AcDbEntity
  8
_U+30EC_U+30A4_U+30E4_U+30FC 1
 62
   179
420
  2234388
370
     9
100
AcDbVertex
100
AcDb2dVertex
 10
104.2458333072719
 20
-131.76422857817
 30
0.0
  0
SEQEND
  5
57
330
54
100
AcDbEntity
  8
_U+30EC_U+30A4_U+30E4_U+30FC 1
 62
   179
420
  2234388
370
     9
  0
POLYLINE
  5
58
330
49
100
AcDbEntity
  8
_U+30EC_U+30A4_U+30E4_U+30FC 1
 62
   179
420
  2234388
370
     9
100
AcDb2dPolyline
 66
     1
 10
0.0
 20
0.0
 30
0.0
  0
VERTEX
  5
59
330
58
100
AcDbEntity
  8
_U+30EC_U+30A4_U+30E4_U+30FC 1
 62
   179
420
  2234388
370
     9
100
AcDbVertex
100
AcDb2dVertex
 10
109.8723538635894
 20
-136.94290052132
 30
0.0
  0
VERTEX
  5
5A
330
58
100
AcDbEntity
  8
_U+30EC_U+30A4_U+30E4_U+30FC 1
 62
   179
420
  2234388
370
     9
100
AcDbVertex
100
AcDb2dVertex
 10
120.3633649848303
 20
-132.5800271890772
 30
0.0
  0
SEQEND
  5
5B
330
58
100
AcDbEntity
  8
_U+30EC_U+30A4_U+30E4_U+30FC 1
 62
   179
420
  2234388
370
     9
  0
POLYLINE
  5
5C
330
49
100
AcDbEntity
  8
_U+30EC_U+30A4_U+30E4_U+30FC 1
 62
   179
420
  2234388
370
     9
100
AcDb2dPolyline
 66
     1
 10
0.0
 20
0.0
 30
0.0
  0
VERTEX
  5
5D
330
5C
100
AcDbEntity
  8
_U+30EC_U+30A4_U+30E4_U+30FC 1
 62
   179
420
  2234388
370
     9
100
AcDbVertex
100
AcDb2dVertex
 10
109.9853485829289
 20
-134.3917880219578
 30
0.0
  0
VERTEX
  5
5E
330
5C
100
AcDbEntity
  8
_U+30EC_U+30A4_U+30E4_U+30FC 1
 62
   179
420
  2234388
370
     9
100
AcDbVertex
100
AcDb2dVertex
 10
109.8468860836495
 20
-136.94290052132
 30
0.0
  0
SEQEND
  5
5F
330
5C
100
AcDbEntity
  8
_U+30EC_U+30A4_U+30E4_U+30FC 1
 62
   179
420
  2234388
370
     9
  0
POLYLINE
  5
60
330
49
100
AcDbEntity
  8
_U+30EC_U+30A4_U+30E4_U+30FC 1
 62
   179
420
  2234388
370
     9
100
AcDb2dPolyline
 66
     1
 10
0.0
 20
0.0
 30
0.0
  0
VERTEX
  5
61
330
60
100
AcDbEntity
  8
_U+30EC_U+30A4_U+30E4_U+30FC 1
 62
   179
420
  2234388
370
     9
100
AcDbVertex
100
AcDb2dVertex
 10
119.3181197337189
 20
-130.4712627451599
 30
0.0
  0
VERTEX
  5
62
330
60
100
AcDbEntity
  8
_U+30EC_U+30A4_U+30E4_U+30FC 1
 62
   179
420
  2234388
370
     9
100
AcDbVertex
100
AcDb2dVertex
 10
109.9915574716594
 20
-134.4097091330642
 30
0.0
  0
SEQEND
  5
63
330
60
100
AcDbEntity
  8
_U+30EC_U+30A4_U+30E4_U+30FC 1
 62
   179
420
  2234388
370
     9
  0
SPLINE
  5
64
330
49
100
AcDbEntity
  8
_U+30EC_U+30A4_U+30E4_U+30FC 1
 62
   179
420
  2234388
370
     9
100
AcDbSpline
210
0.0
220
0.0
230
1.0
 70
    11
 71
     3
 72
    17
 73
    13
 74
     0
 42
0.0000000001
 43
0.0000000001
 12
1.0
 22
0.0
 32
0.0
 13
1.0
 23
0.0
 33
0.0
 40
0.0
 40
0.0
 40
0.0
 40
0.0
 40
1.0
 40
1.0
 40
1.0
 40
2.0
 40
2.0
 40
2.0
 40
3.0
 40
3.0
 40
3.0
 40
4.0
 40
4.0
 40
4.0
 40
4.0
 10
116.6750381344829
 20
-130.1371116341321
 30
0.0
 10
116.6750381344829
 20
-130.344509689636
 30
0.0
 10
116.3842786974564
 20
-130.5133138562608
 30
0.0
 10
116.0259975954857
 20
-130.5133138562608
 30
0.0
 10
115.6663083044166
 20
-130.5133138562608
 30
0.0
 10
115.376251500951
 20
-130.344509689636
 30
0.0
 10
115.376251500951
 20
-130.1371116341321
 30
0.0
 10
115.376251500951
 20
-129.928337745296
 30
0.0
 10
115.6663083044166
 20
-129.7595335786712
 30
0.0
 10
116.0259975954857
 20
-129.7595335786712
 30
0.0
 10
116.3842786974564
 20
-129.7595335786712
 30
0.0
 10
116.6750381344829
 20
-129.928337745296
 30
0.0
 10
116.6750381344829
 20
-130.1371116341321
 30
0.0
  0
SPLINE
  5
65
330
49
100
AcDbEntity
  8
_U+30EC_U+30A4_U+30E4_U+30FC 1
 62
   179
420
  2234388
370
     9
100
AcDbSpline
210
0.0
220
0.0
230
1.0
 70
     8
 71
     3
 72
    11
 73
     7
 74
     0
 42
0.0000000001
 43
0.0000000001
 12
1.0
 22
0.0
 32
0.0
 13
1.0
 23
0.0
 33
0.0
 40
0.0
 40
0.0
 40
0.0
 40
0.0
 40
1.0
 40
1.0
 40
1.0
 40
2.0
 40
2.0
 40
2.0
 40
2.0
 10
115.488540664753
 20
-130.3431338563031
 30
0.0
 10
115.488540664753
 20
-130.3431338563031
 30
0.0
 10
115.4699492763384
 20
-129.8918252453048
 30
0.0
 10
116.2037623131728
 20
-129.9290080230734
 30
0.0
 10
116.2037623131728
 20
-129.9290080230734
 30
0.0
 10
116.637858304174
 20
-129.9855230230593
 30
0.0
 10
116.5620434151434
 20
-130.3245071896413
 30
0.0
  0
SPLINE
  5
66
330
49
100
AcDbEntity
  8
_U+30EC_U+30A4_U+30E4_U+30FC 1
 62
   179
420
  2234388
370
     9
100
AcDbSpline
210
0.0
220
0.0
230
1.0
 70
    11
 71
     3
 72
    17
 73
    13
 74
     0
 42
0.0000000001
 43
0.0000000001
 12
1.0
 22
0.0
 32
0.0
 13
1.0
 23
0.0
 33
0.0
 40
0.0
 40
0.0
 40
0.0
 40
0.0
 40
1.0
 40
1.0
 40
1.0
 40
2.0
 40
2.0
 40
2.0
 40
3.0
 40
3.0
 40
3.0
 40
4.0
 40
4.0
 40
4.0
 40
4.0
 10
111.7251427052097
 20
-130.1371116341321
 30
0.0
 10
111.7251427052097
 20
-130.344509689636
 30
0.0
 10
111.4343860832527
 20
-130.5133138562608
 30
0.0
 10
111.075396610675
 20
-130.5133138562608
 30
0.0
 10
110.7171155087044
 20
-130.5133138562608
 30
0.0
 10
110.4256505161403
 20
-130.344509689636
 30
0.0
 10
110.4256505161403
 20
-130.1371116341321
 30
0.0
 10
110.4256505161403
 20
-129.928337745296
 30
0.0
 10
110.7171155087044
 20
-129.7595335786712
 30
0.0
 10
111.075396610675
 20
-129.7595335786712
 30
0.0
 10
111.4343860832527
 20
-129.7595335786712
 30
0.0
 10
111.7251427052097
 20
-129.928337745296
 30
0.0
 10
111.7251427052097
 20
-130.1371116341321
 30
0.0
  0
SPLINE
  5
67
330
49
100
AcDbEntity
  8
_U+30EC_U+30A4_U+30E4_U+30FC 1
 62
   179
420
  2234388
370
     9
100
AcDbSpline
210
0.0
220
0.0
230
1.0
 70
     8
 71
     3
 72
    11
 73
     7
 74
     0
 42
0.0000000001
 43
0.0000000001
 12
1.0
 22
0.0
 32
0.0
 13
1.0
 23
0.0
 33
0.0
 40
0.0
 40
0.0
 40
0.0
 40
0.0
 40
1.0
 40
1.0
 40
1.0
 40
2.0
 40
2.0
 40
2.0
 40
2.0
 10
110.5386452354798
 20
-130.3431338563031
 30
0.0
 10
110.5386452354798
 20
-130.3431338563031
 30
0.0
 10
110.5200538470652
 20
-129.8918252453048
 30
0.0
 10
111.2538316061227
 20
-129.9290080230734
 30
0.0
 10
111.2538316061227
 20
-129.9290080230734
 30
0.0
 10
111.6879246506037
 20
-129.9855230230593
 30
0.0
 10
111.6121479858702
 20
-130.3245071896413
 30
0.0
  0
SPLINE
  5
68
330
49
100
AcDbEntity
  8
_U+30EC_U+30A4_U+30E4_U+30FC 1
 62
   179
420
  2234388
370
     9
100
AcDbSpline
210
0.0
220
0.0
230
1.0
 70
    11
 71
     3
 72
    17
 73
    13
 74
     0
 42
0.0000000001
 43
0.0000000001
 12
1.0
 22
0.0
 32
0.0
 13
1.0
 23
0.0
 33
0.0
 40
0.0
 40
0.0
 40
0.0
 40
0.0
 40
1.0
 40
1.0
 40
1.0
 40
2.0
 40
2.0
 40
2.0
 40
3.0
 40
3.0
 40
3.0
 40
4.0
 40
4.0
 40
4.0
 40
4.0
 10
114.348221804956
 20
-128.9767902455333
 30
0.0
 10
114.348221804956
 20
-129.1848938565927
 30
0.0
 10
114.0574623679295
 20
-129.352992467662
 30
0.0
 10
113.6984757104213
 20
-129.352992467662
 30
0.0
 10
113.3394890529132
 20
-129.352992467662
 30
0.0
 10
113.0487296158866
 20
-129.1848938565927
 30
0.0
 10
113.0487296158866
 20
-128.9767902455333
 30
0.0
 10
113.0487296158866
 20
-128.7680163566966
 30
0.0
 10
113.3394890529132
 20
-128.5999177456279
 30
0.0
 10
113.6984757104213
 20
-128.5999177456279
 30
0.0
 10
114.0574623679295
 20
-128.5999177456279
 30
0.0
 10
114.348221804956
 20
-128.7680163566966
 30
0.0
 10
114.348221804956
 20
-128.9767902455333
 30
0.0
  0
SPLINE
  5
69
330
49
100
AcDbEntity
  8
_U+30EC_U+30A4_U+30E4_U+30FC 1
 62
   179
420
  2234388
370
     9
100
AcDbSpline
210
0.0
220
0.0
230
1.0
 70
     8
 71
     3
 72
    11
 73
     7
 74
     0
 42
0.0000000001
 43
0.0000000001
 12
1.0
 22
0.0
 32
0.0
 13
1.0
 23
0.0
 33
0.0
 40
0.0
 40
0.0
 40
0.0
 40
0.0
 40
1.0
 40
1.0
 40
1.0
 40
2.0
 40
2.0
 40
2.0
 40
2.0
 10
113.1617243352261
 20
-129.1835180232598
 30
0.0
 10
113.1617243352261
 20
-129.1835180232598
 30
0.0
 10
113.1424626690509
 20
-128.7322094122615
 30
0.0
 10
113.8776162614066
 20
-128.7690394122523
 30
0.0
 10
113.8776162614066
 20
-128.7690394122523
 30
0.0
 10
114.3103334725893
 20
-128.8252016344605
 30
0.0
 10
114.2352270856166
 20
-129.1648913565974
 30
0.0
  0
SPLINE
  5
6A
330
49
100
AcDbEntity
  8
_U+30EC_U+30A4_U+30E4_U+30FC 1
 62
   179
420
  2234388
370
     9
100
AcDbSpline
210
0.0
220
0.0
230
1.0
 70
    11
 71
     3
 72
    17
 73
    13
 74
     0
 42
0.0000000001
 43
0.0000000001
 12
1.0
 22
0.0
 32
0.0
 13
1.0
 23
0.0
 33
0.0
 40
0.0
 40
0.0
 40
0.0
 40
0.0
 40
1.0
 40
1.0
 40
1.0
 40
2.0
 40
2.0
 40
2.0
 40
3.0
 40
3.0
 40
3.0
 40
4.0
 40
4.0
 40
4.0
 40
4.0
 10
114.348221804956
 20
-130.0113463563858
 30
0.0
 10
114.348221804956
 20
-130.2183916341119
 30
0.0
 10
114.0574623679295
 20
-130.3875485785145
 30
0.0
 10
113.6984757104213
 20
-130.3875485785145
 30
0.0
 10
113.3394890529132
 20
-130.3875485785145
 30
0.0
 10
113.0487296158866
 20
-130.2183916341119
 30
0.0
 10
113.0487296158866
 20
-130.0113463563858
 30
0.0
 10
113.0487296158866
 20
-129.8025724675491
 30
0.0
 10
113.3394890529132
 20
-129.6341210787026
 30
0.0
 10
113.6984757104213
 20
-129.6341210787026
 30
0.0
 10
114.0574623679295
 20
-129.6341210787026
 30
0.0
 10
114.348221804956
 20
-129.8025724675491
 30
0.0
 10
114.348221804956
 20
-130.0113463563858
 30
0.0
  0
SPLINE
  5
6B
330
49
100
AcDbEntity
  8
_U+30EC_U+30A4_U+30E4_U+30FC 1
 62
   179
420
  2234388
370
     9
100
AcDbSpline
210
0.0
220
0.0
230
1.0
 70
     8
 71
     3
 72
    11
 73
     7
 74
     0
 42
0.0000000001
 43
0.0000000001
 12
1.0
 22
0.0
 32
0.0
 13
1.0
 23
0.0
 33
0.0
 40
0.0
 40
0.0
 40
0.0
 40
0.0
 40
1.0
 40
1.0
 40
1.0
 40
2.0
 40
2.0
 40
2.0
 40
2.0
 10
113.1617243352261
 20
-130.2177213563346
 30
0.0
 10
113.1617243352261
 20
-130.2177213563346
 30
0.0
 10
113.1424626690509
 20
-129.7657071897807
 30
0.0
 10
113.8776162614066
 20
-129.8036308008824
 30
0.0
 10
113.8776162614066
 20
-129.8036308008824
 30
0.0
 10
114.3103334725893
 20
-129.8594402453128
 30
0.0
 10
114.2352270856166
 20
-130.1987771896725
 30
0.0
  0
SPLINE
  5
6C
330
49
100
AcDbEntity
  8
_U+30EC_U+30A4_U+30E4_U+30FC 1
 62
   179
420
  2234388
370
     9
100
AcDbSpline
210
0.0
220
0.0
230
1.0
 70
    11
 71
     3
 72
    17
 73
    13
 74
     0
 42
0.0000000001
 43
0.0000000001
 12
1.0
 22
0.0
 32
0.0
 13
1.0
 23
0.0
 33
0.0
 40
0.0
 40
0.0
 40
0.0
 40
0.0
 40
1.0
 40
1.0
 40
1.0
 40
2.0
 40
2.0
 40
2.0
 40
3.0
 40
3.0
 40
3.0
 40
4.0
 40
4.0
 40
4.0
 40
4.0
 10
114.348221804956
 20
-131.1785469116497
 30
0.0
 10
114.348221804956
 20
-131.3862977449313
 30
0.0
 10
114.0574623679295
 20
-131.5547491337778
 30
0.0
 10
113.6984757104213
 20
-131.5547491337778
 30
0.0
 10
113.3394890529132
 20
-131.5547491337778
 30
0.0
 10
113.0487296158866
 20
-131.3862977449313
 30
0.0
 10
113.0487296158866
 20
-131.1785469116497
 30
0.0
 10
113.0487296158866
 20
-130.9701258005907
 30
0.0
 10
113.3394890529132
 20
-130.8013216339665
 30
0.0
 10
113.6984757104213
 20
-130.8013216339665
 30
0.0
 10
114.0574623679295
 20
-130.8013216339665
 30
0.0
 10
114.348221804956
 20
-130.9701258005907
 30
0.0
 10
114.348221804956
 20
-131.1785469116497
 30
0.0
  0
SPLINE
  5
6D
330
49
100
AcDbEntity
  8
_U+30EC_U+30A4_U+30E4_U+30FC 1
 62
   179
420
  2234388
370
     9
100
AcDbSpline
210
0.0
220
0.0
230
1.0
 70
     8
 71
     3
 72
    11
 73
     7
 74
     0
 42
0.0000000001
 43
0.0000000001
 12
1.0
 22
0.0
 32
0.0
 13
1.0
 23
0.0
 33
0.0
 40
0.0
 40
0.0
 40
0.0
 40
0.0
 40
1.0
 40
1.0
 40
1.0
 40
2.0
 40
2.0
 40
2.0
 40
2.0
 10
113.1617243352261
 20
-131.3852746893762
 30
0.0
 10
113.1617243352261
 20
-131.3852746893762
 30
0.0
 10
113.1424626690509
 20
-130.9332605228223
 30
0.0
 10
113.8776162614066
 20
-130.9708313561462
 30
0.0
 10
113.8776162614066
 20
-130.9708313561462
 30
0.0
 10
114.3103334725893
 20
-131.027311078354
 30
0.0
 10
114.2352270856166
 20
-131.3663305227141
 30
0.0
  0
SPLINE
  5
6E
330
49
100
AcDbEntity
  8
_U+30EC_U+30A4_U+30E4_U+30FC 1
 62
   179
420
  2234388
370
     9
100
AcDbSpline
210
0.0
220
0.0
230
1.0
 70
    11
 71
     3
 72
    17
 73
    13
 74
     0
 42
0.0000000001
 43
0.0000000001
 12
1.0
 22
0.0
 32
0.0
 13
1.0
 23
0.0
 33
0.0
 40
0.0
 40
0.0
 40
0.0
 40
0.0
 40
1.0
 40
1.0
 40
1.0
 40
2.0
 40
2.0
 40
2.0
 40
3.0
 40
3.0
 40
3.0
 40
4.0
 40
4.0
 40
4.0
 40
4.0
 10
107.5730894778041
 20
-131.7032333004076
 30
0.0
 10
107.5730894778041
 20
-131.9106313559115
 30
0.0
 10
107.2830355963151
 20
-132.0794355225357
 30
0.0
 10
106.9240489388069
 20
-132.0794355225357
 30
0.0
 10
106.5650622812988
 20
-132.0794355225357
 30
0.0
 10
106.2735999734315
 20
-131.9106313559115
 30
0.0
 10
106.2735999734315
 20
-131.7032333004076
 30
0.0
 10
106.2735999734315
 20
-131.4944594115709
 30
0.0
 10
106.5650622812988
 20
-131.3256552449461
 30
0.0
 10
106.9240489388069
 20
-131.3256552449461
 30
0.0
 10
107.2830355963151
 20
-131.3256552449461
 30
0.0
 10
107.5730894778041
 20
-131.4944594115709
 30
0.0
 10
107.5730894778041
 20
-131.7032333004076
 30
0.0
  0
SPLINE
  5
6F
330
49
100
AcDbEntity
  8
_U+30EC_U+30A4_U+30E4_U+30FC 1
 62
   179
420
  2234388
370
     9
100
AcDbSpline
210
0.0
220
0.0
230
1.0
 70
     8
 71
     3
 72
    11
 73
     7
 74
     0
 42
0.0000000001
 43
0.0000000001
 12
1.0
 22
0.0
 32
0.0
 13
1.0
 23
0.0
 33
0.0
 40
0.0
 40
0.0
 40
0.0
 40
0.0
 40
1.0
 40
1.0
 40
1.0
 40
2.0
 40
2.0
 40
2.0
 40
2.0
 10
106.386627285851
 20
-131.909255522578
 30
0.0
 10
106.386627285851
 20
-131.909255522578
 30
0.0
 10
106.3687061751971
 20
-131.4579469115797
 30
0.0
 10
107.1025192120315
 20
-131.4951649671264
 30
0.0
 10
107.1025192120315
 20
-131.4951649671264
 30
0.0
 10
107.5359067009749
 20
-131.5516446893342
 30
0.0
 10
107.4600947584646
 20
-131.8906641336943
 30
0.0
  0
SPLINE
  5
70
330
49
100
AcDbEntity
  8
_U+30EC_U+30A4_U+30E4_U+30FC 1
 62
   179
420
  2234388
370
     9
100
AcDbSpline
210
0.0
220
0.0
230
1.0
 70
    11
 71
     3
 72
    17
 73
    13
 74
     0
 42
0.0000000001
 43
0.0000000001
 12
1.0
 22
0.0
 32
0.0
 13
1.0
 23
0.0
 33
0.0
 40
0.0
 40
0.0
 40
0.0
 40
0.0
 40
1.0
 40
1.0
 40
1.0
 40
2.0
 40
2.0
 40
2.0
 40
3.0
 40
3.0
 40
3.0
 40
4.0
 40
4.0
 40
4.0
 40
4.0
 10
112.0648324187657
 20
-132.0274360781043
 30
0.0
 10
112.0648324187657
 20
-132.2362099669411
 30
0.0
 10
111.7747432594998
 20
-132.4039910780102
 30
0.0
 10
111.4157566019917
 20
-132.4039910780102
 30
0.0
 10
111.0567699444835
 20
-132.4039910780102
 30
0.0
 10
110.766010507457
 20
-132.2362099669411
 30
0.0
 10
110.766010507457
 20
-132.0274360781043
 30
0.0
 10
110.766010507457
 20
-131.8196852448227
 30
0.0
 10
111.0567699444835
 20
-131.6508810781985
 30
0.0
 10
111.4157566019917
 20
-131.6508810781985
 30
0.0
 10
111.7747432594998
 20
-131.6508810781985
 30
0.0
 10
112.0648324187657
 20
-131.8196852448227
 30
0.0
 10
112.0648324187657
 20
-132.0274360781043
 30
0.0
  0
SPLINE
  5
71
330
49
100
AcDbEntity
  8
_U+30EC_U+30A4_U+30E4_U+30FC 1
 62
   179
420
  2234388
370
     9
100
AcDbSpline
210
0.0
220
0.0
230
1.0
 70
     8
 71
     3
 72
    11
 73
     7
 74
     0
 42
0.0000000001
 43
0.0000000001
 12
1.0
 22
0.0
 32
0.0
 13
1.0
 23
0.0
 33
0.0
 40
0.0
 40
0.0
 40
0.0
 40
0.0
 40
1.0
 40
1.0
 40
1.0
 40
2.0
 40
2.0
 40
2.0
 40
2.0
 10
110.8783349490358
 20
-132.2344813558304
 30
0.0
 10
110.8783349490358
 20
-132.2344813558304
 30
0.0
 10
110.8604166389516
 20
-131.7831727448321
 30
0.0
 10
111.5942268752163
 20
-131.8203908003782
 30
0.0
 10
111.5942268752163
 20
-131.8203908003782
 30
0.0
 10
112.0282846419204
 20
-131.8765177448089
 30
0.0
 10
111.9518376994262
 20
-132.2162074669457
 30
0.0
  0
SPLINE
  5
72
330
49
100
AcDbEntity
  8
_U+30EC_U+30A4_U+30E4_U+30FC 1
 62
   179
420
  2234388
370
     9
100
AcDbSpline
210
0.0
220
0.0
230
1.0
 70
    11
 71
     3
 72
    17
 73
    13
 74
     0
 42
0.0000000001
 43
0.0000000001
 12
1.0
 22
0.0
 32
0.0
 13
1.0
 23
0.0
 33
0.0
 40
0.0
 40
0.0
 40
0.0
 40
0.0
 40
1.0
 40
1.0
 40
1.0
 40
2.0
 40
2.0
 40
2.0
 40
3.0
 40
3.0
 40
3.0
 40
4.0
 40
4.0
 40
4.0
 40
4.0
 10
109.9081960848972
 20
-130.7275910784291
 30
0.0
 10
109.9081960848972
 20
-130.934989133933
 30
0.0
 10
109.6167310923331
 20
-131.1037933005572
 30
0.0
 10
109.2584527504634
 20
-131.1037933005572
 30
0.0
 10
108.8994633328543
 20
-131.1037933005572
 30
0.0
 10
108.6087038958278
 20
-130.934989133933
 30
0.0
 10
108.6087038958278
 20
-130.7275910784291
 30
0.0
 10
108.6087038958278
 20
-130.5188171895924
 30
0.0
 10
108.8994633328543
 20
-130.3503658007459
 30
0.0
 10
109.2584527504634
 20
-130.3503658007459
 30
0.0
 10
109.6167310923331
 20
-130.3503658007459
 30
0.0
 10
109.9081960848972
 20
-130.5188171895924
 30
0.0
 10
109.9081960848972
 20
-130.7275910784291
 30
0.0
  0
SPLINE
  5
73
330
49
100
AcDbEntity
  8
_U+30EC_U+30A4_U+30E4_U+30FC 1
 62
   179
420
  2234388
370
     9
100
AcDbSpline
210
0.0
220
0.0
230
1.0
 70
     8
 71
     3
 72
    11
 73
     7
 74
     0
 42
0.0000000001
 43
0.0000000001
 12
1.0
 22
0.0
 32
0.0
 13
1.0
 23
0.0
 33
0.0
 40
0.0
 40
0.0
 40
0.0
 40
0.0
 40
1.0
 40
1.0
 40
1.0
 40
2.0
 40
2.0
 40
2.0
 40
2.0
 10
108.7209930596297
 20
-130.9336133006001
 30
0.0
 10
108.7209930596297
 20
-130.9336133006001
 30
0.0
 10
108.7031072267527
 20
-130.4823046896018
 30
0.0
 10
109.4368849858102
 20
-130.5195227451479
 30
0.0
 10
109.4368849858102
 20
-130.5195227451479
 30
0.0
 10
109.8703077525305
 20
-130.5760024673557
 30
0.0
 10
109.7944958100202
 20
-130.9150219117158
 30
0.0
  0
SPLINE
  5
74
330
49
100
AcDbEntity
  8
_U+30EC_U+30A4_U+30E4_U+30FC 1
 62
   179
420
  2234388
370
     9
100
AcDbSpline
210
0.0
220
0.0
230
1.0
 70
    11
 71
     3
 72
    17
 73
    13
 74
     0
 42
0.0000000001
 43
0.0000000001
 12
1.0
 22
0.0
 32
0.0
 13
1.0
 23
0.0
 33
0.0
 40
0.0
 40
0.0
 40
0.0
 40
0.0
 40
1.0
 40
1.0
 40
1.0
 40
2.0
 40
2.0
 40
2.0
 40
3.0
 40
3.0
 40
3.0
 40
4.0
 40
4.0
 40
4.0
 40
4.0
 10
109.9081960848972
 20
-131.7614769115042
 30
0.0
 10
109.9081960848972
 20
-131.9698980225633
 30
0.0
 10
109.6167310923331
 20
-132.1380319114101
 30
0.0
 10
109.2584527504634
 20
-132.1380319114101
 30
0.0
 10
108.8994633328543
 20
-132.1380319114101
 30
0.0
 10
108.6087038958278
 20
-131.9698980225633
 30
0.0
 10
108.6087038958278
 20
-131.7614769115042
 30
0.0
 10
108.6087038958278
 20
-131.5530558004453
 30
0.0
 10
108.8994633328543
 20
-131.3842163560429
 30
0.0
 10
109.2584527504634
 20
-131.3842163560429
 30
0.0
 10
109.6167310923331
 20
-131.3842163560429
 30
0.0
 10
109.9081960848972
 20
-131.5530558004453
 30
0.0
 10
109.9081960848972
 20
-131.7614769115042
 30
0.0
  0
SPLINE
  5
75
330
49
100
AcDbEntity
  8
_U+30EC_U+30A4_U+30E4_U+30FC 1
 62
   179
420
  2234388
370
     9
100
AcDbSpline
210
0.0
220
0.0
230
1.0
 70
     8
 71
     3
 72
    11
 73
     7
 74
     0
 42
0.0000000001
 43
0.0000000001
 12
1.0
 22
0.0
 32
0.0
 13
1.0
 23
0.0
 33
0.0
 40
0.0
 40
0.0
 40
0.0
 40
0.0
 40
1.0
 40
1.0
 40
1.0
 40
2.0
 40
2.0
 40
2.0
 40
2.0
 10
108.7209930596297
 20
-131.9681694114526
 30
0.0
 10
108.7209930596297
 20
-131.9681694114526
 30
0.0
 10
108.7031072267527
 20
-131.5165080226765
 30
0.0
 10
109.4368849858102
 20
-131.5537260782226
 30
0.0
 10
109.4368849858102
 20
-131.5537260782226
 30
0.0
 10
109.8703077525305
 20
-131.6102410782086
 30
0.0
 10
109.7944958100202
 20
-131.9499308003461
 30
0.0
  0
SPLINE
  5
76
330
49
100
AcDbEntity
  8
_U+30EC_U+30A4_U+30E4_U+30FC 1
 62
   179
420
  2234388
370
     9
100
AcDbSpline
210
0.0
220
0.0
230
1.0
 70
    11
 71
     3
 72
    17
 73
    13
 74
     0
 42
0.0000000001
 43
0.0000000001
 12
1.0
 22
0.0
 32
0.0
 13
1.0
 23
0.0
 33
0.0
 40
0.0
 40
0.0
 40
0.0
 40
0.0
 40
1.0
 40
1.0
 40
1.0
 40
2.0
 40
2.0
 40
2.0
 40
3.0
 40
3.0
 40
3.0
 40
4.0
 40
4.0
 40
4.0
 40
4.0
 10
111.9532135327245
 20
-131.0796985783413
 30
0.0
 10
111.9532135327245
 20
-131.2877669116226
 30
0.0
 10
111.6617485401604
 20
-131.4559008004694
 30
0.0
 10
111.3034674381898
 20
-131.4559008004694
 30
0.0
 10
110.9451510584423
 20
-131.4559008004694
 30
0.0
 10
110.6537213436551
 20
-131.2877669116226
 30
0.0
 10
110.6537213436551
 20
-131.0796985783413
 30
0.0
 10
110.6537213436551
 20
-130.8712421895042
 30
0.0
 10
110.9451510584423
 20
-130.7027908006577
 30
0.0
 10
111.3034674381898
 20
-130.7027908006577
 30
0.0
 10
111.6617485401604
 20
-130.7027908006577
 30
0.0
 10
111.9532135327245
 20
-130.8712421895042
 30
0.0
 10
111.9532135327245
 20
-131.0796985783413
 30
0.0
  0
SPLINE
  5
77
330
49
100
AcDbEntity
  8
_U+30EC_U+30A4_U+30E4_U+30FC 1
 62
   179
420
  2234388
370
     9
100
AcDbSpline
210
0.0
220
0.0
230
1.0
 70
     8
 71
     3
 72
    11
 73
     7
 74
     0
 42
0.0000000001
 43
0.0000000001
 12
1.0
 22
0.0
 32
0.0
 13
1.0
 23
0.0
 33
0.0
 40
0.0
 40
0.0
 40
0.0
 40
0.0
 40
1.0
 40
1.0
 40
1.0
 40
2.0
 40
2.0
 40
2.0
 40
2.0
 10
110.7667160629945
 20
-131.2863910782897
 30
0.0
 10
110.7667160629945
 20
-131.2863910782897
 30
0.0
 10
110.7480893968031
 20
-130.8343769117358
 30
0.0
 10
111.4819024336375
 20
-130.8719477450597
 30
0.0
 10
111.4819024336375
 20
-130.8719477450597
 30
0.0
 10
111.9166657558791
 20
-130.9281099672679
 30
0.0
 10
111.8401835356081
 20
-131.2677996894054
 30
0.0
  0
SPLINE
  5
78
330
49
100
AcDbEntity
  8
_U+30EC_U+30A4_U+30E4_U+30FC 1
 62
   179
420
  2234388
370
     9
100
AcDbSpline
210
0.0
220
0.0
230
1.0
 70
    11
 71
     3
 72
    17
 73
    13
 74
     0
 42
0.0000000001
 43
0.0000000001
 12
1.0
 22
0.0
 32
0.0
 13
1.0
 23
0.0
 33
0.0
 40
0.0
 40
0.0
 40
0.0
 40
0.0
 40
1.0
 40
1.0
 40
1.0
 40
2.0
 40
2.0
 40
2.0
 40
3.0
 40
3.0
 40
3.0
 40
4.0
 40
4.0
 40
4.0
 40
4.0
 10
109.9081960848972
 20
-132.9286774667681
 30
0.0
 10
109.9081960848972
 20
-133.1367458000493
 30
0.0
 10
109.6167310923331
 20
-133.3045269111184
 30
0.0
 10
109.2584527504634
 20
-133.3045269111184
 30
0.0
 10
108.8994633328543
 20
-133.3045269111184
 30
0.0
 10
108.6087038958278
 20
-133.1367458000493
 30
0.0
 10
108.6087038958278
 20
-132.9286774667681
 30
0.0
 10
108.6087038958278
 20
-132.720221077931
 30
0.0
 10
108.8994633328543
 20
-132.5521224668623
 30
0.0
 10
109.2584527504634
 20
-132.5521224668623
 30
0.0
 10
109.6167310923331
 20
-132.5521224668623
 30
0.0
 10
109.9081960848972
 20
-132.720221077931
 30
0.0
 10
109.9081960848972
 20
-132.9286774667681
 30
0.0
  0
SPLINE
  5
79
330
49
100
AcDbEntity
  8
_U+30EC_U+30A4_U+30E4_U+30FC 1
 62
   179
420
  2234388
370
     9
100
AcDbSpline
210
0.0
220
0.0
230
1.0
 70
     8
 71
     3
 72
    11
 73
     7
 74
     0
 42
0.0000000001
 43
0.0000000001
 12
1.0
 22
0.0
 32
0.0
 13
1.0
 23
0.0
 33
0.0
 40
0.0
 40
0.0
 40
0.0
 40
0.0
 40
1.0
 40
1.0
 40
1.0
 40
2.0
 40
2.0
 40
2.0
 40
2.0
 10
108.7209930596297
 20
-133.1350171889387
 30
0.0
 10
108.7209930596297
 20
-133.1350171889387
 30
0.0
 10
108.7031072267527
 20
-132.6837085779404
 30
0.0
 10
109.4368849858102
 20
-132.7209266334865
 30
0.0
 10
109.4368849858102
 20
-132.7209266334865
 30
0.0
 10
109.8703077525305
 20
-132.7774416334724
 30
0.0
 10
109.7944958100202
 20
-133.1164258000544
 30
0.0
  0
POLYLINE
  5
7A
330
49
100
AcDbEntity
  8
_U+30EC_U+30A4_U+30E4_U+30FC 1
 62
   179
420
  2234388
370
     9
100
AcDb2dPolyline
 66
     1
 10
0.0
 20
0.0
 30
0.0
  0
VERTEX
  5
7B
330
7A
100
AcDbEntity
  8
_U+30EC_U+30A4_U+30E4_U+30FC 1
 62
   179
420
  2234388
370
     9
100
AcDbVertex
100
AcDb2dVertex
 10
104.5490078882882
 20
-131.7752352448337
 30
0.0
  0
VERTEX
  5
7C
330
7A
100
AcDbEntity
  8
_U+30EC_U+30A4_U+30E4_U+30FC 1
 62
   179
420
  2234388
370
     9
100
AcDbVertex
100
AcDb2dVertex
 10
109.9536691392926
 20
-134.3614844108543
 30
0.0
  0
SEQEND
  5
7D
330
7A
100
AcDbEntity
  8
_U+30EC_U+30A4_U+30E4_U+30FC 1
 62
   179
420
  2234388
370
     9
  0
POLYLINE
  5
7E
330
49
100
AcDbEntity
  8
_U+30EC_U+30A4_U+30E4_U+30FC 1
 62
   179
420
  2234388
370
     9
100
AcDb2dPolyline
 66
     1
 10
0.0
 20
0.0
 30
0.0
  0
VERTEX
  5
7F
330
7E
100
AcDbEntity
  8
_U+30EC_U+30A4_U+30E4_U+30FC 1
 62
   179
420
  2234388
370
     9
100
AcDbVertex
100
AcDb2dVertex
 10
113.5220868260325
 20
-127.999066634667
 30
0.0
  0
VERTEX
  5
80
330
7E
100
AcDbEntity
  8
_U+30EC_U+30A4_U+30E4_U+30FC 1
 62
   179
420
  2234388
370
     9
100
AcDbVertex
100
AcDb2dVertex
 10
104.5248805294241
 20
-131.76422857817
 30
0.0
  0
SEQEND
  5
81
330
7E
100
AcDbEntity
  8
_U+30EC_U+30A4_U+30E4_U+30FC 1
 62
   179
420
  2234388
370
     9
  0
ENDBLK
  5
4C
330
49
100
AcDbEntity
  8
0
100
AcDbBlockEnd
  0
BLOCK
  5
15F
330
15D
100
AcDbEntity
  8
0
100
AcDbBlockBegin
  2
block 4
 70
     0
 10
0.0
 20
0.0
 30
0.0
  3
block 4
  1

  0
SPLINE
  5
161
330
15D
100
AcDbEntity
  8
_U+30EC_U+30A4_U+30E4_U+30FC 1
370
     0
100
AcDbSpline
210
0.0
220
0.0
230
1.0
 70
    11
 71
     3
 72
    29
 73
    25
 74
     0
 42
0.0000000001
 43
0.0000000001
 12
1.0
 22
0.0
 32
0.0
 13
1.0
 23
0.0
 33
0.0
 40
0.0
 40
0.0
 40
0.0
 40
0.0
 40
1.0
 40
1.0
 40
1.0
 40
2.0
 40
2.0
 40
2.0
 40
3.0
 40
3.0
 40
3.0
 40
4.0
 40
4.0
 40
4.0
 40
5.0
 40
5.0
 40
5.0
 40
6.0
 40
6.0
 40
6.0
 40
7.0
 40
7.0
 40
7.0
 40
8.0
 40
8.0
 40
8.0
 40
8.0
 10
63.19338648593776
 20
-126.3340630109512
 30
0.0
 10
63.40284829144096
 20
-126.4422390091881
 30
0.0
 10
63.42196857138409
 20
-126.6155273120961
 30
0.0
 10
63.42196857138409
 20
-126.7319715394976
 30
0.0
 10
63.42196857138409
 20
-126.8928574986587
 30
0.0
 10
63.37545978233322
 20
-127.0344509231025
 30
0.0
 10
63.19338648593776
 20
-127.1295355584954
 30
0.0
 10
62.99891084579541
 20
-127.2332329326014
 30
0.0
 10
62.76188827641023
 20
-127.2525254673188
 30
0.0
 10
62.5989352599579
 20
-127.2525254673188
 30
0.0
 10
62.45510252344873
 20
-127.2525254673188
 30
0.0
 10
62.20343829825123
 20
-127.2352999898926
 30
0.0
 10
62.00448403397804
 20
-127.1295355584954
 30
0.0
 10
61.80139565512257
 20
-127.0217040698071
 30
0.0
 10
61.77814126059713
 20
-126.8608181106459
 30
0.0
 10
61.77814126059713
 20
-126.7319715394976
 30
0.0
 10
61.77814126059713
 20
-126.5731526376275
 30
0.0
 10
61.82258299235686
 20
-126.4294921558926
 30
0.0
 10
62.00448403397804
 20
-126.3340630109512
 30
0.0
 10
62.19706487160352
 20
-126.234844260976
 30
0.0
 10
62.42547470227558
 20
-126.2114176116763
 30
0.0
 10
62.5989352599579
 20
-126.2114176116763
 30
0.0
 10
62.77032876034909
 20
-126.2114176116763
 30
0.0
 10
63.00097790308656
 20
-126.2327772036849
 30
0.0
 10
63.19338648593776
 20
-126.3340630109512
 30
0.0
  0
SPLINE
  5
162
330
15D
100
AcDbEntity
  8
_U+30EC_U+30A4_U+30E4_U+30FC 1
370
     0
100
AcDbSpline
210
0.0
220
0.0
230
1.0
 70
    11
 71
     3
 72
    17
 73
    13
 74
     0
 42
0.0000000001
 43
0.0000000001
 12
1.0
 22
0.0
 32
0.0
 13
1.0
 23
0.0
 33
0.0
 40
0.0
 40
0.0
 40
0.0
 40
0.0
 40
1.0
 40
1.0
 40
1.0
 40
2.0
 40
2.0
 40
2.0
 40
3.0
 40
3.0
 40
3.0
 40
4.0
 40
4.0
 40
4.0
 40
4.0
 10
61.9707220982226
 20
-126.7319715394976
 30
0.0
 10
61.9707220982226
 20
-126.9817409621782
 30
0.0
 10
62.2540812018844
 20
-127.0282497512291
 30
0.0
 10
62.5989352599579
 20
-127.0282497512291
 30
0.0
 10
62.91846786621483
 20
-127.0282497512291
 30
0.0
 10
63.22732067646748
 20
-126.9920762486339
 30
0.0
 10
63.22732067646748
 20
-126.7319715394976
 30
0.0
 10
63.22732067646748
 20
-126.4842691741081
 30
0.0
 10
62.94585637532256
 20
-126.4356933277661
 30
0.0
 10
62.5989352599579
 20
-126.4356933277661
 30
0.0
 10
62.27957490847525
 20
-126.4356933277661
 30
0.0
 10
61.9707220982226
 20
-126.4739338876524
 30
0.0
 10
61.9707220982226
 20
-126.7319715394976
 30
0.0
  0
HATCH
  5
163
330
15D
100
AcDbEntity
  8
_U+30EC_U+30A4_U+30E4_U+30FC 1
 62
   179
420
  2234388
100
AcDbHatch
 10
0.0
 20
0.0
 30
0.0
210
0.0
220
0.0
230
1.0
  2
SOLID
 70
     1
 71
     0
 91
        2
 92
        1
 93
        1
 72
     4
 94
        3
 73
     0
 74
     1
 95
       29
 96
       25
 40
0.0
 40
0.0
 40
0.0
 40
0.0
 40
1.0
 40
1.0
 40
1.0
 40
2.0
 40
2.0
 40
2.0
 40
3.0
 40
3.0
 40
3.0
 40
4.0
 40
4.0
 40
4.0
 40
5.0
 40
5.0
 40
5.0
 40
6.0
 40
6.0
 40
6.0
 40
7.0
 40
7.0
 40
7.0
 40
8.0
 40
8.0
 40
8.0
 40
8.0
 10
63.19338648593776
 20
-126.3340630109512
 10
63.40284829144096
 20
-126.4422390091881
 10
63.42196857138409
 20
-126.6155273120961
 10
63.42196857138409
 20
-126.7319715394976
 10
63.42196857138409
 20
-126.8928574986587
 10
63.37545978233322
 20
-127.0344509231025
 10
63.19338648593776
 20
-127.1295355584954
 10
62.99891084579541
 20
-127.2332329326014
 10
62.76188827641023
 20
-127.2525254673188
 10
62.5989352599579
 20
-127.2525254673188
 10
62.45510252344873
 20
-127.2525254673188
 10
62.20343829825123
 20
-127.2352999898926
 10
62.00448403397804
 20
-127.1295355584954
 10
61.80139565512257
 20
-127.0217040698071
 10
61.77814126059713
 20
-126.8608181106459
 10
61.77814126059713
 20
-126.7319715394976
 10
61.77814126059713
 20
-126.5731526376275
 10
61.82258299235686
 20
-126.4294921558926
 10
62.00448403397804
 20
-126.3340630109512
 10
62.19706487160352
 20
-126.234844260976
 10
62.42547470227558
 20
-126.2114176116763
 10
62.5989352599579
 20
-126.2114176116763
 10
62.77032876034909
 20
-126.2114176116763
 10
63.00097790308656
 20
-126.2327772036849
 10
63.19338648593776
 20
-126.3340630109512
 97
        0
 97
        0
 92
        1
 93
        1
 72
     4
 94
        3
 73
     0
 74
     1
 95
       17
 96
       13
 40
0.0
 40
0.0
 40
0.0
 40
0.0
 40
1.0
 40
1.0
 40
1.0
 40
2.0
 40
2.0
 40
2.0
 40
3.0
 40
3.0
 40
3.0
 40
4.0
 40
4.0
 40
4.0
 40
4.0
 10
61.9707220982226
 20
-126.7319715394976
 10
61.9707220982226
 20
-126.9817409621782
 10
62.2540812018844
 20
-127.0282497512291
 10
62.5989352599579
 20
-127.0282497512291
 10
62.91846786621483
 20
-127.0282497512291
 10
63.22732067646748
 20
-126.9920762486339
 10
63.22732067646748
 20
-126.7319715394976
 10
63.22732067646748
 20
-126.4842691741081
 10
62.94585637532256
 20
-126.4356933277661
 10
62.5989352599579
 20
-126.4356933277661
 10
62.27957490847525
 20
-126.4356933277661
 10
61.9707220982226
 20
-126.4739338876524
 10
61.9707220982226
 20
-126.7319715394976
 97
        0
 97
        0
 75
     2
 76
     1
 98
        0
  0
POLYLINE
  5
164
330
15D
100
AcDbEntity
  8
_U+30EC_U+30A4_U+30E4_U+30FC 1
370
     0
100
AcDb2dPolyline
 66
     1
 10
0.0
 20
0.0
 30
0.0
  0
VERTEX
  5
165
330
164
100
AcDbEntity
  8
_U+30EC_U+30A4_U+30E4_U+30FC 1
370
     0
100
AcDbVertex
100
AcDb2dVertex
 10
63.37115341297666
 20
-125.9950656152026
 30
0.0
  0
VERTEX
  5
166
330
164
100
AcDbEntity
  8
_U+30EC_U+30A4_U+30E4_U+30FC 1
370
     0
100
AcDbVertex
100
AcDb2dVertex
 10
63.11948918777916
 20
-125.9950656152026
 30
0.0
  0
VERTEX
  5
167
330
164
100
AcDbEntity
  8
_U+30EC_U+30A4_U+30E4_U+30FC 1
370
     0
100
AcDbVertex
100
AcDb2dVertex
 10
63.11948918777916
 20
-125.7432291352309
 30
0.0
  0
VERTEX
  5
168
330
164
100
AcDbEntity
  8
_U+30EC_U+30A4_U+30E4_U+30FC 1
370
     0
100
AcDbVertex
100
AcDb2dVertex
 10
63.37115341297666
 20
-125.7432291352309
 30
0.0
  0
VERTEX
  5
169
330
164
100
AcDbEntity
  8
_U+30EC_U+30A4_U+30E4_U+30FC 1
370
     0
100
AcDbVertex
100
AcDb2dVertex
 10
63.37115341297666
 20
-125.9950656152026
 30
0.0
  0
SEQEND
  5
16A
330
164
100
AcDbEntity
  8
_U+30EC_U+30A4_U+30E4_U+30FC 1
370
     0
  0
HATCH
  5
16B
330
15D
100
AcDbEntity
  8
_U+30EC_U+30A4_U+30E4_U+30FC 1
 62
   179
420
  2234388
100
AcDbHatch
 10
0.0
 20
0.0
 30
0.0
210
0.0
220
0.0
230
1.0
  2
SOLID
 70
     1
 71
     0
 91
        1
 92
        1
 93
        4
 72
     1
 10
63.37115341297666
 20
-125.9950656152026
 11
63.11948918777916
 21
-125.9950656152026
 72
     1
 10
63.11948918777916
 20
-125.9950656152026
 11
63.11948918777916
 21
-125.7432291352309
 72
     1
 10
63.11948918777916
 20
-125.7432291352309
 11
63.37115341297666
 21
-125.7432291352309
 72
     1
 10
63.37115341297666
 20
-125.7432291352309
 11
63.37115341297666
 21
-125.9950656152026
 97
        0
 75
     2
 76
     1
 98
        0
  0
SPLINE
  5
16C
330
15D
100
AcDbEntity
  8
_U+30EC_U+30A4_U+30E4_U+30FC 1
370
     0
100
AcDbSpline
210
0.0
220
0.0
230
1.0
 70
    11
 71
     3
 72
    53
 73
    49
 74
     0
 42
0.0000000001
 43
0.0000000001
 12
1.0
 22
0.0
 32
0.0
 13
1.0
 23
0.0
 33
0.0
 40
0.0
 40
0.0
 40
0.0
 40
0.0
 40
1.0
 40
1.0
 40
1.0
 40
2.0
 40
2.0
 40
2.0
 40
3.0
 40
3.0
 40
3.0
 40
4.0
 40
4.0
 40
4.0
 40
5.0
 40
5.0
 40
5.0
 40
6.0
 40
6.0
 40
6.0
 40
7.0
 40
7.0
 40
7.0
 40
8.0
 40
8.0
 40
8.0
 40
9.0
 40
9.0
 40
9.0
 40
10.0
 40
10.0
 40
10.0
 40
11.0
 40
11.0
 40
11.0
 40
12.0
 40
12.0
 40
12.0
 40
13.0
 40
13.0
 40
13.0
 40
14.0
 40
14.0
 40
14.0
 40
15.0
 40
15.0
 40
15.0
 40
16.0
 40
16.0
 40
16.0
 40
16.0
 10
63.42196857138409
 20
-125.0259602552019
 30
0.0
 10
63.42196857138409
 20
-125.104163922717
 30
0.0
 10
63.40508760350637
 20
-125.2057942395319
 30
0.0
 10
63.34152559180351
 20
-125.3074245563468
 30
0.0
 10
63.23145479104978
 20
-125.4807128592548
 30
0.0
 10
63.10036890783602
 20
-125.5020724512634
 30
0.0
 10
62.9925374191477
 20
-125.5210204764323
 30
0.0
 10
62.9925374191477
 20
-125.5210204764323
 30
0.0
 10
62.9925374191477
 20
-125.2988118176336
 30
0.0
 10
62.9925374191477
 20
-125.2988118176336
 30
0.0
 10
63.19131942864662
 20
-125.2440347994182
 30
0.0
 10
63.22094724981977
 20
-125.1169107760124
 30
0.0
 10
63.22094724981977
 20
-125.0238931979107
 30
0.0
 10
63.22094724981977
 20
-124.8843668307581
 30
0.0
 10
63.12155624507031
 20
-124.73209361031
 30
0.0
 10
62.88884004504168
 20
-124.73209361031
 30
0.0
 10
62.63286945048762
 20
-124.73209361031
 30
0.0
 10
62.56310626691131
 20
-124.9119275946401
 30
0.0
 10
62.56310626691131
 20
-125.0325059366238
 30
0.0
 10
62.56310626691131
 20
-125.0642008150881
 30
0.0
 10
62.56310626691131
 20
-125.2057942395319
 30
0.0
 10
62.69212509283392
 20
-125.2946777030513
 30
0.0
 10
62.69212509283392
 20
-125.2946777030513
 30
0.0
 10
62.67300481289078
 20
-125.4703775727991
 30
0.0
 10
62.67300481289078
 20
-125.4703775727991
 30
0.0
 10
62.67300481289078
 20
-125.4703775727991
 30
0.0
 10
61.82688936171342
 20
-125.3497992308153
 30
0.0
 10
61.82688936171342
 20
-125.3497992308153
 30
0.0
 10
61.82688936171342
 20
-125.3497992308153
 30
0.0
 10
61.82688936171342
 20
-124.5712076511489
 30
0.0
 10
61.82688936171342
 20
-124.5712076511489
 30
0.0
 10
61.82688936171342
 20
-124.5712076511489
 30
0.0
 10
62.02153725663003
 20
-124.5712076511489
 30
0.0
 10
62.02153725663003
 20
-124.5712076511489
 30
0.0
 10
62.02153725663003
 20
-124.5712076511489
 30
0.0
 10
62.02153725663003
 20
-125.186846214363
 30
0.0
 10
62.02153725663003
 20
-125.186846214363
 30
0.0
 10
62.02153725663003
 20
-125.186846214363
 30
0.0
 10
62.44459498221872
 20
-125.2523030285828
 30
0.0
 10
62.44459498221872
 20
-125.2523030285828
 30
0.0
 10
62.410660791689
 20
-125.1909803289453
 30
0.0
 10
62.37052542928584
 20
-125.1086425468478
 30
0.0
 10
62.37052542928584
 20
-124.9901312621552
 30
0.0
 10
62.37052542928584
 20
-124.7362277248923
 30
0.0
 10
62.5567328402636
 20
-124.4992051555072
 30
0.0
 10
62.86971976509854
 20
-124.4992051555072
 30
0.0
 10
63.18718531406432
 20
-124.4992051555072
 30
0.0
 10
63.42196857138409
 20
-124.7234808715969
 30
0.0
 10
63.42196857138409
 20
-125.0259602552019
 30
0.0
  0
HATCH
  5
16D
330
15D
100
AcDbEntity
  8
_U+30EC_U+30A4_U+30E4_U+30FC 1
 62
   179
420
  2234388
100
AcDbHatch
 10
0.0
 20
0.0
 30
0.0
210
0.0
220
0.0
230
1.0
  2
SOLID
 70
     1
 71
     0
 91
        1
 92
        1
 93
        1
 72
     4
 94
        3
 73
     0
 74
     1
 95
       53
 96
       49
 40
0.0
 40
0.0
 40
0.0
 40
0.0
 40
1.0
 40
1.0
 40
1.0
 40
2.0
 40
2.0
 40
2.0
 40
3.0
 40
3.0
 40
3.0
 40
4.0
 40
4.0
 40
4.0
 40
5.0
 40
5.0
 40
5.0
 40
6.0
 40
6.0
 40
6.0
 40
7.0
 40
7.0
 40
7.0
 40
8.0
 40
8.0
 40
8.0
 40
9.0
 40
9.0
 40
9.0
 40
10.0
 40
10.0
 40
10.0
 40
11.0
 40
11.0
 40
11.0
 40
12.0
 40
12.0
 40
12.0
 40
13.0
 40
13.0
 40
13.0
 40
14.0
 40
14.0
 40
14.0
 40
15.0
 40
15.0
 40
15.0
 40
16.0
 40
16.0
 40
16.0
 40
16.0
 10
63.42196857138409
 20
-125.0259602552019
 10
63.42196857138409
 20
-125.104163922717
 10
63.40508760350637
 20
-125.2057942395319
 10
63.34152559180351
 20
-125.3074245563468
 10
63.23145479104978
 20
-125.4807128592548
 10
63.10036890783602
 20
-125.5020724512634
 10
62.9925374191477
 20
-125.5210204764323
 10
62.9925374191477
 20
-125.5210204764323
 10
62.9925374191477
 20
-125.2988118176336
 10
62.9925374191477
 20
-125.2988118176336
 10
63.19131942864662
 20
-125.2440347994182
 10
63.22094724981977
 20
-125.1169107760124
 10
63.22094724981977
 20
-125.0238931979107
 10
63.22094724981977
 20
-124.8843668307581
 10
63.12155624507031
 20
-124.73209361031
 10
62.88884004504168
 20
-124.73209361031
 10
62.63286945048762
 20
-124.73209361031
 10
62.56310626691131
 20
-124.9119275946401
 10
62.56310626691131
 20
-125.0325059366238
 10
62.56310626691131
 20
-125.0642008150881
 10
62.56310626691131
 20
-125.2057942395319
 10
62.69212509283392
 20
-125.2946777030513
 10
62.69212509283392
 20
-125.2946777030513
 10
62.67300481289078
 20
-125.4703775727991
 10
62.67300481289078
 20
-125.4703775727991
 10
62.67300481289078
 20
-125.4703775727991
 10
61.82688936171342
 20
-125.3497992308153
 10
61.82688936171342
 20
-125.3497992308153
 10
61.82688936171342
 20
-125.3497992308153
 10
61.82688936171342
 20
-124.5712076511489
 10
61.82688936171342
 20
-124.5712076511489
 10
61.82688936171342
 20
-124.5712076511489
 10
62.02153725663003
 20
-124.5712076511489
 10
62.02153725663003
 20
-124.5712076511489
 10
62.02153725663003
 20
-124.5712076511489
 10
62.02153725663003
 20
-125.186846214363
 10
62.02153725663003
 20
-125.186846214363
 10
62.02153725663003
 20
-125.186846214363
 10
62.44459498221872
 20
-125.2523030285828
 10
62.44459498221872
 20
-125.2523030285828
 10
62.410660791689
 20
-125.1909803289453
 10
62.37052542928584
 20
-125.1086425468478
 10
62.37052542928584
 20
-124.9901312621552
 10
62.37052542928584
 20
-124.7362277248923
 10
62.5567328402636
 20
-124.4992051555072
 10
62.86971976509854
 20
-124.4992051555072
 10
63.18718531406432
 20
-124.4992051555072
 10
63.42196857138409
 20
-124.7234808715969
 10
63.42196857138409
 20
-125.0259602552019
 97
        0
 97
        0
 75
     2
 76
     1
 98
        0
  0
ENDBLK
  5
160
330
15D
100
AcDbEntity
  8
0
100
AcDbBlockEnd
  0
BLOCK
  5
178
330
176
100
AcDbEntity
  8
0
100
AcDbBlockBegin
  2
block 5
 70
     0
 10
0.0
 20
0.0
 30
0.0
  3
block 5
  1

  0
SPLINE
  5
17A
330
176
100
AcDbEntity
  8
_U+30EC_U+30A4_U+30E4_U+30FC 1
370
     0
100
AcDbSpline
210
0.0
220
0.0
230
1.0
 70
    11
 71
     3
 72
    44
 73
    40
 74
     0
 42
0.0000000001
 43
0.0000000001
 12
1.0
 22
0.0
 32
0.0
 13
1.0
 23
0.0
 33
0.0
 40
0.0
 40
0.0
 40
0.0
 40
0.0
 40
1.0
 40
1.0
 40
1.0
 40
2.0
 40
2.0
 40
2.0
 40
3.0
 40
3.0
 40
3.0
 40
4.0
 40
4.0
 40
4.0
 40
5.0
 40
5.0
 40
5.0
 40
6.0
 40
6.0
 40
6.0
 40
7.0
 40
7.0
 40
7.0
 40
8.0
 40
8.0
 40
8.0
 40
9.0
 40
9.0
 40
9.0
 40
10.0
 40
10.0
 40
10.0
 40
11.0
 40
11.0
 40
11.0
 40
12.0
 40
12.0
 40
12.0
 40
13.0
 40
13.0
 40
13.0
 40
13.0
 10
76.97394068171138
 20
-119.519664141127
 30
0.0
 10
76.75603839226933
 20
-119.6783107882228
 30
0.0
 10
76.66284855939332
 20
-119.7523803411557
 30
0.0
 10
76.61427271305129
 20
-119.8962130776648
 30
0.0
 10
76.61427271305129
 20
-119.8962130776648
 30
0.0
 10
77.39269203794349
 20
-119.8962130776648
 30
0.0
 10
77.39269203794349
 20
-119.8962130776648
 30
0.0
 10
77.39269203794349
 20
-119.8962130776648
 30
0.0
 10
77.39269203794349
 20
-120.1013685138115
 30
0.0
 10
77.39269203794349
 20
-120.1013685138115
 30
0.0
 10
77.39269203794349
 20
-120.1013685138115
 30
0.0
 10
76.36467554514495
 20
-120.1013685138115
 30
0.0
 10
76.36467554514495
 20
-120.1013685138115
 30
0.0
 10
76.39637042360924
 20
-119.7437676024425
 30
0.0
 10
76.46199949260325
 20
-119.6655639349274
 30
0.0
 10
76.84698891307993
 20
-119.3672186659047
 30
0.0
 10
77.10295950763398
 20
-119.1684366564058
 30
0.0
 10
77.16841632185373
 20
-119.1007405301207
 30
0.0
 10
77.16841632185373
 20
-118.9632812202592
 30
0.0
 10
77.16841632185373
 20
-118.8447699355666
 30
0.0
 10
77.09658608098627
 20
-118.7135117975786
 30
0.0
 10
76.89987112877851
 20
-118.7135117975786
 30
0.0
 10
76.63959416486789
 20
-118.7135117975786
 30
0.0
 10
76.63115368092902
 20
-118.9441609403161
 30
0.0
 10
76.62684731157246
 20
-119.0606051677175
 30
0.0
 10
76.62684731157246
 20
-119.0606051677175
 30
0.0
 10
76.40274385025695
 20
-119.0606051677175
 30
0.0
 10
76.40274385025695
 20
-119.0606051677175
 30
0.0
 10
76.41118433419582
 20
-118.933653399086
 30
0.0
 10
76.42169187542584
 20
-118.8215155410412
 30
0.0
 10
76.50213485500642
 20
-118.7030042563486
 30
0.0
 10
76.61203340098588
 20
-118.5422905519617
 30
0.0
 10
76.79824081196364
 20
-118.508356361432
 30
0.0
 10
76.91468503936508
 20
-118.508356361432
 30
0.0
 10
77.19184297115343
 20
-118.508356361432
 30
0.0
 10
77.3990654645912
 20
-118.6924967151186
 30
0.0
 10
77.3990654645912
 20
-118.9653482775503
 30
0.0
 10
77.3990654645912
 20
-119.1937581082224
 30
0.0
 10
77.28279349196403
 20
-119.2933213677461
 30
0.0
 10
76.97394068171138
 20
-119.519664141127
 30
0.0
  0
HATCH
  5
17B
330
176
100
AcDbEntity
  8
_U+30EC_U+30A4_U+30E4_U+30FC 1
 62
   179
420
  2234388
100
AcDbHatch
 10
0.0
 20
0.0
 30
0.0
210
0.0
220
0.0
230
1.0
  2
SOLID
 70
     1
 71
     0
 91
        1
 92
        1
 93
        1
 72
     4
 94
        3
 73
     0
 74
     1
 95
       44
 96
       40
 40
0.0
 40
0.0
 40
0.0
 40
0.0
 40
1.0
 40
1.0
 40
1.0
 40
2.0
 40
2.0
 40
2.0
 40
3.0
 40
3.0
 40
3.0
 40
4.0
 40
4.0
 40
4.0
 40
5.0
 40
5.0
 40
5.0
 40
6.0
 40
6.0
 40
6.0
 40
7.0
 40
7.0
 40
7.0
 40
8.0
 40
8.0
 40
8.0
 40
9.0
 40
9.0
 40
9.0
 40
10.0
 40
10.0
 40
10.0
 40
11.0
 40
11.0
 40
11.0
 40
12.0
 40
12.0
 40
12.0
 40
13.0
 40
13.0
 40
13.0
 40
13.0
 10
76.97394068171138
 20
-119.519664141127
 10
76.75603839226933
 20
-119.6783107882228
 10
76.66284855939332
 20
-119.7523803411557
 10
76.61427271305129
 20
-119.8962130776648
 10
76.61427271305129
 20
-119.8962130776648
 10
77.39269203794349
 20
-119.8962130776648
 10
77.39269203794349
 20
-119.8962130776648
 10
77.39269203794349
 20
-119.8962130776648
 10
77.39269203794349
 20
-120.1013685138115
 10
77.39269203794349
 20
-120.1013685138115
 10
77.39269203794349
 20
-120.1013685138115
 10
76.36467554514495
 20
-120.1013685138115
 10
76.36467554514495
 20
-120.1013685138115
 10
76.39637042360924
 20
-119.7437676024425
 10
76.46199949260325
 20
-119.6655639349274
 10
76.84698891307993
 20
-119.3672186659047
 10
77.10295950763398
 20
-119.1684366564058
 10
77.16841632185373
 20
-119.1007405301207
 10
77.16841632185373
 20
-118.9632812202592
 10
77.16841632185373
 20
-118.8447699355666
 10
77.09658608098627
 20
-118.7135117975786
 10
76.89987112877851
 20
-118.7135117975786
 10
76.63959416486789
 20
-118.7135117975786
 10
76.63115368092902
 20
-118.9441609403161
 10
76.62684731157246
 20
-119.0606051677175
 10
76.62684731157246
 20
-119.0606051677175
 10
76.40274385025695
 20
-119.0606051677175
 10
76.40274385025695
 20
-119.0606051677175
 10
76.41118433419582
 20
-118.933653399086
 10
76.42169187542584
 20
-118.8215155410412
 10
76.50213485500642
 20
-118.7030042563486
 10
76.61203340098588
 20
-118.5422905519617
 10
76.79824081196364
 20
-118.508356361432
 10
76.91468503936508
 20
-118.508356361432
 10
77.19184297115343
 20
-118.508356361432
 10
77.3990654645912
 20
-118.6924967151186
 10
77.3990654645912
 20
-118.9653482775503
 10
77.3990654645912
 20
-119.1937581082224
 10
77.28279349196403
 20
-119.2933213677461
 10
76.97394068171138
 20
-119.519664141127
 97
        0
 97
        0
 75
     2
 76
     1
 98
        0
  0
SPLINE
  5
17C
330
176
100
AcDbEntity
  8
_U+30EC_U+30A4_U+30E4_U+30FC 1
370
     0
100
AcDbSpline
210
0.0
220
0.0
230
1.0
 70
    11
 71
     3
 72
    26
 73
    22
 74
     0
 42
0.0000000001
 43
0.0000000001
 12
1.0
 22
0.0
 32
0.0
 13
1.0
 23
0.0
 33
0.0
 40
0.0
 40
0.0
 40
0.0
 40
0.0
 40
1.0
 40
1.0
 40
1.0
 40
2.0
 40
2.0
 40
2.0
 40
3.0
 40
3.0
 40
3.0
 40
4.0
 40
4.0
 40
4.0
 40
5.0
 40
5.0
 40
5.0
 40
6.0
 40
6.0
 40
6.0
 40
7.0
 40
7.0
 40
7.0
 40
7.0
 10
78.00901962025469
 20
-120.1013685138115
 30
0.0
 10
78.00901962025469
 20
-120.1013685138115
 30
0.0
 10
78.00901962025469
 20
-118.9970431560146
 30
0.0
 10
78.00901962025469
 20
-118.9970431560146
 30
0.0
 10
78.00901962025469
 20
-118.9970431560146
 30
0.0
 10
77.67897947276776
 20
-118.9970431560146
 30
0.0
 10
77.67897947276776
 20
-118.9970431560146
 30
0.0
 10
77.67897947276776
 20
-118.9970431560146
 30
0.0
 10
77.67897947276776
 20
-118.8489040501489
 30
0.0
 10
77.67897947276776
 20
-118.8489040501489
 30
0.0
 10
78.01108667754585
 20
-118.8342623943366
 30
0.0
 10
78.05759546659671
 20
-118.6713093778843
 30
0.0
 10
78.08722328776986
 20
-118.5571044625482
 30
0.0
 10
78.08722328776986
 20
-118.5571044625482
 30
0.0
 10
78.23329533634445
 20
-118.5571044625482
 30
0.0
 10
78.23329533634445
 20
-118.5571044625482
 30
0.0
 10
78.23329533634445
 20
-118.5571044625482
 30
0.0
 10
78.23329533634445
 20
-120.1013685138115
 30
0.0
 10
78.23329533634445
 20
-120.1013685138115
 30
0.0
 10
78.23329533634445
 20
-120.1013685138115
 30
0.0
 10
78.00901962025469
 20
-120.1013685138115
 30
0.0
 10
78.00901962025469
 20
-120.1013685138115
 30
0.0
  0
HATCH
  5
17D
330
176
100
AcDbEntity
  8
_U+30EC_U+30A4_U+30E4_U+30FC 1
 62
   179
420
  2234388
100
AcDbHatch
 10
0.0
 20
0.0
 30
0.0
210
0.0
220
0.0
230
1.0
  2
SOLID
 70
     1
 71
     0
 91
        1
 92
        1
 93
        1
 72
     4
 94
        3
 73
     0
 74
     1
 95
       26
 96
       22
 40
0.0
 40
0.0
 40
0.0
 40
0.0
 40
1.0
 40
1.0
 40
1.0
 40
2.0
 40
2.0
 40
2.0
 40
3.0
 40
3.0
 40
3.0
 40
4.0
 40
4.0
 40
4.0
 40
5.0
 40
5.0
 40
5.0
 40
6.0
 40
6.0
 40
6.0
 40
7.0
 40
7.0
 40
7.0
 40
7.0
 10
78.00901962025469
 20
-120.1013685138115
 10
78.00901962025469
 20
-120.1013685138115
 10
78.00901962025469
 20
-118.9970431560146
 10
78.00901962025469
 20
-118.9970431560146
 10
78.00901962025469
 20
-118.9970431560146
 10
77.67897947276776
 20
-118.9970431560146
 10
77.67897947276776
 20
-118.9970431560146
 10
77.67897947276776
 20
-118.9970431560146
 10
77.67897947276776
 20
-118.8489040501489
 10
77.67897947276776
 20
-118.8489040501489
 10
78.01108667754585
 20
-118.8342623943366
 10
78.05759546659671
 20
-118.6713093778843
 10
78.08722328776986
 20
-118.5571044625482
 10
78.08722328776986
 20
-118.5571044625482
 10
78.23329533634445
 20
-118.5571044625482
 10
78.23329533634445
 20
-118.5571044625482
 10
78.23329533634445
 20
-118.5571044625482
 10
78.23329533634445
 20
-120.1013685138115
 10
78.23329533634445
 20
-120.1013685138115
 10
78.23329533634445
 20
-120.1013685138115
 10
78.00901962025469
 20
-120.1013685138115
 10
78.00901962025469
 20
-120.1013685138115
 97
        0
 97
        0
 75
     2
 76
     1
 98
        0
  0
ENDBLK
  5
179
330
176
100
AcDbEntity
  8
0
100
AcDbBlockEnd
  0
BLOCK
  5
188
330
186
100
AcDbEntity
  8
0
100
AcDbBlockBegin
  2
block 6
 70
     0
 10
0.0
 20
0.0
 30
0.0
  3
block 6
  1

  0
SPLINE
  5
18A
330
186
100
AcDbEntity
  8
_U+30EC_U+30A4_U+30E4_U+30FC 1
370
     0
100
AcDbSpline
210
0.0
220
0.0
230
1.0
 70
    11
 71
     3
 72
    29
 73
    25
 74
     0
 42
0.0000000001
 43
0.0000000001
 12
1.0
 22
0.0
 32
0.0
 13
1.0
 23
0.0
 33
0.0
 40
0.0
 40
0.0
 40
0.0
 40
0.0
 40
1.0
 40
1.0
 40
1.0
 40
2.0
 40
2.0
 40
2.0
 40
3.0
 40
3.0
 40
3.0
 40
4.0
 40
4.0
 40
4.0
 40
5.0
 40
5.0
 40
5.0
 40
6.0
 40
6.0
 40
6.0
 40
7.0
 40
7.0
 40
7.0
 40
8.0
 40
8.0
 40
8.0
 40
8.0
 10
64.15267332380559
 20
-130.075092198384
 30
0.0
 10
64.15267332380559
 20
-130.3417425889423
 30
0.0
 10
64.01504175916985
 20
-130.5953016166567
 30
0.0
 10
63.66605358651405
 20
-130.5953016166567
 30
0.0
 10
63.41008299195998
 20
-130.5953016166567
 30
0.0
 10
63.31482610179282
 20
-130.453708192213
 30
0.0
 10
63.25350340215537
 20
-130.3479437608158
 30
0.0
 10
63.19424775980908
 20
-130.4726562173819
 30
0.0
 10
63.08004284447305
 20
-130.5487928276059
 30
0.0
 10
62.91932914008614
 20
-130.5487928276059
 30
0.0
 10
62.64423826558895
 20
-130.5487928276059
 30
0.0
 10
62.50884601301863
 20
-130.3500108181069
 30
0.0
 10
62.50884601301863
 20
-130.075092198384
 30
0.0
 10
62.50884601301863
 20
-129.7915608399479
 30
0.0
 10
62.65267874952781
 20
-129.6010470596136
 30
0.0
 10
62.91932914008614
 20
-129.6010470596136
 30
0.0
 10
63.08004284447305
 20
-129.6010470596136
 30
0.0
 10
63.19424775980908
 20
-129.6795952366773
 30
0.0
 10
63.25350340215537
 20
-129.8043076932434
 30
0.0
 10
63.30431856056281
 20
-129.7154242297239
 30
0.0
 10
63.39957545072997
 20
-129.5566053278539
 30
0.0
 10
63.66191947193175
 20
-129.5566053278539
 30
0.0
 10
64.03622909640414
 20
-129.5566053278539
 30
0.0
 10
64.15267332380559
 20
-129.8360025717077
 30
0.0
 10
64.15267332380559
 20
-130.075092198384
 30
0.0
  0
SPLINE
  5
18B
330
186
100
AcDbEntity
  8
_U+30EC_U+30A4_U+30E4_U+30FC 1
370
     0
100
AcDbSpline
210
0.0
220
0.0
230
1.0
 70
    11
 71
     3
 72
    17
 73
    13
 74
     0
 42
0.0000000001
 43
0.0000000001
 12
1.0
 22
0.0
 32
0.0
 13
1.0
 23
0.0
 33
0.0
 40
0.0
 40
0.0
 40
0.0
 40
0.0
 40
1.0
 40
1.0
 40
1.0
 40
2.0
 40
2.0
 40
2.0
 40
3.0
 40
3.0
 40
3.0
 40
4.0
 40
4.0
 40
4.0
 40
4.0
 10
62.70142685064409
 20
-130.075092198384
 30
0.0
 10
62.70142685064409
 20
-130.2401122721275
 30
0.0
 10
62.79651148603698
 20
-130.3245171115161
 30
0.0
 10
62.9319037386073
 20
-130.3245171115161
 30
0.0
 10
63.05472139265646
 20
-130.3245171115161
 30
0.0
 10
63.17323267734906
 20
-130.2528591254229
 30
0.0
 10
63.17323267734906
 20
-130.075092198384
 30
0.0
 10
63.17323267734906
 20
-129.8973252713451
 30
0.0
 10
63.05472139265646
 20
-129.8253227757034
 30
0.0
 10
62.9319037386073
 20
-129.8253227757034
 30
0.0
 10
62.79651148603698
 20
-129.8253227757034
 30
0.0
 10
62.70142685064409
 20
-129.9121391819317
 30
0.0
 10
62.70142685064409
 20
-130.075092198384
 30
0.0
  0
SPLINE
  5
18C
330
186
100
AcDbEntity
  8
_U+30EC_U+30A4_U+30E4_U+30FC 1
370
     0
100
AcDbSpline
210
0.0
220
0.0
230
1.0
 70
    11
 71
     3
 72
    17
 73
    13
 74
     0
 42
0.0000000001
 43
0.0000000001
 12
1.0
 22
0.0
 32
0.0
 13
1.0
 23
0.0
 33
0.0
 40
0.0
 40
0.0
 40
0.0
 40
0.0
 40
1.0
 40
1.0
 40
1.0
 40
2.0
 40
2.0
 40
2.0
 40
3.0
 40
3.0
 40
3.0
 40
4.0
 40
4.0
 40
4.0
 40
4.0
 10
63.36150714561796
 20
-130.075092198384
 30
0.0
 10
63.36150714561796
 20
-130.2187526801189
 30
0.0
 10
63.44815129707199
 20
-130.3713704101155
 30
0.0
 10
63.65123967592747
 20
-130.3713704101155
 30
0.0
 10
63.8563951120741
 20
-130.3713704101155
 30
0.0
 10
63.95802542888897
 20
-130.2442463867098
 30
0.0
 10
63.95802542888897
 20
-130.075092198384
 30
0.0
 10
63.95802542888897
 20
-129.8890570421805
 30
0.0
 10
63.83538002961407
 20
-129.7788139866525
 30
0.0
 10
63.65761310257518
 20
-129.7788139866525
 30
0.0
 10
63.43540444377657
 20
-129.7788139866525
 30
0.0
 10
63.36150714561796
 20
-129.9417670031048
 30
0.0
 10
63.36150714561796
 20
-130.075092198384
 30
0.0
  0
HATCH
  5
18D
330
186
100
AcDbEntity
  8
_U+30EC_U+30A4_U+30E4_U+30FC 1
 62
   179
420
  2234388
100
AcDbHatch
 10
0.0
 20
0.0
 30
0.0
210
0.0
220
0.0
230
1.0
  2
SOLID
 70
     1
 71
     0
 91
        3
 92
        1
 93
        1
 72
     4
 94
        3
 73
     0
 74
     1
 95
       29
 96
       25
 40
0.0
 40
0.0
 40
0.0
 40
0.0
 40
1.0
 40
1.0
 40
1.0
 40
2.0
 40
2.0
 40
2.0
 40
3.0
 40
3.0
 40
3.0
 40
4.0
 40
4.0
 40
4.0
 40
5.0
 40
5.0
 40
5.0
 40
6.0
 40
6.0
 40
6.0
 40
7.0
 40
7.0
 40
7.0
 40
8.0
 40
8.0
 40
8.0
 40
8.0
 10
64.15267332380559
 20
-130.075092198384
 10
64.15267332380559
 20
-130.3417425889423
 10
64.01504175916985
 20
-130.5953016166567
 10
63.66605358651405
 20
-130.5953016166567
 10
63.41008299195998
 20
-130.5953016166567
 10
63.31482610179282
 20
-130.453708192213
 10
63.25350340215537
 20
-130.3479437608158
 10
63.19424775980908
 20
-130.4726562173819
 10
63.08004284447305
 20
-130.5487928276059
 10
62.91932914008614
 20
-130.5487928276059
 10
62.64423826558895
 20
-130.5487928276059
 10
62.50884601301863
 20
-130.3500108181069
 10
62.50884601301863
 20
-130.075092198384
 10
62.50884601301863
 20
-129.7915608399479
 10
62.65267874952781
 20
-129.6010470596136
 10
62.91932914008614
 20
-129.6010470596136
 10
63.08004284447305
 20
-129.6010470596136
 10
63.19424775980908
 20
-129.6795952366773
 10
63.25350340215537
 20
-129.8043076932434
 10
63.30431856056281
 20
-129.7154242297239
 10
63.39957545072997
 20
-129.5566053278539
 10
63.66191947193175
 20
-129.5566053278539
 10
64.03622909640414
 20
-129.5566053278539
 10
64.15267332380559
 20
-129.8360025717077
 10
64.15267332380559
 20
-130.075092198384
 97
        0
 97
        0
 92
        1
 93
        1
 72
     4
 94
        3
 73
     0
 74
     1
 95
       17
 96
       13
 40
0.0
 40
0.0
 40
0.0
 40
0.0
 40
1.0
 40
1.0
 40
1.0
 40
2.0
 40
2.0
 40
2.0
 40
3.0
 40
3.0
 40
3.0
 40
4.0
 40
4.0
 40
4.0
 40
4.0
 10
62.70142685064409
 20
-130.075092198384
 10
62.70142685064409
 20
-130.2401122721275
 10
62.79651148603698
 20
-130.3245171115161
 10
62.9319037386073
 20
-130.3245171115161
 10
63.05472139265646
 20
-130.3245171115161
 10
63.17323267734906
 20
-130.2528591254229
 10
63.17323267734906
 20
-130.075092198384
 10
63.17323267734906
 20
-129.8973252713451
 10
63.05472139265646
 20
-129.8253227757034
 10
62.9319037386073
 20
-129.8253227757034
 10
62.79651148603698
 20
-129.8253227757034
 10
62.70142685064409
 20
-129.9121391819317
 10
62.70142685064409
 20
-130.075092198384
 97
        0
 97
        0
 92
        1
 93
        1
 72
     4
 94
        3
 73
     0
 74
     1
 95
       17
 96
       13
 40
0.0
 40
0.0
 40
0.0
 40
0.0
 40
1.0
 40
1.0
 40
1.0
 40
2.0
 40
2.0
 40
2.0
 40
3.0
 40
3.0
 40
3.0
 40
4.0
 40
4.0
 40
4.0
 40
4.0
 10
63.36150714561796
 20
-130.075092198384
 10
63.36150714561796
 20
-130.2187526801189
 10
63.44815129707199
 20
-130.3713704101155
 10
63.65123967592747
 20
-130.3713704101155
 10
63.8563951120741
 20
-130.3713704101155
 10
63.95802542888897
 20
-130.2442463867098
 10
63.95802542888897
 20
-130.075092198384
 10
63.95802542888897
 20
-129.8890570421805
 10
63.83538002961407
 20
-129.7788139866525
 10
63.65761310257518
 20
-129.7788139866525
 10
63.43540444377657
 20
-129.7788139866525
 10
63.36150714561796
 20
-129.9417670031048
 10
63.36150714561796
 20
-130.075092198384
 97
        0
 97
        0
 75
     2
 76
     1
 98
        0
  0
ENDBLK
  5
189
330
186
100
AcDbEntity
  8
0
100
AcDbBlockEnd
  0
BLOCK
  5
19C
330
19A
100
AcDbEntity
  8
0
100
AcDbBlockBegin
  2
block 7
 70
     0
 10
0.0
 20
0.0
 30
0.0
  3
block 7
  1

  0
SPLINE
  5
19E
330
19A
100
AcDbEntity
  8
_U+30EC_U+30A4_U+30E4_U+30FC 1
370
     0
100
AcDbSpline
210
0.0
220
0.0
230
1.0
 70
    11
 71
     3
 72
    62
 73
    58
 74
     0
 42
0.0000000001
 43
0.0000000001
 12
1.0
 22
0.0
 32
0.0
 13
1.0
 23
0.0
 33
0.0
 40
0.0
 40
0.0
 40
0.0
 40
0.0
 40
1.0
 40
1.0
 40
1.0
 40
2.0
 40
2.0
 40
2.0
 40
3.0
 40
3.0
 40
3.0
 40
4.0
 40
4.0
 40
4.0
 40
5.0
 40
5.0
 40
5.0
 40
6.0
 40
6.0
 40
6.0
 40
7.0
 40
7.0
 40
7.0
 40
8.0
 40
8.0
 40
8.0
 40
9.0
 40
9.0
 40
9.0
 40
10.0
 40
10.0
 40
10.0
 40
11.0
 40
11.0
 40
11.0
 40
12.0
 40
12.0
 40
12.0
 40
13.0
 40
13.0
 40
13.0
 40
14.0
 40
14.0
 40
14.0
 40
15.0
 40
15.0
 40
15.0
 40
16.0
 40
16.0
 40
16.0
 40
17.0
 40
17.0
 40
17.0
 40
18.0
 40
18.0
 40
18.0
 40
19.0
 40
19.0
 40
19.0
 40
19.0
 10
89.49221189168945
 20
-120.1521836722189
 30
0.0
 10
89.39678274674803
 20
-120.1521836722189
 30
0.0
 10
89.17905271208024
 20
-120.1309963349846
 30
0.0
 10
89.05399574596566
 20
-119.9447889240069
 30
0.0
 10
88.9799261930328
 20
-119.832651065962
 30
0.0
 10
88.9757920784505
 20
-119.7332600612125
 30
0.0
 10
88.9716579638682
 20
-119.6486829670496
 30
0.0
 10
88.9716579638682
 20
-119.6486829670496
 30
0.0
 10
89.19179956537566
 20
-119.6486829670496
 30
0.0
 10
89.19179956537566
 20
-119.6486829670496
 30
0.0
 10
89.19386662266682
 20
-119.7227525199825
 30
0.0
 10
89.20420190912256
 20
-119.9575357773023
 30
0.0
 10
89.48773326755862
 20
-119.9575357773023
 30
0.0
 10
89.6251925774201
 20
-119.9575357773023
 30
0.0
 10
89.77781030741666
 20
-119.887772593726
 30
0.0
 10
89.77781030741666
 20
-119.6591905082797
 30
0.0
 10
89.77781030741666
 20
-119.5429185356525
 30
0.0
 10
89.7395697475304
 20
-119.4941704345362
 30
0.0
 10
89.70787486906609
 20
-119.4624755560719
 30
0.0
 10
89.63380531613322
 20
-119.388406003139
 30
0.0
 10
89.51736108873177
 20
-119.3758314046179
 30
0.0
 10
89.4625840705163
 20
-119.3758314046179
 30
0.0
 10
89.4432915357989
 20
-119.3758314046179
 30
0.0
 10
89.4074625427523
 20
-119.377898461909
 30
0.0
 10
89.3799017788703
 20
-119.3820325764913
 30
0.0
 10
89.3799017788703
 20
-119.3820325764913
 30
0.0
 10
89.3799017788703
 20
-119.187556936349
 30
0.0
 10
89.3799017788703
 20
-119.187556936349
 30
0.0
 10
89.41814233875658
 20
-119.1937581082224
 30
0.0
 10
89.46017250367663
 20
-119.1959974202878
 30
0.0
 10
89.4667181850986
 20
-119.1959974202878
 30
0.0
 10
89.53217499931834
 20
-119.1959974202878
 30
0.0
 10
89.73095700881727
 20
-119.1748100830535
 30
0.0
 10
89.73095700881727
 20
-118.9377875136683
 30
0.0
 10
89.73095700881727
 20
-118.7601928414037
 30
0.0
 10
89.60004338037777
 20
-118.7050713136397
 30
0.0
 10
89.48980032484978
 20
-118.7050713136397
 30
0.0
 10
89.22556150113111
 20
-118.7050713136397
 30
0.0
 10
89.21694876241799
 20
-118.9377875136683
 30
0.0
 10
89.21281464783569
 20
-119.0097900093101
 30
0.0
 10
89.21281464783569
 20
-119.0097900093101
 30
0.0
 10
89.00955401420595
 20
-119.0097900093101
 30
0.0
 10
89.00955401420595
 20
-119.0097900093101
 30
0.0
 10
89.01816675291907
 20
-118.8849052979698
 30
0.0
 10
89.04572751680107
 20
-118.508356361432
 30
0.0
 10
89.5025471781452
 20
-118.508356361432
 30
0.0
 10
89.72682289423497
 20
-118.508356361432
 30
0.0
 10
89.96797957820246
 20
-118.6353081300634
 30
0.0
 10
89.96797957820246
 20
-118.9314140870206
 30
0.0
 10
89.96797957820246
 20
-119.1176214979984
 30
0.0
 10
89.87289494280955
 20
-119.2001315348701
 30
0.0
 10
89.77333168328583
 20
-119.2614542345076
 30
0.0
 10
89.83465438292329
 20
-119.2890149983896
 30
0.0
 10
90.01655542454448
 20
-119.3694579779701
 30
0.0
 10
90.01655542454448
 20
-119.6466159097585
 30
0.0
 10
90.01655542454448
 20
-119.9850965411843
 30
0.0
 10
89.76919756870353
 20
-120.1521836722189
 30
0.0
 10
89.49221189168945
 20
-120.1521836722189
 30
0.0
  0
HATCH
  5
19F
330
19A
100
AcDbEntity
  8
_U+30EC_U+30A4_U+30E4_U+30FC 1
 62
   179
420
  2234388
100
AcDbHatch
 10
0.0
 20
0.0
 30
0.0
210
0.0
220
0.0
230
1.0
  2
SOLID
 70
     1
 71
     0
 91
        1
 92
        1
 93
        1
 72
     4
 94
        3
 73
     0
 74
     1
 95
       62
 96
       58
 40
0.0
 40
0.0
 40
0.0
 40
0.0
 40
1.0
 40
1.0
 40
1.0
 40
2.0
 40
2.0
 40
2.0
 40
3.0
 40
3.0
 40
3.0
 40
4.0
 40
4.0
 40
4.0
 40
5.0
 40
5.0
 40
5.0
 40
6.0
 40
6.0
 40
6.0
 40
7.0
 40
7.0
 40
7.0
 40
8.0
 40
8.0
 40
8.0
 40
9.0
 40
9.0
 40
9.0
 40
10.0
 40
10.0
 40
10.0
 40
11.0
 40
11.0
 40
11.0
 40
12.0
 40
12.0
 40
12.0
 40
13.0
 40
13.0
 40
13.0
 40
14.0
 40
14.0
 40
14.0
 40
15.0
 40
15.0
 40
15.0
 40
16.0
 40
16.0
 40
16.0
 40
17.0
 40
17.0
 40
17.0
 40
18.0
 40
18.0
 40
18.0
 40
19.0
 40
19.0
 40
19.0
 40
19.0
 10
89.49221189168945
 20
-120.1521836722189
 10
89.39678274674803
 20
-120.1521836722189
 10
89.17905271208024
 20
-120.1309963349846
 10
89.05399574596566
 20
-119.9447889240069
 10
88.9799261930328
 20
-119.832651065962
 10
88.9757920784505
 20
-119.7332600612125
 10
88.9716579638682
 20
-119.6486829670496
 10
88.9716579638682
 20
-119.6486829670496
 10
89.19179956537566
 20
-119.6486829670496
 10
89.19179956537566
 20
-119.6486829670496
 10
89.19386662266682
 20
-119.7227525199825
 10
89.20420190912256
 20
-119.9575357773023
 10
89.48773326755862
 20
-119.9575357773023
 10
89.6251925774201
 20
-119.9575357773023
 10
89.77781030741666
 20
-119.887772593726
 10
89.77781030741666
 20
-119.6591905082797
 10
89.77781030741666
 20
-119.5429185356525
 10
89.7395697475304
 20
-119.4941704345362
 10
89.70787486906609
 20
-119.4624755560719
 10
89.63380531613322
 20
-119.388406003139
 10
89.51736108873177
 20
-119.3758314046179
 10
89.4625840705163
 20
-119.3758314046179
 10
89.4432915357989
 20
-119.3758314046179
 10
89.4074625427523
 20
-119.377898461909
 10
89.3799017788703
 20
-119.3820325764913
 10
89.3799017788703
 20
-119.3820325764913
 10
89.3799017788703
 20
-119.187556936349
 10
89.3799017788703
 20
-119.187556936349
 10
89.41814233875658
 20
-119.1937581082224
 10
89.46017250367663
 20
-119.1959974202878
 10
89.4667181850986
 20
-119.1959974202878
 10
89.53217499931834
 20
-119.1959974202878
 10
89.73095700881727
 20
-119.1748100830535
 10
89.73095700881727
 20
-118.9377875136683
 10
89.73095700881727
 20
-118.7601928414037
 10
89.60004338037777
 20
-118.7050713136397
 10
89.48980032484978
 20
-118.7050713136397
 10
89.22556150113111
 20
-118.7050713136397
 10
89.21694876241799
 20
-118.9377875136683
 10
89.21281464783569
 20
-119.0097900093101
 10
89.21281464783569
 20
-119.0097900093101
 10
89.00955401420595
 20
-119.0097900093101
 10
89.00955401420595
 20
-119.0097900093101
 10
89.01816675291907
 20
-118.8849052979698
 10
89.04572751680107
 20
-118.508356361432
 10
89.5025471781452
 20
-118.508356361432
 10
89.72682289423497
 20
-118.508356361432
 10
89.96797957820246
 20
-118.6353081300634
 10
89.96797957820246
 20
-118.9314140870206
 10
89.96797957820246
 20
-119.1176214979984
 10
89.87289494280955
 20
-119.2001315348701
 10
89.77333168328583
 20
-119.2614542345076
 10
89.83465438292329
 20
-119.2890149983896
 10
90.01655542454448
 20
-119.3694579779701
 10
90.01655542454448
 20
-119.6466159097585
 10
90.01655542454448
 20
-119.9850965411843
 10
89.76919756870353
 20
-120.1521836722189
 10
89.49221189168945
 20
-120.1521836722189
 97
        0
 97
        0
 75
     2
 76
     1
 98
        0
  0
ENDBLK
  5
19D
330
19A
100
AcDbEntity
  8
0
100
AcDbBlockEnd
  0
BLOCK
  5
1B0
330
1AE
100
AcDbEntity
  8
0
100
AcDbBlockBegin
  2
block 8
 70
     0
 10
0.0
 20
0.0
 30
0.0
  3
block 8
  1

  0
POLYLINE
  5
1B2
330
1AE
100
AcDbEntity
  8
_U+30EC_U+30A4_U+30E4_U+30FC 1
370
     0
100
AcDb2dPolyline
 66
     1
 10
0.0
 20
0.0
 30
0.0
  0
VERTEX
  5
1B3
330
1B2
100
AcDbEntity
  8
_U+30EC_U+30A4_U+30E4_U+30FC 1
370
     0
100
AcDbVertex
100
AcDb2dVertex
 10
89.67910832176426
 20
-137.1299587330786
 30
0.0
  0
VERTEX
  5
1B4
330
1B2
100
AcDbEntity
  8
_U+30EC_U+30A4_U+30E4_U+30FC 1
370
     0
100
AcDbVertex
100
AcDb2dVertex
 10
89.67910832176426
 20
-137.4768798484433
 30
0.0
  0
VERTEX
  5
1B5
330
1B2
100
AcDbEntity
  8
_U+30EC_U+30A4_U+30E4_U+30FC 1
370
     0
100
AcDbVertex
100
AcDb2dVertex
 10
89.46137828709647
 20
-137.4768798484433
 30
0.0
  0
VERTEX
  5
1B6
330
1B2
100
AcDbEntity
  8
_U+30EC_U+30A4_U+30E4_U+30FC 1
370
     0
100
AcDbVertex
100
AcDb2dVertex
 10
89.46137828709647
 20
-137.1299587330786
 30
0.0
  0
VERTEX
  5
1B7
330
1B2
100
AcDbEntity
  8
_U+30EC_U+30A4_U+30E4_U+30FC 1
370
     0
100
AcDbVertex
100
AcDb2dVertex
 10
88.8054321067049
 20
-137.1299587330786
 30
0.0
  0
VERTEX
  5
1B8
330
1B2
100
AcDbEntity
  8
_U+30EC_U+30A4_U+30E4_U+30FC 1
370
     0
100
AcDbVertex
100
AcDb2dVertex
 10
88.8054321067049
 20
-136.9056830169889
 30
0.0
  0
VERTEX
  5
1B9
330
1B2
100
AcDbEntity
  8
_U+30EC_U+30A4_U+30E4_U+30FC 1
370
     0
100
AcDbVertex
100
AcDb2dVertex
 10
89.48446042684763
 20
-135.9324435424058
 30
0.0
  0
VERTEX
  5
1BA
330
1B2
100
AcDbEntity
  8
_U+30EC_U+30A4_U+30E4_U+30FC 1
370
     0
100
AcDbVertex
100
AcDb2dVertex
 10
89.67910832176426
 20
-135.9324435424058
 30
0.0
  0
VERTEX
  5
1BB
330
1B2
100
AcDbEntity
  8
_U+30EC_U+30A4_U+30E4_U+30FC 1
370
     0
100
AcDbVertex
100
AcDb2dVertex
 10
89.67910832176426
 20
-136.9311767235797
 30
0.0
  0
VERTEX
  5
1BC
330
1B2
100
AcDbEntity
  8
_U+30EC_U+30A4_U+30E4_U+30FC 1
370
     0
100
AcDbVertex
100
AcDb2dVertex
 10
89.8865030699763
 20
-136.9311767235797
 30
0.0
  0
VERTEX
  5
1BD
330
1B2
100
AcDbEntity
  8
_U+30EC_U+30A4_U+30E4_U+30FC 1
370
     0
100
AcDbVertex
100
AcDb2dVertex
 10
89.8865030699763
 20
-137.1299587330786
 30
0.0
  0
VERTEX
  5
1BE
330
1B2
100
AcDbEntity
  8
_U+30EC_U+30A4_U+30E4_U+30FC 1
370
     0
100
AcDbVertex
100
AcDb2dVertex
 10
89.67910832176426
 20
-137.1299587330786
 30
0.0
  0
SEQEND
  5
1BF
330
1B2
100
AcDbEntity
  8
_U+30EC_U+30A4_U+30E4_U+30FC 1
370
     0
  0
POLYLINE
  5
1C0
330
1AE
100
AcDbEntity
  8
_U+30EC_U+30A4_U+30E4_U+30FC 1
370
     0
100
AcDb2dPolyline
 66
     1
 10
0.0
 20
0.0
 30
0.0
  0
VERTEX
  5
1C1
330
1C0
100
AcDbEntity
  8
_U+30EC_U+30A4_U+30E4_U+30FC 1
370
     0
100
AcDbVertex
100
AcDb2dVertex
 10
89.46137828709647
 20
-136.2752305431881
 30
0.0
  0
VERTEX
  5
1C2
330
1C0
100
AcDbEntity
  8
_U+30EC_U+30A4_U+30E4_U+30FC 1
370
     0
100
AcDbVertex
100
AcDb2dVertex
 10
89.00421411620381
 20
-136.9311767235797
 30
0.0
  0
VERTEX
  5
1C3
330
1C0
100
AcDbEntity
  8
_U+30EC_U+30A4_U+30E4_U+30FC 1
370
     0
100
AcDbVertex
100
AcDb2dVertex
 10
89.46137828709647
 20
-136.9311767235797
 30
0.0
  0
VERTEX
  5
1C4
330
1C0
100
AcDbEntity
  8
_U+30EC_U+30A4_U+30E4_U+30FC 1
370
     0
100
AcDbVertex
100
AcDb2dVertex
 10
89.46137828709647
 20
-136.2752305431881
 30
0.0
  0
SEQEND
  5
1C5
330
1C0
100
AcDbEntity
  8
_U+30EC_U+30A4_U+30E4_U+30FC 1
370
     0
  0
HATCH
  5
1C6
330
1AE
100
AcDbEntity
  8
_U+30EC_U+30A4_U+30E4_U+30FC 1
 62
   179
420
  2234388
100
AcDbHatch
 10
0.0
 20
0.0
 30
0.0
210
0.0
220
0.0
230
1.0
  2
SOLID
 70
     1
 71
     0
 91
        2
 92
        1
 93
       11
 72
     1
 10
89.67910832176426
 20
-137.1299587330786
 11
89.67910832176426
 21
-137.4768798484433
 72
     1
 10
89.67910832176426
 20
-137.4768798484433
 11
89.46137828709647
 21
-137.4768798484433
 72
     1
 10
89.46137828709647
 20
-137.4768798484433
 11
89.46137828709647
 21
-137.1299587330786
 72
     1
 10
89.46137828709647
 20
-137.1299587330786
 11
88.8054321067049
 21
-137.1299587330786
 72
     1
 10
88.8054321067049
 20
-137.1299587330786
 11
88.8054321067049
 21
-136.9056830169889
 72
     1
 10
88.8054321067049
 20
-136.9056830169889
 11
89.48446042684763
 21
-135.9324435424058
 72
     1
 10
89.48446042684763
 20
-135.9324435424058
 11
89.67910832176426
 21
-135.9324435424058
 72
     1
 10
89.67910832176426
 20
-135.9324435424058
 11
89.67910832176426
 21
-136.9311767235797
 72
     1
 10
89.67910832176426
 20
-136.9311767235797
 11
89.8865030699763
 21
-136.9311767235797
 72
     1
 10
89.8865030699763
 20
-136.9311767235797
 11
89.8865030699763
 21
-137.1299587330786
 72
     1
 10
89.8865030699763
 20
-137.1299587330786
 11
89.67910832176426
 21
-137.1299587330786
 97
        0
 92
        1
 93
        3
 72
     1
 10
89.46137828709647
 20
-136.2752305431881
 11
89.00421411620381
 21
-136.9311767235797
 72
     1
 10
89.00421411620381
 20
-136.9311767235797
 11
89.46137828709647
 21
-136.9311767235797
 72
     1
 10
89.46137828709647
 20
-136.9311767235797
 11
89.46137828709647
 21
-136.2752305431881
 97
        0
 75
     2
 76
     1
 98
        0
  0
ENDBLK
  5
1B1
330
1AE
100
AcDbEntity
  8
0
100
AcDbBlockEnd
  0
BLOCK
  5
1D1
330
1CF
100
AcDbEntity
  8
0
100
AcDbBlockBegin
  2
block 9
 70
     0
 10
0.0
 20
0.0
 30
0.0
  3
block 9
  1

  0
SPLINE
  5
1D3
330
1CF
100
AcDbEntity
  8
_U+30EC_U+30A4_U+30E4_U+30FC 1
370
     0
100
AcDbSpline
210
0.0
220
0.0
230
1.0
 70
    11
 71
     3
 72
    26
 73
    22
 74
     0
 42
0.0000000001
 43
0.0000000001
 12
1.0
 22
0.0
 32
0.0
 13
1.0
 23
0.0
 33
0.0
 40
0.0
 40
0.0
 40
0.0
 40
0.0
 40
1.0
 40
1.0
 40
1.0
 40
2.0
 40
2.0
 40
2.0
 40
3.0
 40
3.0
 40
3.0
 40
4.0
 40
4.0
 40
4.0
 40
5.0
 40
5.0
 40
5.0
 40
6.0
 40
6.0
 40
6.0
 40
7.0
 40
7.0
 40
7.0
 40
7.0
 10
83.98987763742268
 20
-130.5126193250107
 30
0.0
 10
83.98987763742268
 20
-130.5126193250107
 30
0.0
 10
83.98987763742268
 20
-129.4084662219882
 30
0.0
 10
83.98987763742268
 20
-129.4084662219882
 30
0.0
 10
83.98987763742268
 20
-129.4084662219882
 30
0.0
 10
83.65983748993574
 20
-129.4084662219882
 30
0.0
 10
83.65983748993574
 20
-129.4084662219882
 30
0.0
 10
83.65983748993574
 20
-129.4084662219882
 30
0.0
 10
83.65983748993574
 20
-129.2603271161224
 30
0.0
 10
83.65983748993574
 20
-129.2603271161224
 30
0.0
 10
83.99194469471382
 20
-129.2455132055358
 30
0.0
 10
84.0384534837647
 20
-129.0825601890835
 30
0.0
 10
84.06808130493785
 20
-128.9685275285218
 30
0.0
 10
84.06808130493785
 20
-128.9685275285218
 30
0.0
 10
84.21415335351244
 20
-128.9685275285218
 30
0.0
 10
84.21415335351244
 20
-128.9685275285218
 30
0.0
 10
84.21415335351244
 20
-128.9685275285218
 30
0.0
 10
84.21415335351244
 20
-130.5126193250107
 30
0.0
 10
84.21415335351244
 20
-130.5126193250107
 30
0.0
 10
84.21415335351244
 20
-130.5126193250107
 30
0.0
 10
83.98987763742268
 20
-130.5126193250107
 30
0.0
 10
83.98987763742268
 20
-130.5126193250107
 30
0.0
  0
HATCH
  5
1D4
330
1CF
100
AcDbEntity
  8
_U+30EC_U+30A4_U+30E4_U+30FC 1
 62
   179
420
  2234388
100
AcDbHatch
 10
0.0
 20
0.0
 30
0.0
210
0.0
220
0.0
230
1.0
  2
SOLID
 70
     1
 71
     0
 91
        1
 92
        1
 93
        1
 72
     4
 94
        3
 73
     0
 74
     1
 95
       26
 96
       22
 40
0.0
 40
0.0
 40
0.0
 40
0.0
 40
1.0
 40
1.0
 40
1.0
 40
2.0
 40
2.0
 40
2.0
 40
3.0
 40
3.0
 40
3.0
 40
4.0
 40
4.0
 40
4.0
 40
5.0
 40
5.0
 40
5.0
 40
6.0
 40
6.0
 40
6.0
 40
7.0
 40
7.0
 40
7.0
 40
7.0
 10
83.98987763742268
 20
-130.5126193250107
 10
83.98987763742268
 20
-130.5126193250107
 10
83.98987763742268
 20
-129.4084662219882
 10
83.98987763742268
 20
-129.4084662219882
 10
83.98987763742268
 20
-129.4084662219882
 10
83.65983748993574
 20
-129.4084662219882
 10
83.65983748993574
 20
-129.4084662219882
 10
83.65983748993574
 20
-129.4084662219882
 10
83.65983748993574
 20
-129.2603271161224
 10
83.65983748993574
 20
-129.2603271161224
 10
83.99194469471382
 20
-129.2455132055358
 10
84.0384534837647
 20
-129.0825601890835
 10
84.06808130493785
 20
-128.9685275285218
 10
84.06808130493785
 20
-128.9685275285218
 10
84.21415335351244
 20
-128.9685275285218
 10
84.21415335351244
 20
-128.9685275285218
 10
84.21415335351244
 20
-128.9685275285218
 10
84.21415335351244
 20
-130.5126193250107
 10
84.21415335351244
 20
-130.5126193250107
 10
84.21415335351244
 20
-130.5126193250107
 10
83.98987763742268
 20
-130.5126193250107
 10
83.98987763742268
 20
-130.5126193250107
 97
        0
 97
        0
 75
     2
 76
     1
 98
        0
  0
ENDBLK
  5
1D2
330
1CF
100
AcDbEntity
  8
0
100
AcDbBlockEnd
  0
BLOCK
  5
1D7
330
1D5
100
AcDbEntity
  8
0
100
AcDbBlockBegin
  2
block 10
 70
     0
 10
0.0
 20
0.0
 30
0.0
  3
block 10
  1

  0
INSERT
  5
1DA
330
1D5
100
AcDbEntity
  8
_U+30EC_U+30A4_U+30E4_U+30FC 1
100
AcDbBlockReference
  2
block 11
 10
0.0
 20
0.0
 30
0.0
  0
INSERT
  5
1EA
330
1D5
100
AcDbEntity
  8
_U+30EC_U+30A4_U+30E4_U+30FC 1
100
AcDbBlockReference
  2
block 12
 10
0.0
 20
0.0
 30
0.0
  0
ENDBLK
  5
1D8
330
1D5
100
AcDbEntity
  8
0
100
AcDbBlockEnd
  0
BLOCK
  5
1DB
330
1D9
100
AcDbEntity
  8
0
100
AcDbBlockBegin
  2
block 11
 70
     0
 10
0.0
 20
0.0
 30
0.0
  3
block 11
  1

  0
POLYLINE
  5
1DD
330
1D9
100
AcDbEntity
  8
_U+30EC_U+30A4_U+30E4_U+30FC 1
 62
     7
420
 16777215
370
     9
100
AcDb2dPolyline
 66
     1
 10
0.0
 20
0.0
 30
0.0
  0
VERTEX
  5
1DE
330
1DD
100
AcDbEntity
  8
_U+30EC_U+30A4_U+30E4_U+30FC 1
 62
     7
420
 16777215
370
     9
100
AcDbVertex
100
AcDb2dVertex
 10
72.2520973233621
 20
-126.8167319127402
 30
0.0
  0
VERTEX
  5
1DF
330
1DD
100
AcDbEntity
  8
_U+30EC_U+30A4_U+30E4_U+30FC 1
 62
     7
420
 16777215
370
     9
100
AcDbVertex
100
AcDb2dVertex
 10
72.80087842047264
 20
-127.6528505236423
 30
0.0
  0
SEQEND
  5
1E0
330
1DD
100
AcDbEntity
  8
_U+30EC_U+30A4_U+30E4_U+30FC 1
 62
     7
420
 16777215
370
     9
  0
POLYLINE
  5
1E1
330
1D9
100
AcDbEntity
  8
_U+30EC_U+30A4_U+30E4_U+30FC 1
 62
     7
420
 16777215
370
     9
100
AcDb2dPolyline
 66
     1
 10
0.0
 20
0.0
 30
0.0
  0
VERTEX
  5
1E2
330
1E1
100
AcDbEntity
  8
_U+30EC_U+30A4_U+30E4_U+30FC 1
 62
     7
420
 16777215
370
     9
100
AcDbVertex
100
AcDb2dVertex
 10
72.2520973233621
 20
-126.8167319127402
 30
0.0
  0
VERTEX
  5
1E3
330
1E1
100
AcDbEntity
  8
_U+30EC_U+30A4_U+30E4_U+30FC 1
 62
     7
420
 16777215
370
     9
100
AcDbVertex
100
AcDb2dVertex
 10
73.53074034629675
 20
-130.6865983006614
 30
0.0
  0
SEQEND
  5
1E4
330
1E1
100
AcDbEntity
  8
_U+30EC_U+30A4_U+30E4_U+30FC 1
 62
     7
420
 16777215
370
     9
  0
POLYLINE
  5
1E5
330
1D9
100
AcDbEntity
  8
_U+30EC_U+30A4_U+30E4_U+30FC 1
 62
     7
420
 16777215
370
     9
100
AcDb2dPolyline
 66
     1
 10
0.0
 20
0.0
 30
0.0
  0
VERTEX
  5
1E6
330
1E5
100
AcDbEntity
  8
_U+30EC_U+30A4_U+30E4_U+30FC 1
 62
     7
420
 16777215
370
     9
100
AcDbVertex
100
AcDb2dVertex
 10
72.2520973233621
 20
-126.8167319127402
 30
0.0
  0
VERTEX
  5
1E7
330
1E5
100
AcDbEntity
  8
_U+30EC_U+30A4_U+30E4_U+30FC 1
 62
     7
420
 16777215
370
     9
100
AcDbVertex
100
AcDb2dVertex
 10
72.30945898856534
 20
-127.8150930236016
 30
0.0
  0
SEQEND
  5
1E8
330
1E5
100
AcDbEntity
  8
_U+30EC_U+30A4_U+30E4_U+30FC 1
 62
     7
420
 16777215
370
     9
  0
ENDBLK
  5
1DC
330
1D9
100
AcDbEntity
  8
0
100
AcDbBlockEnd
  0
BLOCK
  5
1EB
330
1E9
100
AcDbEntity
  8
0
100
AcDbBlockBegin
  2
block 12
 70
     0
 10
0.0
 20
0.0
 30
0.0
  3
block 12
  1

  0
SPLINE
  5
1ED
330
1E9
100
AcDbEntity
  8
_U+30EC_U+30A4_U+30E4_U+30FC 1
370
     0
100
AcDbSpline
210
0.0
220
0.0
230
1.0
 70
    11
 71
     3
 72
   242
 73
   238
 74
     0
 42
0.0000000001
 43
0.0000000001
 12
1.0
 22
0.0
 32
0.0
 13
1.0
 23
0.0
 33
0.0
 40
0.0
 40
0.0
 40
0.0
 40
0.0
 40
1.0
 40
1.0
 40
1.0
 40
2.0
 40
2.0
 40
2.0
 40
3.0
 40
3.0
 40
3.0
 40
4.0
 40
4.0
 40
4.0
 40
5.0
 40
5.0
 40
5.0
 40
6.0
 40
6.0
 40
6.0
 40
7.0
 40
7.0
 40
7.0
 40
8.0
 40
8.0
 40
8.0
 40
9.0
 40
9.0
 40
9.0
 40
10.0
 40
10.0
 40
10.0
 40
11.0
 40
11.0
 40
11.0
 40
12.0
 40
12.0
 40
12.0
 40
13.0
 40
13.0
 40
13.0
 40
14.0
 40
14.0
 40
14.0
 40
15.0
 40
15.0
 40
15.0
 40
16.0
 40
16.0
 40
16.0
 40
17.0
 40
17.0
 40
17.0
 40
18.0
 40
18.0
 40
18.0
 40
19.0
 40
19.0
 40
19.0
 40
20.0
 40
20.0
 40
20.0
 40
21.0
 40
21.0
 40
21.0
 40
22.0
 40
22.0
 40
22.0
 40
23.0
 40
23.0
 40
23.0
 40
24.0
 40
24.0
 40
24.0
 40
25.0
 40
25.0
 40
25.0
 40
26.0
 40
26.0
 40
26.0
 40
27.0
 40
27.0
 40
27.0
 40
28.0
 40
28.0
 40
28.0
 40
29.0
 40
29.0
 40
29.0
 40
30.0
 40
30.0
 40
30.0
 40
31.0
 40
31.0
 40
31.0
 40
32.0
 40
32.0
 40
32.0
 40
33.0
 40
33.0
 40
33.0
 40
34.0
 40
34.0
 40
34.0
 40
35.0
 40
35.0
 40
35.0
 40
36.0
 40
36.0
 40
36.0
 40
37.0
 40
37.0
 40
37.0
 40
38.0
 40
38.0
 40
38.0
 40
39.0
 40
39.0
 40
39.0
 40
40.0
 40
40.0
 40
40.0
 40
41.0
 40
41.0
 40
41.0
 40
42.0
 40
42.0
 40
42.0
 40
43.0
 40
43.0
 40
43.0
 40
44.0
 40
44.0
 40
44.0
 40
45.0
 40
45.0
 40
45.0
 40
46.0
 40
46.0
 40
46.0
 40
47.0
 40
47.0
 40
47.0
 40
48.0
 40
48.0
 40
48.0
 40
49.0
 40
49.0
 40
49.0
 40
50.0
 40
50.0
 40
50.0
 40
51.0
 40
51.0
 40
51.0
 40
52.0
 40
52.0
 40
52.0
 40
53.0
 40
53.0
 40
53.0
 40
54.0
 40
54.0
 40
54.0
 40
55.0
 40
55.0
 40
55.0
 40
56.0
 40
56.0
 40
56.0
 40
57.0
 40
57.0
 40
57.0
 40
58.0
 40
58.0
 40
58.0
 40
59.0
 40
59.0
 40
59.0
 40
60.0
 40
60.0
 40
60.0
 40
61.0
 40
61.0
 40
61.0
 40
62.0
 40
62.0
 40
62.0
 40
63.0
 40
63.0
 40
63.0
 40
64.0
 40
64.0
 40
64.0
 40
65.0
 40
65.0
 40
65.0
 40
66.0
 40
66.0
 40
66.0
 40
67.0
 40
67.0
 40
67.0
 40
68.0
 40
68.0
 40
68.0
 40
69.0
 40
69.0
 40
69.0
 40
70.0
 40
70.0
 40
70.0
 40
71.0
 40
71.0
 40
71.0
 40
72.0
 40
72.0
 40
72.0
 40
73.0
 40
73.0
 40
73.0
 40
74.0
 40
74.0
 40
74.0
 40
75.0
 40
75.0
 40
75.0
 40
76.0
 40
76.0
 40
76.0
 40
77.0
 40
77.0
 40
77.0
 40
78.0
 40
78.0
 40
78.0
 40
79.0
 40
79.0
 40
79.0
 40
79.0
 10
70.40466035566273
 20
-131.7828260304223
 30
0.0
 10
70.40466035566273
 20
-131.7828260304223
 30
0.0
 10
70.15092907317408
 20
-131.7828260304223
 30
0.0
 10
70.15092907317408
 20
-131.7828260304223
 30
0.0
 10
70.15092907317408
 20
-131.7828260304223
 30
0.0
 10
69.87377114138573
 20
-131.7828260304223
 30
0.0
 10
69.87377114138573
 20
-131.7828260304223
 30
0.0
 10
69.87377114138573
 20
-131.7828260304223
 30
0.0
 10
70.00072291001719
 20
-131.8252007048909
 30
0.0
 10
70.00072291001719
 20
-131.8252007048909
 30
0.0
 10
70.0112304512472
 20
-131.8293348194732
 30
0.0
 10
70.02397730454263
 20
-131.8358805008952
 30
0.0
 10
70.02397730454263
 20
-131.8486273541906
 30
0.0
 10
70.02397730454263
 20
-131.8696424366507
 30
0.0
 10
69.99228242607832
 20
-131.8758436085241
 30
0.0
 10
69.97109508884404
 20
-131.8803222326549
 30
0.0
 10
69.96041529283976
 20
-131.9034043724061
 30
0.0
 10
69.9307874716666
 20
-131.9692056961744
 30
0.0
 10
69.91183944649774
 20
-132.0136474279341
 30
0.0
 10
69.91183944649774
 20
-132.0136474279341
 30
0.0
 10
70.18262395163838
 20
-132.0136474279341
 30
0.0
 10
70.18262395163838
 20
-132.0136474279341
 30
0.0
 10
70.27357447244897
 20
-132.0136474279341
 30
0.0
 10
70.47028942465674
 20
-132.0091688038033
 30
0.0
 10
70.61205510387477
 20
-132.0009005746387
 30
0.0
 10
70.61205510387477
 20
-132.0009005746387
 30
0.0
 10
70.61205510387477
 20
-132.1786675016776
 30
0.0
 10
70.61205510387477
 20
-132.1786675016776
 30
0.0
 10
70.52954506700303
 20
-132.1741888775467
 30
0.0
 10
70.50835772976875
 20
-132.1741888775467
 30
0.0
 10
70.3285237454387
 20
-132.1700547629644
 30
0.0
 10
70.29682886697441
 20
-132.3243950407036
 30
0.0
 10
70.25238713521469
 20
-132.4050102750585
 30
0.0
 10
70.20794540345496
 20
-132.4746012038605
 30
0.0
 10
70.3285237454387
 20
-132.5338568462068
 30
0.0
 10
70.43428817683588
 20
-132.6017252272662
 30
0.0
 10
70.5379855509419
 20
-132.6840630093637
 30
0.0
 10
70.5379855509419
 20
-132.6840630093637
 30
0.0
 10
70.4194742662493
 20
-132.8511501403983
 30
0.0
 10
70.4194742662493
 20
-132.8511501403983
 30
0.0
 10
70.39621987172386
 20
-132.8322021152294
 30
0.0
 10
70.3836452732027
 20
-132.8235893765163
 30
0.0
 10
70.27150741515783
 20
-132.7391845371277
 30
0.0
 10
70.22275931404154
 20
-132.7009439772414
 30
0.0
 10
70.16350367169524
 20
-132.6651149841948
 30
0.0
 10
70.08323294688891
 20
-132.6206732524351
 30
0.0
 10
69.87170408409457
 20
-132.8067084086386
 30
0.0
 10
69.66637639317369
 20
-132.8301350579383
 30
0.0
 10
69.37664386286417
 20
-132.8597628791115
 30
0.0
 10
69.37664386286417
 20
-132.8597628791115
 30
0.0
 10
69.27294648875815
 20
-132.6799288947814
 30
0.0
 10
69.27294648875815
 20
-132.6799288947814
 30
0.0
 10
69.59023978294967
 20
-132.6757947801991
 30
0.0
 10
69.76576739792314
 20
-132.6503010736083
 30
0.0
 10
69.91821287314545
 20
-132.5404025276288
 30
0.0
 10
69.79970158845286
 20
-132.4894151144471
 30
0.0
 10
69.71081812493341
 20
-132.4618543505651
 30
0.0
 10
69.67481687711255
 20
-132.4494520068182
 30
0.0
 10
69.65586885194368
 20
-132.4766682611517
 30
0.0
 10
69.6410549413571
 20
-132.4959607958691
 30
0.0
 10
69.6134941774751
 20
-132.5297227316245
 30
0.0
 10
69.6134941774751
 20
-132.5297227316245
 30
0.0
 10
69.41677922526733
 20
-132.4470404399785
 30
0.0
 10
69.41677922526733
 20
-132.4470404399785
 30
0.0
 10
69.49928926213907
 20
-132.3667697151722
 30
0.0
 10
69.56061196177652
 20
-132.2716850797793
 30
0.0
 10
69.61780054683166
 20
-132.1700547629644
 30
0.0
 10
69.42728676649735
 20
-132.1741888775467
 30
0.0
 10
69.40627168403732
 20
-132.1741888775467
 30
0.0
 10
69.3237616471656
 20
-132.1786675016776
 30
0.0
 10
69.3237616471656
 20
-132.1786675016776
 30
0.0
 10
69.3237616471656
 20
-132.0009005746387
 30
0.0
 10
69.3237616471656
 20
-132.0009005746387
 30
0.0
 10
69.46328801431821
 20
-132.0071017465121
 30
0.0
 10
69.6727498198214
 20
-132.0112358610944
 30
0.0
 10
69.69807127163799
 20
-132.0112358610944
 30
0.0
 10
69.71512449428997
 20
-131.977473925339
 30
0.0
 10
69.77007376727971
 20
-131.8568955833552
 30
0.0
 10
69.78919404722285
 20
-131.7828260304223
 30
0.0
 10
69.77007376727971
 20
-131.7828260304223
 30
0.0
 10
69.59230684024081
 20
-131.7893717118443
 30
0.0
 10
69.3976589453242
 20
-131.8021185651398
 30
0.0
 10
69.3976589453242
 20
-131.8021185651398
 30
0.0
 10
69.3976589453242
 20
-131.9350992508704
 30
0.0
 10
69.3976589453242
 20
-131.9350992508704
 30
0.0
 10
69.34908309898218
 20
-131.9605929574612
 30
0.0
 10
69.28982745663588
 20
-131.9922878359255
 30
0.0
 10
69.1565022613567
 20
-132.0580891596938
 30
0.0
 10
69.1565022613567
 20
-132.0580891596938
 30
0.0
 10
69.1565022613567
 20
-132.2038166987199
 30
0.0
 10
69.1565022613567
 20
-132.2038166987199
 30
0.0
 10
69.1565022613567
 20
-132.2038166987199
 30
0.0
 10
69.1565022613567
 20
-132.6713161560683
 30
0.0
 10
69.1565022613567
 20
-132.6713161560683
 30
0.0
 10
69.1565022613567
 20
-132.798440179474
 30
0.0
 10
69.12067326831011
 20
-132.8576958218203
 30
0.0
 10
68.83714190987405
 20
-132.8490830831072
 30
0.0
 10
68.83714190987405
 20
-132.8490830831072
 30
0.0
 10
68.73344453576803
 20
-132.6416883348952
 30
0.0
 10
68.73344453576803
 20
-132.6416883348952
 30
0.0
 10
68.79700654747089
 20
-132.6544351881906
 30
0.0
 10
68.84558239381292
 20
-132.6589138123214
 30
0.0
 10
68.88571775621607
 20
-132.6589138123214
 30
0.0
 10
68.96202662121436
 20
-132.6589138123214
 30
0.0
 10
68.97253416244438
 20
-132.6354871630217
 30
0.0
 10
68.97253416244438
 20
-132.5700303488019
 30
0.0
 10
68.97253416244438
 20
-132.5700303488019
 30
0.0
 10
68.97253416244438
 20
-132.1404269417913
 30
0.0
 10
68.97253416244438
 20
-132.1404269417913
 30
0.0
 10
68.87521021498605
 20
-132.1807345589687
 30
0.0
 10
68.85832924710834
 20
-132.1869357308422
 30
0.0
 10
68.81182045805747
 20
-132.205883756011
 30
0.0
 10
68.8075140887009
 20
-132.2272433480196
 30
0.0
 10
68.80320771934434
 20
-132.2568711691927
 30
0.0
 10
68.78425969417546
 20
-132.2568711691927
 30
0.0
 10
68.7758192102366
 20
-132.2568711691927
 30
0.0
 10
68.76513941423232
 20
-132.2523925450619
 30
0.0
 10
68.75893824235888
 20
-132.2293104053107
 30
0.0
 10
68.75893824235888
 20
-132.2293104053107
 30
0.0
 10
68.70605602666029
 20
-132.0367295676853
 30
0.0
 10
68.70605602666029
 20
-132.0367295676853
 30
0.0
 10
68.85195582046063
 20
-131.9902207786344
 30
0.0
 10
68.91758488945463
 20
-131.9671386388832
 30
0.0
 10
68.97253416244438
 20
-131.9457790468747
 30
0.0
 10
68.97253416244438
 20
-131.9457790468747
 30
0.0
 10
68.97253416244438
 20
-131.5334011172903
 30
0.0
 10
68.97253416244438
 20
-131.5334011172903
 30
0.0
 10
68.97253416244438
 20
-131.5334011172903
 30
0.0
 10
68.91965194674579
 20
-131.5334011172903
 30
0.0
 10
68.91965194674579
 20
-131.5334011172903
 30
0.0
 10
68.91965194674579
 20
-131.5334011172903
 30
0.0
 10
68.84144827923062
 20
-131.5334011172903
 30
0.0
 10
68.84144827923062
 20
-131.5334011172903
 30
0.0
 10
68.77375215294545
 20
-131.5334011172903
 30
0.0
 10
68.76513941423232
 20
-131.5334011172903
 30
0.0
 10
68.72931042118573
 20
-131.5396022891637
 30
0.0
 10
68.72931042118573
 20
-131.5396022891637
 30
0.0
 10
68.72931042118573
 20
-131.3449543942471
 30
0.0
 10
68.72931042118573
 20
-131.3449543942471
 30
0.0
 10
68.75669893029347
 20
-131.3515000756691
 30
0.0
 10
68.76513941423232
 20
-131.3515000756691
 30
0.0
 10
68.8350748525829
 20
-131.3515000756691
 30
0.0
 10
68.8350748525829
 20
-131.3515000756691
 30
0.0
 10
68.9682277930878
 20
-131.3515000756691
 30
0.0
 10
68.9682277930878
 20
-131.3515000756691
 30
0.0
 10
68.9682277930878
 20
-131.2815646373185
 30
0.0
 10
68.9682277930878
 20
-131.1988823456725
 30
0.0
 10
68.96616073579666
 20
-131.1947482310902
 30
0.0
 10
68.9577202518578
 20
-131.0149142467602
 30
0.0
 10
68.9577202518578
 20
-130.9959662215913
 30
0.0
 10
68.95565319456665
 20
-130.9494574325404
 30
0.0
 10
68.95565319456665
 20
-130.9494574325404
 30
0.0
 10
69.17131617194329
 20
-130.957725661705
 30
0.0
 10
69.17131617194329
 20
-130.957725661705
 30
0.0
 10
69.18199596794756
 20
-130.957725661705
 30
0.0
 10
69.20318330518185
 20
-130.9601372285447
 30
0.0
 10
69.20318330518185
 20
-130.9770181964224
 30
0.0
 10
69.20318330518185
 20
-130.9959662215913
 30
0.0
 10
69.18836939459527
 20
-131.0066460175956
 30
0.0
 10
69.16287568800442
 20
-131.0255940427645
 30
0.0
 10
69.16287568800442
 20
-131.0762369463976
 30
0.0
 10
69.1565022613567
 20
-131.3049912866182
 30
0.0
 10
69.15874157342212
 20
-131.3515000756691
 30
0.0
 10
69.28776039934473
 20
-131.3515000756691
 30
0.0
 10
69.30050725264016
 20
-131.3515000756691
 30
0.0
 10
69.3976589453242
 20
-131.342887336956
 30
0.0
 10
69.3976589453242
 20
-131.342887336956
 30
0.0
 10
69.3976589453242
 20
-131.5375352318726
 30
0.0
 10
69.3976589453242
 20
-131.5375352318726
 30
0.0
 10
69.35959064021219
 20
-131.5354681745814
 30
0.0
 10
69.29189451392703
 20
-131.5313340599991
 30
0.0
 10
69.1565022613567
 20
-131.5334011172903
 30
0.0
 10
69.1565022613567
 20
-131.5334011172903
 30
0.0
 10
69.1565022613567
 20
-131.8717094939418
 30
0.0
 10
69.1565022613567
 20
-131.8717094939418
 30
0.0
 10
69.21162378912071
 20
-131.8486273541906
 30
0.0
 10
69.27708060334045
 20
-131.8210665903086
 30
0.0
 10
69.32582870445674
 20
-131.7976399410089
 30
0.0
 10
69.32582870445674
 20
-131.7976399410089
 30
0.0
 10
69.32582870445674
 20
-131.6198730139701
 30
0.0
 10
69.32582870445674
 20
-131.6198730139701
 30
0.0
 10
69.44003361979277
 20
-131.6326198672655
 30
0.0
 10
69.55854490448537
 20
-131.6326198672655
 30
0.0
 10
69.67481687711255
 20
-131.6326198672655
 30
0.0
 10
69.65156248258711
 20
-131.5375352318726
 30
0.0
 10
69.62417397347937
 20
-131.4548529402266
 30
0.0
 10
69.56061196177652
 20
-131.3218722544959
 30
0.0
 10
69.5161702300168
 20
-131.3239393117871
 30
0.0
 10
69.43366019314506
 20
-131.3280734263694
 30
0.0
 10
69.39559188803305
 20
-131.3301404836605
 30
0.0
 10
69.39559188803305
 20
-131.3301404836605
 30
0.0
 10
69.39559188803305
 20
-131.1503064993305
 30
0.0
 10
69.39559188803305
 20
-131.1503064993305
 30
0.0
 10
69.52047659937335
 20
-131.1589192380436
 30
0.0
 10
69.69393715705569
 20
-131.1630533526259
 30
0.0
 10
69.77644719392742
 20
-131.1630533526259
 30
0.0
 10
69.77644719392742
 20
-131.1630533526259
 30
0.0
 10
69.85895723079915
 20
-131.1630533526259
 30
0.0
 10
69.85895723079915
 20
-131.1630533526259
 30
0.0
 10
69.85895723079915
 20
-131.0001003361736
 30
0.0
 10
69.85895723079915
 20
-130.9897650497178
 30
0.0
 10
69.856890173508
 20
-130.9346435219539
 30
0.0
 10
69.856890173508
 20
-130.9346435219539
 30
0.0
 10
70.0809936348235
 20
-130.9601372285447
 30
0.0
 10
70.0809936348235
 20
-130.9601372285447
 30
0.0
 10
70.08530000418007
 20
-130.9601372285447
 30
0.0
 10
70.10648734141435
 20
-130.9622042858358
 30
0.0
 10
70.10648734141435
 20
-130.9790852537136
 30
0.0
 10
70.10648734141435
 20
-130.9938991643001
 30
0.0
 10
70.09580754541008
 20
-131.0021673934647
 30
0.0
 10
70.06841903630234
 20
-131.0169813040513
 30
0.0
 10
70.06204560965463
 20
-131.0827826278196
 30
0.0
 10
70.05997855236348
 20
-131.1037977102796
 30
0.0
 10
70.05997855236348
 20
-131.1630533526259
 30
0.0
 10
70.05997855236348
 20
-131.1630533526259
 30
0.0
 10
70.15506318775638
 20
-131.1630533526259
 30
0.0
 10
70.15506318775638
 20
-131.1630533526259
 30
0.0
 10
70.23757322462811
 20
-131.1630533526259
 30
0.0
 10
70.41103378231044
 20
-131.1589192380436
 30
0.0
 10
70.53591849365074
 20
-131.1503064993305
 30
0.0
 10
70.53591849365074
 20
-131.1503064993305
 30
0.0
 10
70.53591849365074
 20
-131.3301404836605
 30
0.0
 10
70.53591849365074
 20
-131.3301404836605
 30
0.0
 10
70.5062906724776
 20
-131.3280734263694
 30
0.0
 10
70.387779387785
 20
-131.3239393117871
 30
0.0
 10
70.34764402538184
 20
-131.3218722544959
 30
0.0
 10
70.33283011479527
 20
-131.3725151581291
 30
0.0
 10
70.29889592426555
 20
-131.4844807613997
 30
0.0
 10
70.23343911004581
 20
-131.6243516381009
 30
0.0
 10
70.27564152974013
 20
-131.6243516381009
 30
0.0
 10
70.55279946152847
 20
-131.6050591033835
 30
0.0
 10
70.61412216116592
 20
-131.6029920460923
 30
0.0
 10
70.61412216116592
 20
-131.6029920460923
 30
0.0
 10
70.61412216116592
 20
-131.7873046545532
 30
0.0
 10
70.61412216116592
 20
-131.7873046545532
 30
0.0
 10
70.58449433999277
 20
-131.7873046545532
 30
0.0
 10
70.56761337211505
 20
-131.7828260304223
 30
0.0
 10
70.40466035566273
 20
-131.7828260304223
 30
0.0
  0
SPLINE
  5
1EE
330
1E9
100
AcDbEntity
  8
_U+30EC_U+30A4_U+30E4_U+30FC 1
370
     0
100
AcDbSpline
210
0.0
220
0.0
230
1.0
 70
    11
 71
     3
 72
    20
 73
    16
 74
     0
 42
0.0000000001
 43
0.0000000001
 12
1.0
 22
0.0
 32
0.0
 13
1.0
 23
0.0
 33
0.0
 40
0.0
 40
0.0
 40
0.0
 40
0.0
 40
1.0
 40
1.0
 40
1.0
 40
2.0
 40
2.0
 40
2.0
 40
3.0
 40
3.0
 40
3.0
 40
4.0
 40
4.0
 40
4.0
 40
5.0
 40
5.0
 40
5.0
 40
5.0
 10
69.77644719392742
 20
-131.3173936303651
 30
0.0
 10
69.77644719392742
 20
-131.3173936303651
 30
0.0
 10
69.74475231546312
 20
-131.3173936303651
 30
0.0
 10
69.74475231546312
 20
-131.3173936303651
 30
0.0
 10
69.79126110451399
 20
-131.4169568898888
 30
0.0
 10
69.82295598297829
 20
-131.4972276146951
 30
0.0
 10
69.856890173508
 20
-131.6243516381009
 30
0.0
 10
69.856890173508
 20
-131.6243516381009
 30
0.0
 10
70.06411266694577
 20
-131.6243516381009
 30
0.0
 10
70.06411266694577
 20
-131.6243516381009
 30
0.0
 10
70.09580754541008
 20
-131.5313340599991
 30
0.0
 10
70.11906193993552
 20
-131.446584711062
 30
0.0
 10
70.14248858923521
 20
-131.3173936303651
 30
0.0
 10
70.14248858923521
 20
-131.3173936303651
 30
0.0
 10
69.77644719392742
 20
-131.3173936303651
 30
0.0
 10
69.77644719392742
 20
-131.3173936303651
 30
0.0
  0
SPLINE
  5
1EF
330
1E9
100
AcDbEntity
  8
_U+30EC_U+30A4_U+30E4_U+30FC 1
370
     0
100
AcDbSpline
210
0.0
220
0.0
230
1.0
 70
    11
 71
     3
 72
    17
 73
    13
 74
     0
 42
0.0000000001
 43
0.0000000001
 12
1.0
 22
0.0
 32
0.0
 13
1.0
 23
0.0
 33
0.0
 40
0.0
 40
0.0
 40
0.0
 40
0.0
 40
1.0
 40
1.0
 40
1.0
 40
2.0
 40
2.0
 40
2.0
 40
3.0
 40
3.0
 40
3.0
 40
4.0
 40
4.0
 40
4.0
 40
4.0
 10
69.83983695085601
 20
-132.1679877056733
 30
0.0
 10
69.82295598297829
 20
-132.1976155268464
 30
0.0
 10
69.77214082457085
 20
-132.2906331049482
 30
0.0
 10
69.76163328334084
 20
-132.3095811301171
 30
0.0
 10
69.9519748089009
 20
-132.3688367724633
 30
0.0
 10
69.97316214613518
 20
-132.3753824538853
 30
0.0
 10
70.0451646417769
 20
-132.4025987082188
 30
0.0
 10
70.10011391476664
 20
-132.316126811539
 30
0.0
 10
70.12336830929208
 20
-132.2420572586062
 30
0.0
 10
70.13818221987866
 20
-132.1679877056733
 30
0.0
 10
70.13818221987866
 20
-132.1679877056733
 30
0.0
 10
69.83983695085601
 20
-132.1679877056733
 30
0.0
 10
69.83983695085601
 20
-132.1679877056733
 30
0.0
  0
HATCH
  5
1F0
330
1E9
100
AcDbEntity
  8
_U+30EC_U+30A4_U+30E4_U+30FC 1
 62
     7
420
 16777215
100
AcDbHatch
 10
0.0
 20
0.0
 30
0.0
210
0.0
220
0.0
230
1.0
  2
SOLID
 70
     1
 71
     0
 91
        3
 92
        1
 93
        1
 72
     4
 94
        3
 73
     0
 74
     1
 95
      242
 96
      238
 40
0.0
 40
0.0
 40
0.0
 40
0.0
 40
1.0
 40
1.0
 40
1.0
 40
2.0
 40
2.0
 40
2.0
 40
3.0
 40
3.0
 40
3.0
 40
4.0
 40
4.0
 40
4.0
 40
5.0
 40
5.0
 40
5.0
 40
6.0
 40
6.0
 40
6.0
 40
7.0
 40
7.0
 40
7.0
 40
8.0
 40
8.0
 40
8.0
 40
9.0
 40
9.0
 40
9.0
 40
10.0
 40
10.0
 40
10.0
 40
11.0
 40
11.0
 40
11.0
 40
12.0
 40
12.0
 40
12.0
 40
13.0
 40
13.0
 40
13.0
 40
14.0
 40
14.0
 40
14.0
 40
15.0
 40
15.0
 40
15.0
 40
16.0
 40
16.0
 40
16.0
 40
17.0
 40
17.0
 40
17.0
 40
18.0
 40
18.0
 40
18.0
 40
19.0
 40
19.0
 40
19.0
 40
20.0
 40
20.0
 40
20.0
 40
21.0
 40
21.0
 40
21.0
 40
22.0
 40
22.0
 40
22.0
 40
23.0
 40
23.0
 40
23.0
 40
24.0
 40
24.0
 40
24.0
 40
25.0
 40
25.0
 40
25.0
 40
26.0
 40
26.0
 40
26.0
 40
27.0
 40
27.0
 40
27.0
 40
28.0
 40
28.0
 40
28.0
 40
29.0
 40
29.0
 40
29.0
 40
30.0
 40
30.0
 40
30.0
 40
31.0
 40
31.0
 40
31.0
 40
32.0
 40
32.0
 40
32.0
 40
33.0
 40
33.0
 40
33.0
 40
34.0
 40
34.0
 40
34.0
 40
35.0
 40
35.0
 40
35.0
 40
36.0
 40
36.0
 40
36.0
 40
37.0
 40
37.0
 40
37.0
 40
38.0
 40
38.0
 40
38.0
 40
39.0
 40
39.0
 40
39.0
 40
40.0
 40
40.0
 40
40.0
 40
41.0
 40
41.0
 40
41.0
 40
42.0
 40
42.0
 40
42.0
 40
43.0
 40
43.0
 40
43.0
 40
44.0
 40
44.0
 40
44.0
 40
45.0
 40
45.0
 40
45.0
 40
46.0
 40
46.0
 40
46.0
 40
47.0
 40
47.0
 40
47.0
 40
48.0
 40
48.0
 40
48.0
 40
49.0
 40
49.0
 40
49.0
 40
50.0
 40
50.0
 40
50.0
 40
51.0
 40
51.0
 40
51.0
 40
52.0
 40
52.0
 40
52.0
 40
53.0
 40
53.0
 40
53.0
 40
54.0
 40
54.0
 40
54.0
 40
55.0
 40
55.0
 40
55.0
 40
56.0
 40
56.0
 40
56.0
 40
57.0
 40
57.0
 40
57.0
 40
58.0
 40
58.0
 40
58.0
 40
59.0
 40
59.0
 40
59.0
 40
60.0
 40
60.0
 40
60.0
 40
61.0
 40
61.0
 40
61.0
 40
62.0
 40
62.0
 40
62.0
 40
63.0
 40
63.0
 40
63.0
 40
64.0
 40
64.0
 40
64.0
 40
65.0
 40
65.0
 40
65.0
 40
66.0
 40
66.0
 40
66.0
 40
67.0
 40
67.0
 40
67.0
 40
68.0
 40
68.0
 40
68.0
 40
69.0
 40
69.0
 40
69.0
 40
70.0
 40
70.0
 40
70.0
 40
71.0
 40
71.0
 40
71.0
 40
72.0
 40
72.0
 40
72.0
 40
73.0
 40
73.0
 40
73.0
 40
74.0
 40
74.0
 40
74.0
 40
75.0
 40
75.0
 40
75.0
 40
76.0
 40
76.0
 40
76.0
 40
77.0
 40
77.0
 40
77.0
 40
78.0
 40
78.0
 40
78.0
 40
79.0
 40
79.0
 40
79.0
 40
79.0
 10
70.40466035566273
 20
-131.7828260304223
 10
70.40466035566273
 20
-131.7828260304223
 10
70.15092907317408
 20
-131.7828260304223
 10
70.15092907317408
 20
-131.7828260304223
 10
70.15092907317408
 20
-131.7828260304223
 10
69.87377114138573
 20
-131.7828260304223
 10
69.87377114138573
 20
-131.7828260304223
 10
69.87377114138573
 20
-131.7828260304223
 10
70.00072291001719
 20
-131.8252007048909
 10
70.00072291001719
 20
-131.8252007048909
 10
70.0112304512472
 20
-131.8293348194732
 10
70.02397730454263
 20
-131.8358805008952
 10
70.02397730454263
 20
-131.8486273541906
 10
70.02397730454263
 20
-131.8696424366507
 10
69.99228242607832
 20
-131.8758436085241
 10
69.97109508884404
 20
-131.8803222326549
 10
69.96041529283976
 20
-131.9034043724061
 10
69.9307874716666
 20
-131.9692056961744
 10
69.91183944649774
 20
-132.0136474279341
 10
69.91183944649774
 20
-132.0136474279341
 10
70.18262395163838
 20
-132.0136474279341
 10
70.18262395163838
 20
-132.0136474279341
 10
70.27357447244897
 20
-132.0136474279341
 10
70.47028942465674
 20
-132.0091688038033
 10
70.61205510387477
 20
-132.0009005746387
 10
70.61205510387477
 20
-132.0009005746387
 10
70.61205510387477
 20
-132.1786675016776
 10
70.61205510387477
 20
-132.1786675016776
 10
70.52954506700303
 20
-132.1741888775467
 10
70.50835772976875
 20
-132.1741888775467
 10
70.3285237454387
 20
-132.1700547629644
 10
70.29682886697441
 20
-132.3243950407036
 10
70.25238713521469
 20
-132.4050102750585
 10
70.20794540345496
 20
-132.4746012038605
 10
70.3285237454387
 20
-132.5338568462068
 10
70.43428817683588
 20
-132.6017252272662
 10
70.5379855509419
 20
-132.6840630093637
 10
70.5379855509419
 20
-132.6840630093637
 10
70.4194742662493
 20
-132.8511501403983
 10
70.4194742662493
 20
-132.8511501403983
 10
70.39621987172386
 20
-132.8322021152294
 10
70.3836452732027
 20
-132.8235893765163
 10
70.27150741515783
 20
-132.7391845371277
 10
70.22275931404154
 20
-132.7009439772414
 10
70.16350367169524
 20
-132.6651149841948
 10
70.08323294688891
 20
-132.6206732524351
 10
69.87170408409457
 20
-132.8067084086386
 10
69.66637639317369
 20
-132.8301350579383
 10
69.37664386286417
 20
-132.8597628791115
 10
69.37664386286417
 20
-132.8597628791115
 10
69.27294648875815
 20
-132.6799288947814
 10
69.27294648875815
 20
-132.6799288947814
 10
69.59023978294967
 20
-132.6757947801991
 10
69.76576739792314
 20
-132.6503010736083
 10
69.91821287314545
 20
-132.5404025276288
 10
69.79970158845286
 20
-132.4894151144471
 10
69.71081812493341
 20
-132.4618543505651
 10
69.67481687711255
 20
-132.4494520068182
 10
69.65586885194368
 20
-132.4766682611517
 10
69.6410549413571
 20
-132.4959607958691
 10
69.6134941774751
 20
-132.5297227316245
 10
69.6134941774751
 20
-132.5297227316245
 10
69.41677922526733
 20
-132.4470404399785
 10
69.41677922526733
 20
-132.4470404399785
 10
69.49928926213907
 20
-132.3667697151722
 10
69.56061196177652
 20
-132.2716850797793
 10
69.61780054683166
 20
-132.1700547629644
 10
69.42728676649735
 20
-132.1741888775467
 10
69.40627168403732
 20
-132.1741888775467
 10
69.3237616471656
 20
-132.1786675016776
 10
69.3237616471656
 20
-132.1786675016776
 10
69.3237616471656
 20
-132.0009005746387
 10
69.3237616471656
 20
-132.0009005746387
 10
69.46328801431821
 20
-132.0071017465121
 10
69.6727498198214
 20
-132.0112358610944
 10
69.69807127163799
 20
-132.0112358610944
 10
69.71512449428997
 20
-131.977473925339
 10
69.77007376727971
 20
-131.8568955833552
 10
69.78919404722285
 20
-131.7828260304223
 10
69.77007376727971
 20
-131.7828260304223
 10
69.59230684024081
 20
-131.7893717118443
 10
69.3976589453242
 20
-131.8021185651398
 10
69.3976589453242
 20
-131.8021185651398
 10
69.3976589453242
 20
-131.9350992508704
 10
69.3976589453242
 20
-131.9350992508704
 10
69.34908309898218
 20
-131.9605929574612
 10
69.28982745663588
 20
-131.9922878359255
 10
69.1565022613567
 20
-132.0580891596938
 10
69.1565022613567
 20
-132.0580891596938
 10
69.1565022613567
 20
-132.2038166987199
 10
69.1565022613567
 20
-132.2038166987199
 10
69.1565022613567
 20
-132.2038166987199
 10
69.1565022613567
 20
-132.6713161560683
 10
69.1565022613567
 20
-132.6713161560683
 10
69.1565022613567
 20
-132.798440179474
 10
69.12067326831011
 20
-132.8576958218203
 10
68.83714190987405
 20
-132.8490830831072
 10
68.83714190987405
 20
-132.8490830831072
 10
68.73344453576803
 20
-132.6416883348952
 10
68.73344453576803
 20
-132.6416883348952
 10
68.79700654747089
 20
-132.6544351881906
 10
68.84558239381292
 20
-132.6589138123214
 10
68.88571775621607
 20
-132.6589138123214
 10
68.96202662121436
 20
-132.6589138123214
 10
68.97253416244438
 20
-132.6354871630217
 10
68.97253416244438
 20
-132.5700303488019
 10
68.97253416244438
 20
-132.5700303488019
 10
68.97253416244438
 20
-132.1404269417913
 10
68.97253416244438
 20
-132.1404269417913
 10
68.87521021498605
 20
-132.1807345589687
 10
68.85832924710834
 20
-132.1869357308422
 10
68.81182045805747
 20
-132.205883756011
 10
68.8075140887009
 20
-132.2272433480196
 10
68.80320771934434
 20
-132.2568711691927
 10
68.78425969417546
 20
-132.2568711691927
 10
68.7758192102366
 20
-132.2568711691927
 10
68.76513941423232
 20
-132.2523925450619
 10
68.75893824235888
 20
-132.2293104053107
 10
68.75893824235888
 20
-132.2293104053107
 10
68.70605602666029
 20
-132.0367295676853
 10
68.70605602666029
 20
-132.0367295676853
 10
68.85195582046063
 20
-131.9902207786344
 10
68.91758488945463
 20
-131.9671386388832
 10
68.97253416244438
 20
-131.9457790468747
 10
68.97253416244438
 20
-131.9457790468747
 10
68.97253416244438
 20
-131.5334011172903
 10
68.97253416244438
 20
-131.5334011172903
 10
68.97253416244438
 20
-131.5334011172903
 10
68.91965194674579
 20
-131.5334011172903
 10
68.91965194674579
 20
-131.5334011172903
 10
68.91965194674579
 20
-131.5334011172903
 10
68.84144827923062
 20
-131.5334011172903
 10
68.84144827923062
 20
-131.5334011172903
 10
68.77375215294545
 20
-131.5334011172903
 10
68.76513941423232
 20
-131.5334011172903
 10
68.72931042118573
 20
-131.5396022891637
 10
68.72931042118573
 20
-131.5396022891637
 10
68.72931042118573
 20
-131.3449543942471
 10
68.72931042118573
 20
-131.3449543942471
 10
68.75669893029347
 20
-131.3515000756691
 10
68.76513941423232
 20
-131.3515000756691
 10
68.8350748525829
 20
-131.3515000756691
 10
68.8350748525829
 20
-131.3515000756691
 10
68.9682277930878
 20
-131.3515000756691
 10
68.9682277930878
 20
-131.3515000756691
 10
68.9682277930878
 20
-131.2815646373185
 10
68.9682277930878
 20
-131.1988823456725
 10
68.96616073579666
 20
-131.1947482310902
 10
68.9577202518578
 20
-131.0149142467602
 10
68.9577202518578
 20
-130.9959662215913
 10
68.95565319456665
 20
-130.9494574325404
 10
68.95565319456665
 20
-130.9494574325404
 10
69.17131617194329
 20
-130.957725661705
 10
69.17131617194329
 20
-130.957725661705
 10
69.18199596794756
 20
-130.957725661705
 10
69.20318330518185
 20
-130.9601372285447
 10
69.20318330518185
 20
-130.9770181964224
 10
69.20318330518185
 20
-130.9959662215913
 10
69.18836939459527
 20
-131.0066460175956
 10
69.16287568800442
 20
-131.0255940427645
 10
69.16287568800442
 20
-131.0762369463976
 10
69.1565022613567
 20
-131.3049912866182
 10
69.15874157342212
 20
-131.3515000756691
 10
69.28776039934473
 20
-131.3515000756691
 10
69.30050725264016
 20
-131.3515000756691
 10
69.3976589453242
 20
-131.342887336956
 10
69.3976589453242
 20
-131.342887336956
 10
69.3976589453242
 20
-131.5375352318726
 10
69.3976589453242
 20
-131.5375352318726
 10
69.35959064021219
 20
-131.5354681745814
 10
69.29189451392703
 20
-131.5313340599991
 10
69.1565022613567
 20
-131.5334011172903
 10
69.1565022613567
 20
-131.5334011172903
 10
69.1565022613567
 20
-131.8717094939418
 10
69.1565022613567
 20
-131.8717094939418
 10
69.21162378912071
 20
-131.8486273541906
 10
69.27708060334045
 20
-131.8210665903086
 10
69.32582870445674
 20
-131.7976399410089
 10
69.32582870445674
 20
-131.7976399410089
 10
69.32582870445674
 20
-131.6198730139701
 10
69.32582870445674
 20
-131.6198730139701
 10
69.44003361979277
 20
-131.6326198672655
 10
69.55854490448537
 20
-131.6326198672655
 10
69.67481687711255
 20
-131.6326198672655
 10
69.65156248258711
 20
-131.5375352318726
 10
69.62417397347937
 20
-131.4548529402266
 10
69.56061196177652
 20
-131.3218722544959
 10
69.5161702300168
 20
-131.3239393117871
 10
69.43366019314506
 20
-131.3280734263694
 10
69.39559188803305
 20
-131.3301404836605
 10
69.39559188803305
 20
-131.3301404836605
 10
69.39559188803305
 20
-131.1503064993305
 10
69.39559188803305
 20
-131.1503064993305
 10
69.52047659937335
 20
-131.1589192380436
 10
69.69393715705569
 20
-131.1630533526259
 10
69.77644719392742
 20
-131.1630533526259
 10
69.77644719392742
 20
-131.1630533526259
 10
69.85895723079915
 20
-131.1630533526259
 10
69.85895723079915
 20
-131.1630533526259
 10
69.85895723079915
 20
-131.0001003361736
 10
69.85895723079915
 20
-130.9897650497178
 10
69.856890173508
 20
-130.9346435219539
 10
69.856890173508
 20
-130.9346435219539
 10
70.0809936348235
 20
-130.9601372285447
 10
70.0809936348235
 20
-130.9601372285447
 10
70.08530000418007
 20
-130.9601372285447
 10
70.10648734141435
 20
-130.9622042858358
 10
70.10648734141435
 20
-130.9790852537136
 10
70.10648734141435
 20
-130.9938991643001
 10
70.09580754541008
 20
-131.0021673934647
 10
70.06841903630234
 20
-131.0169813040513
 10
70.06204560965463
 20
-131.0827826278196
 10
70.05997855236348
 20
-131.1037977102796
 10
70.05997855236348
 20
-131.1630533526259
 10
70.05997855236348
 20
-131.1630533526259
 10
70.15506318775638
 20
-131.1630533526259
 10
70.15506318775638
 20
-131.1630533526259
 10
70.23757322462811
 20
-131.1630533526259
 10
70.41103378231044
 20
-131.1589192380436
 10
70.53591849365074
 20
-131.1503064993305
 10
70.53591849365074
 20
-131.1503064993305
 10
70.53591849365074
 20
-131.3301404836605
 10
70.53591849365074
 20
-131.3301404836605
 10
70.5062906724776
 20
-131.3280734263694
 10
70.387779387785
 20
-131.3239393117871
 10
70.34764402538184
 20
-131.3218722544959
 10
70.33283011479527
 20
-131.3725151581291
 10
70.29889592426555
 20
-131.4844807613997
 10
70.23343911004581
 20
-131.6243516381009
 10
70.27564152974013
 20
-131.6243516381009
 10
70.55279946152847
 20
-131.6050591033835
 10
70.61412216116592
 20
-131.6029920460923
 10
70.61412216116592
 20
-131.6029920460923
 10
70.61412216116592
 20
-131.7873046545532
 10
70.61412216116592
 20
-131.7873046545532
 10
70.58449433999277
 20
-131.7873046545532
 10
70.56761337211505
 20
-131.7828260304223
 10
70.40466035566273
 20
-131.7828260304223
 97
        0
 97
        0
 92
        1
 93
        1
 72
     4
 94
        3
 73
     0
 74
     1
 95
       20
 96
       16
 40
0.0
 40
0.0
 40
0.0
 40
0.0
 40
1.0
 40
1.0
 40
1.0
 40
2.0
 40
2.0
 40
2.0
 40
3.0
 40
3.0
 40
3.0
 40
4.0
 40
4.0
 40
4.0
 40
5.0
 40
5.0
 40
5.0
 40
5.0
 10
69.77644719392742
 20
-131.3173936303651
 10
69.77644719392742
 20
-131.3173936303651
 10
69.74475231546312
 20
-131.3173936303651
 10
69.74475231546312
 20
-131.3173936303651
 10
69.79126110451399
 20
-131.4169568898888
 10
69.82295598297829
 20
-131.4972276146951
 10
69.856890173508
 20
-131.6243516381009
 10
69.856890173508
 20
-131.6243516381009
 10
70.06411266694577
 20
-131.6243516381009
 10
70.06411266694577
 20
-131.6243516381009
 10
70.09580754541008
 20
-131.5313340599991
 10
70.11906193993552
 20
-131.446584711062
 10
70.14248858923521
 20
-131.3173936303651
 10
70.14248858923521
 20
-131.3173936303651
 10
69.77644719392742
 20
-131.3173936303651
 10
69.77644719392742
 20
-131.3173936303651
 97
        0
 97
        0
 92
        1
 93
        1
 72
     4
 94
        3
 73
     0
 74
     1
 95
       17
 96
       13
 40
0.0
 40
0.0
 40
0.0
 40
0.0
 40
1.0
 40
1.0
 40
1.0
 40
2.0
 40
2.0
 40
2.0
 40
3.0
 40
3.0
 40
3.0
 40
4.0
 40
4.0
 40
4.0
 40
4.0
 10
69.83983695085601
 20
-132.1679877056733
 10
69.82295598297829
 20
-132.1976155268464
 10
69.77214082457085
 20
-132.2906331049482
 10
69.76163328334084
 20
-132.3095811301171
 10
69.9519748089009
 20
-132.3688367724633
 10
69.97316214613518
 20
-132.3753824538853
 10
70.0451646417769
 20
-132.4025987082188
 10
70.10011391476664
 20
-132.316126811539
 10
70.12336830929208
 20
-132.2420572586062
 10
70.13818221987866
 20
-132.1679877056733
 10
70.13818221987866
 20
-132.1679877056733
 10
69.83983695085601
 20
-132.1679877056733
 10
69.83983695085601
 20
-132.1679877056733
 97
        0
 97
        0
 75
     2
 76
     1
 98
        0
  0
SPLINE
  5
1F1
330
1E9
100
AcDbEntity
  8
_U+30EC_U+30A4_U+30E4_U+30FC 1
370
     0
100
AcDbSpline
210
0.0
220
0.0
230
1.0
 70
    11
 71
     3
 72
   203
 73
   199
 74
     0
 42
0.0000000001
 43
0.0000000001
 12
1.0
 22
0.0
 32
0.0
 13
1.0
 23
0.0
 33
0.0
 40
0.0
 40
0.0
 40
0.0
 40
0.0
 40
1.0
 40
1.0
 40
1.0
 40
2.0
 40
2.0
 40
2.0
 40
3.0
 40
3.0
 40
3.0
 40
4.0
 40
4.0
 40
4.0
 40
5.0
 40
5.0
 40
5.0
 40
6.0
 40
6.0
 40
6.0
 40
7.0
 40
7.0
 40
7.0
 40
8.0
 40
8.0
 40
8.0
 40
9.0
 40
9.0
 40
9.0
 40
10.0
 40
10.0
 40
10.0
 40
11.0
 40
11.0
 40
11.0
 40
12.0
 40
12.0
 40
12.0
 40
13.0
 40
13.0
 40
13.0
 40
14.0
 40
14.0
 40
14.0
 40
15.0
 40
15.0
 40
15.0
 40
16.0
 40
16.0
 40
16.0
 40
17.0
 40
17.0
 40
17.0
 40
18.0
 40
18.0
 40
18.0
 40
19.0
 40
19.0
 40
19.0
 40
20.0
 40
20.0
 40
20.0
 40
21.0
 40
21.0
 40
21.0
 40
22.0
 40
22.0
 40
22.0
 40
23.0
 40
23.0
 40
23.0
 40
24.0
 40
24.0
 40
24.0
 40
25.0
 40
25.0
 40
25.0
 40
26.0
 40
26.0
 40
26.0
 40
27.0
 40
27.0
 40
27.0
 40
28.0
 40
28.0
 40
28.0
 40
29.0
 40
29.0
 40
29.0
 40
30.0
 40
30.0
 40
30.0
 40
31.0
 40
31.0
 40
31.0
 40
32.0
 40
32.0
 40
32.0
 40
33.0
 40
33.0
 40
33.0
 40
34.0
 40
34.0
 40
34.0
 40
35.0
 40
35.0
 40
35.0
 40
36.0
 40
36.0
 40
36.0
 40
37.0
 40
37.0
 40
37.0
 40
38.0
 40
38.0
 40
38.0
 40
39.0
 40
39.0
 40
39.0
 40
40.0
 40
40.0
 40
40.0
 40
41.0
 40
41.0
 40
41.0
 40
42.0
 40
42.0
 40
42.0
 40
43.0
 40
43.0
 40
43.0
 40
44.0
 40
44.0
 40
44.0
 40
45.0
 40
45.0
 40
45.0
 40
46.0
 40
46.0
 40
46.0
 40
47.0
 40
47.0
 40
47.0
 40
48.0
 40
48.0
 40
48.0
 40
49.0
 40
49.0
 40
49.0
 40
50.0
 40
50.0
 40
50.0
 40
51.0
 40
51.0
 40
51.0
 40
52.0
 40
52.0
 40
52.0
 40
53.0
 40
53.0
 40
53.0
 40
54.0
 40
54.0
 40
54.0
 40
55.0
 40
55.0
 40
55.0
 40
56.0
 40
56.0
 40
56.0
 40
57.0
 40
57.0
 40
57.0
 40
58.0
 40
58.0
 40
58.0
 40
59.0
 40
59.0
 40
59.0
 40
60.0
 40
60.0
 40
60.0
 40
61.0
 40
61.0
 40
61.0
 40
62.0
 40
62.0
 40
62.0
 40
63.0
 40
63.0
 40
63.0
 40
64.0
 40
64.0
 40
64.0
 40
65.0
 40
65.0
 40
65.0
 40
66.0
 40
66.0
 40
66.0
 40
66.0
 10
72.0962022389204
 20
-131.8506944114818
 30
0.0
 10
72.0962022389204
 20
-131.8506944114818
 30
0.0
 10
71.5377522607614
 20
-131.8506944114818
 30
0.0
 10
71.5377522607614
 20
-131.8506944114818
 30
0.0
 10
71.52707246475713
 20
-131.8951361432415
 30
0.0
 10
71.51863198081826
 20
-131.9268310217058
 30
0.0
 10
71.50588512752283
 20
-131.9647270720436
 30
0.0
 10
71.53137883411368
 20
-131.9647270720436
 30
0.0
 10
71.54619274470026
 20
-131.9671386388832
 30
0.0
 10
71.55256617134798
 20
-131.9671386388832
 30
0.0
 10
71.55256617134798
 20
-131.9671386388832
 30
0.0
 10
71.74084063961688
 20
-131.9671386388832
 30
0.0
 10
71.74084063961688
 20
-131.9671386388832
 30
0.0
 10
71.74084063961688
 20
-131.9671386388832
 30
0.0
 10
72.11515026408927
 20
-131.9671386388832
 30
0.0
 10
72.11515026408927
 20
-131.9671386388832
 30
0.0
 10
72.16596542249671
 20
-131.9671386388832
 30
0.0
 10
72.44949678093276
 20
-131.9543917855878
 30
0.0
 10
72.48119165939707
 20
-131.9543917855878
 30
0.0
 10
72.47912460210591
 20
-131.9816080399213
 30
0.0
 10
72.4768852900405
 20
-132.0009005746387
 30
0.0
 10
72.4768852900405
 20
-132.0305283958118
 30
0.0
 10
72.47481823274936
 20
-132.0622232742761
 30
0.0
 10
72.47481823274936
 20
-132.1976155268464
 30
0.0
 10
72.47481823274936
 20
-132.2251762907284
 30
0.0
 10
72.47481823274936
 20
-132.2251762907284
 30
0.0
 10
72.47481823274936
 20
-132.4704670892782
 30
0.0
 10
72.47481823274936
 20
-132.4704670892782
 30
0.0
 10
72.47481823274936
 20
-132.5149088210379
 30
0.0
 10
72.47912460210591
 20
-132.7116237732457
 30
0.0
 10
72.48325871668821
 20
-132.8638969936937
 30
0.0
 10
72.48325871668821
 20
-132.8638969936937
 30
0.0
 10
72.2569159433073
 20
-132.8638969936937
 30
0.0
 10
72.2569159433073
 20
-132.8638969936937
 30
0.0
 10
72.2569159433073
 20
-132.8638969936937
 30
0.0
 10
72.25915525537272
 20
-132.8301350579383
 30
0.0
 10
72.25915525537272
 20
-132.8301350579383
 30
0.0
 10
72.25915525537272
 20
-132.8301350579383
 30
0.0
 10
71.55670028593028
 20
-132.8301350579383
 30
0.0
 10
71.55670028593028
 20
-132.8301350579383
 30
0.0
 10
71.55670028593028
 20
-132.8301350579383
 30
0.0
 10
71.55876734322142
 20
-132.8638969936937
 30
0.0
 10
71.55876734322142
 20
-132.8638969936937
 30
0.0
 10
71.55876734322142
 20
-132.8638969936937
 30
0.0
 10
71.34086505377937
 20
-132.8638969936937
 30
0.0
 10
71.34086505377937
 20
-132.8638969936937
 30
0.0
 10
71.34517142313594
 20
-132.8087754659298
 30
0.0
 10
71.34517142313594
 20
-132.7963731221829
 30
0.0
 10
71.35154484978365
 20
-132.6819959520726
 30
0.0
 10
71.3536119070748
 20
-132.6544351881906
 30
0.0
 10
71.35567896436595
 20
-132.5211099929114
 30
0.0
 10
71.35567896436595
 20
-132.5021619677425
 30
0.0
 10
71.35567896436595
 20
-132.5021619677425
 30
0.0
 10
71.35567896436595
 20
-132.2992458436613
 30
0.0
 10
71.35567896436595
 20
-132.2992458436613
 30
0.0
 10
71.21615259721332
 20
-132.5486707567934
 30
0.0
 10
71.04682615411329
 20
-132.6799288947814
 30
0.0
 10
70.94106172271613
 20
-132.7453857090012
 30
0.0
 10
70.94106172271613
 20
-132.7453857090012
 30
0.0
 10
70.7676011650338
 20
-132.6058593418485
 30
0.0
 10
70.7676011650338
 20
-132.6058593418485
 30
0.0
 10
70.85648462855325
 20
-132.5552164382154
 30
0.0
 10
71.00031736506243
 20
-132.4684000319871
 30
0.0
 10
71.1377766749239
 20
-132.2737521370705
 30
0.0
 10
71.22889945050875
 20
-132.1466281136647
 30
0.0
 10
71.29435626472849
 20
-132.0029676319298
 30
0.0
 10
71.32829045525821
 20
-131.8506944114818
 30
0.0
 10
71.09970836981188
 20
-131.8527614687729
 30
0.0
 10
70.91987438548183
 20
-131.8589626406464
 30
0.0
 10
70.82478975008894
 20
-131.8610296979375
 30
0.0
 10
70.82478975008894
 20
-131.8610296979375
 30
0.0
 10
70.82478975008894
 20
-131.6836072804471
 30
0.0
 10
70.82478975008894
 20
-131.6836072804471
 30
0.0
 10
71.02150470229671
 20
-131.6898084523206
 30
0.0
 10
71.30503606073277
 20
-131.6939425669029
 30
0.0
 10
71.45524222388967
 20
-131.6939425669029
 30
0.0
 10
71.45524222388967
 20
-131.6939425669029
 30
0.0
 10
71.66883814397515
 20
-131.6939425669029
 30
0.0
 10
71.66883814397515
 20
-131.6939425669029
 30
0.0
 10
71.66883814397515
 20
-131.6939425669029
 30
0.0
 10
71.66883814397515
 20
-131.5861110782146
 30
0.0
 10
71.66883814397515
 20
-131.5861110782146
 30
0.0
 10
71.66883814397515
 20
-131.5861110782146
 30
0.0
 10
71.52293835017483
 20
-131.5861110782146
 30
0.0
 10
71.52293835017483
 20
-131.5861110782146
 30
0.0
 10
71.3536119070748
 20
-131.5861110782146
 30
0.0
 10
71.18445771874903
 20
-131.5902451927969
 30
0.0
 10
71.01719833294015
 20
-131.5967908742189
 30
0.0
 10
71.01719833294015
 20
-131.5967908742189
 30
0.0
 10
71.01719833294015
 20
-131.4255696286019
 30
0.0
 10
71.01719833294015
 20
-131.4255696286019
 30
0.0
 10
71.1717108654536
 20
-131.4359049150577
 30
0.0
 10
71.35791827643136
 20
-131.4359049150577
 30
0.0
 10
71.52293835017483
 20
-131.4359049150577
 30
0.0
 10
71.52293835017483
 20
-131.4359049150577
 30
0.0
 10
71.66883814397515
 20
-131.4359049150577
 30
0.0
 10
71.66883814397515
 20
-131.4359049150577
 30
0.0
 10
71.66883814397515
 20
-131.4359049150577
 30
0.0
 10
71.66883814397515
 20
-131.3173936303651
 30
0.0
 10
71.66883814397515
 20
-131.3173936303651
 30
0.0
 10
71.66883814397515
 20
-131.3173936303651
 30
0.0
 10
71.5377522607614
 20
-131.3173936303651
 30
0.0
 10
71.5377522607614
 20
-131.3173936303651
 30
0.0
 10
71.49107121693626
 20
-131.3173936303651
 30
0.0
 10
71.28798283808078
 20
-131.3260063690782
 30
0.0
 10
71.24578041838647
 20
-131.3260063690782
 30
0.0
 10
71.04269203953099
 20
-131.3301404836605
 30
0.0
 10
70.96655542930698
 20
-131.3322075409517
 30
0.0
 10
70.88817950701754
 20
-131.3342745982428
 30
0.0
 10
70.88817950701754
 20
-131.3342745982428
 30
0.0
 10
70.88817950701754
 20
-131.1503064993305
 30
0.0
 10
70.88817950701754
 20
-131.1503064993305
 30
0.0
 10
71.00238442235357
 20
-131.1589192380436
 30
0.0
 10
71.04682615411329
 20
-131.1589192380436
 30
0.0
 10
71.42974851729882
 20
-131.1671874672082
 30
0.0
 10
71.36635876037022
 20
-131.0721028318153
 30
0.0
 10
71.33879799648822
 20
-131.0445420679333
 30
0.0
 10
71.30279674866736
 20
-131.0087130748867
 30
0.0
 10
71.30279674866736
 20
-131.0087130748867
 30
0.0
 10
71.47849661841511
 20
-130.9260307832407
 30
0.0
 10
71.47849661841511
 20
-130.9260307832407
 30
0.0
 10
71.51863198081826
 20
-130.9622042858358
 30
0.0
 10
71.56307371257799
 20
-131.0045789603044
 30
0.0
 10
71.63714326551086
 20
-131.1144775062839
 30
0.0
 10
71.63714326551086
 20
-131.1144775062839
 30
0.0
 10
71.52293835017483
 20
-131.1692545244994
 30
0.0
 10
71.52293835017483
 20
-131.1692545244994
 30
0.0
 10
71.52293835017483
 20
-131.1692545244994
 30
0.0
 10
71.53344589140484
 20
-131.1692545244994
 30
0.0
 10
71.53344589140484
 20
-131.1692545244994
 30
0.0
 10
71.53344589140484
 20
-131.1692545244994
 30
0.0
 10
72.05589462174298
 20
-131.1692545244994
 30
0.0
 10
72.05589462174298
 20
-131.1692545244994
 30
0.0
 10
72.05589462174298
 20
-131.1692545244994
 30
0.0
 10
71.96080998635009
 20
-131.1251573022882
 30
0.0
 10
71.96080998635009
 20
-131.1251573022882
 30
0.0
 10
71.98837075023208
 20
-131.0869167424019
 30
0.0
 10
72.04538708051297
 20
-131.0066460175956
 30
0.0
 10
72.06020099109953
 20
-130.9325764646627
 30
0.0
 10
72.06020099109953
 20
-130.9325764646627
 30
0.0
 10
72.27379691118503
 20
-130.9959662215913
 30
0.0
 10
72.27379691118503
 20
-130.9959662215913
 30
0.0
 10
72.28240964989816
 20
-130.9980332788824
 30
0.0
 10
72.30342473235818
 20
-131.0087130748867
 30
0.0
 10
72.30342473235818
 20
-131.0297281573467
 30
0.0
 10
72.30342473235818
 20
-131.067968717233
 30
0.0
 10
72.23796791813842
 20
-131.067968717233
 30
0.0
 10
72.21884763819529
 20
-131.067968717233
 30
0.0
 10
72.20834009696527
 20
-131.0869167424019
 30
0.0
 10
72.18508570243985
 20
-131.1272243595793
 30
0.0
 10
72.1554578812667
 20
-131.1671874672082
 30
0.0
 10
72.55526121232994
 20
-131.1609862953348
 30
0.0
 10
72.58488903350309
 20
-131.1589192380436
 30
0.0
 10
72.66102564372711
 20
-131.1523735566216
 30
0.0
 10
72.66102564372711
 20
-131.1523735566216
 30
0.0
 10
72.66102564372711
 20
-131.3342745982428
 30
0.0
 10
72.66102564372711
 20
-131.3342745982428
 30
0.0
 10
72.64190536378398
 20
-131.3342745982428
 30
0.0
 10
72.61658391196738
 20
-131.3322075409517
 30
0.0
 10
72.39661456523419
 20
-131.3239393117871
 30
0.0
 10
72.34579940682674
 20
-131.3218722544959
 30
0.0
 10
72.12583006009355
 20
-131.3173936303651
 30
0.0
 10
72.08138832833383
 20
-131.3173936303651
 30
0.0
 10
72.08138832833383
 20
-131.3173936303651
 30
0.0
 10
71.86555309618292
 20
-131.3173936303651
 30
0.0
 10
71.86555309618292
 20
-131.3173936303651
 30
0.0
 10
71.86555309618292
 20
-131.3173936303651
 30
0.0
 10
71.86555309618292
 20
-131.4359049150577
 30
0.0
 10
71.86555309618292
 20
-131.4359049150577
 30
0.0
 10
71.86555309618292
 20
-131.4359049150577
 30
0.0
 10
72.03901365386525
 20
-131.4359049150577
 30
0.0
 10
72.03901365386525
 20
-131.4359049150577
 30
0.0
 10
72.20196667031756
 20
-131.4359049150577
 30
0.0
 10
72.39230819587762
 20
-131.4359049150577
 30
0.0
 10
72.54888778568223
 20
-131.4255696286019
 30
0.0
 10
72.54888778568223
 20
-131.4255696286019
 30
0.0
 10
72.54888778568223
 20
-131.5967908742189
 30
0.0
 10
72.54888778568223
 20
-131.5967908742189
 30
0.0
 10
72.33942598017903
 20
-131.5881781355057
 30
0.0
 10
72.14271102797127
 20
-131.5861110782146
 30
0.0
 10
72.03901365386525
 20
-131.5861110782146
 30
0.0
 10
72.03901365386525
 20
-131.5861110782146
 30
0.0
 10
71.86555309618292
 20
-131.5861110782146
 30
0.0
 10
71.86555309618292
 20
-131.5861110782146
 30
0.0
 10
71.86555309618292
 20
-131.5861110782146
 30
0.0
 10
71.86555309618292
 20
-131.6939425669029
 30
0.0
 10
71.86555309618292
 20
-131.6939425669029
 30
0.0
 10
71.86555309618292
 20
-131.6939425669029
 30
0.0
 10
72.0962022389204
 20
-131.6939425669029
 30
0.0
 10
72.0962022389204
 20
-131.6939425669029
 30
0.0
 10
72.22952743419957
 20
-131.6939425669029
 30
0.0
 10
72.51719290721793
 20
-131.6898084523206
 30
0.0
 10
72.72665471272111
 20
-131.6836072804471
 30
0.0
 10
72.72665471272111
 20
-131.6836072804471
 30
0.0
 10
72.72665471272111
 20
-131.8610296979375
 30
0.0
 10
72.72665471272111
 20
-131.8610296979375
 30
0.0
 10
72.53407387509566
 20
-131.8548285260641
 30
0.0
 10
72.22091469548644
 20
-131.8506944114818
 30
0.0
 10
72.0962022389204
 20
-131.8506944114818
 30
0.0
  0
POLYLINE
  5
1F2
330
1E9
100
AcDbEntity
  8
_U+30EC_U+30A4_U+30E4_U+30FC 1
370
     0
100
AcDb2dPolyline
 66
     1
 10
0.0
 20
0.0
 30
0.0
  0
VERTEX
  5
1F3
330
1F2
100
AcDbEntity
  8
_U+30EC_U+30A4_U+30E4_U+30FC 1
370
     0
100
AcDbVertex
100
AcDb2dVertex
 10
72.26122231266386
 20
-132.1066650060358
 30
0.0
  0
VERTEX
  5
1F4
330
1F2
100
AcDbEntity
  8
_U+30EC_U+30A4_U+30E4_U+30FC 1
370
     0
100
AcDbVertex
100
AcDb2dVertex
 10
71.55463322863912
 20
-132.1066650060358
 30
0.0
  0
VERTEX
  5
1F5
330
1F2
100
AcDbEntity
  8
_U+30EC_U+30A4_U+30E4_U+30FC 1
370
     0
100
AcDbVertex
100
AcDb2dVertex
 10
71.55463322863912
 20
-132.2144964947242
 30
0.0
  0
VERTEX
  5
1F6
330
1F2
100
AcDbEntity
  8
_U+30EC_U+30A4_U+30E4_U+30FC 1
370
     0
100
AcDbVertex
100
AcDb2dVertex
 10
72.26122231266386
 20
-132.2144964947242
 30
0.0
  0
VERTEX
  5
1F7
330
1F2
100
AcDbEntity
  8
_U+30EC_U+30A4_U+30E4_U+30FC 1
370
     0
100
AcDbVertex
100
AcDb2dVertex
 10
72.26122231266386
 20
-132.1066650060358
 30
0.0
  0
SEQEND
  5
1F8
330
1F2
100
AcDbEntity
  8
_U+30EC_U+30A4_U+30E4_U+30FC 1
370
     0
  0
POLYLINE
  5
1F9
330
1E9
100
AcDbEntity
  8
_U+30EC_U+30A4_U+30E4_U+30FC 1
370
     0
100
AcDb2dPolyline
 66
     1
 10
0.0
 20
0.0
 30
0.0
  0
VERTEX
  5
1FA
330
1F9
100
AcDbEntity
  8
_U+30EC_U+30A4_U+30E4_U+30FC 1
370
     0
100
AcDbVertex
100
AcDb2dVertex
 10
72.26122231266386
 20
-132.3392089512902
 30
0.0
  0
VERTEX
  5
1FB
330
1F9
100
AcDbEntity
  8
_U+30EC_U+30A4_U+30E4_U+30FC 1
370
     0
100
AcDbVertex
100
AcDb2dVertex
 10
71.55463322863912
 20
-132.3392089512902
 30
0.0
  0
VERTEX
  5
1FC
330
1F9
100
AcDbEntity
  8
_U+30EC_U+30A4_U+30E4_U+30FC 1
370
     0
100
AcDbVertex
100
AcDb2dVertex
 10
71.55463322863912
 20
-132.4535861214005
 30
0.0
  0
VERTEX
  5
1FD
330
1F9
100
AcDbEntity
  8
_U+30EC_U+30A4_U+30E4_U+30FC 1
370
     0
100
AcDbVertex
100
AcDb2dVertex
 10
72.26122231266386
 20
-132.4535861214005
 30
0.0
  0
VERTEX
  5
1FE
330
1F9
100
AcDbEntity
  8
_U+30EC_U+30A4_U+30E4_U+30FC 1
370
     0
100
AcDbVertex
100
AcDb2dVertex
 10
72.26122231266386
 20
-132.3392089512902
 30
0.0
  0
SEQEND
  5
1FF
330
1F9
100
AcDbEntity
  8
_U+30EC_U+30A4_U+30E4_U+30FC 1
370
     0
  0
POLYLINE
  5
200
330
1E9
100
AcDbEntity
  8
_U+30EC_U+30A4_U+30E4_U+30FC 1
370
     0
100
AcDb2dPolyline
 66
     1
 10
0.0
 20
0.0
 30
0.0
  0
VERTEX
  5
201
330
200
100
AcDbEntity
  8
_U+30EC_U+30A4_U+30E4_U+30FC 1
370
     0
100
AcDbVertex
100
AcDb2dVertex
 10
72.26122231266386
 20
-132.5824326925488
 30
0.0
  0
VERTEX
  5
202
330
200
100
AcDbEntity
  8
_U+30EC_U+30A4_U+30E4_U+30FC 1
370
     0
100
AcDbVertex
100
AcDb2dVertex
 10
71.55463322863912
 20
-132.5824326925488
 30
0.0
  0
VERTEX
  5
203
330
200
100
AcDbEntity
  8
_U+30EC_U+30A4_U+30E4_U+30FC 1
370
     0
100
AcDbVertex
100
AcDb2dVertex
 10
71.55463322863912
 20
-132.6968098626591
 30
0.0
  0
VERTEX
  5
204
330
200
100
AcDbEntity
  8
_U+30EC_U+30A4_U+30E4_U+30FC 1
370
     0
100
AcDbVertex
100
AcDb2dVertex
 10
72.26122231266386
 20
-132.6968098626591
 30
0.0
  0
VERTEX
  5
205
330
200
100
AcDbEntity
  8
_U+30EC_U+30A4_U+30E4_U+30FC 1
370
     0
100
AcDbVertex
100
AcDb2dVertex
 10
72.26122231266386
 20
-132.5824326925488
 30
0.0
  0
SEQEND
  5
206
330
200
100
AcDbEntity
  8
_U+30EC_U+30A4_U+30E4_U+30FC 1
370
     0
  0
HATCH
  5
207
330
1E9
100
AcDbEntity
  8
_U+30EC_U+30A4_U+30E4_U+30FC 1
 62
     7
420
 16777215
100
AcDbHatch
 10
0.0
 20
0.0
 30
0.0
210
0.0
220
0.0
230
1.0
  2
SOLID
 70
     1
 71
     0
 91
        4
 92
        1
 93
        1
 72
     4
 94
        3
 73
     0
 74
     1
 95
      203
 96
      199
 40
0.0
 40
0.0
 40
0.0
 40
0.0
 40
1.0
 40
1.0
 40
1.0
 40
2.0
 40
2.0
 40
2.0
 40
3.0
 40
3.0
 40
3.0
 40
4.0
 40
4.0
 40
4.0
 40
5.0
 40
5.0
 40
5.0
 40
6.0
 40
6.0
 40
6.0
 40
7.0
 40
7.0
 40
7.0
 40
8.0
 40
8.0
 40
8.0
 40
9.0
 40
9.0
 40
9.0
 40
10.0
 40
10.0
 40
10.0
 40
11.0
 40
11.0
 40
11.0
 40
12.0
 40
12.0
 40
12.0
 40
13.0
 40
13.0
 40
13.0
 40
14.0
 40
14.0
 40
14.0
 40
15.0
 40
15.0
 40
15.0
 40
16.0
 40
16.0
 40
16.0
 40
17.0
 40
17.0
 40
17.0
 40
18.0
 40
18.0
 40
18.0
 40
19.0
 40
19.0
 40
19.0
 40
20.0
 40
20.0
 40
20.0
 40
21.0
 40
21.0
 40
21.0
 40
22.0
 40
22.0
 40
22.0
 40
23.0
 40
23.0
 40
23.0
 40
24.0
 40
24.0
 40
24.0
 40
25.0
 40
25.0
 40
25.0
 40
26.0
 40
26.0
 40
26.0
 40
27.0
 40
27.0
 40
27.0
 40
28.0
 40
28.0
 40
28.0
 40
29.0
 40
29.0
 40
29.0
 40
30.0
 40
30.0
 40
30.0
 40
31.0
 40
31.0
 40
31.0
 40
32.0
 40
32.0
 40
32.0
 40
33.0
 40
33.0
 40
33.0
 40
34.0
 40
34.0
 40
34.0
 40
35.0
 40
35.0
 40
35.0
 40
36.0
 40
36.0
 40
36.0
 40
37.0
 40
37.0
 40
37.0
 40
38.0
 40
38.0
 40
38.0
 40
39.0
 40
39.0
 40
39.0
 40
40.0
 40
40.0
 40
40.0
 40
41.0
 40
41.0
 40
41.0
 40
42.0
 40
42.0
 40
42.0
 40
43.0
 40
43.0
 40
43.0
 40
44.0
 40
44.0
 40
44.0
 40
45.0
 40
45.0
 40
45.0
 40
46.0
 40
46.0
 40
46.0
 40
47.0
 40
47.0
 40
47.0
 40
48.0
 40
48.0
 40
48.0
 40
49.0
 40
49.0
 40
49.0
 40
50.0
 40
50.0
 40
50.0
 40
51.0
 40
51.0
 40
51.0
 40
52.0
 40
52.0
 40
52.0
 40
53.0
 40
53.0
 40
53.0
 40
54.0
 40
54.0
 40
54.0
 40
55.0
 40
55.0
 40
55.0
 40
56.0
 40
56.0
 40
56.0
 40
57.0
 40
57.0
 40
57.0
 40
58.0
 40
58.0
 40
58.0
 40
59.0
 40
59.0
 40
59.0
 40
60.0
 40
60.0
 40
60.0
 40
61.0
 40
61.0
 40
61.0
 40
62.0
 40
62.0
 40
62.0
 40
63.0
 40
63.0
 40
63.0
 40
64.0
 40
64.0
 40
64.0
 40
65.0
 40
65.0
 40
65.0
 40
66.0
 40
66.0
 40
66.0
 40
66.0
 10
72.0962022389204
 20
-131.8506944114818
 10
72.0962022389204
 20
-131.8506944114818
 10
71.5377522607614
 20
-131.8506944114818
 10
71.5377522607614
 20
-131.8506944114818
 10
71.52707246475713
 20
-131.8951361432415
 10
71.51863198081826
 20
-131.9268310217058
 10
71.50588512752283
 20
-131.9647270720436
 10
71.53137883411368
 20
-131.9647270720436
 10
71.54619274470026
 20
-131.9671386388832
 10
71.55256617134798
 20
-131.9671386388832
 10
71.55256617134798
 20
-131.9671386388832
 10
71.74084063961688
 20
-131.9671386388832
 10
71.74084063961688
 20
-131.9671386388832
 10
71.74084063961688
 20
-131.9671386388832
 10
72.11515026408927
 20
-131.9671386388832
 10
72.11515026408927
 20
-131.9671386388832
 10
72.16596542249671
 20
-131.9671386388832
 10
72.44949678093276
 20
-131.9543917855878
 10
72.48119165939707
 20
-131.9543917855878
 10
72.47912460210591
 20
-131.9816080399213
 10
72.4768852900405
 20
-132.0009005746387
 10
72.4768852900405
 20
-132.0305283958118
 10
72.47481823274936
 20
-132.0622232742761
 10
72.47481823274936
 20
-132.1976155268464
 10
72.47481823274936
 20
-132.2251762907284
 10
72.47481823274936
 20
-132.2251762907284
 10
72.47481823274936
 20
-132.4704670892782
 10
72.47481823274936
 20
-132.4704670892782
 10
72.47481823274936
 20
-132.5149088210379
 10
72.47912460210591
 20
-132.7116237732457
 10
72.48325871668821
 20
-132.8638969936937
 10
72.48325871668821
 20
-132.8638969936937
 10
72.2569159433073
 20
-132.8638969936937
 10
72.2569159433073
 20
-132.8638969936937
 10
72.2569159433073
 20
-132.8638969936937
 10
72.25915525537272
 20
-132.8301350579383
 10
72.25915525537272
 20
-132.8301350579383
 10
72.25915525537272
 20
-132.8301350579383
 10
71.55670028593028
 20
-132.8301350579383
 10
71.55670028593028
 20
-132.8301350579383
 10
71.55670028593028
 20
-132.8301350579383
 10
71.55876734322142
 20
-132.8638969936937
 10
71.55876734322142
 20
-132.8638969936937
 10
71.55876734322142
 20
-132.8638969936937
 10
71.34086505377937
 20
-132.8638969936937
 10
71.34086505377937
 20
-132.8638969936937
 10
71.34517142313594
 20
-132.8087754659298
 10
71.34517142313594
 20
-132.7963731221829
 10
71.35154484978365
 20
-132.6819959520726
 10
71.3536119070748
 20
-132.6544351881906
 10
71.35567896436595
 20
-132.5211099929114
 10
71.35567896436595
 20
-132.5021619677425
 10
71.35567896436595
 20
-132.5021619677425
 10
71.35567896436595
 20
-132.2992458436613
 10
71.35567896436595
 20
-132.2992458436613
 10
71.21615259721332
 20
-132.5486707567934
 10
71.04682615411329
 20
-132.6799288947814
 10
70.94106172271613
 20
-132.7453857090012
 10
70.94106172271613
 20
-132.7453857090012
 10
70.7676011650338
 20
-132.6058593418485
 10
70.7676011650338
 20
-132.6058593418485
 10
70.85648462855325
 20
-132.5552164382154
 10
71.00031736506243
 20
-132.4684000319871
 10
71.1377766749239
 20
-132.2737521370705
 10
71.22889945050875
 20
-132.1466281136647
 10
71.29435626472849
 20
-132.0029676319298
 10
71.32829045525821
 20
-131.8506944114818
 10
71.09970836981188
 20
-131.8527614687729
 10
70.91987438548183
 20
-131.8589626406464
 10
70.82478975008894
 20
-131.8610296979375
 10
70.82478975008894
 20
-131.8610296979375
 10
70.82478975008894
 20
-131.6836072804471
 10
70.82478975008894
 20
-131.6836072804471
 10
71.02150470229671
 20
-131.6898084523206
 10
71.30503606073277
 20
-131.6939425669029
 10
71.45524222388967
 20
-131.6939425669029
 10
71.45524222388967
 20
-131.6939425669029
 10
71.66883814397515
 20
-131.6939425669029
 10
71.66883814397515
 20
-131.6939425669029
 10
71.66883814397515
 20
-131.6939425669029
 10
71.66883814397515
 20
-131.5861110782146
 10
71.66883814397515
 20
-131.5861110782146
 10
71.66883814397515
 20
-131.5861110782146
 10
71.52293835017483
 20
-131.5861110782146
 10
71.52293835017483
 20
-131.5861110782146
 10
71.3536119070748
 20
-131.5861110782146
 10
71.18445771874903
 20
-131.5902451927969
 10
71.01719833294015
 20
-131.5967908742189
 10
71.01719833294015
 20
-131.5967908742189
 10
71.01719833294015
 20
-131.4255696286019
 10
71.01719833294015
 20
-131.4255696286019
 10
71.1717108654536
 20
-131.4359049150577
 10
71.35791827643136
 20
-131.4359049150577
 10
71.52293835017483
 20
-131.4359049150577
 10
71.52293835017483
 20
-131.4359049150577
 10
71.66883814397515
 20
-131.4359049150577
 10
71.66883814397515
 20
-131.4359049150577
 10
71.66883814397515
 20
-131.4359049150577
 10
71.66883814397515
 20
-131.3173936303651
 10
71.66883814397515
 20
-131.3173936303651
 10
71.66883814397515
 20
-131.3173936303651
 10
71.5377522607614
 20
-131.3173936303651
 10
71.5377522607614
 20
-131.3173936303651
 10
71.49107121693626
 20
-131.3173936303651
 10
71.28798283808078
 20
-131.3260063690782
 10
71.24578041838647
 20
-131.3260063690782
 10
71.04269203953099
 20
-131.3301404836605
 10
70.96655542930698
 20
-131.3322075409517
 10
70.88817950701754
 20
-131.3342745982428
 10
70.88817950701754
 20
-131.3342745982428
 10
70.88817950701754
 20
-131.1503064993305
 10
70.88817950701754
 20
-131.1503064993305
 10
71.00238442235357
 20
-131.1589192380436
 10
71.04682615411329
 20
-131.1589192380436
 10
71.42974851729882
 20
-131.1671874672082
 10
71.36635876037022
 20
-131.0721028318153
 10
71.33879799648822
 20
-131.0445420679333
 10
71.30279674866736
 20
-131.0087130748867
 10
71.30279674866736
 20
-131.0087130748867
 10
71.47849661841511
 20
-130.9260307832407
 10
71.47849661841511
 20
-130.9260307832407
 10
71.51863198081826
 20
-130.9622042858358
 10
71.56307371257799
 20
-131.0045789603044
 10
71.63714326551086
 20
-131.1144775062839
 10
71.63714326551086
 20
-131.1144775062839
 10
71.52293835017483
 20
-131.1692545244994
 10
71.52293835017483
 20
-131.1692545244994
 10
71.52293835017483
 20
-131.1692545244994
 10
71.53344589140484
 20
-131.1692545244994
 10
71.53344589140484
 20
-131.1692545244994
 10
71.53344589140484
 20
-131.1692545244994
 10
72.05589462174298
 20
-131.1692545244994
 10
72.05589462174298
 20
-131.1692545244994
 10
72.05589462174298
 20
-131.1692545244994
 10
71.96080998635009
 20
-131.1251573022882
 10
71.96080998635009
 20
-131.1251573022882
 10
71.98837075023208
 20
-131.0869167424019
 10
72.04538708051297
 20
-131.0066460175956
 10
72.06020099109953
 20
-130.9325764646627
 10
72.06020099109953
 20
-130.9325764646627
 10
72.27379691118503
 20
-130.9959662215913
 10
72.27379691118503
 20
-130.9959662215913
 10
72.28240964989816
 20
-130.9980332788824
 10
72.30342473235818
 20
-131.0087130748867
 10
72.30342473235818
 20
-131.0297281573467
 10
72.30342473235818
 20
-131.067968717233
 10
72.23796791813842
 20
-131.067968717233
 10
72.21884763819529
 20
-131.067968717233
 10
72.20834009696527
 20
-131.0869167424019
 10
72.18508570243985
 20
-131.1272243595793
 10
72.1554578812667
 20
-131.1671874672082
 10
72.55526121232994
 20
-131.1609862953348
 10
72.58488903350309
 20
-131.1589192380436
 10
72.66102564372711
 20
-131.1523735566216
 10
72.66102564372711
 20
-131.1523735566216
 10
72.66102564372711
 20
-131.3342745982428
 10
72.66102564372711
 20
-131.3342745982428
 10
72.64190536378398
 20
-131.3342745982428
 10
72.61658391196738
 20
-131.3322075409517
 10
72.39661456523419
 20
-131.3239393117871
 10
72.34579940682674
 20
-131.3218722544959
 10
72.12583006009355
 20
-131.3173936303651
 10
72.08138832833383
 20
-131.3173936303651
 10
72.08138832833383
 20
-131.3173936303651
 10
71.86555309618292
 20
-131.3173936303651
 10
71.86555309618292
 20
-131.3173936303651
 10
71.86555309618292
 20
-131.3173936303651
 10
71.86555309618292
 20
-131.4359049150577
 10
71.86555309618292
 20
-131.4359049150577
 10
71.86555309618292
 20
-131.4359049150577
 10
72.03901365386525
 20
-131.4359049150577
 10
72.03901365386525
 20
-131.4359049150577
 10
72.20196667031756
 20
-131.4359049150577
 10
72.39230819587762
 20
-131.4359049150577
 10
72.54888778568223
 20
-131.4255696286019
 10
72.54888778568223
 20
-131.4255696286019
 10
72.54888778568223
 20
-131.5967908742189
 10
72.54888778568223
 20
-131.5967908742189
 10
72.33942598017903
 20
-131.5881781355057
 10
72.14271102797127
 20
-131.5861110782146
 10
72.03901365386525
 20
-131.5861110782146
 10
72.03901365386525
 20
-131.5861110782146
 10
71.86555309618292
 20
-131.5861110782146
 10
71.86555309618292
 20
-131.5861110782146
 10
71.86555309618292
 20
-131.5861110782146
 10
71.86555309618292
 20
-131.6939425669029
 10
71.86555309618292
 20
-131.6939425669029
 10
71.86555309618292
 20
-131.6939425669029
 10
72.0962022389204
 20
-131.6939425669029
 10
72.0962022389204
 20
-131.6939425669029
 10
72.22952743419957
 20
-131.6939425669029
 10
72.51719290721793
 20
-131.6898084523206
 10
72.72665471272111
 20
-131.6836072804471
 10
72.72665471272111
 20
-131.6836072804471
 10
72.72665471272111
 20
-131.8610296979375
 10
72.72665471272111
 20
-131.8610296979375
 10
72.53407387509566
 20
-131.8548285260641
 10
72.22091469548644
 20
-131.8506944114818
 10
72.0962022389204
 20
-131.8506944114818
 97
        0
 97
        0
 92
        1
 93
        4
 72
     1
 10
72.26122231266386
 20
-132.1066650060358
 11
71.55463322863912
 21
-132.1066650060358
 72
     1
 10
71.55463322863912
 20
-132.1066650060358
 11
71.55463322863912
 21
-132.2144964947242
 72
     1
 10
71.55463322863912
 20
-132.2144964947242
 11
72.26122231266386
 21
-132.2144964947242
 72
     1
 10
72.26122231266386
 20
-132.2144964947242
 11
72.26122231266386
 21
-132.1066650060358
 97
        0
 92
        1
 93
        4
 72
     1
 10
72.26122231266386
 20
-132.3392089512902
 11
71.55463322863912
 21
-132.3392089512902
 72
     1
 10
71.55463322863912
 20
-132.3392089512902
 11
71.55463322863912
 21
-132.4535861214005
 72
     1
 10
71.55463322863912
 20
-132.4535861214005
 11
72.26122231266386
 21
-132.4535861214005
 72
     1
 10
72.26122231266386
 20
-132.4535861214005
 11
72.26122231266386
 21
-132.3392089512902
 97
        0
 92
        1
 93
        4
 72
     1
 10
72.26122231266386
 20
-132.5824326925488
 11
71.55463322863912
 21
-132.5824326925488
 72
     1
 10
71.55463322863912
 20
-132.5824326925488
 11
71.55463322863912
 21
-132.6968098626591
 72
     1
 10
71.55463322863912
 20
-132.6968098626591
 11
72.26122231266386
 21
-132.6968098626591
 72
     1
 10
72.26122231266386
 20
-132.6968098626591
 11
72.26122231266386
 21
-132.5824326925488
 97
        0
 75
     2
 76
     1
 98
        0
  0
SPLINE
  5
208
330
1E9
100
AcDbEntity
  8
_U+30EC_U+30A4_U+30E4_U+30FC 1
370
     0
100
AcDbSpline
210
0.0
220
0.0
230
1.0
 70
    11
 71
     3
 72
    47
 73
    43
 74
     0
 42
0.0000000001
 43
0.0000000001
 12
1.0
 22
0.0
 32
0.0
 13
1.0
 23
0.0
 33
0.0
 40
0.0
 40
0.0
 40
0.0
 40
0.0
 40
1.0
 40
1.0
 40
1.0
 40
2.0
 40
2.0
 40
2.0
 40
3.0
 40
3.0
 40
3.0
 40
4.0
 40
4.0
 40
4.0
 40
5.0
 40
5.0
 40
5.0
 40
6.0
 40
6.0
 40
6.0
 40
7.0
 40
7.0
 40
7.0
 40
8.0
 40
8.0
 40
8.0
 40
9.0
 40
9.0
 40
9.0
 40
10.0
 40
10.0
 40
10.0
 40
11.0
 40
11.0
 40
11.0
 40
12.0
 40
12.0
 40
12.0
 40
13.0
 40
13.0
 40
13.0
 40
14.0
 40
14.0
 40
14.0
 40
14.0
 10
74.07317028313102
 20
-131.8272677621821
 30
0.0
 10
74.07317028313102
 20
-131.8272677621821
 30
0.0
 10
73.97171222109041
 20
-131.8272677621821
 30
0.0
 10
73.97171222109041
 20
-131.8272677621821
 30
0.0
 10
73.97171222109041
 20
-131.9140841684104
 30
0.0
 10
73.95052488385612
 20
-132.3033799582436
 30
0.0
 10
73.75380993164836
 20
-132.5231770502025
 30
0.0
 10
73.60136445642605
 20
-132.6926757480768
 30
0.0
 10
73.39414196298827
 20
-132.7622666768789
 30
0.0
 10
73.30956486882539
 20
-132.7898274407609
 30
0.0
 10
73.30956486882539
 20
-132.7898274407609
 30
0.0
 10
73.11491697390878
 20
-132.6227403097263
 30
0.0
 10
73.11491697390878
 20
-132.6227403097263
 30
0.0
 10
73.21224092136708
 20
-132.6099934564308
 30
0.0
 10
73.38776853634056
 20
-132.5869113166797
 30
0.0
 10
73.57604300460946
 20
-132.3984645936365
 30
0.0
 10
73.65011255754234
 20
-132.3264620979948
 30
0.0
 10
73.75380993164836
 20
-132.1869357308422
 30
0.0
 10
73.75380993164836
 20
-131.8272677621821
 30
0.0
 10
73.75380993164836
 20
-131.8272677621821
 30
0.0
 10
73.52316078891089
 20
-131.8272677621821
 30
0.0
 10
73.52316078891089
 20
-131.8272677621821
 30
0.0
 10
73.33695337793313
 20
-131.8272677621821
 30
0.0
 10
73.15074596695537
 20
-131.8317463863129
 30
0.0
 10
72.96471081075188
 20
-131.8465602968995
 30
0.0
 10
72.96471081075188
 20
-131.8465602968995
 30
0.0
 10
72.96471081075188
 20
-131.626418695392
 30
0.0
 10
72.96471081075188
 20
-131.626418695392
 30
0.0
 10
73.15298527902078
 20
-131.6412326059786
 30
0.0
 10
73.43858369474799
 20
-131.6453667205609
 30
0.0
 10
73.52316078891089
 20
-131.6453667205609
 30
0.0
 10
73.52316078891089
 20
-131.6453667205609
 30
0.0
 10
74.07317028313102
 20
-131.6453667205609
 30
0.0
 10
74.07317028313102
 20
-131.6453667205609
 30
0.0
 10
74.09229056307416
 20
-131.6453667205609
 30
0.0
 10
74.40958385726566
 20
-131.6453667205609
 30
0.0
 10
74.63799368793772
 20
-131.626418695392
 30
0.0
 10
74.63799368793772
 20
-131.626418695392
 30
0.0
 10
74.63799368793772
 20
-131.8465602968995
 30
0.0
 10
74.63799368793772
 20
-131.8465602968995
 30
0.0
 10
74.44971921966882
 20
-131.8317463863129
 30
0.0
 10
74.26144475139992
 20
-131.8272677621821
 30
0.0
 10
74.07317028313102
 20
-131.8272677621821
 30
0.0
  0
SPLINE
  5
209
330
1E9
100
AcDbEntity
  8
_U+30EC_U+30A4_U+30E4_U+30FC 1
370
     0
100
AcDbSpline
210
0.0
220
0.0
230
1.0
 70
    11
 71
     3
 72
    29
 73
    25
 74
     0
 42
0.0000000001
 43
0.0000000001
 12
1.0
 22
0.0
 32
0.0
 13
1.0
 23
0.0
 33
0.0
 40
0.0
 40
0.0
 40
0.0
 40
0.0
 40
1.0
 40
1.0
 40
1.0
 40
2.0
 40
2.0
 40
2.0
 40
3.0
 40
3.0
 40
3.0
 40
4.0
 40
4.0
 40
4.0
 40
5.0
 40
5.0
 40
5.0
 40
6.0
 40
6.0
 40
6.0
 40
7.0
 40
7.0
 40
7.0
 40
8.0
 40
8.0
 40
8.0
 40
8.0
 10
73.97171222109041
 20
-131.2984456051962
 30
0.0
 10
73.97171222109041
 20
-131.2984456051962
 30
0.0
 10
73.61841767907804
 20
-131.2984456051962
 30
0.0
 10
73.61841767907804
 20
-131.2984456051962
 30
0.0
 10
73.50627982103316
 20
-131.2984456051962
 30
0.0
 10
73.36658119910628
 20
-131.3049912866182
 30
0.0
 10
73.25874971041796
 20
-131.3173936303651
 30
0.0
 10
73.25874971041796
 20
-131.3173936303651
 30
0.0
 10
73.25874971041796
 20
-131.0827826278196
 30
0.0
 10
73.25874971041796
 20
-131.0827826278196
 30
0.0
 10
73.37726099511055
 20
-131.0975965384062
 30
0.0
 10
73.56122909402289
 20
-131.1017306529885
 30
0.0
 10
73.61841767907804
 20
-131.1017306529885
 30
0.0
 10
73.61841767907804
 20
-131.1017306529885
 30
0.0
 10
73.97171222109041
 20
-131.1017306529885
 30
0.0
 10
73.97171222109041
 20
-131.1017306529885
 30
0.0
 10
73.99066024625928
 20
-131.1017306529885
 30
0.0
 10
74.19374862511476
 20
-131.1017306529885
 30
0.0
 10
74.33551430433279
 20
-131.0827826278196
 30
0.0
 10
74.33551430433279
 20
-131.0827826278196
 30
0.0
 10
74.33551430433279
 20
-131.3173936303651
 30
0.0
 10
74.33551430433279
 20
-131.3173936303651
 30
0.0
 10
74.17893471452818
 20
-131.2984456051962
 30
0.0
 10
73.98859318896814
 20
-131.2984456051962
 30
0.0
 10
73.97171222109041
 20
-131.2984456051962
 30
0.0
  0
HATCH
  5
20A
330
1E9
100
AcDbEntity
  8
_U+30EC_U+30A4_U+30E4_U+30FC 1
 62
     7
420
 16777215
100
AcDbHatch
 10
0.0
 20
0.0
 30
0.0
210
0.0
220
0.0
230
1.0
  2
SOLID
 70
     1
 71
     0
 91
        2
 92
        1
 93
        1
 72
     4
 94
        3
 73
     0
 74
     1
 95
       47
 96
       43
 40
0.0
 40
0.0
 40
0.0
 40
0.0
 40
1.0
 40
1.0
 40
1.0
 40
2.0
 40
2.0
 40
2.0
 40
3.0
 40
3.0
 40
3.0
 40
4.0
 40
4.0
 40
4.0
 40
5.0
 40
5.0
 40
5.0
 40
6.0
 40
6.0
 40
6.0
 40
7.0
 40
7.0
 40
7.0
 40
8.0
 40
8.0
 40
8.0
 40
9.0
 40
9.0
 40
9.0
 40
10.0
 40
10.0
 40
10.0
 40
11.0
 40
11.0
 40
11.0
 40
12.0
 40
12.0
 40
12.0
 40
13.0
 40
13.0
 40
13.0
 40
14.0
 40
14.0
 40
14.0
 40
14.0
 10
74.07317028313102
 20
-131.8272677621821
 10
74.07317028313102
 20
-131.8272677621821
 10
73.97171222109041
 20
-131.8272677621821
 10
73.97171222109041
 20
-131.8272677621821
 10
73.97171222109041
 20
-131.9140841684104
 10
73.95052488385612
 20
-132.3033799582436
 10
73.75380993164836
 20
-132.5231770502025
 10
73.60136445642605
 20
-132.6926757480768
 10
73.39414196298827
 20
-132.7622666768789
 10
73.30956486882539
 20
-132.7898274407609
 10
73.30956486882539
 20
-132.7898274407609
 10
73.11491697390878
 20
-132.6227403097263
 10
73.11491697390878
 20
-132.6227403097263
 10
73.21224092136708
 20
-132.6099934564308
 10
73.38776853634056
 20
-132.5869113166797
 10
73.57604300460946
 20
-132.3984645936365
 10
73.65011255754234
 20
-132.3264620979948
 10
73.75380993164836
 20
-132.1869357308422
 10
73.75380993164836
 20
-131.8272677621821
 10
73.75380993164836
 20
-131.8272677621821
 10
73.52316078891089
 20
-131.8272677621821
 10
73.52316078891089
 20
-131.8272677621821
 10
73.33695337793313
 20
-131.8272677621821
 10
73.15074596695537
 20
-131.8317463863129
 10
72.96471081075188
 20
-131.8465602968995
 10
72.96471081075188
 20
-131.8465602968995
 10
72.96471081075188
 20
-131.626418695392
 10
72.96471081075188
 20
-131.626418695392
 10
73.15298527902078
 20
-131.6412326059786
 10
73.43858369474799
 20
-131.6453667205609
 10
73.52316078891089
 20
-131.6453667205609
 10
73.52316078891089
 20
-131.6453667205609
 10
74.07317028313102
 20
-131.6453667205609
 10
74.07317028313102
 20
-131.6453667205609
 10
74.09229056307416
 20
-131.6453667205609
 10
74.40958385726566
 20
-131.6453667205609
 10
74.63799368793772
 20
-131.626418695392
 10
74.63799368793772
 20
-131.626418695392
 10
74.63799368793772
 20
-131.8465602968995
 10
74.63799368793772
 20
-131.8465602968995
 10
74.44971921966882
 20
-131.8317463863129
 10
74.26144475139992
 20
-131.8272677621821
 10
74.07317028313102
 20
-131.8272677621821
 97
        0
 97
        0
 92
        1
 93
        1
 72
     4
 94
        3
 73
     0
 74
     1
 95
       29
 96
       25
 40
0.0
 40
0.0
 40
0.0
 40
0.0
 40
1.0
 40
1.0
 40
1.0
 40
2.0
 40
2.0
 40
2.0
 40
3.0
 40
3.0
 40
3.0
 40
4.0
 40
4.0
 40
4.0
 40
5.0
 40
5.0
 40
5.0
 40
6.0
 40
6.0
 40
6.0
 40
7.0
 40
7.0
 40
7.0
 40
8.0
 40
8.0
 40
8.0
 40
8.0
 10
73.97171222109041
 20
-131.2984456051962
 10
73.97171222109041
 20
-131.2984456051962
 10
73.61841767907804
 20
-131.2984456051962
 10
73.61841767907804
 20
-131.2984456051962
 10
73.50627982103316
 20
-131.2984456051962
 10
73.36658119910628
 20
-131.3049912866182
 10
73.25874971041796
 20
-131.3173936303651
 10
73.25874971041796
 20
-131.3173936303651
 10
73.25874971041796
 20
-131.0827826278196
 10
73.25874971041796
 20
-131.0827826278196
 10
73.37726099511055
 20
-131.0975965384062
 10
73.56122909402289
 20
-131.1017306529885
 10
73.61841767907804
 20
-131.1017306529885
 10
73.61841767907804
 20
-131.1017306529885
 10
73.97171222109041
 20
-131.1017306529885
 10
73.97171222109041
 20
-131.1017306529885
 10
73.99066024625928
 20
-131.1017306529885
 10
74.19374862511476
 20
-131.1017306529885
 10
74.33551430433279
 20
-131.0827826278196
 10
74.33551430433279
 20
-131.0827826278196
 10
74.33551430433279
 20
-131.3173936303651
 10
74.33551430433279
 20
-131.3173936303651
 10
74.17893471452818
 20
-131.2984456051962
 10
73.98859318896814
 20
-131.2984456051962
 10
73.97171222109041
 20
-131.2984456051962
 97
        0
 97
        0
 75
     2
 76
     1
 98
        0
  0
SPLINE
  5
20B
330
1E9
100
AcDbEntity
  8
_U+30EC_U+30A4_U+30E4_U+30FC 1
370
     0
100
AcDbSpline
210
0.0
220
0.0
230
1.0
 70
    11
 71
     3
 72
    29
 73
    25
 74
     0
 42
0.0000000001
 43
0.0000000001
 12
1.0
 22
0.0
 32
0.0
 13
1.0
 23
0.0
 33
0.0
 40
0.0
 40
0.0
 40
0.0
 40
0.0
 40
1.0
 40
1.0
 40
1.0
 40
2.0
 40
2.0
 40
2.0
 40
3.0
 40
3.0
 40
3.0
 40
4.0
 40
4.0
 40
4.0
 40
5.0
 40
5.0
 40
5.0
 40
6.0
 40
6.0
 40
6.0
 40
7.0
 40
7.0
 40
7.0
 40
8.0
 40
8.0
 40
8.0
 40
8.0
 10
75.91888018935362
 20
-131.9902207786344
 30
0.0
 10
75.91888018935362
 20
-131.9902207786344
 30
0.0
 10
75.4344997641275
 20
-131.9902207786344
 30
0.0
 10
75.4344997641275
 20
-131.9902207786344
 30
0.0
 10
75.40693900024549
 20
-131.9902207786344
 30
0.0
 10
75.08964570605399
 20
-131.9902207786344
 30
0.0
 10
74.87811684325965
 20
-132.0157144852252
 30
0.0
 10
74.87811684325965
 20
-132.0157144852252
 30
0.0
 10
74.87811684325965
 20
-131.7848930877135
 30
0.0
 10
74.87811684325965
 20
-131.7848930877135
 30
0.0
 10
75.0367634903554
 20
-131.8083197370132
 30
0.0
 10
75.22710501591546
 20
-131.8103867943043
 30
0.0
 10
75.4344997641275
 20
-131.8103867943043
 30
0.0
 10
75.4344997641275
 20
-131.8103867943043
 30
0.0
 10
75.91888018935362
 20
-131.8103867943043
 30
0.0
 10
75.91888018935362
 20
-131.8103867943043
 30
0.0
 10
76.10508760033137
 20
-131.8103867943043
 30
0.0
 10
76.29129501130913
 20
-131.8083197370132
 30
0.0
 10
76.47526311022146
 20
-131.7848930877135
 30
0.0
 10
76.47526311022146
 20
-131.7848930877135
 30
0.0
 10
76.47526311022146
 20
-132.0157144852252
 30
0.0
 10
76.47526311022146
 20
-132.0157144852252
 30
0.0
 10
76.29129501130913
 20
-131.9922878359255
 30
0.0
 10
76.04376490069393
 20
-131.9902207786344
 30
0.0
 10
75.91888018935362
 20
-131.9902207786344
 30
0.0
  0
HATCH
  5
20C
330
1E9
100
AcDbEntity
  8
_U+30EC_U+30A4_U+30E4_U+30FC 1
 62
     7
420
 16777215
100
AcDbHatch
 10
0.0
 20
0.0
 30
0.0
210
0.0
220
0.0
230
1.0
  2
SOLID
 70
     1
 71
     0
 91
        1
 92
        1
 93
        1
 72
     4
 94
        3
 73
     0
 74
     1
 95
       29
 96
       25
 40
0.0
 40
0.0
 40
0.0
 40
0.0
 40
1.0
 40
1.0
 40
1.0
 40
2.0
 40
2.0
 40
2.0
 40
3.0
 40
3.0
 40
3.0
 40
4.0
 40
4.0
 40
4.0
 40
5.0
 40
5.0
 40
5.0
 40
6.0
 40
6.0
 40
6.0
 40
7.0
 40
7.0
 40
7.0
 40
8.0
 40
8.0
 40
8.0
 40
8.0
 10
75.91888018935362
 20
-131.9902207786344
 10
75.91888018935362
 20
-131.9902207786344
 10
75.4344997641275
 20
-131.9902207786344
 10
75.4344997641275
 20
-131.9902207786344
 10
75.40693900024549
 20
-131.9902207786344
 10
75.08964570605399
 20
-131.9902207786344
 10
74.87811684325965
 20
-132.0157144852252
 10
74.87811684325965
 20
-132.0157144852252
 10
74.87811684325965
 20
-131.7848930877135
 10
74.87811684325965
 20
-131.7848930877135
 10
75.0367634903554
 20
-131.8083197370132
 10
75.22710501591546
 20
-131.8103867943043
 10
75.4344997641275
 20
-131.8103867943043
 10
75.4344997641275
 20
-131.8103867943043
 10
75.91888018935362
 20
-131.8103867943043
 10
75.91888018935362
 20
-131.8103867943043
 10
76.10508760033137
 20
-131.8103867943043
 10
76.29129501130913
 20
-131.8083197370132
 10
76.47526311022146
 20
-131.7848930877135
 10
76.47526311022146
 20
-131.7848930877135
 10
76.47526311022146
 20
-132.0157144852252
 10
76.47526311022146
 20
-132.0157144852252
 10
76.29129501130913
 20
-131.9922878359255
 10
76.04376490069393
 20
-131.9902207786344
 10
75.91888018935362
 20
-131.9902207786344
 97
        0
 97
        0
 75
     2
 76
     1
 98
        0
  0
SPLINE
  5
20D
330
1E9
100
AcDbEntity
  8
_U+30EC_U+30A4_U+30E4_U+30FC 1
370
     0
100
AcDbSpline
210
0.0
220
0.0
230
1.0
 70
    11
 71
     3
 72
    47
 73
    43
 74
     0
 42
0.0000000001
 43
0.0000000001
 12
1.0
 22
0.0
 32
0.0
 13
1.0
 23
0.0
 33
0.0
 40
0.0
 40
0.0
 40
0.0
 40
0.0
 40
1.0
 40
1.0
 40
1.0
 40
2.0
 40
2.0
 40
2.0
 40
3.0
 40
3.0
 40
3.0
 40
4.0
 40
4.0
 40
4.0
 40
5.0
 40
5.0
 40
5.0
 40
6.0
 40
6.0
 40
6.0
 40
7.0
 40
7.0
 40
7.0
 40
8.0
 40
8.0
 40
8.0
 40
9.0
 40
9.0
 40
9.0
 40
10.0
 40
10.0
 40
10.0
 40
11.0
 40
11.0
 40
11.0
 40
12.0
 40
12.0
 40
12.0
 40
13.0
 40
13.0
 40
13.0
 40
14.0
 40
14.0
 40
14.0
 40
14.0
 10
78.13907197482287
 20
-131.3959418074288
 30
0.0
 10
78.06930879124657
 20
-131.674994541734
 30
0.0
 10
77.99317218102254
 20
-131.9795409826301
 30
0.0
 10
77.68001300141333
 20
-132.3116481874082
 30
0.0
 10
77.44316268680241
 20
-132.5614176100888
 30
0.0
 10
77.19769963347835
 20
-132.6609808696125
 30
0.0
 10
77.09193520208119
 20
-132.7030110345326
 30
0.0
 10
77.09193520208119
 20
-132.7030110345326
 30
0.0
 10
76.89728730716458
 20
-132.5211099929114
 30
0.0
 10
76.89728730716458
 20
-132.5211099929114
 30
0.0
 10
77.08349471814232
 20
-132.4746012038605
 30
0.0
 10
77.44522974409355
 20
-132.3815836257588
 30
0.0
 10
77.74133570105079
 20
-131.8865234045284
 30
0.0
 10
77.90222166021195
 20
-131.6198730139701
 30
0.0
 10
77.9147962587331
 20
-131.446584711062
 30
0.0
 10
77.92340899744623
 20
-131.3556341902514
 30
0.0
 10
77.92340899744623
 20
-131.3556341902514
 30
0.0
 10
77.41766898021156
 20
-131.3556341902514
 30
0.0
 10
77.41766898021156
 20
-131.3556341902514
 30
0.0
 10
77.29932995029323
 20
-131.3556341902514
 30
0.0
 10
76.8783392819957
 20
-131.3745822154202
 30
0.0
 10
76.72589380677339
 20
-131.3852620114245
 30
0.0
 10
76.72589380677339
 20
-131.3852620114245
 30
0.0
 10
76.72589380677339
 20
-131.1758002059213
 30
0.0
 10
76.72589380677339
 20
-131.1758002059213
 30
0.0
 10
76.86765948599142
 20
-131.1885470592167
 30
0.0
 10
77.14481741777978
 20
-131.1926811737991
 30
0.0
 10
77.26126164518122
 20
-131.1926811737991
 30
0.0
 10
77.26126164518122
 20
-131.1926811737991
 30
0.0
 10
77.61662324448474
 20
-131.1926811737991
 30
0.0
 10
77.61662324448474
 20
-131.1926811737991
 30
0.0
 10
77.64401175359248
 20
-131.1926811737991
 30
0.0
 10
77.80489771275364
 20
-131.1906141165079
 30
0.0
 10
77.9147962587331
 20
-131.1758002059213
 30
0.0
 10
77.97198484378826
 20
-131.1692545244994
 30
0.0
 10
77.98886581166599
 20
-131.1503064993305
 30
0.0
 10
78.01212020619141
 20
-131.1272243595793
 30
0.0
 10
78.01212020619141
 20
-131.1272243595793
 30
0.0
 10
78.20039467446033
 20
-131.2774305227362
 30
0.0
 10
78.20039467446033
 20
-131.2774305227362
 30
0.0
 10
78.18558076387374
 20
-131.3070583439093
 30
0.0
 10
78.17507322264373
 20
-131.3260063690782
 30
0.0
 10
78.13907197482287
 20
-131.3959418074288
 30
0.0
  0
HATCH
  5
20E
330
1E9
100
AcDbEntity
  8
_U+30EC_U+30A4_U+30E4_U+30FC 1
 62
     7
420
 16777215
100
AcDbHatch
 10
0.0
 20
0.0
 30
0.0
210
0.0
220
0.0
230
1.0
  2
SOLID
 70
     1
 71
     0
 91
        1
 92
        1
 93
        1
 72
     4
 94
        3
 73
     0
 74
     1
 95
       47
 96
       43
 40
0.0
 40
0.0
 40
0.0
 40
0.0
 40
1.0
 40
1.0
 40
1.0
 40
2.0
 40
2.0
 40
2.0
 40
3.0
 40
3.0
 40
3.0
 40
4.0
 40
4.0
 40
4.0
 40
5.0
 40
5.0
 40
5.0
 40
6.0
 40
6.0
 40
6.0
 40
7.0
 40
7.0
 40
7.0
 40
8.0
 40
8.0
 40
8.0
 40
9.0
 40
9.0
 40
9.0
 40
10.0
 40
10.0
 40
10.0
 40
11.0
 40
11.0
 40
11.0
 40
12.0
 40
12.0
 40
12.0
 40
13.0
 40
13.0
 40
13.0
 40
14.0
 40
14.0
 40
14.0
 40
14.0
 10
78.13907197482287
 20
-131.3959418074288
 10
78.06930879124657
 20
-131.674994541734
 10
77.99317218102254
 20
-131.9795409826301
 10
77.68001300141333
 20
-132.3116481874082
 10
77.44316268680241
 20
-132.5614176100888
 10
77.19769963347835
 20
-132.6609808696125
 10
77.09193520208119
 20
-132.7030110345326
 10
77.09193520208119
 20
-132.7030110345326
 10
76.89728730716458
 20
-132.5211099929114
 10
76.89728730716458
 20
-132.5211099929114
 10
77.08349471814232
 20
-132.4746012038605
 10
77.44522974409355
 20
-132.3815836257588
 10
77.74133570105079
 20
-131.8865234045284
 10
77.90222166021195
 20
-131.6198730139701
 10
77.9147962587331
 20
-131.446584711062
 10
77.92340899744623
 20
-131.3556341902514
 10
77.92340899744623
 20
-131.3556341902514
 10
77.41766898021156
 20
-131.3556341902514
 10
77.41766898021156
 20
-131.3556341902514
 10
77.29932995029323
 20
-131.3556341902514
 10
76.8783392819957
 20
-131.3745822154202
 10
76.72589380677339
 20
-131.3852620114245
 10
76.72589380677339
 20
-131.3852620114245
 10
76.72589380677339
 20
-131.1758002059213
 10
76.72589380677339
 20
-131.1758002059213
 10
76.86765948599142
 20
-131.1885470592167
 10
77.14481741777978
 20
-131.1926811737991
 10
77.26126164518122
 20
-131.1926811737991
 10
77.26126164518122
 20
-131.1926811737991
 10
77.61662324448474
 20
-131.1926811737991
 10
77.61662324448474
 20
-131.1926811737991
 10
77.64401175359248
 20
-131.1926811737991
 10
77.80489771275364
 20
-131.1906141165079
 10
77.9147962587331
 20
-131.1758002059213
 10
77.97198484378826
 20
-131.1692545244994
 10
77.98886581166599
 20
-131.1503064993305
 10
78.01212020619141
 20
-131.1272243595793
 10
78.01212020619141
 20
-131.1272243595793
 10
78.20039467446033
 20
-131.2774305227362
 10
78.20039467446033
 20
-131.2774305227362
 10
78.18558076387374
 20
-131.3070583439093
 10
78.17507322264373
 20
-131.3260063690782
 10
78.13907197482287
 20
-131.3959418074288
 97
        0
 97
        0
 75
     2
 76
     1
 98
        0
  0
SPLINE
  5
20F
330
1E9
100
AcDbEntity
  8
_U+30EC_U+30A4_U+30E4_U+30FC 1
370
     0
100
AcDbSpline
210
0.0
220
0.0
230
1.0
 70
    11
 71
     3
 72
    17
 73
    13
 74
     0
 42
0.0000000001
 43
0.0000000001
 12
1.0
 22
0.0
 32
0.0
 13
1.0
 23
0.0
 33
0.0
 40
0.0
 40
0.0
 40
0.0
 40
0.0
 40
1.0
 40
1.0
 40
1.0
 40
2.0
 40
2.0
 40
2.0
 40
3.0
 40
3.0
 40
3.0
 40
4.0
 40
4.0
 40
4.0
 40
4.0
 10
78.84462753020205
 20
-131.1778672632125
 30
0.0
 10
78.84462753020205
 20
-131.2922444333228
 30
0.0
 10
78.75143769732604
 20
-131.3873290687157
 30
0.0
 10
78.63516572469885
 20
-131.3873290687157
 30
0.0
 10
78.52096080936282
 20
-131.3873290687157
 30
0.0
 10
78.42570391919566
 20
-131.2922444333228
 30
0.0
 10
78.42570391919566
 20
-131.1778672632125
 30
0.0
 10
78.42570391919566
 20
-131.061423035811
 30
0.0
 10
78.52096080936282
 20
-130.9684054577093
 30
0.0
 10
78.63516572469885
 20
-130.9684054577093
 30
0.0
 10
78.74937064003488
 20
-130.9684054577093
 30
0.0
 10
78.84462753020205
 20
-131.061423035811
 30
0.0
 10
78.84462753020205
 20
-131.1778672632125
 30
0.0
  0
SPLINE
  5
210
330
1E9
100
AcDbEntity
  8
_U+30EC_U+30A4_U+30E4_U+30FC 1
370
     0
100
AcDbSpline
210
0.0
220
0.0
230
1.0
 70
    11
 71
     3
 72
    17
 73
    13
 74
     0
 42
0.0000000001
 43
0.0000000001
 12
1.0
 22
0.0
 32
0.0
 13
1.0
 23
0.0
 33
0.0
 40
0.0
 40
0.0
 40
0.0
 40
0.0
 40
1.0
 40
1.0
 40
1.0
 40
2.0
 40
2.0
 40
2.0
 40
3.0
 40
3.0
 40
3.0
 40
4.0
 40
4.0
 40
4.0
 40
4.0
 10
78.52940129330167
 20
-131.1778672632125
 30
0.0
 10
78.52940129330167
 20
-131.2371229055588
 30
0.0
 10
78.57591008235255
 20
-131.2836316946097
 30
0.0
 10
78.63516572469885
 20
-131.2836316946097
 30
0.0
 10
78.69442136704515
 20
-131.2836316946097
 30
0.0
 10
78.74299721338717
 20
-131.2371229055588
 30
0.0
 10
78.74299721338717
 20
-131.1778672632125
 30
0.0
 10
78.74299721338717
 20
-131.1186116208662
 30
0.0
 10
78.69442136704515
 20
-131.0700357745242
 30
0.0
 10
78.63516572469885
 20
-131.0700357745242
 30
0.0
 10
78.57591008235255
 20
-131.0700357745242
 30
0.0
 10
78.52940129330167
 20
-131.1186116208662
 30
0.0
 10
78.52940129330167
 20
-131.1778672632125
 30
0.0
  0
HATCH
  5
211
330
1E9
100
AcDbEntity
  8
_U+30EC_U+30A4_U+30E4_U+30FC 1
 62
     7
420
 16777215
100
AcDbHatch
 10
0.0
 20
0.0
 30
0.0
210
0.0
220
0.0
230
1.0
  2
SOLID
 70
     1
 71
     0
 91
        2
 92
        1
 93
        1
 72
     4
 94
        3
 73
     0
 74
     1
 95
       17
 96
       13
 40
0.0
 40
0.0
 40
0.0
 40
0.0
 40
1.0
 40
1.0
 40
1.0
 40
2.0
 40
2.0
 40
2.0
 40
3.0
 40
3.0
 40
3.0
 40
4.0
 40
4.0
 40
4.0
 40
4.0
 10
78.84462753020205
 20
-131.1778672632125
 10
78.84462753020205
 20
-131.2922444333228
 10
78.75143769732604
 20
-131.3873290687157
 10
78.63516572469885
 20
-131.3873290687157
 10
78.52096080936282
 20
-131.3873290687157
 10
78.42570391919566
 20
-131.2922444333228
 10
78.42570391919566
 20
-131.1778672632125
 10
78.42570391919566
 20
-131.061423035811
 10
78.52096080936282
 20
-130.9684054577093
 10
78.63516572469885
 20
-130.9684054577093
 10
78.74937064003488
 20
-130.9684054577093
 10
78.84462753020205
 20
-131.061423035811
 10
78.84462753020205
 20
-131.1778672632125
 97
        0
 97
        0
 92
        1
 93
        1
 72
     4
 94
        3
 73
     0
 74
     1
 95
       17
 96
       13
 40
0.0
 40
0.0
 40
0.0
 40
0.0
 40
1.0
 40
1.0
 40
1.0
 40
2.0
 40
2.0
 40
2.0
 40
3.0
 40
3.0
 40
3.0
 40
4.0
 40
4.0
 40
4.0
 40
4.0
 10
78.52940129330167
 20
-131.1778672632125
 10
78.52940129330167
 20
-131.2371229055588
 10
78.57591008235255
 20
-131.2836316946097
 10
78.63516572469885
 20
-131.2836316946097
 10
78.69442136704515
 20
-131.2836316946097
 10
78.74299721338717
 20
-131.2371229055588
 10
78.74299721338717
 20
-131.1778672632125
 10
78.74299721338717
 20
-131.1186116208662
 10
78.69442136704515
 20
-131.0700357745242
 10
78.63516572469885
 20
-131.0700357745242
 10
78.57591008235255
 20
-131.0700357745242
 10
78.52940129330167
 20
-131.1186116208662
 10
78.52940129330167
 20
-131.1778672632125
 97
        0
 97
        0
 75
     2
 76
     1
 98
        0
  0
ENDBLK
  5
1EC
330
1E9
100
AcDbEntity
  8
0
100
AcDbBlockEnd
  0
ENDSEC
  0
SECTION
  2
ENTITIES
  0
INSERT
  5
42
330
1F
100
AcDbEntity
  8
_U+30EC_U+30A4_U+30E4_U+30FC 1
100
AcDbBlockReference
  2
block 2
 10
0.0
 20
0.0
 30
0.0
  0
POLYLINE
  5
82
330
1F
100
AcDbEntity
  8
_U+30EC_U+30A4_U+30E4_U+30FC 1
  6
AI-Linetype-1
 62
   154
420
    23468
370
    25
100
AcDb2dPolyline
 66
     1
 10
0.0
 20
0.0
 30
0.0
  0
VERTEX
  5
83
330
82
100
AcDbEntity
  8
_U+30EC_U+30A4_U+30E4_U+30FC 1
  6
AI-Linetype-1
 62
   154
420
    23468
370
    25
100
AcDbVertex
100
AcDb2dVertex
 10
67.0449916228731
 20
-126.7863930238591
 30
0.0
  0
VERTEX
  5
84
330
82
100
AcDbEntity
  8
_U+30EC_U+30A4_U+30E4_U+30FC 1
  6
AI-Linetype-1
 62
   154
420
    23468
370
    25
100
AcDbVertex
100
AcDb2dVertex
 10
77.04507720108299
 20
-126.7863930238591
 30
0.0
  0
SEQEND
  5
86
330
82
100
AcDbEntity
  8
_U+30EC_U+30A4_U+30E4_U+30FC 1
  6
AI-Linetype-1
 62
   154
420
    23468
370
    25
  0
POLYLINE
  5
87
330
1F
100
AcDbEntity
  8
_U+30EC_U+30A4_U+30E4_U+30FC 1
 62
   179
420
  2234388
370
    25
100
AcDb2dPolyline
 66
     1
 10
0.0
 20
0.0
 30
0.0
  0
VERTEX
  5
88
330
87
100
AcDbEntity
  8
_U+30EC_U+30A4_U+30E4_U+30FC 1
 62
   179
420
  2234388
370
    25
100
AcDbVertex
100
AcDb2dVertex
 10
91.10521386611266
 20
-134.0768985775917
 30
0.0
  0
VERTEX
  5
89
330
87
100
AcDbEntity
  8
_U+30EC_U+30A4_U+30E4_U+30FC 1
 62
   179
420
  2234388
370
    25
100
AcDbVertex
100
AcDb2dVertex
 10
87.04551555706166
 20
-134.0768985775917
 30
0.0
  0
SEQEND
  5
8A
330
87
100
AcDbEntity
  8
_U+30EC_U+30A4_U+30E4_U+30FC 1
 62
   179
420
  2234388
370
    25
  0
POLYLINE
  5
8B
330
1F
100
AcDbEntity
  8
_U+30EC_U+30A4_U+30E4_U+30FC 1
 62
   179
420
  2234388
370
    25
100
AcDb2dPolyline
 66
     1
 10
0.0
 20
0.0
 30
0.0
  0
VERTEX
  5
8C
330
8B
100
AcDbEntity
  8
_U+30EC_U+30A4_U+30E4_U+30FC 1
 62
   179
420
  2234388
370
    25
100
AcDbVertex
100
AcDb2dVertex
 10
67.0449916228731
 20
-125.5768238574947
 30
0.0
  0
VERTEX
  5
8D
330
8B
100
AcDbEntity
  8
_U+30EC_U+30A4_U+30E4_U+30FC 1
 62
   179
420
  2234388
370
    25
100
AcDbVertex
100
AcDb2dVertex
 10
67.0449916228731
 20
-126.0770627462584
 30
0.0
  0
SEQEND
  5
8E
330
8B
100
AcDbEntity
  8
_U+30EC_U+30A4_U+30E4_U+30FC 1
 62
   179
420
  2234388
370
    25
  0
POLYLINE
  5
8F
330
1F
100
AcDbEntity
  8
_U+30EC_U+30A4_U+30E4_U+30FC 1
 62
   179
420
  2234388
370
    25
100
AcDb2dPolyline
 66
     1
 10
0.0
 20
0.0
 30
0.0
  0
VERTEX
  5
90
330
8F
100
AcDbEntity
  8
_U+30EC_U+30A4_U+30E4_U+30FC 1
 62
   179
420
  2234388
370
    25
100
AcDbVertex
100
AcDb2dVertex
 10
87.04551555706166
 20
-126.0770627462584
 30
0.0
  0
VERTEX
  5
91
330
8F
100
AcDbEntity
  8
_U+30EC_U+30A4_U+30E4_U+30FC 1
 62
   179
420
  2234388
370
    25
100
AcDbVertex
100
AcDb2dVertex
 10
67.0449916228731
 20
-126.0770627462584
 30
0.0
  0
SEQEND
  5
92
330
8F
100
AcDbEntity
  8
_U+30EC_U+30A4_U+30E4_U+30FC 1
 62
   179
420
  2234388
370
    25
  0
POLYLINE
  5
93
330
1F
100
AcDbEntity
  8
_U+30EC_U+30A4_U+30E4_U+30FC 1
 62
   179
420
  2234388
370
    25
100
AcDb2dPolyline
 66
     1
 10
0.0
 20
0.0
 30
0.0
  0
VERTEX
  5
94
330
93
100
AcDbEntity
  8
_U+30EC_U+30A4_U+30E4_U+30FC 1
 62
   179
420
  2234388
370
    25
100
AcDbVertex
100
AcDb2dVertex
 10
67.0449916228731
 20
-125.5768238574947
 30
0.0
  0
VERTEX
  5
95
330
93
100
AcDbEntity
  8
_U+30EC_U+30A4_U+30E4_U+30FC 1
 62
   179
420
  2234388
370
    25
100
AcDbVertex
100
AcDb2dVertex
 10
67.55867133199025
 20
-125.9588821907327
 30
0.0
  0
SEQEND
  5
96
330
93
100
AcDbEntity
  8
_U+30EC_U+30A4_U+30E4_U+30FC 1
 62
   179
420
  2234388
370
    25
  0
POLYLINE
  5
97
330
1F
100
AcDbEntity
  8
_U+30EC_U+30A4_U+30E4_U+30FC 1
 62
   179
420
  2234388
370
    25
100
AcDb2dPolyline
 66
     1
 10
0.0
 20
0.0
 30
0.0
  0
VERTEX
  5
98
330
97
100
AcDbEntity
  8
_U+30EC_U+30A4_U+30E4_U+30FC 1
 62
   179
420
  2234388
370
    25
100
AcDbVertex
100
AcDb2dVertex
 10
67.55867133199025
 20
-125.9588821907327
 30
0.0
  0
VERTEX
  5
99
330
97
100
AcDbEntity
  8
_U+30EC_U+30A4_U+30E4_U+30FC 1
 62
   179
420
  2234388
370
    25
100
AcDbVertex
100
AcDb2dVertex
 10
68.04409354182833
 20
-125.5413344130592
 30
0.0
  0
SEQEND
  5
9A
330
97
100
AcDbEntity
  8
_U+30EC_U+30A4_U+30E4_U+30FC 1
 62
   179
420
  2234388
370
    25
  0
POLYLINE
  5
9B
330
1F
100
AcDbEntity
  8
_U+30EC_U+30A4_U+30E4_U+30FC 1
 62
   179
420
  2234388
370
    25
100
AcDb2dPolyline
 66
     1
 10
0.0
 20
0.0
 30
0.0
  0
VERTEX
  5
9C
330
9B
100
AcDbEntity
  8
_U+30EC_U+30A4_U+30E4_U+30FC 1
 62
   179
420
  2234388
370
    25
100
AcDbVertex
100
AcDb2dVertex
 10
68.5580907509374
 20
-125.9233927462969
 30
0.0
  0
VERTEX
  5
9D
330
9B
100
AcDbEntity
  8
_U+30EC_U+30A4_U+30E4_U+30FC 1
 62
   179
420
  2234388
370
    25
100
AcDbVertex
100
AcDb2dVertex
 10
69.04351296077546
 20
-125.5055274686238
 30
0.0
  0
SEQEND
  5
9E
330
9B
100
AcDbEntity
  8
_U+30EC_U+30A4_U+30E4_U+30FC 1
 62
   179
420
  2234388
370
    25
  0
POLYLINE
  5
9F
330
1F
100
AcDbEntity
  8
_U+30EC_U+30A4_U+30E4_U+30FC 1
 62
   179
420
  2234388
370
    25
100
AcDb2dPolyline
 66
     1
 10
0.0
 20
0.0
 30
0.0
  0
VERTEX
  5
A0
330
9F
100
AcDbEntity
  8
_U+30EC_U+30A4_U+30E4_U+30FC 1
 62
   179
420
  2234388
370
    25
100
AcDbVertex
100
AcDb2dVertex
 10
68.04409354182833
 20
-125.5413344130592
 30
0.0
  0
VERTEX
  5
A1
330
9F
100
AcDbEntity
  8
_U+30EC_U+30A4_U+30E4_U+30FC 1
 62
   179
420
  2234388
370
    25
100
AcDbVertex
100
AcDb2dVertex
 10
68.5580907509374
 20
-125.9233927462969
 30
0.0
  0
SEQEND
  5
A2
330
9F
100
AcDbEntity
  8
_U+30EC_U+30A4_U+30E4_U+30FC 1
 62
   179
420
  2234388
370
    25
  0
POLYLINE
  5
A3
330
1F
100
AcDbEntity
  8
_U+30EC_U+30A4_U+30E4_U+30FC 1
 62
   179
420
  2234388
370
    25
100
AcDb2dPolyline
 66
     1
 10
0.0
 20
0.0
 30
0.0
  0
VERTEX
  5
A4
330
A3
100
AcDbEntity
  8
_U+30EC_U+30A4_U+30E4_U+30FC 1
 62
   179
420
  2234388
370
    25
100
AcDbVertex
100
AcDb2dVertex
 10
69.04351296077546
 20
-125.5055274686238
 30
0.0
  0
VERTEX
  5
A5
330
A3
100
AcDbEntity
  8
_U+30EC_U+30A4_U+30E4_U+30FC 1
 62
   179
420
  2234388
370
    25
100
AcDbVertex
100
AcDb2dVertex
 10
69.55751016988452
 20
-125.8875858018615
 30
0.0
  0
SEQEND
  5
A6
330
A3
100
AcDbEntity
  8
_U+30EC_U+30A4_U+30E4_U+30FC 1
 62
   179
420
  2234388
370
    25
  0
POLYLINE
  5
A7
330
1F
100
AcDbEntity
  8
_U+30EC_U+30A4_U+30E4_U+30FC 1
 62
   179
420
  2234388
370
    25
100
AcDb2dPolyline
 66
     1
 10
0.0
 20
0.0
 30
0.0
  0
VERTEX
  5
A8
330
A7
100
AcDbEntity
  8
_U+30EC_U+30A4_U+30E4_U+30FC 1
 62
   179
420
  2234388
370
    25
100
AcDbVertex
100
AcDb2dVertex
 10
69.55751016988452
 20
-125.8875858018615
 30
0.0
  0
VERTEX
  5
A9
330
A7
100
AcDbEntity
  8
_U+30EC_U+30A4_U+30E4_U+30FC 1
 62
   179
420
  2234388
370
    25
100
AcDbVertex
100
AcDb2dVertex
 10
70.04293237972259
 20
-125.470038024188
 30
0.0
  0
SEQEND
  5
AA
330
A7
100
AcDbEntity
  8
_U+30EC_U+30A4_U+30E4_U+30FC 1
 62
   179
420
  2234388
370
    25
  0
POLYLINE
  5
AB
330
1F
100
AcDbEntity
  8
_U+30EC_U+30A4_U+30E4_U+30FC 1
 62
   179
420
  2234388
370
    25
100
AcDb2dPolyline
 66
     1
 10
0.0
 20
0.0
 30
0.0
  0
VERTEX
  5
AC
330
AB
100
AcDbEntity
  8
_U+30EC_U+30A4_U+30E4_U+30FC 1
 62
   179
420
  2234388
370
    25
100
AcDbVertex
100
AcDb2dVertex
 10
70.04293237972259
 20
-125.470038024188
 30
0.0
  0
VERTEX
  5
AD
330
AB
100
AcDbEntity
  8
_U+30EC_U+30A4_U+30E4_U+30FC 1
 62
   179
420
  2234388
370
    25
100
AcDbVertex
100
AcDb2dVertex
 10
70.55692958883165
 20
-125.8517435796482
 30
0.0
  0
SEQEND
  5
AE
330
AB
100
AcDbEntity
  8
_U+30EC_U+30A4_U+30E4_U+30FC 1
 62
   179
420
  2234388
370
    25
  0
POLYLINE
  5
AF
330
1F
100
AcDbEntity
  8
_U+30EC_U+30A4_U+30E4_U+30FC 1
 62
   179
420
  2234388
370
    25
100
AcDb2dPolyline
 66
     1
 10
0.0
 20
0.0
 30
0.0
  0
VERTEX
  5
B0
330
AF
100
AcDbEntity
  8
_U+30EC_U+30A4_U+30E4_U+30FC 1
 62
   179
420
  2234388
370
    25
100
AcDbVertex
100
AcDb2dVertex
 10
70.55692958883165
 20
-125.8517435796482
 30
0.0
  0
VERTEX
  5
B1
330
AF
100
AcDbEntity
  8
_U+30EC_U+30A4_U+30E4_U+30FC 1
 62
   179
420
  2234388
370
    25
100
AcDbVertex
100
AcDb2dVertex
 10
71.04199902090095
 20
-125.4341958019747
 30
0.0
  0
SEQEND
  5
B2
330
AF
100
AcDbEntity
  8
_U+30EC_U+30A4_U+30E4_U+30FC 1
 62
   179
420
  2234388
370
    25
  0
POLYLINE
  5
B3
330
1F
100
AcDbEntity
  8
_U+30EC_U+30A4_U+30E4_U+30FC 1
 62
   179
420
  2234388
370
    25
100
AcDb2dPolyline
 66
     1
 10
0.0
 20
0.0
 30
0.0
  0
VERTEX
  5
B4
330
B3
100
AcDbEntity
  8
_U+30EC_U+30A4_U+30E4_U+30FC 1
 62
   179
420
  2234388
370
    25
100
AcDbVertex
100
AcDb2dVertex
 10
71.04199902090095
 20
-125.4341958019747
 30
0.0
  0
VERTEX
  5
B5
330
B3
100
AcDbEntity
  8
_U+30EC_U+30A4_U+30E4_U+30FC 1
 62
   179
420
  2234388
370
    25
100
AcDbVertex
100
AcDb2dVertex
 10
71.55599623001001
 20
-125.8159366352128
 30
0.0
  0
SEQEND
  5
B6
330
B3
100
AcDbEntity
  8
_U+30EC_U+30A4_U+30E4_U+30FC 1
 62
   179
420
  2234388
370
    25
  0
POLYLINE
  5
B7
330
1F
100
AcDbEntity
  8
_U+30EC_U+30A4_U+30E4_U+30FC 1
 62
   179
420
  2234388
370
    25
100
AcDb2dPolyline
 66
     1
 10
0.0
 20
0.0
 30
0.0
  0
VERTEX
  5
B8
330
B7
100
AcDbEntity
  8
_U+30EC_U+30A4_U+30E4_U+30FC 1
 62
   179
420
  2234388
370
    25
100
AcDbVertex
100
AcDb2dVertex
 10
71.55599623001001
 20
-125.8159366352128
 30
0.0
  0
VERTEX
  5
B9
330
B7
100
AcDbEntity
  8
_U+30EC_U+30A4_U+30E4_U+30FC 1
 62
   179
420
  2234388
370
    25
100
AcDbVertex
100
AcDb2dVertex
 10
72.04177121761685
 20
-125.3983888575393
 30
0.0
  0
SEQEND
  5
BA
330
B7
100
AcDbEntity
  8
_U+30EC_U+30A4_U+30E4_U+30FC 1
 62
   179
420
  2234388
370
    25
  0
POLYLINE
  5
BB
330
1F
100
AcDbEntity
  8
_U+30EC_U+30A4_U+30E4_U+30FC 1
 62
   179
420
  2234388
370
    25
100
AcDb2dPolyline
 66
     1
 10
0.0
 20
0.0
 30
0.0
  0
VERTEX
  5
BC
330
BB
100
AcDbEntity
  8
_U+30EC_U+30A4_U+30E4_U+30FC 1
 62
   179
420
  2234388
370
    25
100
AcDbVertex
100
AcDb2dVertex
 10
72.04177121761685
 20
-125.3983888575393
 30
0.0
  0
VERTEX
  5
BD
330
BB
100
AcDbEntity
  8
_U+30EC_U+30A4_U+30E4_U+30FC 1
 62
   179
420
  2234388
370
    25
100
AcDbVertex
100
AcDb2dVertex
 10
72.55576842672592
 20
-125.780447190777
 30
0.0
  0
SEQEND
  5
BE
330
BB
100
AcDbEntity
  8
_U+30EC_U+30A4_U+30E4_U+30FC 1
 62
   179
420
  2234388
370
    25
  0
POLYLINE
  5
BF
330
1F
100
AcDbEntity
  8
_U+30EC_U+30A4_U+30E4_U+30FC 1
 62
   179
420
  2234388
370
    25
100
AcDb2dPolyline
 66
     1
 10
0.0
 20
0.0
 30
0.0
  0
VERTEX
  5
C0
330
BF
100
AcDbEntity
  8
_U+30EC_U+30A4_U+30E4_U+30FC 1
 62
   179
420
  2234388
370
    25
100
AcDbVertex
100
AcDb2dVertex
 10
72.55576842672592
 20
-125.780447190777
 30
0.0
  0
VERTEX
  5
C1
330
BF
100
AcDbEntity
  8
_U+30EC_U+30A4_U+30E4_U+30FC 1
 62
   179
420
  2234388
370
    25
100
AcDbVertex
100
AcDb2dVertex
 10
73.0408378587952
 20
-125.3628994131038
 30
0.0
  0
SEQEND
  5
C2
330
BF
100
AcDbEntity
  8
_U+30EC_U+30A4_U+30E4_U+30FC 1
 62
   179
420
  2234388
370
    25
  0
POLYLINE
  5
C3
330
1F
100
AcDbEntity
  8
_U+30EC_U+30A4_U+30E4_U+30FC 1
 62
   179
420
  2234388
370
    25
100
AcDb2dPolyline
 66
     1
 10
0.0
 20
0.0
 30
0.0
  0
VERTEX
  5
C4
330
C3
100
AcDbEntity
  8
_U+30EC_U+30A4_U+30E4_U+30FC 1
 62
   179
420
  2234388
370
    25
100
AcDbVertex
100
AcDb2dVertex
 10
73.0408378587952
 20
-125.3628994131038
 30
0.0
  0
VERTEX
  5
C5
330
C3
100
AcDbEntity
  8
_U+30EC_U+30A4_U+30E4_U+30FC 1
 62
   179
420
  2234388
370
    25
100
AcDbVertex
100
AcDb2dVertex
 10
73.55487220383365
 20
-125.7449577463415
 30
0.0
  0
SEQEND
  5
C6
330
C3
100
AcDbEntity
  8
_U+30EC_U+30A4_U+30E4_U+30FC 1
 62
   179
420
  2234388
370
    25
  0
POLYLINE
  5
C7
330
1F
100
AcDbEntity
  8
_U+30EC_U+30A4_U+30E4_U+30FC 1
 62
   179
420
  2234388
370
    25
100
AcDb2dPolyline
 66
     1
 10
0.0
 20
0.0
 30
0.0
  0
VERTEX
  5
C8
330
C7
100
AcDbEntity
  8
_U+30EC_U+30A4_U+30E4_U+30FC 1
 62
   179
420
  2234388
370
    25
100
AcDbVertex
100
AcDb2dVertex
 10
73.55487220383365
 20
-125.7449577463415
 30
0.0
  0
VERTEX
  5
C9
330
C7
100
AcDbEntity
  8
_U+30EC_U+30A4_U+30E4_U+30FC 1
 62
   179
420
  2234388
370
    25
100
AcDbVertex
100
AcDb2dVertex
 10
74.04025727774234
 20
-125.3270571908906
 30
0.0
  0
SEQEND
  5
CA
330
C7
100
AcDbEntity
  8
_U+30EC_U+30A4_U+30E4_U+30FC 1
 62
   179
420
  2234388
370
    25
  0
POLYLINE
  5
CB
330
1F
100
AcDbEntity
  8
_U+30EC_U+30A4_U+30E4_U+30FC 1
 62
   179
420
  2234388
370
    25
100
AcDb2dPolyline
 66
     1
 10
0.0
 20
0.0
 30
0.0
  0
VERTEX
  5
CC
330
CB
100
AcDbEntity
  8
_U+30EC_U+30A4_U+30E4_U+30FC 1
 62
   179
420
  2234388
370
    25
100
AcDbVertex
100
AcDb2dVertex
 10
74.55429164802811
 20
-125.7091155241283
 30
0.0
  0
VERTEX
  5
CD
330
CB
100
AcDbEntity
  8
_U+30EC_U+30A4_U+30E4_U+30FC 1
 62
   179
420
  2234388
370
    25
100
AcDbVertex
100
AcDb2dVertex
 10
75.03967669668947
 20
-125.2915677464548
 30
0.0
  0
SEQEND
  5
CE
330
CB
100
AcDbEntity
  8
_U+30EC_U+30A4_U+30E4_U+30FC 1
 62
   179
420
  2234388
370
    25
  0
POLYLINE
  5
CF
330
1F
100
AcDbEntity
  8
_U+30EC_U+30A4_U+30E4_U+30FC 1
 62
   179
420
  2234388
370
    25
100
AcDb2dPolyline
 66
     1
 10
0.0
 20
0.0
 30
0.0
  0
VERTEX
  5
D0
330
CF
100
AcDbEntity
  8
_U+30EC_U+30A4_U+30E4_U+30FC 1
 62
   179
420
  2234388
370
    25
100
AcDbVertex
100
AcDb2dVertex
 10
74.04025727774234
 20
-125.3270571908906
 30
0.0
  0
VERTEX
  5
D1
330
CF
100
AcDbEntity
  8
_U+30EC_U+30A4_U+30E4_U+30FC 1
 62
   179
420
  2234388
370
    25
100
AcDbVertex
100
AcDb2dVertex
 10
74.55429164802811
 20
-125.7091155241283
 30
0.0
  0
SEQEND
  5
D2
330
CF
100
AcDbEntity
  8
_U+30EC_U+30A4_U+30E4_U+30FC 1
 62
   179
420
  2234388
370
    25
  0
POLYLINE
  5
D3
330
1F
100
AcDbEntity
  8
_U+30EC_U+30A4_U+30E4_U+30FC 1
 62
   179
420
  2234388
370
    25
100
AcDb2dPolyline
 66
     1
 10
0.0
 20
0.0
 30
0.0
  0
VERTEX
  5
D4
330
D3
100
AcDbEntity
  8
_U+30EC_U+30A4_U+30E4_U+30FC 1
 62
   179
420
  2234388
370
    25
100
AcDbVertex
100
AcDb2dVertex
 10
75.03967669668947
 20
-125.2915677464548
 30
0.0
  0
VERTEX
  5
D5
330
D3
100
AcDbEntity
  8
_U+30EC_U+30A4_U+30E4_U+30FC 1
 62
   179
420
  2234388
370
    25
100
AcDbVertex
100
AcDb2dVertex
 10
75.55371109222257
 20
-125.6733085796929
 30
0.0
  0
SEQEND
  5
D6
330
D3
100
AcDbEntity
  8
_U+30EC_U+30A4_U+30E4_U+30FC 1
 62
   179
420
  2234388
370
    25
  0
POLYLINE
  5
D7
330
1F
100
AcDbEntity
  8
_U+30EC_U+30A4_U+30E4_U+30FC 1
 62
   179
420
  2234388
370
    25
100
AcDb2dPolyline
 66
     1
 10
0.0
 20
0.0
 30
0.0
  0
VERTEX
  5
D8
330
D7
100
AcDbEntity
  8
_U+30EC_U+30A4_U+30E4_U+30FC 1
 62
   179
420
  2234388
370
    25
100
AcDbVertex
100
AcDb2dVertex
 10
75.55371109222257
 20
-125.6733085796929
 30
0.0
  0
VERTEX
  5
D9
330
D7
100
AcDbEntity
  8
_U+30EC_U+30A4_U+30E4_U+30FC 1
 62
   179
420
  2234388
370
    25
100
AcDbVertex
100
AcDb2dVertex
 10
76.0390961156366
 20
-125.2557608020194
 30
0.0
  0
SEQEND
  5
DA
330
D7
100
AcDbEntity
  8
_U+30EC_U+30A4_U+30E4_U+30FC 1
 62
   179
420
  2234388
370
    25
  0
POLYLINE
  5
DB
330
1F
100
AcDbEntity
  8
_U+30EC_U+30A4_U+30E4_U+30FC 1
 62
   179
420
  2234388
370
    25
100
AcDb2dPolyline
 66
     1
 10
0.0
 20
0.0
 30
0.0
  0
VERTEX
  5
DC
330
DB
100
AcDbEntity
  8
_U+30EC_U+30A4_U+30E4_U+30FC 1
 62
   179
420
  2234388
370
    25
100
AcDbVertex
100
AcDb2dVertex
 10
76.55277775863959
 20
-125.6374663574796
 30
0.0
  0
VERTEX
  5
DD
330
DB
100
AcDbEntity
  8
_U+30EC_U+30A4_U+30E4_U+30FC 1
 62
   179
420
  2234388
370
    25
100
AcDbVertex
100
AcDb2dVertex
 10
77.03855275851829
 20
-125.2199185798061
 30
0.0
  0
SEQEND
  5
DE
330
DB
100
AcDbEntity
  8
_U+30EC_U+30A4_U+30E4_U+30FC 1
 62
   179
420
  2234388
370
    25
  0
POLYLINE
  5
DF
330
1F
100
AcDbEntity
  8
_U+30EC_U+30A4_U+30E4_U+30FC 1
 62
   179
420
  2234388
370
    25
100
AcDb2dPolyline
 66
     1
 10
0.0
 20
0.0
 30
0.0
  0
VERTEX
  5
E0
330
DF
100
AcDbEntity
  8
_U+30EC_U+30A4_U+30E4_U+30FC 1
 62
   179
420
  2234388
370
    25
100
AcDbVertex
100
AcDb2dVertex
 10
76.0390961156366
 20
-125.2557608020194
 30
0.0
  0
VERTEX
  5
E1
330
DF
100
AcDbEntity
  8
_U+30EC_U+30A4_U+30E4_U+30FC 1
 62
   179
420
  2234388
370
    25
100
AcDbVertex
100
AcDb2dVertex
 10
76.55277775863959
 20
-125.6374663574796
 30
0.0
  0
SEQEND
  5
E2
330
DF
100
AcDbEntity
  8
_U+30EC_U+30A4_U+30E4_U+30FC 1
 62
   179
420
  2234388
370
    25
  0
POLYLINE
  5
E3
330
1F
100
AcDbEntity
  8
_U+30EC_U+30A4_U+30E4_U+30FC 1
 62
   179
420
  2234388
370
    25
100
AcDb2dPolyline
 66
     1
 10
0.0
 20
0.0
 30
0.0
  0
VERTEX
  5
E4
330
E3
100
AcDbEntity
  8
_U+30EC_U+30A4_U+30E4_U+30FC 1
 62
   179
420
  2234388
370
    25
100
AcDbVertex
100
AcDb2dVertex
 10
77.5525499806118
 20
-125.6019769130438
 30
0.0
  0
VERTEX
  5
E5
330
E3
100
AcDbEntity
  8
_U+30EC_U+30A4_U+30E4_U+30FC 1
 62
   179
420
  2234388
370
    25
100
AcDbVertex
100
AcDb2dVertex
 10
78.03761942493499
 20
-125.1844291353706
 30
0.0
  0
SEQEND
  5
E6
330
E3
100
AcDbEntity
  8
_U+30EC_U+30A4_U+30E4_U+30FC 1
 62
   179
420
  2234388
370
    25
  0
POLYLINE
  5
E7
330
1F
100
AcDbEntity
  8
_U+30EC_U+30A4_U+30E4_U+30FC 1
 62
   179
420
  2234388
370
    25
100
AcDb2dPolyline
 66
     1
 10
0.0
 20
0.0
 30
0.0
  0
VERTEX
  5
E8
330
E7
100
AcDbEntity
  8
_U+30EC_U+30A4_U+30E4_U+30FC 1
 62
   179
420
  2234388
370
    25
100
AcDbVertex
100
AcDb2dVertex
 10
77.03855275851829
 20
-125.2199185798061
 30
0.0
  0
VERTEX
  5
E9
330
E7
100
AcDbEntity
  8
_U+30EC_U+30A4_U+30E4_U+30FC 1
 62
   179
420
  2234388
370
    25
100
AcDbVertex
100
AcDb2dVertex
 10
77.5525499806118
 20
-125.6019769130438
 30
0.0
  0
SEQEND
  5
EA
330
E7
100
AcDbEntity
  8
_U+30EC_U+30A4_U+30E4_U+30FC 1
 62
   179
420
  2234388
370
    25
  0
POLYLINE
  5
EB
330
1F
100
AcDbEntity
  8
_U+30EC_U+30A4_U+30E4_U+30FC 1
 62
   179
420
  2234388
370
    25
100
AcDb2dPolyline
 66
     1
 10
0.0
 20
0.0
 30
0.0
  0
VERTEX
  5
EC
330
EB
100
AcDbEntity
  8
_U+30EC_U+30A4_U+30E4_U+30FC 1
 62
   179
420
  2234388
370
    25
100
AcDbVertex
100
AcDb2dVertex
 10
78.03761942493499
 20
-125.1844291353706
 30
0.0
  0
VERTEX
  5
ED
330
EB
100
AcDbEntity
  8
_U+30EC_U+30A4_U+30E4_U+30FC 1
 62
   179
420
  2234388
370
    25
100
AcDbVertex
100
AcDb2dVertex
 10
78.55161664702882
 20
-125.5664874686083
 30
0.0
  0
SEQEND
  5
EE
330
EB
100
AcDbEntity
  8
_U+30EC_U+30A4_U+30E4_U+30FC 1
 62
   179
420
  2234388
370
    25
  0
POLYLINE
  5
EF
330
1F
100
AcDbEntity
  8
_U+30EC_U+30A4_U+30E4_U+30FC 1
 62
   179
420
  2234388
370
    25
100
AcDb2dPolyline
 66
     1
 10
0.0
 20
0.0
 30
0.0
  0
VERTEX
  5
F0
330
EF
100
AcDbEntity
  8
_U+30EC_U+30A4_U+30E4_U+30FC 1
 62
   179
420
  2234388
370
    25
100
AcDbVertex
100
AcDb2dVertex
 10
78.55161664702882
 20
-125.5664874686083
 30
0.0
  0
VERTEX
  5
F1
330
EF
100
AcDbEntity
  8
_U+30EC_U+30A4_U+30E4_U+30FC 1
 62
   179
420
  2234388
370
    25
100
AcDbVertex
100
AcDb2dVertex
 10
79.03739164690721
 20
-125.1486221909352
 30
0.0
  0
SEQEND
  5
F2
330
EF
100
AcDbEntity
  8
_U+30EC_U+30A4_U+30E4_U+30FC 1
 62
   179
420
  2234388
370
    25
  0
POLYLINE
  5
F3
330
1F
100
AcDbEntity
  8
_U+30EC_U+30A4_U+30E4_U+30FC 1
 62
   179
420
  2234388
370
    25
100
AcDb2dPolyline
 66
     1
 10
0.0
 20
0.0
 30
0.0
  0
VERTEX
  5
F4
330
F3
100
AcDbEntity
  8
_U+30EC_U+30A4_U+30E4_U+30FC 1
 62
   179
420
  2234388
370
    25
100
AcDbVertex
100
AcDb2dVertex
 10
79.03739164690721
 20
-125.1486221909352
 30
0.0
  0
VERTEX
  5
F5
330
F3
100
AcDbEntity
  8
_U+30EC_U+30A4_U+30E4_U+30FC 1
 62
   179
420
  2234388
370
    25
100
AcDbVertex
100
AcDb2dVertex
 10
79.55138886900104
 20
-125.5306805241729
 30
0.0
  0
SEQEND
  5
F6
330
F3
100
AcDbEntity
  8
_U+30EC_U+30A4_U+30E4_U+30FC 1
 62
   179
420
  2234388
370
    25
  0
POLYLINE
  5
F7
330
1F
100
AcDbEntity
  8
_U+30EC_U+30A4_U+30E4_U+30FC 1
 62
   179
420
  2234388
370
    25
100
AcDb2dPolyline
 66
     1
 10
0.0
 20
0.0
 30
0.0
  0
VERTEX
  5
F8
330
F7
100
AcDbEntity
  8
_U+30EC_U+30A4_U+30E4_U+30FC 1
 62
   179
420
  2234388
370
    25
100
AcDbVertex
100
AcDb2dVertex
 10
79.55138886900104
 20
-125.5306805241729
 30
0.0
  0
VERTEX
  5
F9
330
F7
100
AcDbEntity
  8
_U+30EC_U+30A4_U+30E4_U+30FC 1
 62
   179
420
  2234388
370
    25
100
AcDbVertex
100
AcDb2dVertex
 10
80.03645831332422
 20
-125.1131327464994
 30
0.0
  0
SEQEND
  5
FA
330
F7
100
AcDbEntity
  8
_U+30EC_U+30A4_U+30E4_U+30FC 1
 62
   179
420
  2234388
370
    25
  0
POLYLINE
  5
FB
330
1F
100
AcDbEntity
  8
_U+30EC_U+30A4_U+30E4_U+30FC 1
 62
   179
420
  2234388
370
    25
100
AcDb2dPolyline
 66
     1
 10
0.0
 20
0.0
 30
0.0
  0
VERTEX
  5
FC
330
FB
100
AcDbEntity
  8
_U+30EC_U+30A4_U+30E4_U+30FC 1
 62
   179
420
  2234388
370
    25
100
AcDbVertex
100
AcDb2dVertex
 10
80.03645831332422
 20
-125.1131327464994
 30
0.0
  0
VERTEX
  5
FD
330
FB
100
AcDbEntity
  8
_U+30EC_U+30A4_U+30E4_U+30FC 1
 62
   179
420
  2234388
370
    25
100
AcDbVertex
100
AcDb2dVertex
 10
80.55045553541807
 20
-125.4948383019597
 30
0.0
  0
SEQEND
  5
FE
330
FB
100
AcDbEntity
  8
_U+30EC_U+30A4_U+30E4_U+30FC 1
 62
   179
420
  2234388
370
    25
  0
POLYLINE
  5
FF
330
1F
100
AcDbEntity
  8
_U+30EC_U+30A4_U+30E4_U+30FC 1
 62
   179
420
  2234388
370
    25
100
AcDb2dPolyline
 66
     1
 10
0.0
 20
0.0
 30
0.0
  0
VERTEX
  5
100
330
FF
100
AcDbEntity
  8
_U+30EC_U+30A4_U+30E4_U+30FC 1
 62
   179
420
  2234388
370
    25
100
AcDbVertex
100
AcDb2dVertex
 10
80.55045553541807
 20
-125.4948383019597
 30
0.0
  0
VERTEX
  5
101
330
FF
100
AcDbEntity
  8
_U+30EC_U+30A4_U+30E4_U+30FC 1
 62
   179
420
  2234388
370
    25
100
AcDbVertex
100
AcDb2dVertex
 10
81.03623053529644
 20
-125.0772905242862
 30
0.0
  0
SEQEND
  5
102
330
FF
100
AcDbEntity
  8
_U+30EC_U+30A4_U+30E4_U+30FC 1
 62
   179
420
  2234388
370
    25
  0
POLYLINE
  5
103
330
1F
100
AcDbEntity
  8
_U+30EC_U+30A4_U+30E4_U+30FC 1
 62
   179
420
  2234388
370
    25
100
AcDb2dPolyline
 66
     1
 10
0.0
 20
0.0
 30
0.0
  0
VERTEX
  5
104
330
103
100
AcDbEntity
  8
_U+30EC_U+30A4_U+30E4_U+30FC 1
 62
   179
420
  2234388
370
    25
100
AcDbVertex
100
AcDb2dVertex
 10
81.03623053529644
 20
-125.0772905242862
 30
0.0
  0
VERTEX
  5
105
330
103
100
AcDbEntity
  8
_U+30EC_U+30A4_U+30E4_U+30FC 1
 62
   179
420
  2234388
370
    25
100
AcDbVertex
100
AcDb2dVertex
 10
81.55022775739029
 20
-125.4589960797464
 30
0.0
  0
SEQEND
  5
106
330
103
100
AcDbEntity
  8
_U+30EC_U+30A4_U+30E4_U+30FC 1
 62
   179
420
  2234388
370
    25
  0
POLYLINE
  5
107
330
1F
100
AcDbEntity
  8
_U+30EC_U+30A4_U+30E4_U+30FC 1
 62
   179
420
  2234388
370
    25
100
AcDb2dPolyline
 66
     1
 10
0.0
 20
0.0
 30
0.0
  0
VERTEX
  5
108
330
107
100
AcDbEntity
  8
_U+30EC_U+30A4_U+30E4_U+30FC 1
 62
   179
420
  2234388
370
    25
100
AcDbVertex
100
AcDb2dVertex
 10
81.55022775739029
 20
-125.4589960797464
 30
0.0
  0
VERTEX
  5
109
330
107
100
AcDbEntity
  8
_U+30EC_U+30A4_U+30E4_U+30FC 1
 62
   179
420
  2234388
370
    25
100
AcDbVertex
100
AcDb2dVertex
 10
82.0349444239357
 20
-125.0414483020729
 30
0.0
  0
SEQEND
  5
10A
330
107
100
AcDbEntity
  8
_U+30EC_U+30A4_U+30E4_U+30FC 1
 62
   179
420
  2234388
370
    25
  0
POLYLINE
  5
10B
330
1F
100
AcDbEntity
  8
_U+30EC_U+30A4_U+30E4_U+30FC 1
 62
   179
420
  2234388
370
    25
100
AcDb2dPolyline
 66
     1
 10
0.0
 20
0.0
 30
0.0
  0
VERTEX
  5
10C
330
10B
100
AcDbEntity
  8
_U+30EC_U+30A4_U+30E4_U+30FC 1
 62
   179
420
  2234388
370
    25
100
AcDbVertex
100
AcDb2dVertex
 10
82.0349444239357
 20
-125.0414483020729
 30
0.0
  0
VERTEX
  5
10D
330
10B
100
AcDbEntity
  8
_U+30EC_U+30A4_U+30E4_U+30FC 1
 62
   179
420
  2234388
370
    25
100
AcDbVertex
100
AcDb2dVertex
 10
82.54897483844465
 20
-125.4235419130884
 30
0.0
  0
SEQEND
  5
10E
330
10B
100
AcDbEntity
  8
_U+30EC_U+30A4_U+30E4_U+30FC 1
 62
   179
420
  2234388
370
    25
  0
POLYLINE
  5
10F
330
1F
100
AcDbEntity
  8
_U+30EC_U+30A4_U+30E4_U+30FC 1
 62
   179
420
  2234388
370
    25
100
AcDb2dPolyline
 66
     1
 10
0.0
 20
0.0
 30
0.0
  0
VERTEX
  5
110
330
10F
100
AcDbEntity
  8
_U+30EC_U+30A4_U+30E4_U+30FC 1
 62
   179
420
  2234388
370
    25
100
AcDbVertex
100
AcDb2dVertex
 10
82.54897483844465
 20
-125.4235419130884
 30
0.0
  0
VERTEX
  5
111
330
10F
100
AcDbEntity
  8
_U+30EC_U+30A4_U+30E4_U+30FC 1
 62
   179
420
  2234388
370
    25
100
AcDbVertex
100
AcDb2dVertex
 10
83.03404427051393
 20
-125.0059941354153
 30
0.0
  0
SEQEND
  5
112
330
10F
100
AcDbEntity
  8
_U+30EC_U+30A4_U+30E4_U+30FC 1
 62
   179
420
  2234388
370
    25
  0
POLYLINE
  5
113
330
1F
100
AcDbEntity
  8
_U+30EC_U+30A4_U+30E4_U+30FC 1
 62
   179
420
  2234388
370
    25
100
AcDb2dPolyline
 66
     1
 10
0.0
 20
0.0
 30
0.0
  0
VERTEX
  5
114
330
113
100
AcDbEntity
  8
_U+30EC_U+30A4_U+30E4_U+30FC 1
 62
   179
420
  2234388
370
    25
100
AcDbVertex
100
AcDb2dVertex
 10
83.03404427051393
 20
-125.0059941354153
 30
0.0
  0
VERTEX
  5
115
330
113
100
AcDbEntity
  8
_U+30EC_U+30A4_U+30E4_U+30FC 1
 62
   179
420
  2234388
370
    25
100
AcDbVertex
100
AcDb2dVertex
 10
83.548041479623
 20
-125.388052468653
 30
0.0
  0
SEQEND
  5
116
330
113
100
AcDbEntity
  8
_U+30EC_U+30A4_U+30E4_U+30FC 1
 62
   179
420
  2234388
370
    25
  0
POLYLINE
  5
117
330
1F
100
AcDbEntity
  8
_U+30EC_U+30A4_U+30E4_U+30FC 1
 62
   179
420
  2234388
370
    25
100
AcDb2dPolyline
 66
     1
 10
0.0
 20
0.0
 30
0.0
  0
VERTEX
  5
118
330
117
100
AcDbEntity
  8
_U+30EC_U+30A4_U+30E4_U+30FC 1
 62
   179
420
  2234388
370
    25
100
AcDbVertex
100
AcDb2dVertex
 10
83.548041479623
 20
-125.388052468653
 30
0.0
  0
VERTEX
  5
119
330
117
100
AcDbEntity
  8
_U+30EC_U+30A4_U+30E4_U+30FC 1
 62
   179
420
  2234388
370
    25
100
AcDbVertex
100
AcDb2dVertex
 10
84.03381646722984
 20
-124.970151913202
 30
0.0
  0
SEQEND
  5
11A
330
117
100
AcDbEntity
  8
_U+30EC_U+30A4_U+30E4_U+30FC 1
 62
   179
420
  2234388
370
    25
  0
POLYLINE
  5
11B
330
1F
100
AcDbEntity
  8
_U+30EC_U+30A4_U+30E4_U+30FC 1
 62
   179
420
  2234388
370
    25
100
AcDb2dPolyline
 66
     1
 10
0.0
 20
0.0
 30
0.0
  0
VERTEX
  5
11C
330
11B
100
AcDbEntity
  8
_U+30EC_U+30A4_U+30E4_U+30FC 1
 62
   179
420
  2234388
370
    25
100
AcDbVertex
100
AcDb2dVertex
 10
84.03381646722984
 20
-124.970151913202
 30
0.0
  0
VERTEX
  5
11D
330
11B
100
AcDbEntity
  8
_U+30EC_U+30A4_U+30E4_U+30FC 1
 62
   179
420
  2234388
370
    25
100
AcDbVertex
100
AcDb2dVertex
 10
84.5478136763389
 20
-125.3522102464397
 30
0.0
  0
SEQEND
  5
11E
330
11B
100
AcDbEntity
  8
_U+30EC_U+30A4_U+30E4_U+30FC 1
 62
   179
420
  2234388
370
    25
  0
POLYLINE
  5
11F
330
1F
100
AcDbEntity
  8
_U+30EC_U+30A4_U+30E4_U+30FC 1
 62
   179
420
  2234388
370
    25
100
AcDb2dPolyline
 66
     1
 10
0.0
 20
0.0
 30
0.0
  0
VERTEX
  5
120
330
11F
100
AcDbEntity
  8
_U+30EC_U+30A4_U+30E4_U+30FC 1
 62
   179
420
  2234388
370
    25
100
AcDbVertex
100
AcDb2dVertex
 10
84.5478136763389
 20
-125.3522102464397
 30
0.0
  0
VERTEX
  5
121
330
11F
100
AcDbEntity
  8
_U+30EC_U+30A4_U+30E4_U+30FC 1
 62
   179
420
  2234388
370
    25
100
AcDbVertex
100
AcDb2dVertex
 10
85.0328831084082
 20
-124.9346624687662
 30
0.0
  0
SEQEND
  5
122
330
11F
100
AcDbEntity
  8
_U+30EC_U+30A4_U+30E4_U+30FC 1
 62
   179
420
  2234388
370
    25
  0
POLYLINE
  5
123
330
1F
100
AcDbEntity
  8
_U+30EC_U+30A4_U+30E4_U+30FC 1
 62
   179
420
  2234388
370
    25
100
AcDb2dPolyline
 66
     1
 10
0.0
 20
0.0
 30
0.0
  0
VERTEX
  5
124
330
123
100
AcDbEntity
  8
_U+30EC_U+30A4_U+30E4_U+30FC 1
 62
   179
420
  2234388
370
    25
100
AcDbVertex
100
AcDb2dVertex
 10
85.0328831084082
 20
-124.9346624687662
 30
0.0
  0
VERTEX
  5
125
330
123
100
AcDbEntity
  8
_U+30EC_U+30A4_U+30E4_U+30FC 1
 62
   179
420
  2234388
370
    25
100
AcDbVertex
100
AcDb2dVertex
 10
85.54688031751726
 20
-125.3163680242265
 30
0.0
  0
SEQEND
  5
126
330
123
100
AcDbEntity
  8
_U+30EC_U+30A4_U+30E4_U+30FC 1
 62
   179
420
  2234388
370
    25
  0
POLYLINE
  5
127
330
1F
100
AcDbEntity
  8
_U+30EC_U+30A4_U+30E4_U+30FC 1
 62
   179
420
  2234388
370
    25
100
AcDb2dPolyline
 66
     1
 10
0.0
 20
0.0
 30
0.0
  0
VERTEX
  5
128
330
127
100
AcDbEntity
  8
_U+30EC_U+30A4_U+30E4_U+30FC 1
 62
   179
420
  2234388
370
    25
100
AcDbVertex
100
AcDb2dVertex
 10
85.54688031751726
 20
-125.3163680242265
 30
0.0
  0
VERTEX
  5
129
330
127
100
AcDbEntity
  8
_U+30EC_U+30A4_U+30E4_U+30FC 1
 62
   179
420
  2234388
370
    25
100
AcDbVertex
100
AcDb2dVertex
 10
86.03194974958654
 20
-124.898820246553
 30
0.0
  0
SEQEND
  5
12A
330
127
100
AcDbEntity
  8
_U+30EC_U+30A4_U+30E4_U+30FC 1
 62
   179
420
  2234388
370
    25
  0
POLYLINE
  5
12B
330
1F
100
AcDbEntity
  8
_U+30EC_U+30A4_U+30E4_U+30FC 1
 62
   179
420
  2234388
370
    25
100
AcDb2dPolyline
 66
     1
 10
0.0
 20
0.0
 30
0.0
  0
VERTEX
  5
12C
330
12B
100
AcDbEntity
  8
_U+30EC_U+30A4_U+30E4_U+30FC 1
 62
   179
420
  2234388
370
    25
100
AcDbVertex
100
AcDb2dVertex
 10
86.03194974958654
 20
-124.898820246553
 30
0.0
  0
VERTEX
  5
12D
330
12B
100
AcDbEntity
  8
_U+30EC_U+30A4_U+30E4_U+30FC 1
 62
   179
420
  2234388
370
    25
100
AcDbVertex
100
AcDb2dVertex
 10
86.54594695869561
 20
-125.280561079791
 30
0.0
  0
SEQEND
  5
12E
330
12B
100
AcDbEntity
  8
_U+30EC_U+30A4_U+30E4_U+30FC 1
 62
   179
420
  2234388
370
    25
  0
POLYLINE
  5
12F
330
1F
100
AcDbEntity
  8
_U+30EC_U+30A4_U+30E4_U+30FC 1
 62
   179
420
  2234388
370
    25
100
AcDb2dPolyline
 66
     1
 10
0.0
 20
0.0
 30
0.0
  0
VERTEX
  5
130
330
12F
100
AcDbEntity
  8
_U+30EC_U+30A4_U+30E4_U+30FC 1
 62
   179
420
  2234388
370
    25
100
AcDbVertex
100
AcDb2dVertex
 10
86.54594695869561
 20
-125.280561079791
 30
0.0
  0
VERTEX
  5
131
330
12F
100
AcDbEntity
  8
_U+30EC_U+30A4_U+30E4_U+30FC 1
 62
   179
420
  2234388
370
    25
100
AcDbVertex
100
AcDb2dVertex
 10
87.03172194630245
 20
-124.8630133021176
 30
0.0
  0
SEQEND
  5
132
330
12F
100
AcDbEntity
  8
_U+30EC_U+30A4_U+30E4_U+30FC 1
 62
   179
420
  2234388
370
    25
  0
POLYLINE
  5
133
330
1F
100
AcDbEntity
  8
_U+30EC_U+30A4_U+30E4_U+30FC 1
 62
   179
420
  2234388
370
    25
100
AcDb2dPolyline
 66
     1
 10
0.0
 20
0.0
 30
0.0
  0
VERTEX
  5
134
330
133
100
AcDbEntity
  8
_U+30EC_U+30A4_U+30E4_U+30FC 1
 62
   179
420
  2234388
370
    25
100
AcDbVertex
100
AcDb2dVertex
 10
87.03172194630245
 20
-124.8630133021176
 30
0.0
  0
VERTEX
  5
135
330
133
100
AcDbEntity
  8
_U+30EC_U+30A4_U+30E4_U+30FC 1
 62
   179
420
  2234388
370
    25
100
AcDbVertex
100
AcDb2dVertex
 10
87.54571915541152
 20
-125.2450716353556
 30
0.0
  0
SEQEND
  5
136
330
133
100
AcDbEntity
  8
_U+30EC_U+30A4_U+30E4_U+30FC 1
 62
   179
420
  2234388
370
    25
  0
POLYLINE
  5
137
330
1F
100
AcDbEntity
  8
_U+30EC_U+30A4_U+30E4_U+30FC 1
 62
   179
420
  2234388
370
    25
100
AcDb2dPolyline
 66
     1
 10
0.0
 20
0.0
 30
0.0
  0
VERTEX
  5
138
330
137
100
AcDbEntity
  8
_U+30EC_U+30A4_U+30E4_U+30FC 1
 62
   179
420
  2234388
370
    25
100
AcDbVertex
100
AcDb2dVertex
 10
87.54571915541152
 20
-125.2450716353556
 30
0.0
  0
VERTEX
  5
139
330
137
100
AcDbEntity
  8
_U+30EC_U+30A4_U+30E4_U+30FC 1
 62
   179
420
  2234388
370
    25
100
AcDbVertex
100
AcDb2dVertex
 10
88.04595803153825
 20
-124.8147885799074
 30
0.0
  0
SEQEND
  5
13A
330
137
100
AcDbEntity
  8
_U+30EC_U+30A4_U+30E4_U+30FC 1
 62
   179
420
  2234388
370
    25
  0
POLYLINE
  5
13B
330
1F
100
AcDbEntity
  8
_U+30EC_U+30A4_U+30E4_U+30FC 1
 62
   179
420
  2234388
370
    25
100
AcDb2dPolyline
 66
     1
 10
0.0
 20
0.0
 30
0.0
  0
VERTEX
  5
13C
330
13B
100
AcDbEntity
  8
_U+30EC_U+30A4_U+30E4_U+30FC 1
 62
   179
420
  2234388
370
    25
100
AcDbVertex
100
AcDb2dVertex
 10
88.04595803153825
 20
-124.8147885799074
 30
0.0
  0
VERTEX
  5
13D
330
13B
100
AcDbEntity
  8
_U+30EC_U+30A4_U+30E4_U+30FC 1
 62
   179
420
  2234388
370
    25
100
AcDbVertex
100
AcDb2dVertex
 10
88.04595803153825
 20
-133.0768088556196
 30
0.0
  0
SEQEND
  5
13E
330
13B
100
AcDbEntity
  8
_U+30EC_U+30A4_U+30E4_U+30FC 1
 62
   179
420
  2234388
370
    25
  0
POLYLINE
  5
13F
330
1F
100
AcDbEntity
  8
_U+30EC_U+30A4_U+30E4_U+30FC 1
 62
   179
420
  2234388
370
    25
100
AcDb2dPolyline
 66
     1
 10
0.0
 20
0.0
 30
0.0
  0
VERTEX
  5
140
330
13F
100
AcDbEntity
  8
_U+30EC_U+30A4_U+30E4_U+30FC 1
 62
   179
420
  2234388
370
    25
100
AcDbVertex
100
AcDb2dVertex
 10
87.04551555706166
 20
-126.0770627462584
 30
0.0
  0
VERTEX
  5
141
330
13F
100
AcDbEntity
  8
_U+30EC_U+30A4_U+30E4_U+30FC 1
 62
   179
420
  2234388
370
    25
100
AcDbVertex
100
AcDb2dVertex
 10
87.04551555706166
 20
-134.0768985775917
 30
0.0
  0
SEQEND
  5
142
330
13F
100
AcDbEntity
  8
_U+30EC_U+30A4_U+30E4_U+30FC 1
 62
   179
420
  2234388
370
    25
  0
POLYLINE
  5
143
330
1F
100
AcDbEntity
  8
_U+30EC_U+30A4_U+30E4_U+30FC 1
 62
   179
420
  2234388
370
    25
100
AcDb2dPolyline
 66
     1
 10
0.0
 20
0.0
 30
0.0
  0
VERTEX
  5
144
330
143
100
AcDbEntity
  8
_U+30EC_U+30A4_U+30E4_U+30FC 1
 62
   179
420
  2234388
370
    25
100
AcDbVertex
100
AcDb2dVertex
 10
91.04594719946061
 20
-133.0768088556196
 30
0.0
  0
VERTEX
  5
145
330
143
100
AcDbEntity
  8
_U+30EC_U+30A4_U+30E4_U+30FC 1
 62
   179
420
  2234388
370
    25
100
AcDbVertex
100
AcDb2dVertex
 10
88.04595803153825
 20
-133.0768088556196
 30
0.0
  0
SEQEND
  5
146
330
143
100
AcDbEntity
  8
_U+30EC_U+30A4_U+30E4_U+30FC 1
 62
   179
420
  2234388
370
    25
  0
SPLINE
  5
147
330
1F
100
AcDbEntity
  8
_U+30EC_U+30A4_U+30E4_U+30FC 1
 62
   179
420
  2234388
370
     9
100
AcDbSpline
210
0.0
220
0.0
230
1.0
 70
    11
 71
     3
 72
    17
 73
    13
 74
     0
 42
0.0000000001
 43
0.0000000001
 12
1.0
 22
0.0
 32
0.0
 13
1.0
 23
0.0
 33
0.0
 40
0.0
 40
0.0
 40
0.0
 40
0.0
 40
1.0
 40
1.0
 40
1.0
 40
2.0
 40
2.0
 40
2.0
 40
3.0
 40
3.0
 40
3.0
 40
4.0
 40
4.0
 40
4.0
 40
4.0
 10
67.14489998321389
 20
-120.8150294142408
 30
0.0
 10
67.14489998321389
 20
-120.75953746981
 30
0.0
 10
67.10013078813304
 20
-120.7147699698214
 30
0.0
 10
67.0449916228731
 20
-120.7147699698214
 30
0.0
 10
66.98953495762125
 20
-120.7147699698214
 30
0.0
 10
66.94473218098648
 20
-120.75953746981
 30
0.0
 10
66.94473218098648
 20
-120.8150294142408
 30
0.0
 10
66.94473218098648
 20
-120.8701333031157
 30
0.0
 10
66.98953495762125
 20
-120.9149360808825
 30
0.0
 10
67.0449916228731
 20
-120.9149360808825
 30
0.0
 10
67.10013078813304
 20
-120.9149360808825
 30
0.0
 10
67.14489998321389
 20
-120.8701333031157
 30
0.0
 10
67.14489998321389
 20
-120.8150294142408
 30
0.0
  0
SPLINE
  5
148
330
1F
100
AcDbEntity
  8
_U+30EC_U+30A4_U+30E4_U+30FC 1
 62
   179
420
  2234388
370
     9
100
AcDbSpline
210
0.0
220
0.0
230
1.0
 70
    11
 71
     3
 72
    17
 73
    13
 74
     0
 42
0.0000000001
 43
0.0000000001
 12
1.0
 22
0.0
 32
0.0
 13
1.0
 23
0.0
 33
0.0
 40
0.0
 40
0.0
 40
0.0
 40
0.0
 40
1.0
 40
1.0
 40
1.0
 40
2.0
 40
2.0
 40
2.0
 40
3.0
 40
3.0
 40
3.0
 40
4.0
 40
4.0
 40
4.0
 40
4.0
 10
64.91523695498545
 20
-125.5768238574947
 30
0.0
 10
64.91523695498545
 20
-125.5217199686194
 30
0.0
 10
64.87046945612755
 20
-125.476917190853
 30
0.0
 10
64.81497751309882
 20
-125.476917190853
 30
0.0
 10
64.75987362561575
 20
-125.476917190853
 30
0.0
 10
64.715070848981
 20
-125.5217199686194
 30
0.0
 10
64.715070848981
 20
-125.5768238574947
 30
0.0
 10
64.715070848981
 20
-125.6319630241474
 30
0.0
 10
64.75987362561575
 20
-125.6767305241363
 30
0.0
 10
64.81497751309882
 20
-125.6767305241363
 30
0.0
 10
64.87046945612755
 20
-125.6767305241363
 30
0.0
 10
64.91523695498545
 20
-125.6319630241474
 30
0.0
 10
64.91523695498545
 20
-125.5768238574947
 30
0.0
  0
SPLINE
  5
149
330
1F
100
AcDbEntity
  8
_U+30EC_U+30A4_U+30E4_U+30FC 1
 62
   179
420
  2234388
370
     9
100
AcDbSpline
210
0.0
220
0.0
230
1.0
 70
    11
 71
     3
 72
    17
 73
    13
 74
     0
 42
0.0000000001
 43
0.0000000001
 12
1.0
 22
0.0
 32
0.0
 13
1.0
 23
0.0
 33
0.0
 40
0.0
 40
0.0
 40
0.0
 40
0.0
 40
1.0
 40
1.0
 40
1.0
 40
2.0
 40
2.0
 40
2.0
 40
3.0
 40
3.0
 40
3.0
 40
4.0
 40
4.0
 40
4.0
 40
4.0
 10
64.91523695498545
 20
-126.0770627462584
 30
0.0
 10
64.91523695498545
 20
-126.0219235796056
 30
0.0
 10
64.87046945612755
 20
-125.9771560796167
 30
0.0
 10
64.81497751309882
 20
-125.9771560796167
 30
0.0
 10
64.75987362561575
 20
-125.9771560796167
 30
0.0
 10
64.715070848981
 20
-126.0219235796056
 30
0.0
 10
64.715070848981
 20
-126.0770627462584
 30
0.0
 10
64.715070848981
 20
-126.1321666351336
 30
0.0
 10
64.75987362561575
 20
-126.1769694129003
 30
0.0
 10
64.81497751309882
 20
-126.1769694129003
 30
0.0
 10
64.87046945612755
 20
-126.1769694129003
 30
0.0
 10
64.91523695498545
 20
-126.1321666351336
 30
0.0
 10
64.91523695498545
 20
-126.0770627462584
 30
0.0
  0
SPLINE
  5
14A
330
1F
100
AcDbEntity
  8
_U+30EC_U+30A4_U+30E4_U+30FC 1
 62
   179
420
  2234388
370
     9
100
AcDbSpline
210
0.0
220
0.0
230
1.0
 70
    11
 71
     3
 72
    17
 73
    13
 74
     0
 42
0.0000000001
 43
0.0000000001
 12
1.0
 22
0.0
 32
0.0
 13
1.0
 23
0.0
 33
0.0
 40
0.0
 40
0.0
 40
0.0
 40
0.0
 40
1.0
 40
1.0
 40
1.0
 40
2.0
 40
2.0
 40
2.0
 40
3.0
 40
3.0
 40
3.0
 40
4.0
 40
4.0
 40
4.0
 40
4.0
 10
64.91523695498545
 20
-134.0768985775917
 30
0.0
 10
64.91523695498545
 20
-134.0217946887168
 30
0.0
 10
64.87046945612755
 20
-133.9769919109501
 30
0.0
 10
64.81497751309882
 20
-133.9769919109501
 30
0.0
 10
64.75987362561575
 20
-133.9769919109501
 30
0.0
 10
64.715070848981
 20
-134.0217946887168
 30
0.0
 10
64.715070848981
 20
-134.0768985775917
 30
0.0
 10
64.715070848981
 20
-134.1320377442448
 30
0.0
 10
64.75987362561575
 20
-134.1768405220116
 30
0.0
 10
64.81497751309882
 20
-134.1768405220116
 30
0.0
 10
64.87046945612755
 20
-134.1768405220116
 30
0.0
 10
64.91523695498545
 20
-134.1320377442448
 30
0.0
 10
64.91523695498545
 20
-134.0768985775917
 30
0.0
  0
SPLINE
  5
14B
330
1F
100
AcDbEntity
  8
_U+30EC_U+30A4_U+30E4_U+30FC 1
 62
   179
420
  2234388
370
     9
100
AcDbSpline
210
0.0
220
0.0
230
1.0
 70
    11
 71
     3
 72
    17
 73
    13
 74
     0
 42
0.0000000001
 43
0.0000000001
 12
1.0
 22
0.0
 32
0.0
 13
1.0
 23
0.0
 33
0.0
 40
0.0
 40
0.0
 40
0.0
 40
0.0
 40
1.0
 40
1.0
 40
1.0
 40
2.0
 40
2.0
 40
2.0
 40
3.0
 40
3.0
 40
3.0
 40
4.0
 40
4.0
 40
4.0
 40
4.0
 10
88.14586469565609
 20
-120.8150294142408
 30
0.0
 10
88.14586469565609
 20
-120.75953746981
 30
0.0
 10
88.10109719679821
 20
-120.7147699698214
 30
0.0
 10
88.04595803153825
 20
-120.7147699698214
 30
0.0
 10
87.99014858851763
 20
-120.7147699698214
 30
0.0
 10
87.94534581188286
 20
-120.75953746981
 30
0.0
 10
87.94534581188286
 20
-120.8150294142408
 30
0.0
 10
87.94534581188286
 20
-120.8701333031157
 30
0.0
 10
87.99014858851763
 20
-120.9149360808825
 30
0.0
 10
88.04595803153825
 20
-120.9149360808825
 30
0.0
 10
88.10109719679821
 20
-120.9149360808825
 30
0.0
 10
88.14586469565609
 20
-120.8701333031157
 30
0.0
 10
88.14586469565609
 20
-120.8150294142408
 30
0.0
  0
SPLINE
  5
14C
330
1F
100
AcDbEntity
  8
_U+30EC_U+30A4_U+30E4_U+30FC 1
 62
   179
420
  2234388
370
     9
100
AcDbSpline
210
0.0
220
0.0
230
1.0
 70
    11
 71
     3
 72
    17
 73
    13
 74
     0
 42
0.0000000001
 43
0.0000000001
 12
1.0
 22
0.0
 32
0.0
 13
1.0
 23
0.0
 33
0.0
 40
0.0
 40
0.0
 40
0.0
 40
0.0
 40
1.0
 40
1.0
 40
1.0
 40
2.0
 40
2.0
 40
2.0
 40
3.0
 40
3.0
 40
3.0
 40
4.0
 40
4.0
 40
4.0
 40
4.0
 10
91.16377497720919
 20
-120.8150294142408
 30
0.0
 10
91.16377497720919
 20
-120.75953746981
 30
0.0
 10
91.11897219944247
 20
-120.7147699698214
 30
0.0
 10
91.06386601010055
 20
-120.7147699698214
 30
0.0
 10
91.00872684484061
 20
-120.7147699698214
 30
0.0
 10
90.96395934598273
 20
-120.75953746981
 30
0.0
 10
90.96395934598273
 20
-120.8150294142408
 30
0.0
 10
90.96395934598273
 20
-120.8701333031157
 30
0.0
 10
91.00872684484061
 20
-120.9149360808825
 30
0.0
 10
91.06386601010055
 20
-120.9149360808825
 30
0.0
 10
91.11897219944247
 20
-120.9149360808825
 30
0.0
 10
91.16377497720919
 20
-120.8701333031157
 30
0.0
 10
91.16377497720919
 20
-120.8150294142408
 30
0.0
  0
POLYLINE
  5
14D
330
1F
100
AcDbEntity
  8
_U+30EC_U+30A4_U+30E4_U+30FC 1
 62
   179
420
  2234388
370
     9
100
AcDb2dPolyline
 66
     1
 10
0.0
 20
0.0
 30
0.0
  0
VERTEX
  5
14E
330
14D
100
AcDbEntity
  8
_U+30EC_U+30A4_U+30E4_U+30FC 1
 62
   179
420
  2234388
370
     9
100
AcDbVertex
100
AcDb2dVertex
 10
64.81497751309882
 20
-125.5768238574947
 30
0.0
  0
VERTEX
  5
14F
330
14D
100
AcDbEntity
  8
_U+30EC_U+30A4_U+30E4_U+30FC 1
 62
   179
420
  2234388
370
     9
100
AcDbVertex
100
AcDb2dVertex
 10
64.81497751309882
 20
-120.3192708032535
 30
0.0
  0
SEQEND
  5
150
330
14D
100
AcDbEntity
  8
_U+30EC_U+30A4_U+30E4_U+30FC 1
 62
   179
420
  2234388
370
     9
  0
POLYLINE
  5
151
330
1F
100
AcDbEntity
  8
_U+30EC_U+30A4_U+30E4_U+30FC 1
 62
   179
420
  2234388
370
     9
100
AcDb2dPolyline
 66
     1
 10
0.0
 20
0.0
 30
0.0
  0
VERTEX
  5
152
330
151
100
AcDbEntity
  8
_U+30EC_U+30A4_U+30E4_U+30FC 1
 62
   179
420
  2234388
370
     9
100
AcDbVertex
100
AcDb2dVertex
 10
64.81497751309882
 20
-125.5768238574947
 30
0.0
  0
VERTEX
  5
153
330
151
100
AcDbEntity
  8
_U+30EC_U+30A4_U+30E4_U+30FC 1
 62
   179
420
  2234388
370
     9
100
AcDbVertex
100
AcDb2dVertex
 10
64.81497751309882
 20
-126.0770627462584
 30
0.0
  0
SEQEND
  5
154
330
151
100
AcDbEntity
  8
_U+30EC_U+30A4_U+30E4_U+30FC 1
 62
   179
420
  2234388
370
     9
  0
POLYLINE
  5
155
330
1F
100
AcDbEntity
  8
_U+30EC_U+30A4_U+30E4_U+30FC 1
 62
   179
420
  2234388
370
     9
100
AcDb2dPolyline
 66
     1
 10
0.0
 20
0.0
 30
0.0
  0
VERTEX
  5
156
330
155
100
AcDbEntity
  8
_U+30EC_U+30A4_U+30E4_U+30FC 1
 62
   179
420
  2234388
370
     9
100
AcDbVertex
100
AcDb2dVertex
 10
66.27501886473897
 20
-125.5768238574947
 30
0.0
  0
VERTEX
  5
157
330
155
100
AcDbEntity
  8
_U+30EC_U+30A4_U+30E4_U+30FC 1
 62
   179
420
  2234388
370
     9
100
AcDbVertex
100
AcDb2dVertex
 10
63.8152405941598
 20
-125.5768238574947
 30
0.0
  0
SEQEND
  5
158
330
155
100
AcDbEntity
  8
_U+30EC_U+30A4_U+30E4_U+30FC 1
 62
   179
420
  2234388
370
     9
  0
POLYLINE
  5
159
330
1F
100
AcDbEntity
  8
_U+30EC_U+30A4_U+30E4_U+30FC 1
 62
   179
420
  2234388
370
     9
100
AcDb2dPolyline
 66
     1
 10
0.0
 20
0.0
 30
0.0
  0
VERTEX
  5
15A
330
159
100
AcDbEntity
  8
_U+30EC_U+30A4_U+30E4_U+30FC 1
 62
   179
420
  2234388
370
     9
100
AcDbVertex
100
AcDb2dVertex
 10
66.27501886473897
 20
-126.0770627462584
 30
0.0
  0
VERTEX
  5
15B
330
159
100
AcDbEntity
  8
_U+30EC_U+30A4_U+30E4_U+30FC 1
 62
   179
420
  2234388
370
     9
100
AcDbVertex
100
AcDb2dVertex
 10
63.8152405941598
 20
-126.0770627462584
 30
0.0
  0
SEQEND
  5
15C
330
159
100
AcDbEntity
  8
_U+30EC_U+30A4_U+30E4_U+30FC 1
 62
   179
420
  2234388
370
     9
  0
INSERT
  5
15E
330
1F
100
AcDbEntity
  8
_U+30EC_U+30A4_U+30E4_U+30FC 1
100
AcDbBlockReference
  2
block 4
 10
0.0
 20
0.0
 30
0.0
  0
POLYLINE
  5
16E
330
1F
100
AcDbEntity
  8
_U+30EC_U+30A4_U+30E4_U+30FC 1
 62
   179
420
  2234388
370
     9
100
AcDb2dPolyline
 66
     1
 10
0.0
 20
0.0
 30
0.0
  0
VERTEX
  5
16F
330
16E
100
AcDbEntity
  8
_U+30EC_U+30A4_U+30E4_U+30FC 1
 62
   179
420
  2234388
370
     9
100
AcDbVertex
100
AcDb2dVertex
 10
67.0449916228731
 20
-120.8150294142408
 30
0.0
  0
VERTEX
  5
170
330
16E
100
AcDbEntity
  8
_U+30EC_U+30A4_U+30E4_U+30FC 1
 62
   179
420
  2234388
370
     9
100
AcDbVertex
100
AcDb2dVertex
 10
88.04595803153825
 20
-120.8150294142408
 30
0.0
  0
SEQEND
  5
171
330
16E
100
AcDbEntity
  8
_U+30EC_U+30A4_U+30E4_U+30FC 1
 62
   179
420
  2234388
370
     9
  0
POLYLINE
  5
172
330
1F
100
AcDbEntity
  8
_U+30EC_U+30A4_U+30E4_U+30FC 1
 62
   179
420
  2234388
370
     9
100
AcDb2dPolyline
 66
     1
 10
0.0
 20
0.0
 30
0.0
  0
VERTEX
  5
173
330
172
100
AcDbEntity
  8
_U+30EC_U+30A4_U+30E4_U+30FC 1
 62
   179
420
  2234388
370
     9
100
AcDbVertex
100
AcDb2dVertex
 10
67.0449916228731
 20
-123.0371060803518
 30
0.0
  0
VERTEX
  5
174
330
172
100
AcDbEntity
  8
_U+30EC_U+30A4_U+30E4_U+30FC 1
 62
   179
420
  2234388
370
     9
100
AcDbVertex
100
AcDb2dVertex
 10
67.0449916228731
 20
-119.8149044144908
 30
0.0
  0
SEQEND
  5
175
330
172
100
AcDbEntity
  8
_U+30EC_U+30A4_U+30E4_U+30FC 1
 62
   179
420
  2234388
370
     9
  0
INSERT
  5
177
330
1F
100
AcDbEntity
  8
_U+30EC_U+30A4_U+30E4_U+30FC 1
100
AcDbBlockReference
  2
block 5
 10
0.0
 20
0.0
 30
0.0
  0
POLYLINE
  5
17E
330
1F
100
AcDbEntity
  8
_U+30EC_U+30A4_U+30E4_U+30FC 1
 62
   179
420
  2234388
370
     9
100
AcDb2dPolyline
 66
     1
 10
0.0
 20
0.0
 30
0.0
  0
VERTEX
  5
17F
330
17E
100
AcDbEntity
  8
_U+30EC_U+30A4_U+30E4_U+30FC 1
 62
   179
420
  2234388
370
     9
100
AcDbVertex
100
AcDb2dVertex
 10
64.81497751309882
 20
-126.0770627462584
 30
0.0
  0
VERTEX
  5
180
330
17E
100
AcDbEntity
  8
_U+30EC_U+30A4_U+30E4_U+30FC 1
 62
   179
420
  2234388
370
     9
100
AcDbVertex
100
AcDb2dVertex
 10
64.81497751309882
 20
-134.0768985775917
 30
0.0
  0
SEQEND
  5
181
330
17E
100
AcDbEntity
  8
_U+30EC_U+30A4_U+30E4_U+30FC 1
 62
   179
420
  2234388
370
     9
  0
POLYLINE
  5
182
330
1F
100
AcDbEntity
  8
_U+30EC_U+30A4_U+30E4_U+30FC 1
 62
   179
420
  2234388
370
     9
100
AcDb2dPolyline
 66
     1
 10
0.0
 20
0.0
 30
0.0
  0
VERTEX
  5
183
330
182
100
AcDbEntity
  8
_U+30EC_U+30A4_U+30E4_U+30FC 1
 62
   179
420
  2234388
370
     9
100
AcDbVertex
100
AcDb2dVertex
 10
86.27656585445699
 20
-134.0768985775917
 30
0.0
  0
VERTEX
  5
184
330
182
100
AcDbEntity
  8
_U+30EC_U+30A4_U+30E4_U+30FC 1
 62
   179
420
  2234388
370
     9
100
AcDbVertex
100
AcDb2dVertex
 10
63.8152405941598
 20
-134.0768985775917
 30
0.0
  0
SEQEND
  5
185
330
182
100
AcDbEntity
  8
_U+30EC_U+30A4_U+30E4_U+30FC 1
 62
   179
420
  2234388
370
     9
  0
INSERT
  5
187
330
1F
100
AcDbEntity
  8
_U+30EC_U+30A4_U+30E4_U+30FC 1
100
AcDbBlockReference
  2
block 6
 10
0.0
 20
0.0
 30
0.0
  0
POLYLINE
  5
18E
330
1F
100
AcDbEntity
  8
_U+30EC_U+30A4_U+30E4_U+30FC 1
 62
   179
420
  2234388
370
     9
100
AcDb2dPolyline
 66
     1
 10
0.0
 20
0.0
 30
0.0
  0
VERTEX
  5
18F
330
18E
100
AcDbEntity
  8
_U+30EC_U+30A4_U+30E4_U+30FC 1
 62
   179
420
  2234388
370
     9
100
AcDbVertex
100
AcDb2dVertex
 10
91.06386601010055
 20
-132.5021691335411
 30
0.0
  0
VERTEX
  5
190
330
18E
100
AcDbEntity
  8
_U+30EC_U+30A4_U+30E4_U+30FC 1
 62
   179
420
  2234388
370
     9
100
AcDbVertex
100
AcDb2dVertex
 10
91.06386601010055
 20
-119.8149044144908
 30
0.0
  0
SEQEND
  5
191
330
18E
100
AcDbEntity
  8
_U+30EC_U+30A4_U+30E4_U+30FC 1
 62
   179
420
  2234388
370
     9
  0
POLYLINE
  5
192
330
1F
100
AcDbEntity
  8
_U+30EC_U+30A4_U+30E4_U+30FC 1
 62
   179
420
  2234388
370
     9
100
AcDb2dPolyline
 66
     1
 10
0.0
 20
0.0
 30
0.0
  0
VERTEX
  5
193
330
192
100
AcDbEntity
  8
_U+30EC_U+30A4_U+30E4_U+30FC 1
 62
   179
420
  2234388
370
     9
100
AcDbVertex
100
AcDb2dVertex
 10
88.04595803153825
 20
-120.8150294142408
 30
0.0
  0
VERTEX
  5
194
330
192
100
AcDbEntity
  8
_U+30EC_U+30A4_U+30E4_U+30FC 1
 62
   179
420
  2234388
370
     9
100
AcDbVertex
100
AcDb2dVertex
 10
91.04594719946061
 20
-120.8150294142408
 30
0.0
  0
SEQEND
  5
195
330
192
100
AcDbEntity
  8
_U+30EC_U+30A4_U+30E4_U+30FC 1
 62
   179
420
  2234388
370
     9
  0
POLYLINE
  5
196
330
1F
100
AcDbEntity
  8
_U+30EC_U+30A4_U+30E4_U+30FC 1
 62
   179
420
  2234388
370
     9
100
AcDb2dPolyline
 66
     1
 10
0.0
 20
0.0
 30
0.0
  0
VERTEX
  5
197
330
196
100
AcDbEntity
  8
_U+30EC_U+30A4_U+30E4_U+30FC 1
 62
   179
420
  2234388
370
     9
100
AcDbVertex
100
AcDb2dVertex
 10
88.04595803153825
 20
-122.2750355249867
 30
0.0
  0
VERTEX
  5
198
330
196
100
AcDbEntity
  8
_U+30EC_U+30A4_U+30E4_U+30FC 1
 62
   179
420
  2234388
370
     9
100
AcDbVertex
100
AcDb2dVertex
 10
88.04595803153825
 20
-119.8149044144908
 30
0.0
  0
SEQEND
  5
199
330
196
100
AcDbEntity
  8
_U+30EC_U+30A4_U+30E4_U+30FC 1
 62
   179
420
  2234388
370
     9
  0
INSERT
  5
19B
330
1F
100
AcDbEntity
  8
_U+30EC_U+30A4_U+30E4_U+30FC 1
100
AcDbBlockReference
  2
block 7
 10
0.0
 20
0.0
 30
0.0
  0
SPLINE
  5
1A0
330
1F
100
AcDbEntity
  8
_U+30EC_U+30A4_U+30E4_U+30FC 1
 62
   179
420
  2234388
370
     9
100
AcDbSpline
210
0.0
220
0.0
230
1.0
 70
    11
 71
     3
 72
    17
 73
    13
 74
     0
 42
0.0000000001
 43
0.0000000001
 12
1.0
 22
0.0
 32
0.0
 13
1.0
 23
0.0
 33
0.0
 40
0.0
 40
0.0
 40
0.0
 40
0.0
 40
1.0
 40
1.0
 40
1.0
 40
2.0
 40
2.0
 40
2.0
 40
3.0
 40
3.0
 40
3.0
 40
4.0
 40
4.0
 40
4.0
 40
4.0
 10
87.3589938823975
 20
-138.1903580210079
 30
0.0
 10
87.3589938823975
 20
-138.135254132133
 30
0.0
 10
87.27563249563534
 20
-138.0904513543663
 30
0.0
 10
87.17297416492104
 20
-138.0904513543663
 30
0.0
 10
87.07169166750496
 20
-138.0904513543663
 30
0.0
 10
86.9883302807428
 20
-138.135254132133
 30
0.0
 10
86.9883302807428
 20
-138.1903580210079
 30
0.0
 10
86.9883302807428
 20
-138.245497187661
 30
0.0
 10
87.07169166750496
 20
-138.2902646876496
 30
0.0
 10
87.17297416492104
 20
-138.2902646876496
 30
0.0
 10
87.27563249563534
 20
-138.2902646876496
 30
0.0
 10
87.3589938823975
 20
-138.245497187661
 30
0.0
 10
87.3589938823975
 20
-138.1903580210079
 30
0.0
  0
SPLINE
  5
1A1
330
1F
100
AcDbEntity
  8
_U+30EC_U+30A4_U+30E4_U+30FC 1
 62
   179
420
  2234388
370
     9
100
AcDbSpline
210
0.0
220
0.0
230
1.0
 70
    11
 71
     3
 72
    17
 73
    13
 74
     0
 42
0.0000000001
 43
0.0000000001
 12
1.0
 22
0.0
 32
0.0
 13
1.0
 23
0.0
 33
0.0
 40
0.0
 40
0.0
 40
0.0
 40
0.0
 40
1.0
 40
1.0
 40
1.0
 40
2.0
 40
2.0
 40
2.0
 40
3.0
 40
3.0
 40
3.0
 40
4.0
 40
4.0
 40
4.0
 40
4.0
 10
91.4658915553996
 20
-138.1903580210079
 30
0.0
 10
91.4658915553996
 20
-138.135254132133
 30
0.0
 10
91.38253016863743
 20
-138.0904513543663
 30
0.0
 10
91.28160275495745
 20
-138.0904513543663
 30
0.0
 10
91.1775662849776
 20
-138.0904513543663
 30
0.0
 10
91.09554545373679
 20
-138.135254132133
 30
0.0
 10
91.09554545373679
 20
-138.1903580210079
 30
0.0
 10
91.09554545373679
 20
-138.245497187661
 30
0.0
 10
91.1775662849776
 20
-138.2902646876496
 30
0.0
 10
91.28160275495745
 20
-138.2902646876496
 30
0.0
 10
91.38253016863743
 20
-138.2902646876496
 30
0.0
 10
91.4658915553996
 20
-138.245497187661
 30
0.0
 10
91.4658915553996
 20
-138.1903580210079
 30
0.0
  0
POLYLINE
  5
1A2
330
1F
100
AcDbEntity
  8
_U+30EC_U+30A4_U+30E4_U+30FC 1
 62
   179
420
  2234388
370
     9
100
AcDb2dPolyline
 66
     1
 10
0.0
 20
0.0
 30
0.0
  0
VERTEX
  5
1A3
330
1A2
100
AcDbEntity
  8
_U+30EC_U+30A4_U+30E4_U+30FC 1
 62
   179
420
  2234388
370
     9
100
AcDbVertex
100
AcDb2dVertex
 10
91.17273322954534
 20
-138.1903580210079
 30
0.0
  0
VERTEX
  5
1A4
330
1A2
100
AcDbEntity
  8
_U+30EC_U+30A4_U+30E4_U+30FC 1
 62
   179
420
  2234388
370
     9
100
AcDbVertex
100
AcDb2dVertex
 10
87.17297416492104
 20
-138.1903580210079
 30
0.0
  0
SEQEND
  5
1A5
330
1A2
100
AcDbEntity
  8
_U+30EC_U+30A4_U+30E4_U+30FC 1
 62
   179
420
  2234388
370
     9
  0
POLYLINE
  5
1A6
330
1F
100
AcDbEntity
  8
_U+30EC_U+30A4_U+30E4_U+30FC 1
 62
   179
420
  2234388
370
     9
100
AcDb2dPolyline
 66
     1
 10
0.0
 20
0.0
 30
0.0
  0
VERTEX
  5
1A7
330
1A6
100
AcDbEntity
  8
_U+30EC_U+30A4_U+30E4_U+30FC 1
 62
   179
420
  2234388
370
     9
100
AcDbVertex
100
AcDb2dVertex
 10
91.28160275495745
 20
-136.7303166324842
 30
0.0
  0
VERTEX
  5
1A8
330
1A6
100
AcDbEntity
  8
_U+30EC_U+30A4_U+30E4_U+30FC 1
 62
   179
420
  2234388
370
     9
100
AcDbVertex
100
AcDb2dVertex
 10
91.28160275495745
 20
-139.1904830207582
 30
0.0
  0
SEQEND
  5
1A9
330
1A6
100
AcDbEntity
  8
_U+30EC_U+30A4_U+30E4_U+30FC 1
 62
   179
420
  2234388
370
     9
  0
POLYLINE
  5
1AA
330
1F
100
AcDbEntity
  8
_U+30EC_U+30A4_U+30E4_U+30FC 1
 62
   179
420
  2234388
370
     9
100
AcDb2dPolyline
 66
     1
 10
0.0
 20
0.0
 30
0.0
  0
VERTEX
  5
1AB
330
1AA
100
AcDbEntity
  8
_U+30EC_U+30A4_U+30E4_U+30FC 1
 62
   179
420
  2234388
370
     9
100
AcDbVertex
100
AcDb2dVertex
 10
87.17297416492104
 20
-136.7303166324842
 30
0.0
  0
VERTEX
  5
1AC
330
1AA
100
AcDbEntity
  8
_U+30EC_U+30A4_U+30E4_U+30FC 1
 62
   179
420
  2234388
370
     9
100
AcDbVertex
100
AcDb2dVertex
 10
87.17297416492104
 20
-139.1904830207582
 30
0.0
  0
SEQEND
  5
1AD
330
1AA
100
AcDbEntity
  8
_U+30EC_U+30A4_U+30E4_U+30FC 1
 62
   179
420
  2234388
370
     9
  0
INSERT
  5
1AF
330
1F
100
AcDbEntity
  8
_U+30EC_U+30A4_U+30E4_U+30FC 1
100
AcDbBlockReference
  2
block 8
 10
0.0
 20
0.0
 30
0.0
  0
POLYLINE
  5
1C7
330
1F
100
AcDbEntity
  8
_U+30EC_U+30A4_U+30E4_U+30FC 1
 62
   179
420
  2234388
370
    25
100
AcDb2dPolyline
 66
     1
 10
0.0
 20
0.0
 30
0.0
  0
VERTEX
  5
1C8
330
1C7
100
AcDbEntity
  8
_U+30EC_U+30A4_U+30E4_U+30FC 1
 62
   179
420
  2234388
370
    25
100
AcDbVertex
100
AcDb2dVertex
 10
91.1616912853826
 20
-133.0768088556196
 30
0.0
  0
VERTEX
  5
1C9
330
1C7
100
AcDbEntity
  8
_U+30EC_U+30A4_U+30E4_U+30FC 1
 62
   179
420
  2234388
370
    25
100
AcDbVertex
100
AcDb2dVertex
 10
91.1616912853826
 20
-134.0768985775917
 30
0.0
  0
SEQEND
  5
1CA
330
1C7
100
AcDbEntity
  8
_U+30EC_U+30A4_U+30E4_U+30FC 1
 62
   179
420
  2234388
370
    25
  0
POLYLINE
  5
1CB
330
1F
100
AcDbEntity
  8
_U+30EC_U+30A4_U+30E4_U+30FC 1
 62
   179
420
  2234388
370
     9
100
AcDb2dPolyline
 66
     1
 10
0.0
 20
0.0
 30
0.0
  0
VERTEX
  5
1CC
330
1CB
100
AcDbEntity
  8
_U+30EC_U+30A4_U+30E4_U+30FC 1
 62
   179
420
  2234388
370
     9
100
AcDbVertex
100
AcDb2dVertex
 10
82.0287687406051
 20
-131.2805349671797
 30
0.0
  0
VERTEX
  5
1CD
330
1CB
100
AcDbEntity
  8
_U+30EC_U+30A4_U+30E4_U+30FC 1
 62
   179
420
  2234388
370
     9
100
AcDbVertex
100
AcDb2dVertex
 10
90.02825159207684
 20
-131.2805349671797
 30
0.0
  0
SEQEND
  5
1CE
330
1CB
100
AcDbEntity
  8
_U+30EC_U+30A4_U+30E4_U+30FC 1
 62
   179
420
  2234388
370
     9
  0
INSERT
  5
1D0
330
1F
100
AcDbEntity
  8
_U+30EC_U+30A4_U+30E4_U+30FC 1
100
AcDbBlockReference
  2
block 9
 10
0.0
 20
0.0
 30
0.0
  0
INSERT
  5
1D6
330
1F
100
AcDbEntity
  8
_U+30EC_U+30A4_U+30E4_U+30FC 1
100
AcDbBlockReference
  2
block 10
 10
0.0
 20
0.0
 30
0.0
  0
ENDSEC
  0
SECTION
  2
OBJECTS
  0
DICTIONARY
  5
C
330
0
100
AcDbDictionary
281
     1
  3
ACAD_GROUP
350
D
  3
ACAD_LAYOUT
350
1A
  3
ACAD_MATERIAL
350
3B
  3
ACAD_MLEADERSTYLE
350
213
  3
ACAD_MLINESTYLE
350
17
  3
ACAD_PLOTSETTINGS
350
19
  3
ACAD_PLOTSTYLENAME
350
E
  3
ACAD_TABLESTYLE
350
212
  3
ACAD_VISUALSTYLE
350
2A
  0
SUN
  5
3F
330
29
100
AcDbSun
 90
        1
290
     0
 63
     7
421
 16777215
 40
1.0
291
     1
 91
  2455826
 92
 54000000
292
     0
 70
     2
 71
   256
280
     1
  0
DICTIONARY
  5
D
102
{ACAD_REACTORS
330
C
102
}
330
C
100
AcDbDictionary
281
     1
  0
DICTIONARY
  5
1A
102
{ACAD_REACTORS
330
C
102
}
330
C
100
AcDbDictionary
281
     1
  3
Layout1
350
1E
  3
Layout2
350
26
  3
Model
350
22
  0
DICTIONARY
  5
3B
102
{ACAD_REACTORS
330
C
102
}
330
C
100
AcDbDictionary
281
     1
  3
ByBlock
350
3D
  3
ByLayer
350
3C
  3
Global
350
3E
  0
DICTIONARY
  5
213
102
{ACAD_REACTORS
330
C
102
}
330
C
100
AcDbDictionary
281
     1
  0
DICTIONARY
  5
17
102
{ACAD_REACTORS
330
C
102
}
330
C
100
AcDbDictionary
281
     1
  3
Standard
350
18
  0
DICTIONARY
  5
19
102
{ACAD_REACTORS
330
C
102
}
330
C
100
AcDbDictionary
281
     1
  0
ACDBDICTIONARYWDFLT
  5
E
102
{ACAD_REACTORS
330
C
102
}
330
C
100
AcDbDictionary
281
     1
  3
Normal
350
F
100
AcDbDictionaryWithDefault
340
F
  0
DICTIONARY
  5
212
102
{ACAD_REACTORS
330
C
102
}
330
C
100
AcDbDictionary
281
     1
  0
DICTIONARY
  5
2A
102
{ACAD_REACTORS
330
C
102
}
330
C
100
AcDbDictionary
281
     1
  3
2dWireframe
350
2F
  3
3D Hidden
350
31
  3
3dWireframe
350
30
  3
Basic
350
32
  3
Brighten
350
36
  3
ColorChange
350
3A
  3
Conceptual
350
34
  3
Dim
350
35
  3
Facepattern
350
39
  3
Flat
350
2B
  3
FlatWithEdges
350
2C
  3
Gouraud
350
2D
  3
GouraudWithEdges
350
2E
  3
Linepattern
350
38
  3
Realistic
350
33
  3
Thicken
350
37
  0
LAYOUT
  5
1E
102
{ACAD_REACTORS
330
1A
102
}
330
1A
100
AcDbPlotSettings
  1

  2
none_device
  4

  6

 40
0.0
 41
0.0
 42
0.0
 43
0.0
 44
0.0
 45
0.0
 46
0.0
 47
0.0
 48
0.0
 49
0.0
140
0.0
141
0.0
142
1.0
143
1.0
 70
   688
 72
     0
 73
     0
 74
     5
  7

 75
    16
 76
     0
 77
     2
 78
   300
147
1.0
148
0.0
149
0.0
100
AcDbLayout
  1
Layout1
 70
     1
 71
     1
 10
0.0
 20
0.0
 11
12.0
 21
9.0
 12
0.0
 22
0.0
 32
0.0
 14
1.000000000000000E+20
 24
1.000000000000000E+20
 34
1.000000000000000E+20
 15
-1.000000000000000E+20
 25
-1.000000000000000E+20
 35
-1.000000000000000E+20
146
0.0
 13
0.0
 23
0.0
 33
0.0
 16
1.0
 26
0.0
 36
0.0
 17
0.0
 27
1.0
 37
0.0
 76
     0
330
1B
  0
LAYOUT
  5
26
102
{ACAD_REACTORS
330
1A
102
}
330
1A
100
AcDbPlotSettings
  1

  2
none_device
  4

  6

 40
0.0
 41
0.0
 42
0.0
 43
0.0
 44
0.0
 45
0.0
 46
0.0
 47
0.0
 48
0.0
 49
0.0
140
0.0
141
0.0
142
1.0
143
1.0
 70
   688
 72
     0
 73
     0
 74
     5
  7

 75
    16
 76
     0
 77
     2
 78
   300
147
1.0
148
0.0
149
0.0
100
AcDbLayout
  1
Layout2
 70
     1
 71
     2
 10
0.0
 20
0.0
 11
0.0
 21
0.0
 12
0.0
 22
0.0
 32
0.0
 14
0.0
 24
0.0
 34
0.0
 15
0.0
 25
0.0
 35
0.0
146
0.0
 13
0.0
 23
0.0
 33
0.0
 16
1.0
 26
0.0
 36
0.0
 17
0.0
 27
1.0
 37
0.0
 76
     0
330
23
  0
LAYOUT
  5
22
102
{ACAD_REACTORS
330
1A
102
}
330
1A
100
AcDbPlotSettings
  1

  2
none_device
  4

  6

 40
0.0
 41
0.0
 42
0.0
 43
0.0
 44
0.0
 45
0.0
 46
0.0
 47
0.0
 48
0.0
 49
0.0
140
0.0
141
0.0
142
1.0
143
1.0
 70
  1712
 72
     0
 73
     0
 74
     0
  7

 75
     0
 76
     0
 77
     2
 78
   300
147
1.0
148
0.0
149
0.0
100
AcDbLayout
  1
Model
 70
     1
 71
     0
 10
0.0
 20
0.0
 11
12.0
 21
9.0
 12
0.0
 22
0.0
 32
0.0
 14
1.000000000000000E+20
 24
1.000000000000000E+20
 34
1.000000000000000E+20
 15
-1.000000000000000E+20
 25
-1.000000000000000E+20
 35
-1.000000000000000E+20
146
0.0
 13
0.0
 23
0.0
 33
0.0
 16
1.0
 26
0.0
 36
0.0
 17
0.0
 27
1.0
 37
0.0
 76
     0
330
1F
331
29
  0
MATERIAL
  5
3D
102
{ACAD_REACTORS
330
3B
102
}
330
3B
100
AcDbMaterial
  1
ByBlock
 72
     1
 94
      127
  0
MATERIAL
  5
3C
102
{ACAD_REACTORS
330
3B
102
}
330
3B
100
AcDbMaterial
  1
ByLayer
 72
     1
 94
      127
  0
MATERIAL
  5
3E
102
{ACAD_REACTORS
330
3B
102
}
330
3B
100
AcDbMaterial
  1
Global
 72
     1
 94
      127
  0
MLINESTYLE
  5
18
102
{ACAD_REACTORS
330
17
102
}
330
17
100
AcDbMlineStyle
  2
Standard
 70
     0
  3

 62
   256
 51
90.0
 52
90.0
 71
     2
 49
0.5
 62
   256
  6
BYLAYER
 49
-0.5
 62
   256
  6
BYLAYER
  0
ACDBPLACEHOLDER
  5
F
102
{ACAD_REACTORS
330
E
102
}
330
E
  0
VISUALSTYLE
  5
2F
102
{ACAD_REACTORS
330
2A
102
}
330
2A
100
AcDbVisualStyle
  2
2dWireframe
 70
     4
177
     2
291
     0
 71
     0
176
     1
 72
     2
176
     1
 73
     0
176
     1
 90
        0
176
     1
 40
-0.6
176
     1
 41
-30.0
176
     1
 62
     5
 63
     7
421
 16777215
176
     1
 74
     1
176
     1
 91
        4
176
     1
 64
     7
176
     1
 65
   257
176
     1
 75
     1
176
     1
175
     1
176
     1
 42
1.0
176
     1
 92
        0
176
     1
 66
   257
176
     1
 43
1.0
176
     1
 76
     1
176
     1
 77
     6
176
     1
 78
     2
176
     1
 67
     7
176
     1
 79
     5
176
     1
170
     0
176
     1
171
     0
176
     1
290
     0
176
     1
 93
        1
176
     1
 44
0.0
176
     1
173
     0
176
     1
  0
VISUALSTYLE
  5
31
102
{ACAD_REACTORS
330
2A
102
}
330
2A
100
AcDbVisualStyle
  2
3D Hidden
 70
     6
177
     2
291
     0
 71
     1
176
     1
 72
     2
176
     1
 73
     2
176
     1
 90
        0
176
     1
 40
-0.6
176
     1
 41
-30.0
176
     1
 62
     5
 63
     7
421
 16777215
176
     1
 74
     2
176
     1
 91
        2
176
     1
 64
     7
176
     1
 65
   257
176
     1
 75
     2
176
     1
175
     1
176
     1
 42
40.0
176
     1
 92
        0
176
     1
 66
   257
176
     1
 43
1.0
176
     1
 76
     1
176
     1
 77
     6
176
     1
 78
     2
176
     1
 67
     7
176
     1
 79
     3
176
     1
170
     0
176
     1
171
     0
176
     1
290
     0
176
     1
 93
        1
176
     1
 44
0.0
176
     1
173
     0
176
     1
  0
VISUALSTYLE
  5
30
102
{ACAD_REACTORS
330
2A
102
}
330
2A
100
AcDbVisualStyle
  2
3dWireframe
 70
     5
177
     2
291
     0
 71
     0
176
     1
 72
     2
176
     1
 73
     0
176
     1
 90
        0
176
     1
 40
-0.6
176
     1
 41
-30.0
176
     1
 62
     5
 63
     7
421
 16777215
176
     1
 74
     1
176
     1
 91
        4
176
     1
 64
     7
176
     1
 65
   257
176
     1
 75
     1
176
     1
175
     1
176
     1
 42
1.0
176
     1
 92
        0
176
     1
 66
   257
176
     1
 43
1.0
176
     1
 76
     1
176
     1
 77
     6
176
     1
 78
     2
176
     1
 67
     7
176
     1
 79
     5
176
     1
170
     0
176
     1
171
     0
176
     1
290
     0
176
     1
 93
        1
176
     1
 44
0.0
176
     1
173
     0
176
     1
  0
VISUALSTYLE
  5
32
102
{ACAD_REACTORS
330
2A
102
}
330
2A
100
AcDbVisualStyle
  2
Basic
 70
     7
177
     2
291
     1
 71
     1
176
     1
 72
     0
176
     1
 73
     1
176
     1
 90
        0
176
     1
 40
-0.6
176
     1
 41
-30.0
176
     1
 62
     5
 63
     7
421
 16777215
176
     1
 74
     0
176
     1
 91
        4
176
     1
 64
     7
176
     1
 65
   257
176
     1
 75
     1
176
     1
175
     1
176
     1
 42
1.0
176
     1
 92
        8
176
     1
 66
     7
176
     1
 43
1.0
176
     1
 76
     1
176
     1
 77
     6
176
     1
 78
     2
176
     1
 67
     7
176
     1
 79
     5
176
     1
170
     0
176
     1
171
     0
176
     1
290
     0
176
     1
 93
        1
176
     1
 44
0.0
176
     1
173
     0
176
     1
  0
VISUALSTYLE
  5
36
102
{ACAD_REACTORS
330
2A
102
}
330
2A
100
AcDbVisualStyle
  2
Brighten
 70
    12
177
     2
291
     1
 71
     2
176
     1
 72
     2
176
     1
 73
     0
176
     1
 90
        0
176
     1
 40
-0.6
176
     1
 41
-30.0
176
     1
 62
     5
 63
     7
421
 16777215
176
     1
 74
     1
176
     1
 91
        4
176
     1
 64
     7
176
     1
 65
   257
176
     1
 75
     1
176
     1
175
     1
176
     1
 42
1.0
176
     1
 92
        8
176
     1
 66
     7
176
     1
 43
1.0
176
     1
 76
     1
176
     1
 77
     6
176
     1
 78
     2
176
     1
 67
     7
176
     1
 79
     5
176
     1
170
     0
176
     1
171
     0
176
     1
290
     0
176
     1
 93
        1
176
     1
 44
50.0
176
     1
173
     0
176
     1
  0
VISUALSTYLE
  5
3A
102
{ACAD_REACTORS
330
2A
102
}
330
2A
100
AcDbVisualStyle
  2
ColorChange
 70
    16
177
     2
291
     1
 71
     2
176
     1
 72
     2
176
     1
 73
     3
176
     1
 90
        0
176
     1
 40
-0.6
176
     1
 41
-30.0
176
     1
 62
     5
 63
     8
421
  8421504
176
     1
 74
     1
176
     1
 91
        4
176
     1
 64
     7
176
     1
 65
   257
176
     1
 75
     1
176
     1
175
     1
176
     1
 42
1.0
176
     1
 92
        8
176
     1
 66
     8
424
  8421504
176
     1
 43
1.0
176
     1
 76
     1
176
     1
 77
     6
176
     1
 78
     2
176
     1
 67
     7
176
     1
 79
     5
176
     1
170
     0
176
     1
171
     0
176
     1
290
     0
176
     1
 93
        1
176
     1
 44
0.0
176
     1
173
     0
176
     1
  0
VISUALSTYLE
  5
34
102
{ACAD_REACTORS
330
2A
102
}
330
2A
100
AcDbVisualStyle
  2
Conceptual
 70
     9
177
     2
291
     0
 71
     3
176
     1
 72
     2
176
     1
 73
     0
176
     1
 90
        0
176
     1
 40
-0.6
176
     1
 41
-30.0
176
     1
 62
     5
 63
     7
421
 16777215
176
     1
 74
     2
176
     1
 91
        2
176
     1
 64
     7
176
     1
 65
   257
176
     1
 75
     1
176
     1
175
     1
176
     1
 42
40.0
176
     1
 92
        8
176
     1
 66
     7
176
     1
 43
1.0
176
     1
 76
     1
176
     1
 77
     6
176
     1
 78
     2
176
     1
 67
     7
176
     1
 79
     3
176
     1
170
     0
176
     1
171
     0
176
     1
290
     0
176
     1
 93
        1
176
     1
 44
0.0
176
     1
173
     0
176
     1
  0
VISUALSTYLE
  5
35
102
{ACAD_REACTORS
330
2A
102
}
330
2A
100
AcDbVisualStyle
  2
Dim
 70
    11
177
     2
291
     1
 71
     2
176
     1
 72
     2
176
     1
 73
     0
176
     1
 90
        0
176
     1
 40
-0.6
176
     1
 41
-30.0
176
     1
 62
     5
 63
     7
421
 16777215
176
     1
 74
     1
176
     1
 91
        4
176
     1
 64
     7
176
     1
 65
   257
176
     1
 75
     1
176
     1
175
     1
176
     1
 42
1.0
176
     1
 92
        8
176
     1
 66
     7
176
     1
 43
1.0
176
     1
 76
     1
176
     1
 77
     6
176
     1
 78
     2
176
     1
 67
     7
176
     1
 79
     5
176
     1
170
     0
176
     1
171
     0
176
     1
290
     0
176
     1
 93
        1
176
     1
 44
-50.0
176
     1
173
     0
176
     1
  0
VISUALSTYLE
  5
39
102
{ACAD_REACTORS
330
2A
102
}
330
2A
100
AcDbVisualStyle
  2
Facepattern
 70
    15
177
     2
291
     1
 71
     2
176
     1
 72
     2
176
     1
 73
     0
176
     1
 90
        0
176
     1
 40
-0.6
176
     1
 41
-30.0
176
     1
 62
     5
 63
     7
421
 16777215
176
     1
 74
     1
176
     1
 91
        4
176
     1
 64
     7
176
     1
 65
   257
176
     1
 75
     1
176
     1
175
     1
176
     1
 42
1.0
176
     1
 92
        8
176
     1
 66
     7
176
     1
 43
1.0
176
     1
 76
     1
176
     1
 77
     6
176
     1
 78
     2
176
     1
 67
     7
176
     1
 79
     5
176
     1
170
     0
176
     1
171
     0
176
     1
290
     0
176
     1
 93
        1
176
     1
 44
0.0
176
     1
173
     0
176
     1
  0
VISUALSTYLE
  5
2B
102
{ACAD_REACTORS
330
2A
102
}
330
2A
100
AcDbVisualStyle
  2
Flat
 70
     0
177
     2
291
     1
 71
     2
176
     1
 72
     1
176
     1
 73
     1
176
     1
 90
        2
176
     1
 40
-0.6
176
     1
 41
30.0
176
     1
 62
     5
 63
     7
421
 16777215
176
     1
 74
     0
176
     1
 91
        4
176
     1
 64
     7
176
     1
 65
   257
176
     1
 75
     1
176
     1
175
     1
176
     1
 42
1.0
176
     1
 92
        8
176
     1
 66
     7
176
     1
 43
1.0
176
     1
 76
     1
176
     1
 77
     6
176
     1
 78
     2
176
     1
 67
     7
176
     1
 79
     5
176
     1
170
     0
176
     1
171
     0
176
     1
290
     0
176
     1
 93
       13
176
     1
 44
0.0
176
     1
173
     0
176
     1
  0
VISUALSTYLE
  5
2C
102
{ACAD_REACTORS
330
2A
102
}
330
2A
100
AcDbVisualStyle
  2
FlatWithEdges
 70
     1
177
     2
291
     1
 71
     2
176
     1
 72
     1
176
     1
 73
     1
176
     1
 90
        2
176
     1
 40
-0.6
176
     1
 41
30.0
176
     1
 62
     5
 63
     7
421
 16777215
176
     1
 74
     1
176
     1
 91
        4
176
     1
 64
     7
176
     1
 65
   257
176
     1
 75
     1
176
     1
175
     1
176
     1
 42
1.0
176
     1
 92
        0
176
     1
 66
   257
176
     1
 43
1.0
176
     1
 76
     1
176
     1
 77
     6
176
     1
 78
     2
176
     1
 67
     7
176
     1
 79
     5
176
     1
170
     0
176
     1
171
     0
176
     1
290
     0
176
     1
 93
       13
176
     1
 44
0.0
176
     1
173
     0
176
     1
  0
VISUALSTYLE
  5
2D
102
{ACAD_REACTORS
330
2A
102
}
330
2A
100
AcDbVisualStyle
  2
Gouraud
 70
     2
177
     2
291
     1
 71
     2
176
     1
 72
     2
176
     1
 73
     1
176
     1
 90
        2
176
     1
 40
-0.6
176
     1
 41
30.0
176
     1
 62
     5
 63
     7
421
 16777215
176
     1
 74
     0
176
     1
 91
        4
176
     1
 64
     7
176
     1
 65
   257
176
     1
 75
     1
176
     1
175
     1
176
     1
 42
1.0
176
     1
 92
        0
176
     1
 66
     7
176
     1
 43
1.0
176
     1
 76
     1
176
     1
 77
     6
176
     1
 78
     2
176
     1
 67
     7
176
     1
 79
     5
176
     1
170
     0
176
     1
171
     0
176
     1
290
     0
176
     1
 93
       13
176
     1
 44
0.0
176
     1
173
     0
176
     1
  0
VISUALSTYLE
  5
2E
102
{ACAD_REACTORS
330
2A
102
}
330
2A
100
AcDbVisualStyle
  2
GouraudWithEdges
 70
     3
177
     2
291
     1
 71
     2
176
     1
 72
     2
176
     1
 73
     1
176
     1
 90
        2
176
     1
 40
-0.6
176
     1
 41
30.0
176
     1
 62
     5
 63
     7
421
 16777215
176
     1
 74
     1
176
     1
 91
        4
176
     1
 64
     7
176
     1
 65
   257
176
     1
 75
     1
176
     1
175
     1
176
     1
 42
1.0
176
     1
 92
        0
176
     1
 66
   257
176
     1
 43
1.0
176
     1
 76
     1
176
     1
 77
     6
176
     1
 78
     2
176
     1
 67
     7
176
     1
 79
     5
176
     1
170
     0
176
     1
171
     0
176
     1
290
     0
176
     1
 93
       13
176
     1
 44
0.0
176
     1
173
     0
176
     1
  0
VISUALSTYLE
  5
38
102
{ACAD_REACTORS
330
2A
102
}
330
2A
100
AcDbVisualStyle
  2
Linepattern
 70
    14
177
     2
291
     1
 71
     2
176
     1
 72
     2
176
     1
 73
     0
176
     1
 90
        0
176
     1
 40
-0.6
176
     1
 41
-30.0
176
     1
 62
     5
 63
     7
421
 16777215
176
     1
 74
     1
176
     1
 91
        4
176
     1
 64
     7
176
     1
 65
   257
176
     1
 75
     7
176
     1
175
     7
176
     1
 42
1.0
176
     1
 92
        8
176
     1
 66
     7
176
     1
 43
1.0
176
     1
 76
     1
176
     1
 77
     6
176
     1
 78
     2
176
     1
 67
     7
176
     1
 79
     5
176
     1
170
     0
176
     1
171
     0
176
     1
290
     0
176
     1
 93
        1
176
     1
 44
0.0
176
     1
173
     0
176
     1
  0
VISUALSTYLE
  5
33
102
{ACAD_REACTORS
330
2A
102
}
330
2A
100
AcDbVisualStyle
  2
Realistic
 70
     8
177
     2
291
     0
 71
     2
176
     1
 72
     2
176
     1
 73
     0
176
     1
 90
        0
176
     1
 40
-0.6
176
     1
 41
-30.0
176
     1
 62
     5
 63
     7
421
 16777215
176
     1
 74
     1
176
     1
 91
        0
176
     1
 64
     7
176
     1
 65
   257
176
     1
 75
     1
176
     1
175
     1
176
     1
 42
1.0
176
     1
 92
        8
176
     1
 66
     8
424
  7895160
176
     1
 43
1.0
176
     1
 76
     1
176
     1
 77
     6
176
     1
 78
     2
176
     1
 67
     7
176
     1
 79
     5
176
     1
170
     0
176
     1
171
     0
176
     1
290
     0
176
     1
 93
       13
176
     1
 44
0.0
176
     1
173
     0
176
     1
  0
VISUALSTYLE
  5
37
102
{ACAD_REACTORS
330
2A
102
}
330
2A
100
AcDbVisualStyle
  2
Thicken
 70
    13
177
     2
291
     1
 71
     2
176
     1
 72
     2
176
     1
 73
     0
176
     1
 90
        0
176
     1
 40
-0.6
176
     1
 41
-30.0
176
     1
 62
     5
 63
     7
421
 16777215
176
     1
 74
     1
176
     1
 91
        4
176
     1
 64
     7
176
     1
 65
   257
176
     1
 75
     1
176
     1
175
     1
176
     1
 42
1.0
176
     1
 92
       12
176
     1
 66
     7
176
     1
 43
1.0
176
     1
 76
     1
176
     1
 77
     6
176
     1
 78
     2
176
     1
 67
     7
176
     1
 79
     5
176
     1
170
     0
176
     1
171
     0
176
     1
290
     0
176
     1
 93
        1
176
     1
 44
0.0
176
     1
173
     0
176
     1
  0
ENDSEC
  0
EOF
