  0
SECTION
  2
HEADER
  9
$ACADVER
  1
AC1024
  9
$ACADMAINTVER
 70
     6
  9
$DWGCODEPAGE
  3
UNDEFINED
  9
$INSBASE
 10
0.0
 20
0.0
 30
0.0
  9
$EXTMIN
 10
1.000000000000000E+20
 20
1.000000000000000E+20
 30
1.000000000000000E+20
  9
$EXTMAX
 10
-1.000000000000000E+20
 20
-1.000000000000000E+20
 30
-1.000000000000000E+20
  9
$LIMMIN
 10
0.0
 20
0.0
  9
$LIMMAX
 10
12.0
 20
9.0
  9
$ORTHOMODE
 70
     0
  9
$REGENMODE
 70
     1
  9
$FILLMODE
 70
     1
  9
$QTEXTMODE
 70
     0
  9
$MIRRTEXT
 70
     1
  9
$LTSCALE
 40
1.0
  9
$ATTMODE
 70
     1
  9
$TEXTSIZE
 40
0.2
  9
$TRACEWID
 40
0.05
  9
$TEXTSTYLE
  7
Standard
  9
$CLAYER
  8
0
  9
$CELTYPE
  6
ByLayer
  9
$CECOLOR
 62
   256
  9
$CELTSCALE
 40
1.0
  9
$DISPSILH
 70
     0
  9
$DIMSCALE
 40
1.0
  9
$DIMASZ
 40
0.18
  9
$DIMEXO
 40
0.0625
  9
$DIMDLI
 40
0.38
  9
$DIMRND
 40
0.0
  9
$DIMDLE
 40
0.0
  9
$DIMEXE
 40
0.18
  9
$DIMTP
 40
0.0
  9
$DIMTM
 40
0.0
  9
$DIMTXT
 40
0.18
  9
$DIMCEN
 40
0.09
  9
$DIMTSZ
 40
0.0
  9
$DIMTOL
 70
     0
  9
$DIMLIM
 70
     0
  9
$DIMTIH
 70
     1
  9
$DIMTOH
 70
     1
  9
$DIMSE1
 70
     0
  9
$DIMSE2
 70
     0
  9
$DIMTAD
 70
     0
  9
$DIMZIN
 70
     0
  9
$DIMBLK
  1

  9
$DIMASO
 70
     1
  9
$DIMSHO
 70
     1
  9
$DIMPOST
  1

  9
$DIMAPOST
  1

  9
$DIMALT
 70
     0
  9
$DIMALTD
 70
     2
  9
$DIMALTF
 40
25.4
  9
$DIMLFAC
 40
1.0
  9
$DIMTOFL
 70
     0
  9
$DIMTVP
 40
0.0
  9
$DIMTIX
 70
     0
  9
$DIMSOXD
 70
     0
  9
$DIMSAH
 70
     0
  9
$DIMBLK1
  1

  9
$DIMBLK2
  1

  9
$DIMSTYLE
  2
Standard
  9
$DIMCLRD
 70
     0
  9
$DIMCLRE
 70
     0
  9
$DIMCLRT
 70
     0
  9
$DIMTFAC
 40
1.0
  9
$DIMGAP
 40
0.09
  9
$DIMJUST
 70
     0
  9
$DIMSD1
 70
     0
  9
$DIMSD2
 70
     0
  9
$DIMTOLJ
 70
     1
  9
$DIMTZIN
 70
     0
  9
$DIMALTZ
 70
     0
  9
$DIMALTTZ
 70
     0
  9
$DIMUPT
 70
     0
  9
$DIMDEC
 70
     4
  9
$DIMTDEC
 70
     4
  9
$DIMALTU
 70
     2
  9
$DIMALTTD
 70
     2
  9
$DIMTXSTY
  7
Standard
  9
$DIMAUNIT
 70
     0
  9
$DIMADEC
 70
     0
  9
$DIMALTRND
 40
0.0
  9
$DIMAZIN
 70
     0
  9
$DIMDSEP
 70
    46
  9
$DIMATFIT
 70
     3
  9
$DIMFRAC
 70
     0
  9
$DIMLDRBLK
  1

  9
$DIMLUNIT
 70
     2
  9
$DIMLWD
 70
    -2
  9
$DIMLWE
 70
    -2
  9
$DIMTMOVE
 70
     0
  9
$DIMFXL
 40
1.0
  9
$DIMFXLON
 70
     0
  9
$DIMJOGANG
 40
0.7853981633974483
  9
$DIMTFILL
 70
     0
  9
$DIMTFILLCLR
 70
     0
  9
$DIMARCSYM
 70
     0
  9
$DIMLTYPE
  6

  9
$DIMLTEX1
  6

  9
$DIMLTEX2
  6

  9
$DIMTXTDIRECTION
 70
     0
  9
$LUNITS
 70
     2
  9
$LUPREC
 70
     4
  9
$SKETCHINC
 40
0.1
  9
$FILLETRAD
 40
0.5
  9
$AUNITS
 70
     0
  9
$AUPREC
 70
     0
  9
$MENU
  1
.
  9
$ELEVATION
 40
0.0
  9
$PELEVATION
 40
0.0
  9
$THICKNESS
 40
0.0
  9
$LIMCHECK
 70
     0
  9
$CHAMFERA
 40
0.5
  9
$CHAMFERB
 40
0.5
  9
$CHAMFERC
 40
1.0
  9
$CHAMFERD
 40
0.0
  9
$SKPOLY
 70
     0
  9
$TDCREATE
 40
2457917.596087951
  9
$TDUCREATE
 40
2457917.221087963
  9
$TDUPDATE
 40
2457917.596087951
  9
$TDUUPDATE
 40
2457917.221087963
  9
$TDINDWG
 40
0.0000000116
  9
$TDUSRTIMER
 40
0.0000000116
  9
$USRTIMER
 70
     1
  9
$ANGBASE
 50
0.0
  9
$ANGDIR
 70
     0
  9
$PDMODE
 70
     0
  9
$PDSIZE
 40
0.0
  9
$PLINEWID
 40
0.0
  9
$SPLFRAME
 70
     0
  9
$SPLINETYPE
 70
     6
  9
$SPLINESEGS
 70
     8
  9
$HANDSEED
  5
16F
  9
$SURFTAB1
 70
     6
  9
$SURFTAB2
 70
     6
  9
$SURFTYPE
 70
     6
  9
$SURFU
 70
     6
  9
$SURFV
 70
     6
  9
$UCSBASE
  2

  9
$UCSNAME
  2

  9
$UCSORG
 10
0.0
 20
0.0
 30
0.0
  9
$UCSXDIR
 10
1.0
 20
0.0
 30
0.0
  9
$UCSYDIR
 10
0.0
 20
1.0
 30
0.0
  9
$UCSORTHOREF
  2

  9
$UCSORTHOVIEW
 70
     0
  9
$UCSORGTOP
 10
0.0
 20
0.0
 30
0.0
  9
$UCSORGBOTTOM
 10
0.0
 20
0.0
 30
0.0
  9
$UCSORGLEFT
 10
0.0
 20
0.0
 30
0.0
  9
$UCSORGRIGHT
 10
0.0
 20
0.0
 30
0.0
  9
$UCSORGFRONT
 10
0.0
 20
0.0
 30
0.0
  9
$UCSORGBACK
 10
0.0
 20
0.0
 30
0.0
  9
$PUCSBASE
  2

  9
$PUCSNAME
  2

  9
$PUCSORG
 10
0.0
 20
0.0
 30
0.0
  9
$PUCSXDIR
 10
1.0
 20
0.0
 30
0.0
  9
$PUCSYDIR
 10
0.0
 20
1.0
 30
0.0
  9
$PUCSORTHOREF
  2

  9
$PUCSORTHOVIEW
 70
     0
  9
$PUCSORGTOP
 10
0.0
 20
0.0
 30
0.0
  9
$PUCSORGBOTTOM
 10
0.0
 20
0.0
 30
0.0
  9
$PUCSORGLEFT
 10
0.0
 20
0.0
 30
0.0
  9
$PUCSORGRIGHT
 10
0.0
 20
0.0
 30
0.0
  9
$PUCSORGFRONT
 10
0.0
 20
0.0
 30
0.0
  9
$PUCSORGBACK
 10
0.0
 20
0.0
 30
0.0
  9
$USERI1
 70
     0
  9
$USERI2
 70
     0
  9
$USERI3
 70
     0
  9
$USERI4
 70
     0
  9
$USERI5
 70
     0
  9
$USERR1
 40
0.0
  9
$USERR2
 40
0.0
  9
$USERR3
 40
0.0
  9
$USERR4
 40
0.0
  9
$USERR5
 40
0.0
  9
$WORLDVIEW
 70
     1
  9
$SHADEDGE
 70
     3
  9
$SHADEDIF
 70
    70
  9
$TILEMODE
 70
     1
  9
$MAXACTVP
 70
    64
  9
$PINSBASE
 10
0.0
 20
0.0
 30
0.0
  9
$PLIMCHECK
 70
     0
  9
$PEXTMIN
 10
1.000000000000000E+20
 20
1.000000000000000E+20
 30
1.000000000000000E+20
  9
$PEXTMAX
 10
-1.000000000000000E+20
 20
-1.000000000000000E+20
 30
-1.000000000000000E+20
  9
$PLIMMIN
 10
0.0
 20
0.0
  9
$PLIMMAX
 10
12.0
 20
9.0
  9
$UNITMODE
 70
     0
  9
$VISRETAIN
 70
     1
  9
$PLINEGEN
 70
     0
  9
$PSLTSCALE
 70
     1
  9
$TREEDEPTH
 70
  3020
  9
$CMLSTYLE
  2
Standard
  9
$CMLJUST
 70
     0
  9
$CMLSCALE
 40
1.0
  9
$PROXYGRAPHICS
 70
     1
  9
$MEASUREMENT
 70
     0
  9
$CELWEIGHT
370
    -1
  9
$ENDCAPS
280
     0
  9
$JOINSTYLE
280
     0
  9
$LWDISPLAY
290
     1
  9
$INSUNITS
 70
     1
  9
$HYPERLINKBASE
  1

  9
$STYLESHEET
  1

  9
$XEDIT
290
     1
  9
$CEPSNTYPE
380
     0
  9
$PSTYLEMODE
290
     1
  9
$FINGERPRINTGUID
  2
{FFDE7791-5216-811B-248C-140B6493F442}
  9
$VERSIONGUID
  2
{FAEB1C32-E019-11D5-929B-00C0DF256EC4}
  9
$EXTNAMES
290
     1
  9
$PSVPSCALE
 40
0.0
  9
$OLESTARTUP
290
     0
  9
$SORTENTS
280
   127
  9
$INDEXCTL
280
     0
  9
$HIDETEXT
280
     1
  9
$XCLIPFRAME
280
     2
  9
$HALOGAP
280
     0
  9
$OBSCOLOR
 70
   257
  9
$OBSLTYPE
280
     0
  9
$INTERSECTIONDISPLAY
280
     0
  9
$INTERSECTIONCOLOR
 70
   257
  9
$DIMASSOC
280
     2
  9
$PROJECTNAME
  1

  9
$CAMERADISPLAY
290
     0
  9
$LENSLENGTH
 40
50.0
  9
$CAMERAHEIGHT
 40
0.0
  9
$STEPSPERSEC
 40
2.0
  9
$STEPSIZE
 40
6.0
  9
$3DDWFPREC
 40
2.0
  9
$PSOLWIDTH
 40
0.25
  9
$PSOLHEIGHT
 40
4.0
  9
$LOFTANG1
 40
1.570796326794897
  9
$LOFTANG2
 40
1.570796326794897
  9
$LOFTMAG1
 40
0.0
  9
$LOFTMAG2
 40
0.0
  9
$LOFTPARAM
 70
     7
  9
$LOFTNORMALS
280
     1
  9
$LATITUDE
 40
37.795
  9
$LONGITUDE
 40
-122.394
  9
$NORTHDIRECTION
 40
0.0
  9
$TIMEZONE
 70
 -8000
  9
$LIGHTGLYPHDISPLAY
280
     1
  9
$TILEMODELIGHTSYNCH
280
     1
  9
$CMATERIAL
347
3C
  9
$SOLIDHIST
280
     1
  9
$SHOWHIST
280
     1
  9
$DWFFRAME
280
     2
  9
$DGNFRAME
280
     2
  9
$REALWORLDSCALE
290
     1
  9
$INTERFERECOLOR
 62
   256
  9
$CSHADOW
280
     0
  9
$SHADOWPLANELOCATION
 40
0.0
  0
ENDSEC
  0
SECTION
  2
CLASSES
  0
CLASS
  1
ACDBDICTIONARYWDFLT
  2
AcDbDictionaryWithDefault
  3
ObjectDBX Classes
 90
        0
 91
        4
280
     0
281
     0
  0
CLASS
  1
VISUALSTYLE
  2
AcDbVisualStyle
  3
ObjectDBX Classes
 90
     4095
 91
        4
280
     0
281
     0
  0
CLASS
  1
MATERIAL
  2
AcDbMaterial
  3
ObjectDBX Classes
 90
     1153
 91
        4
280
     0
281
     0
  0
CLASS
  1
SUN
  2
AcDbSun
  3
SCENEOE
 90
     1024
 91
        4
280
     0
281
     0
  0
ENDSEC
  0
SECTION
  2
TABLES
  0
TABLE
  2
VPORT
  5
8
330
0
100
AcDbSymbolTable
 70
     1
  0
VPORT
  5
29
330
8
100
AcDbSymbolTableRecord
100
AcDbViewportTableRecord
  2
*Active
 70
     0
 10
0.0
 20
0.0
 11
1.0
 21
1.0
 12
0.0
 22
0.0
 13
0.0
 23
0.0
 14
0.5
 24
0.5
 15
0.5
 25
0.5
 16
0.0
 26
0.0
 36
1.0
 17
91.00082462281999
 27
-128.4993055234307
 37
0.0
 40
256.9986110468615
 41
0.7081814508812795
 42
50.0
 43
0.0
 44
0.0
 50
0.0
 51
0.0
 71
     0
 72
   100
 73
     1
 74
     3
 75
     0
 76
     0
 77
     0
 78
     0
281
     0
 65
     1
110
0.0
120
0.0
130
0.0
111
1.0
121
0.0
131
0.0
112
0.0
122
1.0
132
0.0
 79
     0
146
0.0
 60
     3
 61
     5
292
     1
282
     1
141
0.0
142
0.0
 63
   250
361
3F
  0
ENDTAB
  0
TABLE
  2
LTYPE
  5
5
330
0
100
AcDbSymbolTable
 70
     1
  0
LTYPE
  5
14
330
5
100
AcDbSymbolTableRecord
100
AcDbLinetypeTableRecord
  2
ByBlock
 70
     0
  3

 72
    65
 73
     0
 40
0.0
  0
LTYPE
  5
15
330
5
100
AcDbSymbolTableRecord
100
AcDbLinetypeTableRecord
  2
ByLayer
 70
     0
  3

 72
    65
 73
     0
 40
0.0
  0
LTYPE
  5
16
330
5
100
AcDbSymbolTableRecord
100
AcDbLinetypeTableRecord
  2
Continuous
 70
     0
  3
Solid line
 72
    65
 73
     0
 40
0.0
  0
ENDTAB
  0
TABLE
  2
LAYER
  5
2
330
0
100
AcDbSymbolTable
 70
     2
  0
LAYER
  5
10
330
2
100
AcDbSymbolTableRecord
100
AcDbLayerTableRecord
  2
0
 70
     0
 62
     7
  6
Continuous
370
    -3
390
F
347
3E
  0
LAYER
  5
40
330
2
100
AcDbSymbolTableRecord
100
AcDbLayerTableRecord
  2
_U+30EC_U+30A4_U+30E4_U+30FC 1
 70
     0
 62
     7
  6
Continuous
370
    -3
390
F
347
3E
  0
ENDTAB
  0
TABLE
  2
STYLE
  5
3
330
0
100
AcDbSymbolTable
 70
     1
  0
STYLE
  5
11
330
3
100
AcDbSymbolTableRecord
100
AcDbTextStyleTableRecord
  2
Standard
 70
     0
 40
0.0
 41
1.0
 50
0.0
 71
     0
 42
0.2
  3
txt
  4

  0
ENDTAB
  0
TABLE
  2
VIEW
  5
6
330
0
100
AcDbSymbolTable
 70
     0
  0
ENDTAB
  0
TABLE
  2
UCS
  5
7
330
0
100
AcDbSymbolTable
 70
     0
  0
ENDTAB
  0
TABLE
  2
APPID
  5
9
330
0
100
AcDbSymbolTable
 70
     1
  0
APPID
  5
12
330
9
100
AcDbSymbolTableRecord
100
AcDbRegAppTableRecord
  2
ACAD
 70
     0
  0
ENDTAB
  0
TABLE
  2
DIMSTYLE
  5
A
330
0
100
AcDbSymbolTable
 70
     1
100
AcDbDimStyleTable
  0
DIMSTYLE
105
27
330
A
100
AcDbSymbolTableRecord
100
AcDbDimStyleTableRecord
  2
Standard
 70
     0
178
     0
340
11
  0
ENDTAB
  0
TABLE
  2
BLOCK_RECORD
  5
1
330
0
100
AcDbSymbolTable
 70
     9
  0
BLOCK_RECORD
  5
1F
330
1
100
AcDbSymbolTableRecord
100
AcDbBlockTableRecord
  2
*Model_Space
340
22
 70
     0
280
     1
281
     0
  0
BLOCK_RECORD
  5
1B
330
1
100
AcDbSymbolTableRecord
100
AcDbBlockTableRecord
  2
*Paper_Space
340
1E
 70
     0
280
     1
281
     0
  0
BLOCK_RECORD
  5
23
330
1
100
AcDbSymbolTableRecord
100
AcDbBlockTableRecord
  2
*Paper_Space0
340
26
 70
     0
280
     1
281
     0
  0
BLOCK_RECORD
  5
4F
330
1
100
AcDbSymbolTableRecord
100
AcDbBlockTableRecord
  2
block 2
340
0
102
{BLKREFS
331
50
102
}
 70
     0
280
     1
281
     0
  0
BLOCK_RECORD
  5
60
330
1
100
AcDbSymbolTableRecord
100
AcDbBlockTableRecord
  2
block 3
340
0
102
{BLKREFS
331
61
102
}
 70
     0
280
     1
281
     0
  0
BLOCK_RECORD
  5
92
330
1
100
AcDbSymbolTableRecord
100
AcDbBlockTableRecord
  2
block 4
340
0
102
{BLKREFS
331
93
102
}
 70
     0
280
     1
281
     0
  0
BLOCK_RECORD
  5
AC
330
1
100
AcDbSymbolTableRecord
100
AcDbBlockTableRecord
  2
block 5
340
0
102
{BLKREFS
331
AD
102
}
 70
     0
280
     1
281
     0
  0
BLOCK_RECORD
  5
C0
330
1
100
AcDbSymbolTableRecord
100
AcDbBlockTableRecord
  2
block 6
340
0
102
{BLKREFS
331
C1
102
}
 70
     0
280
     1
281
     0
  0
BLOCK_RECORD
  5
C9
330
1
100
AcDbSymbolTableRecord
100
AcDbBlockTableRecord
  2
block 7
340
0
102
{BLKREFS
331
CA
102
}
 70
     0
280
     1
281
     0
  0
BLOCK_RECORD
  5
DC
330
1
100
AcDbSymbolTableRecord
100
AcDbBlockTableRecord
  2
block 8
340
0
102
{BLKREFS
331
DD
102
}
 70
     0
280
     1
281
     0
  0
BLOCK_RECORD
  5
EF
330
1
100
AcDbSymbolTableRecord
100
AcDbBlockTableRecord
  2
block 9
340
0
102
{BLKREFS
331
F0
102
}
 70
     0
280
     1
281
     0
  0
ENDTAB
  0
ENDSEC
  0
SECTION
  2
BLOCKS
  0
BLOCK
  5
20
330
1F
100
AcDbEntity
  8
0
100
AcDbBlockBegin
  2
*Model_Space
 70
     0
 10
0.0
 20
0.0
 30
0.0
  3
*Model_Space
  1

  0
ENDBLK
  5
21
330
1F
100
AcDbEntity
  8
0
100
AcDbBlockEnd
  0
BLOCK
  5
1C
330
1B
100
AcDbEntity
 67
     1
  8
0
100
AcDbBlockBegin
  2
*Paper_Space
 70
     0
 10
0.0
 20
0.0
 30
0.0
  3
*Paper_Space
  1

  0
ENDBLK
  5
1D
330
1B
100
AcDbEntity
 67
     1
  8
0
100
AcDbBlockEnd
  0
BLOCK
  5
24
330
23
100
AcDbEntity
  8
0
100
AcDbBlockBegin
  2
*Paper_Space0
 70
     0
 10
0.0
 20
0.0
 30
0.0
  3
*Paper_Space0
  1

  0
ENDBLK
  5
25
330
23
100
AcDbEntity
  8
0
100
AcDbBlockEnd
  0
BLOCK
  5
51
330
4F
100
AcDbEntity
  8
0
100
AcDbBlockBegin
  2
block 2
 70
     0
 10
0.0
 20
0.0
 30
0.0
  3
block 2
  1

  0
SPLINE
  5
53
330
4F
100
AcDbEntity
  8
_U+30EC_U+30A4_U+30E4_U+30FC 1
370
     0
100
AcDbSpline
210
0.0
220
0.0
230
1.0
 70
    11
 71
     3
 72
    32
 73
    28
 74
     0
 42
0.0000000001
 43
0.0000000001
 12
1.0
 22
0.0
 32
0.0
 13
1.0
 23
0.0
 33
0.0
 40
0.0
 40
0.0
 40
0.0
 40
0.0
 40
1.0
 40
1.0
 40
1.0
 40
2.0
 40
2.0
 40
2.0
 40
3.0
 40
3.0
 40
3.0
 40
4.0
 40
4.0
 40
4.0
 40
5.0
 40
5.0
 40
5.0
 40
6.0
 40
6.0
 40
6.0
 40
7.0
 40
7.0
 40
7.0
 40
8.0
 40
8.0
 40
8.0
 40
9.0
 40
9.0
 40
9.0
 40
9.0
 10
119.1723985162138
 20
-130.5012505099094
 30
0.0
 10
119.1723985162138
 20
-130.6745388128175
 30
0.0
 10
119.1024630778633
 20
-130.9201741209158
 30
0.0
 10
118.7703558730852
 20
-130.9580701712536
 30
0.0
 10
118.7703558730852
 20
-130.9580701712536
 30
0.0
 10
118.7703558730852
 20
-130.744474251168
 30
0.0
 10
118.7703558730852
 20
-130.744474251168
 30
0.0
 10
118.8296115154315
 20
-130.7337944551638
 30
0.0
 10
118.9777506212972
 20
-130.7020995766995
 30
0.0
 10
118.9777506212972
 20
-130.4991834526183
 30
0.0
 10
118.9777506212972
 20
-130.2070393554691
 30
0.0
 10
118.6477104738103
 20
-130.1691433051313
 30
0.0
 10
118.4423827828894
 20
-130.1563964518359
 30
0.0
 10
118.5229980172443
 20
-130.2473469726465
 30
0.0
 10
118.5801866022994
 20
-130.3148708441574
 30
0.0
 10
118.5801866022994
 20
-130.4967718857786
 30
0.0
 10
118.5801866022994
 20
-130.6766058701086
 30
0.0
 10
118.4740776613537
 20
-130.9794297632621
 30
0.0
 10
118.0682454131913
 20
-130.9794297632621
 30
0.0
 10
117.7485405521601
 20
-130.9794297632621
 30
0.0
 10
117.5287434602012
 20
-130.7803032442147
 30
0.0
 10
117.5287434602012
 20
-130.4630099500231
 30
0.0
 10
117.5287434602012
 20
-129.9490017036239
 30
0.0
 10
118.0827148142293
 20
-129.9383219076196
 30
0.0
 10
118.2963107343148
 20
-129.9383219076196
 30
0.0
 10
118.5271321318266
 20
-129.9383219076196
 30
0.0
 10
119.1723985162138
 20
-129.957614442337
 30
0.0
 10
119.1723985162138
 20
-130.5012505099094
 30
0.0
  0
SPLINE
  5
54
330
4F
100
AcDbEntity
  8
_U+30EC_U+30A4_U+30E4_U+30FC 1
370
     0
100
AcDbSpline
210
0.0
220
0.0
230
1.0
 70
    11
 71
     3
 72
    17
 73
    13
 74
     0
 42
0.0000000001
 43
0.0000000001
 12
1.0
 22
0.0
 32
0.0
 13
1.0
 23
0.0
 33
0.0
 40
0.0
 40
0.0
 40
0.0
 40
0.0
 40
1.0
 40
1.0
 40
1.0
 40
2.0
 40
2.0
 40
2.0
 40
3.0
 40
3.0
 40
3.0
 40
4.0
 40
4.0
 40
4.0
 40
4.0
 10
117.7209797882781
 20
-130.460942892732
 30
0.0
 10
117.7209797882781
 20
-130.5794541774246
 30
0.0
 10
117.7781683733332
 20
-130.7551540471723
 30
0.0
 10
118.0637667890605
 20
-130.7551540471723
 30
0.0
 10
118.2901095624414
 20
-130.7551540471723
 30
0.0
 10
118.3851941978343
 20
-130.6152831704712
 30
0.0
 10
118.3851941978343
 20
-130.4798909179009
 30
0.0
 10
118.3851941978343
 20
-130.2177191514733
 30
0.0
 10
118.1757323923311
 20
-130.1794785915871
 30
0.0
 10
118.0596326744782
 20
-130.1794785915871
 30
0.0
 10
117.8839328047304
 20
-130.1794785915871
 30
0.0
 10
117.7209797882781
 20
-130.2749077365285
 30
0.0
 10
117.7209797882781
 20
-130.460942892732
 30
0.0
  0
HATCH
  5
55
330
4F
100
AcDbEntity
  8
_U+30EC_U+30A4_U+30E4_U+30FC 1
 62
   179
420
  2234388
100
AcDbHatch
 10
0.0
 20
0.0
 30
0.0
210
0.0
220
0.0
230
1.0
  2
SOLID
 70
     1
 71
     0
 91
        2
 92
        1
 93
        1
 72
     4
 94
        3
 73
     0
 74
     1
 95
       32
 96
       28
 40
0.0
 40
0.0
 40
0.0
 40
0.0
 40
1.0
 40
1.0
 40
1.0
 40
2.0
 40
2.0
 40
2.0
 40
3.0
 40
3.0
 40
3.0
 40
4.0
 40
4.0
 40
4.0
 40
5.0
 40
5.0
 40
5.0
 40
6.0
 40
6.0
 40
6.0
 40
7.0
 40
7.0
 40
7.0
 40
8.0
 40
8.0
 40
8.0
 40
9.0
 40
9.0
 40
9.0
 40
9.0
 10
119.1723985162138
 20
-130.5012505099094
 10
119.1723985162138
 20
-130.6745388128175
 10
119.1024630778633
 20
-130.9201741209158
 10
118.7703558730852
 20
-130.9580701712536
 10
118.7703558730852
 20
-130.9580701712536
 10
118.7703558730852
 20
-130.744474251168
 10
118.7703558730852
 20
-130.744474251168
 10
118.8296115154315
 20
-130.7337944551638
 10
118.9777506212972
 20
-130.7020995766995
 10
118.9777506212972
 20
-130.4991834526183
 10
118.9777506212972
 20
-130.2070393554691
 10
118.6477104738103
 20
-130.1691433051313
 10
118.4423827828894
 20
-130.1563964518359
 10
118.5229980172443
 20
-130.2473469726465
 10
118.5801866022994
 20
-130.3148708441574
 10
118.5801866022994
 20
-130.4967718857786
 10
118.5801866022994
 20
-130.6766058701086
 10
118.4740776613537
 20
-130.9794297632621
 10
118.0682454131913
 20
-130.9794297632621
 10
117.7485405521601
 20
-130.9794297632621
 10
117.5287434602012
 20
-130.7803032442147
 10
117.5287434602012
 20
-130.4630099500231
 10
117.5287434602012
 20
-129.9490017036239
 10
118.0827148142293
 20
-129.9383219076196
 10
118.2963107343148
 20
-129.9383219076196
 10
118.5271321318266
 20
-129.9383219076196
 10
119.1723985162138
 20
-129.957614442337
 10
119.1723985162138
 20
-130.5012505099094
 97
        0
 97
        0
 92
        1
 93
        1
 72
     4
 94
        3
 73
     0
 74
     1
 95
       17
 96
       13
 40
0.0
 40
0.0
 40
0.0
 40
0.0
 40
1.0
 40
1.0
 40
1.0
 40
2.0
 40
2.0
 40
2.0
 40
3.0
 40
3.0
 40
3.0
 40
4.0
 40
4.0
 40
4.0
 40
4.0
 10
117.7209797882781
 20
-130.460942892732
 10
117.7209797882781
 20
-130.5794541774246
 10
117.7781683733332
 20
-130.7551540471723
 10
118.0637667890605
 20
-130.7551540471723
 10
118.2901095624414
 20
-130.7551540471723
 10
118.3851941978343
 20
-130.6152831704712
 10
118.3851941978343
 20
-130.4798909179009
 10
118.3851941978343
 20
-130.2177191514733
 10
118.1757323923311
 20
-130.1794785915871
 10
118.0596326744782
 20
-130.1794785915871
 10
117.8839328047304
 20
-130.1794785915871
 10
117.7209797882781
 20
-130.2749077365285
 10
117.7209797882781
 20
-130.460942892732
 97
        0
 97
        0
 75
     2
 76
     1
 98
        0
  0
ENDBLK
  5
52
330
4F
100
AcDbEntity
  8
0
100
AcDbBlockEnd
  0
BLOCK
  5
62
330
60
100
AcDbEntity
  8
0
100
AcDbBlockBegin
  2
block 3
 70
     0
 10
0.0
 20
0.0
 30
0.0
  3
block 3
  1

  0
POLYLINE
  5
64
330
60
100
AcDbEntity
  8
_U+30EC_U+30A4_U+30E4_U+30FC 1
370
     0
100
AcDb2dPolyline
 66
     1
 10
0.0
 20
0.0
 30
0.0
  0
VERTEX
  5
65
330
64
100
AcDbEntity
  8
_U+30EC_U+30A4_U+30E4_U+30FC 1
370
     0
100
AcDbVertex
100
AcDb2dVertex
 10
85.83507077932249
 20
-137.0734591671205
 30
0.0
  0
VERTEX
  5
66
330
64
100
AcDbEntity
  8
_U+30EC_U+30A4_U+30E4_U+30FC 1
370
     0
100
AcDbVertex
100
AcDb2dVertex
 10
85.83507077932249
 20
-137.4200357729367
 30
0.0
  0
VERTEX
  5
67
330
64
100
AcDbEntity
  8
_U+30EC_U+30A4_U+30E4_U+30FC 1
370
     0
100
AcDbVertex
100
AcDb2dVertex
 10
85.61716848988043
 20
-137.4200357729367
 30
0.0
  0
VERTEX
  5
68
330
64
100
AcDbEntity
  8
_U+30EC_U+30A4_U+30E4_U+30FC 1
370
     0
100
AcDbVertex
100
AcDb2dVertex
 10
85.61716848988043
 20
-137.0734591671205
 30
0.0
  0
VERTEX
  5
69
330
64
100
AcDbEntity
  8
_U+30EC_U+30A4_U+30E4_U+30FC 1
370
     0
100
AcDbVertex
100
AcDb2dVertex
 10
84.96139456426313
 20
-137.0734591671205
 30
0.0
  0
VERTEX
  5
6A
330
64
100
AcDbEntity
  8
_U+30EC_U+30A4_U+30E4_U+30FC 1
370
     0
100
AcDbVertex
100
AcDb2dVertex
 10
84.96139456426313
 20
-136.8488389414822
 30
0.0
  0
VERTEX
  5
6B
330
64
100
AcDbEntity
  8
_U+30EC_U+30A4_U+30E4_U+30FC 1
370
     0
100
AcDbVertex
100
AcDb2dVertex
 10
85.64042288440587
 20
-135.8759439764477
 30
0.0
  0
VERTEX
  5
6C
330
64
100
AcDbEntity
  8
_U+30EC_U+30A4_U+30E4_U+30FC 1
370
     0
100
AcDbVertex
100
AcDb2dVertex
 10
85.83507077932249
 20
-135.8759439764477
 30
0.0
  0
VERTEX
  5
6D
330
64
100
AcDbEntity
  8
_U+30EC_U+30A4_U+30E4_U+30FC 1
370
     0
100
AcDbVertex
100
AcDb2dVertex
 10
85.83507077932249
 20
-136.8743326480731
 30
0.0
  0
VERTEX
  5
6E
330
64
100
AcDbEntity
  8
_U+30EC_U+30A4_U+30E4_U+30FC 1
370
     0
100
AcDbVertex
100
AcDb2dVertex
 10
86.04246552753453
 20
-136.8743326480731
 30
0.0
  0
VERTEX
  5
6F
330
64
100
AcDbEntity
  8
_U+30EC_U+30A4_U+30E4_U+30FC 1
370
     0
100
AcDbVertex
100
AcDb2dVertex
 10
86.04246552753453
 20
-137.0734591671205
 30
0.0
  0
VERTEX
  5
70
330
64
100
AcDbEntity
  8
_U+30EC_U+30A4_U+30E4_U+30FC 1
370
     0
100
AcDbVertex
100
AcDb2dVertex
 10
85.83507077932249
 20
-137.0734591671205
 30
0.0
  0
SEQEND
  5
71
330
64
100
AcDbEntity
  8
_U+30EC_U+30A4_U+30E4_U+30FC 1
370
     0
  0
POLYLINE
  5
72
330
60
100
AcDbEntity
  8
_U+30EC_U+30A4_U+30E4_U+30FC 1
370
     0
100
AcDb2dPolyline
 66
     1
 10
0.0
 20
0.0
 30
0.0
  0
VERTEX
  5
73
330
72
100
AcDbEntity
  8
_U+30EC_U+30A4_U+30E4_U+30FC 1
370
     0
100
AcDbVertex
100
AcDb2dVertex
 10
85.61716848988043
 20
-136.2183864676815
 30
0.0
  0
VERTEX
  5
74
330
72
100
AcDbEntity
  8
_U+30EC_U+30A4_U+30E4_U+30FC 1
370
     0
100
AcDbVertex
100
AcDb2dVertex
 10
85.1603488285363
 20
-136.8743326480731
 30
0.0
  0
VERTEX
  5
75
330
72
100
AcDbEntity
  8
_U+30EC_U+30A4_U+30E4_U+30FC 1
370
     0
100
AcDbVertex
100
AcDb2dVertex
 10
85.61716848988043
 20
-136.8743326480731
 30
0.0
  0
VERTEX
  5
76
330
72
100
AcDbEntity
  8
_U+30EC_U+30A4_U+30E4_U+30FC 1
370
     0
100
AcDbVertex
100
AcDb2dVertex
 10
85.61716848988043
 20
-136.2183864676815
 30
0.0
  0
SEQEND
  5
77
330
72
100
AcDbEntity
  8
_U+30EC_U+30A4_U+30E4_U+30FC 1
370
     0
  0
HATCH
  5
78
330
60
100
AcDbEntity
  8
_U+30EC_U+30A4_U+30E4_U+30FC 1
 62
   179
420
  2234388
100
AcDbHatch
 10
0.0
 20
0.0
 30
0.0
210
0.0
220
0.0
230
1.0
  2
SOLID
 70
     1
 71
     0
 91
        2
 92
        1
 93
       11
 72
     1
 10
85.83507077932249
 20
-137.0734591671205
 11
85.83507077932249
 21
-137.4200357729367
 72
     1
 10
85.83507077932249
 20
-137.4200357729367
 11
85.61716848988043
 21
-137.4200357729367
 72
     1
 10
85.61716848988043
 20
-137.4200357729367
 11
85.61716848988043
 21
-137.0734591671205
 72
     1
 10
85.61716848988043
 20
-137.0734591671205
 11
84.96139456426313
 21
-137.0734591671205
 72
     1
 10
84.96139456426313
 20
-137.0734591671205
 11
84.96139456426313
 21
-136.8488389414822
 72
     1
 10
84.96139456426313
 20
-136.8488389414822
 11
85.64042288440587
 21
-135.8759439764477
 72
     1
 10
85.64042288440587
 20
-135.8759439764477
 11
85.83507077932249
 21
-135.8759439764477
 72
     1
 10
85.83507077932249
 20
-135.8759439764477
 11
85.83507077932249
 21
-136.8743326480731
 72
     1
 10
85.83507077932249
 20
-136.8743326480731
 11
86.04246552753453
 21
-136.8743326480731
 72
     1
 10
86.04246552753453
 20
-136.8743326480731
 11
86.04246552753453
 21
-137.0734591671205
 72
     1
 10
86.04246552753453
 20
-137.0734591671205
 11
85.83507077932249
 21
-137.0734591671205
 97
        0
 92
        1
 93
        3
 72
     1
 10
85.61716848988043
 20
-136.2183864676815
 11
85.1603488285363
 21
-136.8743326480731
 72
     1
 10
85.1603488285363
 20
-136.8743326480731
 11
85.61716848988043
 21
-136.8743326480731
 72
     1
 10
85.61716848988043
 20
-136.8743326480731
 11
85.61716848988043
 21
-136.2183864676815
 97
        0
 75
     2
 76
     1
 98
        0
  0
POLYLINE
  5
79
330
60
100
AcDbEntity
  8
_U+30EC_U+30A4_U+30E4_U+30FC 1
370
     0
100
AcDb2dPolyline
 66
     1
 10
0.0
 20
0.0
 30
0.0
  0
VERTEX
  5
7A
330
79
100
AcDbEntity
  8
_U+30EC_U+30A4_U+30E4_U+30FC 1
370
     0
100
AcDbVertex
100
AcDb2dVertex
 10
86.23986949883934
 20
-137.4200357729367
 30
0.0
  0
VERTEX
  5
7B
330
79
100
AcDbEntity
  8
_U+30EC_U+30A4_U+30E4_U+30FC 1
370
     0
100
AcDbVertex
100
AcDb2dVertex
 10
86.23986949883934
 20
-137.1685438025134
 30
0.0
  0
VERTEX
  5
7C
330
79
100
AcDbEntity
  8
_U+30EC_U+30A4_U+30E4_U+30FC 1
370
     0
100
AcDbVertex
100
AcDb2dVertex
 10
86.49153372403684
 20
-137.1685438025134
 30
0.0
  0
VERTEX
  5
7D
330
79
100
AcDbEntity
  8
_U+30EC_U+30A4_U+30E4_U+30FC 1
370
     0
100
AcDbVertex
100
AcDb2dVertex
 10
86.49153372403684
 20
-137.4200357729367
 30
0.0
  0
VERTEX
  5
7E
330
79
100
AcDbEntity
  8
_U+30EC_U+30A4_U+30E4_U+30FC 1
370
     0
100
AcDbVertex
100
AcDb2dVertex
 10
86.23986949883934
 20
-137.4200357729367
 30
0.0
  0
SEQEND
  5
7F
330
79
100
AcDbEntity
  8
_U+30EC_U+30A4_U+30E4_U+30FC 1
370
     0
  0
HATCH
  5
80
330
60
100
AcDbEntity
  8
_U+30EC_U+30A4_U+30E4_U+30FC 1
 62
   179
420
  2234388
100
AcDbHatch
 10
0.0
 20
0.0
 30
0.0
210
0.0
220
0.0
230
1.0
  2
SOLID
 70
     1
 71
     0
 91
        1
 92
        1
 93
        4
 72
     1
 10
86.23986949883934
 20
-137.4200357729367
 11
86.23986949883934
 21
-137.1685438025134
 72
     1
 10
86.23986949883934
 20
-137.1685438025134
 11
86.49153372403684
 21
-137.1685438025134
 72
     1
 10
86.49153372403684
 20
-137.1685438025134
 11
86.49153372403684
 21
-137.4200357729367
 72
     1
 10
86.49153372403684
 20
-137.4200357729367
 11
86.23986949883934
 21
-137.4200357729367
 97
        0
 75
     2
 76
     1
 98
        0
  0
SPLINE
  5
81
330
60
100
AcDbEntity
  8
_U+30EC_U+30A4_U+30E4_U+30FC 1
370
     0
100
AcDbSpline
210
0.0
220
0.0
230
1.0
 70
    11
 71
     3
 72
    62
 73
    58
 74
     0
 42
0.0000000001
 43
0.0000000001
 12
1.0
 22
0.0
 32
0.0
 13
1.0
 23
0.0
 33
0.0
 40
0.0
 40
0.0
 40
0.0
 40
0.0
 40
1.0
 40
1.0
 40
1.0
 40
2.0
 40
2.0
 40
2.0
 40
3.0
 40
3.0
 40
3.0
 40
4.0
 40
4.0
 40
4.0
 40
5.0
 40
5.0
 40
5.0
 40
6.0
 40
6.0
 40
6.0
 40
7.0
 40
7.0
 40
7.0
 40
8.0
 40
8.0
 40
8.0
 40
9.0
 40
9.0
 40
9.0
 40
10.0
 40
10.0
 40
10.0
 40
11.0
 40
11.0
 40
11.0
 40
12.0
 40
12.0
 40
12.0
 40
13.0
 40
13.0
 40
13.0
 40
14.0
 40
14.0
 40
14.0
 40
15.0
 40
15.0
 40
15.0
 40
16.0
 40
16.0
 40
16.0
 40
17.0
 40
17.0
 40
17.0
 40
18.0
 40
18.0
 40
18.0
 40
19.0
 40
19.0
 40
19.0
 40
19.0
 10
87.21965465484439
 20
-137.4710231861184
 30
0.0
 10
87.12439776467724
 20
-137.4710231861184
 30
0.0
 10
86.90649547523519
 20
-137.4496635941098
 30
0.0
 10
86.78178301866915
 20
-137.2636284379063
 30
0.0
 10
86.70771346573628
 20
-137.1513183250872
 30
0.0
 10
86.7034070963797
 20
-137.052099575112
 30
0.0
 10
86.6992729817974
 20
-136.9673502261748
 30
0.0
 10
86.6992729817974
 20
-136.9673502261748
 30
0.0
 10
86.91924232853061
 20
-136.9673502261748
 30
0.0
 10
86.91924232853061
 20
-136.9673502261748
 30
0.0
 10
86.92130938582176
 20
-137.0417642886562
 30
0.0
 10
86.93198918182604
 20
-137.2763752912018
 30
0.0
 10
87.21534828548783
 20
-137.2763752912018
 30
0.0
 10
87.35297985012356
 20
-137.2763752912018
 30
0.0
 10
87.50525307057161
 20
-137.2064398528512
 30
0.0
 10
87.50525307057161
 20
-136.9780300221791
 30
0.0
 10
87.50525307057161
 20
-136.8619303043262
 30
0.0
 10
87.46718476545959
 20
-136.8130099484356
 30
0.0
 10
87.4354898869953
 20
-136.7813150699714
 30
0.0
 10
87.36142033406243
 20
-136.7072455170385
 30
0.0
 10
87.24497610666099
 20
-136.694498663743
 30
0.0
 10
87.19002683367125
 20
-136.694498663743
 30
0.0
 10
87.17107880850237
 20
-136.694498663743
 30
0.0
 10
87.13507756068151
 20
-136.6965657210342
 30
0.0
 10
87.10751679679952
 20
-136.7006998356165
 30
0.0
 10
87.10751679679952
 20
-136.7006998356165
 30
0.0
 10
87.10751679679952
 20
-136.5063964502484
 30
0.0
 10
87.10751679679952
 20
-136.5063964502484
 30
0.0
 10
87.14558510191152
 20
-136.5125976221219
 30
0.0
 10
87.1879597763801
 20
-136.514664679413
 30
0.0
 10
87.19433320302781
 20
-136.514664679413
 30
0.0
 10
87.25979001724755
 20
-136.514664679413
 30
0.0
 10
87.45874428152074
 20
-136.493649596953
 30
0.0
 10
87.45874428152074
 20
-136.2566270275678
 30
0.0
 10
87.45874428152074
 20
-136.0792046100774
 30
0.0
 10
87.32748614353271
 20
-136.0240830823134
 30
0.0
 10
87.21758759755325
 20
-136.0240830823134
 30
0.0
 10
86.95317651906032
 20
-136.0240830823134
 30
0.0
 10
86.9445637803472
 20
-136.2566270275678
 30
0.0
 10
86.9404296657649
 20
-136.3286295232095
 30
0.0
 10
86.9404296657649
 20
-136.3286295232095
 30
0.0
 10
86.73734128690941
 20
-136.3286295232095
 30
0.0
 10
86.73734128690941
 20
-136.3286295232095
 30
0.0
 10
86.74578177084828
 20
-136.2039170666435
 30
0.0
 10
86.77334253473028
 20
-135.8270236205571
 30
0.0
 10
87.2301621960744
 20
-135.8270236205571
 30
0.0
 10
87.45443791216417
 20
-135.8270236205571
 30
0.0
 10
87.69559459613166
 20
-135.9541476439629
 30
0.0
 10
87.69559459613166
 20
-136.2500813461458
 30
0.0
 10
87.69559459613166
 20
-136.4364610118978
 30
0.0
 10
87.60050996073876
 20
-136.5187987939953
 30
0.0
 10
87.50094670121504
 20
-136.5801214936328
 30
0.0
 10
87.56244165562676
 20
-136.6076822575147
 30
0.0
 10
87.74434269724794
 20
-136.6882974918696
 30
0.0
 10
87.74434269724794
 20
-136.9652831688837
 30
0.0
 10
87.74434269724794
 20
-137.3039360550837
 30
0.0
 10
87.49681258663274
 20
-137.4710231861184
 30
0.0
 10
87.21965465484439
 20
-137.4710231861184
 30
0.0
  0
HATCH
  5
82
330
60
100
AcDbEntity
  8
_U+30EC_U+30A4_U+30E4_U+30FC 1
 62
   179
420
  2234388
100
AcDbHatch
 10
0.0
 20
0.0
 30
0.0
210
0.0
220
0.0
230
1.0
  2
SOLID
 70
     1
 71
     0
 91
        1
 92
        1
 93
        1
 72
     4
 94
        3
 73
     0
 74
     1
 95
       62
 96
       58
 40
0.0
 40
0.0
 40
0.0
 40
0.0
 40
1.0
 40
1.0
 40
1.0
 40
2.0
 40
2.0
 40
2.0
 40
3.0
 40
3.0
 40
3.0
 40
4.0
 40
4.0
 40
4.0
 40
5.0
 40
5.0
 40
5.0
 40
6.0
 40
6.0
 40
6.0
 40
7.0
 40
7.0
 40
7.0
 40
8.0
 40
8.0
 40
8.0
 40
9.0
 40
9.0
 40
9.0
 40
10.0
 40
10.0
 40
10.0
 40
11.0
 40
11.0
 40
11.0
 40
12.0
 40
12.0
 40
12.0
 40
13.0
 40
13.0
 40
13.0
 40
14.0
 40
14.0
 40
14.0
 40
15.0
 40
15.0
 40
15.0
 40
16.0
 40
16.0
 40
16.0
 40
17.0
 40
17.0
 40
17.0
 40
18.0
 40
18.0
 40
18.0
 40
19.0
 40
19.0
 40
19.0
 40
19.0
 10
87.21965465484439
 20
-137.4710231861184
 10
87.12439776467724
 20
-137.4710231861184
 10
86.90649547523519
 20
-137.4496635941098
 10
86.78178301866915
 20
-137.2636284379063
 10
86.70771346573628
 20
-137.1513183250872
 10
86.7034070963797
 20
-137.052099575112
 10
86.6992729817974
 20
-136.9673502261748
 10
86.6992729817974
 20
-136.9673502261748
 10
86.91924232853061
 20
-136.9673502261748
 10
86.91924232853061
 20
-136.9673502261748
 10
86.92130938582176
 20
-137.0417642886562
 10
86.93198918182604
 20
-137.2763752912018
 10
87.21534828548783
 20
-137.2763752912018
 10
87.35297985012356
 20
-137.2763752912018
 10
87.50525307057161
 20
-137.2064398528512
 10
87.50525307057161
 20
-136.9780300221791
 10
87.50525307057161
 20
-136.8619303043262
 10
87.46718476545959
 20
-136.8130099484356
 10
87.4354898869953
 20
-136.7813150699714
 10
87.36142033406243
 20
-136.7072455170385
 10
87.24497610666099
 20
-136.694498663743
 10
87.19002683367125
 20
-136.694498663743
 10
87.17107880850237
 20
-136.694498663743
 10
87.13507756068151
 20
-136.6965657210342
 10
87.10751679679952
 20
-136.7006998356165
 10
87.10751679679952
 20
-136.7006998356165
 10
87.10751679679952
 20
-136.5063964502484
 10
87.10751679679952
 20
-136.5063964502484
 10
87.14558510191152
 20
-136.5125976221219
 10
87.1879597763801
 20
-136.514664679413
 10
87.19433320302781
 20
-136.514664679413
 10
87.25979001724755
 20
-136.514664679413
 10
87.45874428152074
 20
-136.493649596953
 10
87.45874428152074
 20
-136.2566270275678
 10
87.45874428152074
 20
-136.0792046100774
 10
87.32748614353271
 20
-136.0240830823134
 10
87.21758759755325
 20
-136.0240830823134
 10
86.95317651906032
 20
-136.0240830823134
 10
86.9445637803472
 20
-136.2566270275678
 10
86.9404296657649
 20
-136.3286295232095
 10
86.9404296657649
 20
-136.3286295232095
 10
86.73734128690941
 20
-136.3286295232095
 10
86.73734128690941
 20
-136.3286295232095
 10
86.74578177084828
 20
-136.2039170666435
 10
86.77334253473028
 20
-135.8270236205571
 10
87.2301621960744
 20
-135.8270236205571
 10
87.45443791216417
 20
-135.8270236205571
 10
87.69559459613166
 20
-135.9541476439629
 10
87.69559459613166
 20
-136.2500813461458
 10
87.69559459613166
 20
-136.4364610118978
 10
87.60050996073876
 20
-136.5187987939953
 10
87.50094670121504
 20
-136.5801214936328
 10
87.56244165562676
 20
-136.6076822575147
 10
87.74434269724794
 20
-136.6882974918696
 10
87.74434269724794
 20
-136.9652831688837
 10
87.74434269724794
 20
-137.3039360550837
 10
87.49681258663274
 20
-137.4710231861184
 10
87.21965465484439
 20
-137.4710231861184
 97
        0
 97
        0
 75
     2
 76
     1
 98
        0
  0
ENDBLK
  5
63
330
60
100
AcDbEntity
  8
0
100
AcDbBlockEnd
  0
BLOCK
  5
94
330
92
100
AcDbEntity
  8
0
100
AcDbBlockBegin
  2
block 4
 70
     0
 10
0.0
 20
0.0
 30
0.0
  3
block 4
  1

  0
SPLINE
  5
96
330
92
100
AcDbEntity
  8
_U+30EC_U+30A4_U+30E4_U+30FC 1
370
     0
100
AcDbSpline
210
0.0
220
0.0
230
1.0
 70
    11
 71
     3
 72
    44
 73
    40
 74
     0
 42
0.0000000001
 43
0.0000000001
 12
1.0
 22
0.0
 32
0.0
 13
1.0
 23
0.0
 33
0.0
 40
0.0
 40
0.0
 40
0.0
 40
0.0
 40
1.0
 40
1.0
 40
1.0
 40
2.0
 40
2.0
 40
2.0
 40
3.0
 40
3.0
 40
3.0
 40
4.0
 40
4.0
 40
4.0
 40
5.0
 40
5.0
 40
5.0
 40
6.0
 40
6.0
 40
6.0
 40
7.0
 40
7.0
 40
7.0
 40
8.0
 40
8.0
 40
8.0
 40
9.0
 40
9.0
 40
9.0
 40
10.0
 40
10.0
 40
10.0
 40
11.0
 40
11.0
 40
11.0
 40
12.0
 40
12.0
 40
12.0
 40
13.0
 40
13.0
 40
13.0
 40
13.0
 10
85.55205618520921
 20
-120.4343369924609
 30
0.0
 10
85.33415389576716
 20
-120.5929836395566
 30
0.0
 10
85.24096406289115
 20
-120.6670531924895
 30
0.0
 10
85.19238821654913
 20
-120.8108859289987
 30
0.0
 10
85.19238821654913
 20
-120.8108859289987
 30
0.0
 10
85.97080754144133
 20
-120.8108859289987
 30
0.0
 10
85.97080754144133
 20
-120.8108859289987
 30
0.0
 10
85.97080754144133
 20
-120.8108859289987
 30
0.0
 10
85.97080754144133
 20
-121.0160413651453
 30
0.0
 10
85.97080754144133
 20
-121.0160413651453
 30
0.0
 10
85.97080754144133
 20
-121.0160413651453
 30
0.0
 10
84.94279104864277
 20
-121.0160413651453
 30
0.0
 10
84.94279104864277
 20
-121.0160413651453
 30
0.0
 10
84.97448592710708
 20
-120.6584404537764
 30
0.0
 10
85.04011499610108
 20
-120.5802367862612
 30
0.0
 10
85.42510441657775
 20
-120.2818915172386
 30
0.0
 10
85.68107501113182
 20
-120.0831095077396
 30
0.0
 10
85.74653182535157
 20
-120.0154133814545
 30
0.0
 10
85.74653182535157
 20
-119.877954071593
 30
0.0
 10
85.74653182535157
 20
-119.7594427869004
 30
0.0
 10
85.67470158448411
 20
-119.6281846489124
 30
0.0
 10
85.47798663227634
 20
-119.6281846489124
 30
0.0
 10
85.21770966836571
 20
-119.6281846489124
 30
0.0
 10
85.20926918442686
 20
-119.8588337916499
 30
0.0
 10
85.20496281507029
 20
-119.9752780190513
 30
0.0
 10
85.20496281507029
 20
-119.9752780190513
 30
0.0
 10
84.9808593537548
 20
-119.9752780190513
 30
0.0
 10
84.9808593537548
 20
-119.9752780190513
 30
0.0
 10
84.98929983769365
 20
-119.8483262504199
 30
0.0
 10
84.99980737892366
 20
-119.736188392375
 30
0.0
 10
85.08025035850424
 20
-119.6176771076824
 30
0.0
 10
85.19014890448372
 20
-119.4569634032955
 30
0.0
 10
85.37635631546146
 20
-119.4230292127658
 30
0.0
 10
85.49280054286291
 20
-119.4230292127658
 30
0.0
 10
85.76995847465126
 20
-119.4230292127658
 30
0.0
 10
85.97718096808904
 20
-119.6071695664524
 30
0.0
 10
85.97718096808904
 20
-119.8800211288842
 30
0.0
 10
85.97718096808904
 20
-120.1084309595562
 30
0.0
 10
85.86090899546186
 20
-120.2079942190799
 30
0.0
 10
85.55205618520921
 20
-120.4343369924609
 30
0.0
  0
HATCH
  5
97
330
92
100
AcDbEntity
  8
_U+30EC_U+30A4_U+30E4_U+30FC 1
 62
   179
420
  2234388
100
AcDbHatch
 10
0.0
 20
0.0
 30
0.0
210
0.0
220
0.0
230
1.0
  2
SOLID
 70
     1
 71
     0
 91
        1
 92
        1
 93
        1
 72
     4
 94
        3
 73
     0
 74
     1
 95
       44
 96
       40
 40
0.0
 40
0.0
 40
0.0
 40
0.0
 40
1.0
 40
1.0
 40
1.0
 40
2.0
 40
2.0
 40
2.0
 40
3.0
 40
3.0
 40
3.0
 40
4.0
 40
4.0
 40
4.0
 40
5.0
 40
5.0
 40
5.0
 40
6.0
 40
6.0
 40
6.0
 40
7.0
 40
7.0
 40
7.0
 40
8.0
 40
8.0
 40
8.0
 40
9.0
 40
9.0
 40
9.0
 40
10.0
 40
10.0
 40
10.0
 40
11.0
 40
11.0
 40
11.0
 40
12.0
 40
12.0
 40
12.0
 40
13.0
 40
13.0
 40
13.0
 40
13.0
 10
85.55205618520921
 20
-120.4343369924609
 10
85.33415389576716
 20
-120.5929836395566
 10
85.24096406289115
 20
-120.6670531924895
 10
85.19238821654913
 20
-120.8108859289987
 10
85.19238821654913
 20
-120.8108859289987
 10
85.97080754144133
 20
-120.8108859289987
 10
85.97080754144133
 20
-120.8108859289987
 10
85.97080754144133
 20
-120.8108859289987
 10
85.97080754144133
 20
-121.0160413651453
 10
85.97080754144133
 20
-121.0160413651453
 10
85.97080754144133
 20
-121.0160413651453
 10
84.94279104864277
 20
-121.0160413651453
 10
84.94279104864277
 20
-121.0160413651453
 10
84.97448592710708
 20
-120.6584404537764
 10
85.04011499610108
 20
-120.5802367862612
 10
85.42510441657775
 20
-120.2818915172386
 10
85.68107501113182
 20
-120.0831095077396
 10
85.74653182535157
 20
-120.0154133814545
 10
85.74653182535157
 20
-119.877954071593
 10
85.74653182535157
 20
-119.7594427869004
 10
85.67470158448411
 20
-119.6281846489124
 10
85.47798663227634
 20
-119.6281846489124
 10
85.21770966836571
 20
-119.6281846489124
 10
85.20926918442686
 20
-119.8588337916499
 10
85.20496281507029
 20
-119.9752780190513
 10
85.20496281507029
 20
-119.9752780190513
 10
84.9808593537548
 20
-119.9752780190513
 10
84.9808593537548
 20
-119.9752780190513
 10
84.98929983769365
 20
-119.8483262504199
 10
84.99980737892366
 20
-119.736188392375
 10
85.08025035850424
 20
-119.6176771076824
 10
85.19014890448372
 20
-119.4569634032955
 10
85.37635631546146
 20
-119.4230292127658
 10
85.49280054286291
 20
-119.4230292127658
 10
85.76995847465126
 20
-119.4230292127658
 10
85.97718096808904
 20
-119.6071695664524
 10
85.97718096808904
 20
-119.8800211288842
 10
85.97718096808904
 20
-120.1084309595562
 10
85.86090899546186
 20
-120.2079942190799
 10
85.55205618520921
 20
-120.4343369924609
 97
        0
 97
        0
 75
     2
 76
     1
 98
        0
  0
POLYLINE
  5
98
330
92
100
AcDbEntity
  8
_U+30EC_U+30A4_U+30E4_U+30FC 1
370
     0
100
AcDb2dPolyline
 66
     1
 10
0.0
 20
0.0
 30
0.0
  0
VERTEX
  5
99
330
98
100
AcDbEntity
  8
_U+30EC_U+30A4_U+30E4_U+30FC 1
370
     0
100
AcDbVertex
100
AcDb2dVertex
 10
86.19577227662815
 20
-121.0160413651453
 30
0.0
  0
VERTEX
  5
9A
330
98
100
AcDbEntity
  8
_U+30EC_U+30A4_U+30E4_U+30FC 1
370
     0
100
AcDbVertex
100
AcDb2dVertex
 10
86.19577227662815
 20
-120.7643771399478
 30
0.0
  0
VERTEX
  5
9B
330
98
100
AcDbEntity
  8
_U+30EC_U+30A4_U+30E4_U+30FC 1
370
     0
100
AcDbVertex
100
AcDb2dVertex
 10
86.44743650182565
 20
-120.7643771399478
 30
0.0
  0
VERTEX
  5
9C
330
98
100
AcDbEntity
  8
_U+30EC_U+30A4_U+30E4_U+30FC 1
370
     0
100
AcDbVertex
100
AcDb2dVertex
 10
86.44743650182565
 20
-121.0160413651453
 30
0.0
  0
VERTEX
  5
9D
330
98
100
AcDbEntity
  8
_U+30EC_U+30A4_U+30E4_U+30FC 1
370
     0
100
AcDbVertex
100
AcDb2dVertex
 10
86.19577227662815
 20
-121.0160413651453
 30
0.0
  0
SEQEND
  5
9E
330
98
100
AcDbEntity
  8
_U+30EC_U+30A4_U+30E4_U+30FC 1
370
     0
  0
HATCH
  5
9F
330
92
100
AcDbEntity
  8
_U+30EC_U+30A4_U+30E4_U+30FC 1
 62
   179
420
  2234388
100
AcDbHatch
 10
0.0
 20
0.0
 30
0.0
210
0.0
220
0.0
230
1.0
  2
SOLID
 70
     1
 71
     0
 91
        1
 92
        1
 93
        4
 72
     1
 10
86.19577227662815
 20
-121.0160413651453
 11
86.19577227662815
 21
-120.7643771399478
 72
     1
 10
86.19577227662815
 20
-120.7643771399478
 11
86.44743650182565
 21
-120.7643771399478
 72
     1
 10
86.44743650182565
 20
-120.7643771399478
 11
86.44743650182565
 21
-121.0160413651453
 72
     1
 10
86.44743650182565
 20
-121.0160413651453
 11
86.19577227662815
 21
-121.0160413651453
 97
        0
 75
     2
 76
     1
 98
        0
  0
SPLINE
  5
A0
330
92
100
AcDbEntity
  8
_U+30EC_U+30A4_U+30E4_U+30FC 1
370
     0
100
AcDbSpline
210
0.0
220
0.0
230
1.0
 70
    11
 71
     3
 72
    32
 73
    28
 74
     0
 42
0.0000000001
 43
0.0000000001
 12
1.0
 22
0.0
 32
0.0
 13
1.0
 23
0.0
 33
0.0
 40
0.0
 40
0.0
 40
0.0
 40
0.0
 40
1.0
 40
1.0
 40
1.0
 40
2.0
 40
2.0
 40
2.0
 40
3.0
 40
3.0
 40
3.0
 40
4.0
 40
4.0
 40
4.0
 40
5.0
 40
5.0
 40
5.0
 40
6.0
 40
6.0
 40
6.0
 40
7.0
 40
7.0
 40
7.0
 40
8.0
 40
8.0
 40
8.0
 40
9.0
 40
9.0
 40
9.0
 40
9.0
 10
87.14179549687775
 20
-121.0668565235527
 30
0.0
 10
86.96833493919542
 20
-121.0668565235527
 30
0.0
 10
86.72287188587137
 20
-120.9969210852022
 30
0.0
 10
86.68480358075936
 20
-120.6648138804241
 30
0.0
 10
86.68480358075936
 20
-120.6648138804241
 30
0.0
 10
86.89839950084485
 20
-120.6648138804241
 30
0.0
 10
86.89839950084485
 20
-120.6648138804241
 30
0.0
 10
86.90907929684913
 20
-120.7240695227704
 30
0.0
 10
86.94077417531342
 20
-120.8722086286361
 30
0.0
 10
87.1438625541689
 20
-120.8722086286361
 30
0.0
 10
87.43583439654383
 20
-120.8722086286361
 30
0.0
 10
87.47390270165583
 20
-120.5421684811492
 30
0.0
 10
87.486477300177
 20
-120.3370130450026
 30
0.0
 10
87.3955267793664
 20
-120.4172837698089
 30
0.0
 10
87.32783065308124
 20
-120.474472354864
 30
0.0
 10
87.14592961146005
 20
-120.474472354864
 30
0.0
 10
86.96609562713
 20
-120.474472354864
 30
0.0
 10
86.66361624352507
 20
-120.3687079234669
 30
0.0
 10
86.66361624352507
 20
-119.9625311657559
 30
0.0
 10
86.66361624352507
 20
-119.642998559499
 30
0.0
 10
86.86239825302398
 20
-119.4230292127658
 30
0.0
 10
87.17986380198975
 20
-119.4230292127658
 30
0.0
 10
87.69387204838904
 20
-119.4230292127658
 30
0.0
 10
87.70437958961905
 20
-119.9773450763425
 30
0.0
 10
87.70437958961905
 20
-120.190940996428
 30
0.0
 10
87.70437958961905
 20
-120.4215901391654
 30
0.0
 10
87.68543156445017
 20
-121.0668565235527
 30
0.0
 10
87.14179549687775
 20
-121.0668565235527
 30
0.0
  0
SPLINE
  5
A1
330
92
100
AcDbEntity
  8
_U+30EC_U+30A4_U+30E4_U+30FC 1
370
     0
100
AcDbSpline
210
0.0
220
0.0
230
1.0
 70
    11
 71
     3
 72
    17
 73
    13
 74
     0
 42
0.0000000001
 43
0.0000000001
 12
1.0
 22
0.0
 32
0.0
 13
1.0
 23
0.0
 33
0.0
 40
0.0
 40
0.0
 40
0.0
 40
0.0
 40
1.0
 40
1.0
 40
1.0
 40
2.0
 40
2.0
 40
2.0
 40
3.0
 40
3.0
 40
3.0
 40
4.0
 40
4.0
 40
4.0
 40
4.0
 10
87.18193085928091
 20
-119.6156100503912
 30
0.0
 10
87.06341957458831
 20
-119.6156100503912
 30
0.0
 10
86.88789195961483
 20
-119.6726263806721
 30
0.0
 10
86.88789195961483
 20
-119.9582247963993
 30
0.0
 10
86.88789195961483
 20
-120.1845675697803
 30
0.0
 10
87.02741832676746
 20
-120.2798244599474
 30
0.0
 10
87.16281057933777
 20
-120.2798244599474
 30
0.0
 10
87.42515460053954
 20
-120.2798244599474
 30
0.0
 10
87.46322290565156
 20
-120.0703626544442
 30
0.0
 10
87.46322290565156
 20
-119.954090681817
 30
0.0
 10
87.46322290565156
 20
-119.7783908120693
 30
0.0
 10
87.36813827025867
 20
-119.6156100503912
 30
0.0
 10
87.18193085928091
 20
-119.6156100503912
 30
0.0
  0
HATCH
  5
A2
330
92
100
AcDbEntity
  8
_U+30EC_U+30A4_U+30E4_U+30FC 1
 62
   179
420
  2234388
100
AcDbHatch
 10
0.0
 20
0.0
 30
0.0
210
0.0
220
0.0
230
1.0
  2
SOLID
 70
     1
 71
     0
 91
        2
 92
        1
 93
        1
 72
     4
 94
        3
 73
     0
 74
     1
 95
       32
 96
       28
 40
0.0
 40
0.0
 40
0.0
 40
0.0
 40
1.0
 40
1.0
 40
1.0
 40
2.0
 40
2.0
 40
2.0
 40
3.0
 40
3.0
 40
3.0
 40
4.0
 40
4.0
 40
4.0
 40
5.0
 40
5.0
 40
5.0
 40
6.0
 40
6.0
 40
6.0
 40
7.0
 40
7.0
 40
7.0
 40
8.0
 40
8.0
 40
8.0
 40
9.0
 40
9.0
 40
9.0
 40
9.0
 10
87.14179549687775
 20
-121.0668565235527
 10
86.96833493919542
 20
-121.0668565235527
 10
86.72287188587137
 20
-120.9969210852022
 10
86.68480358075936
 20
-120.6648138804241
 10
86.68480358075936
 20
-120.6648138804241
 10
86.89839950084485
 20
-120.6648138804241
 10
86.89839950084485
 20
-120.6648138804241
 10
86.90907929684913
 20
-120.7240695227704
 10
86.94077417531342
 20
-120.8722086286361
 10
87.1438625541689
 20
-120.8722086286361
 10
87.43583439654383
 20
-120.8722086286361
 10
87.47390270165583
 20
-120.5421684811492
 10
87.486477300177
 20
-120.3370130450026
 10
87.3955267793664
 20
-120.4172837698089
 10
87.32783065308124
 20
-120.474472354864
 10
87.14592961146005
 20
-120.474472354864
 10
86.96609562713
 20
-120.474472354864
 10
86.66361624352507
 20
-120.3687079234669
 10
86.66361624352507
 20
-119.9625311657559
 10
86.66361624352507
 20
-119.642998559499
 10
86.86239825302398
 20
-119.4230292127658
 10
87.17986380198975
 20
-119.4230292127658
 10
87.69387204838904
 20
-119.4230292127658
 10
87.70437958961905
 20
-119.9773450763425
 10
87.70437958961905
 20
-120.190940996428
 10
87.70437958961905
 20
-120.4215901391654
 10
87.68543156445017
 20
-121.0668565235527
 10
87.14179549687775
 20
-121.0668565235527
 97
        0
 97
        0
 92
        1
 93
        1
 72
     4
 94
        3
 73
     0
 74
     1
 95
       17
 96
       13
 40
0.0
 40
0.0
 40
0.0
 40
0.0
 40
1.0
 40
1.0
 40
1.0
 40
2.0
 40
2.0
 40
2.0
 40
3.0
 40
3.0
 40
3.0
 40
4.0
 40
4.0
 40
4.0
 40
4.0
 10
87.18193085928091
 20
-119.6156100503912
 10
87.06341957458831
 20
-119.6156100503912
 10
86.88789195961483
 20
-119.6726263806721
 10
86.88789195961483
 20
-119.9582247963993
 10
86.88789195961483
 20
-120.1845675697803
 10
87.02741832676746
 20
-120.2798244599474
 10
87.16281057933777
 20
-120.2798244599474
 10
87.42515460053954
 20
-120.2798244599474
 10
87.46322290565156
 20
-120.0703626544442
 10
87.46322290565156
 20
-119.954090681817
 10
87.46322290565156
 20
-119.7783908120693
 10
87.36813827025867
 20
-119.6156100503912
 10
87.18193085928091
 20
-119.6156100503912
 97
        0
 97
        0
 75
     2
 76
     1
 98
        0
  0
ENDBLK
  5
95
330
92
100
AcDbEntity
  8
0
100
AcDbBlockEnd
  0
BLOCK
  5
AE
330
AC
100
AcDbEntity
  8
0
100
AcDbBlockBegin
  2
block 5
 70
     0
 10
0.0
 20
0.0
 30
0.0
  3
block 5
  1

  0
SPLINE
  5
B0
330
AC
100
AcDbEntity
  8
_U+30EC_U+30A4_U+30E4_U+30FC 1
370
     0
100
AcDbSpline
210
0.0
220
0.0
230
1.0
 70
    11
 71
     3
 72
    44
 73
    40
 74
     0
 42
0.0000000001
 43
0.0000000001
 12
1.0
 22
0.0
 32
0.0
 13
1.0
 23
0.0
 33
0.0
 40
0.0
 40
0.0
 40
0.0
 40
0.0
 40
1.0
 40
1.0
 40
1.0
 40
2.0
 40
2.0
 40
2.0
 40
3.0
 40
3.0
 40
3.0
 40
4.0
 40
4.0
 40
4.0
 40
5.0
 40
5.0
 40
5.0
 40
6.0
 40
6.0
 40
6.0
 40
7.0
 40
7.0
 40
7.0
 40
8.0
 40
8.0
 40
8.0
 40
9.0
 40
9.0
 40
9.0
 40
10.0
 40
10.0
 40
10.0
 40
11.0
 40
11.0
 40
11.0
 40
12.0
 40
12.0
 40
12.0
 40
13.0
 40
13.0
 40
13.0
 40
13.0
 10
65.62286782213596
 20
-120.4343369924609
 30
0.0
 10
65.40496553269391
 20
-120.5929836395566
 30
0.0
 10
65.31177569981789
 20
-120.6670531924895
 30
0.0
 10
65.26319985347587
 20
-120.8108859289987
 30
0.0
 10
65.26319985347587
 20
-120.8108859289987
 30
0.0
 10
66.04161917836807
 20
-120.8108859289987
 30
0.0
 10
66.04161917836807
 20
-120.8108859289987
 30
0.0
 10
66.04161917836807
 20
-120.8108859289987
 30
0.0
 10
66.04161917836807
 20
-121.0160413651453
 30
0.0
 10
66.04161917836807
 20
-121.0160413651453
 30
0.0
 10
66.04161917836807
 20
-121.0160413651453
 30
0.0
 10
65.01360268556952
 20
-121.0160413651453
 30
0.0
 10
65.01360268556952
 20
-121.0160413651453
 30
0.0
 10
65.04529756403382
 20
-120.6584404537764
 30
0.0
 10
65.11092663302783
 20
-120.5802367862612
 30
0.0
 10
65.4959160535045
 20
-120.2818915172386
 30
0.0
 10
65.75188664805856
 20
-120.0831095077396
 30
0.0
 10
65.8173434622783
 20
-120.0154133814545
 30
0.0
 10
65.8173434622783
 20
-119.877954071593
 30
0.0
 10
65.8173434622783
 20
-119.7594427869004
 30
0.0
 10
65.74551322141085
 20
-119.6281846489124
 30
0.0
 10
65.54879826920308
 20
-119.6281846489124
 30
0.0
 10
65.28852130529246
 20
-119.6281846489124
 30
0.0
 10
65.2800808213536
 20
-119.8588337916499
 30
0.0
 10
65.27577445199704
 20
-119.9752780190513
 30
0.0
 10
65.27577445199704
 20
-119.9752780190513
 30
0.0
 10
65.05167099068153
 20
-119.9752780190513
 30
0.0
 10
65.05167099068153
 20
-119.9752780190513
 30
0.0
 10
65.06011147462038
 20
-119.8483262504199
 30
0.0
 10
65.0706190158504
 20
-119.736188392375
 30
0.0
 10
65.151061995431
 20
-119.6176771076824
 30
0.0
 10
65.26096054141045
 20
-119.4569634032955
 30
0.0
 10
65.44716795238821
 20
-119.4230292127658
 30
0.0
 10
65.56361217978966
 20
-119.4230292127658
 30
0.0
 10
65.84077011157801
 20
-119.4230292127658
 30
0.0
 10
66.04799260501578
 20
-119.6071695664524
 30
0.0
 10
66.04799260501578
 20
-119.8800211288842
 30
0.0
 10
66.04799260501578
 20
-120.1084309595562
 30
0.0
 10
65.9317206323886
 20
-120.2079942190799
 30
0.0
 10
65.62286782213596
 20
-120.4343369924609
 30
0.0
  0
HATCH
  5
B1
330
AC
100
AcDbEntity
  8
_U+30EC_U+30A4_U+30E4_U+30FC 1
 62
   179
420
  2234388
100
AcDbHatch
 10
0.0
 20
0.0
 30
0.0
210
0.0
220
0.0
230
1.0
  2
SOLID
 70
     1
 71
     0
 91
        1
 92
        1
 93
        1
 72
     4
 94
        3
 73
     0
 74
     1
 95
       44
 96
       40
 40
0.0
 40
0.0
 40
0.0
 40
0.0
 40
1.0
 40
1.0
 40
1.0
 40
2.0
 40
2.0
 40
2.0
 40
3.0
 40
3.0
 40
3.0
 40
4.0
 40
4.0
 40
4.0
 40
5.0
 40
5.0
 40
5.0
 40
6.0
 40
6.0
 40
6.0
 40
7.0
 40
7.0
 40
7.0
 40
8.0
 40
8.0
 40
8.0
 40
9.0
 40
9.0
 40
9.0
 40
10.0
 40
10.0
 40
10.0
 40
11.0
 40
11.0
 40
11.0
 40
12.0
 40
12.0
 40
12.0
 40
13.0
 40
13.0
 40
13.0
 40
13.0
 10
65.62286782213596
 20
-120.4343369924609
 10
65.40496553269391
 20
-120.5929836395566
 10
65.31177569981789
 20
-120.6670531924895
 10
65.26319985347587
 20
-120.8108859289987
 10
65.26319985347587
 20
-120.8108859289987
 10
66.04161917836807
 20
-120.8108859289987
 10
66.04161917836807
 20
-120.8108859289987
 10
66.04161917836807
 20
-120.8108859289987
 10
66.04161917836807
 20
-121.0160413651453
 10
66.04161917836807
 20
-121.0160413651453
 10
66.04161917836807
 20
-121.0160413651453
 10
65.01360268556952
 20
-121.0160413651453
 10
65.01360268556952
 20
-121.0160413651453
 10
65.04529756403382
 20
-120.6584404537764
 10
65.11092663302783
 20
-120.5802367862612
 10
65.4959160535045
 20
-120.2818915172386
 10
65.75188664805856
 20
-120.0831095077396
 10
65.8173434622783
 20
-120.0154133814545
 10
65.8173434622783
 20
-119.877954071593
 10
65.8173434622783
 20
-119.7594427869004
 10
65.74551322141085
 20
-119.6281846489124
 10
65.54879826920308
 20
-119.6281846489124
 10
65.28852130529246
 20
-119.6281846489124
 10
65.2800808213536
 20
-119.8588337916499
 10
65.27577445199704
 20
-119.9752780190513
 10
65.27577445199704
 20
-119.9752780190513
 10
65.05167099068153
 20
-119.9752780190513
 10
65.05167099068153
 20
-119.9752780190513
 10
65.06011147462038
 20
-119.8483262504199
 10
65.0706190158504
 20
-119.736188392375
 10
65.151061995431
 20
-119.6176771076824
 10
65.26096054141045
 20
-119.4569634032955
 10
65.44716795238821
 20
-119.4230292127658
 10
65.56361217978966
 20
-119.4230292127658
 10
65.84077011157801
 20
-119.4230292127658
 10
66.04799260501578
 20
-119.6071695664524
 10
66.04799260501578
 20
-119.8800211288842
 10
66.04799260501578
 20
-120.1084309595562
 10
65.9317206323886
 20
-120.2079942190799
 10
65.62286782213596
 20
-120.4343369924609
 97
        0
 97
        0
 75
     2
 76
     1
 98
        0
  0
SPLINE
  5
B2
330
AC
100
AcDbEntity
  8
_U+30EC_U+30A4_U+30E4_U+30FC 1
370
     0
100
AcDbSpline
210
0.0
220
0.0
230
1.0
 70
    11
 71
     3
 72
    53
 73
    49
 74
     0
 42
0.0000000001
 43
0.0000000001
 12
1.0
 22
0.0
 32
0.0
 13
1.0
 23
0.0
 33
0.0
 40
0.0
 40
0.0
 40
0.0
 40
0.0
 40
1.0
 40
1.0
 40
1.0
 40
2.0
 40
2.0
 40
2.0
 40
3.0
 40
3.0
 40
3.0
 40
4.0
 40
4.0
 40
4.0
 40
5.0
 40
5.0
 40
5.0
 40
6.0
 40
6.0
 40
6.0
 40
7.0
 40
7.0
 40
7.0
 40
8.0
 40
8.0
 40
8.0
 40
9.0
 40
9.0
 40
9.0
 40
10.0
 40
10.0
 40
10.0
 40
11.0
 40
11.0
 40
11.0
 40
12.0
 40
12.0
 40
12.0
 40
13.0
 40
13.0
 40
13.0
 40
14.0
 40
14.0
 40
14.0
 40
15.0
 40
15.0
 40
15.0
 40
16.0
 40
16.0
 40
16.0
 40
16.0
 10
66.68757458185242
 20
-121.0668565235527
 30
0.0
 10
66.60919865956298
 20
-121.0668565235527
 30
0.0
 10
66.50774059752237
 20
-121.049975555675
 30
0.0
 10
66.40611028070751
 20
-120.9864135439721
 30
0.0
 10
66.23264972302518
 20
-120.8763427432184
 30
0.0
 10
66.21146238579088
 20
-120.7452568600047
 30
0.0
 10
66.19251436062201
 20
-120.6374253713163
 30
0.0
 10
66.19251436062201
 20
-120.6374253713163
 30
0.0
 10
66.41455076464636
 20
-120.6374253713163
 30
0.0
 10
66.41455076464636
 20
-120.6374253713163
 30
0.0
 10
66.46967229241037
 20
-120.8362073808153
 30
0.0
 10
66.59662406104182
 20
-120.8658352019884
 30
0.0
 10
66.68964163914356
 20
-120.8658352019884
 30
0.0
 10
66.82934026107044
 20
-120.8658352019884
 30
0.0
 10
66.9816134815185
 20
-120.766444197239
 30
0.0
 10
66.9816134815185
 20
-120.5337279972103
 30
0.0
 10
66.9816134815185
 20
-120.2777574026563
 30
0.0
 10
66.80177949718845
 20
-120.2079942190799
 30
0.0
 10
66.6812011552047
 20
-120.2079942190799
 30
0.0
 10
66.64950627674041
 20
-120.2079942190799
 30
0.0
 10
66.50774059752237
 20
-120.2079942190799
 30
0.0
 10
66.41885713400293
 20
-120.3370130450026
 30
0.0
 10
66.41885713400293
 20
-120.3370130450026
 30
0.0
 10
66.24332951902944
 20
-120.3178927650594
 30
0.0
 10
66.24332951902944
 20
-120.3178927650594
 30
0.0
 10
66.24332951902944
 20
-120.3178927650594
 30
0.0
 10
66.36390786101319
 20
-119.4717773138821
 30
0.0
 10
66.36390786101319
 20
-119.4717773138821
 30
0.0
 10
66.36390786101319
 20
-119.4717773138821
 30
0.0
 10
67.14232718590539
 20
-119.4717773138821
 30
0.0
 10
67.14232718590539
 20
-119.4717773138821
 30
0.0
 10
67.14232718590539
 20
-119.4717773138821
 30
0.0
 10
67.14232718590539
 20
-119.6664252087987
 30
0.0
 10
67.14232718590539
 20
-119.6664252087987
 30
0.0
 10
67.14232718590539
 20
-119.6664252087987
 30
0.0
 10
66.52668862269125
 20
-119.6664252087987
 30
0.0
 10
66.52668862269125
 20
-119.6664252087987
 30
0.0
 10
66.52668862269125
 20
-119.6664252087987
 30
0.0
 10
66.4612318084715
 20
-120.0894829343874
 30
0.0
 10
66.4612318084715
 20
-120.0894829343874
 30
0.0
 10
66.52255450810895
 20
-120.0555487438576
 30
0.0
 10
66.60506454498068
 20
-120.0154133814545
 30
0.0
 10
66.72340357489901
 20
-120.0154133814545
 30
0.0
 10
66.97730711216192
 20
-120.0154133814545
 30
0.0
 10
67.21432968154711
 20
-120.2016207924322
 30
0.0
 10
67.21432968154711
 20
-120.5146077172672
 30
0.0
 10
67.21432968154711
 20
-120.832073266233
 30
0.0
 10
66.99005396545735
 20
-121.0668565235527
 30
0.0
 10
66.68757458185242
 20
-121.0668565235527
 30
0.0
  0
HATCH
  5
B3
330
AC
100
AcDbEntity
  8
_U+30EC_U+30A4_U+30E4_U+30FC 1
 62
   179
420
  2234388
100
AcDbHatch
 10
0.0
 20
0.0
 30
0.0
210
0.0
220
0.0
230
1.0
  2
SOLID
 70
     1
 71
     0
 91
        1
 92
        1
 93
        1
 72
     4
 94
        3
 73
     0
 74
     1
 95
       53
 96
       49
 40
0.0
 40
0.0
 40
0.0
 40
0.0
 40
1.0
 40
1.0
 40
1.0
 40
2.0
 40
2.0
 40
2.0
 40
3.0
 40
3.0
 40
3.0
 40
4.0
 40
4.0
 40
4.0
 40
5.0
 40
5.0
 40
5.0
 40
6.0
 40
6.0
 40
6.0
 40
7.0
 40
7.0
 40
7.0
 40
8.0
 40
8.0
 40
8.0
 40
9.0
 40
9.0
 40
9.0
 40
10.0
 40
10.0
 40
10.0
 40
11.0
 40
11.0
 40
11.0
 40
12.0
 40
12.0
 40
12.0
 40
13.0
 40
13.0
 40
13.0
 40
14.0
 40
14.0
 40
14.0
 40
15.0
 40
15.0
 40
15.0
 40
16.0
 40
16.0
 40
16.0
 40
16.0
 10
66.68757458185242
 20
-121.0668565235527
 10
66.60919865956298
 20
-121.0668565235527
 10
66.50774059752237
 20
-121.049975555675
 10
66.40611028070751
 20
-120.9864135439721
 10
66.23264972302518
 20
-120.8763427432184
 10
66.21146238579088
 20
-120.7452568600047
 10
66.19251436062201
 20
-120.6374253713163
 10
66.19251436062201
 20
-120.6374253713163
 10
66.41455076464636
 20
-120.6374253713163
 10
66.41455076464636
 20
-120.6374253713163
 10
66.46967229241037
 20
-120.8362073808153
 10
66.59662406104182
 20
-120.8658352019884
 10
66.68964163914356
 20
-120.8658352019884
 10
66.82934026107044
 20
-120.8658352019884
 10
66.9816134815185
 20
-120.766444197239
 10
66.9816134815185
 20
-120.5337279972103
 10
66.9816134815185
 20
-120.2777574026563
 10
66.80177949718845
 20
-120.2079942190799
 10
66.6812011552047
 20
-120.2079942190799
 10
66.64950627674041
 20
-120.2079942190799
 10
66.50774059752237
 20
-120.2079942190799
 10
66.41885713400293
 20
-120.3370130450026
 10
66.41885713400293
 20
-120.3370130450026
 10
66.24332951902944
 20
-120.3178927650594
 10
66.24332951902944
 20
-120.3178927650594
 10
66.24332951902944
 20
-120.3178927650594
 10
66.36390786101319
 20
-119.4717773138821
 10
66.36390786101319
 20
-119.4717773138821
 10
66.36390786101319
 20
-119.4717773138821
 10
67.14232718590539
 20
-119.4717773138821
 10
67.14232718590539
 20
-119.4717773138821
 10
67.14232718590539
 20
-119.4717773138821
 10
67.14232718590539
 20
-119.6664252087987
 10
67.14232718590539
 20
-119.6664252087987
 10
67.14232718590539
 20
-119.6664252087987
 10
66.52668862269125
 20
-119.6664252087987
 10
66.52668862269125
 20
-119.6664252087987
 10
66.52668862269125
 20
-119.6664252087987
 10
66.4612318084715
 20
-120.0894829343874
 10
66.4612318084715
 20
-120.0894829343874
 10
66.52255450810895
 20
-120.0555487438576
 10
66.60506454498068
 20
-120.0154133814545
 10
66.72340357489901
 20
-120.0154133814545
 10
66.97730711216192
 20
-120.0154133814545
 10
67.21432968154711
 20
-120.2016207924322
 10
67.21432968154711
 20
-120.5146077172672
 10
67.21432968154711
 20
-120.832073266233
 10
66.99005396545735
 20
-121.0668565235527
 10
66.68757458185242
 20
-121.0668565235527
 97
        0
 97
        0
 75
     2
 76
     1
 98
        0
  0
ENDBLK
  5
AF
330
AC
100
AcDbEntity
  8
0
100
AcDbBlockEnd
  0
BLOCK
  5
C2
330
C0
100
AcDbEntity
  8
0
100
AcDbBlockBegin
  2
block 6
 70
     0
 10
0.0
 20
0.0
 30
0.0
  3
block 6
  1

  0
SPLINE
  5
C4
330
C0
100
AcDbEntity
  8
_U+30EC_U+30A4_U+30E4_U+30FC 1
370
     0
100
AcDbSpline
210
0.0
220
0.0
230
1.0
 70
    11
 71
     3
 72
    62
 73
    58
 74
     0
 42
0.0000000001
 43
0.0000000001
 12
1.0
 22
0.0
 32
0.0
 13
1.0
 23
0.0
 33
0.0
 40
0.0
 40
0.0
 40
0.0
 40
0.0
 40
1.0
 40
1.0
 40
1.0
 40
2.0
 40
2.0
 40
2.0
 40
3.0
 40
3.0
 40
3.0
 40
4.0
 40
4.0
 40
4.0
 40
5.0
 40
5.0
 40
5.0
 40
6.0
 40
6.0
 40
6.0
 40
7.0
 40
7.0
 40
7.0
 40
8.0
 40
8.0
 40
8.0
 40
9.0
 40
9.0
 40
9.0
 40
10.0
 40
10.0
 40
10.0
 40
11.0
 40
11.0
 40
11.0
 40
12.0
 40
12.0
 40
12.0
 40
13.0
 40
13.0
 40
13.0
 40
14.0
 40
14.0
 40
14.0
 40
15.0
 40
15.0
 40
15.0
 40
16.0
 40
16.0
 40
16.0
 40
17.0
 40
17.0
 40
17.0
 40
18.0
 40
18.0
 40
18.0
 40
19.0
 40
19.0
 40
19.0
 40
19.0
 10
101.5638264720049
 20
-121.0668565235527
 30
0.0
 10
101.4683973270635
 20
-121.0668565235527
 30
0.0
 10
101.2506672923957
 20
-121.0456691863184
 30
0.0
 10
101.1256103262811
 20
-120.8594617753407
 30
0.0
 10
101.0515407733482
 20
-120.7473239172958
 30
0.0
 10
101.0474066587659
 20
-120.6479329125464
 30
0.0
 10
101.0432725441836
 20
-120.5633558183835
 30
0.0
 10
101.0432725441836
 20
-120.5633558183835
 30
0.0
 10
101.2634141456911
 20
-120.5633558183835
 30
0.0
 10
101.2634141456911
 20
-120.5633558183835
 30
0.0
 10
101.2654812029822
 20
-120.6374253713163
 30
0.0
 10
101.275816489438
 20
-120.8722086286361
 30
0.0
 10
101.5593478478741
 20
-120.8722086286361
 30
0.0
 10
101.6968071577355
 20
-120.8722086286361
 30
0.0
 10
101.8494248877321
 20
-120.8024454450598
 30
0.0
 10
101.8494248877321
 20
-120.5738633596135
 30
0.0
 10
101.8494248877321
 20
-120.4575913869863
 30
0.0
 10
101.8111843278458
 20
-120.40884328587
 30
0.0
 10
101.7794894493815
 20
-120.3771484074057
 30
0.0
 10
101.7054198964486
 20
-120.3030788544728
 30
0.0
 10
101.5889756690472
 20
-120.2905042559517
 30
0.0
 10
101.5341986508317
 20
-120.2905042559517
 30
0.0
 10
101.5149061161143
 20
-120.2905042559517
 30
0.0
 10
101.4790771230677
 20
-120.2925713132428
 30
0.0
 10
101.4515163591857
 20
-120.2967054278251
 30
0.0
 10
101.4515163591857
 20
-120.2967054278251
 30
0.0
 10
101.4515163591857
 20
-120.1022297876828
 30
0.0
 10
101.4515163591857
 20
-120.1022297876828
 30
0.0
 10
101.489756919072
 20
-120.1084309595562
 30
0.0
 10
101.5317870839921
 20
-120.1106702716216
 30
0.0
 10
101.538332765414
 20
-120.1106702716216
 30
0.0
 10
101.6037895796338
 20
-120.1106702716216
 30
0.0
 10
101.8025715891327
 20
-120.0894829343874
 30
0.0
 10
101.8025715891327
 20
-119.8524603650022
 30
0.0
 10
101.8025715891327
 20
-119.6748656927375
 30
0.0
 10
101.6716579606932
 20
-119.6197441649735
 30
0.0
 10
101.5614149051652
 20
-119.6197441649735
 30
0.0
 10
101.2971760814465
 20
-119.6197441649735
 30
0.0
 10
101.2885633427334
 20
-119.8524603650022
 30
0.0
 10
101.2844292281511
 20
-119.9244628606439
 30
0.0
 10
101.2844292281511
 20
-119.9244628606439
 30
0.0
 10
101.0811685945214
 20
-119.9244628606439
 30
0.0
 10
101.0811685945214
 20
-119.9244628606439
 30
0.0
 10
101.0897813332345
 20
-119.7995781493036
 30
0.0
 10
101.1173420971165
 20
-119.4230292127658
 30
0.0
 10
101.5741617584606
 20
-119.4230292127658
 30
0.0
 10
101.7984374745504
 20
-119.4230292127658
 30
0.0
 10
102.0395941585179
 20
-119.5499809813972
 30
0.0
 10
102.0395941585179
 20
-119.8460869383545
 30
0.0
 10
102.0395941585179
 20
-120.0322943493322
 30
0.0
 10
101.944509523125
 20
-120.1148043862039
 30
0.0
 10
101.8449462636013
 20
-120.1761270858414
 30
0.0
 10
101.9062689632387
 20
-120.2036878497234
 30
0.0
 10
102.0881700048599
 20
-120.284130829304
 30
0.0
 10
102.0881700048599
 20
-120.5612887610923
 30
0.0
 10
102.0881700048599
 20
-120.8997693925181
 30
0.0
 10
101.840812149019
 20
-121.0668565235527
 30
0.0
 10
101.5638264720049
 20
-121.0668565235527
 30
0.0
  0
HATCH
  5
C5
330
C0
100
AcDbEntity
  8
_U+30EC_U+30A4_U+30E4_U+30FC 1
 62
   179
420
  2234388
100
AcDbHatch
 10
0.0
 20
0.0
 30
0.0
210
0.0
220
0.0
230
1.0
  2
SOLID
 70
     1
 71
     0
 91
        1
 92
        1
 93
        1
 72
     4
 94
        3
 73
     0
 74
     1
 95
       62
 96
       58
 40
0.0
 40
0.0
 40
0.0
 40
0.0
 40
1.0
 40
1.0
 40
1.0
 40
2.0
 40
2.0
 40
2.0
 40
3.0
 40
3.0
 40
3.0
 40
4.0
 40
4.0
 40
4.0
 40
5.0
 40
5.0
 40
5.0
 40
6.0
 40
6.0
 40
6.0
 40
7.0
 40
7.0
 40
7.0
 40
8.0
 40
8.0
 40
8.0
 40
9.0
 40
9.0
 40
9.0
 40
10.0
 40
10.0
 40
10.0
 40
11.0
 40
11.0
 40
11.0
 40
12.0
 40
12.0
 40
12.0
 40
13.0
 40
13.0
 40
13.0
 40
14.0
 40
14.0
 40
14.0
 40
15.0
 40
15.0
 40
15.0
 40
16.0
 40
16.0
 40
16.0
 40
17.0
 40
17.0
 40
17.0
 40
18.0
 40
18.0
 40
18.0
 40
19.0
 40
19.0
 40
19.0
 40
19.0
 10
101.5638264720049
 20
-121.0668565235527
 10
101.4683973270635
 20
-121.0668565235527
 10
101.2506672923957
 20
-121.0456691863184
 10
101.1256103262811
 20
-120.8594617753407
 10
101.0515407733482
 20
-120.7473239172958
 10
101.0474066587659
 20
-120.6479329125464
 10
101.0432725441836
 20
-120.5633558183835
 10
101.0432725441836
 20
-120.5633558183835
 10
101.2634141456911
 20
-120.5633558183835
 10
101.2634141456911
 20
-120.5633558183835
 10
101.2654812029822
 20
-120.6374253713163
 10
101.275816489438
 20
-120.8722086286361
 10
101.5593478478741
 20
-120.8722086286361
 10
101.6968071577355
 20
-120.8722086286361
 10
101.8494248877321
 20
-120.8024454450598
 10
101.8494248877321
 20
-120.5738633596135
 10
101.8494248877321
 20
-120.4575913869863
 10
101.8111843278458
 20
-120.40884328587
 10
101.7794894493815
 20
-120.3771484074057
 10
101.7054198964486
 20
-120.3030788544728
 10
101.5889756690472
 20
-120.2905042559517
 10
101.5341986508317
 20
-120.2905042559517
 10
101.5149061161143
 20
-120.2905042559517
 10
101.4790771230677
 20
-120.2925713132428
 10
101.4515163591857
 20
-120.2967054278251
 10
101.4515163591857
 20
-120.2967054278251
 10
101.4515163591857
 20
-120.1022297876828
 10
101.4515163591857
 20
-120.1022297876828
 10
101.489756919072
 20
-120.1084309595562
 10
101.5317870839921
 20
-120.1106702716216
 10
101.538332765414
 20
-120.1106702716216
 10
101.6037895796338
 20
-120.1106702716216
 10
101.8025715891327
 20
-120.0894829343874
 10
101.8025715891327
 20
-119.8524603650022
 10
101.8025715891327
 20
-119.6748656927375
 10
101.6716579606932
 20
-119.6197441649735
 10
101.5614149051652
 20
-119.6197441649735
 10
101.2971760814465
 20
-119.6197441649735
 10
101.2885633427334
 20
-119.8524603650022
 10
101.2844292281511
 20
-119.9244628606439
 10
101.2844292281511
 20
-119.9244628606439
 10
101.0811685945214
 20
-119.9244628606439
 10
101.0811685945214
 20
-119.9244628606439
 10
101.0897813332345
 20
-119.7995781493036
 10
101.1173420971165
 20
-119.4230292127658
 10
101.5741617584606
 20
-119.4230292127658
 10
101.7984374745504
 20
-119.4230292127658
 10
102.0395941585179
 20
-119.5499809813972
 10
102.0395941585179
 20
-119.8460869383545
 10
102.0395941585179
 20
-120.0322943493322
 10
101.944509523125
 20
-120.1148043862039
 10
101.8449462636013
 20
-120.1761270858414
 10
101.9062689632387
 20
-120.2036878497234
 10
102.0881700048599
 20
-120.284130829304
 10
102.0881700048599
 20
-120.5612887610923
 10
102.0881700048599
 20
-120.8997693925181
 10
101.840812149019
 20
-121.0668565235527
 10
101.5638264720049
 20
-121.0668565235527
 97
        0
 97
        0
 75
     2
 76
     1
 98
        0
  0
SPLINE
  5
C6
330
C0
100
AcDbEntity
  8
_U+30EC_U+30A4_U+30E4_U+30FC 1
370
     0
100
AcDbSpline
210
0.0
220
0.0
230
1.0
 70
    11
 71
     3
 72
    29
 73
    25
 74
     0
 42
0.0000000001
 43
0.0000000001
 12
1.0
 22
0.0
 32
0.0
 13
1.0
 23
0.0
 33
0.0
 40
0.0
 40
0.0
 40
0.0
 40
0.0
 40
1.0
 40
1.0
 40
1.0
 40
2.0
 40
2.0
 40
2.0
 40
3.0
 40
3.0
 40
3.0
 40
4.0
 40
4.0
 40
4.0
 40
5.0
 40
5.0
 40
5.0
 40
6.0
 40
6.0
 40
6.0
 40
7.0
 40
7.0
 40
7.0
 40
8.0
 40
8.0
 40
8.0
 40
8.0
 10
103.1468478474772
 20
-120.8382744381064
 30
0.0
 10
103.0386718492403
 20
-121.0477362436096
 30
0.0
 10
102.8653835463323
 20
-121.0668565235527
 30
0.0
 10
102.7489393189308
 20
-121.0668565235527
 30
0.0
 10
102.5880533597697
 20
-121.0668565235527
 30
0.0
 10
102.4464599353259
 20
-121.0203477345019
 30
0.0
 10
102.351375299933
 20
-120.8382744381064
 30
0.0
 10
102.247677925827
 20
-120.6437987979641
 30
0.0
 10
102.2283853911096
 20
-120.4067762285789
 30
0.0
 10
102.2283853911096
 20
-120.2438232121265
 30
0.0
 10
102.2283853911096
 20
-120.0999904756174
 30
0.0
 10
102.2456108685358
 20
-119.8483262504199
 30
0.0
 10
102.351375299933
 20
-119.6493719861467
 30
0.0
 10
102.4592067886213
 20
-119.4462836072912
 30
0.0
 10
102.6200927477825
 20
-119.4230292127658
 30
0.0
 10
102.7489393189308
 20
-119.4230292127658
 30
0.0
 10
102.9077582208008
 20
-119.4230292127658
 30
0.0
 10
103.0514187025358
 20
-119.4674709445255
 30
0.0
 10
103.1468478474772
 20
-119.6493719861467
 30
0.0
 10
103.2460665974524
 20
-119.8419528237722
 30
0.0
 10
103.2694932467521
 20
-120.0703626544442
 30
0.0
 10
103.2694932467521
 20
-120.2438232121265
 30
0.0
 10
103.2694932467521
 20
-120.4152167125177
 30
0.0
 10
103.2481336547435
 20
-120.6458658552552
 30
0.0
 10
103.1468478474772
 20
-120.8382744381064
 30
0.0
  0
SPLINE
  5
C7
330
C0
100
AcDbEntity
  8
_U+30EC_U+30A4_U+30E4_U+30FC 1
370
     0
100
AcDbSpline
210
0.0
220
0.0
230
1.0
 70
    11
 71
     3
 72
    17
 73
    13
 74
     0
 42
0.0000000001
 43
0.0000000001
 12
1.0
 22
0.0
 32
0.0
 13
1.0
 23
0.0
 33
0.0
 40
0.0
 40
0.0
 40
0.0
 40
0.0
 40
1.0
 40
1.0
 40
1.0
 40
2.0
 40
2.0
 40
2.0
 40
3.0
 40
3.0
 40
3.0
 40
4.0
 40
4.0
 40
4.0
 40
4.0
 10
102.7489393189308
 20
-119.6156100503912
 30
0.0
 10
102.4991698962502
 20
-119.6156100503912
 30
0.0
 10
102.4526611071993
 20
-119.898969154053
 30
0.0
 10
102.4526611071993
 20
-120.2438232121265
 30
0.0
 10
102.4526611071993
 20
-120.5633558183835
 30
0.0
 10
102.4888346097945
 20
-120.8722086286361
 30
0.0
 10
102.7489393189308
 20
-120.8722086286361
 30
0.0
 10
102.9966416843203
 20
-120.8722086286361
 30
0.0
 10
103.0452175306623
 20
-120.5907443274912
 30
0.0
 10
103.0452175306623
 20
-120.2438232121265
 30
0.0
 10
103.0452175306623
 20
-119.9244628606439
 30
0.0
 10
103.006976970776
 20
-119.6156100503912
 30
0.0
 10
102.7489393189308
 20
-119.6156100503912
 30
0.0
  0
HATCH
  5
C8
330
C0
100
AcDbEntity
  8
_U+30EC_U+30A4_U+30E4_U+30FC 1
 62
   179
420
  2234388
100
AcDbHatch
 10
0.0
 20
0.0
 30
0.0
210
0.0
220
0.0
230
1.0
  2
SOLID
 70
     1
 71
     0
 91
        2
 92
        1
 93
        1
 72
     4
 94
        3
 73
     0
 74
     1
 95
       29
 96
       25
 40
0.0
 40
0.0
 40
0.0
 40
0.0
 40
1.0
 40
1.0
 40
1.0
 40
2.0
 40
2.0
 40
2.0
 40
3.0
 40
3.0
 40
3.0
 40
4.0
 40
4.0
 40
4.0
 40
5.0
 40
5.0
 40
5.0
 40
6.0
 40
6.0
 40
6.0
 40
7.0
 40
7.0
 40
7.0
 40
8.0
 40
8.0
 40
8.0
 40
8.0
 10
103.1468478474772
 20
-120.8382744381064
 10
103.0386718492403
 20
-121.0477362436096
 10
102.8653835463323
 20
-121.0668565235527
 10
102.7489393189308
 20
-121.0668565235527
 10
102.5880533597697
 20
-121.0668565235527
 10
102.4464599353259
 20
-121.0203477345019
 10
102.351375299933
 20
-120.8382744381064
 10
102.247677925827
 20
-120.6437987979641
 10
102.2283853911096
 20
-120.4067762285789
 10
102.2283853911096
 20
-120.2438232121265
 10
102.2283853911096
 20
-120.0999904756174
 10
102.2456108685358
 20
-119.8483262504199
 10
102.351375299933
 20
-119.6493719861467
 10
102.4592067886213
 20
-119.4462836072912
 10
102.6200927477825
 20
-119.4230292127658
 10
102.7489393189308
 20
-119.4230292127658
 10
102.9077582208008
 20
-119.4230292127658
 10
103.0514187025358
 20
-119.4674709445255
 10
103.1468478474772
 20
-119.6493719861467
 10
103.2460665974524
 20
-119.8419528237722
 10
103.2694932467521
 20
-120.0703626544442
 10
103.2694932467521
 20
-120.2438232121265
 10
103.2694932467521
 20
-120.4152167125177
 10
103.2481336547435
 20
-120.6458658552552
 10
103.1468478474772
 20
-120.8382744381064
 97
        0
 97
        0
 92
        1
 93
        1
 72
     4
 94
        3
 73
     0
 74
     1
 95
       17
 96
       13
 40
0.0
 40
0.0
 40
0.0
 40
0.0
 40
1.0
 40
1.0
 40
1.0
 40
2.0
 40
2.0
 40
2.0
 40
3.0
 40
3.0
 40
3.0
 40
4.0
 40
4.0
 40
4.0
 40
4.0
 10
102.7489393189308
 20
-119.6156100503912
 10
102.4991698962502
 20
-119.6156100503912
 10
102.4526611071993
 20
-119.898969154053
 10
102.4526611071993
 20
-120.2438232121265
 10
102.4526611071993
 20
-120.5633558183835
 10
102.4888346097945
 20
-120.8722086286361
 10
102.7489393189308
 20
-120.8722086286361
 10
102.9966416843203
 20
-120.8722086286361
 10
103.0452175306623
 20
-120.5907443274912
 10
103.0452175306623
 20
-120.2438232121265
 10
103.0452175306623
 20
-119.9244628606439
 10
103.006976970776
 20
-119.6156100503912
 10
102.7489393189308
 20
-119.6156100503912
 97
        0
 97
        0
 75
     2
 76
     1
 98
        0
  0
ENDBLK
  5
C3
330
C0
100
AcDbEntity
  8
0
100
AcDbBlockEnd
  0
BLOCK
  5
CB
330
C9
100
AcDbEntity
  8
0
100
AcDbBlockBegin
  2
block 7
 70
     0
 10
0.0
 20
0.0
 30
0.0
  3
block 7
  1

  0
SPLINE
  5
CD
330
C9
100
AcDbEntity
  8
_U+30EC_U+30A4_U+30E4_U+30FC 1
370
     0
100
AcDbSpline
210
0.0
220
0.0
230
1.0
 70
    11
 71
     3
 72
    29
 73
    25
 74
     0
 42
0.0000000001
 43
0.0000000001
 12
1.0
 22
0.0
 32
0.0
 13
1.0
 23
0.0
 33
0.0
 40
0.0
 40
0.0
 40
0.0
 40
0.0
 40
1.0
 40
1.0
 40
1.0
 40
2.0
 40
2.0
 40
2.0
 40
3.0
 40
3.0
 40
3.0
 40
4.0
 40
4.0
 40
4.0
 40
5.0
 40
5.0
 40
5.0
 40
6.0
 40
6.0
 40
6.0
 40
7.0
 40
7.0
 40
7.0
 40
8.0
 40
8.0
 40
8.0
 40
8.0
 10
72.41349553311191
 20
-118.7438286378488
 30
0.0
 10
72.24434134478614
 20
-119.2051269233237
 30
0.0
 10
72.12376300280239
 20
-119.4504177218735
 30
0.0
 10
71.79578991260661
 20
-119.7275756536619
 30
0.0
 10
71.61802298556772
 20
-119.8777818168188
 30
0.0
 10
71.42130803335995
 20
-120.0068006427414
 30
0.0
 10
71.20564505598331
 20
-120.0936170489697
 30
0.0
 10
71.20564505598331
 20
-120.0936170489697
 30
0.0
 10
71.03407930081788
 20
-119.9053425807007
 30
0.0
 10
71.03407930081788
 20
-119.9053425807007
 30
0.0
 10
71.38961315489566
 20
-119.8037122638859
 30
0.0
 10
71.68589136662715
 20
-119.5520480386884
 30
0.0
 10
71.80853676590203
 20
-119.4144164740527
 30
0.0
 10
72.01799857140523
 20
-119.1796332167329
 30
0.0
 10
72.14271102797127
 20
-118.8814602024845
 30
0.0
 10
72.18921981702215
 20
-118.5703680801664
 30
0.0
 10
72.18921981702215
 20
-118.5703680801664
 30
0.0
 10
72.45173609299817
 20
-118.6571844863947
 30
0.0
 10
72.45173609299817
 20
-118.6571844863947
 30
0.0
 10
72.48136391417133
 20
-118.6676920276248
 30
0.0
 10
72.48756508604478
 20
-118.678371823629
 30
0.0
 10
72.48756508604478
 20
-118.688879364859
 30
0.0
 10
72.48756508604478
 20
-118.7185071860322
 30
0.0
 10
72.44725746886735
 20
-118.7312540393276
 30
0.0
 10
72.41349553311191
 20
-118.7438286378488
 30
0.0
  0
HATCH
  5
CE
330
C9
100
AcDbEntity
  8
_U+30EC_U+30A4_U+30E4_U+30FC 1
 62
   179
420
  2234388
100
AcDbHatch
 10
0.0
 20
0.0
 30
0.0
210
0.0
220
0.0
230
1.0
  2
SOLID
 70
     1
 71
     0
 91
        1
 92
        1
 93
        1
 72
     4
 94
        3
 73
     0
 74
     1
 95
       29
 96
       25
 40
0.0
 40
0.0
 40
0.0
 40
0.0
 40
1.0
 40
1.0
 40
1.0
 40
2.0
 40
2.0
 40
2.0
 40
3.0
 40
3.0
 40
3.0
 40
4.0
 40
4.0
 40
4.0
 40
5.0
 40
5.0
 40
5.0
 40
6.0
 40
6.0
 40
6.0
 40
7.0
 40
7.0
 40
7.0
 40
8.0
 40
8.0
 40
8.0
 40
8.0
 10
72.41349553311191
 20
-118.7438286378488
 10
72.24434134478614
 20
-119.2051269233237
 10
72.12376300280239
 20
-119.4504177218735
 10
71.79578991260661
 20
-119.7275756536619
 10
71.61802298556772
 20
-119.8777818168188
 10
71.42130803335995
 20
-120.0068006427414
 10
71.20564505598331
 20
-120.0936170489697
 10
71.20564505598331
 20
-120.0936170489697
 10
71.03407930081788
 20
-119.9053425807007
 10
71.03407930081788
 20
-119.9053425807007
 10
71.38961315489566
 20
-119.8037122638859
 10
71.68589136662715
 20
-119.5520480386884
 10
71.80853676590203
 20
-119.4144164740527
 10
72.01799857140523
 20
-119.1796332167329
 10
72.14271102797127
 20
-118.8814602024845
 10
72.18921981702215
 20
-118.5703680801664
 10
72.18921981702215
 20
-118.5703680801664
 10
72.45173609299817
 20
-118.6571844863947
 10
72.45173609299817
 20
-118.6571844863947
 10
72.48136391417133
 20
-118.6676920276248
 10
72.48756508604478
 20
-118.678371823629
 10
72.48756508604478
 20
-118.688879364859
 10
72.48756508604478
 20
-118.7185071860322
 10
72.44725746886735
 20
-118.7312540393276
 10
72.41349553311191
 20
-118.7438286378488
 97
        0
 97
        0
 75
     2
 76
     1
 98
        0
  0
SPLINE
  5
CF
330
C9
100
AcDbEntity
  8
_U+30EC_U+30A4_U+30E4_U+30FC 1
370
     0
100
AcDbSpline
210
0.0
220
0.0
230
1.0
 70
    11
 71
     3
 72
    17
 73
    13
 74
     0
 42
0.0000000001
 43
0.0000000001
 12
1.0
 22
0.0
 32
0.0
 13
1.0
 23
0.0
 33
0.0
 40
0.0
 40
0.0
 40
0.0
 40
0.0
 40
1.0
 40
1.0
 40
1.0
 40
2.0
 40
2.0
 40
2.0
 40
3.0
 40
3.0
 40
3.0
 40
4.0
 40
4.0
 40
4.0
 40
4.0
 10
72.89029674827049
 20
-119.4864189696944
 30
0.0
 10
72.85653481251504
 20
-119.4059759901138
 30
0.0
 10
72.80348034204219
 20
-119.2812635335477
 30
0.0
 10
72.70391708251847
 20
-119.1522447076251
 30
0.0
 10
72.70391708251847
 20
-119.1522447076251
 30
0.0
 10
72.86273598438848
 20
-119.0993624919266
 30
0.0
 10
72.86273598438848
 20
-119.0993624919266
 30
0.0
 10
72.94093965190366
 20
-119.2071939806149
 30
0.0
 10
72.9939941223765
 20
-119.3002115587166
 30
0.0
 10
73.04877114059198
 20
-119.4271633273481
 30
0.0
 10
73.04877114059198
 20
-119.4271633273481
 30
0.0
 10
72.89029674827049
 20
-119.4864189696944
 30
0.0
 10
72.89029674827049
 20
-119.4864189696944
 30
0.0
  0
SPLINE
  5
D0
330
C9
100
AcDbEntity
  8
_U+30EC_U+30A4_U+30E4_U+30FC 1
370
     0
100
AcDbSpline
210
0.0
220
0.0
230
1.0
 70
    11
 71
     3
 72
    32
 73
    28
 74
     0
 42
0.0000000001
 43
0.0000000001
 12
1.0
 22
0.0
 32
0.0
 13
1.0
 23
0.0
 33
0.0
 40
0.0
 40
0.0
 40
0.0
 40
0.0
 40
1.0
 40
1.0
 40
1.0
 40
2.0
 40
2.0
 40
2.0
 40
3.0
 40
3.0
 40
3.0
 40
4.0
 40
4.0
 40
4.0
 40
5.0
 40
5.0
 40
5.0
 40
6.0
 40
6.0
 40
6.0
 40
7.0
 40
7.0
 40
7.0
 40
8.0
 40
8.0
 40
8.0
 40
9.0
 40
9.0
 40
9.0
 40
9.0
 10
74.00719670458848
 20
-119.1415649116209
 30
0.0
 10
73.98618162212846
 20
-119.1479383382686
 30
0.0
 10
73.97550182612419
 20
-119.1563788222074
 30
0.0
 10
73.96688908741106
 20
-119.1670586182117
 30
0.0
 10
73.9606879155376
 20
-119.1775661594417
 30
0.0
 10
73.89936521590016
 20
-119.3827215955884
 30
0.0
 10
73.8845513053136
 20
-119.4230292127658
 30
0.0
 10
73.6709553852281
 20
-119.9707993949205
 30
0.0
 10
73.35366209103658
 20
-120.1442599526028
 30
0.0
 10
73.11870657894255
 20
-120.2607041800043
 30
0.0
 10
73.11870657894255
 20
-120.2607041800043
 30
0.0
 10
72.97918021178992
 20
-120.1316853540817
 30
0.0
 10
72.97918021178992
 20
-120.1316853540817
 30
0.0
 10
73.12490775081599
 20
-120.0703626544442
 30
0.0
 10
73.36193032020118
 20
-119.9707993949205
 30
0.0
 10
73.55657821511781
 20
-119.6938137179064
 30
0.0
 10
73.738479256739
 20
-119.4335367539958
 30
0.0
 10
73.77671981662527
 20
-119.1670586182117
 30
0.0
 10
73.8018690136676
 20
-119.0082397163417
 30
0.0
 10
73.8018690136676
 20
-119.0082397163417
 30
0.0
 10
73.96688908741106
 20
-119.0697346707534
 30
0.0
 10
73.96688908741106
 20
-119.0697346707534
 30
0.0
 10
74.00926376187964
 20
-119.08454858134
 30
0.0
 10
74.03269041117933
 20
-119.0993624919266
 30
0.0
 10
74.03269041117933
 20
-119.1162434598043
 30
0.0
 10
74.03269041117933
 20
-119.1310573703908
 30
0.0
 10
74.02201061517506
 20
-119.1374307970386
 30
0.0
 10
74.00719670458848
 20
-119.1415649116209
 30
0.0
  0
SPLINE
  5
D1
330
C9
100
AcDbEntity
  8
_U+30EC_U+30A4_U+30E4_U+30FC 1
370
     0
100
AcDbSpline
210
0.0
220
0.0
230
1.0
 70
    11
 71
     3
 72
    17
 73
    13
 74
     0
 42
0.0000000001
 43
0.0000000001
 12
1.0
 22
0.0
 32
0.0
 13
1.0
 23
0.0
 33
0.0
 40
0.0
 40
0.0
 40
0.0
 40
0.0
 40
1.0
 40
1.0
 40
1.0
 40
2.0
 40
2.0
 40
2.0
 40
3.0
 40
3.0
 40
3.0
 40
4.0
 40
4.0
 40
4.0
 40
4.0
 10
73.30474173514604
 20
-119.3954684488838
 30
0.0
 10
73.27511391397289
 20
-119.312958412012
 30
0.0
 10
73.22860512492201
 20
-119.1880737006717
 30
0.0
 10
73.12490775081599
 20
-119.056987817458
 30
0.0
 10
73.12490775081599
 20
-119.056987817458
 30
0.0
 10
73.28372665268601
 20
-119.0020385444682
 30
0.0
 10
73.28372665268601
 20
-119.0020385444682
 30
0.0
 10
73.37674423078776
 20
-119.133124427682
 30
0.0
 10
73.42325301983864
 20
-119.2388888590792
 30
0.0
 10
73.46356063701606
 20
-119.3446532904763
 30
0.0
 10
73.46356063701606
 20
-119.3446532904763
 30
0.0
 10
73.30474173514604
 20
-119.3954684488838
 30
0.0
 10
73.30474173514604
 20
-119.3954684488838
 30
0.0
  0
HATCH
  5
D2
330
C9
100
AcDbEntity
  8
_U+30EC_U+30A4_U+30E4_U+30FC 1
 62
   179
420
  2234388
100
AcDbHatch
 10
0.0
 20
0.0
 30
0.0
210
0.0
220
0.0
230
1.0
  2
SOLID
 70
     1
 71
     0
 91
        3
 92
        1
 93
        1
 72
     4
 94
        3
 73
     0
 74
     1
 95
       17
 96
       13
 40
0.0
 40
0.0
 40
0.0
 40
0.0
 40
1.0
 40
1.0
 40
1.0
 40
2.0
 40
2.0
 40
2.0
 40
3.0
 40
3.0
 40
3.0
 40
4.0
 40
4.0
 40
4.0
 40
4.0
 10
72.89029674827049
 20
-119.4864189696944
 10
72.85653481251504
 20
-119.4059759901138
 10
72.80348034204219
 20
-119.2812635335477
 10
72.70391708251847
 20
-119.1522447076251
 10
72.70391708251847
 20
-119.1522447076251
 10
72.86273598438848
 20
-119.0993624919266
 10
72.86273598438848
 20
-119.0993624919266
 10
72.94093965190366
 20
-119.2071939806149
 10
72.9939941223765
 20
-119.3002115587166
 10
73.04877114059198
 20
-119.4271633273481
 10
73.04877114059198
 20
-119.4271633273481
 10
72.89029674827049
 20
-119.4864189696944
 10
72.89029674827049
 20
-119.4864189696944
 97
        0
 97
        0
 92
        1
 93
        1
 72
     4
 94
        3
 73
     0
 74
     1
 95
       32
 96
       28
 40
0.0
 40
0.0
 40
0.0
 40
0.0
 40
1.0
 40
1.0
 40
1.0
 40
2.0
 40
2.0
 40
2.0
 40
3.0
 40
3.0
 40
3.0
 40
4.0
 40
4.0
 40
4.0
 40
5.0
 40
5.0
 40
5.0
 40
6.0
 40
6.0
 40
6.0
 40
7.0
 40
7.0
 40
7.0
 40
8.0
 40
8.0
 40
8.0
 40
9.0
 40
9.0
 40
9.0
 40
9.0
 10
74.00719670458848
 20
-119.1415649116209
 10
73.98618162212846
 20
-119.1479383382686
 10
73.97550182612419
 20
-119.1563788222074
 10
73.96688908741106
 20
-119.1670586182117
 10
73.9606879155376
 20
-119.1775661594417
 10
73.89936521590016
 20
-119.3827215955884
 10
73.8845513053136
 20
-119.4230292127658
 10
73.6709553852281
 20
-119.9707993949205
 10
73.35366209103658
 20
-120.1442599526028
 10
73.11870657894255
 20
-120.2607041800043
 10
73.11870657894255
 20
-120.2607041800043
 10
72.97918021178992
 20
-120.1316853540817
 10
72.97918021178992
 20
-120.1316853540817
 10
73.12490775081599
 20
-120.0703626544442
 10
73.36193032020118
 20
-119.9707993949205
 10
73.55657821511781
 20
-119.6938137179064
 10
73.738479256739
 20
-119.4335367539958
 10
73.77671981662527
 20
-119.1670586182117
 10
73.8018690136676
 20
-119.0082397163417
 10
73.8018690136676
 20
-119.0082397163417
 10
73.96688908741106
 20
-119.0697346707534
 10
73.96688908741106
 20
-119.0697346707534
 10
74.00926376187964
 20
-119.08454858134
 10
74.03269041117933
 20
-119.0993624919266
 10
74.03269041117933
 20
-119.1162434598043
 10
74.03269041117933
 20
-119.1310573703908
 10
74.02201061517506
 20
-119.1374307970386
 10
74.00719670458848
 20
-119.1415649116209
 97
        0
 97
        0
 92
        1
 93
        1
 72
     4
 94
        3
 73
     0
 74
     1
 95
       17
 96
       13
 40
0.0
 40
0.0
 40
0.0
 40
0.0
 40
1.0
 40
1.0
 40
1.0
 40
2.0
 40
2.0
 40
2.0
 40
3.0
 40
3.0
 40
3.0
 40
4.0
 40
4.0
 40
4.0
 40
4.0
 10
73.30474173514604
 20
-119.3954684488838
 10
73.27511391397289
 20
-119.312958412012
 10
73.22860512492201
 20
-119.1880737006717
 10
73.12490775081599
 20
-119.056987817458
 10
73.12490775081599
 20
-119.056987817458
 10
73.28372665268601
 20
-119.0020385444682
 10
73.28372665268601
 20
-119.0020385444682
 10
73.37674423078776
 20
-119.133124427682
 10
73.42325301983864
 20
-119.2388888590792
 10
73.46356063701606
 20
-119.3446532904763
 10
73.46356063701606
 20
-119.3446532904763
 10
73.30474173514604
 20
-119.3954684488838
 10
73.30474173514604
 20
-119.3954684488838
 97
        0
 97
        0
 75
     2
 76
     1
 98
        0
  0
SPLINE
  5
D3
330
C9
100
AcDbEntity
  8
_U+30EC_U+30A4_U+30E4_U+30FC 1
370
     0
100
AcDbSpline
210
0.0
220
0.0
230
1.0
 70
    11
 71
     3
 72
    83
 73
    79
 74
     0
 42
0.0000000001
 43
0.0000000001
 12
1.0
 22
0.0
 32
0.0
 13
1.0
 23
0.0
 33
0.0
 40
0.0
 40
0.0
 40
0.0
 40
0.0
 40
1.0
 40
1.0
 40
1.0
 40
2.0
 40
2.0
 40
2.0
 40
3.0
 40
3.0
 40
3.0
 40
4.0
 40
4.0
 40
4.0
 40
5.0
 40
5.0
 40
5.0
 40
6.0
 40
6.0
 40
6.0
 40
7.0
 40
7.0
 40
7.0
 40
8.0
 40
8.0
 40
8.0
 40
9.0
 40
9.0
 40
9.0
 40
10.0
 40
10.0
 40
10.0
 40
11.0
 40
11.0
 40
11.0
 40
12.0
 40
12.0
 40
12.0
 40
13.0
 40
13.0
 40
13.0
 40
14.0
 40
14.0
 40
14.0
 40
15.0
 40
15.0
 40
15.0
 40
16.0
 40
16.0
 40
16.0
 40
17.0
 40
17.0
 40
17.0
 40
18.0
 40
18.0
 40
18.0
 40
19.0
 40
19.0
 40
19.0
 40
20.0
 40
20.0
 40
20.0
 40
21.0
 40
21.0
 40
21.0
 40
22.0
 40
22.0
 40
22.0
 40
23.0
 40
23.0
 40
23.0
 40
24.0
 40
24.0
 40
24.0
 40
25.0
 40
25.0
 40
25.0
 40
26.0
 40
26.0
 40
26.0
 40
26.0
 10
75.39384763740154
 20
-119.3763481689406
 30
0.0
 10
75.39384763740154
 20
-119.3763481689406
 30
0.0
 10
75.31357691259522
 20
-119.3763481689406
 30
0.0
 10
75.31357691259522
 20
-119.3763481689406
 30
0.0
 10
75.30944279801292
 20
-119.4800455430467
 30
0.0
 10
75.3008300592998
 20
-119.670559323381
 30
0.0
 10
75.13994410013864
 20
-119.898969154053
 30
0.0
 10
74.97078991181286
 20
-120.135819468664
 30
0.0
 10
74.7699408450228
 20
-120.2267699894746
 30
0.0
 10
74.67244464279023
 20
-120.2712117212343
 30
0.0
 10
74.67244464279023
 20
-120.2712117212343
 30
0.0
 10
74.45058049354013
 20
-120.1148043862039
 30
0.0
 10
74.45058049354013
 20
-120.1148043862039
 30
0.0
 10
74.54773218622418
 20
-120.0913777369042
 30
0.0
 10
74.78062064102707
 20
-120.0343614066234
 30
0.0
 10
74.95804305851743
 20
-119.8016452065947
 30
0.0
 10
75.0913682537966
 20
-119.6238782795558
 30
0.0
 10
75.09998099250973
 20
-119.4672986897512
 30
0.0
 10
75.10411510709203
 20
-119.3763481689406
 30
0.0
 10
75.10411510709203
 20
-119.3763481689406
 30
0.0
 10
74.83333060195139
 20
-119.3763481689406
 30
0.0
 10
74.83333060195139
 20
-119.3763481689406
 30
0.0
 10
74.64281682161707
 20
-119.3763481689406
 30
0.0
 10
74.45471460812243
 20
-119.3806545382972
 30
0.0
 10
74.26420082778812
 20
-119.3954684488838
 30
0.0
 10
74.26420082778812
 20
-119.3954684488838
 30
0.0
 10
74.26420082778812
 20
-119.1860066433806
 30
0.0
 10
74.26420082778812
 20
-119.1860066433806
 30
0.0
 10
74.46091577999589
 20
-119.2008205539672
 30
0.0
 10
74.7465141957231
 20
-119.2051269233237
 30
0.0
 10
74.83333060195139
 20
-119.2051269233237
 30
0.0
 10
74.83333060195139
 20
-119.2051269233237
 30
0.0
 10
75.10824922167433
 20
-119.2051269233237
 30
0.0
 10
75.10824922167433
 20
-119.2051269233237
 30
0.0
 10
75.10824922167433
 20
-119.0929890652788
 30
0.0
 10
75.10618216438318
 20
-118.9617309272908
 30
0.0
 10
75.0955023683789
 20
-118.8495930692459
 30
0.0
 10
74.87363821912882
 20
-118.91522213824
 30
0.0
 10
74.75099281985392
 20
-118.9405435900565
 30
0.0
 10
74.56254609681075
 20
-118.9639702393562
 30
0.0
 10
74.56254609681075
 20
-118.9639702393562
 30
0.0
 10
74.42715384424044
 20
-118.7713894017308
 30
0.0
 10
74.42715384424044
 20
-118.7713894017308
 30
0.0
 10
74.57115883552387
 20
-118.7693223444396
 30
0.0
 10
74.74031302384965
 20
-118.7650159750831
 30
0.0
 10
75.04072535016343
 20
-118.6719983969813
 30
0.0
 10
75.2016113093246
 20
-118.623250295865
 30
0.0
 10
75.36215275893724
 20
-118.5683010228753
 30
0.0
 10
75.50409069292954
 20
-118.4794175593559
 30
0.0
 10
75.50409069292954
 20
-118.4794175593559
 30
0.0
 10
75.66463214254217
 20
-118.6148098119262
 30
0.0
 10
75.66463214254217
 20
-118.6148098119262
 30
0.0
 10
75.67531193854646
 20
-118.6254896079304
 30
0.0
 10
75.68805879184188
 20
-118.6380642064516
 30
0.0
 10
75.68805879184188
 20
-118.6549451743293
 30
0.0
 10
75.68805879184188
 20
-118.678371823629
 30
0.0
 10
75.66669919983333
 20
-118.678371823629
 30
0.0
 10
75.66049802795987
 20
-118.678371823629
 30
0.0
 10
75.6498182319556
 20
-118.678371823629
 30
0.0
 10
75.6456841173733
 20
-118.6761325115636
 30
0.0
 10
75.6098551243267
 20
-118.6697590849159
 30
0.0
 10
75.56093476843616
 20
-118.6868123075679
 30
0.0
 10
75.35388452977264
 20
-118.7650159750831
 30
0.0
 10
75.31150985530407
 20
-118.7798298856696
 30
0.0
 10
75.31564396988637
 20
-119.0590548747491
 30
0.0
 10
75.31771102717752
 20
-119.0886826959223
 30
0.0
 10
75.31771102717752
 20
-119.2051269233237
 30
0.0
 10
75.31771102717752
 20
-119.2051269233237
 30
0.0
 10
75.39384763740154
 20
-119.2051269233237
 30
0.0
 10
75.39384763740154
 20
-119.2051269233237
 30
0.0
 10
75.58436141773586
 20
-119.2051269233237
 30
0.0
 10
75.77694225536132
 20
-119.2008205539672
 30
0.0
 10
75.96711152614712
 20
-119.1880737006717
 30
0.0
 10
75.96711152614712
 20
-119.1880737006717
 30
0.0
 10
75.96711152614712
 20
-119.3954684488838
 30
0.0
 10
75.96711152614712
 20
-119.3954684488838
 30
0.0
 10
75.71975367030618
 20
-119.3763481689406
 30
0.0
 10
75.41520722941009
 20
-119.3763481689406
 30
0.0
 10
75.39384763740154
 20
-119.3763481689406
 30
0.0
  0
HATCH
  5
D4
330
C9
100
AcDbEntity
  8
_U+30EC_U+30A4_U+30E4_U+30FC 1
 62
   179
420
  2234388
100
AcDbHatch
 10
0.0
 20
0.0
 30
0.0
210
0.0
220
0.0
230
1.0
  2
SOLID
 70
     1
 71
     0
 91
        1
 92
        1
 93
        1
 72
     4
 94
        3
 73
     0
 74
     1
 95
       83
 96
       79
 40
0.0
 40
0.0
 40
0.0
 40
0.0
 40
1.0
 40
1.0
 40
1.0
 40
2.0
 40
2.0
 40
2.0
 40
3.0
 40
3.0
 40
3.0
 40
4.0
 40
4.0
 40
4.0
 40
5.0
 40
5.0
 40
5.0
 40
6.0
 40
6.0
 40
6.0
 40
7.0
 40
7.0
 40
7.0
 40
8.0
 40
8.0
 40
8.0
 40
9.0
 40
9.0
 40
9.0
 40
10.0
 40
10.0
 40
10.0
 40
11.0
 40
11.0
 40
11.0
 40
12.0
 40
12.0
 40
12.0
 40
13.0
 40
13.0
 40
13.0
 40
14.0
 40
14.0
 40
14.0
 40
15.0
 40
15.0
 40
15.0
 40
16.0
 40
16.0
 40
16.0
 40
17.0
 40
17.0
 40
17.0
 40
18.0
 40
18.0
 40
18.0
 40
19.0
 40
19.0
 40
19.0
 40
20.0
 40
20.0
 40
20.0
 40
21.0
 40
21.0
 40
21.0
 40
22.0
 40
22.0
 40
22.0
 40
23.0
 40
23.0
 40
23.0
 40
24.0
 40
24.0
 40
24.0
 40
25.0
 40
25.0
 40
25.0
 40
26.0
 40
26.0
 40
26.0
 40
26.0
 10
75.39384763740154
 20
-119.3763481689406
 10
75.39384763740154
 20
-119.3763481689406
 10
75.31357691259522
 20
-119.3763481689406
 10
75.31357691259522
 20
-119.3763481689406
 10
75.30944279801292
 20
-119.4800455430467
 10
75.3008300592998
 20
-119.670559323381
 10
75.13994410013864
 20
-119.898969154053
 10
74.97078991181286
 20
-120.135819468664
 10
74.7699408450228
 20
-120.2267699894746
 10
74.67244464279023
 20
-120.2712117212343
 10
74.67244464279023
 20
-120.2712117212343
 10
74.45058049354013
 20
-120.1148043862039
 10
74.45058049354013
 20
-120.1148043862039
 10
74.54773218622418
 20
-120.0913777369042
 10
74.78062064102707
 20
-120.0343614066234
 10
74.95804305851743
 20
-119.8016452065947
 10
75.0913682537966
 20
-119.6238782795558
 10
75.09998099250973
 20
-119.4672986897512
 10
75.10411510709203
 20
-119.3763481689406
 10
75.10411510709203
 20
-119.3763481689406
 10
74.83333060195139
 20
-119.3763481689406
 10
74.83333060195139
 20
-119.3763481689406
 10
74.64281682161707
 20
-119.3763481689406
 10
74.45471460812243
 20
-119.3806545382972
 10
74.26420082778812
 20
-119.3954684488838
 10
74.26420082778812
 20
-119.3954684488838
 10
74.26420082778812
 20
-119.1860066433806
 10
74.26420082778812
 20
-119.1860066433806
 10
74.46091577999589
 20
-119.2008205539672
 10
74.7465141957231
 20
-119.2051269233237
 10
74.83333060195139
 20
-119.2051269233237
 10
74.83333060195139
 20
-119.2051269233237
 10
75.10824922167433
 20
-119.2051269233237
 10
75.10824922167433
 20
-119.2051269233237
 10
75.10824922167433
 20
-119.0929890652788
 10
75.10618216438318
 20
-118.9617309272908
 10
75.0955023683789
 20
-118.8495930692459
 10
74.87363821912882
 20
-118.91522213824
 10
74.75099281985392
 20
-118.9405435900565
 10
74.56254609681075
 20
-118.9639702393562
 10
74.56254609681075
 20
-118.9639702393562
 10
74.42715384424044
 20
-118.7713894017308
 10
74.42715384424044
 20
-118.7713894017308
 10
74.57115883552387
 20
-118.7693223444396
 10
74.74031302384965
 20
-118.7650159750831
 10
75.04072535016343
 20
-118.6719983969813
 10
75.2016113093246
 20
-118.623250295865
 10
75.36215275893724
 20
-118.5683010228753
 10
75.50409069292954
 20
-118.4794175593559
 10
75.50409069292954
 20
-118.4794175593559
 10
75.66463214254217
 20
-118.6148098119262
 10
75.66463214254217
 20
-118.6148098119262
 10
75.67531193854646
 20
-118.6254896079304
 10
75.68805879184188
 20
-118.6380642064516
 10
75.68805879184188
 20
-118.6549451743293
 10
75.68805879184188
 20
-118.678371823629
 10
75.66669919983333
 20
-118.678371823629
 10
75.66049802795987
 20
-118.678371823629
 10
75.6498182319556
 20
-118.678371823629
 10
75.6456841173733
 20
-118.6761325115636
 10
75.6098551243267
 20
-118.6697590849159
 10
75.56093476843616
 20
-118.6868123075679
 10
75.35388452977264
 20
-118.7650159750831
 10
75.31150985530407
 20
-118.7798298856696
 10
75.31564396988637
 20
-119.0590548747491
 10
75.31771102717752
 20
-119.0886826959223
 10
75.31771102717752
 20
-119.2051269233237
 10
75.31771102717752
 20
-119.2051269233237
 10
75.39384763740154
 20
-119.2051269233237
 10
75.39384763740154
 20
-119.2051269233237
 10
75.58436141773586
 20
-119.2051269233237
 10
75.77694225536132
 20
-119.2008205539672
 10
75.96711152614712
 20
-119.1880737006717
 10
75.96711152614712
 20
-119.1880737006717
 10
75.96711152614712
 20
-119.3954684488838
 10
75.96711152614712
 20
-119.3954684488838
 10
75.71975367030618
 20
-119.3763481689406
 10
75.41520722941009
 20
-119.3763481689406
 10
75.39384763740154
 20
-119.3763481689406
 97
        0
 97
        0
 75
     2
 76
     1
 98
        0
  0
SPLINE
  5
D5
330
C9
100
AcDbEntity
  8
_U+30EC_U+30A4_U+30E4_U+30FC 1
370
     0
100
AcDbSpline
210
0.0
220
0.0
230
1.0
 70
    11
 71
     3
 72
    26
 73
    22
 74
     0
 42
0.0000000001
 43
0.0000000001
 12
1.0
 22
0.0
 32
0.0
 13
1.0
 23
0.0
 33
0.0
 40
0.0
 40
0.0
 40
0.0
 40
0.0
 40
1.0
 40
1.0
 40
1.0
 40
2.0
 40
2.0
 40
2.0
 40
3.0
 40
3.0
 40
3.0
 40
4.0
 40
4.0
 40
4.0
 40
5.0
 40
5.0
 40
5.0
 40
6.0
 40
6.0
 40
6.0
 40
7.0
 40
7.0
 40
7.0
 40
7.0
 10
76.44012313627192
 20
-120.1210055580774
 30
0.0
 10
76.4356445121411
 20
-120.1296182967905
 30
0.0
 10
76.42530922568534
 20
-120.163380232546
 30
0.0
 10
76.42083060155451
 20
-120.1697536591937
 30
0.0
 10
76.41669648697221
 20
-120.1781941431325
 30
0.0
 10
76.40842825780761
 20
-120.1825005124891
 30
0.0
 10
76.39774846180335
 20
-120.1825005124891
 30
0.0
 10
76.38293455121676
 20
-120.1825005124891
 30
0.0
 10
76.37673337934332
 20
-120.173887773776
 30
0.0
 10
76.35330673004363
 20
-120.1316853540817
 30
0.0
 10
76.35330673004363
 20
-120.1316853540817
 30
0.0
 10
76.23892955993333
 20
-119.9117160073485
 30
0.0
 10
76.23892955993333
 20
-119.9117160073485
 30
0.0
 10
76.56483559283797
 20
-119.8672742755887
 30
0.0
 10
77.3265462046267
 20
-119.5351670708107
 30
0.0
 10
77.72824433820684
 20
-119.0168524550548
 30
0.0
 10
77.72824433820684
 20
-119.0168524550548
 30
0.0
 10
77.81299368714397
 20
-119.2220078912014
 30
0.0
 10
77.81299368714397
 20
-119.2220078912014
 30
0.0
 10
77.3982041907199
 20
-119.7106946857841
 30
0.0
 10
76.73192272387257
 20
-119.9962931015114
 30
0.0
 10
76.44012313627192
 20
-120.1210055580774
 30
0.0
  0
SPLINE
  5
D6
330
C9
100
AcDbEntity
  8
_U+30EC_U+30A4_U+30E4_U+30FC 1
370
     0
100
AcDbSpline
210
0.0
220
0.0
230
1.0
 70
    11
 71
     3
 72
    17
 73
    13
 74
     0
 42
0.0000000001
 43
0.0000000001
 12
1.0
 22
0.0
 32
0.0
 13
1.0
 23
0.0
 33
0.0
 40
0.0
 40
0.0
 40
0.0
 40
0.0
 40
1.0
 40
1.0
 40
1.0
 40
2.0
 40
2.0
 40
2.0
 40
3.0
 40
3.0
 40
3.0
 40
4.0
 40
4.0
 40
4.0
 40
4.0
 10
76.73398978116373
 20
-119.029427053576
 30
0.0
 10
76.59446341401112
 20
-118.8962741130711
 30
0.0
 10
76.37673337934332
 20
-118.7818969429608
 30
0.0
 10
76.2730360052373
 20
-118.7374552112011
 30
0.0
 10
76.2730360052373
 20
-118.7374552112011
 30
0.0
 10
76.38913572309022
 20
-118.547113685641
 30
0.0
 10
76.38913572309022
 20
-118.547113685641
 30
0.0
 10
76.70436195999058
 20
-118.6973198487979
 30
0.0
 10
76.799791104932
 20
-118.7882703696085
 30
0.0
 10
76.85456812314747
 20
-118.8411525853071
 30
0.0
 10
76.85456812314747
 20
-118.8411525853071
 30
0.0
 10
76.73398978116373
 20
-119.029427053576
 30
0.0
 10
76.73398978116373
 20
-119.029427053576
 30
0.0
  0
HATCH
  5
D7
330
C9
100
AcDbEntity
  8
_U+30EC_U+30A4_U+30E4_U+30FC 1
 62
   179
420
  2234388
100
AcDbHatch
 10
0.0
 20
0.0
 30
0.0
210
0.0
220
0.0
230
1.0
  2
SOLID
 70
     1
 71
     0
 91
        2
 92
        1
 93
        1
 72
     4
 94
        3
 73
     0
 74
     1
 95
       26
 96
       22
 40
0.0
 40
0.0
 40
0.0
 40
0.0
 40
1.0
 40
1.0
 40
1.0
 40
2.0
 40
2.0
 40
2.0
 40
3.0
 40
3.0
 40
3.0
 40
4.0
 40
4.0
 40
4.0
 40
5.0
 40
5.0
 40
5.0
 40
6.0
 40
6.0
 40
6.0
 40
7.0
 40
7.0
 40
7.0
 40
7.0
 10
76.44012313627192
 20
-120.1210055580774
 10
76.4356445121411
 20
-120.1296182967905
 10
76.42530922568534
 20
-120.163380232546
 10
76.42083060155451
 20
-120.1697536591937
 10
76.41669648697221
 20
-120.1781941431325
 10
76.40842825780761
 20
-120.1825005124891
 10
76.39774846180335
 20
-120.1825005124891
 10
76.38293455121676
 20
-120.1825005124891
 10
76.37673337934332
 20
-120.173887773776
 10
76.35330673004363
 20
-120.1316853540817
 10
76.35330673004363
 20
-120.1316853540817
 10
76.23892955993333
 20
-119.9117160073485
 10
76.23892955993333
 20
-119.9117160073485
 10
76.56483559283797
 20
-119.8672742755887
 10
77.3265462046267
 20
-119.5351670708107
 10
77.72824433820684
 20
-119.0168524550548
 10
77.72824433820684
 20
-119.0168524550548
 10
77.81299368714397
 20
-119.2220078912014
 10
77.81299368714397
 20
-119.2220078912014
 10
77.3982041907199
 20
-119.7106946857841
 10
76.73192272387257
 20
-119.9962931015114
 10
76.44012313627192
 20
-120.1210055580774
 97
        0
 97
        0
 92
        1
 93
        1
 72
     4
 94
        3
 73
     0
 74
     1
 95
       17
 96
       13
 40
0.0
 40
0.0
 40
0.0
 40
0.0
 40
1.0
 40
1.0
 40
1.0
 40
2.0
 40
2.0
 40
2.0
 40
3.0
 40
3.0
 40
3.0
 40
4.0
 40
4.0
 40
4.0
 40
4.0
 10
76.73398978116373
 20
-119.029427053576
 10
76.59446341401112
 20
-118.8962741130711
 10
76.37673337934332
 20
-118.7818969429608
 10
76.2730360052373
 20
-118.7374552112011
 10
76.2730360052373
 20
-118.7374552112011
 10
76.38913572309022
 20
-118.547113685641
 10
76.38913572309022
 20
-118.547113685641
 10
76.70436195999058
 20
-118.6973198487979
 10
76.799791104932
 20
-118.7882703696085
 10
76.85456812314747
 20
-118.8411525853071
 10
76.85456812314747
 20
-118.8411525853071
 10
76.73398978116373
 20
-119.029427053576
 10
76.73398978116373
 20
-119.029427053576
 97
        0
 97
        0
 75
     2
 76
     1
 98
        0
  0
SPLINE
  5
D8
330
C9
100
AcDbEntity
  8
_U+30EC_U+30A4_U+30E4_U+30FC 1
370
     0
100
AcDbSpline
210
0.0
220
0.0
230
1.0
 70
    11
 71
     3
 72
    59
 73
    55
 74
     0
 42
0.0000000001
 43
0.0000000001
 12
1.0
 22
0.0
 32
0.0
 13
1.0
 23
0.0
 33
0.0
 40
0.0
 40
0.0
 40
0.0
 40
0.0
 40
1.0
 40
1.0
 40
1.0
 40
2.0
 40
2.0
 40
2.0
 40
3.0
 40
3.0
 40
3.0
 40
4.0
 40
4.0
 40
4.0
 40
5.0
 40
5.0
 40
5.0
 40
6.0
 40
6.0
 40
6.0
 40
7.0
 40
7.0
 40
7.0
 40
8.0
 40
8.0
 40
8.0
 40
9.0
 40
9.0
 40
9.0
 40
10.0
 40
10.0
 40
10.0
 40
11.0
 40
11.0
 40
11.0
 40
12.0
 40
12.0
 40
12.0
 40
13.0
 40
13.0
 40
13.0
 40
14.0
 40
14.0
 40
14.0
 40
15.0
 40
15.0
 40
15.0
 40
16.0
 40
16.0
 40
16.0
 40
17.0
 40
17.0
 40
17.0
 40
18.0
 40
18.0
 40
18.0
 40
18.0
 10
79.37741154699593
 20
-119.1162434598043
 30
0.0
 10
79.29059514076764
 20
-119.3763481689406
 30
0.0
 10
79.14452309219304
 20
-119.7148288003664
 30
0.0
 10
78.82102862612808
 20
-120.0068006427414
 30
0.0
 10
78.6560085523846
 20
-120.1528726913159
 30
0.0
 10
78.4971896505146
 20
-120.2247029321834
 30
0.0
 10
78.40003795783055
 20
-120.2712117212343
 30
0.0
 10
78.40003795783055
 20
-120.2712117212343
 30
0.0
 10
78.20952417749623
 20
-120.1273789847251
 30
0.0
 10
78.20952417749623
 20
-120.1273789847251
 30
0.0
 10
78.47376300121489
 20
-120.0300550372668
 30
0.0
 10
78.70665145601778
 20
-119.860900848941
 30
0.0
 10
78.87993975892586
 20
-119.6386921901424
 30
0.0
 10
78.97743596115842
 20
-119.5139797335764
 30
0.0
 10
79.13591035347991
 20
-119.2516357123746
 30
0.0
 10
79.20997990641278
 20
-118.92572967947
 30
0.0
 10
79.20997990641278
 20
-118.92572967947
 30
0.0
 10
78.57332626073861
 20
-118.92572967947
 30
0.0
 10
78.57332626073861
 20
-118.92572967947
 30
0.0
 10
78.50339082238804
 20
-119.0230536269283
 30
0.0
 10
78.32148978076685
 20
-119.2812635335477
 30
0.0
 10
78.14406736327649
 20
-119.4039089328226
 30
0.0
 10
78.14406736327649
 20
-119.4039089328226
 30
0.0
 10
77.97663572269335
 20
-119.2769571641912
 30
0.0
 10
77.97663572269335
 20
-119.2769571641912
 30
0.0
 10
78.28566078772026
 20
-119.056987817458
 30
0.0
 10
78.50339082238804
 20
-118.6804388809202
 30
0.0
 10
78.57125920344747
 20
-118.4689100181258
 30
0.0
 10
78.57125920344747
 20
-118.4689100181258
 30
0.0
 10
78.79140080495493
 20
-118.5683010228753
 30
0.0
 10
78.79140080495493
 20
-118.5683010228753
 30
0.0
 10
78.79553491953723
 20
-118.5703680801664
 30
0.0
 10
78.83584253671465
 20
-118.5874213028184
 30
0.0
 10
78.83584253671465
 20
-118.6106756973439
 30
0.0
 10
78.83584253671465
 20
-118.6254896079304
 30
0.0
 10
78.83584253671465
 20
-118.6359971491604
 30
0.0
 10
78.74248044906439
 20
-118.661318600977
 30
0.0
 10
78.70251734143548
 20
-118.7290147272622
 30
0.0
 10
78.69803871730466
 20
-118.7353881539099
 30
0.0
 10
78.68115774942693
 20
-118.7608818605008
 30
0.0
 10
78.68115774942693
 20
-118.7608818605008
 30
0.0
 10
79.00499672504043
 20
-118.7608818605008
 30
0.0
 10
79.00499672504043
 20
-118.7608818605008
 30
0.0
 10
79.19103188124392
 20
-118.7608818605008
 30
0.0
 10
79.21445853054361
 20
-118.7586425484353
 30
0.0
 10
79.2420192944256
 20
-118.7565754911442
 30
0.0
 10
79.31161022322766
 20
-118.7522691217876
 30
0.0
 10
79.32642413381423
 20
-118.7438286378488
 30
0.0
 10
79.34778372582278
 20
-118.7290147272622
 30
0.0
 10
79.34778372582278
 20
-118.7290147272622
 30
0.0
 10
79.51039223272657
 20
-118.8962741130711
 30
0.0
 10
79.51039223272657
 20
-118.8962741130711
 30
0.0
 10
79.4321885652114
 20
-118.9681043539385
 30
0.0
 10
79.4239203360468
 20
-118.9787841499428
 30
0.0
 10
79.37741154699593
 20
-119.1162434598043
 30
0.0
  0
SPLINE
  5
D9
330
C9
100
AcDbEntity
  8
_U+30EC_U+30A4_U+30E4_U+30FC 1
370
     0
100
AcDbSpline
210
0.0
220
0.0
230
1.0
 70
    11
 71
     3
 72
    17
 73
    13
 74
     0
 42
0.0000000001
 43
0.0000000001
 12
1.0
 22
0.0
 32
0.0
 13
1.0
 23
0.0
 33
0.0
 40
0.0
 40
0.0
 40
0.0
 40
0.0
 40
1.0
 40
1.0
 40
1.0
 40
2.0
 40
2.0
 40
2.0
 40
3.0
 40
3.0
 40
3.0
 40
4.0
 40
4.0
 40
4.0
 40
4.0
 10
79.28852808347648
 20
-118.650811059747
 30
0.0
 10
79.18276365207932
 20
-118.5577934816453
 30
0.0
 10
79.17001679878389
 20
-118.547113685641
 30
0.0
 10
79.06838648196901
 20
-118.4689100181258
 30
0.0
 10
79.06838648196901
 20
-118.4689100181258
 30
0.0
 10
79.18035208523963
 20
-118.3715860706675
 30
0.0
 10
79.18035208523963
 20
-118.3715860706675
 30
0.0
 10
79.29059514076764
 20
-118.4477226808915
 30
0.0
 10
79.32229001923193
 20
-118.4794175593559
 30
0.0
 10
79.4046278013294
 20
-118.5639946535187
 30
0.0
 10
79.4046278013294
 20
-118.5639946535187
 30
0.0
 10
79.28852808347648
 20
-118.650811059747
 30
0.0
 10
79.28852808347648
 20
-118.650811059747
 30
0.0
  0
SPLINE
  5
DA
330
C9
100
AcDbEntity
  8
_U+30EC_U+30A4_U+30E4_U+30FC 1
370
     0
100
AcDbSpline
210
0.0
220
0.0
230
1.0
 70
    11
 71
     3
 72
    17
 73
    13
 74
     0
 42
0.0000000001
 43
0.0000000001
 12
1.0
 22
0.0
 32
0.0
 13
1.0
 23
0.0
 33
0.0
 40
0.0
 40
0.0
 40
0.0
 40
0.0
 40
1.0
 40
1.0
 40
1.0
 40
2.0
 40
2.0
 40
2.0
 40
3.0
 40
3.0
 40
3.0
 40
4.0
 40
4.0
 40
4.0
 40
4.0
 10
79.62270234554572
 20
-118.6592515436859
 30
0.0
 10
79.56137964590827
 20
-118.5831149334619
 30
0.0
 10
79.49557832213999
 20
-118.5111124378201
 30
0.0
 10
79.41530759733368
 20
-118.4520290502481
 30
0.0
 10
79.41530759733368
 20
-118.4520290502481
 30
0.0
 10
79.53588593931742
 20
-118.3588392173721
 30
0.0
 10
79.53588593931742
 20
-118.3588392173721
 30
0.0
 10
79.62476940283686
 20
-118.4160278024273
 30
0.0
 10
79.6774793637612
 20
-118.4689100181258
 30
0.0
 10
79.74328068752946
 20
-118.5577934816453
 30
0.0
 10
79.74328068752946
 20
-118.5577934816453
 30
0.0
 10
79.62270234554572
 20
-118.6592515436859
 30
0.0
 10
79.62270234554572
 20
-118.6592515436859
 30
0.0
  0
HATCH
  5
DB
330
C9
100
AcDbEntity
  8
_U+30EC_U+30A4_U+30E4_U+30FC 1
 62
   179
420
  2234388
100
AcDbHatch
 10
0.0
 20
0.0
 30
0.0
210
0.0
220
0.0
230
1.0
  2
SOLID
 70
     1
 71
     0
 91
        3
 92
        1
 93
        1
 72
     4
 94
        3
 73
     0
 74
     1
 95
       59
 96
       55
 40
0.0
 40
0.0
 40
0.0
 40
0.0
 40
1.0
 40
1.0
 40
1.0
 40
2.0
 40
2.0
 40
2.0
 40
3.0
 40
3.0
 40
3.0
 40
4.0
 40
4.0
 40
4.0
 40
5.0
 40
5.0
 40
5.0
 40
6.0
 40
6.0
 40
6.0
 40
7.0
 40
7.0
 40
7.0
 40
8.0
 40
8.0
 40
8.0
 40
9.0
 40
9.0
 40
9.0
 40
10.0
 40
10.0
 40
10.0
 40
11.0
 40
11.0
 40
11.0
 40
12.0
 40
12.0
 40
12.0
 40
13.0
 40
13.0
 40
13.0
 40
14.0
 40
14.0
 40
14.0
 40
15.0
 40
15.0
 40
15.0
 40
16.0
 40
16.0
 40
16.0
 40
17.0
 40
17.0
 40
17.0
 40
18.0
 40
18.0
 40
18.0
 40
18.0
 10
79.37741154699593
 20
-119.1162434598043
 10
79.29059514076764
 20
-119.3763481689406
 10
79.14452309219304
 20
-119.7148288003664
 10
78.82102862612808
 20
-120.0068006427414
 10
78.6560085523846
 20
-120.1528726913159
 10
78.4971896505146
 20
-120.2247029321834
 10
78.40003795783055
 20
-120.2712117212343
 10
78.40003795783055
 20
-120.2712117212343
 10
78.20952417749623
 20
-120.1273789847251
 10
78.20952417749623
 20
-120.1273789847251
 10
78.47376300121489
 20
-120.0300550372668
 10
78.70665145601778
 20
-119.860900848941
 10
78.87993975892586
 20
-119.6386921901424
 10
78.97743596115842
 20
-119.5139797335764
 10
79.13591035347991
 20
-119.2516357123746
 10
79.20997990641278
 20
-118.92572967947
 10
79.20997990641278
 20
-118.92572967947
 10
78.57332626073861
 20
-118.92572967947
 10
78.57332626073861
 20
-118.92572967947
 10
78.50339082238804
 20
-119.0230536269283
 10
78.32148978076685
 20
-119.2812635335477
 10
78.14406736327649
 20
-119.4039089328226
 10
78.14406736327649
 20
-119.4039089328226
 10
77.97663572269335
 20
-119.2769571641912
 10
77.97663572269335
 20
-119.2769571641912
 10
78.28566078772026
 20
-119.056987817458
 10
78.50339082238804
 20
-118.6804388809202
 10
78.57125920344747
 20
-118.4689100181258
 10
78.57125920344747
 20
-118.4689100181258
 10
78.79140080495493
 20
-118.5683010228753
 10
78.79140080495493
 20
-118.5683010228753
 10
78.79553491953723
 20
-118.5703680801664
 10
78.83584253671465
 20
-118.5874213028184
 10
78.83584253671465
 20
-118.6106756973439
 10
78.83584253671465
 20
-118.6254896079304
 10
78.83584253671465
 20
-118.6359971491604
 10
78.74248044906439
 20
-118.661318600977
 10
78.70251734143548
 20
-118.7290147272622
 10
78.69803871730466
 20
-118.7353881539099
 10
78.68115774942693
 20
-118.7608818605008
 10
78.68115774942693
 20
-118.7608818605008
 10
79.00499672504043
 20
-118.7608818605008
 10
79.00499672504043
 20
-118.7608818605008
 10
79.19103188124392
 20
-118.7608818605008
 10
79.21445853054361
 20
-118.7586425484353
 10
79.2420192944256
 20
-118.7565754911442
 10
79.31161022322766
 20
-118.7522691217876
 10
79.32642413381423
 20
-118.7438286378488
 10
79.34778372582278
 20
-118.7290147272622
 10
79.34778372582278
 20
-118.7290147272622
 10
79.51039223272657
 20
-118.8962741130711
 10
79.51039223272657
 20
-118.8962741130711
 10
79.4321885652114
 20
-118.9681043539385
 10
79.4239203360468
 20
-118.9787841499428
 10
79.37741154699593
 20
-119.1162434598043
 97
        0
 97
        0
 92
        1
 93
        1
 72
     4
 94
        3
 73
     0
 74
     1
 95
       17
 96
       13
 40
0.0
 40
0.0
 40
0.0
 40
0.0
 40
1.0
 40
1.0
 40
1.0
 40
2.0
 40
2.0
 40
2.0
 40
3.0
 40
3.0
 40
3.0
 40
4.0
 40
4.0
 40
4.0
 40
4.0
 10
79.28852808347648
 20
-118.650811059747
 10
79.18276365207932
 20
-118.5577934816453
 10
79.17001679878389
 20
-118.547113685641
 10
79.06838648196901
 20
-118.4689100181258
 10
79.06838648196901
 20
-118.4689100181258
 10
79.18035208523963
 20
-118.3715860706675
 10
79.18035208523963
 20
-118.3715860706675
 10
79.29059514076764
 20
-118.4477226808915
 10
79.32229001923193
 20
-118.4794175593559
 10
79.4046278013294
 20
-118.5639946535187
 10
79.4046278013294
 20
-118.5639946535187
 10
79.28852808347648
 20
-118.650811059747
 10
79.28852808347648
 20
-118.650811059747
 97
        0
 97
        0
 92
        1
 93
        1
 72
     4
 94
        3
 73
     0
 74
     1
 95
       17
 96
       13
 40
0.0
 40
0.0
 40
0.0
 40
0.0
 40
1.0
 40
1.0
 40
1.0
 40
2.0
 40
2.0
 40
2.0
 40
3.0
 40
3.0
 40
3.0
 40
4.0
 40
4.0
 40
4.0
 40
4.0
 10
79.62270234554572
 20
-118.6592515436859
 10
79.56137964590827
 20
-118.5831149334619
 10
79.49557832213999
 20
-118.5111124378201
 10
79.41530759733368
 20
-118.4520290502481
 10
79.41530759733368
 20
-118.4520290502481
 10
79.53588593931742
 20
-118.3588392173721
 10
79.53588593931742
 20
-118.3588392173721
 10
79.62476940283686
 20
-118.4160278024273
 10
79.6774793637612
 20
-118.4689100181258
 10
79.74328068752946
 20
-118.5577934816453
 10
79.74328068752946
 20
-118.5577934816453
 10
79.62270234554572
 20
-118.6592515436859
 10
79.62270234554572
 20
-118.6592515436859
 97
        0
 97
        0
 75
     2
 76
     1
 98
        0
  0
ENDBLK
  5
CC
330
C9
100
AcDbEntity
  8
0
100
AcDbBlockEnd
  0
BLOCK
  5
DE
330
DC
100
AcDbEntity
  8
0
100
AcDbBlockBegin
  2
block 8
 70
     0
 10
0.0
 20
0.0
 30
0.0
  3
block 8
  1

  0
SPLINE
  5
E0
330
DC
100
AcDbEntity
  8
_U+30EC_U+30A4_U+30E4_U+30FC 1
370
     0
100
AcDbSpline
210
0.0
220
0.0
230
1.0
 70
    11
 71
     3
 72
    29
 73
    25
 74
     0
 42
0.0000000001
 43
0.0000000001
 12
1.0
 22
0.0
 32
0.0
 13
1.0
 23
0.0
 33
0.0
 40
0.0
 40
0.0
 40
0.0
 40
0.0
 40
1.0
 40
1.0
 40
1.0
 40
2.0
 40
2.0
 40
2.0
 40
3.0
 40
3.0
 40
3.0
 40
4.0
 40
4.0
 40
4.0
 40
5.0
 40
5.0
 40
5.0
 40
6.0
 40
6.0
 40
6.0
 40
7.0
 40
7.0
 40
7.0
 40
8.0
 40
8.0
 40
8.0
 40
8.0
 10
110.3812038569533
 20
-118.7438286378488
 30
0.0
 10
110.2120496686275
 20
-119.2051269233237
 30
0.0
 10
110.0914713266438
 20
-119.4504177218735
 30
0.0
 10
109.763498236448
 20
-119.7275756536619
 30
0.0
 10
109.5857313094091
 20
-119.8777818168188
 30
0.0
 10
109.3890163572014
 20
-120.0068006427414
 30
0.0
 10
109.1733533798247
 20
-120.0936170489697
 30
0.0
 10
109.1733533798247
 20
-120.0936170489697
 30
0.0
 10
109.0017876246593
 20
-119.9053425807007
 30
0.0
 10
109.0017876246593
 20
-119.9053425807007
 30
0.0
 10
109.3573214787371
 20
-119.8037122638859
 30
0.0
 10
109.6535996904686
 20
-119.5520480386884
 30
0.0
 10
109.7762450897434
 20
-119.4144164740527
 30
0.0
 10
109.9857068952466
 20
-119.1796332167329
 30
0.0
 10
110.1104193518127
 20
-118.8814602024845
 30
0.0
 10
110.1569281408636
 20
-118.5703680801664
 30
0.0
 10
110.1569281408636
 20
-118.5703680801664
 30
0.0
 10
110.4194444168396
 20
-118.6571844863947
 30
0.0
 10
110.4194444168396
 20
-118.6571844863947
 30
0.0
 10
110.4490722380127
 20
-118.6676920276248
 30
0.0
 10
110.4552734098862
 20
-118.678371823629
 30
0.0
 10
110.4552734098862
 20
-118.688879364859
 30
0.0
 10
110.4552734098862
 20
-118.7185071860322
 30
0.0
 10
110.4149657927088
 20
-118.7312540393276
 30
0.0
 10
110.3812038569533
 20
-118.7438286378488
 30
0.0
  0
HATCH
  5
E1
330
DC
100
AcDbEntity
  8
_U+30EC_U+30A4_U+30E4_U+30FC 1
 62
   179
420
  2234388
100
AcDbHatch
 10
0.0
 20
0.0
 30
0.0
210
0.0
220
0.0
230
1.0
  2
SOLID
 70
     1
 71
     0
 91
        1
 92
        1
 93
        1
 72
     4
 94
        3
 73
     0
 74
     1
 95
       29
 96
       25
 40
0.0
 40
0.0
 40
0.0
 40
0.0
 40
1.0
 40
1.0
 40
1.0
 40
2.0
 40
2.0
 40
2.0
 40
3.0
 40
3.0
 40
3.0
 40
4.0
 40
4.0
 40
4.0
 40
5.0
 40
5.0
 40
5.0
 40
6.0
 40
6.0
 40
6.0
 40
7.0
 40
7.0
 40
7.0
 40
8.0
 40
8.0
 40
8.0
 40
8.0
 10
110.3812038569533
 20
-118.7438286378488
 10
110.2120496686275
 20
-119.2051269233237
 10
110.0914713266438
 20
-119.4504177218735
 10
109.763498236448
 20
-119.7275756536619
 10
109.5857313094091
 20
-119.8777818168188
 10
109.3890163572014
 20
-120.0068006427414
 10
109.1733533798247
 20
-120.0936170489697
 10
109.1733533798247
 20
-120.0936170489697
 10
109.0017876246593
 20
-119.9053425807007
 10
109.0017876246593
 20
-119.9053425807007
 10
109.3573214787371
 20
-119.8037122638859
 10
109.6535996904686
 20
-119.5520480386884
 10
109.7762450897434
 20
-119.4144164740527
 10
109.9857068952466
 20
-119.1796332167329
 10
110.1104193518127
 20
-118.8814602024845
 10
110.1569281408636
 20
-118.5703680801664
 10
110.1569281408636
 20
-118.5703680801664
 10
110.4194444168396
 20
-118.6571844863947
 10
110.4194444168396
 20
-118.6571844863947
 10
110.4490722380127
 20
-118.6676920276248
 10
110.4552734098862
 20
-118.678371823629
 10
110.4552734098862
 20
-118.688879364859
 10
110.4552734098862
 20
-118.7185071860322
 10
110.4149657927088
 20
-118.7312540393276
 10
110.3812038569533
 20
-118.7438286378488
 97
        0
 97
        0
 75
     2
 76
     1
 98
        0
  0
SPLINE
  5
E2
330
DC
100
AcDbEntity
  8
_U+30EC_U+30A4_U+30E4_U+30FC 1
370
     0
100
AcDbSpline
210
0.0
220
0.0
230
1.0
 70
    11
 71
     3
 72
    17
 73
    13
 74
     0
 42
0.0000000001
 43
0.0000000001
 12
1.0
 22
0.0
 32
0.0
 13
1.0
 23
0.0
 33
0.0
 40
0.0
 40
0.0
 40
0.0
 40
0.0
 40
1.0
 40
1.0
 40
1.0
 40
2.0
 40
2.0
 40
2.0
 40
3.0
 40
3.0
 40
3.0
 40
4.0
 40
4.0
 40
4.0
 40
4.0
 10
110.8580050721119
 20
-119.4864189696944
 30
0.0
 10
110.8242431363564
 20
-119.4059759901138
 30
0.0
 10
110.7711886658836
 20
-119.2812635335477
 30
0.0
 10
110.6716254063599
 20
-119.1522447076251
 30
0.0
 10
110.6716254063599
 20
-119.1522447076251
 30
0.0
 10
110.8304443082299
 20
-119.0993624919266
 30
0.0
 10
110.8304443082299
 20
-119.0993624919266
 30
0.0
 10
110.9086479757451
 20
-119.2071939806149
 30
0.0
 10
110.9617024462179
 20
-119.3002115587166
 30
0.0
 10
111.0164794644334
 20
-119.4271633273481
 30
0.0
 10
111.0164794644334
 20
-119.4271633273481
 30
0.0
 10
110.8580050721119
 20
-119.4864189696944
 30
0.0
 10
110.8580050721119
 20
-119.4864189696944
 30
0.0
  0
SPLINE
  5
E3
330
DC
100
AcDbEntity
  8
_U+30EC_U+30A4_U+30E4_U+30FC 1
370
     0
100
AcDbSpline
210
0.0
220
0.0
230
1.0
 70
    11
 71
     3
 72
    32
 73
    28
 74
     0
 42
0.0000000001
 43
0.0000000001
 12
1.0
 22
0.0
 32
0.0
 13
1.0
 23
0.0
 33
0.0
 40
0.0
 40
0.0
 40
0.0
 40
0.0
 40
1.0
 40
1.0
 40
1.0
 40
2.0
 40
2.0
 40
2.0
 40
3.0
 40
3.0
 40
3.0
 40
4.0
 40
4.0
 40
4.0
 40
5.0
 40
5.0
 40
5.0
 40
6.0
 40
6.0
 40
6.0
 40
7.0
 40
7.0
 40
7.0
 40
8.0
 40
8.0
 40
8.0
 40
9.0
 40
9.0
 40
9.0
 40
9.0
 10
111.9749050284299
 20
-119.1415649116209
 30
0.0
 10
111.9538899459699
 20
-119.1479383382686
 30
0.0
 10
111.9432101499656
 20
-119.1563788222074
 30
0.0
 10
111.9345974112525
 20
-119.1670586182117
 30
0.0
 10
111.928396239379
 20
-119.1775661594417
 30
0.0
 10
111.8670735397416
 20
-119.3827215955884
 30
0.0
 10
111.852259629155
 20
-119.4230292127658
 30
0.0
 10
111.6386637090695
 20
-119.9707993949205
 30
0.0
 10
111.321370414878
 20
-120.1442599526028
 30
0.0
 10
111.086414902784
 20
-120.2607041800043
 30
0.0
 10
111.086414902784
 20
-120.2607041800043
 30
0.0
 10
110.9468885356313
 20
-120.1316853540817
 30
0.0
 10
110.9468885356313
 20
-120.1316853540817
 30
0.0
 10
111.0926160746574
 20
-120.0703626544442
 30
0.0
 10
111.3296386440426
 20
-119.9707993949205
 30
0.0
 10
111.5242865389592
 20
-119.6938137179064
 30
0.0
 10
111.7061875805804
 20
-119.4335367539958
 30
0.0
 10
111.7444281404667
 20
-119.1670586182117
 30
0.0
 10
111.769577337509
 20
-119.0082397163417
 30
0.0
 10
111.769577337509
 20
-119.0082397163417
 30
0.0
 10
111.9345974112525
 20
-119.0697346707534
 30
0.0
 10
111.9345974112525
 20
-119.0697346707534
 30
0.0
 10
111.976972085721
 20
-119.08454858134
 30
0.0
 10
112.0003987350207
 20
-119.0993624919266
 30
0.0
 10
112.0003987350207
 20
-119.1162434598043
 30
0.0
 10
112.0003987350207
 20
-119.1310573703908
 30
0.0
 10
111.9897189390165
 20
-119.1374307970386
 30
0.0
 10
111.9749050284299
 20
-119.1415649116209
 30
0.0
  0
SPLINE
  5
E4
330
DC
100
AcDbEntity
  8
_U+30EC_U+30A4_U+30E4_U+30FC 1
370
     0
100
AcDbSpline
210
0.0
220
0.0
230
1.0
 70
    11
 71
     3
 72
    17
 73
    13
 74
     0
 42
0.0000000001
 43
0.0000000001
 12
1.0
 22
0.0
 32
0.0
 13
1.0
 23
0.0
 33
0.0
 40
0.0
 40
0.0
 40
0.0
 40
0.0
 40
1.0
 40
1.0
 40
1.0
 40
2.0
 40
2.0
 40
2.0
 40
3.0
 40
3.0
 40
3.0
 40
4.0
 40
4.0
 40
4.0
 40
4.0
 10
111.2724500589874
 20
-119.3954684488838
 30
0.0
 10
111.2428222378143
 20
-119.312958412012
 30
0.0
 10
111.1963134487634
 20
-119.1880737006717
 30
0.0
 10
111.0926160746574
 20
-119.056987817458
 30
0.0
 10
111.0926160746574
 20
-119.056987817458
 30
0.0
 10
111.2514349765274
 20
-119.0020385444682
 30
0.0
 10
111.2514349765274
 20
-119.0020385444682
 30
0.0
 10
111.3444525546292
 20
-119.133124427682
 30
0.0
 10
111.39096134368
 20
-119.2388888590792
 30
0.0
 10
111.4312689608575
 20
-119.3446532904763
 30
0.0
 10
111.4312689608575
 20
-119.3446532904763
 30
0.0
 10
111.2724500589874
 20
-119.3954684488838
 30
0.0
 10
111.2724500589874
 20
-119.3954684488838
 30
0.0
  0
HATCH
  5
E5
330
DC
100
AcDbEntity
  8
_U+30EC_U+30A4_U+30E4_U+30FC 1
 62
   179
420
  2234388
100
AcDbHatch
 10
0.0
 20
0.0
 30
0.0
210
0.0
220
0.0
230
1.0
  2
SOLID
 70
     1
 71
     0
 91
        3
 92
        1
 93
        1
 72
     4
 94
        3
 73
     0
 74
     1
 95
       17
 96
       13
 40
0.0
 40
0.0
 40
0.0
 40
0.0
 40
1.0
 40
1.0
 40
1.0
 40
2.0
 40
2.0
 40
2.0
 40
3.0
 40
3.0
 40
3.0
 40
4.0
 40
4.0
 40
4.0
 40
4.0
 10
110.8580050721119
 20
-119.4864189696944
 10
110.8242431363564
 20
-119.4059759901138
 10
110.7711886658836
 20
-119.2812635335477
 10
110.6716254063599
 20
-119.1522447076251
 10
110.6716254063599
 20
-119.1522447076251
 10
110.8304443082299
 20
-119.0993624919266
 10
110.8304443082299
 20
-119.0993624919266
 10
110.9086479757451
 20
-119.2071939806149
 10
110.9617024462179
 20
-119.3002115587166
 10
111.0164794644334
 20
-119.4271633273481
 10
111.0164794644334
 20
-119.4271633273481
 10
110.8580050721119
 20
-119.4864189696944
 10
110.8580050721119
 20
-119.4864189696944
 97
        0
 97
        0
 92
        1
 93
        1
 72
     4
 94
        3
 73
     0
 74
     1
 95
       32
 96
       28
 40
0.0
 40
0.0
 40
0.0
 40
0.0
 40
1.0
 40
1.0
 40
1.0
 40
2.0
 40
2.0
 40
2.0
 40
3.0
 40
3.0
 40
3.0
 40
4.0
 40
4.0
 40
4.0
 40
5.0
 40
5.0
 40
5.0
 40
6.0
 40
6.0
 40
6.0
 40
7.0
 40
7.0
 40
7.0
 40
8.0
 40
8.0
 40
8.0
 40
9.0
 40
9.0
 40
9.0
 40
9.0
 10
111.9749050284299
 20
-119.1415649116209
 10
111.9538899459699
 20
-119.1479383382686
 10
111.9432101499656
 20
-119.1563788222074
 10
111.9345974112525
 20
-119.1670586182117
 10
111.928396239379
 20
-119.1775661594417
 10
111.8670735397416
 20
-119.3827215955884
 10
111.852259629155
 20
-119.4230292127658
 10
111.6386637090695
 20
-119.9707993949205
 10
111.321370414878
 20
-120.1442599526028
 10
111.086414902784
 20
-120.2607041800043
 10
111.086414902784
 20
-120.2607041800043
 10
110.9468885356313
 20
-120.1316853540817
 10
110.9468885356313
 20
-120.1316853540817
 10
111.0926160746574
 20
-120.0703626544442
 10
111.3296386440426
 20
-119.9707993949205
 10
111.5242865389592
 20
-119.6938137179064
 10
111.7061875805804
 20
-119.4335367539958
 10
111.7444281404667
 20
-119.1670586182117
 10
111.769577337509
 20
-119.0082397163417
 10
111.769577337509
 20
-119.0082397163417
 10
111.9345974112525
 20
-119.0697346707534
 10
111.9345974112525
 20
-119.0697346707534
 10
111.976972085721
 20
-119.08454858134
 10
112.0003987350207
 20
-119.0993624919266
 10
112.0003987350207
 20
-119.1162434598043
 10
112.0003987350207
 20
-119.1310573703908
 10
111.9897189390165
 20
-119.1374307970386
 10
111.9749050284299
 20
-119.1415649116209
 97
        0
 97
        0
 92
        1
 93
        1
 72
     4
 94
        3
 73
     0
 74
     1
 95
       17
 96
       13
 40
0.0
 40
0.0
 40
0.0
 40
0.0
 40
1.0
 40
1.0
 40
1.0
 40
2.0
 40
2.0
 40
2.0
 40
3.0
 40
3.0
 40
3.0
 40
4.0
 40
4.0
 40
4.0
 40
4.0
 10
111.2724500589874
 20
-119.3954684488838
 10
111.2428222378143
 20
-119.312958412012
 10
111.1963134487634
 20
-119.1880737006717
 10
111.0926160746574
 20
-119.056987817458
 10
111.0926160746574
 20
-119.056987817458
 10
111.2514349765274
 20
-119.0020385444682
 10
111.2514349765274
 20
-119.0020385444682
 10
111.3444525546292
 20
-119.133124427682
 10
111.39096134368
 20
-119.2388888590792
 10
111.4312689608575
 20
-119.3446532904763
 10
111.4312689608575
 20
-119.3446532904763
 10
111.2724500589874
 20
-119.3954684488838
 10
111.2724500589874
 20
-119.3954684488838
 97
        0
 97
        0
 75
     2
 76
     1
 98
        0
  0
SPLINE
  5
E6
330
DC
100
AcDbEntity
  8
_U+30EC_U+30A4_U+30E4_U+30FC 1
370
     0
100
AcDbSpline
210
0.0
220
0.0
230
1.0
 70
    11
 71
     3
 72
    83
 73
    79
 74
     0
 42
0.0000000001
 43
0.0000000001
 12
1.0
 22
0.0
 32
0.0
 13
1.0
 23
0.0
 33
0.0
 40
0.0
 40
0.0
 40
0.0
 40
0.0
 40
1.0
 40
1.0
 40
1.0
 40
2.0
 40
2.0
 40
2.0
 40
3.0
 40
3.0
 40
3.0
 40
4.0
 40
4.0
 40
4.0
 40
5.0
 40
5.0
 40
5.0
 40
6.0
 40
6.0
 40
6.0
 40
7.0
 40
7.0
 40
7.0
 40
8.0
 40
8.0
 40
8.0
 40
9.0
 40
9.0
 40
9.0
 40
10.0
 40
10.0
 40
10.0
 40
11.0
 40
11.0
 40
11.0
 40
12.0
 40
12.0
 40
12.0
 40
13.0
 40
13.0
 40
13.0
 40
14.0
 40
14.0
 40
14.0
 40
15.0
 40
15.0
 40
15.0
 40
16.0
 40
16.0
 40
16.0
 40
17.0
 40
17.0
 40
17.0
 40
18.0
 40
18.0
 40
18.0
 40
19.0
 40
19.0
 40
19.0
 40
20.0
 40
20.0
 40
20.0
 40
21.0
 40
21.0
 40
21.0
 40
22.0
 40
22.0
 40
22.0
 40
23.0
 40
23.0
 40
23.0
 40
24.0
 40
24.0
 40
24.0
 40
25.0
 40
25.0
 40
25.0
 40
26.0
 40
26.0
 40
26.0
 40
26.0
 10
113.361555961243
 20
-119.3763481689406
 30
0.0
 10
113.361555961243
 20
-119.3763481689406
 30
0.0
 10
113.2812852364366
 20
-119.3763481689406
 30
0.0
 10
113.2812852364366
 20
-119.3763481689406
 30
0.0
 10
113.2771511218543
 20
-119.4800455430467
 30
0.0
 10
113.2685383831412
 20
-119.670559323381
 30
0.0
 10
113.10765242398
 20
-119.898969154053
 30
0.0
 10
112.9384982356543
 20
-120.135819468664
 30
0.0
 10
112.7376491688642
 20
-120.2267699894746
 30
0.0
 10
112.6401529666316
 20
-120.2712117212343
 30
0.0
 10
112.6401529666316
 20
-120.2712117212343
 30
0.0
 10
112.4182888173815
 20
-120.1148043862039
 30
0.0
 10
112.4182888173815
 20
-120.1148043862039
 30
0.0
 10
112.5154405100656
 20
-120.0913777369042
 30
0.0
 10
112.7483289648685
 20
-120.0343614066234
 30
0.0
 10
112.9257513823588
 20
-119.8016452065947
 30
0.0
 10
113.059076577638
 20
-119.6238782795558
 30
0.0
 10
113.0676893163511
 20
-119.4672986897512
 30
0.0
 10
113.0718234309334
 20
-119.3763481689406
 30
0.0
 10
113.0718234309334
 20
-119.3763481689406
 30
0.0
 10
112.8010389257928
 20
-119.3763481689406
 30
0.0
 10
112.8010389257928
 20
-119.3763481689406
 30
0.0
 10
112.6105251454585
 20
-119.3763481689406
 30
0.0
 10
112.4224229319638
 20
-119.3806545382972
 30
0.0
 10
112.2319091516295
 20
-119.3954684488838
 30
0.0
 10
112.2319091516295
 20
-119.3954684488838
 30
0.0
 10
112.2319091516295
 20
-119.1860066433806
 30
0.0
 10
112.2319091516295
 20
-119.1860066433806
 30
0.0
 10
112.4286241038373
 20
-119.2008205539672
 30
0.0
 10
112.7142225195645
 20
-119.2051269233237
 30
0.0
 10
112.8010389257928
 20
-119.2051269233237
 30
0.0
 10
112.8010389257928
 20
-119.2051269233237
 30
0.0
 10
113.0759575455157
 20
-119.2051269233237
 30
0.0
 10
113.0759575455157
 20
-119.2051269233237
 30
0.0
 10
113.0759575455157
 20
-119.0929890652788
 30
0.0
 10
113.0738904882246
 20
-118.9617309272908
 30
0.0
 10
113.0632106922203
 20
-118.8495930692459
 30
0.0
 10
112.8413465429702
 20
-118.91522213824
 30
0.0
 10
112.7187011436953
 20
-118.9405435900565
 30
0.0
 10
112.5302544206522
 20
-118.9639702393562
 30
0.0
 10
112.5302544206522
 20
-118.9639702393562
 30
0.0
 10
112.3948621680818
 20
-118.7713894017308
 30
0.0
 10
112.3948621680818
 20
-118.7713894017308
 30
0.0
 10
112.5388671593653
 20
-118.7693223444396
 30
0.0
 10
112.7080213476911
 20
-118.7650159750831
 30
0.0
 10
113.0084336740048
 20
-118.6719983969813
 30
0.0
 10
113.169319633166
 20
-118.623250295865
 30
0.0
 10
113.3298610827786
 20
-118.5683010228753
 30
0.0
 10
113.4717990167709
 20
-118.4794175593559
 30
0.0
 10
113.4717990167709
 20
-118.4794175593559
 30
0.0
 10
113.6323404663836
 20
-118.6148098119262
 30
0.0
 10
113.6323404663836
 20
-118.6148098119262
 30
0.0
 10
113.6430202623879
 20
-118.6254896079304
 30
0.0
 10
113.6557671156833
 20
-118.6380642064516
 30
0.0
 10
113.6557671156833
 20
-118.6549451743293
 30
0.0
 10
113.6557671156833
 20
-118.678371823629
 30
0.0
 10
113.6344075236747
 20
-118.678371823629
 30
0.0
 10
113.6282063518013
 20
-118.678371823629
 30
0.0
 10
113.617526555797
 20
-118.678371823629
 30
0.0
 10
113.6133924412147
 20
-118.6761325115636
 30
0.0
 10
113.5775634481681
 20
-118.6697590849159
 30
0.0
 10
113.5286430922776
 20
-118.6868123075679
 30
0.0
 10
113.321592853614
 20
-118.7650159750831
 30
0.0
 10
113.2792181791455
 20
-118.7798298856696
 30
0.0
 10
113.2833522937278
 20
-119.0590548747491
 30
0.0
 10
113.2854193510189
 20
-119.0886826959223
 30
0.0
 10
113.2854193510189
 20
-119.2051269233237
 30
0.0
 10
113.2854193510189
 20
-119.2051269233237
 30
0.0
 10
113.361555961243
 20
-119.2051269233237
 30
0.0
 10
113.361555961243
 20
-119.2051269233237
 30
0.0
 10
113.5520697415773
 20
-119.2051269233237
 30
0.0
 10
113.7446505792027
 20
-119.2008205539672
 30
0.0
 10
113.9348198499885
 20
-119.1880737006717
 30
0.0
 10
113.9348198499885
 20
-119.1880737006717
 30
0.0
 10
113.9348198499885
 20
-119.3954684488838
 30
0.0
 10
113.9348198499885
 20
-119.3954684488838
 30
0.0
 10
113.6874619941476
 20
-119.3763481689406
 30
0.0
 10
113.3829155532515
 20
-119.3763481689406
 30
0.0
 10
113.361555961243
 20
-119.3763481689406
 30
0.0
  0
HATCH
  5
E7
330
DC
100
AcDbEntity
  8
_U+30EC_U+30A4_U+30E4_U+30FC 1
 62
   179
420
  2234388
100
AcDbHatch
 10
0.0
 20
0.0
 30
0.0
210
0.0
220
0.0
230
1.0
  2
SOLID
 70
     1
 71
     0
 91
        1
 92
        1
 93
        1
 72
     4
 94
        3
 73
     0
 74
     1
 95
       83
 96
       79
 40
0.0
 40
0.0
 40
0.0
 40
0.0
 40
1.0
 40
1.0
 40
1.0
 40
2.0
 40
2.0
 40
2.0
 40
3.0
 40
3.0
 40
3.0
 40
4.0
 40
4.0
 40
4.0
 40
5.0
 40
5.0
 40
5.0
 40
6.0
 40
6.0
 40
6.0
 40
7.0
 40
7.0
 40
7.0
 40
8.0
 40
8.0
 40
8.0
 40
9.0
 40
9.0
 40
9.0
 40
10.0
 40
10.0
 40
10.0
 40
11.0
 40
11.0
 40
11.0
 40
12.0
 40
12.0
 40
12.0
 40
13.0
 40
13.0
 40
13.0
 40
14.0
 40
14.0
 40
14.0
 40
15.0
 40
15.0
 40
15.0
 40
16.0
 40
16.0
 40
16.0
 40
17.0
 40
17.0
 40
17.0
 40
18.0
 40
18.0
 40
18.0
 40
19.0
 40
19.0
 40
19.0
 40
20.0
 40
20.0
 40
20.0
 40
21.0
 40
21.0
 40
21.0
 40
22.0
 40
22.0
 40
22.0
 40
23.0
 40
23.0
 40
23.0
 40
24.0
 40
24.0
 40
24.0
 40
25.0
 40
25.0
 40
25.0
 40
26.0
 40
26.0
 40
26.0
 40
26.0
 10
113.361555961243
 20
-119.3763481689406
 10
113.361555961243
 20
-119.3763481689406
 10
113.2812852364366
 20
-119.3763481689406
 10
113.2812852364366
 20
-119.3763481689406
 10
113.2771511218543
 20
-119.4800455430467
 10
113.2685383831412
 20
-119.670559323381
 10
113.10765242398
 20
-119.898969154053
 10
112.9384982356543
 20
-120.135819468664
 10
112.7376491688642
 20
-120.2267699894746
 10
112.6401529666316
 20
-120.2712117212343
 10
112.6401529666316
 20
-120.2712117212343
 10
112.4182888173815
 20
-120.1148043862039
 10
112.4182888173815
 20
-120.1148043862039
 10
112.5154405100656
 20
-120.0913777369042
 10
112.7483289648685
 20
-120.0343614066234
 10
112.9257513823588
 20
-119.8016452065947
 10
113.059076577638
 20
-119.6238782795558
 10
113.0676893163511
 20
-119.4672986897512
 10
113.0718234309334
 20
-119.3763481689406
 10
113.0718234309334
 20
-119.3763481689406
 10
112.8010389257928
 20
-119.3763481689406
 10
112.8010389257928
 20
-119.3763481689406
 10
112.6105251454585
 20
-119.3763481689406
 10
112.4224229319638
 20
-119.3806545382972
 10
112.2319091516295
 20
-119.3954684488838
 10
112.2319091516295
 20
-119.3954684488838
 10
112.2319091516295
 20
-119.1860066433806
 10
112.2319091516295
 20
-119.1860066433806
 10
112.4286241038373
 20
-119.2008205539672
 10
112.7142225195645
 20
-119.2051269233237
 10
112.8010389257928
 20
-119.2051269233237
 10
112.8010389257928
 20
-119.2051269233237
 10
113.0759575455157
 20
-119.2051269233237
 10
113.0759575455157
 20
-119.2051269233237
 10
113.0759575455157
 20
-119.0929890652788
 10
113.0738904882246
 20
-118.9617309272908
 10
113.0632106922203
 20
-118.8495930692459
 10
112.8413465429702
 20
-118.91522213824
 10
112.7187011436953
 20
-118.9405435900565
 10
112.5302544206522
 20
-118.9639702393562
 10
112.5302544206522
 20
-118.9639702393562
 10
112.3948621680818
 20
-118.7713894017308
 10
112.3948621680818
 20
-118.7713894017308
 10
112.5388671593653
 20
-118.7693223444396
 10
112.7080213476911
 20
-118.7650159750831
 10
113.0084336740048
 20
-118.6719983969813
 10
113.169319633166
 20
-118.623250295865
 10
113.3298610827786
 20
-118.5683010228753
 10
113.4717990167709
 20
-118.4794175593559
 10
113.4717990167709
 20
-118.4794175593559
 10
113.6323404663836
 20
-118.6148098119262
 10
113.6323404663836
 20
-118.6148098119262
 10
113.6430202623879
 20
-118.6254896079304
 10
113.6557671156833
 20
-118.6380642064516
 10
113.6557671156833
 20
-118.6549451743293
 10
113.6557671156833
 20
-118.678371823629
 10
113.6344075236747
 20
-118.678371823629
 10
113.6282063518013
 20
-118.678371823629
 10
113.617526555797
 20
-118.678371823629
 10
113.6133924412147
 20
-118.6761325115636
 10
113.5775634481681
 20
-118.6697590849159
 10
113.5286430922776
 20
-118.6868123075679
 10
113.321592853614
 20
-118.7650159750831
 10
113.2792181791455
 20
-118.7798298856696
 10
113.2833522937278
 20
-119.0590548747491
 10
113.2854193510189
 20
-119.0886826959223
 10
113.2854193510189
 20
-119.2051269233237
 10
113.2854193510189
 20
-119.2051269233237
 10
113.361555961243
 20
-119.2051269233237
 10
113.361555961243
 20
-119.2051269233237
 10
113.5520697415773
 20
-119.2051269233237
 10
113.7446505792027
 20
-119.2008205539672
 10
113.9348198499885
 20
-119.1880737006717
 10
113.9348198499885
 20
-119.1880737006717
 10
113.9348198499885
 20
-119.3954684488838
 10
113.9348198499885
 20
-119.3954684488838
 10
113.6874619941476
 20
-119.3763481689406
 10
113.3829155532515
 20
-119.3763481689406
 10
113.361555961243
 20
-119.3763481689406
 97
        0
 97
        0
 75
     2
 76
     1
 98
        0
  0
SPLINE
  5
E8
330
DC
100
AcDbEntity
  8
_U+30EC_U+30A4_U+30E4_U+30FC 1
370
     0
100
AcDbSpline
210
0.0
220
0.0
230
1.0
 70
    11
 71
     3
 72
    26
 73
    22
 74
     0
 42
0.0000000001
 43
0.0000000001
 12
1.0
 22
0.0
 32
0.0
 13
1.0
 23
0.0
 33
0.0
 40
0.0
 40
0.0
 40
0.0
 40
0.0
 40
1.0
 40
1.0
 40
1.0
 40
2.0
 40
2.0
 40
2.0
 40
3.0
 40
3.0
 40
3.0
 40
4.0
 40
4.0
 40
4.0
 40
5.0
 40
5.0
 40
5.0
 40
6.0
 40
6.0
 40
6.0
 40
7.0
 40
7.0
 40
7.0
 40
7.0
 10
114.4078314601133
 20
-120.1210055580774
 30
0.0
 10
114.4033528359825
 20
-120.1296182967905
 30
0.0
 10
114.3930175495267
 20
-120.163380232546
 30
0.0
 10
114.3885389253959
 20
-120.1697536591937
 30
0.0
 10
114.3844048108136
 20
-120.1781941431325
 30
0.0
 10
114.376136581649
 20
-120.1825005124891
 30
0.0
 10
114.3654567856448
 20
-120.1825005124891
 30
0.0
 10
114.3506428750582
 20
-120.1825005124891
 30
0.0
 10
114.3444417031847
 20
-120.173887773776
 30
0.0
 10
114.321015053885
 20
-120.1316853540817
 30
0.0
 10
114.321015053885
 20
-120.1316853540817
 30
0.0
 10
114.2066378837747
 20
-119.9117160073485
 30
0.0
 10
114.2066378837747
 20
-119.9117160073485
 30
0.0
 10
114.5325439166794
 20
-119.8672742755887
 30
0.0
 10
115.2942545284681
 20
-119.5351670708107
 30
0.0
 10
115.6959526620482
 20
-119.0168524550548
 30
0.0
 10
115.6959526620482
 20
-119.0168524550548
 30
0.0
 10
115.7807020109854
 20
-119.2220078912014
 30
0.0
 10
115.7807020109854
 20
-119.2220078912014
 30
0.0
 10
115.3659125145613
 20
-119.7106946857841
 30
0.0
 10
114.699631047714
 20
-119.9962931015114
 30
0.0
 10
114.4078314601133
 20
-120.1210055580774
 30
0.0
  0
SPLINE
  5
E9
330
DC
100
AcDbEntity
  8
_U+30EC_U+30A4_U+30E4_U+30FC 1
370
     0
100
AcDbSpline
210
0.0
220
0.0
230
1.0
 70
    11
 71
     3
 72
    17
 73
    13
 74
     0
 42
0.0000000001
 43
0.0000000001
 12
1.0
 22
0.0
 32
0.0
 13
1.0
 23
0.0
 33
0.0
 40
0.0
 40
0.0
 40
0.0
 40
0.0
 40
1.0
 40
1.0
 40
1.0
 40
2.0
 40
2.0
 40
2.0
 40
3.0
 40
3.0
 40
3.0
 40
4.0
 40
4.0
 40
4.0
 40
4.0
 10
114.7016981050051
 20
-119.029427053576
 30
0.0
 10
114.5621717378525
 20
-118.8962741130711
 30
0.0
 10
114.3444417031847
 20
-118.7818969429608
 30
0.0
 10
114.2407443290787
 20
-118.7374552112011
 30
0.0
 10
114.2407443290787
 20
-118.7374552112011
 30
0.0
 10
114.3568440469316
 20
-118.547113685641
 30
0.0
 10
114.3568440469316
 20
-118.547113685641
 30
0.0
 10
114.672070283832
 20
-118.6973198487979
 30
0.0
 10
114.7674994287734
 20
-118.7882703696085
 30
0.0
 10
114.8222764469889
 20
-118.8411525853071
 30
0.0
 10
114.8222764469889
 20
-118.8411525853071
 30
0.0
 10
114.7016981050051
 20
-119.029427053576
 30
0.0
 10
114.7016981050051
 20
-119.029427053576
 30
0.0
  0
HATCH
  5
EA
330
DC
100
AcDbEntity
  8
_U+30EC_U+30A4_U+30E4_U+30FC 1
 62
   179
420
  2234388
100
AcDbHatch
 10
0.0
 20
0.0
 30
0.0
210
0.0
220
0.0
230
1.0
  2
SOLID
 70
     1
 71
     0
 91
        2
 92
        1
 93
        1
 72
     4
 94
        3
 73
     0
 74
     1
 95
       26
 96
       22
 40
0.0
 40
0.0
 40
0.0
 40
0.0
 40
1.0
 40
1.0
 40
1.0
 40
2.0
 40
2.0
 40
2.0
 40
3.0
 40
3.0
 40
3.0
 40
4.0
 40
4.0
 40
4.0
 40
5.0
 40
5.0
 40
5.0
 40
6.0
 40
6.0
 40
6.0
 40
7.0
 40
7.0
 40
7.0
 40
7.0
 10
114.4078314601133
 20
-120.1210055580774
 10
114.4033528359825
 20
-120.1296182967905
 10
114.3930175495267
 20
-120.163380232546
 10
114.3885389253959
 20
-120.1697536591937
 10
114.3844048108136
 20
-120.1781941431325
 10
114.376136581649
 20
-120.1825005124891
 10
114.3654567856448
 20
-120.1825005124891
 10
114.3506428750582
 20
-120.1825005124891
 10
114.3444417031847
 20
-120.173887773776
 10
114.321015053885
 20
-120.1316853540817
 10
114.321015053885
 20
-120.1316853540817
 10
114.2066378837747
 20
-119.9117160073485
 10
114.2066378837747
 20
-119.9117160073485
 10
114.5325439166794
 20
-119.8672742755887
 10
115.2942545284681
 20
-119.5351670708107
 10
115.6959526620482
 20
-119.0168524550548
 10
115.6959526620482
 20
-119.0168524550548
 10
115.7807020109854
 20
-119.2220078912014
 10
115.7807020109854
 20
-119.2220078912014
 10
115.3659125145613
 20
-119.7106946857841
 10
114.699631047714
 20
-119.9962931015114
 10
114.4078314601133
 20
-120.1210055580774
 97
        0
 97
        0
 92
        1
 93
        1
 72
     4
 94
        3
 73
     0
 74
     1
 95
       17
 96
       13
 40
0.0
 40
0.0
 40
0.0
 40
0.0
 40
1.0
 40
1.0
 40
1.0
 40
2.0
 40
2.0
 40
2.0
 40
3.0
 40
3.0
 40
3.0
 40
4.0
 40
4.0
 40
4.0
 40
4.0
 10
114.7016981050051
 20
-119.029427053576
 10
114.5621717378525
 20
-118.8962741130711
 10
114.3444417031847
 20
-118.7818969429608
 10
114.2407443290787
 20
-118.7374552112011
 10
114.2407443290787
 20
-118.7374552112011
 10
114.3568440469316
 20
-118.547113685641
 10
114.3568440469316
 20
-118.547113685641
 10
114.672070283832
 20
-118.6973198487979
 10
114.7674994287734
 20
-118.7882703696085
 10
114.8222764469889
 20
-118.8411525853071
 10
114.8222764469889
 20
-118.8411525853071
 10
114.7016981050051
 20
-119.029427053576
 10
114.7016981050051
 20
-119.029427053576
 97
        0
 97
        0
 75
     2
 76
     1
 98
        0
  0
SPLINE
  5
EB
330
DC
100
AcDbEntity
  8
_U+30EC_U+30A4_U+30E4_U+30FC 1
370
     0
100
AcDbSpline
210
0.0
220
0.0
230
1.0
 70
    11
 71
     3
 72
    59
 73
    55
 74
     0
 42
0.0000000001
 43
0.0000000001
 12
1.0
 22
0.0
 32
0.0
 13
1.0
 23
0.0
 33
0.0
 40
0.0
 40
0.0
 40
0.0
 40
0.0
 40
1.0
 40
1.0
 40
1.0
 40
2.0
 40
2.0
 40
2.0
 40
3.0
 40
3.0
 40
3.0
 40
4.0
 40
4.0
 40
4.0
 40
5.0
 40
5.0
 40
5.0
 40
6.0
 40
6.0
 40
6.0
 40
7.0
 40
7.0
 40
7.0
 40
8.0
 40
8.0
 40
8.0
 40
9.0
 40
9.0
 40
9.0
 40
10.0
 40
10.0
 40
10.0
 40
11.0
 40
11.0
 40
11.0
 40
12.0
 40
12.0
 40
12.0
 40
13.0
 40
13.0
 40
13.0
 40
14.0
 40
14.0
 40
14.0
 40
15.0
 40
15.0
 40
15.0
 40
16.0
 40
16.0
 40
16.0
 40
17.0
 40
17.0
 40
17.0
 40
18.0
 40
18.0
 40
18.0
 40
18.0
 10
117.3451198708373
 20
-119.1162434598043
 30
0.0
 10
117.258303464609
 20
-119.3763481689406
 30
0.0
 10
117.1122314160344
 20
-119.7148288003664
 30
0.0
 10
116.7887369499695
 20
-120.0068006427414
 30
0.0
 10
116.623716876226
 20
-120.1528726913159
 30
0.0
 10
116.464897974356
 20
-120.2247029321834
 30
0.0
 10
116.367746281672
 20
-120.2712117212343
 30
0.0
 10
116.367746281672
 20
-120.2712117212343
 30
0.0
 10
116.1772325013376
 20
-120.1273789847251
 30
0.0
 10
116.1772325013376
 20
-120.1273789847251
 30
0.0
 10
116.4414713250563
 20
-120.0300550372668
 30
0.0
 10
116.6743597798592
 20
-119.860900848941
 30
0.0
 10
116.8476480827673
 20
-119.6386921901424
 30
0.0
 10
116.9451442849998
 20
-119.5139797335764
 30
0.0
 10
117.1036186773213
 20
-119.2516357123746
 30
0.0
 10
117.1776882302542
 20
-118.92572967947
 30
0.0
 10
117.1776882302542
 20
-118.92572967947
 30
0.0
 10
116.54103458458
 20
-118.92572967947
 30
0.0
 10
116.54103458458
 20
-118.92572967947
 30
0.0
 10
116.4710991462294
 20
-119.0230536269283
 30
0.0
 10
116.2891981046083
 20
-119.2812635335477
 30
0.0
 10
116.1117756871179
 20
-119.4039089328226
 30
0.0
 10
116.1117756871179
 20
-119.4039089328226
 30
0.0
 10
115.9443440465348
 20
-119.2769571641912
 30
0.0
 10
115.9443440465348
 20
-119.2769571641912
 30
0.0
 10
116.2533691115617
 20
-119.056987817458
 30
0.0
 10
116.4710991462294
 20
-118.6804388809202
 30
0.0
 10
116.5389675272889
 20
-118.4689100181258
 30
0.0
 10
116.5389675272889
 20
-118.4689100181258
 30
0.0
 10
116.7591091287963
 20
-118.5683010228753
 30
0.0
 10
116.7591091287963
 20
-118.5683010228753
 30
0.0
 10
116.7632432433786
 20
-118.5703680801664
 30
0.0
 10
116.8035508605561
 20
-118.5874213028184
 30
0.0
 10
116.8035508605561
 20
-118.6106756973439
 30
0.0
 10
116.8035508605561
 20
-118.6254896079304
 30
0.0
 10
116.8035508605561
 20
-118.6359971491604
 30
0.0
 10
116.7101887729058
 20
-118.661318600977
 30
0.0
 10
116.6702256652769
 20
-118.7290147272622
 30
0.0
 10
116.6657470411461
 20
-118.7353881539099
 30
0.0
 10
116.6488660732684
 20
-118.7608818605008
 30
0.0
 10
116.6488660732684
 20
-118.7608818605008
 30
0.0
 10
116.9727050488818
 20
-118.7608818605008
 30
0.0
 10
116.9727050488818
 20
-118.7608818605008
 30
0.0
 10
117.1587402050853
 20
-118.7608818605008
 30
0.0
 10
117.182166854385
 20
-118.7586425484353
 30
0.0
 10
117.209727618267
 20
-118.7565754911442
 30
0.0
 10
117.2793185470691
 20
-118.7522691217876
 30
0.0
 10
117.2941324576556
 20
-118.7438286378488
 30
0.0
 10
117.3154920496642
 20
-118.7290147272622
 30
0.0
 10
117.3154920496642
 20
-118.7290147272622
 30
0.0
 10
117.478100556568
 20
-118.8962741130711
 30
0.0
 10
117.478100556568
 20
-118.8962741130711
 30
0.0
 10
117.3998968890528
 20
-118.9681043539385
 30
0.0
 10
117.3916286598882
 20
-118.9787841499428
 30
0.0
 10
117.3451198708373
 20
-119.1162434598043
 30
0.0
  0
SPLINE
  5
EC
330
DC
100
AcDbEntity
  8
_U+30EC_U+30A4_U+30E4_U+30FC 1
370
     0
100
AcDbSpline
210
0.0
220
0.0
230
1.0
 70
    11
 71
     3
 72
    17
 73
    13
 74
     0
 42
0.0000000001
 43
0.0000000001
 12
1.0
 22
0.0
 32
0.0
 13
1.0
 23
0.0
 33
0.0
 40
0.0
 40
0.0
 40
0.0
 40
0.0
 40
1.0
 40
1.0
 40
1.0
 40
2.0
 40
2.0
 40
2.0
 40
3.0
 40
3.0
 40
3.0
 40
4.0
 40
4.0
 40
4.0
 40
4.0
 10
117.2562364073179
 20
-118.650811059747
 30
0.0
 10
117.1504719759207
 20
-118.5577934816453
 30
0.0
 10
117.1377251226253
 20
-118.547113685641
 30
0.0
 10
117.0360948058104
 20
-118.4689100181258
 30
0.0
 10
117.0360948058104
 20
-118.4689100181258
 30
0.0
 10
117.148060409081
 20
-118.3715860706675
 30
0.0
 10
117.148060409081
 20
-118.3715860706675
 30
0.0
 10
117.258303464609
 20
-118.4477226808915
 30
0.0
 10
117.2899983430733
 20
-118.4794175593559
 30
0.0
 10
117.3723361251708
 20
-118.5639946535187
 30
0.0
 10
117.3723361251708
 20
-118.5639946535187
 30
0.0
 10
117.2562364073179
 20
-118.650811059747
 30
0.0
 10
117.2562364073179
 20
-118.650811059747
 30
0.0
  0
SPLINE
  5
ED
330
DC
100
AcDbEntity
  8
_U+30EC_U+30A4_U+30E4_U+30FC 1
370
     0
100
AcDbSpline
210
0.0
220
0.0
230
1.0
 70
    11
 71
     3
 72
    17
 73
    13
 74
     0
 42
0.0000000001
 43
0.0000000001
 12
1.0
 22
0.0
 32
0.0
 13
1.0
 23
0.0
 33
0.0
 40
0.0
 40
0.0
 40
0.0
 40
0.0
 40
1.0
 40
1.0
 40
1.0
 40
2.0
 40
2.0
 40
2.0
 40
3.0
 40
3.0
 40
3.0
 40
4.0
 40
4.0
 40
4.0
 40
4.0
 10
117.5904106693871
 20
-118.6592515436859
 30
0.0
 10
117.5290879697497
 20
-118.5831149334619
 30
0.0
 10
117.4632866459814
 20
-118.5111124378201
 30
0.0
 10
117.3830159211751
 20
-118.4520290502481
 30
0.0
 10
117.3830159211751
 20
-118.4520290502481
 30
0.0
 10
117.5035942631588
 20
-118.3588392173721
 30
0.0
 10
117.5035942631588
 20
-118.3588392173721
 30
0.0
 10
117.5924777266783
 20
-118.4160278024273
 30
0.0
 10
117.6451876876026
 20
-118.4689100181258
 30
0.0
 10
117.7109890113709
 20
-118.5577934816453
 30
0.0
 10
117.7109890113709
 20
-118.5577934816453
 30
0.0
 10
117.5904106693871
 20
-118.6592515436859
 30
0.0
 10
117.5904106693871
 20
-118.6592515436859
 30
0.0
  0
HATCH
  5
EE
330
DC
100
AcDbEntity
  8
_U+30EC_U+30A4_U+30E4_U+30FC 1
 62
   179
420
  2234388
100
AcDbHatch
 10
0.0
 20
0.0
 30
0.0
210
0.0
220
0.0
230
1.0
  2
SOLID
 70
     1
 71
     0
 91
        3
 92
        1
 93
        1
 72
     4
 94
        3
 73
     0
 74
     1
 95
       59
 96
       55
 40
0.0
 40
0.0
 40
0.0
 40
0.0
 40
1.0
 40
1.0
 40
1.0
 40
2.0
 40
2.0
 40
2.0
 40
3.0
 40
3.0
 40
3.0
 40
4.0
 40
4.0
 40
4.0
 40
5.0
 40
5.0
 40
5.0
 40
6.0
 40
6.0
 40
6.0
 40
7.0
 40
7.0
 40
7.0
 40
8.0
 40
8.0
 40
8.0
 40
9.0
 40
9.0
 40
9.0
 40
10.0
 40
10.0
 40
10.0
 40
11.0
 40
11.0
 40
11.0
 40
12.0
 40
12.0
 40
12.0
 40
13.0
 40
13.0
 40
13.0
 40
14.0
 40
14.0
 40
14.0
 40
15.0
 40
15.0
 40
15.0
 40
16.0
 40
16.0
 40
16.0
 40
17.0
 40
17.0
 40
17.0
 40
18.0
 40
18.0
 40
18.0
 40
18.0
 10
117.3451198708373
 20
-119.1162434598043
 10
117.258303464609
 20
-119.3763481689406
 10
117.1122314160344
 20
-119.7148288003664
 10
116.7887369499695
 20
-120.0068006427414
 10
116.623716876226
 20
-120.1528726913159
 10
116.464897974356
 20
-120.2247029321834
 10
116.367746281672
 20
-120.2712117212343
 10
116.367746281672
 20
-120.2712117212343
 10
116.1772325013376
 20
-120.1273789847251
 10
116.1772325013376
 20
-120.1273789847251
 10
116.4414713250563
 20
-120.0300550372668
 10
116.6743597798592
 20
-119.860900848941
 10
116.8476480827673
 20
-119.6386921901424
 10
116.9451442849998
 20
-119.5139797335764
 10
117.1036186773213
 20
-119.2516357123746
 10
117.1776882302542
 20
-118.92572967947
 10
117.1776882302542
 20
-118.92572967947
 10
116.54103458458
 20
-118.92572967947
 10
116.54103458458
 20
-118.92572967947
 10
116.4710991462294
 20
-119.0230536269283
 10
116.2891981046083
 20
-119.2812635335477
 10
116.1117756871179
 20
-119.4039089328226
 10
116.1117756871179
 20
-119.4039089328226
 10
115.9443440465348
 20
-119.2769571641912
 10
115.9443440465348
 20
-119.2769571641912
 10
116.2533691115617
 20
-119.056987817458
 10
116.4710991462294
 20
-118.6804388809202
 10
116.5389675272889
 20
-118.4689100181258
 10
116.5389675272889
 20
-118.4689100181258
 10
116.7591091287963
 20
-118.5683010228753
 10
116.7591091287963
 20
-118.5683010228753
 10
116.7632432433786
 20
-118.5703680801664
 10
116.8035508605561
 20
-118.5874213028184
 10
116.8035508605561
 20
-118.6106756973439
 10
116.8035508605561
 20
-118.6254896079304
 10
116.8035508605561
 20
-118.6359971491604
 10
116.7101887729058
 20
-118.661318600977
 10
116.6702256652769
 20
-118.7290147272622
 10
116.6657470411461
 20
-118.7353881539099
 10
116.6488660732684
 20
-118.7608818605008
 10
116.6488660732684
 20
-118.7608818605008
 10
116.9727050488818
 20
-118.7608818605008
 10
116.9727050488818
 20
-118.7608818605008
 10
117.1587402050853
 20
-118.7608818605008
 10
117.182166854385
 20
-118.7586425484353
 10
117.209727618267
 20
-118.7565754911442
 10
117.2793185470691
 20
-118.7522691217876
 10
117.2941324576556
 20
-118.7438286378488
 10
117.3154920496642
 20
-118.7290147272622
 10
117.3154920496642
 20
-118.7290147272622
 10
117.478100556568
 20
-118.8962741130711
 10
117.478100556568
 20
-118.8962741130711
 10
117.3998968890528
 20
-118.9681043539385
 10
117.3916286598882
 20
-118.9787841499428
 10
117.3451198708373
 20
-119.1162434598043
 97
        0
 97
        0
 92
        1
 93
        1
 72
     4
 94
        3
 73
     0
 74
     1
 95
       17
 96
       13
 40
0.0
 40
0.0
 40
0.0
 40
0.0
 40
1.0
 40
1.0
 40
1.0
 40
2.0
 40
2.0
 40
2.0
 40
3.0
 40
3.0
 40
3.0
 40
4.0
 40
4.0
 40
4.0
 40
4.0
 10
117.2562364073179
 20
-118.650811059747
 10
117.1504719759207
 20
-118.5577934816453
 10
117.1377251226253
 20
-118.547113685641
 10
117.0360948058104
 20
-118.4689100181258
 10
117.0360948058104
 20
-118.4689100181258
 10
117.148060409081
 20
-118.3715860706675
 10
117.148060409081
 20
-118.3715860706675
 10
117.258303464609
 20
-118.4477226808915
 10
117.2899983430733
 20
-118.4794175593559
 10
117.3723361251708
 20
-118.5639946535187
 10
117.3723361251708
 20
-118.5639946535187
 10
117.2562364073179
 20
-118.650811059747
 10
117.2562364073179
 20
-118.650811059747
 97
        0
 97
        0
 92
        1
 93
        1
 72
     4
 94
        3
 73
     0
 74
     1
 95
       17
 96
       13
 40
0.0
 40
0.0
 40
0.0
 40
0.0
 40
1.0
 40
1.0
 40
1.0
 40
2.0
 40
2.0
 40
2.0
 40
3.0
 40
3.0
 40
3.0
 40
4.0
 40
4.0
 40
4.0
 40
4.0
 10
117.5904106693871
 20
-118.6592515436859
 10
117.5290879697497
 20
-118.5831149334619
 10
117.4632866459814
 20
-118.5111124378201
 10
117.3830159211751
 20
-118.4520290502481
 10
117.3830159211751
 20
-118.4520290502481
 10
117.5035942631588
 20
-118.3588392173721
 10
117.5035942631588
 20
-118.3588392173721
 10
117.5924777266783
 20
-118.4160278024273
 10
117.6451876876026
 20
-118.4689100181258
 10
117.7109890113709
 20
-118.5577934816453
 10
117.7109890113709
 20
-118.5577934816453
 10
117.5904106693871
 20
-118.6592515436859
 10
117.5904106693871
 20
-118.6592515436859
 97
        0
 97
        0
 75
     2
 76
     1
 98
        0
  0
ENDBLK
  5
DF
330
DC
100
AcDbEntity
  8
0
100
AcDbBlockEnd
  0
BLOCK
  5
F1
330
EF
100
AcDbEntity
  8
0
100
AcDbBlockBegin
  2
block 9
 70
     0
 10
0.0
 20
0.0
 30
0.0
  3
block 9
  1

  0
SPLINE
  5
F3
330
EF
100
AcDbEntity
  8
_U+30EC_U+30A4_U+30E4_U+30FC 1
370
     0
100
AcDbSpline
210
0.0
220
0.0
230
1.0
 70
    11
 71
     3
 72
    53
 73
    49
 74
     0
 42
0.0000000001
 43
0.0000000001
 12
1.0
 22
0.0
 32
0.0
 13
1.0
 23
0.0
 33
0.0
 40
0.0
 40
0.0
 40
0.0
 40
0.0
 40
1.0
 40
1.0
 40
1.0
 40
2.0
 40
2.0
 40
2.0
 40
3.0
 40
3.0
 40
3.0
 40
4.0
 40
4.0
 40
4.0
 40
5.0
 40
5.0
 40
5.0
 40
6.0
 40
6.0
 40
6.0
 40
7.0
 40
7.0
 40
7.0
 40
8.0
 40
8.0
 40
8.0
 40
9.0
 40
9.0
 40
9.0
 40
10.0
 40
10.0
 40
10.0
 40
11.0
 40
11.0
 40
11.0
 40
12.0
 40
12.0
 40
12.0
 40
13.0
 40
13.0
 40
13.0
 40
14.0
 40
14.0
 40
14.0
 40
15.0
 40
15.0
 40
15.0
 40
16.0
 40
16.0
 40
16.0
 40
16.0
 10
95.98518335273982
 20
-129.0456976673914
 30
0.0
 10
96.0482286001199
 20
-129.0456976673914
 30
0.0
 10
96.08233504542386
 20
-129.0308837568048
 30
0.0
 10
96.12057560531014
 20
-129.0140027889271
 30
0.0
 10
96.12057560531014
 20
-129.0140027889271
 30
0.0
 10
96.2787054880831
 20
-129.164208952084
 30
0.0
 10
96.2787054880831
 20
-129.164208952084
 30
0.0
 10
96.2442545332306
 20
-129.2275987090125
 30
0.0
 10
96.12815481537768
 20
-129.5173312393221
 30
0.0
 10
96.08440210271502
 20
-129.6251627280104
 30
0.0
 10
95.79087996737172
 20
-130.357245518626
 30
0.0
 10
95.36782224178305
 20
-130.59220103072
 30
0.0
 10
95.20004609165139
 20
-130.6852186088218
 30
0.0
 10
95.16766219409003
 20
-130.6387098197709
 30
0.0
 10
95.11426321406866
 20
-130.5687743814203
 30
0.0
 10
94.95441078355307
 20
-130.4440619248543
 30
0.0
 10
95.24379880431405
 20
-130.3086696722839
 30
0.0
 10
95.4746202018258
 20
-130.0757812174811
 30
0.0
 10
95.57349444225247
 20
-129.9424560222019
 30
0.0
 10
95.72783471999166
 20
-129.7354057835384
 30
0.0
 10
95.81568465486552
 20
-129.4794351889843
 30
0.0
 10
95.85771481978557
 20
-129.3502441082875
 30
0.0
 10
95.85771481978557
 20
-129.3502441082875
 30
0.0
 10
95.38125811417552
 20
-129.3502441082875
 30
0.0
 10
95.38125811417552
 20
-129.3502441082875
 30
0.0
 10
95.25930173399767
 20
-129.5510931750775
 30
0.0
 10
95.11426321406866
 20
-129.7309271594075
 30
0.0
 10
94.95234372626192
 20
-129.8918131185687
 30
0.0
 10
94.84933537125295
 20
-129.771234776585
 30
0.0
 10
94.8114393209152
 20
-129.7267930448253
 30
0.0
 10
94.71979978100755
 20
-129.6634032878966
 30
0.0
 10
95.18282061422514
 20
-129.2275987090125
 30
0.0
 10
95.30305444666035
 20
-128.8551838870571
 30
0.0
 10
95.3450846115804
 20
-128.7284043731999
 30
0.0
 10
95.3450846115804
 20
-128.7284043731999
 30
0.0
 10
95.61931421220629
 20
-128.8765434790656
 30
0.0
 10
95.61931421220629
 20
-128.8765434790656
 30
0.0
 10
95.62689342227384
 20
-128.8806775936479
 30
0.0
 10
95.64411889970009
 20
-128.8913573896522
 30
0.0
 10
95.64411889970009
 20
-128.9082383575299
 30
0.0
 10
95.64411889970009
 20
-128.9292534399899
 30
0.0
 10
95.61759166446366
 20
-128.9354546118634
 30
0.0
 10
95.59829912974627
 20
-128.937866178703
 30
0.0
 10
95.56798228947606
 20
-129.0033229929228
 30
0.0
 10
95.56212562715113
 20
-129.0202039608005
 30
0.0
 10
95.54868975475867
 20
-129.0456976673914
 30
0.0
 10
95.54868975475867
 20
-129.0456976673914
 30
0.0
 10
95.98518335273982
 20
-129.0456976673914
 30
0.0
 10
95.98518335273982
 20
-129.0456976673914
 30
0.0
  0
HATCH
  5
F4
330
EF
100
AcDbEntity
  8
_U+30EC_U+30A4_U+30E4_U+30FC 1
 62
   179
420
  2234388
100
AcDbHatch
 10
0.0
 20
0.0
 30
0.0
210
0.0
220
0.0
230
1.0
  2
SOLID
 70
     1
 71
     0
 91
        1
 92
        1
 93
        1
 72
     4
 94
        3
 73
     0
 74
     1
 95
       53
 96
       49
 40
0.0
 40
0.0
 40
0.0
 40
0.0
 40
1.0
 40
1.0
 40
1.0
 40
2.0
 40
2.0
 40
2.0
 40
3.0
 40
3.0
 40
3.0
 40
4.0
 40
4.0
 40
4.0
 40
5.0
 40
5.0
 40
5.0
 40
6.0
 40
6.0
 40
6.0
 40
7.0
 40
7.0
 40
7.0
 40
8.0
 40
8.0
 40
8.0
 40
9.0
 40
9.0
 40
9.0
 40
10.0
 40
10.0
 40
10.0
 40
11.0
 40
11.0
 40
11.0
 40
12.0
 40
12.0
 40
12.0
 40
13.0
 40
13.0
 40
13.0
 40
14.0
 40
14.0
 40
14.0
 40
15.0
 40
15.0
 40
15.0
 40
16.0
 40
16.0
 40
16.0
 40
16.0
 10
95.98518335273982
 20
-129.0456976673914
 10
96.0482286001199
 20
-129.0456976673914
 10
96.08233504542386
 20
-129.0308837568048
 10
96.12057560531014
 20
-129.0140027889271
 10
96.12057560531014
 20
-129.0140027889271
 10
96.2787054880831
 20
-129.164208952084
 10
96.2787054880831
 20
-129.164208952084
 10
96.2442545332306
 20
-129.2275987090125
 10
96.12815481537768
 20
-129.5173312393221
 10
96.08440210271502
 20
-129.6251627280104
 10
95.79087996737172
 20
-130.357245518626
 10
95.36782224178305
 20
-130.59220103072
 10
95.20004609165139
 20
-130.6852186088218
 10
95.16766219409003
 20
-130.6387098197709
 10
95.11426321406866
 20
-130.5687743814203
 10
94.95441078355307
 20
-130.4440619248543
 10
95.24379880431405
 20
-130.3086696722839
 10
95.4746202018258
 20
-130.0757812174811
 10
95.57349444225247
 20
-129.9424560222019
 10
95.72783471999166
 20
-129.7354057835384
 10
95.81568465486552
 20
-129.4794351889843
 10
95.85771481978557
 20
-129.3502441082875
 10
95.85771481978557
 20
-129.3502441082875
 10
95.38125811417552
 20
-129.3502441082875
 10
95.38125811417552
 20
-129.3502441082875
 10
95.25930173399767
 20
-129.5510931750775
 10
95.11426321406866
 20
-129.7309271594075
 10
94.95234372626192
 20
-129.8918131185687
 10
94.84933537125295
 20
-129.771234776585
 10
94.8114393209152
 20
-129.7267930448253
 10
94.71979978100755
 20
-129.6634032878966
 10
95.18282061422514
 20
-129.2275987090125
 10
95.30305444666035
 20
-128.8551838870571
 10
95.3450846115804
 20
-128.7284043731999
 10
95.3450846115804
 20
-128.7284043731999
 10
95.61931421220629
 20
-128.8765434790656
 10
95.61931421220629
 20
-128.8765434790656
 10
95.62689342227384
 20
-128.8806775936479
 10
95.64411889970009
 20
-128.8913573896522
 10
95.64411889970009
 20
-128.9082383575299
 10
95.64411889970009
 20
-128.9292534399899
 10
95.61759166446366
 20
-128.9354546118634
 10
95.59829912974627
 20
-128.937866178703
 10
95.56798228947606
 20
-129.0033229929228
 10
95.56212562715113
 20
-129.0202039608005
 10
95.54868975475867
 20
-129.0456976673914
 10
95.54868975475867
 20
-129.0456976673914
 10
95.98518335273982
 20
-129.0456976673914
 10
95.98518335273982
 20
-129.0456976673914
 97
        0
 97
        0
 75
     2
 76
     1
 98
        0
  0
POLYLINE
  5
F5
330
EF
100
AcDbEntity
  8
_U+30EC_U+30A4_U+30E4_U+30FC 1
370
     0
100
AcDb2dPolyline
 66
     1
 10
0.0
 20
0.0
 30
0.0
  0
VERTEX
  5
F6
330
F5
100
AcDbEntity
  8
_U+30EC_U+30A4_U+30E4_U+30FC 1
370
     0
100
AcDbVertex
100
AcDb2dVertex
 10
96.85162486728015
 20
-130.378260601086
 30
0.0
  0
VERTEX
  5
F7
330
F5
100
AcDbEntity
  8
_U+30EC_U+30A4_U+30E4_U+30FC 1
370
     0
100
AcDbVertex
100
AcDb2dVertex
 10
96.85162486728015
 20
-130.4864365993228
 30
0.0
  0
VERTEX
  5
F8
330
F5
100
AcDbEntity
  8
_U+30EC_U+30A4_U+30E4_U+30FC 1
370
     0
100
AcDbVertex
100
AcDb2dVertex
 10
96.53157549670044
 20
-130.4864365993228
 30
0.0
  0
VERTEX
  5
F9
330
F5
100
AcDbEntity
  8
_U+30EC_U+30A4_U+30E4_U+30FC 1
370
     0
100
AcDbVertex
100
AcDb2dVertex
 10
96.53157549670044
 20
-128.9778292863319
 30
0.0
  0
VERTEX
  5
FA
330
F5
100
AcDbEntity
  8
_U+30EC_U+30A4_U+30E4_U+30FC 1
370
     0
100
AcDbVertex
100
AcDb2dVertex
 10
97.99505205883457
 20
-128.9778292863319
 30
0.0
  0
VERTEX
  5
FB
330
F5
100
AcDbEntity
  8
_U+30EC_U+30A4_U+30E4_U+30FC 1
370
     0
100
AcDbVertex
100
AcDb2dVertex
 10
97.99505205883457
 20
-130.4864365993228
 30
0.0
  0
VERTEX
  5
FC
330
F5
100
AcDbEntity
  8
_U+30EC_U+30A4_U+30E4_U+30FC 1
370
     0
100
AcDbVertex
100
AcDb2dVertex
 10
97.67844778374011
 20
-130.4864365993228
 30
0.0
  0
VERTEX
  5
FD
330
F5
100
AcDbEntity
  8
_U+30EC_U+30A4_U+30E4_U+30FC 1
370
     0
100
AcDbVertex
100
AcDb2dVertex
 10
97.67844778374011
 20
-130.378260601086
 30
0.0
  0
VERTEX
  5
FE
330
F5
100
AcDbEntity
  8
_U+30EC_U+30A4_U+30E4_U+30FC 1
370
     0
100
AcDbVertex
100
AcDb2dVertex
 10
96.85162486728015
 20
-130.378260601086
 30
0.0
  0
SEQEND
  5
FF
330
F5
100
AcDbEntity
  8
_U+30EC_U+30A4_U+30E4_U+30FC 1
370
     0
  0
POLYLINE
  5
100
330
EF
100
AcDbEntity
  8
_U+30EC_U+30A4_U+30E4_U+30FC 1
370
     0
100
AcDb2dPolyline
 66
     1
 10
0.0
 20
0.0
 30
0.0
  0
VERTEX
  5
101
330
100
100
AcDbEntity
  8
_U+30EC_U+30A4_U+30E4_U+30FC 1
370
     0
100
AcDbVertex
100
AcDb2dVertex
 10
97.67844778374011
 20
-130.0654459310253
 30
0.0
  0
VERTEX
  5
102
330
100
100
AcDbEntity
  8
_U+30EC_U+30A4_U+30E4_U+30FC 1
370
     0
100
AcDbVertex
100
AcDb2dVertex
 10
97.67844778374011
 20
-129.2930555232323
 30
0.0
  0
VERTEX
  5
103
330
100
100
AcDbEntity
  8
_U+30EC_U+30A4_U+30E4_U+30FC 1
370
     0
100
AcDbVertex
100
AcDb2dVertex
 10
96.85162486728015
 20
-129.2930555232323
 30
0.0
  0
VERTEX
  5
104
330
100
100
AcDbEntity
  8
_U+30EC_U+30A4_U+30E4_U+30FC 1
370
     0
100
AcDbVertex
100
AcDb2dVertex
 10
96.85162486728015
 20
-130.0654459310253
 30
0.0
  0
VERTEX
  5
105
330
100
100
AcDbEntity
  8
_U+30EC_U+30A4_U+30E4_U+30FC 1
370
     0
100
AcDbVertex
100
AcDb2dVertex
 10
97.67844778374011
 20
-130.0654459310253
 30
0.0
  0
SEQEND
  5
106
330
100
100
AcDbEntity
  8
_U+30EC_U+30A4_U+30E4_U+30FC 1
370
     0
  0
HATCH
  5
107
330
EF
100
AcDbEntity
  8
_U+30EC_U+30A4_U+30E4_U+30FC 1
 62
   179
420
  2234388
100
AcDbHatch
 10
0.0
 20
0.0
 30
0.0
210
0.0
220
0.0
230
1.0
  2
SOLID
 70
     1
 71
     0
 91
        2
 92
        1
 93
        8
 72
     1
 10
96.85162486728015
 20
-130.378260601086
 11
96.85162486728015
 21
-130.4864365993228
 72
     1
 10
96.85162486728015
 20
-130.4864365993228
 11
96.53157549670044
 21
-130.4864365993228
 72
     1
 10
96.53157549670044
 20
-130.4864365993228
 11
96.53157549670044
 21
-128.9778292863319
 72
     1
 10
96.53157549670044
 20
-128.9778292863319
 11
97.99505205883457
 21
-128.9778292863319
 72
     1
 10
97.99505205883457
 20
-128.9778292863319
 11
97.99505205883457
 21
-130.4864365993228
 72
     1
 10
97.99505205883457
 20
-130.4864365993228
 11
97.67844778374011
 21
-130.4864365993228
 72
     1
 10
97.67844778374011
 20
-130.4864365993228
 11
97.67844778374011
 21
-130.378260601086
 72
     1
 10
97.67844778374011
 20
-130.378260601086
 11
96.85162486728015
 21
-130.378260601086
 97
        0
 92
        1
 93
        4
 72
     1
 10
97.67844778374011
 20
-130.0654459310253
 11
97.67844778374011
 21
-129.2930555232323
 72
     1
 10
97.67844778374011
 20
-129.2930555232323
 11
96.85162486728015
 21
-129.2930555232323
 72
     1
 10
96.85162486728015
 20
-129.2930555232323
 11
96.85162486728015
 21
-130.0654459310253
 72
     1
 10
96.85162486728015
 20
-130.0654459310253
 11
97.67844778374011
 21
-130.0654459310253
 97
        0
 75
     2
 76
     1
 98
        0
  0
SPLINE
  5
108
330
EF
100
AcDbEntity
  8
_U+30EC_U+30A4_U+30E4_U+30FC 1
370
     0
100
AcDbSpline
210
0.0
220
0.0
230
1.0
 70
    11
 71
     3
 72
    47
 73
    43
 74
     0
 42
0.0000000001
 43
0.0000000001
 12
1.0
 22
0.0
 32
0.0
 13
1.0
 23
0.0
 33
0.0
 40
0.0
 40
0.0
 40
0.0
 40
0.0
 40
1.0
 40
1.0
 40
1.0
 40
2.0
 40
2.0
 40
2.0
 40
3.0
 40
3.0
 40
3.0
 40
4.0
 40
4.0
 40
4.0
 40
5.0
 40
5.0
 40
5.0
 40
6.0
 40
6.0
 40
6.0
 40
7.0
 40
7.0
 40
7.0
 40
8.0
 40
8.0
 40
8.0
 40
9.0
 40
9.0
 40
9.0
 40
10.0
 40
10.0
 40
10.0
 40
11.0
 40
11.0
 40
11.0
 40
12.0
 40
12.0
 40
12.0
 40
13.0
 40
13.0
 40
13.0
 40
14.0
 40
14.0
 40
14.0
 40
14.0
 10
98.41914331306883
 20
-129.185224034544
 30
0.0
 10
98.41914331306883
 20
-129.185224034544
 30
0.0
 10
98.41914331306883
 20
-128.8679307403525
 30
0.0
 10
98.41914331306883
 20
-128.8679307403525
 30
0.0
 10
98.41914331306883
 20
-128.8679307403525
 30
0.0
 10
99.39307180674896
 20
-128.8679307403525
 30
0.0
 10
99.39307180674896
 20
-128.8679307403525
 30
0.0
 10
99.42338864701915
 20
-128.8679307403525
 30
0.0
 10
99.49194604717563
 20
-128.8637966257702
 30
0.0
 10
99.52432994473698
 20
-128.8510497724747
 30
0.0
 10
99.52432994473698
 20
-128.8510497724747
 30
0.0
 10
99.67315806969977
 20
-129.0308837568048
 30
0.0
 10
99.67315806969977
 20
-129.0308837568048
 30
0.0
 10
99.65799964956467
 20
-129.0518988392648
 30
0.0
 10
99.6294053570371
 20
-129.0963405710245
 30
0.0
 10
99.60081106450953
 20
-129.1662760093751
 30
0.0
 10
99.5301866070619
 20
-129.344042936414
 30
0.0
 10
99.45404999683788
 20
-129.5214653539044
 30
0.0
 10
99.35862085189646
 20
-129.6844183703567
 30
0.0
 10
99.43854706715426
 20
-129.7522867514161
 30
0.0
 10
99.78753523981007
 20
-130.0737141601899
 30
0.0
 10
99.93050670244793
 20
-130.2642279405242
 30
0.0
 10
99.86746145506787
 20
-130.3444986653305
 30
0.0
 10
99.76445310005889
 20
-130.4716226887363
 30
0.0
 10
99.70175236222734
 20
-130.5518934135426
 30
0.0
 10
99.63112790477972
 20
-130.4440619248543
 30
0.0
 10
99.47127547426413
 20
-130.1963595594648
 30
0.0
 10
99.18912215402217
 20
-129.9490017036239
 30
0.0
 10
99.0061875837554
 20
-130.1922254448825
 30
0.0
 10
98.7068087860872
 20
-130.4650770073143
 30
0.0
 10
98.4573838729551
 20
-130.5815212347157
 30
0.0
 10
98.38503686776485
 20
-130.4481960394366
 30
0.0
 10
98.34507376013596
 20
-130.3889403970903
 30
0.0
 10
98.23999834783584
 20
-130.2917887044062
 30
0.0
 10
98.48597816548268
 20
-130.1942925021737
 30
0.0
 10
98.67442488852585
 20
-130.0695800456076
 30
0.0
 10
98.85942651608376
 20
-129.868386469269
 30
0.0
 10
99.07681204120303
 20
-129.6358425240147
 30
0.0
 10
99.15467119916967
 20
-129.4284477758026
 30
0.0
 10
99.24045407675239
 20
-129.185224034544
 30
0.0
 10
99.24045407675239
 20
-129.185224034544
 30
0.0
 10
98.41914331306883
 20
-129.185224034544
 30
0.0
 10
98.41914331306883
 20
-129.185224034544
 30
0.0
  0
HATCH
  5
109
330
EF
100
AcDbEntity
  8
_U+30EC_U+30A4_U+30E4_U+30FC 1
 62
   179
420
  2234388
100
AcDbHatch
 10
0.0
 20
0.0
 30
0.0
210
0.0
220
0.0
230
1.0
  2
SOLID
 70
     1
 71
     0
 91
        1
 92
        1
 93
        1
 72
     4
 94
        3
 73
     0
 74
     1
 95
       47
 96
       43
 40
0.0
 40
0.0
 40
0.0
 40
0.0
 40
1.0
 40
1.0
 40
1.0
 40
2.0
 40
2.0
 40
2.0
 40
3.0
 40
3.0
 40
3.0
 40
4.0
 40
4.0
 40
4.0
 40
5.0
 40
5.0
 40
5.0
 40
6.0
 40
6.0
 40
6.0
 40
7.0
 40
7.0
 40
7.0
 40
8.0
 40
8.0
 40
8.0
 40
9.0
 40
9.0
 40
9.0
 40
10.0
 40
10.0
 40
10.0
 40
11.0
 40
11.0
 40
11.0
 40
12.0
 40
12.0
 40
12.0
 40
13.0
 40
13.0
 40
13.0
 40
14.0
 40
14.0
 40
14.0
 40
14.0
 10
98.41914331306883
 20
-129.185224034544
 10
98.41914331306883
 20
-129.185224034544
 10
98.41914331306883
 20
-128.8679307403525
 10
98.41914331306883
 20
-128.8679307403525
 10
98.41914331306883
 20
-128.8679307403525
 10
99.39307180674896
 20
-128.8679307403525
 10
99.39307180674896
 20
-128.8679307403525
 10
99.42338864701915
 20
-128.8679307403525
 10
99.49194604717563
 20
-128.8637966257702
 10
99.52432994473698
 20
-128.8510497724747
 10
99.52432994473698
 20
-128.8510497724747
 10
99.67315806969977
 20
-129.0308837568048
 10
99.67315806969977
 20
-129.0308837568048
 10
99.65799964956467
 20
-129.0518988392648
 10
99.6294053570371
 20
-129.0963405710245
 10
99.60081106450953
 20
-129.1662760093751
 10
99.5301866070619
 20
-129.344042936414
 10
99.45404999683788
 20
-129.5214653539044
 10
99.35862085189646
 20
-129.6844183703567
 10
99.43854706715426
 20
-129.7522867514161
 10
99.78753523981007
 20
-130.0737141601899
 10
99.93050670244793
 20
-130.2642279405242
 10
99.86746145506787
 20
-130.3444986653305
 10
99.76445310005889
 20
-130.4716226887363
 10
99.70175236222734
 20
-130.5518934135426
 10
99.63112790477972
 20
-130.4440619248543
 10
99.47127547426413
 20
-130.1963595594648
 10
99.18912215402217
 20
-129.9490017036239
 10
99.0061875837554
 20
-130.1922254448825
 10
98.7068087860872
 20
-130.4650770073143
 10
98.4573838729551
 20
-130.5815212347157
 10
98.38503686776485
 20
-130.4481960394366
 10
98.34507376013596
 20
-130.3889403970903
 10
98.23999834783584
 20
-130.2917887044062
 10
98.48597816548268
 20
-130.1942925021737
 10
98.67442488852585
 20
-130.0695800456076
 10
98.85942651608376
 20
-129.868386469269
 10
99.07681204120303
 20
-129.6358425240147
 10
99.15467119916967
 20
-129.4284477758026
 10
99.24045407675239
 20
-129.185224034544
 10
99.24045407675239
 20
-129.185224034544
 10
98.41914331306883
 20
-129.185224034544
 10
98.41914331306883
 20
-129.185224034544
 97
        0
 97
        0
 75
     2
 76
     1
 98
        0
  0
SPLINE
  5
10A
330
EF
100
AcDbEntity
  8
_U+30EC_U+30A4_U+30E4_U+30FC 1
370
     0
100
AcDbSpline
210
0.0
220
0.0
230
1.0
 70
    11
 71
     3
 72
    35
 73
    31
 74
     0
 42
0.0000000001
 43
0.0000000001
 12
1.0
 22
0.0
 32
0.0
 13
1.0
 23
0.0
 33
0.0
 40
0.0
 40
0.0
 40
0.0
 40
0.0
 40
1.0
 40
1.0
 40
1.0
 40
2.0
 40
2.0
 40
2.0
 40
3.0
 40
3.0
 40
3.0
 40
4.0
 40
4.0
 40
4.0
 40
5.0
 40
5.0
 40
5.0
 40
6.0
 40
6.0
 40
6.0
 40
7.0
 40
7.0
 40
7.0
 40
8.0
 40
8.0
 40
8.0
 40
9.0
 40
9.0
 40
9.0
 40
10.0
 40
10.0
 40
10.0
 40
10.0
 10
101.3819254303837
 20
-128.8445040910528
 30
0.0
 10
101.3970838505188
 20
-128.8445040910528
 30
0.0
 10
101.4811441803589
 20
-128.8403699764705
 30
0.0
 10
101.5135280779202
 20
-128.8321017473059
 30
0.0
 10
101.5135280779202
 20
-128.8321017473059
 30
0.0
 10
101.7343586985247
 20
-129.0308837568048
 30
0.0
 10
101.7343586985247
 20
-129.0308837568048
 30
0.0
 10
101.7116210683221
 20
-129.0625786352691
 30
0.0
 10
101.6906059858621
 20
-129.0901393991511
 30
0.0
 10
101.6716579606932
 20
-129.1428493600754
 30
0.0
 10
101.4811441803589
 20
-129.6592691733144
 30
0.0
 10
101.44118107273
 20
-129.7626220378719
 30
0.0
 10
101.3019992151259
 20
-129.9700167860839
 30
0.0
 10
101.1400797273191
 20
-130.2091064127602
 30
0.0
 10
100.9512884947275
 20
-130.3827392252168
 30
0.0
 10
100.5967881692953
 20
-130.6004692598846
 30
0.0
 10
100.5644042717339
 20
-130.5518934135426
 30
0.0
 10
100.5185845017801
 20
-130.4840250324832
 30
0.0
 10
100.3604546190071
 20
-130.3424316080394
 30
0.0
 10
100.7931586119545
 20
-130.1119547200762
 30
0.0
 10
101.0866807472978
 20
-129.895947233151
 30
0.0
 10
101.3247368453285
 20
-129.157663270662
 30
0.0
 10
101.3247368453285
 20
-129.157663270662
 30
0.0
 10
100.166151233639
 20
-129.157663270662
 30
0.0
 10
100.166151233639
 20
-129.157663270662
 30
0.0
 10
100.166151233639
 20
-129.157663270662
 30
0.0
 10
100.166151233639
 20
-128.8445040910528
 30
0.0
 10
100.166151233639
 20
-128.8445040910528
 30
0.0
 10
100.166151233639
 20
-128.8445040910528
 30
0.0
 10
101.3819254303837
 20
-128.8445040910528
 30
0.0
 10
101.3819254303837
 20
-128.8445040910528
 30
0.0
  0
HATCH
  5
10B
330
EF
100
AcDbEntity
  8
_U+30EC_U+30A4_U+30E4_U+30FC 1
 62
   179
420
  2234388
100
AcDbHatch
 10
0.0
 20
0.0
 30
0.0
210
0.0
220
0.0
230
1.0
  2
SOLID
 70
     1
 71
     0
 91
        1
 92
        1
 93
        1
 72
     4
 94
        3
 73
     0
 74
     1
 95
       35
 96
       31
 40
0.0
 40
0.0
 40
0.0
 40
0.0
 40
1.0
 40
1.0
 40
1.0
 40
2.0
 40
2.0
 40
2.0
 40
3.0
 40
3.0
 40
3.0
 40
4.0
 40
4.0
 40
4.0
 40
5.0
 40
5.0
 40
5.0
 40
6.0
 40
6.0
 40
6.0
 40
7.0
 40
7.0
 40
7.0
 40
8.0
 40
8.0
 40
8.0
 40
9.0
 40
9.0
 40
9.0
 40
10.0
 40
10.0
 40
10.0
 40
10.0
 10
101.3819254303837
 20
-128.8445040910528
 10
101.3970838505188
 20
-128.8445040910528
 10
101.4811441803589
 20
-128.8403699764705
 10
101.5135280779202
 20
-128.8321017473059
 10
101.5135280779202
 20
-128.8321017473059
 10
101.7343586985247
 20
-129.0308837568048
 10
101.7343586985247
 20
-129.0308837568048
 10
101.7116210683221
 20
-129.0625786352691
 10
101.6906059858621
 20
-129.0901393991511
 10
101.6716579606932
 20
-129.1428493600754
 10
101.4811441803589
 20
-129.6592691733144
 10
101.44118107273
 20
-129.7626220378719
 10
101.3019992151259
 20
-129.9700167860839
 10
101.1400797273191
 20
-130.2091064127602
 10
100.9512884947275
 20
-130.3827392252168
 10
100.5967881692953
 20
-130.6004692598846
 10
100.5644042717339
 20
-130.5518934135426
 10
100.5185845017801
 20
-130.4840250324832
 10
100.3604546190071
 20
-130.3424316080394
 10
100.7931586119545
 20
-130.1119547200762
 10
101.0866807472978
 20
-129.895947233151
 10
101.3247368453285
 20
-129.157663270662
 10
101.3247368453285
 20
-129.157663270662
 10
100.166151233639
 20
-129.157663270662
 10
100.166151233639
 20
-129.157663270662
 10
100.166151233639
 20
-129.157663270662
 10
100.166151233639
 20
-128.8445040910528
 10
100.166151233639
 20
-128.8445040910528
 10
100.166151233639
 20
-128.8445040910528
 10
101.3819254303837
 20
-128.8445040910528
 10
101.3819254303837
 20
-128.8445040910528
 97
        0
 97
        0
 75
     2
 76
     1
 98
        0
  0
SPLINE
  5
10C
330
EF
100
AcDbEntity
  8
_U+30EC_U+30A4_U+30E4_U+30FC 1
370
     0
100
AcDbSpline
210
0.0
220
0.0
230
1.0
 70
    11
 71
     3
 72
    23
 73
    19
 74
     0
 42
0.0000000001
 43
0.0000000001
 12
1.0
 22
0.0
 32
0.0
 13
1.0
 23
0.0
 33
0.0
 40
0.0
 40
0.0
 40
0.0
 40
0.0
 40
1.0
 40
1.0
 40
1.0
 40
2.0
 40
2.0
 40
2.0
 40
3.0
 40
3.0
 40
3.0
 40
4.0
 40
4.0
 40
4.0
 40
5.0
 40
5.0
 40
5.0
 40
6.0
 40
6.0
 40
6.0
 40
6.0
 10
102.3038329822365
 20
-128.7938611874196
 30
0.0
 10
102.3265706124392
 20
-128.7938611874196
 30
0.0
 10
102.3400064848317
 20
-128.7959282447108
 30
0.0
 10
102.3400064848317
 20
-128.8148762698796
 30
0.0
 10
102.3400064848317
 20
-128.8362358618882
 30
0.0
 10
102.317268854629
 20
-128.8489827151836
 30
0.0
 10
102.3038329822365
 20
-128.8551838870571
 30
0.0
 10
102.3038329822365
 20
-128.8551838870571
 30
0.0
 10
102.3038329822365
 20
-129.8897460612776
 30
0.0
 10
102.3038329822365
 20
-129.8897460612776
 30
0.0
 10
102.3038329822365
 20
-129.8897460612776
 30
0.0
 10
101.9855061593995
 20
-129.8897460612776
 30
0.0
 10
101.9855061593995
 20
-129.8897460612776
 30
0.0
 10
101.9855061593995
 20
-129.8897460612776
 30
0.0
 10
101.9855061593995
 20
-128.7831813914153
 30
0.0
 10
101.9855061593995
 20
-128.7831813914153
 30
0.0
 10
101.9855061593995
 20
-128.7831813914153
 30
0.0
 10
102.3038329822365
 20
-128.7938611874196
 30
0.0
 10
102.3038329822365
 20
-128.7938611874196
 30
0.0
  0
SPLINE
  5
10D
330
EF
100
AcDbEntity
  8
_U+30EC_U+30A4_U+30E4_U+30FC 1
370
     0
100
AcDbSpline
210
0.0
220
0.0
230
1.0
 70
    11
 71
     3
 72
    32
 73
    28
 74
     0
 42
0.0000000001
 43
0.0000000001
 12
1.0
 22
0.0
 32
0.0
 13
1.0
 23
0.0
 33
0.0
 40
0.0
 40
0.0
 40
0.0
 40
0.0
 40
1.0
 40
1.0
 40
1.0
 40
2.0
 40
2.0
 40
2.0
 40
3.0
 40
3.0
 40
3.0
 40
4.0
 40
4.0
 40
4.0
 40
5.0
 40
5.0
 40
5.0
 40
6.0
 40
6.0
 40
6.0
 40
7.0
 40
7.0
 40
7.0
 40
8.0
 40
8.0
 40
8.0
 40
9.0
 40
9.0
 40
9.0
 40
9.0
 10
103.1764756686503
 20
-128.7559651370819
 30
0.0
 10
103.1957682033677
 20
-128.7559651370819
 30
0.0
 10
103.2126491712455
 20
-128.7600992516641
 30
0.0
 10
103.2126491712455
 20
-128.7769802195419
 30
0.0
 10
103.2126491712455
 20
-128.8024739261327
 30
0.0
 10
103.1899115410428
 20
-128.8128092125885
 30
0.0
 10
103.1764756686503
 20
-128.8193548940104
 30
0.0
 10
103.1764756686503
 20
-128.8193548940104
 30
0.0
 10
103.1764756686503
 20
-129.5090630101575
 30
0.0
 10
103.1764756686503
 20
-129.5090630101575
 30
0.0
 10
103.1764756686503
 20
-129.7395398981207
 30
0.0
 10
103.1403021660552
 20
-129.972083843375
 30
0.0
 10
103.0242024482023
 20
-130.1625976237094
 30
0.0
 10
102.9194715454507
 20
-130.3338188693263
 30
0.0
 10
102.7079426826564
 20
-130.5625732095469
 30
0.0
 10
102.4468044448744
 20
-130.6514566730663
 30
0.0
 10
102.4182101523468
 20
-130.564640266838
 30
0.0
 10
102.3496527521904
 20
-130.4588758354408
 30
0.0
 10
102.2487114544726
 20
-130.3806721679257
 30
0.0
 10
102.8450574829693
 20
-130.1498507704139
 30
0.0
 10
102.8564262980706
 20
-129.7267930448253
 30
0.0
 10
102.8564262980706
 20
-129.5111300674486
 30
0.0
 10
102.8564262980706
 20
-129.5111300674486
 30
0.0
 10
102.8564262980706
 20
-128.7432182837864
 30
0.0
 10
102.8564262980706
 20
-128.7432182837864
 30
0.0
 10
102.8564262980706
 20
-128.7432182837864
 30
0.0
 10
103.1764756686503
 20
-128.7559651370819
 30
0.0
 10
103.1764756686503
 20
-128.7559651370819
 30
0.0
  0
HATCH
  5
10E
330
EF
100
AcDbEntity
  8
_U+30EC_U+30A4_U+30E4_U+30FC 1
 62
   179
420
  2234388
100
AcDbHatch
 10
0.0
 20
0.0
 30
0.0
210
0.0
220
0.0
230
1.0
  2
SOLID
 70
     1
 71
     0
 91
        2
 92
        1
 93
        1
 72
     4
 94
        3
 73
     0
 74
     1
 95
       23
 96
       19
 40
0.0
 40
0.0
 40
0.0
 40
0.0
 40
1.0
 40
1.0
 40
1.0
 40
2.0
 40
2.0
 40
2.0
 40
3.0
 40
3.0
 40
3.0
 40
4.0
 40
4.0
 40
4.0
 40
5.0
 40
5.0
 40
5.0
 40
6.0
 40
6.0
 40
6.0
 40
6.0
 10
102.3038329822365
 20
-128.7938611874196
 10
102.3265706124392
 20
-128.7938611874196
 10
102.3400064848317
 20
-128.7959282447108
 10
102.3400064848317
 20
-128.8148762698796
 10
102.3400064848317
 20
-128.8362358618882
 10
102.317268854629
 20
-128.8489827151836
 10
102.3038329822365
 20
-128.8551838870571
 10
102.3038329822365
 20
-128.8551838870571
 10
102.3038329822365
 20
-129.8897460612776
 10
102.3038329822365
 20
-129.8897460612776
 10
102.3038329822365
 20
-129.8897460612776
 10
101.9855061593995
 20
-129.8897460612776
 10
101.9855061593995
 20
-129.8897460612776
 10
101.9855061593995
 20
-129.8897460612776
 10
101.9855061593995
 20
-128.7831813914153
 10
101.9855061593995
 20
-128.7831813914153
 10
101.9855061593995
 20
-128.7831813914153
 10
102.3038329822365
 20
-128.7938611874196
 10
102.3038329822365
 20
-128.7938611874196
 97
        0
 97
        0
 92
        1
 93
        1
 72
     4
 94
        3
 73
     0
 74
     1
 95
       32
 96
       28
 40
0.0
 40
0.0
 40
0.0
 40
0.0
 40
1.0
 40
1.0
 40
1.0
 40
2.0
 40
2.0
 40
2.0
 40
3.0
 40
3.0
 40
3.0
 40
4.0
 40
4.0
 40
4.0
 40
5.0
 40
5.0
 40
5.0
 40
6.0
 40
6.0
 40
6.0
 40
7.0
 40
7.0
 40
7.0
 40
8.0
 40
8.0
 40
8.0
 40
9.0
 40
9.0
 40
9.0
 40
9.0
 10
103.1764756686503
 20
-128.7559651370819
 10
103.1957682033677
 20
-128.7559651370819
 10
103.2126491712455
 20
-128.7600992516641
 10
103.2126491712455
 20
-128.7769802195419
 10
103.2126491712455
 20
-128.8024739261327
 10
103.1899115410428
 20
-128.8128092125885
 10
103.1764756686503
 20
-128.8193548940104
 10
103.1764756686503
 20
-128.8193548940104
 10
103.1764756686503
 20
-129.5090630101575
 10
103.1764756686503
 20
-129.5090630101575
 10
103.1764756686503
 20
-129.7395398981207
 10
103.1403021660552
 20
-129.972083843375
 10
103.0242024482023
 20
-130.1625976237094
 10
102.9194715454507
 20
-130.3338188693263
 10
102.7079426826564
 20
-130.5625732095469
 10
102.4468044448744
 20
-130.6514566730663
 10
102.4182101523468
 20
-130.564640266838
 10
102.3496527521904
 20
-130.4588758354408
 10
102.2487114544726
 20
-130.3806721679257
 10
102.8450574829693
 20
-130.1498507704139
 10
102.8564262980706
 20
-129.7267930448253
 10
102.8564262980706
 20
-129.5111300674486
 10
102.8564262980706
 20
-129.5111300674486
 10
102.8564262980706
 20
-128.7432182837864
 10
102.8564262980706
 20
-128.7432182837864
 10
102.8564262980706
 20
-128.7432182837864
 10
103.1764756686503
 20
-128.7559651370819
 10
103.1764756686503
 20
-128.7559651370819
 97
        0
 97
        0
 75
     2
 76
     1
 98
        0
  0
POLYLINE
  5
10F
330
EF
100
AcDbEntity
  8
_U+30EC_U+30A4_U+30E4_U+30FC 1
370
     0
100
AcDb2dPolyline
 66
     1
 10
0.0
 20
0.0
 30
0.0
  0
VERTEX
  5
110
330
10F
100
AcDbEntity
  8
_U+30EC_U+30A4_U+30E4_U+30FC 1
370
     0
100
AcDbVertex
100
AcDb2dVertex
 10
105.1656738018336
 20
-129.5152641820309
 30
0.0
  0
VERTEX
  5
111
330
10F
100
AcDbEntity
  8
_U+30EC_U+30A4_U+30E4_U+30FC 1
370
     0
100
AcDbVertex
100
AcDb2dVertex
 10
105.1656738018336
 20
-129.874932150691
 30
0.0
  0
VERTEX
  5
112
330
10F
100
AcDbEntity
  8
_U+30EC_U+30A4_U+30E4_U+30FC 1
370
     0
100
AcDbVertex
100
AcDb2dVertex
 10
103.509616402074
 20
-129.874932150691
 30
0.0
  0
VERTEX
  5
113
330
10F
100
AcDbEntity
  8
_U+30EC_U+30A4_U+30E4_U+30FC 1
370
     0
100
AcDbVertex
100
AcDb2dVertex
 10
103.509616402074
 20
-129.5152641820309
 30
0.0
  0
VERTEX
  5
114
330
10F
100
AcDbEntity
  8
_U+30EC_U+30A4_U+30E4_U+30FC 1
370
     0
100
AcDbVertex
100
AcDb2dVertex
 10
105.1656738018336
 20
-129.5152641820309
 30
0.0
  0
SEQEND
  5
115
330
10F
100
AcDbEntity
  8
_U+30EC_U+30A4_U+30E4_U+30FC 1
370
     0
  0
HATCH
  5
116
330
EF
100
AcDbEntity
  8
_U+30EC_U+30A4_U+30E4_U+30FC 1
 62
   179
420
  2234388
100
AcDbHatch
 10
0.0
 20
0.0
 30
0.0
210
0.0
220
0.0
230
1.0
  2
SOLID
 70
     1
 71
     0
 91
        1
 92
        1
 93
        4
 72
     1
 10
105.1656738018336
 20
-129.5152641820309
 11
105.1656738018336
 21
-129.874932150691
 72
     1
 10
105.1656738018336
 20
-129.874932150691
 11
103.509616402074
 21
-129.874932150691
 72
     1
 10
103.509616402074
 20
-129.874932150691
 11
103.509616402074
 21
-129.5152641820309
 72
     1
 10
103.509616402074
 20
-129.5152641820309
 11
105.1656738018336
 21
-129.5152641820309
 97
        0
 75
     2
 76
     1
 98
        0
  0
SPLINE
  5
117
330
EF
100
AcDbEntity
  8
_U+30EC_U+30A4_U+30E4_U+30FC 1
370
     0
100
AcDbSpline
210
0.0
220
0.0
230
1.0
 70
    11
 71
     3
 72
    35
 73
    31
 74
     0
 42
0.0000000001
 43
0.0000000001
 12
1.0
 22
0.0
 32
0.0
 13
1.0
 23
0.0
 33
0.0
 40
0.0
 40
0.0
 40
0.0
 40
0.0
 40
1.0
 40
1.0
 40
1.0
 40
2.0
 40
2.0
 40
2.0
 40
3.0
 40
3.0
 40
3.0
 40
4.0
 40
4.0
 40
4.0
 40
5.0
 40
5.0
 40
5.0
 40
6.0
 40
6.0
 40
6.0
 40
7.0
 40
7.0
 40
7.0
 40
8.0
 40
8.0
 40
8.0
 40
9.0
 40
9.0
 40
9.0
 40
10.0
 40
10.0
 40
10.0
 40
10.0
 10
106.612958415187
 20
-129.9490017036239
 30
0.0
 10
106.612958415187
 20
-130.329684754744
 30
0.0
 10
106.3690456548314
 20
-130.5432806748295
 30
0.0
 10
106.0090331766228
 20
-130.5432806748295
 30
0.0
 10
105.7096543789545
 20
-130.5432806748295
 30
0.0
 10
105.391672065666
 20
-130.3741264865037
 30
0.0
 10
105.391672065666
 20
-129.9806965820882
 30
0.0
 10
105.391672065666
 20
-129.9806965820882
 30
0.0
 10
105.391672065666
 20
-129.8284233616401
 30
0.0
 10
105.391672065666
 20
-129.8284233616401
 30
0.0
 10
105.391672065666
 20
-129.8284233616401
 30
0.0
 10
105.7175780985706
 20
-129.8284233616401
 30
0.0
 10
105.7175780985706
 20
-129.8284233616401
 30
0.0
 10
105.7175780985706
 20
-129.8284233616401
 30
0.0
 10
105.7175780985706
 20
-129.9490017036239
 30
0.0
 10
105.7175780985706
 20
-129.9490017036239
 30
0.0
 10
105.7175780985706
 20
-130.2156520941822
 30
0.0
 10
105.9690700689938
 20
-130.2259873806379
 30
0.0
 10
105.9955973042303
 20
-130.2259873806379
 30
0.0
 10
106.1041178120156
 20
-130.2259873806379
 30
0.0
 10
106.2718939621473
 20
-130.1563964518359
 30
0.0
 10
106.2718939621473
 20
-129.9490017036239
 30
0.0
 10
106.2718939621473
 20
-129.9490017036239
 30
0.0
 10
106.2718939621473
 20
-128.8296901804662
 30
0.0
 10
106.2718939621473
 20
-128.8296901804662
 30
0.0
 10
106.2718939621473
 20
-128.8296901804662
 30
0.0
 10
106.612958415187
 20
-128.8296901804662
 30
0.0
 10
106.612958415187
 20
-128.8296901804662
 30
0.0
 10
106.612958415187
 20
-128.8296901804662
 30
0.0
 10
106.612958415187
 20
-129.9490017036239
 30
0.0
 10
106.612958415187
 20
-129.9490017036239
 30
0.0
  0
HATCH
  5
118
330
EF
100
AcDbEntity
  8
_U+30EC_U+30A4_U+30E4_U+30FC 1
 62
   179
420
  2234388
100
AcDbHatch
 10
0.0
 20
0.0
 30
0.0
210
0.0
220
0.0
230
1.0
  2
SOLID
 70
     1
 71
     0
 91
        1
 92
        1
 93
        1
 72
     4
 94
        3
 73
     0
 74
     1
 95
       35
 96
       31
 40
0.0
 40
0.0
 40
0.0
 40
0.0
 40
1.0
 40
1.0
 40
1.0
 40
2.0
 40
2.0
 40
2.0
 40
3.0
 40
3.0
 40
3.0
 40
4.0
 40
4.0
 40
4.0
 40
5.0
 40
5.0
 40
5.0
 40
6.0
 40
6.0
 40
6.0
 40
7.0
 40
7.0
 40
7.0
 40
8.0
 40
8.0
 40
8.0
 40
9.0
 40
9.0
 40
9.0
 40
10.0
 40
10.0
 40
10.0
 40
10.0
 10
106.612958415187
 20
-129.9490017036239
 10
106.612958415187
 20
-130.329684754744
 10
106.3690456548314
 20
-130.5432806748295
 10
106.0090331766228
 20
-130.5432806748295
 10
105.7096543789545
 20
-130.5432806748295
 10
105.391672065666
 20
-130.3741264865037
 10
105.391672065666
 20
-129.9806965820882
 10
105.391672065666
 20
-129.9806965820882
 10
105.391672065666
 20
-129.8284233616401
 10
105.391672065666
 20
-129.8284233616401
 10
105.391672065666
 20
-129.8284233616401
 10
105.7175780985706
 20
-129.8284233616401
 10
105.7175780985706
 20
-129.8284233616401
 10
105.7175780985706
 20
-129.8284233616401
 10
105.7175780985706
 20
-129.9490017036239
 10
105.7175780985706
 20
-129.9490017036239
 10
105.7175780985706
 20
-130.2156520941822
 10
105.9690700689938
 20
-130.2259873806379
 10
105.9955973042303
 20
-130.2259873806379
 10
106.1041178120156
 20
-130.2259873806379
 10
106.2718939621473
 20
-130.1563964518359
 10
106.2718939621473
 20
-129.9490017036239
 10
106.2718939621473
 20
-129.9490017036239
 10
106.2718939621473
 20
-128.8296901804662
 10
106.2718939621473
 20
-128.8296901804662
 10
106.2718939621473
 20
-128.8296901804662
 10
106.612958415187
 20
-128.8296901804662
 10
106.612958415187
 20
-128.8296901804662
 10
106.612958415187
 20
-128.8296901804662
 10
106.612958415187
 20
-129.9490017036239
 10
106.612958415187
 20
-129.9490017036239
 97
        0
 97
        0
 75
     2
 76
     1
 98
        0
  0
POLYLINE
  5
119
330
EF
100
AcDbEntity
  8
_U+30EC_U+30A4_U+30E4_U+30FC 1
370
     0
100
AcDb2dPolyline
 66
     1
 10
0.0
 20
0.0
 30
0.0
  0
VERTEX
  5
11A
330
119
100
AcDbEntity
  8
_U+30EC_U+30A4_U+30E4_U+30FC 1
370
     0
100
AcDbVertex
100
AcDb2dVertex
 10
107.8666286622695
 20
-129.5428249459129
 30
0.0
  0
VERTEX
  5
11B
330
119
100
AcDbEntity
  8
_U+30EC_U+30A4_U+30E4_U+30FC 1
370
     0
100
AcDbVertex
100
AcDb2dVertex
 10
107.8666286622695
 20
-129.8432372722267
 30
0.0
  0
VERTEX
  5
11C
330
119
100
AcDbEntity
  8
_U+30EC_U+30A4_U+30E4_U+30FC 1
370
     0
100
AcDbVertex
100
AcDb2dVertex
 10
107.2034477813589
 20
-129.8432372722267
 30
0.0
  0
VERTEX
  5
11D
330
119
100
AcDbEntity
  8
_U+30EC_U+30A4_U+30E4_U+30FC 1
370
     0
100
AcDbVertex
100
AcDb2dVertex
 10
107.2034477813589
 20
-130.4967718857786
 30
0.0
  0
VERTEX
  5
11E
330
119
100
AcDbEntity
  8
_U+30EC_U+30A4_U+30E4_U+30FC 1
370
     0
100
AcDbVertex
100
AcDb2dVertex
 10
106.860316271028
 20
-130.4967718857786
 30
0.0
  0
VERTEX
  5
11F
330
119
100
AcDbEntity
  8
_U+30EC_U+30A4_U+30E4_U+30FC 1
370
     0
100
AcDbVertex
100
AcDb2dVertex
 10
106.860316271028
 20
-128.8296901804662
 30
0.0
  0
VERTEX
  5
120
330
119
100
AcDbEntity
  8
_U+30EC_U+30A4_U+30E4_U+30FC 1
370
     0
100
AcDbVertex
100
AcDb2dVertex
 10
107.9730821127637
 20
-128.8296901804662
 30
0.0
  0
VERTEX
  5
121
330
119
100
AcDbEntity
  8
_U+30EC_U+30A4_U+30E4_U+30FC 1
370
     0
100
AcDbVertex
100
AcDb2dVertex
 10
107.9730821127637
 20
-129.1407823027843
 30
0.0
  0
VERTEX
  5
122
330
119
100
AcDbEntity
  8
_U+30EC_U+30A4_U+30E4_U+30FC 1
370
     0
100
AcDbVertex
100
AcDb2dVertex
 10
107.2034477813589
 20
-129.1407823027843
 30
0.0
  0
VERTEX
  5
123
330
119
100
AcDbEntity
  8
_U+30EC_U+30A4_U+30E4_U+30FC 1
370
     0
100
AcDbVertex
100
AcDb2dVertex
 10
107.2034477813589
 20
-129.5428249459129
 30
0.0
  0
VERTEX
  5
124
330
119
100
AcDbEntity
  8
_U+30EC_U+30A4_U+30E4_U+30FC 1
370
     0
100
AcDbVertex
100
AcDb2dVertex
 10
107.8666286622695
 20
-129.5428249459129
 30
0.0
  0
SEQEND
  5
125
330
119
100
AcDbEntity
  8
_U+30EC_U+30A4_U+30E4_U+30FC 1
370
     0
  0
HATCH
  5
126
330
EF
100
AcDbEntity
  8
_U+30EC_U+30A4_U+30E4_U+30FC 1
 62
   179
420
  2234388
100
AcDbHatch
 10
0.0
 20
0.0
 30
0.0
210
0.0
220
0.0
230
1.0
  2
SOLID
 70
     1
 71
     0
 91
        1
 92
        1
 93
       10
 72
     1
 10
107.8666286622695
 20
-129.5428249459129
 11
107.8666286622695
 21
-129.8432372722267
 72
     1
 10
107.8666286622695
 20
-129.8432372722267
 11
107.2034477813589
 21
-129.8432372722267
 72
     1
 10
107.2034477813589
 20
-129.8432372722267
 11
107.2034477813589
 21
-130.4967718857786
 72
     1
 10
107.2034477813589
 20
-130.4967718857786
 11
106.860316271028
 21
-130.4967718857786
 72
     1
 10
106.860316271028
 20
-130.4967718857786
 11
106.860316271028
 21
-128.8296901804662
 72
     1
 10
106.860316271028
 20
-128.8296901804662
 11
107.9730821127637
 21
-128.8296901804662
 72
     1
 10
107.9730821127637
 20
-128.8296901804662
 11
107.9730821127637
 21
-129.1407823027843
 72
     1
 10
107.9730821127637
 20
-129.1407823027843
 11
107.2034477813589
 21
-129.1407823027843
 72
     1
 10
107.2034477813589
 20
-129.1407823027843
 11
107.2034477813589
 21
-129.5428249459129
 72
     1
 10
107.2034477813589
 20
-129.5428249459129
 11
107.8666286622695
 21
-129.5428249459129
 97
        0
 75
     2
 76
     1
 98
        0
  0
SPLINE
  5
127
330
EF
100
AcDbEntity
  8
_U+30EC_U+30A4_U+30E4_U+30FC 1
370
     0
100
AcDbSpline
210
0.0
220
0.0
230
1.0
 70
    11
 71
     3
 72
    56
 73
    52
 74
     0
 42
0.0000000001
 43
0.0000000001
 12
1.0
 22
0.0
 32
0.0
 13
1.0
 23
0.0
 33
0.0
 40
0.0
 40
0.0
 40
0.0
 40
0.0
 40
1.0
 40
1.0
 40
1.0
 40
2.0
 40
2.0
 40
2.0
 40
3.0
 40
3.0
 40
3.0
 40
4.0
 40
4.0
 40
4.0
 40
5.0
 40
5.0
 40
5.0
 40
6.0
 40
6.0
 40
6.0
 40
7.0
 40
7.0
 40
7.0
 40
8.0
 40
8.0
 40
8.0
 40
9.0
 40
9.0
 40
9.0
 40
10.0
 40
10.0
 40
10.0
 40
11.0
 40
11.0
 40
11.0
 40
12.0
 40
12.0
 40
12.0
 40
13.0
 40
13.0
 40
13.0
 40
14.0
 40
14.0
 40
14.0
 40
15.0
 40
15.0
 40
15.0
 40
16.0
 40
16.0
 40
16.0
 40
17.0
 40
17.0
 40
17.0
 40
17.0
 10
108.6552110188431
 20
-129.750219694125
 30
0.0
 10
108.6552110188431
 20
-129.750219694125
 30
0.0
 10
108.6552110188431
 20
-129.4918375327312
 30
0.0
 10
108.6552110188431
 20
-129.4918375327312
 30
0.0
 10
108.6552110188431
 20
-129.4918375327312
 30
0.0
 10
108.750295654236
 20
-129.4918375327312
 30
0.0
 10
108.750295654236
 20
-129.4918375327312
 30
0.0
 10
108.7864691568312
 20
-129.4918375327312
 30
0.0
 10
109.0131564397606
 20
-129.46875539298
 30
0.0
 10
109.0131564397606
 20
-129.2847872940677
 30
0.0
 10
109.0131564397606
 20
-129.10908742432
 30
0.0
 10
108.8436577418863
 20
-129.10908742432
 30
0.0
 10
108.7864691568312
 20
-129.10908742432
 30
0.0
 10
108.6397080891595
 20
-129.10908742432
 30
0.0
 10
108.5370442436991
 20
-129.1345811309108
 30
0.0
 10
108.5332546386653
 20
-129.3185492298231
 30
0.0
 10
108.5332546386653
 20
-129.3185492298231
 30
0.0
 10
108.1766872559419
 20
-129.3185492298231
 30
0.0
 10
108.1766872559419
 20
-129.3185492298231
 30
0.0
 10
108.218717420862
 20
-128.9206407012768
 30
0.0
 10
108.4702093912852
 20
-128.7831813914153
 30
0.0
 10
108.7999050292236
 20
-128.7831813914153
 30
0.0
 10
109.1561279023985
 20
-128.7831813914153
 30
0.0
 10
109.3600775551253
 20
-128.9650824330365
 30
0.0
 10
109.3600775551253
 20
-129.2358669381771
 30
0.0
 10
109.3600775551253
 20
-129.4918375327312
 30
0.0
 10
109.2019476723523
 20
-129.5617729710818
 30
0.0
 10
109.1275336098709
 20
-129.5955349068372
 30
0.0
 10
109.2153835447448
 20
-129.6317084094323
 30
0.0
 10
109.3983181150115
 20
-129.7099120769475
 30
0.0
 10
109.3983181150115
 20
-129.9934434353836
 30
0.0
 10
109.3983181150115
 20
-130.3699923719214
 30
0.0
 10
109.0972167696007
 20
-130.5432806748295
 30
0.0
 10
108.7540852592698
 20
-130.5432806748295
 30
0.0
 10
108.4264566786226
 20
-130.5432806748295
 30
0.0
 10
108.1539496257393
 20
-130.3741264865037
 30
0.0
 10
108.1270778809543
 20
-129.9403889649107
 30
0.0
 10
108.1270778809543
 20
-129.9403889649107
 30
0.0
 10
108.4853678114203
 20
-129.9403889649107
 30
0.0
 10
108.4853678114203
 20
-129.9403889649107
 30
0.0
 10
108.4891574164541
 20
-130.0210041992656
 30
0.0
 10
108.5025932888466
 20
-130.2259873806379
 30
0.0
 10
108.7578748643036
 20
-130.2259873806379
 30
0.0
 10
108.7940483668987
 20
-130.2259873806379
 30
0.0
 10
109.0400281845455
 20
-130.2197862087645
 30
0.0
 10
109.0400281845455
 20
-129.9893093208013
 30
0.0
 10
109.0400281845455
 20
-129.853917068231
 30
0.0
 10
108.9542453069628
 20
-129.750219694125
 30
0.0
 10
108.7675211316623
 20
-129.750219694125
 30
0.0
 10
108.7675211316623
 20
-129.750219694125
 30
0.0
 10
108.6552110188431
 20
-129.750219694125
 30
0.0
 10
108.6552110188431
 20
-129.750219694125
 30
0.0
  0
HATCH
  5
128
330
EF
100
AcDbEntity
  8
_U+30EC_U+30A4_U+30E4_U+30FC 1
 62
   179
420
  2234388
100
AcDbHatch
 10
0.0
 20
0.0
 30
0.0
210
0.0
220
0.0
230
1.0
  2
SOLID
 70
     1
 71
     0
 91
        1
 92
        1
 93
        1
 72
     4
 94
        3
 73
     0
 74
     1
 95
       56
 96
       52
 40
0.0
 40
0.0
 40
0.0
 40
0.0
 40
1.0
 40
1.0
 40
1.0
 40
2.0
 40
2.0
 40
2.0
 40
3.0
 40
3.0
 40
3.0
 40
4.0
 40
4.0
 40
4.0
 40
5.0
 40
5.0
 40
5.0
 40
6.0
 40
6.0
 40
6.0
 40
7.0
 40
7.0
 40
7.0
 40
8.0
 40
8.0
 40
8.0
 40
9.0
 40
9.0
 40
9.0
 40
10.0
 40
10.0
 40
10.0
 40
11.0
 40
11.0
 40
11.0
 40
12.0
 40
12.0
 40
12.0
 40
13.0
 40
13.0
 40
13.0
 40
14.0
 40
14.0
 40
14.0
 40
15.0
 40
15.0
 40
15.0
 40
16.0
 40
16.0
 40
16.0
 40
17.0
 40
17.0
 40
17.0
 40
17.0
 10
108.6552110188431
 20
-129.750219694125
 10
108.6552110188431
 20
-129.750219694125
 10
108.6552110188431
 20
-129.4918375327312
 10
108.6552110188431
 20
-129.4918375327312
 10
108.6552110188431
 20
-129.4918375327312
 10
108.750295654236
 20
-129.4918375327312
 10
108.750295654236
 20
-129.4918375327312
 10
108.7864691568312
 20
-129.4918375327312
 10
109.0131564397606
 20
-129.46875539298
 10
109.0131564397606
 20
-129.2847872940677
 10
109.0131564397606
 20
-129.10908742432
 10
108.8436577418863
 20
-129.10908742432
 10
108.7864691568312
 20
-129.10908742432
 10
108.6397080891595
 20
-129.10908742432
 10
108.5370442436991
 20
-129.1345811309108
 10
108.5332546386653
 20
-129.3185492298231
 10
108.5332546386653
 20
-129.3185492298231
 10
108.1766872559419
 20
-129.3185492298231
 10
108.1766872559419
 20
-129.3185492298231
 10
108.218717420862
 20
-128.9206407012768
 10
108.4702093912852
 20
-128.7831813914153
 10
108.7999050292236
 20
-128.7831813914153
 10
109.1561279023985
 20
-128.7831813914153
 10
109.3600775551253
 20
-128.9650824330365
 10
109.3600775551253
 20
-129.2358669381771
 10
109.3600775551253
 20
-129.4918375327312
 10
109.2019476723523
 20
-129.5617729710818
 10
109.1275336098709
 20
-129.5955349068372
 10
109.2153835447448
 20
-129.6317084094323
 10
109.3983181150115
 20
-129.7099120769475
 10
109.3983181150115
 20
-129.9934434353836
 10
109.3983181150115
 20
-130.3699923719214
 10
109.0972167696007
 20
-130.5432806748295
 10
108.7540852592698
 20
-130.5432806748295
 10
108.4264566786226
 20
-130.5432806748295
 10
108.1539496257393
 20
-130.3741264865037
 10
108.1270778809543
 20
-129.9403889649107
 10
108.1270778809543
 20
-129.9403889649107
 10
108.4853678114203
 20
-129.9403889649107
 10
108.4853678114203
 20
-129.9403889649107
 10
108.4891574164541
 20
-130.0210041992656
 10
108.5025932888466
 20
-130.2259873806379
 10
108.7578748643036
 20
-130.2259873806379
 10
108.7940483668987
 20
-130.2259873806379
 10
109.0400281845455
 20
-130.2197862087645
 10
109.0400281845455
 20
-129.9893093208013
 10
109.0400281845455
 20
-129.853917068231
 10
108.9542453069628
 20
-129.750219694125
 10
108.7675211316623
 20
-129.750219694125
 10
108.7675211316623
 20
-129.750219694125
 10
108.6552110188431
 20
-129.750219694125
 10
108.6552110188431
 20
-129.750219694125
 97
        0
 97
        0
 75
     2
 76
     1
 98
        0
  0
POLYLINE
  5
129
330
EF
100
AcDbEntity
  8
_U+30EC_U+30A4_U+30E4_U+30FC 1
370
     0
100
AcDb2dPolyline
 66
     1
 10
0.0
 20
0.0
 30
0.0
  0
VERTEX
  5
12A
330
129
100
AcDbEntity
  8
_U+30EC_U+30A4_U+30E4_U+30FC 1
370
     0
100
AcDbVertex
100
AcDb2dVertex
 10
110.6936740174655
 20
-130.4967718857786
 30
0.0
  0
VERTEX
  5
12B
330
129
100
AcDbEntity
  8
_U+30EC_U+30A4_U+30E4_U+30FC 1
370
     0
100
AcDbVertex
100
AcDb2dVertex
 10
109.9350639916135
 20
-129.3629909615829
 30
0.0
  0
VERTEX
  5
12C
330
129
100
AcDbEntity
  8
_U+30EC_U+30A4_U+30E4_U+30FC 1
370
     0
100
AcDbVertex
100
AcDb2dVertex
 10
109.9467773162633
 20
-130.4967718857786
 30
0.0
  0
VERTEX
  5
12D
330
129
100
AcDbEntity
  8
_U+30EC_U+30A4_U+30E4_U+30FC 1
370
     0
100
AcDbVertex
100
AcDb2dVertex
 10
109.6095024682573
 20
-130.4967718857786
 30
0.0
  0
VERTEX
  5
12E
330
129
100
AcDbEntity
  8
_U+30EC_U+30A4_U+30E4_U+30FC 1
370
     0
100
AcDbVertex
100
AcDb2dVertex
 10
109.6095024682573
 20
-128.8296901804662
 30
0.0
  0
VERTEX
  5
12F
330
129
100
AcDbEntity
  8
_U+30EC_U+30A4_U+30E4_U+30FC 1
370
     0
100
AcDbVertex
100
AcDb2dVertex
 10
109.9350639916135
 20
-128.8296901804662
 30
0.0
  0
VERTEX
  5
130
330
129
100
AcDbEntity
  8
_U+30EC_U+30A4_U+30E4_U+30FC 1
370
     0
100
AcDbVertex
100
AcDb2dVertex
 10
110.6936740174655
 20
-129.9638156142104
 30
0.0
  0
VERTEX
  5
131
330
129
100
AcDbEntity
  8
_U+30EC_U+30A4_U+30E4_U+30FC 1
370
     0
100
AcDbVertex
100
AcDb2dVertex
 10
110.6823052023641
 20
-128.8296901804662
 30
0.0
  0
VERTEX
  5
132
330
129
100
AcDbEntity
  8
_U+30EC_U+30A4_U+30E4_U+30FC 1
370
     0
100
AcDbVertex
100
AcDb2dVertex
 10
111.0195800503701
 20
-128.8296901804662
 30
0.0
  0
VERTEX
  5
133
330
129
100
AcDbEntity
  8
_U+30EC_U+30A4_U+30E4_U+30FC 1
370
     0
100
AcDbVertex
100
AcDb2dVertex
 10
111.0195800503701
 20
-130.4967718857786
 30
0.0
  0
VERTEX
  5
134
330
129
100
AcDbEntity
  8
_U+30EC_U+30A4_U+30E4_U+30FC 1
370
     0
100
AcDbVertex
100
AcDb2dVertex
 10
110.6936740174655
 20
-130.4967718857786
 30
0.0
  0
SEQEND
  5
135
330
129
100
AcDbEntity
  8
_U+30EC_U+30A4_U+30E4_U+30FC 1
370
     0
  0
HATCH
  5
136
330
EF
100
AcDbEntity
  8
_U+30EC_U+30A4_U+30E4_U+30FC 1
 62
   179
420
  2234388
100
AcDbHatch
 10
0.0
 20
0.0
 30
0.0
210
0.0
220
0.0
230
1.0
  2
SOLID
 70
     1
 71
     0
 91
        1
 92
        1
 93
       10
 72
     1
 10
110.6936740174655
 20
-130.4967718857786
 11
109.9350639916135
 21
-129.3629909615829
 72
     1
 10
109.9350639916135
 20
-129.3629909615829
 11
109.9467773162633
 21
-130.4967718857786
 72
     1
 10
109.9467773162633
 20
-130.4967718857786
 11
109.6095024682573
 21
-130.4967718857786
 72
     1
 10
109.6095024682573
 20
-130.4967718857786
 11
109.6095024682573
 21
-128.8296901804662
 72
     1
 10
109.6095024682573
 20
-128.8296901804662
 11
109.9350639916135
 21
-128.8296901804662
 72
     1
 10
109.9350639916135
 20
-128.8296901804662
 11
110.6936740174655
 21
-129.9638156142104
 72
     1
 10
110.6936740174655
 20
-129.9638156142104
 11
110.6823052023641
 21
-128.8296901804662
 72
     1
 10
110.6823052023641
 20
-128.8296901804662
 11
111.0195800503701
 21
-128.8296901804662
 72
     1
 10
111.0195800503701
 20
-128.8296901804662
 11
111.0195800503701
 21
-130.4967718857786
 72
     1
 10
111.0195800503701
 20
-130.4967718857786
 11
110.6936740174655
 21
-130.4967718857786
 97
        0
 75
     2
 76
     1
 98
        0
  0
SPLINE
  5
137
330
EF
100
AcDbEntity
  8
_U+30EC_U+30A4_U+30E4_U+30FC 1
370
     0
100
AcDbSpline
210
0.0
220
0.0
230
1.0
 70
    11
 71
     3
 72
    41
 73
    37
 74
     0
 42
0.0000000001
 43
0.0000000001
 12
1.0
 22
0.0
 32
0.0
 13
1.0
 23
0.0
 33
0.0
 40
0.0
 40
0.0
 40
0.0
 40
0.0
 40
1.0
 40
1.0
 40
1.0
 40
2.0
 40
2.0
 40
2.0
 40
3.0
 40
3.0
 40
3.0
 40
4.0
 40
4.0
 40
4.0
 40
5.0
 40
5.0
 40
5.0
 40
6.0
 40
6.0
 40
6.0
 40
7.0
 40
7.0
 40
7.0
 40
8.0
 40
8.0
 40
8.0
 40
9.0
 40
9.0
 40
9.0
 40
10.0
 40
10.0
 40
10.0
 40
11.0
 40
11.0
 40
11.0
 40
12.0
 40
12.0
 40
12.0
 40
12.0
 10
112.0441514476834
 20
-129.1893581491263
 30
0.0
 10
112.0424288999408
 20
-129.1177001630331
 30
0.0
 10
112.0424288999408
 20
-129.0984076283157
 30
0.0
 10
112.0403618426496
 20
-129.0498317819737
 30
0.0
 10
112.0403618426496
 20
-129.0498317819737
 30
0.0
 10
111.6231607793859
 20
-129.0498317819737
 30
0.0
 10
111.6231607793859
 20
-129.0498317819737
 30
0.0
 10
111.6231607793859
 20
-129.0498317819737
 30
0.0
 10
111.6231607793859
 20
-128.7389119144298
 30
0.0
 10
111.6231607793859
 20
-128.7389119144298
 30
0.0
 10
111.6231607793859
 20
-128.7389119144298
 30
0.0
 10
112.3511094554192
 20
-128.7389119144298
 30
0.0
 10
112.3511094554192
 20
-128.7389119144298
 30
0.0
 10
112.349042398128
 20
-128.7938611874196
 30
0.0
 10
112.3376735830267
 20
-129.0370849286782
 30
0.0
 10
112.3376735830267
 20
-129.0856607750202
 30
0.0
 10
112.3376735830267
 20
-129.7288601021164
 30
0.0
 10
112.6463541385051
 20
-130.1774115342959
 30
0.0
 10
113.0370279665324
 20
-130.4440619248543
 30
0.0
 10
112.9247178537133
 20
-130.516064420496
 30
0.0
 10
112.8540933962657
 20
-130.5773871201334
 30
0.0
 10
112.7872585438518
 20
-130.6745388128175
 30
0.0
 10
112.5512695031122
 20
-130.4926377711963
 30
0.0
 10
112.2060709354902
 20
-130.0950737521985
 30
0.0
 10
112.0975504277048
 20
-129.6082817601327
 30
0.0
 10
112.0348496898732
 20
-129.8453043295179
 30
0.0
 10
111.8860215649105
 20
-130.2831759656931
 30
0.0
 10
111.377180961739
 20
-130.6766058701086
 30
0.0
 10
111.2934651414475
 20
-130.5625732095469
 30
0.0
 10
111.2438557664599
 20
-130.509518739074
 30
0.0
 10
111.142914468742
 20
-130.4395833007235
 30
0.0
 10
111.7278916821375
 20
-130.0230712565567
 30
0.0
 10
111.8288329798553
 20
-129.5745198243772
 30
0.0
 10
111.880509412134
 20
-129.1555962133708
 30
0.0
 10
111.880509412134
 20
-129.1555962133708
 30
0.0
 10
112.0441514476834
 20
-129.1893581491263
 30
0.0
 10
112.0441514476834
 20
-129.1893581491263
 30
0.0
  0
HATCH
  5
138
330
EF
100
AcDbEntity
  8
_U+30EC_U+30A4_U+30E4_U+30FC 1
 62
   179
420
  2234388
100
AcDbHatch
 10
0.0
 20
0.0
 30
0.0
210
0.0
220
0.0
230
1.0
  2
SOLID
 70
     1
 71
     0
 91
        1
 92
        1
 93
        1
 72
     4
 94
        3
 73
     0
 74
     1
 95
       41
 96
       37
 40
0.0
 40
0.0
 40
0.0
 40
0.0
 40
1.0
 40
1.0
 40
1.0
 40
2.0
 40
2.0
 40
2.0
 40
3.0
 40
3.0
 40
3.0
 40
4.0
 40
4.0
 40
4.0
 40
5.0
 40
5.0
 40
5.0
 40
6.0
 40
6.0
 40
6.0
 40
7.0
 40
7.0
 40
7.0
 40
8.0
 40
8.0
 40
8.0
 40
9.0
 40
9.0
 40
9.0
 40
10.0
 40
10.0
 40
10.0
 40
11.0
 40
11.0
 40
11.0
 40
12.0
 40
12.0
 40
12.0
 40
12.0
 10
112.0441514476834
 20
-129.1893581491263
 10
112.0424288999408
 20
-129.1177001630331
 10
112.0424288999408
 20
-129.0984076283157
 10
112.0403618426496
 20
-129.0498317819737
 10
112.0403618426496
 20
-129.0498317819737
 10
111.6231607793859
 20
-129.0498317819737
 10
111.6231607793859
 20
-129.0498317819737
 10
111.6231607793859
 20
-129.0498317819737
 10
111.6231607793859
 20
-128.7389119144298
 10
111.6231607793859
 20
-128.7389119144298
 10
111.6231607793859
 20
-128.7389119144298
 10
112.3511094554192
 20
-128.7389119144298
 10
112.3511094554192
 20
-128.7389119144298
 10
112.349042398128
 20
-128.7938611874196
 10
112.3376735830267
 20
-129.0370849286782
 10
112.3376735830267
 20
-129.0856607750202
 10
112.3376735830267
 20
-129.7288601021164
 10
112.6463541385051
 20
-130.1774115342959
 10
113.0370279665324
 20
-130.4440619248543
 10
112.9247178537133
 20
-130.516064420496
 10
112.8540933962657
 20
-130.5773871201334
 10
112.7872585438518
 20
-130.6745388128175
 10
112.5512695031122
 20
-130.4926377711963
 10
112.2060709354902
 20
-130.0950737521985
 10
112.0975504277048
 20
-129.6082817601327
 10
112.0348496898732
 20
-129.8453043295179
 10
111.8860215649105
 20
-130.2831759656931
 10
111.377180961739
 20
-130.6766058701086
 10
111.2934651414475
 20
-130.5625732095469
 10
111.2438557664599
 20
-130.509518739074
 10
111.142914468742
 20
-130.4395833007235
 10
111.7278916821375
 20
-130.0230712565567
 10
111.8288329798553
 20
-129.5745198243772
 10
111.880509412134
 20
-129.1555962133708
 10
111.880509412134
 20
-129.1555962133708
 10
112.0441514476834
 20
-129.1893581491263
 10
112.0441514476834
 20
-129.1893581491263
 97
        0
 97
        0
 75
     2
 76
     1
 98
        0
  0
SPLINE
  5
139
330
EF
100
AcDbEntity
  8
_U+30EC_U+30A4_U+30E4_U+30FC 1
370
     0
100
AcDbSpline
210
0.0
220
0.0
230
1.0
 70
    11
 71
     3
 72
    92
 73
    88
 74
     0
 42
0.0000000001
 43
0.0000000001
 12
1.0
 22
0.0
 32
0.0
 13
1.0
 23
0.0
 33
0.0
 40
0.0
 40
0.0
 40
0.0
 40
0.0
 40
1.0
 40
1.0
 40
1.0
 40
2.0
 40
2.0
 40
2.0
 40
3.0
 40
3.0
 40
3.0
 40
4.0
 40
4.0
 40
4.0
 40
5.0
 40
5.0
 40
5.0
 40
6.0
 40
6.0
 40
6.0
 40
7.0
 40
7.0
 40
7.0
 40
8.0
 40
8.0
 40
8.0
 40
9.0
 40
9.0
 40
9.0
 40
10.0
 40
10.0
 40
10.0
 40
11.0
 40
11.0
 40
11.0
 40
12.0
 40
12.0
 40
12.0
 40
13.0
 40
13.0
 40
13.0
 40
14.0
 40
14.0
 40
14.0
 40
15.0
 40
15.0
 40
15.0
 40
16.0
 40
16.0
 40
16.0
 40
17.0
 40
17.0
 40
17.0
 40
18.0
 40
18.0
 40
18.0
 40
19.0
 40
19.0
 40
19.0
 40
20.0
 40
20.0
 40
20.0
 40
21.0
 40
21.0
 40
21.0
 40
22.0
 40
22.0
 40
22.0
 40
23.0
 40
23.0
 40
23.0
 40
24.0
 40
24.0
 40
24.0
 40
25.0
 40
25.0
 40
25.0
 40
26.0
 40
26.0
 40
26.0
 40
27.0
 40
27.0
 40
27.0
 40
28.0
 40
28.0
 40
28.0
 40
29.0
 40
29.0
 40
29.0
 40
29.0
 10
114.8598279877781
 20
-129.7078450196564
 30
0.0
 10
114.8598279877781
 20
-129.7078450196564
 30
0.0
 10
114.8598279877781
 20
-130.4440619248543
 30
0.0
 10
114.8598279877781
 20
-130.4440619248543
 30
0.0
 10
114.8598279877781
 20
-130.6366427624797
 30
0.0
 10
114.7244357352078
 20
-130.6535237303574
 30
0.0
 10
114.589387992186
 20
-130.6535237303574
 30
0.0
 10
114.5759521197935
 20
-130.6535237303574
 30
0.0
 10
114.5511474322997
 20
-130.6535237303574
 30
0.0
 10
114.5170409869957
 20
-130.6469780489355
 30
0.0
 10
114.4977484522783
 20
-130.5181314777871
 30
0.0
 10
114.4729437647845
 20
-130.4568087781497
 30
0.0
 10
114.4254014470881
 20
-130.378260601086
 30
0.0
 10
114.5170409869957
 20
-130.4016872503857
 30
0.0
 10
114.562516247401
 20
-130.4037543076768
 30
0.0
 10
114.5663058524348
 20
-130.4037543076768
 30
0.0
 10
114.5835313298611
 20
-130.4037543076768
 30
0.0
 10
114.6024793550299
 20
-130.3954860785122
 30
0.0
 10
114.6024793550299
 20
-130.3510443467525
 30
0.0
 10
114.6024793550299
 20
-130.3510443467525
 30
0.0
 10
114.6024793550299
 20
-130.3086696722839
 30
0.0
 10
114.6024793550299
 20
-130.3086696722839
 30
0.0
 10
114.5549370373335
 20
-130.329684754744
 30
0.0
 10
114.5456352795233
 20
-130.3338188693263
 30
0.0
 10
114.5187635347384
 20
-130.3531114040437
 30
0.0
 10
114.5170409869957
 20
-130.3317518120351
 30
0.0
 10
114.5149739297046
 20
-130.3190049587397
 30
0.0
 10
114.5111843246708
 20
-130.302123990862
 30
0.0
 10
114.465364554717
 20
-130.3107367295751
 30
0.0
 10
114.3148138820116
 20
-130.3362304361659
 30
0.0
 10
114.1205104966435
 20
-130.3613796332083
 30
0.0
 10
114.1053520765084
 20
-130.3975531358034
 30
0.0
 10
114.0957058091497
 20
-130.4144341036811
 30
0.0
 10
114.0767577839808
 20
-130.4144341036811
 30
0.0
 10
114.0595323065546
 20
-130.4144341036811
 30
0.0
 10
114.0498860391959
 20
-130.3996201930945
 30
0.0
 10
114.0460964341621
 20
-130.3827392252168
 30
0.0
 10
114.0460964341621
 20
-130.3827392252168
 30
0.0
 10
114.0137125366007
 20
-130.2177191514733
 30
0.0
 10
114.0137125366007
 20
-130.2177191514733
 30
0.0
 10
114.0137125366007
 20
-130.2177191514733
 30
0.0
 10
114.0137125366007
 20
-130.6662705836529
 30
0.0
 10
114.0137125366007
 20
-130.6662705836529
 30
0.0
 10
114.0137125366007
 20
-130.6662705836529
 30
0.0
 10
113.7622205661775
 20
-130.6662705836529
 30
0.0
 10
113.7622205661775
 20
-130.6662705836529
 30
0.0
 10
113.7622205661775
 20
-130.6662705836529
 30
0.0
 10
113.7622205661775
 20
-130.1391709744097
 30
0.0
 10
113.7622205661775
 20
-130.1391709744097
 30
0.0
 10
113.7449950887513
 20
-130.1667317382916
 30
0.0
 10
113.6747151408522
 20
-130.2852430229842
 30
0.0
 10
113.472488035868
 20
-130.2852430229842
 30
0.0
 10
113.4686984308342
 20
-130.2304660047688
 30
0.0
 10
113.4611192207667
 20
-130.1687987955828
 30
0.0
 10
113.4115098457791
 20
-130.0609673068945
 30
0.0
 10
113.4115098457791
 20
-130.0609673068945
 30
0.0
 10
113.4115098457791
 20
-130.6662705836529
 30
0.0
 10
113.4115098457791
 20
-130.6662705836529
 30
0.0
 10
113.4115098457791
 20
-130.6662705836529
 30
0.0
 10
113.1507161175457
 20
-130.6662705836529
 30
0.0
 10
113.1507161175457
 20
-130.6662705836529
 30
0.0
 10
113.1507161175457
 20
-130.6662705836529
 30
0.0
 10
113.1507161175457
 20
-128.7728461049596
 30
0.0
 10
113.1507161175457
 20
-128.7728461049596
 30
0.0
 10
113.1507161175457
 20
-128.7728461049596
 30
0.0
 10
113.7449950887513
 20
-128.7728461049596
 30
0.0
 10
113.7449950887513
 20
-128.7728461049596
 30
0.0
 10
113.7449950887513
 20
-128.7728461049596
 30
0.0
 10
113.8138969984563
 20
-128.8572509443482
 30
0.0
 10
113.8138969984563
 20
-128.8572509443482
 30
0.0
 10
113.8138969984563
 20
-128.8572509443482
 30
0.0
 10
113.8138969984563
 20
-128.7728461049596
 30
0.0
 10
113.8138969984563
 20
-128.7728461049596
 30
0.0
 10
113.8138969984563
 20
-128.7728461049596
 30
0.0
 10
114.7799017725203
 20
-128.7728461049596
 30
0.0
 10
114.7799017725203
 20
-128.7728461049596
 30
0.0
 10
114.7799017725203
 20
-128.7728461049596
 30
0.0
 10
114.7799017725203
 20
-129.6337754667235
 30
0.0
 10
114.7799017725203
 20
-129.6337754667235
 30
0.0
 10
114.7799017725203
 20
-129.6337754667235
 30
0.0
 10
114.4119655746956
 20
-129.6337754667235
 30
0.0
 10
114.4119655746956
 20
-129.6337754667235
 30
0.0
 10
114.4119655746956
 20
-129.6337754667235
 30
0.0
 10
114.4119655746956
 20
-129.7078450196564
 30
0.0
 10
114.4119655746956
 20
-129.7078450196564
 30
0.0
 10
114.4119655746956
 20
-129.7078450196564
 30
0.0
 10
114.8598279877781
 20
-129.7078450196564
 30
0.0
 10
114.8598279877781
 20
-129.7078450196564
 30
0.0
  0
SPLINE
  5
13A
330
EF
100
AcDbEntity
  8
_U+30EC_U+30A4_U+30E4_U+30FC 1
370
     0
100
AcDbSpline
210
0.0
220
0.0
230
1.0
 70
    11
 71
     3
 72
    14
 73
    10
 74
     0
 42
0.0000000001
 43
0.0000000001
 12
1.0
 22
0.0
 32
0.0
 13
1.0
 23
0.0
 33
0.0
 40
0.0
 40
0.0
 40
0.0
 40
0.0
 40
1.0
 40
1.0
 40
1.0
 40
2.0
 40
2.0
 40
2.0
 40
3.0
 40
3.0
 40
3.0
 40
3.0
 10
113.4115098457791
 20
-129.0350178713871
 30
0.0
 10
113.4115098457791
 20
-129.0350178713871
 30
0.0
 10
113.4115098457791
 20
-129.3691921334563
 30
0.0
 10
113.4115098457791
 20
-129.3691921334563
 30
0.0
 10
113.444238252889
 20
-129.3037353192366
 30
0.0
 10
113.4917805705854
 20
-129.1724771812486
 30
0.0
 10
113.520374863113
 20
-129.0350178713871
 30
0.0
 10
113.520374863113
 20
-129.0350178713871
 30
0.0
 10
113.4115098457791
 20
-129.0350178713871
 30
0.0
 10
113.4115098457791
 20
-129.0350178713871
 30
0.0
  0
SPLINE
  5
13B
330
EF
100
AcDbEntity
  8
_U+30EC_U+30A4_U+30E4_U+30FC 1
370
     0
100
AcDbSpline
210
0.0
220
0.0
230
1.0
 70
    11
 71
     3
 72
    17
 73
    13
 74
     0
 42
0.0000000001
 43
0.0000000001
 12
1.0
 22
0.0
 32
0.0
 13
1.0
 23
0.0
 33
0.0
 40
0.0
 40
0.0
 40
0.0
 40
0.0
 40
1.0
 40
1.0
 40
1.0
 40
2.0
 40
2.0
 40
2.0
 40
3.0
 40
3.0
 40
3.0
 40
4.0
 40
4.0
 40
4.0
 40
4.0
 10
113.4115098457791
 20
-129.972083843375
 30
0.0
 10
113.4287353232053
 20
-129.9765624675059
 30
0.0
 10
113.4401041383067
 20
-129.978629524797
 30
0.0
 10
113.4535400106991
 20
-129.978629524797
 30
0.0
 10
113.541389945573
 20
-129.978629524797
 30
0.0
 10
113.5451795506068
 20
-129.8980142904422
 30
0.0
 10
113.5451795506068
 20
-129.847371386809
 30
0.0
 10
113.5451795506068
 20
-129.7267930448253
 30
0.0
 10
113.4897135132942
 20
-129.6272297853015
 30
0.0
 10
113.4115098457791
 20
-129.5131971247398
 30
0.0
 10
113.4115098457791
 20
-129.5131971247398
 30
0.0
 10
113.4115098457791
 20
-129.972083843375
 30
0.0
 10
113.4115098457791
 20
-129.972083843375
 30
0.0
  0
SPLINE
  5
13C
330
EF
100
AcDbEntity
  8
_U+30EC_U+30A4_U+30E4_U+30FC 1
370
     0
100
AcDbSpline
210
0.0
220
0.0
230
1.0
 70
    11
 71
     3
 72
    23
 73
    19
 74
     0
 42
0.0000000001
 43
0.0000000001
 12
1.0
 22
0.0
 32
0.0
 13
1.0
 23
0.0
 33
0.0
 40
0.0
 40
0.0
 40
0.0
 40
0.0
 40
1.0
 40
1.0
 40
1.0
 40
2.0
 40
2.0
 40
2.0
 40
3.0
 40
3.0
 40
3.0
 40
4.0
 40
4.0
 40
4.0
 40
5.0
 40
5.0
 40
5.0
 40
6.0
 40
6.0
 40
6.0
 40
6.0
 10
114.1776990816986
 20
-129.7078450196564
 30
0.0
 10
114.1776990816986
 20
-129.7078450196564
 30
0.0
 10
114.1776990816986
 20
-129.6337754667235
 30
0.0
 10
114.1776990816986
 20
-129.6337754667235
 30
0.0
 10
114.1776990816986
 20
-129.6337754667235
 30
0.0
 10
113.8138969984563
 20
-129.6337754667235
 30
0.0
 10
113.8138969984563
 20
-129.6337754667235
 30
0.0
 10
113.8138969984563
 20
-129.6337754667235
 30
0.0
 10
113.8138969984563
 20
-128.8913573896522
 30
0.0
 10
113.8138969984563
 20
-128.8913573896522
 30
0.0
 10
113.7870252536713
 20
-129.0243380753828
 30
0.0
 10
113.6764376885948
 20
-129.3609239042917
 30
0.0
 10
113.6402641859997
 20
-129.4580755969758
 30
0.0
 10
113.672648083561
 20
-129.5025173287355
 30
0.0
 10
113.7298366686162
 20
-129.5831325630903
 30
0.0
 10
113.7718668335362
 20
-129.7078450196564
 30
0.0
 10
113.7718668335362
 20
-129.7078450196564
 30
0.0
 10
114.1776990816986
 20
-129.7078450196564
 30
0.0
 10
114.1776990816986
 20
-129.7078450196564
 30
0.0
  0
SPLINE
  5
13D
330
EF
100
AcDbEntity
  8
_U+30EC_U+30A4_U+30E4_U+30FC 1
370
     0
100
AcDbSpline
210
0.0
220
0.0
230
1.0
 70
    11
 71
     3
 72
    17
 73
    13
 74
     0
 42
0.0000000001
 43
0.0000000001
 12
1.0
 22
0.0
 32
0.0
 13
1.0
 23
0.0
 33
0.0
 40
0.0
 40
0.0
 40
0.0
 40
0.0
 40
1.0
 40
1.0
 40
1.0
 40
2.0
 40
2.0
 40
2.0
 40
3.0
 40
3.0
 40
3.0
 40
4.0
 40
4.0
 40
4.0
 40
4.0
 10
114.0137125366007
 20
-130.1247015733716
 30
0.0
 10
114.051953096487
 20
-130.1222900065319
 30
0.0
 10
114.1356689167786
 20
-130.1160888346585
 30
0.0
 10
114.1776990816986
 20
-130.1119547200762
 30
0.0
 10
114.1776990816986
 20
-130.1119547200762
 30
0.0
 10
114.1776990816986
 20
-129.9531358182062
 30
0.0
 10
114.1776990816986
 20
-129.9531358182062
 30
0.0
 10
114.1776990816986
 20
-129.9531358182062
 30
0.0
 10
114.0137125366007
 20
-129.9531358182062
 30
0.0
 10
114.0137125366007
 20
-129.9531358182062
 30
0.0
 10
114.0137125366007
 20
-129.9531358182062
 30
0.0
 10
114.0137125366007
 20
-130.1247015733716
 30
0.0
 10
114.0137125366007
 20
-130.1247015733716
 30
0.0
  0
POLYLINE
  5
13E
330
EF
100
AcDbEntity
  8
_U+30EC_U+30A4_U+30E4_U+30FC 1
370
     0
100
AcDb2dPolyline
 66
     1
 10
0.0
 20
0.0
 30
0.0
  0
VERTEX
  5
13F
330
13E
100
AcDbEntity
  8
_U+30EC_U+30A4_U+30E4_U+30FC 1
370
     0
100
AcDbVertex
100
AcDb2dVertex
 10
114.1776990816986
 20
-129.0074571075051
 30
0.0
  0
VERTEX
  5
140
330
13E
100
AcDbEntity
  8
_U+30EC_U+30A4_U+30E4_U+30FC 1
370
     0
100
AcDbVertex
100
AcDb2dVertex
 10
114.0709011216559
 20
-129.0074571075051
 30
0.0
  0
VERTEX
  5
141
330
13E
100
AcDbEntity
  8
_U+30EC_U+30A4_U+30E4_U+30FC 1
370
     0
100
AcDbVertex
100
AcDb2dVertex
 10
114.0709011216559
 20
-129.1152885961934
 30
0.0
  0
VERTEX
  5
142
330
13E
100
AcDbEntity
  8
_U+30EC_U+30A4_U+30E4_U+30FC 1
370
     0
100
AcDbVertex
100
AcDb2dVertex
 10
114.1776990816986
 20
-129.1152885961934
 30
0.0
  0
VERTEX
  5
143
330
13E
100
AcDbEntity
  8
_U+30EC_U+30A4_U+30E4_U+30FC 1
370
     0
100
AcDbVertex
100
AcDb2dVertex
 10
114.1776990816986
 20
-129.0074571075051
 30
0.0
  0
SEQEND
  5
144
330
13E
100
AcDbEntity
  8
_U+30EC_U+30A4_U+30E4_U+30FC 1
370
     0
  0
POLYLINE
  5
145
330
EF
100
AcDbEntity
  8
_U+30EC_U+30A4_U+30E4_U+30FC 1
370
     0
100
AcDb2dPolyline
 66
     1
 10
0.0
 20
0.0
 30
0.0
  0
VERTEX
  5
146
330
145
100
AcDbEntity
  8
_U+30EC_U+30A4_U+30E4_U+30FC 1
370
     0
100
AcDbVertex
100
AcDb2dVertex
 10
114.1776990816986
 20
-129.3037353192366
 30
0.0
  0
VERTEX
  5
147
330
145
100
AcDbEntity
  8
_U+30EC_U+30A4_U+30E4_U+30FC 1
370
     0
100
AcDbVertex
100
AcDb2dVertex
 10
114.0709011216559
 20
-129.3037353192366
 30
0.0
  0
VERTEX
  5
148
330
145
100
AcDbEntity
  8
_U+30EC_U+30A4_U+30E4_U+30FC 1
370
     0
100
AcDbVertex
100
AcDb2dVertex
 10
114.0709011216559
 20
-129.4115668079249
 30
0.0
  0
VERTEX
  5
149
330
145
100
AcDbEntity
  8
_U+30EC_U+30A4_U+30E4_U+30FC 1
370
     0
100
AcDbVertex
100
AcDb2dVertex
 10
114.1776990816986
 20
-129.4115668079249
 30
0.0
  0
VERTEX
  5
14A
330
145
100
AcDbEntity
  8
_U+30EC_U+30A4_U+30E4_U+30FC 1
370
     0
100
AcDbVertex
100
AcDb2dVertex
 10
114.1776990816986
 20
-129.3037353192366
 30
0.0
  0
SEQEND
  5
14B
330
145
100
AcDbEntity
  8
_U+30EC_U+30A4_U+30E4_U+30FC 1
370
     0
  0
SPLINE
  5
14C
330
EF
100
AcDbEntity
  8
_U+30EC_U+30A4_U+30E4_U+30FC 1
370
     0
100
AcDbSpline
210
0.0
220
0.0
230
1.0
 70
    11
 71
     3
 72
    26
 73
    22
 74
     0
 42
0.0000000001
 43
0.0000000001
 12
1.0
 22
0.0
 32
0.0
 13
1.0
 23
0.0
 33
0.0
 40
0.0
 40
0.0
 40
0.0
 40
0.0
 40
1.0
 40
1.0
 40
1.0
 40
2.0
 40
2.0
 40
2.0
 40
3.0
 40
3.0
 40
3.0
 40
4.0
 40
4.0
 40
4.0
 40
5.0
 40
5.0
 40
5.0
 40
6.0
 40
6.0
 40
6.0
 40
7.0
 40
7.0
 40
7.0
 40
7.0
 10
114.6024793550299
 20
-129.9531358182062
 30
0.0
 10
114.6024793550299
 20
-129.9531358182062
 30
0.0
 10
114.4064534219192
 20
-129.9531358182062
 30
0.0
 10
114.4064534219192
 20
-129.9531358182062
 30
0.0
 10
114.4064534219192
 20
-129.9531358182062
 30
0.0
 10
114.4064534219192
 20
-130.1033419813631
 30
0.0
 10
114.4064534219192
 20
-130.1033419813631
 30
0.0
 10
114.4064534219192
 20
-130.1033419813631
 30
0.0
 10
114.4729437647845
 20
-130.0950737521985
 30
0.0
 10
114.4825900321432
 20
-130.0926621853588
 30
0.0
 10
114.4712212170419
 20
-130.054766135021
 30
0.0
 10
114.4636420069744
 20
-130.0378851671433
 30
0.0
 10
114.4577853446495
 20
-130.0210041992656
 30
0.0
 10
114.4577853446495
 20
-130.0210041992656
 30
0.0
 10
114.562516247401
 20
-129.9934434353836
 30
0.0
 10
114.562516247401
 20
-129.9934434353836
 30
0.0
 10
114.5721625147597
 20
-130.027205371139
 30
0.0
 10
114.5835313298611
 20
-130.0630343641856
 30
0.0
 10
114.6024793550299
 20
-130.1436495985405
 30
0.0
 10
114.6024793550299
 20
-130.1436495985405
 30
0.0
 10
114.6024793550299
 20
-129.9531358182062
 30
0.0
 10
114.6024793550299
 20
-129.9531358182062
 30
0.0
  0
POLYLINE
  5
14D
330
EF
100
AcDbEntity
  8
_U+30EC_U+30A4_U+30E4_U+30FC 1
370
     0
100
AcDb2dPolyline
 66
     1
 10
0.0
 20
0.0
 30
0.0
  0
VERTEX
  5
14E
330
14D
100
AcDbEntity
  8
_U+30EC_U+30A4_U+30E4_U+30FC 1
370
     0
100
AcDbVertex
100
AcDb2dVertex
 10
114.4119655746956
 20
-129.1152885961934
 30
0.0
  0
VERTEX
  5
14F
330
14D
100
AcDbEntity
  8
_U+30EC_U+30A4_U+30E4_U+30FC 1
370
     0
100
AcDbVertex
100
AcDb2dVertex
 10
114.5225531397721
 20
-129.1152885961934
 30
0.0
  0
VERTEX
  5
150
330
14D
100
AcDbEntity
  8
_U+30EC_U+30A4_U+30E4_U+30FC 1
370
     0
100
AcDbVertex
100
AcDb2dVertex
 10
114.5225531397721
 20
-129.0074571075051
 30
0.0
  0
VERTEX
  5
151
330
14D
100
AcDbEntity
  8
_U+30EC_U+30A4_U+30E4_U+30FC 1
370
     0
100
AcDbVertex
100
AcDb2dVertex
 10
114.4119655746956
 20
-129.0074571075051
 30
0.0
  0
VERTEX
  5
152
330
14D
100
AcDbEntity
  8
_U+30EC_U+30A4_U+30E4_U+30FC 1
370
     0
100
AcDbVertex
100
AcDb2dVertex
 10
114.4119655746956
 20
-129.1152885961934
 30
0.0
  0
SEQEND
  5
153
330
14D
100
AcDbEntity
  8
_U+30EC_U+30A4_U+30E4_U+30FC 1
370
     0
  0
POLYLINE
  5
154
330
EF
100
AcDbEntity
  8
_U+30EC_U+30A4_U+30E4_U+30FC 1
370
     0
100
AcDb2dPolyline
 66
     1
 10
0.0
 20
0.0
 30
0.0
  0
VERTEX
  5
155
330
154
100
AcDbEntity
  8
_U+30EC_U+30A4_U+30E4_U+30FC 1
370
     0
100
AcDbVertex
100
AcDb2dVertex
 10
114.4119655746956
 20
-129.4115668079249
 30
0.0
  0
VERTEX
  5
156
330
154
100
AcDbEntity
  8
_U+30EC_U+30A4_U+30E4_U+30FC 1
370
     0
100
AcDbVertex
100
AcDb2dVertex
 10
114.5225531397721
 20
-129.4115668079249
 30
0.0
  0
VERTEX
  5
157
330
154
100
AcDbEntity
  8
_U+30EC_U+30A4_U+30E4_U+30FC 1
370
     0
100
AcDbVertex
100
AcDb2dVertex
 10
114.5225531397721
 20
-129.3037353192366
 30
0.0
  0
VERTEX
  5
158
330
154
100
AcDbEntity
  8
_U+30EC_U+30A4_U+30E4_U+30FC 1
370
     0
100
AcDbVertex
100
AcDb2dVertex
 10
114.4119655746956
 20
-129.3037353192366
 30
0.0
  0
VERTEX
  5
159
330
154
100
AcDbEntity
  8
_U+30EC_U+30A4_U+30E4_U+30FC 1
370
     0
100
AcDbVertex
100
AcDb2dVertex
 10
114.4119655746956
 20
-129.4115668079249
 30
0.0
  0
SEQEND
  5
15A
330
154
100
AcDbEntity
  8
_U+30EC_U+30A4_U+30E4_U+30FC 1
370
     0
  0
HATCH
  5
15B
330
EF
100
AcDbEntity
  8
_U+30EC_U+30A4_U+30E4_U+30FC 1
 62
   179
420
  2234388
100
AcDbHatch
 10
0.0
 20
0.0
 30
0.0
210
0.0
220
0.0
230
1.0
  2
SOLID
 70
     1
 71
     0
 91
       10
 92
        1
 93
        1
 72
     4
 94
        3
 73
     0
 74
     1
 95
       92
 96
       88
 40
0.0
 40
0.0
 40
0.0
 40
0.0
 40
1.0
 40
1.0
 40
1.0
 40
2.0
 40
2.0
 40
2.0
 40
3.0
 40
3.0
 40
3.0
 40
4.0
 40
4.0
 40
4.0
 40
5.0
 40
5.0
 40
5.0
 40
6.0
 40
6.0
 40
6.0
 40
7.0
 40
7.0
 40
7.0
 40
8.0
 40
8.0
 40
8.0
 40
9.0
 40
9.0
 40
9.0
 40
10.0
 40
10.0
 40
10.0
 40
11.0
 40
11.0
 40
11.0
 40
12.0
 40
12.0
 40
12.0
 40
13.0
 40
13.0
 40
13.0
 40
14.0
 40
14.0
 40
14.0
 40
15.0
 40
15.0
 40
15.0
 40
16.0
 40
16.0
 40
16.0
 40
17.0
 40
17.0
 40
17.0
 40
18.0
 40
18.0
 40
18.0
 40
19.0
 40
19.0
 40
19.0
 40
20.0
 40
20.0
 40
20.0
 40
21.0
 40
21.0
 40
21.0
 40
22.0
 40
22.0
 40
22.0
 40
23.0
 40
23.0
 40
23.0
 40
24.0
 40
24.0
 40
24.0
 40
25.0
 40
25.0
 40
25.0
 40
26.0
 40
26.0
 40
26.0
 40
27.0
 40
27.0
 40
27.0
 40
28.0
 40
28.0
 40
28.0
 40
29.0
 40
29.0
 40
29.0
 40
29.0
 10
114.8598279877781
 20
-129.7078450196564
 10
114.8598279877781
 20
-129.7078450196564
 10
114.8598279877781
 20
-130.4440619248543
 10
114.8598279877781
 20
-130.4440619248543
 10
114.8598279877781
 20
-130.6366427624797
 10
114.7244357352078
 20
-130.6535237303574
 10
114.589387992186
 20
-130.6535237303574
 10
114.5759521197935
 20
-130.6535237303574
 10
114.5511474322997
 20
-130.6535237303574
 10
114.5170409869957
 20
-130.6469780489355
 10
114.4977484522783
 20
-130.5181314777871
 10
114.4729437647845
 20
-130.4568087781497
 10
114.4254014470881
 20
-130.378260601086
 10
114.5170409869957
 20
-130.4016872503857
 10
114.562516247401
 20
-130.4037543076768
 10
114.5663058524348
 20
-130.4037543076768
 10
114.5835313298611
 20
-130.4037543076768
 10
114.6024793550299
 20
-130.3954860785122
 10
114.6024793550299
 20
-130.3510443467525
 10
114.6024793550299
 20
-130.3510443467525
 10
114.6024793550299
 20
-130.3086696722839
 10
114.6024793550299
 20
-130.3086696722839
 10
114.5549370373335
 20
-130.329684754744
 10
114.5456352795233
 20
-130.3338188693263
 10
114.5187635347384
 20
-130.3531114040437
 10
114.5170409869957
 20
-130.3317518120351
 10
114.5149739297046
 20
-130.3190049587397
 10
114.5111843246708
 20
-130.302123990862
 10
114.465364554717
 20
-130.3107367295751
 10
114.3148138820116
 20
-130.3362304361659
 10
114.1205104966435
 20
-130.3613796332083
 10
114.1053520765084
 20
-130.3975531358034
 10
114.0957058091497
 20
-130.4144341036811
 10
114.0767577839808
 20
-130.4144341036811
 10
114.0595323065546
 20
-130.4144341036811
 10
114.0498860391959
 20
-130.3996201930945
 10
114.0460964341621
 20
-130.3827392252168
 10
114.0460964341621
 20
-130.3827392252168
 10
114.0137125366007
 20
-130.2177191514733
 10
114.0137125366007
 20
-130.2177191514733
 10
114.0137125366007
 20
-130.2177191514733
 10
114.0137125366007
 20
-130.6662705836529
 10
114.0137125366007
 20
-130.6662705836529
 10
114.0137125366007
 20
-130.6662705836529
 10
113.7622205661775
 20
-130.6662705836529
 10
113.7622205661775
 20
-130.6662705836529
 10
113.7622205661775
 20
-130.6662705836529
 10
113.7622205661775
 20
-130.1391709744097
 10
113.7622205661775
 20
-130.1391709744097
 10
113.7449950887513
 20
-130.1667317382916
 10
113.6747151408522
 20
-130.2852430229842
 10
113.472488035868
 20
-130.2852430229842
 10
113.4686984308342
 20
-130.2304660047688
 10
113.4611192207667
 20
-130.1687987955828
 10
113.4115098457791
 20
-130.0609673068945
 10
113.4115098457791
 20
-130.0609673068945
 10
113.4115098457791
 20
-130.6662705836529
 10
113.4115098457791
 20
-130.6662705836529
 10
113.4115098457791
 20
-130.6662705836529
 10
113.1507161175457
 20
-130.6662705836529
 10
113.1507161175457
 20
-130.6662705836529
 10
113.1507161175457
 20
-130.6662705836529
 10
113.1507161175457
 20
-128.7728461049596
 10
113.1507161175457
 20
-128.7728461049596
 10
113.1507161175457
 20
-128.7728461049596
 10
113.7449950887513
 20
-128.7728461049596
 10
113.7449950887513
 20
-128.7728461049596
 10
113.7449950887513
 20
-128.7728461049596
 10
113.8138969984563
 20
-128.8572509443482
 10
113.8138969984563
 20
-128.8572509443482
 10
113.8138969984563
 20
-128.8572509443482
 10
113.8138969984563
 20
-128.7728461049596
 10
113.8138969984563
 20
-128.7728461049596
 10
113.8138969984563
 20
-128.7728461049596
 10
114.7799017725203
 20
-128.7728461049596
 10
114.7799017725203
 20
-128.7728461049596
 10
114.7799017725203
 20
-128.7728461049596
 10
114.7799017725203
 20
-129.6337754667235
 10
114.7799017725203
 20
-129.6337754667235
 10
114.7799017725203
 20
-129.6337754667235
 10
114.4119655746956
 20
-129.6337754667235
 10
114.4119655746956
 20
-129.6337754667235
 10
114.4119655746956
 20
-129.6337754667235
 10
114.4119655746956
 20
-129.7078450196564
 10
114.4119655746956
 20
-129.7078450196564
 10
114.4119655746956
 20
-129.7078450196564
 10
114.8598279877781
 20
-129.7078450196564
 10
114.8598279877781
 20
-129.7078450196564
 97
        0
 97
        0
 92
        1
 93
        1
 72
     4
 94
        3
 73
     0
 74
     1
 95
       14
 96
       10
 40
0.0
 40
0.0
 40
0.0
 40
0.0
 40
1.0
 40
1.0
 40
1.0
 40
2.0
 40
2.0
 40
2.0
 40
3.0
 40
3.0
 40
3.0
 40
3.0
 10
113.4115098457791
 20
-129.0350178713871
 10
113.4115098457791
 20
-129.0350178713871
 10
113.4115098457791
 20
-129.3691921334563
 10
113.4115098457791
 20
-129.3691921334563
 10
113.444238252889
 20
-129.3037353192366
 10
113.4917805705854
 20
-129.1724771812486
 10
113.520374863113
 20
-129.0350178713871
 10
113.520374863113
 20
-129.0350178713871
 10
113.4115098457791
 20
-129.0350178713871
 10
113.4115098457791
 20
-129.0350178713871
 97
        0
 97
        0
 92
        1
 93
        1
 72
     4
 94
        3
 73
     0
 74
     1
 95
       17
 96
       13
 40
0.0
 40
0.0
 40
0.0
 40
0.0
 40
1.0
 40
1.0
 40
1.0
 40
2.0
 40
2.0
 40
2.0
 40
3.0
 40
3.0
 40
3.0
 40
4.0
 40
4.0
 40
4.0
 40
4.0
 10
113.4115098457791
 20
-129.972083843375
 10
113.4287353232053
 20
-129.9765624675059
 10
113.4401041383067
 20
-129.978629524797
 10
113.4535400106991
 20
-129.978629524797
 10
113.541389945573
 20
-129.978629524797
 10
113.5451795506068
 20
-129.8980142904422
 10
113.5451795506068
 20
-129.847371386809
 10
113.5451795506068
 20
-129.7267930448253
 10
113.4897135132942
 20
-129.6272297853015
 10
113.4115098457791
 20
-129.5131971247398
 10
113.4115098457791
 20
-129.5131971247398
 10
113.4115098457791
 20
-129.972083843375
 10
113.4115098457791
 20
-129.972083843375
 97
        0
 97
        0
 92
        1
 93
        1
 72
     4
 94
        3
 73
     0
 74
     1
 95
       23
 96
       19
 40
0.0
 40
0.0
 40
0.0
 40
0.0
 40
1.0
 40
1.0
 40
1.0
 40
2.0
 40
2.0
 40
2.0
 40
3.0
 40
3.0
 40
3.0
 40
4.0
 40
4.0
 40
4.0
 40
5.0
 40
5.0
 40
5.0
 40
6.0
 40
6.0
 40
6.0
 40
6.0
 10
114.1776990816986
 20
-129.7078450196564
 10
114.1776990816986
 20
-129.7078450196564
 10
114.1776990816986
 20
-129.6337754667235
 10
114.1776990816986
 20
-129.6337754667235
 10
114.1776990816986
 20
-129.6337754667235
 10
113.8138969984563
 20
-129.6337754667235
 10
113.8138969984563
 20
-129.6337754667235
 10
113.8138969984563
 20
-129.6337754667235
 10
113.8138969984563
 20
-128.8913573896522
 10
113.8138969984563
 20
-128.8913573896522
 10
113.7870252536713
 20
-129.0243380753828
 10
113.6764376885948
 20
-129.3609239042917
 10
113.6402641859997
 20
-129.4580755969758
 10
113.672648083561
 20
-129.5025173287355
 10
113.7298366686162
 20
-129.5831325630903
 10
113.7718668335362
 20
-129.7078450196564
 10
113.7718668335362
 20
-129.7078450196564
 10
114.1776990816986
 20
-129.7078450196564
 10
114.1776990816986
 20
-129.7078450196564
 97
        0
 97
        0
 92
        1
 93
        1
 72
     4
 94
        3
 73
     0
 74
     1
 95
       17
 96
       13
 40
0.0
 40
0.0
 40
0.0
 40
0.0
 40
1.0
 40
1.0
 40
1.0
 40
2.0
 40
2.0
 40
2.0
 40
3.0
 40
3.0
 40
3.0
 40
4.0
 40
4.0
 40
4.0
 40
4.0
 10
114.0137125366007
 20
-130.1247015733716
 10
114.051953096487
 20
-130.1222900065319
 10
114.1356689167786
 20
-130.1160888346585
 10
114.1776990816986
 20
-130.1119547200762
 10
114.1776990816986
 20
-130.1119547200762
 10
114.1776990816986
 20
-129.9531358182062
 10
114.1776990816986
 20
-129.9531358182062
 10
114.1776990816986
 20
-129.9531358182062
 10
114.0137125366007
 20
-129.9531358182062
 10
114.0137125366007
 20
-129.9531358182062
 10
114.0137125366007
 20
-129.9531358182062
 10
114.0137125366007
 20
-130.1247015733716
 10
114.0137125366007
 20
-130.1247015733716
 97
        0
 97
        0
 92
        1
 93
        4
 72
     1
 10
114.1776990816986
 20
-129.0074571075051
 11
114.0709011216559
 21
-129.0074571075051
 72
     1
 10
114.0709011216559
 20
-129.0074571075051
 11
114.0709011216559
 21
-129.1152885961934
 72
     1
 10
114.0709011216559
 20
-129.1152885961934
 11
114.1776990816986
 21
-129.1152885961934
 72
     1
 10
114.1776990816986
 20
-129.1152885961934
 11
114.1776990816986
 21
-129.0074571075051
 97
        0
 92
        1
 93
        4
 72
     1
 10
114.1776990816986
 20
-129.3037353192366
 11
114.0709011216559
 21
-129.3037353192366
 72
     1
 10
114.0709011216559
 20
-129.3037353192366
 11
114.0709011216559
 21
-129.4115668079249
 72
     1
 10
114.0709011216559
 20
-129.4115668079249
 11
114.1776990816986
 21
-129.4115668079249
 72
     1
 10
114.1776990816986
 20
-129.4115668079249
 11
114.1776990816986
 21
-129.3037353192366
 97
        0
 92
        1
 93
        1
 72
     4
 94
        3
 73
     0
 74
     1
 95
       26
 96
       22
 40
0.0
 40
0.0
 40
0.0
 40
0.0
 40
1.0
 40
1.0
 40
1.0
 40
2.0
 40
2.0
 40
2.0
 40
3.0
 40
3.0
 40
3.0
 40
4.0
 40
4.0
 40
4.0
 40
5.0
 40
5.0
 40
5.0
 40
6.0
 40
6.0
 40
6.0
 40
7.0
 40
7.0
 40
7.0
 40
7.0
 10
114.6024793550299
 20
-129.9531358182062
 10
114.6024793550299
 20
-129.9531358182062
 10
114.4064534219192
 20
-129.9531358182062
 10
114.4064534219192
 20
-129.9531358182062
 10
114.4064534219192
 20
-129.9531358182062
 10
114.4064534219192
 20
-130.1033419813631
 10
114.4064534219192
 20
-130.1033419813631
 10
114.4064534219192
 20
-130.1033419813631
 10
114.4729437647845
 20
-130.0950737521985
 10
114.4825900321432
 20
-130.0926621853588
 10
114.4712212170419
 20
-130.054766135021
 10
114.4636420069744
 20
-130.0378851671433
 10
114.4577853446495
 20
-130.0210041992656
 10
114.4577853446495
 20
-130.0210041992656
 10
114.562516247401
 20
-129.9934434353836
 10
114.562516247401
 20
-129.9934434353836
 10
114.5721625147597
 20
-130.027205371139
 10
114.5835313298611
 20
-130.0630343641856
 10
114.6024793550299
 20
-130.1436495985405
 10
114.6024793550299
 20
-130.1436495985405
 10
114.6024793550299
 20
-129.9531358182062
 10
114.6024793550299
 20
-129.9531358182062
 97
        0
 97
        0
 92
        1
 93
        4
 72
     1
 10
114.4119655746956
 20
-129.1152885961934
 11
114.5225531397721
 21
-129.1152885961934
 72
     1
 10
114.5225531397721
 20
-129.1152885961934
 11
114.5225531397721
 21
-129.0074571075051
 72
     1
 10
114.5225531397721
 20
-129.0074571075051
 11
114.4119655746956
 21
-129.0074571075051
 72
     1
 10
114.4119655746956
 20
-129.0074571075051
 11
114.4119655746956
 21
-129.1152885961934
 97
        0
 92
        1
 93
        4
 72
     1
 10
114.4119655746956
 20
-129.4115668079249
 11
114.5225531397721
 21
-129.4115668079249
 72
     1
 10
114.5225531397721
 20
-129.4115668079249
 11
114.5225531397721
 21
-129.3037353192366
 72
     1
 10
114.5225531397721
 20
-129.3037353192366
 11
114.4119655746956
 21
-129.3037353192366
 72
     1
 10
114.4119655746956
 20
-129.3037353192366
 11
114.4119655746956
 21
-129.4115668079249
 97
        0
 75
     2
 76
     1
 98
        0
  0
ENDBLK
  5
F2
330
EF
100
AcDbEntity
  8
0
100
AcDbBlockEnd
  0
ENDSEC
  0
SECTION
  2
ENTITIES
  0
SPLINE
  5
41
330
1F
100
AcDbEntity
  8
_U+30EC_U+30A4_U+30E4_U+30FC 1
 62
   179
420
  2234388
370
     9
100
AcDbSpline
210
0.0
220
0.0
230
1.0
 70
    11
 71
     3
 72
    17
 73
    13
 74
     0
 42
0.0000000001
 43
0.0000000001
 12
1.0
 22
0.0
 32
0.0
 13
1.0
 23
0.0
 33
0.0
 40
0.0
 40
0.0
 40
0.0
 40
0.0
 40
1.0
 40
1.0
 40
1.0
 40
2.0
 40
2.0
 40
2.0
 40
3.0
 40
3.0
 40
3.0
 40
4.0
 40
4.0
 40
4.0
 40
4.0
 10
119.5072438955606
 20
-134.7824541329709
 30
0.0
 10
119.5072438955606
 20
-134.837593299624
 30
0.0
 10
119.5520466721954
 20
-134.8823960773907
 30
0.0
 10
119.6075033374473
 20
-134.8823960773907
 30
0.0
 10
119.6626425027072
 20
-134.8823960773907
 30
0.0
 10
119.7074100015651
 20
-134.837593299624
 30
0.0
 10
119.7074100015651
 20
-134.7824541329709
 30
0.0
 10
119.7074100015651
 20
-134.727350244096
 30
0.0
 10
119.6626425027072
 20
-134.6825474663293
 30
0.0
 10
119.6075033374473
 20
-134.6825474663293
 30
0.0
 10
119.5520466721954
 20
-134.6825474663293
 30
0.0
 10
119.5072438955606
 20
-134.727350244096
 30
0.0
 10
119.5072438955606
 20
-134.7824541329709
 30
0.0
  0
SPLINE
  5
42
330
1F
100
AcDbEntity
  8
_U+30EC_U+30A4_U+30E4_U+30FC 1
 62
   179
420
  2234388
370
     9
100
AcDbSpline
210
0.0
220
0.0
230
1.0
 70
    11
 71
     3
 72
    17
 73
    13
 74
     0
 42
0.0000000001
 43
0.0000000001
 12
1.0
 22
0.0
 32
0.0
 13
1.0
 23
0.0
 33
0.0
 40
0.0
 40
0.0
 40
0.0
 40
0.0
 40
1.0
 40
1.0
 40
1.0
 40
2.0
 40
2.0
 40
2.0
 40
3.0
 40
3.0
 40
3.0
 40
4.0
 40
4.0
 40
4.0
 40
4.0
 10
119.5072438955606
 20
-126.1352710795775
 30
0.0
 10
119.5072438955606
 20
-126.1904102462302
 30
0.0
 10
119.5520466721954
 20
-126.2351777462191
 30
0.0
 10
119.6075033374473
 20
-126.2351777462191
 30
0.0
 10
119.6626425027072
 20
-126.2351777462191
 30
0.0
 10
119.7074100015651
 20
-126.1904102462302
 30
0.0
 10
119.7074100015651
 20
-126.1352710795775
 30
0.0
 10
119.7074100015651
 20
-126.0801671907022
 30
0.0
 10
119.6626425027072
 20
-126.0353644129355
 30
0.0
 10
119.6075033374473
 20
-126.0353644129355
 30
0.0
 10
119.5520466721954
 20
-126.0353644129355
 30
0.0
 10
119.5072438955606
 20
-126.0801671907022
 30
0.0
 10
119.5072438955606
 20
-126.1352710795775
 30
0.0
  0
POLYLINE
  5
43
330
1F
100
AcDbEntity
  8
_U+30EC_U+30A4_U+30E4_U+30FC 1
 62
   179
420
  2234388
370
     9
100
AcDb2dPolyline
 66
     1
 10
0.0
 20
0.0
 30
0.0
  0
VERTEX
  5
44
330
43
100
AcDbEntity
  8
_U+30EC_U+30A4_U+30E4_U+30FC 1
 62
   179
420
  2234388
370
     9
100
AcDbVertex
100
AcDb2dVertex
 10
119.6075033374473
 20
-134.7824541329709
 30
0.0
  0
VERTEX
  5
45
330
43
100
AcDbEntity
  8
_U+30EC_U+30A4_U+30E4_U+30FC 1
 62
   179
420
  2234388
370
     9
100
AcDbVertex
100
AcDb2dVertex
 10
119.6075033374473
 20
-126.1352710795775
 30
0.0
  0
SEQEND
  5
46
330
43
100
AcDbEntity
  8
_U+30EC_U+30A4_U+30E4_U+30FC 1
 62
   179
420
  2234388
370
     9
  0
POLYLINE
  5
47
330
1F
100
AcDbEntity
  8
_U+30EC_U+30A4_U+30E4_U+30FC 1
 62
   179
420
  2234388
370
     9
100
AcDb2dPolyline
 66
     1
 10
0.0
 20
0.0
 30
0.0
  0
VERTEX
  5
48
330
47
100
AcDbEntity
  8
_U+30EC_U+30A4_U+30E4_U+30FC 1
 62
   179
420
  2234388
370
     9
100
AcDbVertex
100
AcDb2dVertex
 10
89.1756230027181
 20
-134.7817838551936
 30
0.0
  0
VERTEX
  5
49
330
47
100
AcDbEntity
  8
_U+30EC_U+30A4_U+30E4_U+30FC 1
 62
   179
420
  2234388
370
     9
100
AcDbVertex
100
AcDb2dVertex
 10
120.6072755341632
 20
-134.7817838551936
 30
0.0
  0
SEQEND
  5
4A
330
47
100
AcDbEntity
  8
_U+30EC_U+30A4_U+30E4_U+30FC 1
 62
   179
420
  2234388
370
     9
  0
POLYLINE
  5
4B
330
1F
100
AcDbEntity
  8
_U+30EC_U+30A4_U+30E4_U+30FC 1
 62
   179
420
  2234388
370
     9
100
AcDb2dPolyline
 66
     1
 10
0.0
 20
0.0
 30
0.0
  0
VERTEX
  5
4C
330
4B
100
AcDbEntity
  8
_U+30EC_U+30A4_U+30E4_U+30FC 1
 62
   179
420
  2234388
370
     9
100
AcDbVertex
100
AcDb2dVertex
 10
118.147497263584
 20
-126.1352710795775
 30
0.0
  0
VERTEX
  5
4D
330
4B
100
AcDbEntity
  8
_U+30EC_U+30A4_U+30E4_U+30FC 1
 62
   179
420
  2234388
370
     9
100
AcDbVertex
100
AcDb2dVertex
 10
120.6072755341632
 20
-126.1352710795775
 30
0.0
  0
SEQEND
  5
4E
330
4B
100
AcDbEntity
  8
_U+30EC_U+30A4_U+30E4_U+30FC 1
 62
   179
420
  2234388
370
     9
  0
INSERT
  5
50
330
1F
100
AcDbEntity
  8
_U+30EC_U+30A4_U+30E4_U+30FC 1
100
AcDbBlockReference
  2
block 2
 10
0.0
 20
0.0
 30
0.0
  0
SPLINE
  5
56
330
1F
100
AcDbEntity
  8
_U+30EC_U+30A4_U+30E4_U+30FC 1
 62
   179
420
  2234388
370
     9
100
AcDbSpline
210
0.0
220
0.0
230
1.0
 70
    11
 71
     3
 72
    17
 73
    13
 74
     0
 42
0.0000000001
 43
0.0000000001
 12
1.0
 22
0.0
 32
0.0
 13
1.0
 23
0.0
 33
0.0
 40
0.0
 40
0.0
 40
0.0
 40
0.0
 40
1.0
 40
1.0
 40
1.0
 40
2.0
 40
2.0
 40
2.0
 40
3.0
 40
3.0
 40
3.0
 40
4.0
 40
4.0
 40
4.0
 40
4.0
 10
84.41481645750973
 20
-138.1335255210224
 30
0.0
 10
84.41481645750973
 20
-138.0780335765915
 30
0.0
 10
84.37004895865184
 20
-138.033266076603
 30
0.0
 10
84.31490979339189
 20
-138.033266076603
 30
0.0
 10
84.25945312814004
 20
-138.033266076603
 30
0.0
 10
84.21468562928216
 20
-138.0780335765915
 30
0.0
 10
84.21468562928216
 20
-138.1335255210224
 30
0.0
 10
84.21468562928216
 20
-138.1886294098973
 30
0.0
 10
84.25945312814004
 20
-138.233432187664
 30
0.0
 10
84.31490979339189
 20
-138.233432187664
 30
0.0
 10
84.37004895865184
 20
-138.233432187664
 30
0.0
 10
84.41481645750973
 20
-138.1886294098973
 30
0.0
 10
84.41481645750973
 20
-138.1335255210224
 30
0.0
  0
SPLINE
  5
57
330
1F
100
AcDbEntity
  8
_U+30EC_U+30A4_U+30E4_U+30FC 1
 62
   179
420
  2234388
370
     9
100
AcDbSpline
210
0.0
220
0.0
230
1.0
 70
    11
 71
     3
 72
    17
 73
    13
 74
     0
 42
0.0000000001
 43
0.0000000001
 12
1.0
 22
0.0
 32
0.0
 13
1.0
 23
0.0
 33
0.0
 40
0.0
 40
0.0
 40
0.0
 40
0.0
 40
1.0
 40
1.0
 40
1.0
 40
2.0
 40
2.0
 40
2.0
 40
3.0
 40
3.0
 40
3.0
 40
4.0
 40
4.0
 40
4.0
 40
4.0
 10
88.51723608898179
 20
-138.1335255210224
 30
0.0
 10
88.51723608898179
 20
-138.0780335765915
 30
0.0
 10
88.47246635399046
 20
-138.033266076603
 30
0.0
 10
88.4173271887305
 20
-138.033266076603
 30
0.0
 10
88.36151774570988
 20
-138.033266076603
 30
0.0
 10
88.316750246852
 20
-138.0780335765915
 30
0.0
 10
88.316750246852
 20
-138.1335255210224
 30
0.0
 10
88.316750246852
 20
-138.1886294098973
 30
0.0
 10
88.36151774570988
 20
-138.233432187664
 30
0.0
 10
88.4173271887305
 20
-138.233432187664
 30
0.0
 10
88.47246635399046
 20
-138.233432187664
 30
0.0
 10
88.51723608898179
 20
-138.1886294098973
 30
0.0
 10
88.51723608898179
 20
-138.1335255210224
 30
0.0
  0
POLYLINE
  5
58
330
1F
100
AcDbEntity
  8
_U+30EC_U+30A4_U+30E4_U+30FC 1
 62
   179
420
  2234388
370
     9
100
AcDb2dPolyline
 66
     1
 10
0.0
 20
0.0
 30
0.0
  0
VERTEX
  5
59
330
58
100
AcDbEntity
  8
_U+30EC_U+30A4_U+30E4_U+30FC 1
 62
   179
420
  2234388
370
     9
100
AcDbVertex
100
AcDb2dVertex
 10
84.31459442336595
 20
-138.1335255210224
 30
0.0
  0
VERTEX
  5
5A
330
58
100
AcDbEntity
  8
_U+30EC_U+30A4_U+30E4_U+30FC 1
 62
   179
420
  2234388
370
     9
100
AcDbVertex
100
AcDb2dVertex
 10
88.4170096887386
 20
-138.1335255210224
 30
0.0
  0
SEQEND
  5
5B
330
58
100
AcDbEntity
  8
_U+30EC_U+30A4_U+30E4_U+30FC 1
 62
   179
420
  2234388
370
     9
  0
POLYLINE
  5
5C
330
1F
100
AcDbEntity
  8
_U+30EC_U+30A4_U+30E4_U+30FC 1
 62
   179
420
  2234388
370
     9
100
AcDb2dPolyline
 66
     1
 10
0.0
 20
0.0
 30
0.0
  0
VERTEX
  5
5D
330
5C
100
AcDbEntity
  8
_U+30EC_U+30A4_U+30E4_U+30FC 1
 62
   179
420
  2234388
370
     9
100
AcDbVertex
100
AcDb2dVertex
 10
84.31490979339189
 20
-139.020267743023
 30
0.0
  0
VERTEX
  5
5E
330
5C
100
AcDbEntity
  8
_U+30EC_U+30A4_U+30E4_U+30FC 1
 62
   179
420
  2234388
370
     9
100
AcDbVertex
100
AcDb2dVertex
 10
84.31490979339189
 20
-135.5018032994577
 30
0.0
  0
SEQEND
  5
5F
330
5C
100
AcDbEntity
  8
_U+30EC_U+30A4_U+30E4_U+30FC 1
 62
   179
420
  2234388
370
     9
  0
INSERT
  5
61
330
1F
100
AcDbEntity
  8
_U+30EC_U+30A4_U+30E4_U+30FC 1
100
AcDbBlockReference
  2
block 3
 10
0.0
 20
0.0
 30
0.0
  0
POLYLINE
  5
83
330
1F
100
AcDbEntity
  8
_U+30EC_U+30A4_U+30E4_U+30FC 1
 62
   179
420
  2234388
370
     9
100
AcDb2dPolyline
 66
     1
 10
0.0
 20
0.0
 30
0.0
  0
VERTEX
  5
84
330
83
100
AcDbEntity
  8
_U+30EC_U+30A4_U+30E4_U+30FC 1
 62
   179
420
  2234388
370
     9
100
AcDbVertex
100
AcDb2dVertex
 10
88.4173271887305
 20
-139.020267743023
 30
0.0
  0
VERTEX
  5
85
330
83
100
AcDbEntity
  8
_U+30EC_U+30A4_U+30E4_U+30FC 1
 62
   179
420
  2234388
370
     9
100
AcDbVertex
100
AcDb2dVertex
 10
88.4173271887305
 20
-135.5018032994577
 30
0.0
  0
SEQEND
  5
86
330
83
100
AcDbEntity
  8
_U+30EC_U+30A4_U+30E4_U+30FC 1
 62
   179
420
  2234388
370
     9
  0
SPLINE
  5
87
330
1F
100
AcDbEntity
  8
_U+30EC_U+30A4_U+30E4_U+30FC 1
 62
   179
420
  2234388
370
     9
100
AcDbSpline
210
0.0
220
0.0
230
1.0
 70
    11
 71
     3
 72
    17
 73
    13
 74
     0
 42
0.0000000001
 43
0.0000000001
 12
1.0
 22
0.0
 32
0.0
 13
1.0
 23
0.0
 33
0.0
 40
0.0
 40
0.0
 40
0.0
 40
0.0
 40
1.0
 40
1.0
 40
1.0
 40
2.0
 40
2.0
 40
2.0
 40
3.0
 40
3.0
 40
3.0
 40
4.0
 40
4.0
 40
4.0
 40
4.0
 10
84.94366561068432
 20
-122.4790116360468
 30
0.0
 10
84.94366561068432
 20
-122.4235196916163
 30
0.0
 10
84.89886283404957
 20
-122.3787521916277
 30
0.0
 10
84.84376108990031
 20
-122.3787521916277
 30
0.0
 10
84.78861978130654
 20
-122.3787521916277
 30
0.0
 10
84.74385228244866
 20
-122.4235196916163
 30
0.0
 10
84.74385228244866
 20
-122.4790116360468
 30
0.0
 10
84.74385228244866
 20
-122.534115524922
 30
0.0
 10
84.78861978130654
 20
-122.5789183026887
 30
0.0
 10
84.84376108990031
 20
-122.5789183026887
 30
0.0
 10
84.89886283404957
 20
-122.5789183026887
 30
0.0
 10
84.94366561068432
 20
-122.534115524922
 30
0.0
 10
84.94366561068432
 20
-122.4790116360468
 30
0.0
  0
SPLINE
  5
88
330
1F
100
AcDbEntity
  8
_U+30EC_U+30A4_U+30E4_U+30FC 1
 62
   179
420
  2234388
370
     9
100
AcDbSpline
210
0.0
220
0.0
230
1.0
 70
    11
 71
     3
 72
    17
 73
    13
 74
     0
 42
0.0000000001
 43
0.0000000001
 12
1.0
 22
0.0
 32
0.0
 13
1.0
 23
0.0
 33
0.0
 40
0.0
 40
0.0
 40
0.0
 40
0.0
 40
1.0
 40
1.0
 40
1.0
 40
2.0
 40
2.0
 40
2.0
 40
3.0
 40
3.0
 40
3.0
 40
4.0
 40
4.0
 40
4.0
 40
4.0
 10
87.81238608915815
 20
-122.4790116360468
 30
0.0
 10
87.81238608915815
 20
-122.4235196916163
 30
0.0
 10
87.76758331139143
 20
-122.3787521916277
 30
0.0
 10
87.71247720671272
 20
-122.3787521916277
 30
0.0
 10
87.6566677636921
 20
-122.3787521916277
 30
0.0
 10
87.61186498705733
 20
-122.4235196916163
 30
0.0
 10
87.61186498705733
 20
-122.4790116360468
 30
0.0
 10
87.61186498705733
 20
-122.534115524922
 30
0.0
 10
87.6566677636921
 20
-122.5789183026887
 30
0.0
 10
87.71247720671272
 20
-122.5789183026887
 30
0.0
 10
87.76758331139143
 20
-122.5789183026887
 30
0.0
 10
87.81238608915815
 20
-122.534115524922
 30
0.0
 10
87.81238608915815
 20
-122.4790116360468
 30
0.0
  0
SPLINE
  5
89
330
1F
100
AcDbEntity
  8
_U+30EC_U+30A4_U+30E4_U+30FC 1
 62
   179
420
  2234388
370
     9
100
AcDbSpline
210
0.0
220
0.0
230
1.0
 70
    11
 71
     3
 72
    17
 73
    13
 74
     0
 42
0.0000000001
 43
0.0000000001
 12
1.0
 22
0.0
 32
0.0
 13
1.0
 23
0.0
 33
0.0
 40
0.0
 40
0.0
 40
0.0
 40
0.0
 40
1.0
 40
1.0
 40
1.0
 40
2.0
 40
2.0
 40
2.0
 40
3.0
 40
3.0
 40
3.0
 40
4.0
 40
4.0
 40
4.0
 40
4.0
 10
116.4890184170064
 20
-122.4790116360468
 30
0.0
 10
116.4890184170064
 20
-122.4235196916163
 30
0.0
 10
116.4442156403717
 20
-122.3787521916277
 30
0.0
 10
116.3891117528886
 20
-122.3787521916277
 30
0.0
 10
116.3339725876287
 20
-122.3787521916277
 30
0.0
 10
116.2892050887708
 20
-122.4235196916163
 30
0.0
 10
116.2892050887708
 20
-122.4790116360468
 30
0.0
 10
116.2892050887708
 20
-122.534115524922
 30
0.0
 10
116.3339725876287
 20
-122.5789183026887
 30
0.0
 10
116.3891117528886
 20
-122.5789183026887
 30
0.0
 10
116.4442156403717
 20
-122.5789183026887
 30
0.0
 10
116.4890184170064
 20
-122.534115524922
 30
0.0
 10
116.4890184170064
 20
-122.4790116360468
 30
0.0
  0
POLYLINE
  5
8A
330
1F
100
AcDbEntity
  8
_U+30EC_U+30A4_U+30E4_U+30FC 1
 62
   179
420
  2234388
370
     9
100
AcDb2dPolyline
 66
     1
 10
0.0
 20
0.0
 30
0.0
  0
VERTEX
  5
8B
330
8A
100
AcDbEntity
  8
_U+30EC_U+30A4_U+30E4_U+30FC 1
 62
   179
420
  2234388
370
     9
100
AcDbVertex
100
AcDb2dVertex
 10
84.84376108990031
 20
-122.4790116360468
 30
0.0
  0
VERTEX
  5
8C
330
8A
100
AcDbEntity
  8
_U+30EC_U+30A4_U+30E4_U+30FC 1
 62
   179
420
  2234388
370
     9
100
AcDbVertex
100
AcDb2dVertex
 10
87.79964859337768
 20
-122.4790116360468
 30
0.0
  0
SEQEND
  5
8D
330
8A
100
AcDbEntity
  8
_U+30EC_U+30A4_U+30E4_U+30FC 1
 62
   179
420
  2234388
370
     9
  0
POLYLINE
  5
8E
330
1F
100
AcDbEntity
  8
_U+30EC_U+30A4_U+30E4_U+30FC 1
 62
   179
420
  2234388
370
     9
100
AcDb2dPolyline
 66
     1
 10
0.0
 20
0.0
 30
0.0
  0
VERTEX
  5
8F
330
8E
100
AcDbEntity
  8
_U+30EC_U+30A4_U+30E4_U+30FC 1
 62
   179
420
  2234388
370
     9
100
AcDbVertex
100
AcDb2dVertex
 10
84.84376108990031
 20
-124.9091566354393
 30
0.0
  0
VERTEX
  5
90
330
8E
100
AcDbEntity
  8
_U+30EC_U+30A4_U+30E4_U+30FC 1
 62
   179
420
  2234388
370
     9
100
AcDbVertex
100
AcDb2dVertex
 10
84.84376108990031
 20
-121.4788866362968
 30
0.0
  0
SEQEND
  5
91
330
8E
100
AcDbEntity
  8
_U+30EC_U+30A4_U+30E4_U+30FC 1
 62
   179
420
  2234388
370
     9
  0
INSERT
  5
93
330
1F
100
AcDbEntity
  8
_U+30EC_U+30A4_U+30E4_U+30FC 1
100
AcDbBlockReference
  2
block 4
 10
0.0
 20
0.0
 30
0.0
  0
SPLINE
  5
A3
330
1F
100
AcDbEntity
  8
_U+30EC_U+30A4_U+30E4_U+30FC 1
 62
   179
420
  2234388
370
     9
100
AcDbSpline
210
0.0
220
0.0
230
1.0
 70
    11
 71
     3
 72
    17
 73
    13
 74
     0
 42
0.0000000001
 43
0.0000000001
 12
1.0
 22
0.0
 32
0.0
 13
1.0
 23
0.0
 33
0.0
 40
0.0
 40
0.0
 40
0.0
 40
0.0
 40
1.0
 40
1.0
 40
1.0
 40
2.0
 40
2.0
 40
2.0
 40
3.0
 40
3.0
 40
3.0
 40
4.0
 40
4.0
 40
4.0
 40
4.0
 10
61.39574954477505
 20
-122.4790116360468
 30
0.0
 10
61.39574954477505
 20
-122.4235196916163
 30
0.0
 10
61.35094676814028
 20
-122.3787521916277
 30
0.0
 10
61.29584442912063
 20
-122.3787521916277
 30
0.0
 10
61.24070371539726
 20
-122.3787521916277
 30
0.0
 10
61.19593621653938
 20
-122.4235196916163
 30
0.0
 10
61.19593621653938
 20
-122.4790116360468
 30
0.0
 10
61.19593621653938
 20
-122.534115524922
 30
0.0
 10
61.24070371539726
 20
-122.5789183026887
 30
0.0
 10
61.29584442912063
 20
-122.5789183026887
 30
0.0
 10
61.35094676814028
 20
-122.5789183026887
 30
0.0
 10
61.39574954477505
 20
-122.534115524922
 30
0.0
 10
61.39574954477505
 20
-122.4790116360468
 30
0.0
  0
POLYLINE
  5
A4
330
1F
100
AcDbEntity
  8
_U+30EC_U+30A4_U+30E4_U+30FC 1
 62
   179
420
  2234388
370
     9
100
AcDb2dPolyline
 66
     1
 10
0.0
 20
0.0
 30
0.0
  0
VERTEX
  5
A5
330
A4
100
AcDbEntity
  8
_U+30EC_U+30A4_U+30E4_U+30FC 1
 62
   179
420
  2234388
370
     9
100
AcDbVertex
100
AcDb2dVertex
 10
61.29584442912063
 20
-122.4790116360468
 30
0.0
  0
VERTEX
  5
A6
330
A4
100
AcDbEntity
  8
_U+30EC_U+30A4_U+30E4_U+30FC 1
 62
   179
420
  2234388
370
     9
100
AcDbVertex
100
AcDb2dVertex
 10
84.7569403376703
 20
-122.4790116360468
 30
0.0
  0
SEQEND
  5
A7
330
A4
100
AcDbEntity
  8
_U+30EC_U+30A4_U+30E4_U+30FC 1
 62
   179
420
  2234388
370
     9
  0
POLYLINE
  5
A8
330
1F
100
AcDbEntity
  8
_U+30EC_U+30A4_U+30E4_U+30FC 1
 62
   179
420
  2234388
370
     9
100
AcDb2dPolyline
 66
     1
 10
0.0
 20
0.0
 30
0.0
  0
VERTEX
  5
A9
330
A8
100
AcDbEntity
  8
_U+30EC_U+30A4_U+30E4_U+30FC 1
 62
   179
420
  2234388
370
     9
100
AcDbVertex
100
AcDb2dVertex
 10
61.29584442912063
 20
-124.9091566354393
 30
0.0
  0
VERTEX
  5
AA
330
A8
100
AcDbEntity
  8
_U+30EC_U+30A4_U+30E4_U+30FC 1
 62
   179
420
  2234388
370
     9
100
AcDbVertex
100
AcDb2dVertex
 10
61.29584442912063
 20
-121.4788866362968
 30
0.0
  0
SEQEND
  5
AB
330
A8
100
AcDbEntity
  8
_U+30EC_U+30A4_U+30E4_U+30FC 1
 62
   179
420
  2234388
370
     9
  0
INSERT
  5
AD
330
1F
100
AcDbEntity
  8
_U+30EC_U+30A4_U+30E4_U+30FC 1
100
AcDbBlockReference
  2
block 5
 10
0.0
 20
0.0
 30
0.0
  0
POLYLINE
  5
B4
330
1F
100
AcDbEntity
  8
_U+30EC_U+30A4_U+30E4_U+30FC 1
 62
   179
420
  2234388
370
     9
100
AcDb2dPolyline
 66
     1
 10
0.0
 20
0.0
 30
0.0
  0
VERTEX
  5
B5
330
B4
100
AcDbEntity
  8
_U+30EC_U+30A4_U+30E4_U+30FC 1
 62
   179
420
  2234388
370
     9
100
AcDbVertex
100
AcDb2dVertex
 10
87.71212442894395
 20
-122.4790116360468
 30
0.0
  0
VERTEX
  5
B6
330
B4
100
AcDbEntity
  8
_U+30EC_U+30A4_U+30E4_U+30FC 1
 62
   179
420
  2234388
370
     9
100
AcDbVertex
100
AcDb2dVertex
 10
116.3891117528886
 20
-122.4790116360468
 30
0.0
  0
SEQEND
  5
B7
330
B4
100
AcDbEntity
  8
_U+30EC_U+30A4_U+30E4_U+30FC 1
 62
   179
420
  2234388
370
     9
  0
POLYLINE
  5
B8
330
1F
100
AcDbEntity
  8
_U+30EC_U+30A4_U+30E4_U+30FC 1
 62
   179
420
  2234388
370
     9
100
AcDb2dPolyline
 66
     1
 10
0.0
 20
0.0
 30
0.0
  0
VERTEX
  5
B9
330
B8
100
AcDbEntity
  8
_U+30EC_U+30A4_U+30E4_U+30FC 1
 62
   179
420
  2234388
370
     9
100
AcDbVertex
100
AcDb2dVertex
 10
87.71247720671272
 20
-124.9091566354393
 30
0.0
  0
VERTEX
  5
BA
330
B8
100
AcDbEntity
  8
_U+30EC_U+30A4_U+30E4_U+30FC 1
 62
   179
420
  2234388
370
     9
100
AcDbVertex
100
AcDb2dVertex
 10
87.71247720671272
 20
-121.4788866362968
 30
0.0
  0
SEQEND
  5
BB
330
B8
100
AcDbEntity
  8
_U+30EC_U+30A4_U+30E4_U+30FC 1
 62
   179
420
  2234388
370
     9
  0
POLYLINE
  5
BC
330
1F
100
AcDbEntity
  8
_U+30EC_U+30A4_U+30E4_U+30FC 1
 62
   179
420
  2234388
370
     9
100
AcDb2dPolyline
 66
     1
 10
0.0
 20
0.0
 30
0.0
  0
VERTEX
  5
BD
330
BC
100
AcDbEntity
  8
_U+30EC_U+30A4_U+30E4_U+30FC 1
 62
   179
420
  2234388
370
     9
100
AcDbVertex
100
AcDb2dVertex
 10
116.3891117528886
 20
-123.939017746793
 30
0.0
  0
VERTEX
  5
BE
330
BC
100
AcDbEntity
  8
_U+30EC_U+30A4_U+30E4_U+30FC 1
 62
   179
420
  2234388
370
     9
100
AcDbVertex
100
AcDb2dVertex
 10
116.3891117528886
 20
-121.4788866362968
 30
0.0
  0
SEQEND
  5
BF
330
BC
100
AcDbEntity
  8
_U+30EC_U+30A4_U+30E4_U+30FC 1
 62
   179
420
  2234388
370
     9
  0
INSERT
  5
C1
330
1F
100
AcDbEntity
  8
_U+30EC_U+30A4_U+30E4_U+30FC 1
100
AcDbBlockReference
  2
block 6
 10
0.0
 20
0.0
 30
0.0
  0
INSERT
  5
CA
330
1F
100
AcDbEntity
  8
_U+30EC_U+30A4_U+30E4_U+30FC 1
100
AcDbBlockReference
  2
block 7
 10
0.0
 20
0.0
 30
0.0
  0
INSERT
  5
DD
330
1F
100
AcDbEntity
  8
_U+30EC_U+30A4_U+30E4_U+30FC 1
100
AcDbBlockReference
  2
block 8
 10
0.0
 20
0.0
 30
0.0
  0
INSERT
  5
F0
330
1F
100
AcDbEntity
  8
_U+30EC_U+30A4_U+30E4_U+30FC 1
100
AcDbBlockReference
  2
block 9
 10
0.0
 20
0.0
 30
0.0
  0
SPLINE
  5
15C
330
1F
100
AcDbEntity
  8
_U+30EC_U+30A4_U+30E4_U+30FC 1
 62
     7
420
 16777215
370
    25
100
AcDbSpline
210
0.0
220
0.0
230
1.0
 70
    11
 71
     3
 72
    35
 73
    31
 74
     0
 42
0.0000000001
 43
0.0000000001
 12
1.0
 22
0.0
 32
0.0
 13
1.0
 23
0.0
 33
0.0
 40
0.0
 40
0.0
 40
0.0
 40
0.0
 40
1.0
 40
1.0
 40
1.0
 40
2.0
 40
2.0
 40
2.0
 40
3.0
 40
3.0
 40
3.0
 40
4.0
 40
4.0
 40
4.0
 40
5.0
 40
5.0
 40
5.0
 40
6.0
 40
6.0
 40
6.0
 40
7.0
 40
7.0
 40
7.0
 40
8.0
 40
8.0
 40
8.0
 40
9.0
 40
9.0
 40
9.0
 40
10.0
 40
10.0
 40
10.0
 40
10.0
 10
83.19699442364514
 20
-125.603352746377
 30
0.0
 10
83.19699442364514
 20
-125.603352746377
 30
0.0
 10
84.51991108998108
 20
-124.7655055243642
 30
0.0
 10
85.04907775651546
 20
-125.8679360796442
 30
0.0
 10
85.04907775651546
 20
-125.8679360796442
 30
0.0
 10
84.96088331209306
 20
-126.1766166351226
 30
0.0
 10
84.96088331209306
 20
-126.7498805238682
 30
0.0
 10
84.96088331209306
 20
-126.7498805238682
 30
0.0
 10
84.69629997882586
 20
-134.2023110775603
 30
0.0
 10
84.69629997882586
 20
-134.2023110775603
 30
0.0
 10
84.69629997882586
 20
-134.2023110775603
 30
0.0
 10
84.78449442324826
 20
-134.5550888552499
 30
0.0
 10
84.29942497892509
 20
-134.819672188517
 30
0.0
 10
84.29942497892509
 20
-134.819672188517
 30
0.0
 10
84.29942497892509
 20
-126.264811079545
 30
0.0
 10
84.29942497892509
 20
-126.264811079545
 30
0.0
 10
84.29942497892509
 20
-126.264811079545
 30
0.0
 10
61.28067498467978
 20
-126.264811079545
 30
0.0
 10
61.28067498467978
 20
-126.264811079545
 30
0.0
 10
61.28067498467978
 20
-126.264811079545
 30
0.0
 10
60.92789720699019
 20
-125.9120333018554
 30
0.0
 10
61.76574442900295
 20
-125.8679360796442
 30
0.0
 10
61.76574442900295
 20
-125.8679360796442
 30
0.0
 10
65.38171665032118
 20
-125.6474499685882
 30
0.0
 10
65.38171665032118
 20
-125.6474499685882
 30
0.0
 10
65.38171665032118
 20
-125.6474499685882
 30
0.0
 10
66.13136942791155
 20
-125.5151583019546
 30
0.0
 10
66.61643887223472
 20
-125.5592555241658
 30
0.0
 10
66.61643887223472
 20
-125.5592555241658
 30
0.0
 10
83.19699442364514
 20
-125.603352746377
 30
0.0
 10
83.19699442364514
 20
-125.603352746377
 30
0.0
  0
SPLINE
  5
15D
330
1F
100
AcDbEntity
  8
_U+30EC_U+30A4_U+30E4_U+30FC 1
 62
     7
420
 16777215
370
    25
100
AcDbSpline
210
0.0
220
0.0
230
1.0
 70
    11
 71
     3
 72
    50
 73
    46
 74
     0
 42
0.0000000001
 43
0.0000000001
 12
1.0
 22
0.0
 32
0.0
 13
1.0
 23
0.0
 33
0.0
 40
0.0
 40
0.0
 40
0.0
 40
0.0
 40
1.0
 40
1.0
 40
1.0
 40
2.0
 40
2.0
 40
2.0
 40
3.0
 40
3.0
 40
3.0
 40
4.0
 40
4.0
 40
4.0
 40
5.0
 40
5.0
 40
5.0
 40
6.0
 40
6.0
 40
6.0
 40
7.0
 40
7.0
 40
7.0
 40
8.0
 40
8.0
 40
8.0
 40
9.0
 40
9.0
 40
9.0
 40
10.0
 40
10.0
 40
10.0
 40
11.0
 40
11.0
 40
11.0
 40
12.0
 40
12.0
 40
12.0
 40
13.0
 40
13.0
 40
13.0
 40
14.0
 40
14.0
 40
14.0
 40
15.0
 40
15.0
 40
15.0
 40
15.0
 10
87.69491108918733
 20
-126.3971027461786
 30
0.0
 10
87.69491108918733
 20
-126.3971027461786
 30
0.0
 10
87.51852220034253
 20
-125.5151583019546
 30
0.0
 10
88.13588331129931
 20
-125.4269638575322
 30
0.0
 10
88.13588331129931
 20
-125.4269638575322
 30
0.0
 10
89.19421664436805
 20
-125.0741860798426
 30
0.0
 10
89.54699442205764
 20
-125.603352746377
 30
0.0
 10
89.54699442205764
 20
-125.603352746377
 30
0.0
 10
111.6837999720793
 20
-125.4269638575322
 30
0.0
 10
111.6837999720793
 20
-125.4269638575322
 30
0.0
 10
111.6837999720793
 20
-125.4269638575322
 30
0.0
 10
113.4476888605272
 20
-125.5592555241658
 30
0.0
 10
114.726508304652
 20
-125.7356444130106
 30
0.0
 10
114.726508304652
 20
-125.7356444130106
 30
0.0
 10
116.3581055264663
 20
-125.7797416352218
 30
0.0
 10
116.4022027486775
 20
-126.0002277462778
 30
0.0
 10
116.4022027486775
 20
-126.0002277462778
 30
0.0
 10
116.4022027486775
 20
-126.1325194129114
 30
0.0
 10
116.1376194154103
 20
-126.2207138573338
 30
0.0
 10
116.1376194154103
 20
-126.2207138573338
 30
0.0
 10
88.40046664456649
 20
-126.3089083017562
 30
0.0
 10
88.40046664456649
 20
-126.3089083017562
 30
0.0
 10
88.40046664456649
 20
-126.3089083017562
 30
0.0
 10
88.40046664456649
 20
-134.819672188517
 30
0.0
 10
88.40046664456649
 20
-134.819672188517
 30
0.0
 10
88.40046664456649
 20
-134.819672188517
 30
0.0
 10
87.07754997823056
 20
-134.8637694107283
 30
0.0
 10
87.07754997823056
 20
-134.8637694107283
 30
0.0
 10
87.07754997823056
 20
-134.8637694107283
 30
0.0
 10
84.96088331209306
 20
-129.4398110787509
 30
0.0
 10
84.96088331209306
 20
-129.4398110787509
 30
0.0
 10
84.96088331209306
 20
-129.4398110787509
 30
0.0
 10
84.82859164545947
 20
-129.1311305232725
 30
0.0
 10
85.13727220093784
 20
-129.1311305232725
 30
0.0
 10
85.13727220093784
 20
-129.1311305232725
 30
0.0
 10
85.40185553420504
 20
-129.0870333010613
 30
0.0
 10
85.53414720083863
 20
-129.4839083009621
 30
0.0
 10
85.53414720083863
 20
-129.4839083009621
 30
0.0
 10
87.47442497813134
 20
-134.2464082997715
 30
0.0
 10
87.47442497813134
 20
-134.2464082997715
 30
0.0
 10
87.47442497813134
 20
-134.2464082997715
 30
0.0
 10
87.73900831139852
 20
-134.2464082997715
 30
0.0
 10
87.73900831139852
 20
-134.2464082997715
 30
0.0
 10
87.73900831139852
 20
-134.2464082997715
 30
0.0
 10
87.69491108918733
 20
-126.3971027461786
 30
0.0
 10
87.69491108918733
 20
-126.3971027461786
 30
0.0
  0
POLYLINE
  5
15E
330
1F
100
AcDbEntity
  8
_U+30EC_U+30A4_U+30E4_U+30FC 1
 62
   179
420
  2234388
370
     9
100
AcDb2dPolyline
 66
     1
 10
0.0
 20
0.0
 30
0.0
  0
VERTEX
  5
15F
330
15E
100
AcDbEntity
  8
_U+30EC_U+30A4_U+30E4_U+30FC 1
 62
   179
420
  2234388
370
     9
100
AcDbVertex
100
AcDb2dVertex
 10
69.87963331586337
 20
-120.6203666365116
 30
0.0
  0
VERTEX
  5
160
330
15E
100
AcDbEntity
  8
_U+30EC_U+30A4_U+30E4_U+30FC 1
 62
   179
420
  2234388
370
     9
100
AcDbVertex
100
AcDb2dVertex
 10
81.16852220193003
 20
-120.6203666365116
 30
0.0
  0
VERTEX
  5
161
330
15E
100
AcDbEntity
  8
_U+30EC_U+30A4_U+30E4_U+30FC 1
 62
   179
420
  2234388
370
     9
100
AcDbVertex
100
AcDb2dVertex
 10
76.62650831417665
 20
-125.603352746377
 30
0.0
  0
SEQEND
  5
162
330
15E
100
AcDbEntity
  8
_U+30EC_U+30A4_U+30E4_U+30FC 1
 62
   179
420
  2234388
370
     9
  0
POLYLINE
  5
163
330
1F
100
AcDbEntity
  8
_U+30EC_U+30A4_U+30E4_U+30FC 1
 62
   179
420
  2234388
370
     9
100
AcDb2dPolyline
 66
     1
 10
0.0
 20
0.0
 30
0.0
  0
VERTEX
  5
164
330
163
100
AcDbEntity
  8
_U+30EC_U+30A4_U+30E4_U+30FC 1
 62
   179
420
  2234388
370
     9
100
AcDbVertex
100
AcDb2dVertex
 10
102.5115777521501
 20
-125.4710610797434
 30
0.0
  0
VERTEX
  5
165
330
163
100
AcDbEntity
  8
_U+30EC_U+30A4_U+30E4_U+30FC 1
 62
   179
420
  2234388
370
     9
100
AcDbVertex
100
AcDb2dVertex
 10
106.7890083066363
 20
-121.149533303046
 30
0.0
  0
VERTEX
  5
166
330
163
100
AcDbEntity
  8
_U+30EC_U+30A4_U+30E4_U+30FC 1
 62
   179
420
  2234388
370
     9
100
AcDbVertex
100
AcDb2dVertex
 10
118.3424805259702
 20
-121.149533303046
 30
0.0
  0
SEQEND
  5
167
330
163
100
AcDbEntity
  8
_U+30EC_U+30A4_U+30E4_U+30FC 1
 62
   179
420
  2234388
370
     9
  0
POLYLINE
  5
168
330
1F
100
AcDbEntity
  8
_U+30EC_U+30A4_U+30E4_U+30FC 1
 62
   179
420
  2234388
370
     9
100
AcDb2dPolyline
 66
     1
 10
0.0
 20
0.0
 30
0.0
  0
VERTEX
  5
169
330
168
100
AcDbEntity
  8
_U+30EC_U+30A4_U+30E4_U+30FC 1
 62
   179
420
  2234388
370
     9
100
AcDbVertex
100
AcDb2dVertex
 10
95.1914388650913
 20
-126.3971027461786
 30
0.0
  0
VERTEX
  5
16A
330
168
100
AcDbEntity
  8
_U+30EC_U+30A4_U+30E4_U+30FC 1
 62
   179
420
  2234388
370
     9
100
AcDbVertex
100
AcDb2dVertex
 10
92.23692497694104
 20
-131.2036999671988
 30
0.0
  0
VERTEX
  5
16B
330
168
100
AcDbEntity
  8
_U+30EC_U+30A4_U+30E4_U+30FC 1
 62
   179
420
  2234388
370
     9
100
AcDbVertex
100
AcDb2dVertex
 10
115.167480526764
 20
-131.2036999671988
 30
0.0
  0
SEQEND
  5
16C
330
168
100
AcDbEntity
  8
_U+30EC_U+30A4_U+30E4_U+30FC 1
 62
   179
420
  2234388
370
     9
  0
ENDSEC
  0
SECTION
  2
OBJECTS
  0
DICTIONARY
  5
C
330
0
100
AcDbDictionary
281
     1
  3
ACAD_GROUP
350
D
  3
ACAD_LAYOUT
350
1A
  3
ACAD_MATERIAL
350
3B
  3
ACAD_MLEADERSTYLE
350
16E
  3
ACAD_MLINESTYLE
350
17
  3
ACAD_PLOTSETTINGS
350
19
  3
ACAD_PLOTSTYLENAME
350
E
  3
ACAD_TABLESTYLE
350
16D
  3
ACAD_VISUALSTYLE
350
2A
  0
SUN
  5
3F
330
29
100
AcDbSun
 90
        1
290
     0
 63
     7
421
 16777215
 40
1.0
291
     1
 91
  2455826
 92
 54000000
292
     0
 70
     2
 71
   256
280
     1
  0
DICTIONARY
  5
D
102
{ACAD_REACTORS
330
C
102
}
330
C
100
AcDbDictionary
281
     1
  0
DICTIONARY
  5
1A
102
{ACAD_REACTORS
330
C
102
}
330
C
100
AcDbDictionary
281
     1
  3
Layout1
350
1E
  3
Layout2
350
26
  3
Model
350
22
  0
DICTIONARY
  5
3B
102
{ACAD_REACTORS
330
C
102
}
330
C
100
AcDbDictionary
281
     1
  3
ByBlock
350
3D
  3
ByLayer
350
3C
  3
Global
350
3E
  0
DICTIONARY
  5
16E
102
{ACAD_REACTORS
330
C
102
}
330
C
100
AcDbDictionary
281
     1
  0
DICTIONARY
  5
17
102
{ACAD_REACTORS
330
C
102
}
330
C
100
AcDbDictionary
281
     1
  3
Standard
350
18
  0
DICTIONARY
  5
19
102
{ACAD_REACTORS
330
C
102
}
330
C
100
AcDbDictionary
281
     1
  0
ACDBDICTIONARYWDFLT
  5
E
102
{ACAD_REACTORS
330
C
102
}
330
C
100
AcDbDictionary
281
     1
  3
Normal
350
F
100
AcDbDictionaryWithDefault
340
F
  0
DICTIONARY
  5
16D
102
{ACAD_REACTORS
330
C
102
}
330
C
100
AcDbDictionary
281
     1
  0
DICTIONARY
  5
2A
102
{ACAD_REACTORS
330
C
102
}
330
C
100
AcDbDictionary
281
     1
  3
2dWireframe
350
2F
  3
3D Hidden
350
31
  3
3dWireframe
350
30
  3
Basic
350
32
  3
Brighten
350
36
  3
ColorChange
350
3A
  3
Conceptual
350
34
  3
Dim
350
35
  3
Facepattern
350
39
  3
Flat
350
2B
  3
FlatWithEdges
350
2C
  3
Gouraud
350
2D
  3
GouraudWithEdges
350
2E
  3
Linepattern
350
38
  3
Realistic
350
33
  3
Thicken
350
37
  0
LAYOUT
  5
1E
102
{ACAD_REACTORS
330
1A
102
}
330
1A
100
AcDbPlotSettings
  1

  2
none_device
  4

  6

 40
0.0
 41
0.0
 42
0.0
 43
0.0
 44
0.0
 45
0.0
 46
0.0
 47
0.0
 48
0.0
 49
0.0
140
0.0
141
0.0
142
1.0
143
1.0
 70
   688
 72
     0
 73
     0
 74
     5
  7

 75
    16
 76
     0
 77
     2
 78
   300
147
1.0
148
0.0
149
0.0
100
AcDbLayout
  1
Layout1
 70
     1
 71
     1
 10
0.0
 20
0.0
 11
12.0
 21
9.0
 12
0.0
 22
0.0
 32
0.0
 14
1.000000000000000E+20
 24
1.000000000000000E+20
 34
1.000000000000000E+20
 15
-1.000000000000000E+20
 25
-1.000000000000000E+20
 35
-1.000000000000000E+20
146
0.0
 13
0.0
 23
0.0
 33
0.0
 16
1.0
 26
0.0
 36
0.0
 17
0.0
 27
1.0
 37
0.0
 76
     0
330
1B
  0
LAYOUT
  5
26
102
{ACAD_REACTORS
330
1A
102
}
330
1A
100
AcDbPlotSettings
  1

  2
none_device
  4

  6

 40
0.0
 41
0.0
 42
0.0
 43
0.0
 44
0.0
 45
0.0
 46
0.0
 47
0.0
 48
0.0
 49
0.0
140
0.0
141
0.0
142
1.0
143
1.0
 70
   688
 72
     0
 73
     0
 74
     5
  7

 75
    16
 76
     0
 77
     2
 78
   300
147
1.0
148
0.0
149
0.0
100
AcDbLayout
  1
Layout2
 70
     1
 71
     2
 10
0.0
 20
0.0
 11
0.0
 21
0.0
 12
0.0
 22
0.0
 32
0.0
 14
0.0
 24
0.0
 34
0.0
 15
0.0
 25
0.0
 35
0.0
146
0.0
 13
0.0
 23
0.0
 33
0.0
 16
1.0
 26
0.0
 36
0.0
 17
0.0
 27
1.0
 37
0.0
 76
     0
330
23
  0
LAYOUT
  5
22
102
{ACAD_REACTORS
330
1A
102
}
330
1A
100
AcDbPlotSettings
  1

  2
none_device
  4

  6

 40
0.0
 41
0.0
 42
0.0
 43
0.0
 44
0.0
 45
0.0
 46
0.0
 47
0.0
 48
0.0
 49
0.0
140
0.0
141
0.0
142
1.0
143
1.0
 70
  1712
 72
     0
 73
     0
 74
     0
  7

 75
     0
 76
     0
 77
     2
 78
   300
147
1.0
148
0.0
149
0.0
100
AcDbLayout
  1
Model
 70
     1
 71
     0
 10
0.0
 20
0.0
 11
12.0
 21
9.0
 12
0.0
 22
0.0
 32
0.0
 14
1.000000000000000E+20
 24
1.000000000000000E+20
 34
1.000000000000000E+20
 15
-1.000000000000000E+20
 25
-1.000000000000000E+20
 35
-1.000000000000000E+20
146
0.0
 13
0.0
 23
0.0
 33
0.0
 16
1.0
 26
0.0
 36
0.0
 17
0.0
 27
1.0
 37
0.0
 76
     0
330
1F
331
29
  0
MATERIAL
  5
3D
102
{ACAD_REACTORS
330
3B
102
}
330
3B
100
AcDbMaterial
  1
ByBlock
 72
     1
 94
      127
  0
MATERIAL
  5
3C
102
{ACAD_REACTORS
330
3B
102
}
330
3B
100
AcDbMaterial
  1
ByLayer
 72
     1
 94
      127
  0
MATERIAL
  5
3E
102
{ACAD_REACTORS
330
3B
102
}
330
3B
100
AcDbMaterial
  1
Global
 72
     1
 94
      127
  0
MLINESTYLE
  5
18
102
{ACAD_REACTORS
330
17
102
}
330
17
100
AcDbMlineStyle
  2
Standard
 70
     0
  3

 62
   256
 51
90.0
 52
90.0
 71
     2
 49
0.5
 62
   256
  6
BYLAYER
 49
-0.5
 62
   256
  6
BYLAYER
  0
ACDBPLACEHOLDER
  5
F
102
{ACAD_REACTORS
330
E
102
}
330
E
  0
VISUALSTYLE
  5
2F
102
{ACAD_REACTORS
330
2A
102
}
330
2A
100
AcDbVisualStyle
  2
2dWireframe
 70
     4
177
     2
291
     0
 71
     0
176
     1
 72
     2
176
     1
 73
     0
176
     1
 90
        0
176
     1
 40
-0.6
176
     1
 41
-30.0
176
     1
 62
     5
 63
     7
421
 16777215
176
     1
 74
     1
176
     1
 91
        4
176
     1
 64
     7
176
     1
 65
   257
176
     1
 75
     1
176
     1
175
     1
176
     1
 42
1.0
176
     1
 92
        0
176
     1
 66
   257
176
     1
 43
1.0
176
     1
 76
     1
176
     1
 77
     6
176
     1
 78
     2
176
     1
 67
     7
176
     1
 79
     5
176
     1
170
     0
176
     1
171
     0
176
     1
290
     0
176
     1
 93
        1
176
     1
 44
0.0
176
     1
173
     0
176
     1
  0
VISUALSTYLE
  5
31
102
{ACAD_REACTORS
330
2A
102
}
330
2A
100
AcDbVisualStyle
  2
3D Hidden
 70
     6
177
     2
291
     0
 71
     1
176
     1
 72
     2
176
     1
 73
     2
176
     1
 90
        0
176
     1
 40
-0.6
176
     1
 41
-30.0
176
     1
 62
     5
 63
     7
421
 16777215
176
     1
 74
     2
176
     1
 91
        2
176
     1
 64
     7
176
     1
 65
   257
176
     1
 75
     2
176
     1
175
     1
176
     1
 42
40.0
176
     1
 92
        0
176
     1
 66
   257
176
     1
 43
1.0
176
     1
 76
     1
176
     1
 77
     6
176
     1
 78
     2
176
     1
 67
     7
176
     1
 79
     3
176
     1
170
     0
176
     1
171
     0
176
     1
290
     0
176
     1
 93
        1
176
     1
 44
0.0
176
     1
173
     0
176
     1
  0
VISUALSTYLE
  5
30
102
{ACAD_REACTORS
330
2A
102
}
330
2A
100
AcDbVisualStyle
  2
3dWireframe
 70
     5
177
     2
291
     0
 71
     0
176
     1
 72
     2
176
     1
 73
     0
176
     1
 90
        0
176
     1
 40
-0.6
176
     1
 41
-30.0
176
     1
 62
     5
 63
     7
421
 16777215
176
     1
 74
     1
176
     1
 91
        4
176
     1
 64
     7
176
     1
 65
   257
176
     1
 75
     1
176
     1
175
     1
176
     1
 42
1.0
176
     1
 92
        0
176
     1
 66
   257
176
     1
 43
1.0
176
     1
 76
     1
176
     1
 77
     6
176
     1
 78
     2
176
     1
 67
     7
176
     1
 79
     5
176
     1
170
     0
176
     1
171
     0
176
     1
290
     0
176
     1
 93
        1
176
     1
 44
0.0
176
     1
173
     0
176
     1
  0
VISUALSTYLE
  5
32
102
{ACAD_REACTORS
330
2A
102
}
330
2A
100
AcDbVisualStyle
  2
Basic
 70
     7
177
     2
291
     1
 71
     1
176
     1
 72
     0
176
     1
 73
     1
176
     1
 90
        0
176
     1
 40
-0.6
176
     1
 41
-30.0
176
     1
 62
     5
 63
     7
421
 16777215
176
     1
 74
     0
176
     1
 91
        4
176
     1
 64
     7
176
     1
 65
   257
176
     1
 75
     1
176
     1
175
     1
176
     1
 42
1.0
176
     1
 92
        8
176
     1
 66
     7
176
     1
 43
1.0
176
     1
 76
     1
176
     1
 77
     6
176
     1
 78
     2
176
     1
 67
     7
176
     1
 79
     5
176
     1
170
     0
176
     1
171
     0
176
     1
290
     0
176
     1
 93
        1
176
     1
 44
0.0
176
     1
173
     0
176
     1
  0
VISUALSTYLE
  5
36
102
{ACAD_REACTORS
330
2A
102
}
330
2A
100
AcDbVisualStyle
  2
Brighten
 70
    12
177
     2
291
     1
 71
     2
176
     1
 72
     2
176
     1
 73
     0
176
     1
 90
        0
176
     1
 40
-0.6
176
     1
 41
-30.0
176
     1
 62
     5
 63
     7
421
 16777215
176
     1
 74
     1
176
     1
 91
        4
176
     1
 64
     7
176
     1
 65
   257
176
     1
 75
     1
176
     1
175
     1
176
     1
 42
1.0
176
     1
 92
        8
176
     1
 66
     7
176
     1
 43
1.0
176
     1
 76
     1
176
     1
 77
     6
176
     1
 78
     2
176
     1
 67
     7
176
     1
 79
     5
176
     1
170
     0
176
     1
171
     0
176
     1
290
     0
176
     1
 93
        1
176
     1
 44
50.0
176
     1
173
     0
176
     1
  0
VISUALSTYLE
  5
3A
102
{ACAD_REACTORS
330
2A
102
}
330
2A
100
AcDbVisualStyle
  2
ColorChange
 70
    16
177
     2
291
     1
 71
     2
176
     1
 72
     2
176
     1
 73
     3
176
     1
 90
        0
176
     1
 40
-0.6
176
     1
 41
-30.0
176
     1
 62
     5
 63
     8
421
  8421504
176
     1
 74
     1
176
     1
 91
        4
176
     1
 64
     7
176
     1
 65
   257
176
     1
 75
     1
176
     1
175
     1
176
     1
 42
1.0
176
     1
 92
        8
176
     1
 66
     8
424
  8421504
176
     1
 43
1.0
176
     1
 76
     1
176
     1
 77
     6
176
     1
 78
     2
176
     1
 67
     7
176
     1
 79
     5
176
     1
170
     0
176
     1
171
     0
176
     1
290
     0
176
     1
 93
        1
176
     1
 44
0.0
176
     1
173
     0
176
     1
  0
VISUALSTYLE
  5
34
102
{ACAD_REACTORS
330
2A
102
}
330
2A
100
AcDbVisualStyle
  2
Conceptual
 70
     9
177
     2
291
     0
 71
     3
176
     1
 72
     2
176
     1
 73
     0
176
     1
 90
        0
176
     1
 40
-0.6
176
     1
 41
-30.0
176
     1
 62
     5
 63
     7
421
 16777215
176
     1
 74
     2
176
     1
 91
        2
176
     1
 64
     7
176
     1
 65
   257
176
     1
 75
     1
176
     1
175
     1
176
     1
 42
40.0
176
     1
 92
        8
176
     1
 66
     7
176
     1
 43
1.0
176
     1
 76
     1
176
     1
 77
     6
176
     1
 78
     2
176
     1
 67
     7
176
     1
 79
     3
176
     1
170
     0
176
     1
171
     0
176
     1
290
     0
176
     1
 93
        1
176
     1
 44
0.0
176
     1
173
     0
176
     1
  0
VISUALSTYLE
  5
35
102
{ACAD_REACTORS
330
2A
102
}
330
2A
100
AcDbVisualStyle
  2
Dim
 70
    11
177
     2
291
     1
 71
     2
176
     1
 72
     2
176
     1
 73
     0
176
     1
 90
        0
176
     1
 40
-0.6
176
     1
 41
-30.0
176
     1
 62
     5
 63
     7
421
 16777215
176
     1
 74
     1
176
     1
 91
        4
176
     1
 64
     7
176
     1
 65
   257
176
     1
 75
     1
176
     1
175
     1
176
     1
 42
1.0
176
     1
 92
        8
176
     1
 66
     7
176
     1
 43
1.0
176
     1
 76
     1
176
     1
 77
     6
176
     1
 78
     2
176
     1
 67
     7
176
     1
 79
     5
176
     1
170
     0
176
     1
171
     0
176
     1
290
     0
176
     1
 93
        1
176
     1
 44
-50.0
176
     1
173
     0
176
     1
  0
VISUALSTYLE
  5
39
102
{ACAD_REACTORS
330
2A
102
}
330
2A
100
AcDbVisualStyle
  2
Facepattern
 70
    15
177
     2
291
     1
 71
     2
176
     1
 72
     2
176
     1
 73
     0
176
     1
 90
        0
176
     1
 40
-0.6
176
     1
 41
-30.0
176
     1
 62
     5
 63
     7
421
 16777215
176
     1
 74
     1
176
     1
 91
        4
176
     1
 64
     7
176
     1
 65
   257
176
     1
 75
     1
176
     1
175
     1
176
     1
 42
1.0
176
     1
 92
        8
176
     1
 66
     7
176
     1
 43
1.0
176
     1
 76
     1
176
     1
 77
     6
176
     1
 78
     2
176
     1
 67
     7
176
     1
 79
     5
176
     1
170
     0
176
     1
171
     0
176
     1
290
     0
176
     1
 93
        1
176
     1
 44
0.0
176
     1
173
     0
176
     1
  0
VISUALSTYLE
  5
2B
102
{ACAD_REACTORS
330
2A
102
}
330
2A
100
AcDbVisualStyle
  2
Flat
 70
     0
177
     2
291
     1
 71
     2
176
     1
 72
     1
176
     1
 73
     1
176
     1
 90
        2
176
     1
 40
-0.6
176
     1
 41
30.0
176
     1
 62
     5
 63
     7
421
 16777215
176
     1
 74
     0
176
     1
 91
        4
176
     1
 64
     7
176
     1
 65
   257
176
     1
 75
     1
176
     1
175
     1
176
     1
 42
1.0
176
     1
 92
        8
176
     1
 66
     7
176
     1
 43
1.0
176
     1
 76
     1
176
     1
 77
     6
176
     1
 78
     2
176
     1
 67
     7
176
     1
 79
     5
176
     1
170
     0
176
     1
171
     0
176
     1
290
     0
176
     1
 93
       13
176
     1
 44
0.0
176
     1
173
     0
176
     1
  0
VISUALSTYLE
  5
2C
102
{ACAD_REACTORS
330
2A
102
}
330
2A
100
AcDbVisualStyle
  2
FlatWithEdges
 70
     1
177
     2
291
     1
 71
     2
176
     1
 72
     1
176
     1
 73
     1
176
     1
 90
        2
176
     1
 40
-0.6
176
     1
 41
30.0
176
     1
 62
     5
 63
     7
421
 16777215
176
     1
 74
     1
176
     1
 91
        4
176
     1
 64
     7
176
     1
 65
   257
176
     1
 75
     1
176
     1
175
     1
176
     1
 42
1.0
176
     1
 92
        0
176
     1
 66
   257
176
     1
 43
1.0
176
     1
 76
     1
176
     1
 77
     6
176
     1
 78
     2
176
     1
 67
     7
176
     1
 79
     5
176
     1
170
     0
176
     1
171
     0
176
     1
290
     0
176
     1
 93
       13
176
     1
 44
0.0
176
     1
173
     0
176
     1
  0
VISUALSTYLE
  5
2D
102
{ACAD_REACTORS
330
2A
102
}
330
2A
100
AcDbVisualStyle
  2
Gouraud
 70
     2
177
     2
291
     1
 71
     2
176
     1
 72
     2
176
     1
 73
     1
176
     1
 90
        2
176
     1
 40
-0.6
176
     1
 41
30.0
176
     1
 62
     5
 63
     7
421
 16777215
176
     1
 74
     0
176
     1
 91
        4
176
     1
 64
     7
176
     1
 65
   257
176
     1
 75
     1
176
     1
175
     1
176
     1
 42
1.0
176
     1
 92
        0
176
     1
 66
     7
176
     1
 43
1.0
176
     1
 76
     1
176
     1
 77
     6
176
     1
 78
     2
176
     1
 67
     7
176
     1
 79
     5
176
     1
170
     0
176
     1
171
     0
176
     1
290
     0
176
     1
 93
       13
176
     1
 44
0.0
176
     1
173
     0
176
     1
  0
VISUALSTYLE
  5
2E
102
{ACAD_REACTORS
330
2A
102
}
330
2A
100
AcDbVisualStyle
  2
GouraudWithEdges
 70
     3
177
     2
291
     1
 71
     2
176
     1
 72
     2
176
     1
 73
     1
176
     1
 90
        2
176
     1
 40
-0.6
176
     1
 41
30.0
176
     1
 62
     5
 63
     7
421
 16777215
176
     1
 74
     1
176
     1
 91
        4
176
     1
 64
     7
176
     1
 65
   257
176
     1
 75
     1
176
     1
175
     1
176
     1
 42
1.0
176
     1
 92
        0
176
     1
 66
   257
176
     1
 43
1.0
176
     1
 76
     1
176
     1
 77
     6
176
     1
 78
     2
176
     1
 67
     7
176
     1
 79
     5
176
     1
170
     0
176
     1
171
     0
176
     1
290
     0
176
     1
 93
       13
176
     1
 44
0.0
176
     1
173
     0
176
     1
  0
VISUALSTYLE
  5
38
102
{ACAD_REACTORS
330
2A
102
}
330
2A
100
AcDbVisualStyle
  2
Linepattern
 70
    14
177
     2
291
     1
 71
     2
176
     1
 72
     2
176
     1
 73
     0
176
     1
 90
        0
176
     1
 40
-0.6
176
     1
 41
-30.0
176
     1
 62
     5
 63
     7
421
 16777215
176
     1
 74
     1
176
     1
 91
        4
176
     1
 64
     7
176
     1
 65
   257
176
     1
 75
     7
176
     1
175
     7
176
     1
 42
1.0
176
     1
 92
        8
176
     1
 66
     7
176
     1
 43
1.0
176
     1
 76
     1
176
     1
 77
     6
176
     1
 78
     2
176
     1
 67
     7
176
     1
 79
     5
176
     1
170
     0
176
     1
171
     0
176
     1
290
     0
176
     1
 93
        1
176
     1
 44
0.0
176
     1
173
     0
176
     1
  0
VISUALSTYLE
  5
33
102
{ACAD_REACTORS
330
2A
102
}
330
2A
100
AcDbVisualStyle
  2
Realistic
 70
     8
177
     2
291
     0
 71
     2
176
     1
 72
     2
176
     1
 73
     0
176
     1
 90
        0
176
     1
 40
-0.6
176
     1
 41
-30.0
176
     1
 62
     5
 63
     7
421
 16777215
176
     1
 74
     1
176
     1
 91
        0
176
     1
 64
     7
176
     1
 65
   257
176
     1
 75
     1
176
     1
175
     1
176
     1
 42
1.0
176
     1
 92
        8
176
     1
 66
     8
424
  7895160
176
     1
 43
1.0
176
     1
 76
     1
176
     1
 77
     6
176
     1
 78
     2
176
     1
 67
     7
176
     1
 79
     5
176
     1
170
     0
176
     1
171
     0
176
     1
290
     0
176
     1
 93
       13
176
     1
 44
0.0
176
     1
173
     0
176
     1
  0
VISUALSTYLE
  5
37
102
{ACAD_REACTORS
330
2A
102
}
330
2A
100
AcDbVisualStyle
  2
Thicken
 70
    13
177
     2
291
     1
 71
     2
176
     1
 72
     2
176
     1
 73
     0
176
     1
 90
        0
176
     1
 40
-0.6
176
     1
 41
-30.0
176
     1
 62
     5
 63
     7
421
 16777215
176
     1
 74
     1
176
     1
 91
        4
176
     1
 64
     7
176
     1
 65
   257
176
     1
 75
     1
176
     1
175
     1
176
     1
 42
1.0
176
     1
 92
       12
176
     1
 66
     7
176
     1
 43
1.0
176
     1
 76
     1
176
     1
 77
     6
176
     1
 78
     2
176
     1
 67
     7
176
     1
 79
     5
176
     1
170
     0
176
     1
171
     0
176
     1
290
     0
176
     1
 93
        1
176
     1
 44
0.0
176
     1
173
     0
176
     1
  0
ENDSEC
  0
EOF
