  0
SECTION
  2
HEADER
  9
$ACADVER
  1
AC1024
  9
$ACADMAINTVER
 70
   226
  9
$DWGCODEPAGE
  3
ANSI_932
  9
$INSBASE
 10
0.0
 20
0.0
 30
0.0
  9
$EXTMIN
 10
1.000000000000000E+20
 20
1.000000000000000E+20
 30
1.000000000000000E+20
  9
$EXTMAX
 10
-1.000000000000000E+20
 20
-1.000000000000000E+20
 30
-1.000000000000000E+20
  9
$LIMMIN
 10
0.0
 20
0.0
  9
$LIMMAX
 10
12.0
 20
9.0
  9
$ORTHOMODE
 70
     0
  9
$REGENMODE
 70
     1
  9
$FILLMODE
 70
     1
  9
$QTEXTMODE
 70
     0
  9
$MIRRTEXT
 70
     0
  9
$LTSCALE
 40
1.0
  9
$ATTMODE
 70
     1
  9
$TEXTSIZE
 40
0.2
  9
$TRACEWID
 40
0.05
  9
$TEXTSTYLE
  7
Standard
  9
$CLAYER
  8
0
  9
$CELTYPE
  6
ByLayer
  9
$CECOLOR
 62
   256
  9
$CELTSCALE
 40
1.0
  9
$DISPSILH
 70
     0
  9
$DIMSCALE
 40
1.0
  9
$DIMASZ
 40
0.18
  9
$DIMEXO
 40
0.0625
  9
$DIMDLI
 40
0.38
  9
$DIMRND
 40
0.0
  9
$DIMDLE
 40
0.0
  9
$DIMEXE
 40
0.18
  9
$DIMTP
 40
0.0
  9
$DIMTM
 40
0.0
  9
$DIMTXT
 40
0.18
  9
$DIMCEN
 40
0.09
  9
$DIMTSZ
 40
0.0
  9
$DIMTOL
 70
     0
  9
$DIMLIM
 70
     0
  9
$DIMTIH
 70
     1
  9
$DIMTOH
 70
     1
  9
$DIMSE1
 70
     0
  9
$DIMSE2
 70
     0
  9
$DIMTAD
 70
     0
  9
$DIMZIN
 70
     0
  9
$DIMBLK
  1

  9
$DIMASO
 70
     1
  9
$DIMSHO
 70
     1
  9
$DIMPOST
  1

  9
$DIMAPOST
  1

  9
$DIMALT
 70
     0
  9
$DIMALTD
 70
     2
  9
$DIMALTF
 40
25.4
  9
$DIMLFAC
 40
1.0
  9
$DIMTOFL
 70
     0
  9
$DIMTVP
 40
0.0
  9
$DIMTIX
 70
     0
  9
$DIMSOXD
 70
     0
  9
$DIMSAH
 70
     0
  9
$DIMBLK1
  1

  9
$DIMBLK2
  1

  9
$DIMSTYLE
  2
Standard
  9
$DIMCLRD
 70
     0
  9
$DIMCLRE
 70
     0
  9
$DIMCLRT
 70
     0
  9
$DIMTFAC
 40
1.0
  9
$DIMGAP
 40
0.09
  9
$DIMJUST
 70
     0
  9
$DIMSD1
 70
     0
  9
$DIMSD2
 70
     0
  9
$DIMTOLJ
 70
     1
  9
$DIMTZIN
 70
     0
  9
$DIMALTZ
 70
     0
  9
$DIMALTTZ
 70
     0
  9
$DIMUPT
 70
     0
  9
$DIMDEC
 70
     4
  9
$DIMTDEC
 70
     4
  9
$DIMALTU
 70
     2
  9
$DIMALTTD
 70
     2
  9
$DIMTXSTY
  7
Standard
  9
$DIMAUNIT
 70
     0
  9
$DIMADEC
 70
     0
  9
$DIMALTRND
 40
0.0
  9
$DIMAZIN
 70
     0
  9
$DIMDSEP
 70
    46
  9
$DIMATFIT
 70
     3
  9
$DIMFRAC
 70
     0
  9
$DIMLDRBLK
  1

  9
$DIMLUNIT
 70
     2
  9
$DIMLWD
 70
    -2
  9
$DIMLWE
 70
    -2
  9
$DIMTMOVE
 70
     0
  9
$DIMFXL
 40
1.0
  9
$DIMFXLON
 70
     0
  9
$DIMJOGANG
 40
0.7853981633974483
  9
$DIMTFILL
 70
     0
  9
$DIMTFILLCLR
 70
     0
  9
$DIMARCSYM
 70
     0
  9
$DIMLTYPE
  6

  9
$DIMLTEX1
  6

  9
$DIMLTEX2
  6

  9
$DIMTXTDIRECTION
 70
     0
  9
$LUNITS
 70
     2
  9
$LUPREC
 70
     4
  9
$SKETCHINC
 40
0.1
  9
$FILLETRAD
 40
0.0
  9
$AUNITS
 70
     0
  9
$AUPREC
 70
     0
  9
$MENU
  1
.
  9
$ELEVATION
 40
0.0
  9
$PELEVATION
 40
0.0
  9
$THICKNESS
 40
0.0
  9
$LIMCHECK
 70
     0
  9
$CHAMFERA
 40
0.0
  9
$CHAMFERB
 40
0.0
  9
$CHAMFERC
 40
0.0
  9
$CHAMFERD
 40
0.0
  9
$SKPOLY
 70
     0
  9
$TDCREATE
 40
2459569.503217593
  9
$TDUCREATE
 40
2459569.128217593
  9
$TDUPDATE
 40
2459569.503217593
  9
$TDUUPDATE
 40
2459569.128217593
  9
$TDINDWG
 40
0.0000000000
  9
$TDUSRTIMER
 40
0.0000000000
  9
$USRTIMER
 70
     1
  9
$ANGBASE
 50
0.0
  9
$ANGDIR
 70
     0
  9
$PDMODE
 70
     0
  9
$PDSIZE
 40
0.0
  9
$PLINEWID
 40
0.0
  9
$SPLFRAME
 70
     0
  9
$SPLINETYPE
 70
     6
  9
$SPLINESEGS
 70
     8
  9
$HANDSEED
  5
1A0
  9
$SURFTAB1
 70
     6
  9
$SURFTAB2
 70
     6
  9
$SURFTYPE
 70
     6
  9
$SURFU
 70
     6
  9
$SURFV
 70
     6
  9
$UCSBASE
  2

  9
$UCSNAME
  2

  9
$UCSORG
 10
0.0
 20
0.0
 30
0.0
  9
$UCSXDIR
 10
1.0
 20
0.0
 30
0.0
  9
$UCSYDIR
 10
0.0
 20
1.0
 30
0.0
  9
$UCSORTHOREF
  2

  9
$UCSORTHOVIEW
 70
     0
  9
$UCSORGTOP
 10
0.0
 20
0.0
 30
0.0
  9
$UCSORGBOTTOM
 10
0.0
 20
0.0
 30
0.0
  9
$UCSORGLEFT
 10
0.0
 20
0.0
 30
0.0
  9
$UCSORGRIGHT
 10
0.0
 20
0.0
 30
0.0
  9
$UCSORGFRONT
 10
0.0
 20
0.0
 30
0.0
  9
$UCSORGBACK
 10
0.0
 20
0.0
 30
0.0
  9
$PUCSBASE
  2

  9
$PUCSNAME
  2

  9
$PUCSORG
 10
0.0
 20
0.0
 30
0.0
  9
$PUCSXDIR
 10
1.0
 20
0.0
 30
0.0
  9
$PUCSYDIR
 10
0.0
 20
1.0
 30
0.0
  9
$PUCSORTHOREF
  2

  9
$PUCSORTHOVIEW
 70
     0
  9
$PUCSORGTOP
 10
0.0
 20
0.0
 30
0.0
  9
$PUCSORGBOTTOM
 10
0.0
 20
0.0
 30
0.0
  9
$PUCSORGLEFT
 10
0.0
 20
0.0
 30
0.0
  9
$PUCSORGRIGHT
 10
0.0
 20
0.0
 30
0.0
  9
$PUCSORGFRONT
 10
0.0
 20
0.0
 30
0.0
  9
$PUCSORGBACK
 10
0.0
 20
0.0
 30
0.0
  9
$USERI1
 70
     0
  9
$USERI2
 70
     0
  9
$USERI3
 70
     0
  9
$USERI4
 70
     0
  9
$USERI5
 70
     0
  9
$USERR1
 40
0.0
  9
$USERR2
 40
0.0
  9
$USERR3
 40
0.0
  9
$USERR4
 40
0.0
  9
$USERR5
 40
0.0
  9
$WORLDVIEW
 70
     1
  9
$SHADEDGE
 70
     3
  9
$SHADEDIF
 70
    70
  9
$TILEMODE
 70
     1
  9
$MAXACTVP
 70
    64
  9
$PINSBASE
 10
0.0
 20
0.0
 30
0.0
  9
$PLIMCHECK
 70
     0
  9
$PEXTMIN
 10
1.000000000000000E+20
 20
1.000000000000000E+20
 30
1.000000000000000E+20
  9
$PEXTMAX
 10
-1.000000000000000E+20
 20
-1.000000000000000E+20
 30
-1.000000000000000E+20
  9
$PLIMMIN
 10
0.0
 20
0.0
  9
$PLIMMAX
 10
12.0
 20
9.0
  9
$UNITMODE
 70
     0
  9
$VISRETAIN
 70
     1
  9
$PLINEGEN
 70
     0
  9
$PSLTSCALE
 70
     1
  9
$TREEDEPTH
 70
  3020
  9
$CMLSTYLE
  2
Standard
  9
$CMLJUST
 70
     0
  9
$CMLSCALE
 40
1.0
  9
$PROXYGRAPHICS
 70
     1
  9
$MEASUREMENT
 70
     0
  9
$CELWEIGHT
370
    -1
  9
$ENDCAPS
280
     0
  9
$JOINSTYLE
280
     0
  9
$LWDISPLAY
290
     1
  9
$INSUNITS
 70
     4
  9
$HYPERLINKBASE
  1

  9
$STYLESHEET
  1

  9
$XEDIT
290
     1
  9
$CEPSNTYPE
380
     0
  9
$PSTYLEMODE
290
     1
  9
$FINGERPRINTGUID
  2
{9075DD45-B757-1144-9248-226C0D03ABCA}
  9
$VERSIONGUID
  2
{3907BA2F-E017-1643-B495-55D36AA6DCF6}
  9
$EXTNAMES
290
     1
  9
$PSVPSCALE
 40
0.0
  9
$OLESTARTUP
290
     0
  9
$SORTENTS
280
   127
  9
$INDEXCTL
280
     0
  9
$HIDETEXT
280
     1
  9
$XCLIPFRAME
280
     2
  9
$HALOGAP
280
     0
  9
$OBSCOLOR
 70
   257
  9
$OBSLTYPE
280
     0
  9
$INTERSECTIONDISPLAY
280
     0
  9
$INTERSECTIONCOLOR
 70
   257
  9
$DIMASSOC
280
     2
  9
$PROJECTNAME
  1

  9
$CAMERADISPLAY
290
     0
  9
$LENSLENGTH
 40
50.0
  9
$CAMERAHEIGHT
 40
0.0
  9
$STEPSPERSEC
 40
2.0
  9
$STEPSIZE
 40
6.0
  9
$3DDWFPREC
 40
2.0
  9
$PSOLWIDTH
 40
0.25
  9
$PSOLHEIGHT
 40
4.0
  9
$LOFTANG1
 40
1.570796326794896
  9
$LOFTANG2
 40
1.570796326794896
  9
$LOFTMAG1
 40
0.0
  9
$LOFTMAG2
 40
0.0
  9
$LOFTPARAM
 70
     7
  9
$LOFTNORMALS
280
     1
  9
$LATITUDE
 40
37.795
  9
$LONGITUDE
 40
-122.394
  9
$NORTHDIRECTION
 40
0.0
  9
$TIMEZONE
 70
 -8000
  9
$LIGHTGLYPHDISPLAY
280
     1
  9
$TILEMODELIGHTSYNCH
280
     1
  9
$CMATERIAL
347
11
  9
$SOLIDHIST
280
     0
  9
$SHOWHIST
280
     1
  9
$DWFFRAME
280
     2
  9
$DGNFRAME
280
     0
  9
$REALWORLDSCALE
290
     1
  9
$INTERFERECOLOR
 62
     1
  9
$INTERFEREOBJVS
345
33
  9
$INTERFEREVPVS
346
30
  9
$CSHADOW
280
     0
  9
$SHADOWPLANELOCATION
 40
0.0
  0
ENDSEC
  0
SECTION
  2
CLASSES
  0
CLASS
  1
ACDBDICTIONARYWDFLT
  2
AcDbDictionaryWithDefault
  3
ObjectDBX Classes
 90
        0
 91
        1
280
     0
281
     0
  0
CLASS
  1
MATERIAL
  2
AcDbMaterial
  3
ObjectDBX Classes
 90
     1153
 91
        3
280
     0
281
     0
  0
CLASS
  1
VISUALSTYLE
  2
AcDbVisualStyle
  3
ObjectDBX Classes
 90
     4095
 91
       24
280
     0
281
     0
  0
CLASS
  1
SCALE
  2
AcDbScale
  3
ObjectDBX Classes
 90
     1153
 91
       17
280
     0
281
     0
  0
CLASS
  1
TABLESTYLE
  2
AcDbTableStyle
  3
ObjectDBX Classes
 90
     4095
 91
        1
280
     0
281
     0
  0
CLASS
  1
MLEADERSTYLE
  2
AcDbMLeaderStyle
  3
ACDB_MLEADERSTYLE_CLASS
 90
     4095
 91
        1
280
     0
281
     0
  0
CLASS
  1
ACDBSECTIONVIEWSTYLE
  2
AcDbSectionViewStyle
  3
ObjectDBX Classes
 90
     1025
 91
        1
280
     0
281
     0
  0
CLASS
  1
ACDBDETAILVIEWSTYLE
  2
AcDbDetailViewStyle
  3
ObjectDBX Classes
 90
     1025
 91
        1
280
     0
281
     0
  0
CLASS
  1
DICTIONARYVAR
  2
AcDbDictionaryVar
  3
ObjectDBX Classes
 90
        0
 91
        5
280
     0
281
     0
  0
CLASS
  1
CELLSTYLEMAP
  2
AcDbCellStyleMap
  3
ObjectDBX Classes
 90
     1152
 91
        1
280
     0
281
     0
  0
ENDSEC
  0
SECTION
  2
TABLES
  0
TABLE
  2
VPORT
  5
8
330
0
100
AcDbSymbolTable
 70
     1
  0
VPORT
  5
57
330
8
100
AcDbSymbolTableRecord
100
AcDbViewportTableRecord
  2
*Active
 70
     0
 10
0.0
 20
0.0
 11
1.0
 21
1.0
 12
0.0
 22
0.0
 13
0.0
 23
0.0
 14
1.0
 24
1.0
 15
0.0
 25
0.0
 16
0.0
 26
0.0
 36
1.0
 17
104.9999999737534
 27
-148.4999999628701
 37
0.0
 40
302.939999924255
 41
0.7070707070707534
 42
50.0
 43
0.0
 44
0.0
 50
0.0
 51
0.0
 71
     0
 72
   100
 73
     1
 74
     0
 75
     1
 76
     0
 77
     0
 78
     0
281
     0
 65
     1
110
0.0
120
0.0
130
0.0
111
1.0
121
0.0
131
0.0
112
0.0
122
1.0
132
0.0
 79
     0
146
0.0
 60
     3
 61
     5
292
     1
282
     1
141
0.0
142
0.0
 63
   250
421
  3355443
  0
ENDTAB
  0
TABLE
  2
LTYPE
  5
5
330
0
100
AcDbSymbolTable
 70
     2
  0
LTYPE
  5
5B
330
5
100
AcDbSymbolTableRecord
100
AcDbLinetypeTableRecord
  2
ByBlock
 70
     0
  3

 72
    65
 73
     0
 40
0.0
  0
LTYPE
  5
5C
330
5
100
AcDbSymbolTableRecord
100
AcDbLinetypeTableRecord
  2
ByLayer
 70
     0
  3

 72
    65
 73
     0
 40
0.0
  0
LTYPE
  5
5D
330
5
100
AcDbSymbolTableRecord
100
AcDbLinetypeTableRecord
  2
Continuous
 70
     0
  3
Solid line
 72
    65
 73
     0
 40
0.0
  0
LTYPE
  5
A9
330
5
100
AcDbSymbolTableRecord
100
AcDbLinetypeTableRecord
  2
AI-Linetype-0
 70
     0
  3
Adobe Illustrator Linetype No. 0
 72
    65
 73
     2
 40
1.411111110758333
 49
0.7055555553791667
 74
     0
 49
-0.7055555553791667
 74
     0
  0
ENDTAB
  0
TABLE
  2
LAYER
  5
2
330
0
100
AcDbSymbolTable
 70
     2
  0
LAYER
  5
54
330
2
100
AcDbSymbolTableRecord
100
AcDbLayerTableRecord
  2
0
 70
     0
 62
     7
  6
Continuous
370
    -3
390
F
347
21
  0
LAYER
  5
78
330
2
100
AcDbSymbolTableRecord
100
AcDbLayerTableRecord
  2
レイヤー 1
 70
     0
 62
     7
  6
Continuous
370
     0
390
F
347
21
  0
ENDTAB
  0
TABLE
  2
STYLE
  5
3
330
0
100
AcDbSymbolTable
 70
     2
  0
STYLE
  5
55
330
3
100
AcDbSymbolTableRecord
100
AcDbTextStyleTableRecord
  2
Standard
 70
     0
 40
0.0
 41
1.0
 50
0.0
 71
     0
 42
0.2
  3
txt
  4

  0
STYLE
  5
5A
330
3
100
AcDbSymbolTableRecord
100
AcDbTextStyleTableRecord
  2
Annotative
 70
     0
 40
0.0
 41
1.0
 50
0.0
 71
     0
 42
0.2
  3
txt
  4

1001
AcadAnnotative
1000
AnnotativeData
1002
{
1070
     1
1070
     1
1002
}
  0
ENDTAB
  0
TABLE
  2
VIEW
  5
6
330
0
100
AcDbSymbolTable
 70
     0
  0
ENDTAB
  0
TABLE
  2
UCS
  5
7
330
0
100
AcDbSymbolTable
 70
     0
  0
ENDTAB
  0
TABLE
  2
APPID
  5
9
330
0
100
AcDbSymbolTable
 70
     2
  0
APPID
  5
56
330
9
100
AcDbSymbolTableRecord
100
AcDbRegAppTableRecord
  2
ACAD
 70
     0
  0
APPID
  5
5E
330
9
100
AcDbSymbolTableRecord
100
AcDbRegAppTableRecord
  2
AcadAnnotative
 70
     0
  0
ENDTAB
  0
TABLE
  2
DIMSTYLE
  5
A
330
0
100
AcDbSymbolTable
 70
     2
100
AcDbDimStyleTable
 71
     0
  0
DIMSTYLE
105
58
330
A
100
AcDbSymbolTableRecord
100
AcDbDimStyleTableRecord
  2
Standard
 70
     0
340
55
  0
DIMSTYLE
105
59
330
A
100
AcDbSymbolTableRecord
100
AcDbDimStyleTableRecord
  2
Annotative
 70
     0
340
55
1001
AcadAnnotative
1000
AnnotativeData
1002
{
1070
     1
1070
     1
1002
}
  0
ENDTAB
  0
TABLE
  2
BLOCK_RECORD
  5
1
330
0
100
AcDbSymbolTable
 70
    13
  0
BLOCK_RECORD
  5
70
330
1
100
AcDbSymbolTableRecord
100
AcDbBlockTableRecord
  2
*Model_Space
340
73
 70
     0
280
     1
281
     0
  0
BLOCK_RECORD
  5
6C
330
1
100
AcDbSymbolTableRecord
100
AcDbBlockTableRecord
  2
*Paper_Space
340
6F
 70
     0
280
     1
281
     0
  0
BLOCK_RECORD
  5
74
330
1
100
AcDbSymbolTableRecord
100
AcDbBlockTableRecord
  2
*Paper_Space0
340
77
 70
     0
280
     1
281
     0
  0
BLOCK_RECORD
  5
79
330
1
100
AcDbSymbolTableRecord
100
AcDbBlockTableRecord
  2
Block_0
340
0
102
{BLKREFS
331
7A
102
}
 70
     0
280
     1
281
     0
  0
BLOCK_RECORD
  5
7D
330
1
100
AcDbSymbolTableRecord
100
AcDbBlockTableRecord
  2
Block_1
340
0
102
{BLKREFS
331
7E
102
}
 70
     0
280
     1
281
     0
  0
BLOCK_RECORD
  5
111
330
1
100
AcDbSymbolTableRecord
100
AcDbBlockTableRecord
  2
Block_2
340
0
102
{BLKREFS
331
112
102
}
 70
     0
280
     1
281
     0
  0
BLOCK_RECORD
  5
115
330
1
100
AcDbSymbolTableRecord
100
AcDbBlockTableRecord
  2
Block_3
340
0
102
{BLKREFS
331
116
102
}
 70
     0
280
     1
281
     0
  0
BLOCK_RECORD
  5
122
330
1
100
AcDbSymbolTableRecord
100
AcDbBlockTableRecord
  2
Block_4
340
0
102
{BLKREFS
331
123
102
}
 70
     0
280
     1
281
     0
  0
BLOCK_RECORD
  5
126
330
1
100
AcDbSymbolTableRecord
100
AcDbBlockTableRecord
  2
Block_5
340
0
102
{BLKREFS
331
127
102
}
 70
     0
280
     1
281
     0
  0
BLOCK_RECORD
  5
130
330
1
100
AcDbSymbolTableRecord
100
AcDbBlockTableRecord
  2
Block_6
340
0
102
{BLKREFS
331
131
102
}
 70
     0
280
     1
281
     0
  0
BLOCK_RECORD
  5
13A
330
1
100
AcDbSymbolTableRecord
100
AcDbBlockTableRecord
  2
Block_7
340
0
102
{BLKREFS
331
13B
102
}
 70
     0
280
     1
281
     0
  0
BLOCK_RECORD
  5
13E
330
1
100
AcDbSymbolTableRecord
100
AcDbBlockTableRecord
  2
Block_8
340
0
102
{BLKREFS
331
13F
102
}
 70
     0
280
     1
281
     0
  0
BLOCK_RECORD
  5
149
330
1
100
AcDbSymbolTableRecord
100
AcDbBlockTableRecord
  2
Block_9
340
0
102
{BLKREFS
331
14A
102
}
 70
     0
280
     1
281
     0
  0
BLOCK_RECORD
  5
154
330
1
100
AcDbSymbolTableRecord
100
AcDbBlockTableRecord
  2
Block_10
340
0
102
{BLKREFS
331
155
102
}
 70
     0
280
     1
281
     0
  0
BLOCK_RECORD
  5
15B
330
1
100
AcDbSymbolTableRecord
100
AcDbBlockTableRecord
  2
Block_11
340
0
102
{BLKREFS
331
15C
102
}
 70
     0
280
     1
281
     0
  0
ENDTAB
  0
ENDSEC
  0
SECTION
  2
BLOCKS
  0
BLOCK
  5
71
330
70
100
AcDbEntity
  8
0
100
AcDbBlockBegin
  2
*Model_Space
 70
     0
 10
0.0
 20
0.0
 30
0.0
  3
*Model_Space
  1

  0
ENDBLK
  5
72
330
70
100
AcDbEntity
  8
0
100
AcDbBlockEnd
  0
BLOCK
  5
6D
330
6C
100
AcDbEntity
 67
     1
  8
0
100
AcDbBlockBegin
  2
*Paper_Space
 70
     0
 10
0.0
 20
0.0
 30
0.0
  3
*Paper_Space
  1

  0
ENDBLK
  5
6E
330
6C
100
AcDbEntity
 67
     1
  8
0
100
AcDbBlockEnd
  0
BLOCK
  5
75
330
74
100
AcDbEntity
 67
     1
  8
0
100
AcDbBlockBegin
  2
*Paper_Space0
 70
     0
 10
0.0
 20
0.0
 30
0.0
  3
*Paper_Space0
  1

  0
ENDBLK
  5
76
330
74
100
AcDbEntity
 67
     1
  8
0
100
AcDbBlockEnd
  0
BLOCK
  5
7B
330
79
100
AcDbEntity
  8
0
100
AcDbBlockBegin
  2
Block_0
 70
     0
 10
0.0
 20
0.0
 30
0.0
  3
Block_0
  1

  0
INSERT
  5
7E
330
79
100
AcDbEntity
  8
レイヤー 1
100
AcDbBlockReference
  2
Block_1
 10
0.0
 20
0.0
 30
0.0
  0
ENDBLK
  5
7C
330
79
100
AcDbEntity
  8
0
100
AcDbBlockEnd
  0
BLOCK
  5
7F
330
7D
100
AcDbEntity
  8
0
100
AcDbBlockBegin
  2
Block_1
 70
     0
 10
0.0
 20
0.0
 30
0.0
  3
Block_1
  1

  0
SPLINE
  5
81
330
7D
100
AcDbEntity
  8
レイヤー 1
100
AcDbSpline
210
0.0
220
0.0
230
1.0
 70
     9
 71
     3
 72
    17
 73
    13
 74
     0
 42
0.0000000001
 43
0.0000000001
 40
0.0
 40
0.0
 40
0.0
 40
0.0
 40
1.0
 40
1.0
 40
1.0
 40
2.0
 40
2.0
 40
2.0
 40
3.0
 40
3.0
 40
3.0
 40
4.0
 40
4.0
 40
4.0
 40
4.0
 10
126.8656412443252
 20
-149.4558213602055
 30
0.0
 10
126.7471299596326
 20
-149.3438557569349
 30
0.0
 10
126.6548014006279
 20
-149.2801214904577
 30
0.0
 10
126.5511040265219
 20
-149.2167317335291
 30
0.0
 10
126.5511040265219
 20
-149.2167317335291
 30
0.0
 10
126.662036101147
 20
-149.1047661302585
 30
0.0
 10
126.662036101147
 20
-149.1047661302585
 30
0.0
 10
126.7767577808058
 20
-149.1512749193094
 30
0.0
 10
126.8732204543928
 20
-149.2084635043645
 30
0.0
 10
126.9824299812752
 20
-149.3097493116309
 30
0.0
 10
126.9824299812752
 20
-149.3097493116309
 30
0.0
 10
126.8656412443252
 20
-149.4558213602055
 30
0.0
 10
126.8656412443252
 20
-149.4558213602055
 30
0.0
  0
SPLINE
  5
82
330
7D
100
AcDbEntity
  8
レイヤー 1
100
AcDbSpline
210
0.0
220
0.0
230
1.0
 70
     9
 71
     3
 72
    20
 73
    16
 74
     0
 42
0.0000000001
 43
0.0000000001
 40
0.0
 40
0.0
 40
0.0
 40
0.0
 40
1.0
 40
1.0
 40
1.0
 40
2.0
 40
2.0
 40
2.0
 40
3.0
 40
3.0
 40
3.0
 40
4.0
 40
4.0
 40
4.0
 40
5.0
 40
5.0
 40
5.0
 40
5.0
 10
126.3750596472257
 20
-148.4000718487506
 30
0.0
 10
126.3416422210187
 20
-148.4488199498669
 30
0.0
 10
126.2882432409974
 20
-148.5270236173821
 30
0.0
 10
126.165942351271
 20
-148.6370944181358
 30
0.0
 10
126.2362222991701
 20
-148.6412285327181
 30
0.0
 10
126.2620605153095
 20
-148.6412285327181
 30
0.0
 10
126.2823865786724
 20
-148.6412285327181
 30
0.0
 10
126.2823865786724
 20
-148.6412285327181
 30
0.0
 10
126.4825466263655
 20
-148.6412285327181
 30
0.0
 10
126.4825466263655
 20
-148.6412285327181
 30
0.0
 10
126.5101073902475
 20
-148.6412285327181
 30
0.0
 10
126.5528265742645
 20
-148.639161475427
 30
0.0
 10
126.6175943693873
 20
-148.6370944181358
 30
0.0
 10
126.5194091480576
 20
-148.563024865203
 30
0.0
 10
126.4770344735891
 20
-148.5165160761521
 30
0.0
 10
126.3750596472257
 20
-148.4000718487506
 30
0.0
  0
SPLINE
  5
83
330
7D
100
AcDbEntity
  8
レイヤー 1
100
AcDbSpline
210
0.0
220
0.0
230
1.0
 70
     9
 71
     3
 72
    23
 73
    19
 74
     0
 42
0.0000000001
 43
0.0000000001
 40
0.0
 40
0.0
 40
0.0
 40
0.0
 40
1.0
 40
1.0
 40
1.0
 40
2.0
 40
2.0
 40
2.0
 40
3.0
 40
3.0
 40
3.0
 40
4.0
 40
4.0
 40
4.0
 40
5.0
 40
5.0
 40
5.0
 40
6.0
 40
6.0
 40
6.0
 40
6.0
 10
126.1139214094437
 20
-149.24222544012
 30
0.0
 10
126.0953178938234
 20
-149.2653075798711
 30
0.0
 10
126.0102240353377
 20
-149.3776176926903
 30
0.0
 10
125.8879231456113
 20
-149.4578884174966
 30
0.0
 10
125.8879231456113
 20
-149.4578884174966
 30
0.0
 10
125.7418510970367
 20
-149.3373100755129
 30
0.0
 10
125.7418510970367
 20
-149.3373100755129
 30
0.0
 10
125.8734537445733
 20
-149.2611734652889
 30
0.0
 10
125.9602701508016
 20
-149.166088829896
 30
0.0
 10
126.0029893348187
 20
-149.1130343594231
 30
0.0
 10
126.0029893348187
 20
-149.1130343594231
 30
0.0
 10
126.1545735361697
 20
-149.1957166510691
 30
0.0
 10
126.1545735361697
 20
-149.1957166510691
 30
0.0
 10
126.1621527462372
 20
-149.1998507656514
 30
0.0
 10
126.1697319563048
 20
-149.2060519375248
 30
0.0
 10
126.1697319563048
 20
-149.2167317335291
 30
0.0
 10
126.1697319563048
 20
-149.24222544012
 30
0.0
 10
126.1380370778405
 20
-149.24222544012
 30
0.0
 10
126.1139214094437
 20
-149.24222544012
 30
0.0
  0
SPLINE
  5
84
330
7D
100
AcDbEntity
  8
レイヤー 1
100
AcDbSpline
210
0.0
220
0.0
230
1.0
 70
     9
 71
     3
 72
    17
 73
    13
 74
     0
 42
0.0000000001
 43
0.0000000001
 40
0.0
 40
0.0
 40
0.0
 40
0.0
 40
1.0
 40
1.0
 40
1.0
 40
2.0
 40
2.0
 40
2.0
 40
3.0
 40
3.0
 40
3.0
 40
4.0
 40
4.0
 40
4.0
 40
4.0
 10
125.71773542864
 20
-148.5375311586121
 30
0.0
 10
125.6639919390701
 20
-148.4613945483881
 30
0.0
 10
125.5509928071539
 20
-148.3852579381641
 30
0.0
 10
125.4603867958918
 20
-148.3556301169909
 30
0.0
 10
125.4603867958918
 20
-148.3556301169909
 30
0.0
 10
125.5437581066349
 20
-148.1906100432475
 30
0.0
 10
125.5437581066349
 20
-148.1906100432475
 30
0.0
 10
125.6326415701543
 20
-148.2266112910683
 30
0.0
 10
125.7253146387075
 20
-148.2837998761235
 30
0.0
 10
125.8028292871257
 20
-148.3640706009298
 30
0.0
 10
125.8028292871257
 20
-148.3640706009298
 30
0.0
 10
125.71773542864
 20
-148.5375311586121
 30
0.0
 10
125.71773542864
 20
-148.5375311586121
 30
0.0
  0
SPLINE
  5
85
330
7D
100
AcDbEntity
  8
レイヤー 1
100
AcDbSpline
210
0.0
220
0.0
230
1.0
 70
     9
 71
     3
 72
    23
 73
    19
 74
     0
 42
0.0000000001
 43
0.0000000001
 40
0.0
 40
0.0
 40
0.0
 40
0.0
 40
1.0
 40
1.0
 40
1.0
 40
2.0
 40
2.0
 40
2.0
 40
3.0
 40
3.0
 40
3.0
 40
4.0
 40
4.0
 40
4.0
 40
5.0
 40
5.0
 40
5.0
 40
6.0
 40
6.0
 40
6.0
 40
6.0
 10
125.4955267698414
 20
-149.4323947109058
 30
0.0
 10
125.4955267698414
 20
-149.4537543029143
 30
0.0
 10
125.497249317584
 20
-149.4916503532521
 30
0.0
 10
125.4752007064784
 20
-149.4916503532521
 30
0.0
 10
125.4658989486682
 20
-149.4916503532521
 30
0.0
 10
125.4586642481492
 20
-149.4854491813786
 30
0.0
 10
125.449362490339
 20
-149.4685682135009
 30
0.0
 10
125.449362490339
 20
-149.4685682135009
 30
0.0
 10
125.3584119695284
 20
-149.2866671718797
 30
0.0
 10
125.3584119695284
 20
-149.2866671718797
 30
0.0
 10
125.5475477116686
 20
-149.1574760911829
 30
0.0
 10
125.7194579763826
 20
-148.8804904141687
 30
0.0
 10
125.7604546126571
 20
-148.8083156637528
 30
0.0
 10
125.7604546126571
 20
-148.8083156637528
 30
0.0
 10
125.8231553504886
 20
-148.9883219028571
 30
0.0
 10
125.8231553504886
 20
-148.9883219028571
 30
0.0
 10
125.7067111230872
 20
-149.1850368550648
 30
0.0
 10
125.553059864445
 20
-149.3690049539772
 30
0.0
 10
125.4955267698414
 20
-149.4323947109058
 30
0.0
  0
SPLINE
  5
86
330
7D
100
AcDbEntity
  8
レイヤー 1
100
AcDbSpline
210
0.0
220
0.0
230
1.0
 70
     9
 71
     3
 72
   182
 73
   178
 74
     0
 42
0.0000000001
 43
0.0000000001
 40
0.0
 40
0.0
 40
0.0
 40
0.0
 40
1.0
 40
1.0
 40
1.0
 40
2.0
 40
2.0
 40
2.0
 40
3.0
 40
3.0
 40
3.0
 40
4.0
 40
4.0
 40
4.0
 40
5.0
 40
5.0
 40
5.0
 40
6.0
 40
6.0
 40
6.0
 40
7.0
 40
7.0
 40
7.0
 40
8.0
 40
8.0
 40
8.0
 40
9.0
 40
9.0
 40
9.0
 40
10.0
 40
10.0
 40
10.0
 40
11.0
 40
11.0
 40
11.0
 40
12.0
 40
12.0
 40
12.0
 40
13.0
 40
13.0
 40
13.0
 40
14.0
 40
14.0
 40
14.0
 40
15.0
 40
15.0
 40
15.0
 40
16.0
 40
16.0
 40
16.0
 40
17.0
 40
17.0
 40
17.0
 40
18.0
 40
18.0
 40
18.0
 40
19.0
 40
19.0
 40
19.0
 40
20.0
 40
20.0
 40
20.0
 40
21.0
 40
21.0
 40
21.0
 40
22.0
 40
22.0
 40
22.0
 40
23.0
 40
23.0
 40
23.0
 40
24.0
 40
24.0
 40
24.0
 40
25.0
 40
25.0
 40
25.0
 40
26.0
 40
26.0
 40
26.0
 40
27.0
 40
27.0
 40
27.0
 40
28.0
 40
28.0
 40
28.0
 40
29.0
 40
29.0
 40
29.0
 40
30.0
 40
30.0
 40
30.0
 40
31.0
 40
31.0
 40
31.0
 40
32.0
 40
32.0
 40
32.0
 40
33.0
 40
33.0
 40
33.0
 40
34.0
 40
34.0
 40
34.0
 40
35.0
 40
35.0
 40
35.0
 40
36.0
 40
36.0
 40
36.0
 40
37.0
 40
37.0
 40
37.0
 40
38.0
 40
38.0
 40
38.0
 40
39.0
 40
39.0
 40
39.0
 40
40.0
 40
40.0
 40
40.0
 40
41.0
 40
41.0
 40
41.0
 40
42.0
 40
42.0
 40
42.0
 40
43.0
 40
43.0
 40
43.0
 40
44.0
 40
44.0
 40
44.0
 40
45.0
 40
45.0
 40
45.0
 40
46.0
 40
46.0
 40
46.0
 40
47.0
 40
47.0
 40
47.0
 40
48.0
 40
48.0
 40
48.0
 40
49.0
 40
49.0
 40
49.0
 40
50.0
 40
50.0
 40
50.0
 40
51.0
 40
51.0
 40
51.0
 40
52.0
 40
52.0
 40
52.0
 40
53.0
 40
53.0
 40
53.0
 40
54.0
 40
54.0
 40
54.0
 40
55.0
 40
55.0
 40
55.0
 40
56.0
 40
56.0
 40
56.0
 40
57.0
 40
57.0
 40
57.0
 40
58.0
 40
58.0
 40
58.0
 40
59.0
 40
59.0
 40
59.0
 40
59.0
 10
126.4749674162979
 20
-150.0607801274153
 30
0.0
 10
126.4749674162979
 20
-150.0607801274153
 30
0.0
 10
125.9175509667845
 20
-150.0607801274153
 30
0.0
 10
125.9175509667845
 20
-150.0607801274153
 30
0.0
 10
125.7308267914839
 20
-150.0607801274153
 30
0.0
 10
125.5416910493437
 20
-150.0652587515462
 30
0.0
 10
125.3546223644947
 20
-150.0776610952931
 30
0.0
 10
125.3546223644947
 20
-150.0776610952931
 30
0.0
 10
125.3546223644947
 20
-149.8706108566296
 30
0.0
 10
125.3546223644947
 20
-149.8706108566296
 30
0.0
 10
125.5492702594113
 20
-149.8830132003764
 30
0.0
 10
125.8324571082988
 20
-149.8874918245073
 30
0.0
 10
125.9175509667845
 20
-149.8874918245073
 30
0.0
 10
125.9175509667845
 20
-149.8874918245073
 30
0.0
 10
126.1104763139585
 20
-149.8874918245073
 30
0.0
 10
126.1104763139585
 20
-149.8874918245073
 30
0.0
 10
126.1104763139585
 20
-149.8874918245073
 30
0.0
 10
126.1104763139585
 20
-149.745553890515
 30
0.0
 10
126.1104763139585
 20
-149.745553890515
 30
0.0
 10
126.1104763139585
 20
-149.745553890515
 30
0.0
 10
125.9695719086117
 20
-149.745553890515
 30
0.0
 10
125.9695719086117
 20
-149.745553890515
 30
0.0
 10
125.8252224077798
 20
-149.745553890515
 30
0.0
 10
125.6805283973993
 20
-149.7500325146458
 30
0.0
 10
125.5361788965673
 20
-149.7648464252324
 30
0.0
 10
125.5361788965673
 20
-149.7648464252324
 30
0.0
 10
125.5361788965673
 20
-149.5553846197292
 30
0.0
 10
125.5361788965673
 20
-149.5553846197292
 30
0.0
 10
125.6863850597242
 20
-149.5701985303158
 30
0.0
 10
125.9030815657464
 20
-149.574332644898
 30
0.0
 10
125.9695719086117
 20
-149.574332644898
 30
0.0
 10
125.9695719086117
 20
-149.574332644898
 30
0.0
 10
126.1104763139585
 20
-149.574332644898
 30
0.0
 10
126.1104763139585
 20
-149.574332644898
 30
0.0
 10
126.1066867089247
 20
-149.5023301492564
 30
0.0
 10
126.1066867089247
 20
-149.4961289773829
 30
0.0
 10
126.1011745561483
 20
-149.4430745069101
 30
0.0
 10
126.1011745561483
 20
-149.4430745069101
 30
0.0
 10
126.2231309363261
 20
-149.4578884174966
 30
0.0
 10
126.2231309363261
 20
-149.4578884174966
 30
0.0
 10
126.2231309363261
 20
-149.4578884174966
 30
0.0
 10
126.1363145300979
 20
-149.2866671718797
 30
0.0
 10
126.1363145300979
 20
-149.2866671718797
 30
0.0
 10
126.1769666568238
 20
-149.2928683437532
 30
0.0
 10
126.2417344519465
 20
-149.3014810824663
 30
0.0
 10
126.2565483625331
 20
-149.3014810824663
 30
0.0
 10
126.3009900942928
 20
-149.3014810824663
 30
0.0
 10
126.3158040048794
 20
-149.2801214904577
 30
0.0
 10
126.3158040048794
 20
-149.2232774149511
 30
0.0
 10
126.3158040048794
 20
-149.2232774149511
 30
0.0
 10
126.3158040048794
 20
-149.0854735955411
 30
0.0
 10
126.3158040048794
 20
-149.0854735955411
 30
0.0
 10
126.3158040048794
 20
-149.0854735955411
 30
0.0
 10
126.2231309363261
 20
-149.0854735955411
 30
0.0
 10
126.2231309363261
 20
-149.0854735955411
 30
0.0
 10
126.1066867089247
 20
-149.0854735955411
 30
0.0
 10
125.9695719086117
 20
-149.0854735955411
 30
0.0
 10
125.862084929472
 20
-149.0982204488366
 30
0.0
 10
125.862084929472
 20
-149.0982204488366
 30
0.0
 10
125.862084929472
 20
-148.9080511780508
 30
0.0
 10
125.862084929472
 20
-148.9080511780508
 30
0.0
 10
126.0085014875951
 20
-148.9249321459285
 30
0.0
 10
126.2103840830307
 20
-148.9269992032196
 30
0.0
 10
126.2231309363261
 20
-148.9269992032196
 30
0.0
 10
126.2231309363261
 20
-148.9269992032196
 30
0.0
 10
126.3158040048794
 20
-148.9269992032196
 30
0.0
 10
126.3158040048794
 20
-148.9269992032196
 30
0.0
 10
126.3158040048794
 20
-148.9269992032196
 30
0.0
 10
126.3158040048794
 20
-148.7957410652316
 30
0.0
 10
126.3158040048794
 20
-148.7957410652316
 30
0.0
 10
126.3158040048794
 20
-148.7957410652316
 30
0.0
 10
126.2823865786724
 20
-148.7957410652316
 30
0.0
 10
126.2823865786724
 20
-148.7957410652316
 30
0.0
 10
126.2434569996891
 20
-148.7957410652316
 30
0.0
 10
126.1342474728067
 20
-148.7998751798139
 30
0.0
 10
126.0567328243886
 20
-148.8083156637528
 30
0.0
 10
126.0567328243886
 20
-148.8083156637528
 30
0.0
 10
126.0567328243886
 20
-148.7280449389464
 30
0.0
 10
126.0567328243886
 20
-148.7280449389464
 30
0.0
 10
126.0102240353377
 20
-148.7661132440585
 30
0.0
 10
125.9881754242321
 20
-148.780927154645
 30
0.0
 10
125.9509683929914
 20
-148.8041815491705
 30
0.0
 10
125.9509683929914
 20
-148.8041815491705
 30
0.0
 10
125.7862928287965
 20
-148.6751627232479
 30
0.0
 10
125.7862928287965
 20
-148.6751627232479
 30
0.0
 10
125.8548502289529
 20
-148.6412285327181
 30
0.0
 10
125.9919650292659
 20
-148.5778387757896
 30
0.0
 10
126.1287353200303
 20
-148.4340060392804
 30
0.0
 10
126.2010823252206
 20
-148.3556301169909
 30
0.0
 10
126.269639725377
 20
-148.271053022828
 30
0.0
 10
126.3158040048794
 20
-148.1695949607875
 30
0.0
 10
126.3158040048794
 20
-148.1695949607875
 30
0.0
 10
126.5011501419858
 20
-148.2309176604249
 30
0.0
 10
126.5011501419858
 20
-148.2309176604249
 30
0.0
 10
126.517686600315
 20
-148.2371188322983
 30
0.0
 10
126.5269883581252
 20
-148.2457315710115
 30
0.0
 10
126.5269883581252
 20
-148.2583061695326
 30
0.0
 10
126.5269883581252
 20
-148.2753593921846
 30
0.0
 10
126.5159640525724
 20
-148.281560564058
 30
0.0
 10
126.4935709319183
 20
-148.2943074173535
 30
0.0
 10
126.5638508798174
 20
-148.3916313648118
 30
0.0
 10
126.7064778329067
 20
-148.4889553122701
 30
0.0
 10
126.7361056540798
 20
-148.507903337439
 30
0.0
 10
126.8677083016164
 20
-148.5967868009584
 30
0.0
 10
126.9676160706886
 20
-148.6243475648404
 30
0.0
 10
127.0361734708451
 20
-148.6432955900093
 30
0.0
 10
127.0361734708451
 20
-148.6432955900093
 30
0.0
 10
126.9324760967391
 20
-148.8126220331093
 30
0.0
 10
126.9324760967391
 20
-148.8126220331093
 30
0.0
 10
126.8584065438062
 20
-148.7829942119362
 30
0.0
 10
126.8139648120465
 20
-148.7640461867673
 30
0.0
 10
126.7102674379405
 20
-148.6984171177733
 30
0.0
 10
126.7102674379405
 20
-148.6984171177733
 30
0.0
 10
126.7102674379405
 20
-148.8083156637528
 30
0.0
 10
126.7102674379405
 20
-148.8083156637528
 30
0.0
 10
126.6379204327502
 20
-148.7998751798139
 30
0.0
 10
126.5269883581252
 20
-148.7957410652316
 30
0.0
 10
126.4804795690743
 20
-148.7957410652316
 30
0.0
 10
126.4804795690743
 20
-148.7957410652316
 30
0.0
 10
126.4804795690743
 20
-148.9269992032196
 30
0.0
 10
126.4804795690743
 20
-148.9269992032196
 30
0.0
 10
126.4804795690743
 20
-148.9269992032196
 30
0.0
 10
126.5862440004715
 20
-148.9269992032196
 30
0.0
 10
126.5862440004715
 20
-148.9269992032196
 30
0.0
 10
126.5879665482141
 20
-148.9269992032196
 30
0.0
 10
126.7919162009409
 20
-148.9249321459285
 30
0.0
 10
126.9472900073256
 20
-148.9080511780508
 30
0.0
 10
126.9472900073256
 20
-148.9080511780508
 30
0.0
 10
126.9472900073256
 20
-149.0982204488366
 30
0.0
 10
126.9472900073256
 20
-149.0982204488366
 30
0.0
 10
126.8342908754095
 20
-149.0854735955411
 30
0.0
 10
126.6971760750965
 20
-149.0854735955411
 30
0.0
 10
126.5862440004715
 20
-149.0854735955411
 30
0.0
 10
126.5862440004715
 20
-149.0854735955411
 30
0.0
 10
126.4804795690743
 20
-149.0854735955411
 30
0.0
 10
126.4804795690743
 20
-149.0854735955411
 30
0.0
 10
126.4804795690743
 20
-149.0854735955411
 30
0.0
 10
126.4804795690743
 20
-149.311816368922
 30
0.0
 10
126.4804795690743
 20
-149.311816368922
 30
0.0
 10
126.4804795690743
 20
-149.4303276536146
 30
0.0
 10
126.4584309579687
 20
-149.4665011562098
 30
0.0
 10
126.3178710621705
 20
-149.4813150667963
 30
0.0
 10
126.3213161576558
 20
-149.5002630919652
 30
0.0
 10
126.3158040048794
 20
-149.5109428879695
 30
0.0
 10
126.2823865786724
 20
-149.5340250277207
 30
0.0
 10
126.2806640309298
 20
-149.5529730528895
 30
0.0
 10
126.2806640309298
 20
-149.5595187343115
 30
0.0
 10
126.2789414831872
 20
-149.574332644898
 30
0.0
 10
126.2789414831872
 20
-149.574332644898
 30
0.0
 10
126.3991753156224
 20
-149.574332644898
 30
0.0
 10
126.3991753156224
 20
-149.574332644898
 30
0.0
 10
126.5435248164544
 20
-149.574332644898
 30
0.0
 10
126.6899413745775
 20
-149.5701985303158
 30
0.0
 10
126.8360134231521
 20
-149.5553846197292
 30
0.0
 10
126.8360134231521
 20
-149.5553846197292
 30
0.0
 10
126.8360134231521
 20
-149.7624348583927
 30
0.0
 10
126.8360134231521
 20
-149.7624348583927
 30
0.0
 10
126.6472221905604
 20
-149.745553890515
 30
0.0
 10
126.4157117739516
 20
-149.745553890515
 30
0.0
 10
126.3991753156224
 20
-149.745553890515
 30
0.0
 10
126.3991753156224
 20
-149.745553890515
 30
0.0
 10
126.2768744258961
 20
-149.745553890515
 30
0.0
 10
126.2768744258961
 20
-149.745553890515
 30
0.0
 10
126.2768744258961
 20
-149.745553890515
 30
0.0
 10
126.2768744258961
 20
-149.8874918245073
 30
0.0
 10
126.2768744258961
 20
-149.8874918245073
 30
0.0
 10
126.2768744258961
 20
-149.8874918245073
 30
0.0
 10
126.4749674162979
 20
-149.8874918245073
 30
0.0
 10
126.4749674162979
 20
-149.8874918245073
 30
0.0
 10
126.6641031584381
 20
-149.8874918245073
 30
0.0
 10
126.8546169387724
 20
-149.8830132003764
 30
0.0
 10
127.0434081713641
 20
-149.8706108566296
 30
0.0
 10
127.0434081713641
 20
-149.8706108566296
 30
0.0
 10
127.0434081713641
 20
-150.0776610952931
 30
0.0
 10
127.0434081713641
 20
-150.0776610952931
 30
0.0
 10
126.7974283537173
 20
-150.0607801274153
 30
0.0
 10
126.4956379892094
 20
-150.0607801274153
 30
0.0
 10
126.4749674162979
 20
-150.0607801274153
 30
0.0
  0
SPLINE
  5
87
330
7D
100
AcDbEntity
  8
レイヤー 1
100
AcDbSpline
210
0.0
220
0.0
230
1.0
 70
     9
 71
     3
 72
    17
 73
    13
 74
     0
 42
0.0000000001
 43
0.0000000001
 40
0.0
 40
0.0
 40
0.0
 40
0.0
 40
1.0
 40
1.0
 40
1.0
 40
2.0
 40
2.0
 40
2.0
 40
3.0
 40
3.0
 40
3.0
 40
4.0
 40
4.0
 40
4.0
 40
4.0
 10
125.5602945649641
 20
-148.8825574714599
 30
0.0
 10
125.4676214964109
 20
-148.7766207852885
 30
0.0
 10
125.3973415485118
 20
-148.7385524801765
 30
0.0
 10
125.3160372950599
 20
-148.7068576017122
 30
0.0
 10
125.3160372950599
 20
-148.7068576017122
 30
0.0
 10
125.4121554590983
 20
-148.5418375279687
 30
0.0
 10
125.4121554590983
 20
-148.5418375279687
 30
0.0
 10
125.497249317584
 20
-148.5842122024373
 30
0.0
 10
125.6030137489812
 20
-148.6624158699525
 30
0.0
 10
125.6491780284835
 20
-148.7173651429421
 30
0.0
 10
125.6491780284835
 20
-148.7173651429421
 30
0.0
 10
125.5602945649641
 20
-148.8825574714599
 30
0.0
 10
125.5602945649641
 20
-148.8825574714599
 30
0.0
  0
HATCH
  5
88
330
7D
100
AcDbEntity
  8
レイヤー 1
 62
   250
420
  2299925
440
 33554687
100
AcDbHatch
 10
0.0
 20
0.0
 30
0.0
210
0.0
220
0.0
230
1.0
  2
SOLID
 70
     1
 71
     1
 91
        7
 92
        1
 93
        1
 72
     4
 94
        3
 73
     0
 74
     0
 95
       17
 96
       13
 40
0.0
 40
0.0
 40
0.0
 40
0.0
 40
1.0
 40
1.0
 40
1.0
 40
2.0
 40
2.0
 40
2.0
 40
3.0
 40
3.0
 40
3.0
 40
4.0
 40
4.0
 40
4.0
 40
4.0
 10
126.8656412443252
 20
-149.4558213602055
 10
126.7471299596326
 20
-149.3438557569349
 10
126.6548014006279
 20
-149.2801214904577
 10
126.5511040265219
 20
-149.2167317335291
 10
126.5511040265219
 20
-149.2167317335291
 10
126.662036101147
 20
-149.1047661302585
 10
126.662036101147
 20
-149.1047661302585
 10
126.7767577808058
 20
-149.1512749193094
 10
126.8732204543928
 20
-149.2084635043645
 10
126.9824299812752
 20
-149.3097493116309
 10
126.9824299812752
 20
-149.3097493116309
 10
126.8656412443252
 20
-149.4558213602055
 10
126.8656412443252
 20
-149.4558213602055
 97
        0
 97
        1
330
81
 92
        1
 93
        1
 72
     4
 94
        3
 73
     0
 74
     0
 95
       20
 96
       16
 40
0.0
 40
0.0
 40
0.0
 40
0.0
 40
1.0
 40
1.0
 40
1.0
 40
2.0
 40
2.0
 40
2.0
 40
3.0
 40
3.0
 40
3.0
 40
4.0
 40
4.0
 40
4.0
 40
5.0
 40
5.0
 40
5.0
 40
5.0
 10
126.3750596472257
 20
-148.4000718487506
 10
126.3416422210187
 20
-148.4488199498669
 10
126.2882432409974
 20
-148.5270236173821
 10
126.165942351271
 20
-148.6370944181358
 10
126.2362222991701
 20
-148.6412285327181
 10
126.2620605153095
 20
-148.6412285327181
 10
126.2823865786724
 20
-148.6412285327181
 10
126.2823865786724
 20
-148.6412285327181
 10
126.4825466263655
 20
-148.6412285327181
 10
126.4825466263655
 20
-148.6412285327181
 10
126.5101073902475
 20
-148.6412285327181
 10
126.5528265742645
 20
-148.639161475427
 10
126.6175943693873
 20
-148.6370944181358
 10
126.5194091480576
 20
-148.563024865203
 10
126.4770344735891
 20
-148.5165160761521
 10
126.3750596472257
 20
-148.4000718487506
 97
        0
 97
        1
330
82
 92
        1
 93
        1
 72
     4
 94
        3
 73
     0
 74
     0
 95
       23
 96
       19
 40
0.0
 40
0.0
 40
0.0
 40
0.0
 40
1.0
 40
1.0
 40
1.0
 40
2.0
 40
2.0
 40
2.0
 40
3.0
 40
3.0
 40
3.0
 40
4.0
 40
4.0
 40
4.0
 40
5.0
 40
5.0
 40
5.0
 40
6.0
 40
6.0
 40
6.0
 40
6.0
 10
126.1139214094437
 20
-149.24222544012
 10
126.0953178938234
 20
-149.2653075798711
 10
126.0102240353377
 20
-149.3776176926903
 10
125.8879231456113
 20
-149.4578884174966
 10
125.8879231456113
 20
-149.4578884174966
 10
125.7418510970367
 20
-149.3373100755129
 10
125.7418510970367
 20
-149.3373100755129
 10
125.8734537445733
 20
-149.2611734652889
 10
125.9602701508016
 20
-149.166088829896
 10
126.0029893348187
 20
-149.1130343594231
 10
126.0029893348187
 20
-149.1130343594231
 10
126.1545735361697
 20
-149.1957166510691
 10
126.1545735361697
 20
-149.1957166510691
 10
126.1621527462372
 20
-149.1998507656514
 10
126.1697319563048
 20
-149.2060519375248
 10
126.1697319563048
 20
-149.2167317335291
 10
126.1697319563048
 20
-149.24222544012
 10
126.1380370778405
 20
-149.24222544012
 10
126.1139214094437
 20
-149.24222544012
 97
        0
 97
        1
330
83
 92
        1
 93
        1
 72
     4
 94
        3
 73
     0
 74
     0
 95
       17
 96
       13
 40
0.0
 40
0.0
 40
0.0
 40
0.0
 40
1.0
 40
1.0
 40
1.0
 40
2.0
 40
2.0
 40
2.0
 40
3.0
 40
3.0
 40
3.0
 40
4.0
 40
4.0
 40
4.0
 40
4.0
 10
125.71773542864
 20
-148.5375311586121
 10
125.6639919390701
 20
-148.4613945483881
 10
125.5509928071539
 20
-148.3852579381641
 10
125.4603867958918
 20
-148.3556301169909
 10
125.4603867958918
 20
-148.3556301169909
 10
125.5437581066349
 20
-148.1906100432475
 10
125.5437581066349
 20
-148.1906100432475
 10
125.6326415701543
 20
-148.2266112910683
 10
125.7253146387075
 20
-148.2837998761235
 10
125.8028292871257
 20
-148.3640706009298
 10
125.8028292871257
 20
-148.3640706009298
 10
125.71773542864
 20
-148.5375311586121
 10
125.71773542864
 20
-148.5375311586121
 97
        0
 97
        1
330
84
 92
        1
 93
        1
 72
     4
 94
        3
 73
     0
 74
     0
 95
       23
 96
       19
 40
0.0
 40
0.0
 40
0.0
 40
0.0
 40
1.0
 40
1.0
 40
1.0
 40
2.0
 40
2.0
 40
2.0
 40
3.0
 40
3.0
 40
3.0
 40
4.0
 40
4.0
 40
4.0
 40
5.0
 40
5.0
 40
5.0
 40
6.0
 40
6.0
 40
6.0
 40
6.0
 10
125.4955267698414
 20
-149.4323947109058
 10
125.4955267698414
 20
-149.4537543029143
 10
125.497249317584
 20
-149.4916503532521
 10
125.4752007064784
 20
-149.4916503532521
 10
125.4658989486682
 20
-149.4916503532521
 10
125.4586642481492
 20
-149.4854491813786
 10
125.449362490339
 20
-149.4685682135009
 10
125.449362490339
 20
-149.4685682135009
 10
125.3584119695284
 20
-149.2866671718797
 10
125.3584119695284
 20
-149.2866671718797
 10
125.5475477116686
 20
-149.1574760911829
 10
125.7194579763826
 20
-148.8804904141687
 10
125.7604546126571
 20
-148.8083156637528
 10
125.7604546126571
 20
-148.8083156637528
 10
125.8231553504886
 20
-148.9883219028571
 10
125.8231553504886
 20
-148.9883219028571
 10
125.7067111230872
 20
-149.1850368550648
 10
125.553059864445
 20
-149.3690049539772
 10
125.4955267698414
 20
-149.4323947109058
 97
        0
 97
        1
330
85
 92
        1
 93
        1
 72
     4
 94
        3
 73
     0
 74
     0
 95
      182
 96
      178
 40
0.0
 40
0.0
 40
0.0
 40
0.0
 40
1.0
 40
1.0
 40
1.0
 40
2.0
 40
2.0
 40
2.0
 40
3.0
 40
3.0
 40
3.0
 40
4.0
 40
4.0
 40
4.0
 40
5.0
 40
5.0
 40
5.0
 40
6.0
 40
6.0
 40
6.0
 40
7.0
 40
7.0
 40
7.0
 40
8.0
 40
8.0
 40
8.0
 40
9.0
 40
9.0
 40
9.0
 40
10.0
 40
10.0
 40
10.0
 40
11.0
 40
11.0
 40
11.0
 40
12.0
 40
12.0
 40
12.0
 40
13.0
 40
13.0
 40
13.0
 40
14.0
 40
14.0
 40
14.0
 40
15.0
 40
15.0
 40
15.0
 40
16.0
 40
16.0
 40
16.0
 40
17.0
 40
17.0
 40
17.0
 40
18.0
 40
18.0
 40
18.0
 40
19.0
 40
19.0
 40
19.0
 40
20.0
 40
20.0
 40
20.0
 40
21.0
 40
21.0
 40
21.0
 40
22.0
 40
22.0
 40
22.0
 40
23.0
 40
23.0
 40
23.0
 40
24.0
 40
24.0
 40
24.0
 40
25.0
 40
25.0
 40
25.0
 40
26.0
 40
26.0
 40
26.0
 40
27.0
 40
27.0
 40
27.0
 40
28.0
 40
28.0
 40
28.0
 40
29.0
 40
29.0
 40
29.0
 40
30.0
 40
30.0
 40
30.0
 40
31.0
 40
31.0
 40
31.0
 40
32.0
 40
32.0
 40
32.0
 40
33.0
 40
33.0
 40
33.0
 40
34.0
 40
34.0
 40
34.0
 40
35.0
 40
35.0
 40
35.0
 40
36.0
 40
36.0
 40
36.0
 40
37.0
 40
37.0
 40
37.0
 40
38.0
 40
38.0
 40
38.0
 40
39.0
 40
39.0
 40
39.0
 40
40.0
 40
40.0
 40
40.0
 40
41.0
 40
41.0
 40
41.0
 40
42.0
 40
42.0
 40
42.0
 40
43.0
 40
43.0
 40
43.0
 40
44.0
 40
44.0
 40
44.0
 40
45.0
 40
45.0
 40
45.0
 40
46.0
 40
46.0
 40
46.0
 40
47.0
 40
47.0
 40
47.0
 40
48.0
 40
48.0
 40
48.0
 40
49.0
 40
49.0
 40
49.0
 40
50.0
 40
50.0
 40
50.0
 40
51.0
 40
51.0
 40
51.0
 40
52.0
 40
52.0
 40
52.0
 40
53.0
 40
53.0
 40
53.0
 40
54.0
 40
54.0
 40
54.0
 40
55.0
 40
55.0
 40
55.0
 40
56.0
 40
56.0
 40
56.0
 40
57.0
 40
57.0
 40
57.0
 40
58.0
 40
58.0
 40
58.0
 40
59.0
 40
59.0
 40
59.0
 40
59.0
 10
126.4749674162979
 20
-150.0607801274153
 10
126.4749674162979
 20
-150.0607801274153
 10
125.9175509667845
 20
-150.0607801274153
 10
125.9175509667845
 20
-150.0607801274153
 10
125.7308267914839
 20
-150.0607801274153
 10
125.5416910493437
 20
-150.0652587515462
 10
125.3546223644947
 20
-150.0776610952931
 10
125.3546223644947
 20
-150.0776610952931
 10
125.3546223644947
 20
-149.8706108566296
 10
125.3546223644947
 20
-149.8706108566296
 10
125.5492702594113
 20
-149.8830132003764
 10
125.8324571082988
 20
-149.8874918245073
 10
125.9175509667845
 20
-149.8874918245073
 10
125.9175509667845
 20
-149.8874918245073
 10
126.1104763139585
 20
-149.8874918245073
 10
126.1104763139585
 20
-149.8874918245073
 10
126.1104763139585
 20
-149.8874918245073
 10
126.1104763139585
 20
-149.745553890515
 10
126.1104763139585
 20
-149.745553890515
 10
126.1104763139585
 20
-149.745553890515
 10
125.9695719086117
 20
-149.745553890515
 10
125.9695719086117
 20
-149.745553890515
 10
125.8252224077798
 20
-149.745553890515
 10
125.6805283973993
 20
-149.7500325146458
 10
125.5361788965673
 20
-149.7648464252324
 10
125.5361788965673
 20
-149.7648464252324
 10
125.5361788965673
 20
-149.5553846197292
 10
125.5361788965673
 20
-149.5553846197292
 10
125.6863850597242
 20
-149.5701985303158
 10
125.9030815657464
 20
-149.574332644898
 10
125.9695719086117
 20
-149.574332644898
 10
125.9695719086117
 20
-149.574332644898
 10
126.1104763139585
 20
-149.574332644898
 10
126.1104763139585
 20
-149.574332644898
 10
126.1066867089247
 20
-149.5023301492564
 10
126.1066867089247
 20
-149.4961289773829
 10
126.1011745561483
 20
-149.4430745069101
 10
126.1011745561483
 20
-149.4430745069101
 10
126.2231309363261
 20
-149.4578884174966
 10
126.2231309363261
 20
-149.4578884174966
 10
126.2231309363261
 20
-149.4578884174966
 10
126.1363145300979
 20
-149.2866671718797
 10
126.1363145300979
 20
-149.2866671718797
 10
126.1769666568238
 20
-149.2928683437532
 10
126.2417344519465
 20
-149.3014810824663
 10
126.2565483625331
 20
-149.3014810824663
 10
126.3009900942928
 20
-149.3014810824663
 10
126.3158040048794
 20
-149.2801214904577
 10
126.3158040048794
 20
-149.2232774149511
 10
126.3158040048794
 20
-149.2232774149511
 10
126.3158040048794
 20
-149.0854735955411
 10
126.3158040048794
 20
-149.0854735955411
 10
126.3158040048794
 20
-149.0854735955411
 10
126.2231309363261
 20
-149.0854735955411
 10
126.2231309363261
 20
-149.0854735955411
 10
126.1066867089247
 20
-149.0854735955411
 10
125.9695719086117
 20
-149.0854735955411
 10
125.862084929472
 20
-149.0982204488366
 10
125.862084929472
 20
-149.0982204488366
 10
125.862084929472
 20
-148.9080511780508
 10
125.862084929472
 20
-148.9080511780508
 10
126.0085014875951
 20
-148.9249321459285
 10
126.2103840830307
 20
-148.9269992032196
 10
126.2231309363261
 20
-148.9269992032196
 10
126.2231309363261
 20
-148.9269992032196
 10
126.3158040048794
 20
-148.9269992032196
 10
126.3158040048794
 20
-148.9269992032196
 10
126.3158040048794
 20
-148.9269992032196
 10
126.3158040048794
 20
-148.7957410652316
 10
126.3158040048794
 20
-148.7957410652316
 10
126.3158040048794
 20
-148.7957410652316
 10
126.2823865786724
 20
-148.7957410652316
 10
126.2823865786724
 20
-148.7957410652316
 10
126.2434569996891
 20
-148.7957410652316
 10
126.1342474728067
 20
-148.7998751798139
 10
126.0567328243886
 20
-148.8083156637528
 10
126.0567328243886
 20
-148.8083156637528
 10
126.0567328243886
 20
-148.7280449389464
 10
126.0567328243886
 20
-148.7280449389464
 10
126.0102240353377
 20
-148.7661132440585
 10
125.9881754242321
 20
-148.780927154645
 10
125.9509683929914
 20
-148.8041815491705
 10
125.9509683929914
 20
-148.8041815491705
 10
125.7862928287965
 20
-148.6751627232479
 10
125.7862928287965
 20
-148.6751627232479
 10
125.8548502289529
 20
-148.6412285327181
 10
125.9919650292659
 20
-148.5778387757896
 10
126.1287353200303
 20
-148.4340060392804
 10
126.2010823252206
 20
-148.3556301169909
 10
126.269639725377
 20
-148.271053022828
 10
126.3158040048794
 20
-148.1695949607875
 10
126.3158040048794
 20
-148.1695949607875
 10
126.5011501419858
 20
-148.2309176604249
 10
126.5011501419858
 20
-148.2309176604249
 10
126.517686600315
 20
-148.2371188322983
 10
126.5269883581252
 20
-148.2457315710115
 10
126.5269883581252
 20
-148.2583061695326
 10
126.5269883581252
 20
-148.2753593921846
 10
126.5159640525724
 20
-148.281560564058
 10
126.4935709319183
 20
-148.2943074173535
 10
126.5638508798174
 20
-148.3916313648118
 10
126.7064778329067
 20
-148.4889553122701
 10
126.7361056540798
 20
-148.507903337439
 10
126.8677083016164
 20
-148.5967868009584
 10
126.9676160706886
 20
-148.6243475648404
 10
127.0361734708451
 20
-148.6432955900093
 10
127.0361734708451
 20
-148.6432955900093
 10
126.9324760967391
 20
-148.8126220331093
 10
126.9324760967391
 20
-148.8126220331093
 10
126.8584065438062
 20
-148.7829942119362
 10
126.8139648120465
 20
-148.7640461867673
 10
126.7102674379405
 20
-148.6984171177733
 10
126.7102674379405
 20
-148.6984171177733
 10
126.7102674379405
 20
-148.8083156637528
 10
126.7102674379405
 20
-148.8083156637528
 10
126.6379204327502
 20
-148.7998751798139
 10
126.5269883581252
 20
-148.7957410652316
 10
126.4804795690743
 20
-148.7957410652316
 10
126.4804795690743
 20
-148.7957410652316
 10
126.4804795690743
 20
-148.9269992032196
 10
126.4804795690743
 20
-148.9269992032196
 10
126.4804795690743
 20
-148.9269992032196
 10
126.5862440004715
 20
-148.9269992032196
 10
126.5862440004715
 20
-148.9269992032196
 10
126.5879665482141
 20
-148.9269992032196
 10
126.7919162009409
 20
-148.9249321459285
 10
126.9472900073256
 20
-148.9080511780508
 10
126.9472900073256
 20
-148.9080511780508
 10
126.9472900073256
 20
-149.0982204488366
 10
126.9472900073256
 20
-149.0982204488366
 10
126.8342908754095
 20
-149.0854735955411
 10
126.6971760750965
 20
-149.0854735955411
 10
126.5862440004715
 20
-149.0854735955411
 10
126.5862440004715
 20
-149.0854735955411
 10
126.4804795690743
 20
-149.0854735955411
 10
126.4804795690743
 20
-149.0854735955411
 10
126.4804795690743
 20
-149.0854735955411
 10
126.4804795690743
 20
-149.311816368922
 10
126.4804795690743
 20
-149.311816368922
 10
126.4804795690743
 20
-149.4303276536146
 10
126.4584309579687
 20
-149.4665011562098
 10
126.3178710621705
 20
-149.4813150667963
 10
126.3213161576558
 20
-149.5002630919652
 10
126.3158040048794
 20
-149.5109428879695
 10
126.2823865786724
 20
-149.5340250277207
 10
126.2806640309298
 20
-149.5529730528895
 10
126.2806640309298
 20
-149.5595187343115
 10
126.2789414831872
 20
-149.574332644898
 10
126.2789414831872
 20
-149.574332644898
 10
126.3991753156224
 20
-149.574332644898
 10
126.3991753156224
 20
-149.574332644898
 10
126.5435248164544
 20
-149.574332644898
 10
126.6899413745775
 20
-149.5701985303158
 10
126.8360134231521
 20
-149.5553846197292
 10
126.8360134231521
 20
-149.5553846197292
 10
126.8360134231521
 20
-149.7624348583927
 10
126.8360134231521
 20
-149.7624348583927
 10
126.6472221905604
 20
-149.745553890515
 10
126.4157117739516
 20
-149.745553890515
 10
126.3991753156224
 20
-149.745553890515
 10
126.3991753156224
 20
-149.745553890515
 10
126.2768744258961
 20
-149.745553890515
 10
126.2768744258961
 20
-149.745553890515
 10
126.2768744258961
 20
-149.745553890515
 10
126.2768744258961
 20
-149.8874918245073
 10
126.2768744258961
 20
-149.8874918245073
 10
126.2768744258961
 20
-149.8874918245073
 10
126.4749674162979
 20
-149.8874918245073
 10
126.4749674162979
 20
-149.8874918245073
 10
126.6641031584381
 20
-149.8874918245073
 10
126.8546169387724
 20
-149.8830132003764
 10
127.0434081713641
 20
-149.8706108566296
 10
127.0434081713641
 20
-149.8706108566296
 10
127.0434081713641
 20
-150.0776610952931
 10
127.0434081713641
 20
-150.0776610952931
 10
126.7974283537173
 20
-150.0607801274153
 10
126.4956379892094
 20
-150.0607801274153
 10
126.4749674162979
 20
-150.0607801274153
 97
        0
 97
        1
330
86
 92
        1
 93
        1
 72
     4
 94
        3
 73
     0
 74
     0
 95
       17
 96
       13
 40
0.0
 40
0.0
 40
0.0
 40
0.0
 40
1.0
 40
1.0
 40
1.0
 40
2.0
 40
2.0
 40
2.0
 40
3.0
 40
3.0
 40
3.0
 40
4.0
 40
4.0
 40
4.0
 40
4.0
 10
125.5602945649641
 20
-148.8825574714599
 10
125.4676214964109
 20
-148.7766207852885
 10
125.3973415485118
 20
-148.7385524801765
 10
125.3160372950599
 20
-148.7068576017122
 10
125.3160372950599
 20
-148.7068576017122
 10
125.4121554590983
 20
-148.5418375279687
 10
125.4121554590983
 20
-148.5418375279687
 10
125.497249317584
 20
-148.5842122024373
 10
125.6030137489812
 20
-148.6624158699525
 10
125.6491780284835
 20
-148.7173651429421
 10
125.6491780284835
 20
-148.7173651429421
 10
125.5602945649641
 20
-148.8825574714599
 10
125.5602945649641
 20
-148.8825574714599
 97
        0
 97
        1
330
87
 75
     2
 76
     1
 98
        1
 10
0.0
 20
0.0
450
        0
451
        0
460
0.0
461
0.0
452
        0
462
0.0
453
        0
470

  0
SPLINE
  5
89
330
7D
100
AcDbEntity
  8
レイヤー 1
100
AcDbSpline
210
0.0
220
0.0
230
1.0
 70
    11
 71
     3
 72
    17
 73
    13
 74
     0
 42
0.0000000001
 43
0.0000000001
 40
0.0
 40
0.0
 40
0.0
 40
0.0
 40
1.0
 40
1.0
 40
1.0
 40
2.0
 40
2.0
 40
2.0
 40
3.0
 40
3.0
 40
3.0
 40
4.0
 40
4.0
 40
4.0
 40
4.0
 10
128.3311848637505
 20
-149.4303276536146
 30
0.0
 10
128.3311848637505
 20
-149.4303276536146
 30
0.0
 10
128.1534179367116
 20
-149.4303276536146
 30
0.0
 10
128.1534179367116
 20
-149.4303276536146
 30
0.0
 10
128.1775336051084
 20
-149.4895832959609
 30
0.0
 10
128.2254204323533
 20
-149.5615857916026
 30
0.0
 10
128.2495361007501
 20
-149.5912136127758
 30
0.0
 10
128.2736517691469
 20
-149.5763997021892
 30
0.0
 10
128.3735595382191
 20
-149.5130099452606
 30
0.0
 10
128.4531412439284
 20
-149.4303276536146
 30
0.0
 10
128.4531412439284
 20
-149.4303276536146
 30
0.0
 10
128.3311848637505
 20
-149.4303276536146
 30
0.0
 10
128.3311848637505
 20
-149.4303276536146
 30
0.0
  0
SPLINE
  5
8A
330
7D
100
AcDbEntity
  8
レイヤー 1
100
AcDbSpline
210
0.0
220
0.0
230
1.0
 70
     9
 71
     3
 72
    83
 73
    79
 74
     0
 42
0.0000000001
 43
0.0000000001
 40
0.0
 40
0.0
 40
0.0
 40
0.0
 40
1.0
 40
1.0
 40
1.0
 40
2.0
 40
2.0
 40
2.0
 40
3.0
 40
3.0
 40
3.0
 40
4.0
 40
4.0
 40
4.0
 40
5.0
 40
5.0
 40
5.0
 40
6.0
 40
6.0
 40
6.0
 40
7.0
 40
7.0
 40
7.0
 40
8.0
 40
8.0
 40
8.0
 40
9.0
 40
9.0
 40
9.0
 40
10.0
 40
10.0
 40
10.0
 40
11.0
 40
11.0
 40
11.0
 40
12.0
 40
12.0
 40
12.0
 40
13.0
 40
13.0
 40
13.0
 40
14.0
 40
14.0
 40
14.0
 40
15.0
 40
15.0
 40
15.0
 40
16.0
 40
16.0
 40
16.0
 40
17.0
 40
17.0
 40
17.0
 40
18.0
 40
18.0
 40
18.0
 40
19.0
 40
19.0
 40
19.0
 40
20.0
 40
20.0
 40
20.0
 40
21.0
 40
21.0
 40
21.0
 40
22.0
 40
22.0
 40
22.0
 40
23.0
 40
23.0
 40
23.0
 40
24.0
 40
24.0
 40
24.0
 40
25.0
 40
25.0
 40
25.0
 40
26.0
 40
26.0
 40
26.0
 40
26.0
 10
128.5458143124816
 20
-148.6327880487793
 30
0.0
 10
128.5458143124816
 20
-148.6327880487793
 30
0.0
 10
128.4607204539959
 20
-148.6327880487793
 30
0.0
 10
128.4607204539959
 20
-148.6327880487793
 30
0.0
 10
128.4607204539959
 20
-148.6327880487793
 30
0.0
 10
128.4607204539959
 20
-148.8804904141687
 30
0.0
 10
128.4607204539959
 20
-148.8804904141687
 30
0.0
 10
128.4607204539959
 20
-148.8804904141687
 30
0.0
 10
128.5330674591862
 20
-148.8804904141687
 30
0.0
 10
128.5330674591862
 20
-148.8804904141687
 30
0.0
 10
128.5902560442413
 20
-148.8804904141687
 30
0.0
 10
128.7125569339677
 20
-148.8760117900379
 30
0.0
 10
128.7997178497445
 20
-148.8675713060991
 30
0.0
 10
128.7997178497445
 20
-148.8675713060991
 30
0.0
 10
128.7997178497445
 20
-149.0475775452034
 30
0.0
 10
128.7997178497445
 20
-149.0475775452034
 30
0.0
 10
128.7180690867441
 20
-149.0389648064903
 30
0.0
 10
128.5868109487561
 20
-149.0348306919079
 30
0.0
 10
128.5330674591862
 20
-149.0348306919079
 30
0.0
 10
128.5330674591862
 20
-149.0348306919079
 30
0.0
 10
128.2664170686278
 20
-149.0348306919079
 30
0.0
 10
128.2664170686278
 20
-149.0348306919079
 30
0.0
 10
128.2199082795769
 20
-149.0348306919079
 30
0.0
 10
128.0920952370742
 20
-149.0389648064903
 30
0.0
 10
127.9997666780695
 20
-149.0475775452034
 30
0.0
 10
127.9997666780695
 20
-149.0475775452034
 30
0.0
 10
127.9997666780695
 20
-148.8675713060991
 30
0.0
 10
127.9997666780695
 20
-148.8675713060991
 30
0.0
 10
128.0865830842978
 20
-148.8760117900379
 30
0.0
 10
128.2088839740241
 20
-148.8804904141687
 30
0.0
 10
128.2664170686278
 20
-148.8804904141687
 30
0.0
 10
128.2664170686278
 20
-148.8804904141687
 30
0.0
 10
128.3050021380626
 20
-148.8804904141687
 30
0.0
 10
128.3050021380626
 20
-148.8804904141687
 30
0.0
 10
128.3050021380626
 20
-148.8804904141687
 30
0.0
 10
128.3050021380626
 20
-148.6327880487793
 30
0.0
 10
128.3050021380626
 20
-148.6327880487793
 30
0.0
 10
128.3050021380626
 20
-148.6327880487793
 30
0.0
 10
128.2402343429399
 20
-148.6327880487793
 30
0.0
 10
128.2402343429399
 20
-148.6327880487793
 30
0.0
 10
128.18649085337
 20
-148.6327880487793
 30
0.0
 10
128.0404188047954
 20
-148.6370944181358
 30
0.0
 10
127.9349988829468
 20
-148.6455349020747
 30
0.0
 10
127.9349988829468
 20
-148.6455349020747
 30
0.0
 10
127.9349988829468
 20
-148.4677679750358
 30
0.0
 10
127.9349988829468
 20
-148.4677679750358
 30
0.0
 10
128.034906652019
 20
-148.4741414016836
 30
0.0
 10
128.1737440000746
 20
-148.4784477710401
 30
0.0
 10
128.2402343429399
 20
-148.4784477710401
 30
0.0
 10
128.2402343429399
 20
-148.4784477710401
 30
0.0
 10
128.30327959032
 20
-148.4784477710401
 30
0.0
 10
128.30327959032
 20
-148.4784477710401
 30
0.0
 10
128.2994899852862
 20
-148.3260022958178
 30
0.0
 10
128.2977674375436
 20
-148.2922403600623
 30
0.0
 10
128.2922552847672
 20
-148.1990505271863
 30
0.0
 10
128.2922552847672
 20
-148.1990505271863
 30
0.0
 10
128.4772569123251
 20
-148.222477176486
 30
0.0
 10
128.4772569123251
 20
-148.222477176486
 30
0.0
 10
128.4996500329792
 20
-148.2245442337772
 30
0.0
 10
128.5199760963422
 20
-148.2286783483595
 30
0.0
 10
128.5199760963422
 20
-148.2519327428849
 30
0.0
 10
128.5199760963422
 20
-148.2837998761235
 30
0.0
 10
128.4810465173589
 20
-148.3006808440012
 30
0.0
 10
128.4607204539959
 20
-148.3091213279401
 30
0.0
 10
128.4607204539959
 20
-148.3091213279401
 30
0.0
 10
128.4607204539959
 20
-148.4784477710401
 30
0.0
 10
128.4607204539959
 20
-148.4784477710401
 30
0.0
 10
128.4607204539959
 20
-148.4784477710401
 30
0.0
 10
128.5458143124816
 20
-148.4784477710401
 30
0.0
 10
128.5458143124816
 20
-148.4784477710401
 30
0.0
 10
128.6126491648954
 20
-148.4784477710401
 30
0.0
 10
128.751486512951
 20
-148.4741414016836
 30
0.0
 10
128.8534613393144
 20
-148.4677679750358
 30
0.0
 10
128.8534613393144
 20
-148.4677679750358
 30
0.0
 10
128.8534613393144
 20
-148.6455349020747
 30
0.0
 10
128.8534613393144
 20
-148.6455349020747
 30
0.0
 10
128.75872121347
 20
-148.639161475427
 30
0.0
 10
128.6071370121191
 20
-148.6327880487793
 30
0.0
 10
128.5458143124816
 20
-148.6327880487793
 30
0.0
  0
SPLINE
  5
8B
330
7D
100
AcDbEntity
  8
レイヤー 1
100
AcDbSpline
210
0.0
220
0.0
230
1.0
 70
     9
 71
     3
 72
    38
 73
    34
 74
     0
 42
0.0000000001
 43
0.0000000001
 40
0.0
 40
0.0
 40
0.0
 40
0.0
 40
1.0
 40
1.0
 40
1.0
 40
2.0
 40
2.0
 40
2.0
 40
3.0
 40
3.0
 40
3.0
 40
4.0
 40
4.0
 40
4.0
 40
5.0
 40
5.0
 40
5.0
 40
6.0
 40
6.0
 40
6.0
 40
7.0
 40
7.0
 40
7.0
 40
8.0
 40
8.0
 40
8.0
 40
9.0
 40
9.0
 40
9.0
 40
10.0
 40
10.0
 40
10.0
 40
11.0
 40
11.0
 40
11.0
 40
11.0
 10
127.8440483621362
 20
-148.3111883852312
 30
0.0
 10
127.8423258143936
 20
-148.3578694290564
 30
0.0
 10
127.8402587571024
 20
-148.4741414016836
 30
0.0
 10
127.8402587571024
 20
-148.5185831334433
 30
0.0
 10
127.8402587571024
 20
-148.5185831334433
 30
0.0
 10
127.8402587571024
 20
-148.8655042488079
 30
0.0
 10
127.8402587571024
 20
-148.8655042488079
 30
0.0
 10
127.8402587571024
 20
-148.9524929098105
 30
0.0
 10
127.8423258143936
 20
-149.0940863342542
 30
0.0
 10
127.8516275722037
 20
-149.214664676238
 30
0.0
 10
127.8516275722037
 20
-149.214664676238
 30
0.0
 10
127.6848849507177
 20
-149.214664676238
 30
0.0
 10
127.6848849507177
 20
-149.214664676238
 30
0.0
 10
127.6886745557514
 20
-149.1512749193094
 30
0.0
 10
127.6921196512367
 20
-149.0982204488366
 30
0.0
 10
127.6941867085278
 20
-149.0434434306211
 30
0.0
 10
127.6959092562705
 20
-148.9204535217977
 30
0.0
 10
127.6979763135616
 20
-148.9056396112111
 30
0.0
 10
127.6979763135616
 20
-148.8611978794514
 30
0.0
 10
127.6979763135616
 20
-148.8611978794514
 30
0.0
 10
127.6979763135616
 20
-148.5397704706775
 30
0.0
 10
127.6979763135616
 20
-148.5397704706775
 30
0.0
 10
127.6979763135616
 20
-148.4846489429135
 30
0.0
 10
127.6866074984603
 20
-148.2457315710115
 30
0.0
 10
127.6848849507177
 20
-148.194916412604
 30
0.0
 10
127.6848849507177
 20
-148.194916412604
 30
0.0
 10
127.8605848204654
 20
-148.222477176486
 30
0.0
 10
127.8605848204654
 20
-148.222477176486
 30
0.0
 10
127.8791883360857
 20
-148.2245442337772
 30
0.0
 10
127.9070936095163
 20
-148.2286783483595
 30
0.0
 10
127.9070936095163
 20
-148.2541720549503
 30
0.0
 10
127.9070936095163
 20
-148.281560564058
 30
0.0
 10
127.8626518777565
 20
-148.3027479012924
 30
0.0
 10
127.8440483621362
 20
-148.3111883852312
 30
0.0
  0
SPLINE
  5
8C
330
7D
100
AcDbEntity
  8
レイヤー 1
100
AcDbSpline
210
0.0
220
0.0
230
1.0
 70
     9
 71
     3
 72
    17
 73
    13
 74
     0
 42
0.0000000001
 43
0.0000000001
 40
0.0
 40
0.0
 40
0.0
 40
0.0
 40
1.0
 40
1.0
 40
1.0
 40
2.0
 40
2.0
 40
2.0
 40
3.0
 40
3.0
 40
3.0
 40
4.0
 40
4.0
 40
4.0
 40
4.0
 10
127.5219319342653
 20
-148.6159070809016
 30
0.0
 10
127.496093718126
 20
-148.5757717184984
 30
0.0
 10
127.4368380757797
 20
-148.4784477710401
 30
0.0
 10
127.2773301548126
 20
-148.3683769702864
 30
0.0
 10
127.2773301548126
 20
-148.3683769702864
 30
0.0
 10
127.3886067389861
 20
-148.2350517750072
 30
0.0
 10
127.3886067389861
 20
-148.2350517750072
 30
0.0
 10
127.5515597554385
 20
-148.3366820918221
 30
0.0
 10
127.6015136399746
 20
-148.4255655553415
 30
0.0
 10
127.6256293083714
 20
-148.4677679750358
 30
0.0
 10
127.6256293083714
 20
-148.4677679750358
 30
0.0
 10
127.5219319342653
 20
-148.6159070809016
 30
0.0
 10
127.5219319342653
 20
-148.6159070809016
 30
0.0
  0
SPLINE
  5
8D
330
7D
100
AcDbEntity
  8
レイヤー 1
100
AcDbSpline
210
0.0
220
0.0
230
1.0
 70
     9
 71
     3
 72
    23
 73
    19
 74
     0
 42
0.0000000001
 43
0.0000000001
 40
0.0
 40
0.0
 40
0.0
 40
0.0
 40
1.0
 40
1.0
 40
1.0
 40
2.0
 40
2.0
 40
2.0
 40
3.0
 40
3.0
 40
3.0
 40
4.0
 40
4.0
 40
4.0
 40
5.0
 40
5.0
 40
5.0
 40
6.0
 40
6.0
 40
6.0
 40
6.0
 10
127.3886067389861
 20
-149.0813394809588
 30
0.0
 10
127.3737928283996
 20
-149.1216470981362
 30
0.0
 10
127.3682806756232
 20
-149.1385280660139
 30
0.0
 10
127.3496771600028
 20
-149.1385280660139
 30
0.0
 10
127.3365857971589
 20
-149.1385280660139
 30
0.0
 10
127.3272840393487
 20
-149.1216470981362
 30
0.0
 10
127.3217718865723
 20
-149.1089002448408
 30
0.0
 10
127.3217718865723
 20
-149.1089002448408
 30
0.0
 10
127.234955480344
 20
-148.9438801710973
 30
0.0
 10
127.234955480344
 20
-148.9438801710973
 30
0.0
 10
127.3238389438635
 20
-148.9121852926331
 30
0.0
 10
127.4550970818515
 20
-148.8570637648691
 30
0.0
 10
127.6294189134051
 20
-148.6941107484167
 30
0.0
 10
127.6294189134051
 20
-148.6941107484167
 30
0.0
 10
127.6793727979413
 20
-148.8675713060991
 30
0.0
 10
127.6793727979413
 20
-148.8675713060991
 30
0.0
 10
127.5977240349408
 20
-148.9500813429708
 30
0.0
 10
127.5202093865227
 20
-149.0072699280259
 30
0.0
 10
127.3886067389861
 20
-149.0813394809588
 30
0.0
  0
SPLINE
  5
8E
330
7D
100
AcDbEntity
  8
レイヤー 1
100
AcDbSpline
210
0.0
220
0.0
230
1.0
 70
     9
 71
     3
 72
   113
 73
   109
 74
     0
 42
0.0000000001
 43
0.0000000001
 40
0.0
 40
0.0
 40
0.0
 40
0.0
 40
1.0
 40
1.0
 40
1.0
 40
2.0
 40
2.0
 40
2.0
 40
3.0
 40
3.0
 40
3.0
 40
4.0
 40
4.0
 40
4.0
 40
5.0
 40
5.0
 40
5.0
 40
6.0
 40
6.0
 40
6.0
 40
7.0
 40
7.0
 40
7.0
 40
8.0
 40
8.0
 40
8.0
 40
9.0
 40
9.0
 40
9.0
 40
10.0
 40
10.0
 40
10.0
 40
11.0
 40
11.0
 40
11.0
 40
12.0
 40
12.0
 40
12.0
 40
13.0
 40
13.0
 40
13.0
 40
14.0
 40
14.0
 40
14.0
 40
15.0
 40
15.0
 40
15.0
 40
16.0
 40
16.0
 40
16.0
 40
17.0
 40
17.0
 40
17.0
 40
18.0
 40
18.0
 40
18.0
 40
19.0
 40
19.0
 40
19.0
 40
20.0
 40
20.0
 40
20.0
 40
21.0
 40
21.0
 40
21.0
 40
22.0
 40
22.0
 40
22.0
 40
23.0
 40
23.0
 40
23.0
 40
24.0
 40
24.0
 40
24.0
 40
25.0
 40
25.0
 40
25.0
 40
26.0
 40
26.0
 40
26.0
 40
27.0
 40
27.0
 40
27.0
 40
28.0
 40
28.0
 40
28.0
 40
29.0
 40
29.0
 40
29.0
 40
30.0
 40
30.0
 40
30.0
 40
31.0
 40
31.0
 40
31.0
 40
32.0
 40
32.0
 40
32.0
 40
33.0
 40
33.0
 40
33.0
 40
34.0
 40
34.0
 40
34.0
 40
35.0
 40
35.0
 40
35.0
 40
36.0
 40
36.0
 40
36.0
 40
36.0
 10
128.5123968862746
 20
-149.4323947109058
 30
0.0
 10
128.5123968862746
 20
-149.4323947109058
 30
0.0
 10
128.5995578020515
 20
-149.5319579704295
 30
0.0
 10
128.5995578020515
 20
-149.5319579704295
 30
0.0
 10
128.6088595598616
 20
-149.5426377664338
 30
0.0
 10
128.6181613176718
 20
-149.5553846197292
 30
0.0
 10
128.6181613176718
 20
-149.5701985303158
 30
0.0
 10
128.6181613176718
 20
-149.5722655876069
 30
0.0
 10
128.6181613176718
 20
-149.6018934087801
 30
0.0
 10
128.5847438914649
 20
-149.6018934087801
 30
0.0
 10
128.5775091909459
 20
-149.6018934087801
 30
0.0
 10
128.5420247074478
 20
-149.5974147846492
 30
0.0
 10
128.5365125546714
 20
-149.5974147846492
 30
0.0
 10
128.5013725807219
 20
-149.6294541726621
 30
0.0
 10
128.4607204539959
 20
-149.6632161084175
 30
0.0
 10
128.3735595382191
 20
-149.7204046934727
 30
0.0
 10
128.5013725807219
 20
-149.828236182161
 30
0.0
 10
128.6402099287774
 20
-149.8854247672161
 30
0.0
 10
128.8792995554538
 20
-149.9233208175539
 30
0.0
 10
128.8792995554538
 20
-149.9233208175539
 30
0.0
 10
128.7476969079172
 20
-150.0990206873016
 30
0.0
 10
128.7476969079172
 20
-150.0990206873016
 30
0.0
 10
128.5182535485996
 20
-150.0270181916599
 30
0.0
 10
128.3811387482866
 20
-149.9381347281405
 30
0.0
 10
128.3143038958728
 20
-149.8854247672161
 30
0.0
 10
128.1830457578848
 20
-149.7837944504013
 30
0.0
 10
128.0569552631246
 20
-149.6208414339489
 30
0.0
 10
127.9904649202593
 20
-149.4558213602055
 30
0.0
 10
127.931209277913
 20
-149.5212781744252
 30
0.0
 10
127.8664414827903
 20
-149.574332644898
 30
0.0
 10
127.7978840826339
 20
-149.6229084912401
 30
0.0
 10
127.7978840826339
 20
-149.6229084912401
 30
0.0
 10
127.7978840826339
 20
-149.8747449712118
 30
0.0
 10
127.7978840826339
 20
-149.8747449712118
 30
0.0
 10
127.9405110357232
 20
-149.849251264621
 30
0.0
 10
128.1034640521755
 20
-149.8048095328613
 30
0.0
 10
128.158930089488
 20
-149.7899956222747
 30
0.0
 10
128.158930089488
 20
-149.7899956222747
 30
0.0
 10
128.1330918733487
 20
-149.9591498106005
 30
0.0
 10
128.1330918733487
 20
-149.9591498106005
 30
0.0
 10
128.1310248160575
 20
-149.9591498106005
 30
0.0
 10
128.1144883577283
 20
-149.9656954920224
 30
0.0
 10
128.1127658099857
 20
-149.9656954920224
 30
0.0
 10
127.938443978432
 20
-150.0035915423602
 30
0.0
 10
127.6607692823209
 20
-150.0693928661284
 30
0.0
 10
127.4885145080584
 20
-150.1052218591751
 30
0.0
 10
127.4792127502482
 20
-150.1221028270528
 30
0.0
 10
127.4588866868852
 20
-150.1537977055171
 30
0.0
 10
127.4385606235223
 20
-150.1537977055171
 30
0.0
 10
127.4144449551255
 20
-150.1537977055171
 30
0.0
 10
127.4106553500918
 20
-150.1348496803482
 30
0.0
 10
127.4089328023491
 20
-150.1159016551793
 30
0.0
 10
127.4089328023491
 20
-150.1159016551793
 30
0.0
 10
127.386539681695
 20
-149.9422688427227
 30
0.0
 10
127.386539681695
 20
-149.9422688427227
 30
0.0
 10
127.4516519863662
 20
-149.9340006135581
 30
0.0
 10
127.5460476026621
 20
-149.9212537602627
 30
0.0
 10
127.6404432189579
 20
-149.9002386778027
 30
0.0
 10
127.6404432189579
 20
-149.9002386778027
 30
0.0
 10
127.6404432189579
 20
-149.7224717507638
 30
0.0
 10
127.6404432189579
 20
-149.7224717507638
 30
0.0
 10
127.5143527241978
 20
-149.7944742464055
 30
0.0
 10
127.4313259230033
 20
-149.8237575580301
 30
0.0
 10
127.2866319126228
 20
-149.8533853792033
 30
0.0
 10
127.2866319126228
 20
-149.8533853792033
 30
0.0
 10
127.1812119907741
 20
-149.6842311908775
 30
0.0
 10
127.1812119907741
 20
-149.6842311908775
 30
0.0
 10
127.4588866868852
 20
-149.6566704269955
 30
0.0
 10
127.627351856114
 20
-149.5636528488938
 30
0.0
 10
127.7830701720473
 20
-149.4303276536146
 30
0.0
 10
127.6552571295445
 20
-149.4303276536146
 30
0.0
 10
127.3923963440199
 20
-149.4348062777454
 30
0.0
 10
127.2201415697574
 20
-149.4410074496189
 30
0.0
 10
127.2201415697574
 20
-149.4410074496189
 30
0.0
 10
127.2201415697574
 20
-149.26324052258
 30
0.0
 10
127.2201415697574
 20
-149.26324052258
 30
0.0
 10
127.3551893127792
 20
-149.269786204002
 30
0.0
 10
127.6146050028186
 20
-149.2759873758754
 30
0.0
 10
127.7754909619797
 20
-149.2759873758754
 30
0.0
 10
127.7754909619797
 20
-149.2759873758754
 30
0.0
 10
127.9608370990862
 20
-149.2759873758754
 30
0.0
 10
127.9608370990862
 20
-149.2759873758754
 30
0.0
 10
127.9608370990862
 20
-149.1809027404825
 30
0.0
 10
127.958770041795
 20
-149.1299153273008
 30
0.0
 10
127.9532578890186
 20
-149.08340653825
 30
0.0
 10
127.9532578890186
 20
-149.08340653825
 30
0.0
 10
128.1423936311588
 20
-149.1002875061277
 30
0.0
 10
128.1423936311588
 20
-149.1002875061277
 30
0.0
 10
128.1847683056274
 20
-149.1047661302585
 30
0.0
 10
128.1923475156949
 20
-149.1195800408451
 30
0.0
 10
128.1923475156949
 20
-149.1343939514317
 30
0.0
 10
128.1923475156949
 20
-149.159543148474
 30
0.0
 10
128.1775336051084
 20
-149.1681558871871
 30
0.0
 10
128.1330918733487
 20
-149.193649593778
 30
0.0
 10
128.1310248160575
 20
-149.2187987908203
 30
0.0
 10
128.1310248160575
 20
-149.2253444722423
 30
0.0
 10
128.1293022683149
 20
-149.2759873758754
 30
0.0
 10
128.1293022683149
 20
-149.2759873758754
 30
0.0
 10
128.3311848637505
 20
-149.2759873758754
 30
0.0
 10
128.3311848637505
 20
-149.2759873758754
 30
0.0
 10
128.4755343645825
 20
-149.2759873758754
 30
0.0
 10
128.731160449588
 20
-149.269786204002
 30
0.0
 10
128.8886013132639
 20
-149.26324052258
 30
0.0
 10
128.8886013132639
 20
-149.26324052258
 30
0.0
 10
128.8886013132639
 20
-149.4410074496189
 30
0.0
 10
128.8886013132639
 20
-149.4410074496189
 30
0.0
 10
128.7756021813478
 20
-149.4368733350366
 30
0.0
 10
128.7552761179848
 20
-149.4368733350366
 30
0.0
 10
128.5123968862746
 20
-149.4323947109058
 30
0.0
  0
HATCH
  5
8F
330
7D
100
AcDbEntity
  8
レイヤー 1
 62
   250
420
  2299925
440
 33554687
100
AcDbHatch
 10
0.0
 20
0.0
 30
0.0
210
0.0
220
0.0
230
1.0
  2
SOLID
 70
     1
 71
     1
 91
        6
 92
        1
 93
        1
 72
     4
 94
        3
 73
     0
 74
     0
 95
       17
 96
       13
 40
0.0
 40
0.0
 40
0.0
 40
0.0
 40
1.0
 40
1.0
 40
1.0
 40
2.0
 40
2.0
 40
2.0
 40
3.0
 40
3.0
 40
3.0
 40
4.0
 40
4.0
 40
4.0
 40
4.0
 10
128.3311848637505
 20
-149.4303276536146
 10
128.3311848637505
 20
-149.4303276536146
 10
128.1534179367116
 20
-149.4303276536146
 10
128.1534179367116
 20
-149.4303276536146
 10
128.1775336051084
 20
-149.4895832959609
 10
128.2254204323533
 20
-149.5615857916026
 10
128.2495361007501
 20
-149.5912136127758
 10
128.2736517691469
 20
-149.5763997021892
 10
128.3735595382191
 20
-149.5130099452606
 10
128.4531412439284
 20
-149.4303276536146
 10
128.4531412439284
 20
-149.4303276536146
 10
128.3311848637505
 20
-149.4303276536146
 10
128.3311848637505
 20
-149.4303276536146
 97
        0
 97
        1
330
89
 92
        1
 93
        1
 72
     4
 94
        3
 73
     0
 74
     0
 95
       83
 96
       79
 40
0.0
 40
0.0
 40
0.0
 40
0.0
 40
1.0
 40
1.0
 40
1.0
 40
2.0
 40
2.0
 40
2.0
 40
3.0
 40
3.0
 40
3.0
 40
4.0
 40
4.0
 40
4.0
 40
5.0
 40
5.0
 40
5.0
 40
6.0
 40
6.0
 40
6.0
 40
7.0
 40
7.0
 40
7.0
 40
8.0
 40
8.0
 40
8.0
 40
9.0
 40
9.0
 40
9.0
 40
10.0
 40
10.0
 40
10.0
 40
11.0
 40
11.0
 40
11.0
 40
12.0
 40
12.0
 40
12.0
 40
13.0
 40
13.0
 40
13.0
 40
14.0
 40
14.0
 40
14.0
 40
15.0
 40
15.0
 40
15.0
 40
16.0
 40
16.0
 40
16.0
 40
17.0
 40
17.0
 40
17.0
 40
18.0
 40
18.0
 40
18.0
 40
19.0
 40
19.0
 40
19.0
 40
20.0
 40
20.0
 40
20.0
 40
21.0
 40
21.0
 40
21.0
 40
22.0
 40
22.0
 40
22.0
 40
23.0
 40
23.0
 40
23.0
 40
24.0
 40
24.0
 40
24.0
 40
25.0
 40
25.0
 40
25.0
 40
26.0
 40
26.0
 40
26.0
 40
26.0
 10
128.5458143124816
 20
-148.6327880487793
 10
128.5458143124816
 20
-148.6327880487793
 10
128.4607204539959
 20
-148.6327880487793
 10
128.4607204539959
 20
-148.6327880487793
 10
128.4607204539959
 20
-148.6327880487793
 10
128.4607204539959
 20
-148.8804904141687
 10
128.4607204539959
 20
-148.8804904141687
 10
128.4607204539959
 20
-148.8804904141687
 10
128.5330674591862
 20
-148.8804904141687
 10
128.5330674591862
 20
-148.8804904141687
 10
128.5902560442413
 20
-148.8804904141687
 10
128.7125569339677
 20
-148.8760117900379
 10
128.7997178497445
 20
-148.8675713060991
 10
128.7997178497445
 20
-148.8675713060991
 10
128.7997178497445
 20
-149.0475775452034
 10
128.7997178497445
 20
-149.0475775452034
 10
128.7180690867441
 20
-149.0389648064903
 10
128.5868109487561
 20
-149.0348306919079
 10
128.5330674591862
 20
-149.0348306919079
 10
128.5330674591862
 20
-149.0348306919079
 10
128.2664170686278
 20
-149.0348306919079
 10
128.2664170686278
 20
-149.0348306919079
 10
128.2199082795769
 20
-149.0348306919079
 10
128.0920952370742
 20
-149.0389648064903
 10
127.9997666780695
 20
-149.0475775452034
 10
127.9997666780695
 20
-149.0475775452034
 10
127.9997666780695
 20
-148.8675713060991
 10
127.9997666780695
 20
-148.8675713060991
 10
128.0865830842978
 20
-148.8760117900379
 10
128.2088839740241
 20
-148.8804904141687
 10
128.2664170686278
 20
-148.8804904141687
 10
128.2664170686278
 20
-148.8804904141687
 10
128.3050021380626
 20
-148.8804904141687
 10
128.3050021380626
 20
-148.8804904141687
 10
128.3050021380626
 20
-148.8804904141687
 10
128.3050021380626
 20
-148.6327880487793
 10
128.3050021380626
 20
-148.6327880487793
 10
128.3050021380626
 20
-148.6327880487793
 10
128.2402343429399
 20
-148.6327880487793
 10
128.2402343429399
 20
-148.6327880487793
 10
128.18649085337
 20
-148.6327880487793
 10
128.0404188047954
 20
-148.6370944181358
 10
127.9349988829468
 20
-148.6455349020747
 10
127.9349988829468
 20
-148.6455349020747
 10
127.9349988829468
 20
-148.4677679750358
 10
127.9349988829468
 20
-148.4677679750358
 10
128.034906652019
 20
-148.4741414016836
 10
128.1737440000746
 20
-148.4784477710401
 10
128.2402343429399
 20
-148.4784477710401
 10
128.2402343429399
 20
-148.4784477710401
 10
128.30327959032
 20
-148.4784477710401
 10
128.30327959032
 20
-148.4784477710401
 10
128.2994899852862
 20
-148.3260022958178
 10
128.2977674375436
 20
-148.2922403600623
 10
128.2922552847672
 20
-148.1990505271863
 10
128.2922552847672
 20
-148.1990505271863
 10
128.4772569123251
 20
-148.222477176486
 10
128.4772569123251
 20
-148.222477176486
 10
128.4996500329792
 20
-148.2245442337772
 10
128.5199760963422
 20
-148.2286783483595
 10
128.5199760963422
 20
-148.2519327428849
 10
128.5199760963422
 20
-148.2837998761235
 10
128.4810465173589
 20
-148.3006808440012
 10
128.4607204539959
 20
-148.3091213279401
 10
128.4607204539959
 20
-148.3091213279401
 10
128.4607204539959
 20
-148.4784477710401
 10
128.4607204539959
 20
-148.4784477710401
 10
128.4607204539959
 20
-148.4784477710401
 10
128.5458143124816
 20
-148.4784477710401
 10
128.5458143124816
 20
-148.4784477710401
 10
128.6126491648954
 20
-148.4784477710401
 10
128.751486512951
 20
-148.4741414016836
 10
128.8534613393144
 20
-148.4677679750358
 10
128.8534613393144
 20
-148.4677679750358
 10
128.8534613393144
 20
-148.6455349020747
 10
128.8534613393144
 20
-148.6455349020747
 10
128.75872121347
 20
-148.639161475427
 10
128.6071370121191
 20
-148.6327880487793
 10
128.5458143124816
 20
-148.6327880487793
 97
        0
 97
        1
330
8A
 92
        1
 93
        1
 72
     4
 94
        3
 73
     0
 74
     0
 95
       38
 96
       34
 40
0.0
 40
0.0
 40
0.0
 40
0.0
 40
1.0
 40
1.0
 40
1.0
 40
2.0
 40
2.0
 40
2.0
 40
3.0
 40
3.0
 40
3.0
 40
4.0
 40
4.0
 40
4.0
 40
5.0
 40
5.0
 40
5.0
 40
6.0
 40
6.0
 40
6.0
 40
7.0
 40
7.0
 40
7.0
 40
8.0
 40
8.0
 40
8.0
 40
9.0
 40
9.0
 40
9.0
 40
10.0
 40
10.0
 40
10.0
 40
11.0
 40
11.0
 40
11.0
 40
11.0
 10
127.8440483621362
 20
-148.3111883852312
 10
127.8423258143936
 20
-148.3578694290564
 10
127.8402587571024
 20
-148.4741414016836
 10
127.8402587571024
 20
-148.5185831334433
 10
127.8402587571024
 20
-148.5185831334433
 10
127.8402587571024
 20
-148.8655042488079
 10
127.8402587571024
 20
-148.8655042488079
 10
127.8402587571024
 20
-148.9524929098105
 10
127.8423258143936
 20
-149.0940863342542
 10
127.8516275722037
 20
-149.214664676238
 10
127.8516275722037
 20
-149.214664676238
 10
127.6848849507177
 20
-149.214664676238
 10
127.6848849507177
 20
-149.214664676238
 10
127.6886745557514
 20
-149.1512749193094
 10
127.6921196512367
 20
-149.0982204488366
 10
127.6941867085278
 20
-149.0434434306211
 10
127.6959092562705
 20
-148.9204535217977
 10
127.6979763135616
 20
-148.9056396112111
 10
127.6979763135616
 20
-148.8611978794514
 10
127.6979763135616
 20
-148.8611978794514
 10
127.6979763135616
 20
-148.5397704706775
 10
127.6979763135616
 20
-148.5397704706775
 10
127.6979763135616
 20
-148.4846489429135
 10
127.6866074984603
 20
-148.2457315710115
 10
127.6848849507177
 20
-148.194916412604
 10
127.6848849507177
 20
-148.194916412604
 10
127.8605848204654
 20
-148.222477176486
 10
127.8605848204654
 20
-148.222477176486
 10
127.8791883360857
 20
-148.2245442337772
 10
127.9070936095163
 20
-148.2286783483595
 10
127.9070936095163
 20
-148.2541720549503
 10
127.9070936095163
 20
-148.281560564058
 10
127.8626518777565
 20
-148.3027479012924
 10
127.8440483621362
 20
-148.3111883852312
 97
        0
 97
        1
330
8B
 92
        1
 93
        1
 72
     4
 94
        3
 73
     0
 74
     0
 95
       17
 96
       13
 40
0.0
 40
0.0
 40
0.0
 40
0.0
 40
1.0
 40
1.0
 40
1.0
 40
2.0
 40
2.0
 40
2.0
 40
3.0
 40
3.0
 40
3.0
 40
4.0
 40
4.0
 40
4.0
 40
4.0
 10
127.5219319342653
 20
-148.6159070809016
 10
127.496093718126
 20
-148.5757717184984
 10
127.4368380757797
 20
-148.4784477710401
 10
127.2773301548126
 20
-148.3683769702864
 10
127.2773301548126
 20
-148.3683769702864
 10
127.3886067389861
 20
-148.2350517750072
 10
127.3886067389861
 20
-148.2350517750072
 10
127.5515597554385
 20
-148.3366820918221
 10
127.6015136399746
 20
-148.4255655553415
 10
127.6256293083714
 20
-148.4677679750358
 10
127.6256293083714
 20
-148.4677679750358
 10
127.5219319342653
 20
-148.6159070809016
 10
127.5219319342653
 20
-148.6159070809016
 97
        0
 97
        1
330
8C
 92
        1
 93
        1
 72
     4
 94
        3
 73
     0
 74
     0
 95
       23
 96
       19
 40
0.0
 40
0.0
 40
0.0
 40
0.0
 40
1.0
 40
1.0
 40
1.0
 40
2.0
 40
2.0
 40
2.0
 40
3.0
 40
3.0
 40
3.0
 40
4.0
 40
4.0
 40
4.0
 40
5.0
 40
5.0
 40
5.0
 40
6.0
 40
6.0
 40
6.0
 40
6.0
 10
127.3886067389861
 20
-149.0813394809588
 10
127.3737928283996
 20
-149.1216470981362
 10
127.3682806756232
 20
-149.1385280660139
 10
127.3496771600028
 20
-149.1385280660139
 10
127.3365857971589
 20
-149.1385280660139
 10
127.3272840393487
 20
-149.1216470981362
 10
127.3217718865723
 20
-149.1089002448408
 10
127.3217718865723
 20
-149.1089002448408
 10
127.234955480344
 20
-148.9438801710973
 10
127.234955480344
 20
-148.9438801710973
 10
127.3238389438635
 20
-148.9121852926331
 10
127.4550970818515
 20
-148.8570637648691
 10
127.6294189134051
 20
-148.6941107484167
 10
127.6294189134051
 20
-148.6941107484167
 10
127.6793727979413
 20
-148.8675713060991
 10
127.6793727979413
 20
-148.8675713060991
 10
127.5977240349408
 20
-148.9500813429708
 10
127.5202093865227
 20
-149.0072699280259
 10
127.3886067389861
 20
-149.0813394809588
 97
        0
 97
        1
330
8D
 92
        1
 93
        1
 72
     4
 94
        3
 73
     0
 74
     0
 95
      113
 96
      109
 40
0.0
 40
0.0
 40
0.0
 40
0.0
 40
1.0
 40
1.0
 40
1.0
 40
2.0
 40
2.0
 40
2.0
 40
3.0
 40
3.0
 40
3.0
 40
4.0
 40
4.0
 40
4.0
 40
5.0
 40
5.0
 40
5.0
 40
6.0
 40
6.0
 40
6.0
 40
7.0
 40
7.0
 40
7.0
 40
8.0
 40
8.0
 40
8.0
 40
9.0
 40
9.0
 40
9.0
 40
10.0
 40
10.0
 40
10.0
 40
11.0
 40
11.0
 40
11.0
 40
12.0
 40
12.0
 40
12.0
 40
13.0
 40
13.0
 40
13.0
 40
14.0
 40
14.0
 40
14.0
 40
15.0
 40
15.0
 40
15.0
 40
16.0
 40
16.0
 40
16.0
 40
17.0
 40
17.0
 40
17.0
 40
18.0
 40
18.0
 40
18.0
 40
19.0
 40
19.0
 40
19.0
 40
20.0
 40
20.0
 40
20.0
 40
21.0
 40
21.0
 40
21.0
 40
22.0
 40
22.0
 40
22.0
 40
23.0
 40
23.0
 40
23.0
 40
24.0
 40
24.0
 40
24.0
 40
25.0
 40
25.0
 40
25.0
 40
26.0
 40
26.0
 40
26.0
 40
27.0
 40
27.0
 40
27.0
 40
28.0
 40
28.0
 40
28.0
 40
29.0
 40
29.0
 40
29.0
 40
30.0
 40
30.0
 40
30.0
 40
31.0
 40
31.0
 40
31.0
 40
32.0
 40
32.0
 40
32.0
 40
33.0
 40
33.0
 40
33.0
 40
34.0
 40
34.0
 40
34.0
 40
35.0
 40
35.0
 40
35.0
 40
36.0
 40
36.0
 40
36.0
 40
36.0
 10
128.5123968862746
 20
-149.4323947109058
 10
128.5123968862746
 20
-149.4323947109058
 10
128.5995578020515
 20
-149.5319579704295
 10
128.5995578020515
 20
-149.5319579704295
 10
128.6088595598616
 20
-149.5426377664338
 10
128.6181613176718
 20
-149.5553846197292
 10
128.6181613176718
 20
-149.5701985303158
 10
128.6181613176718
 20
-149.5722655876069
 10
128.6181613176718
 20
-149.6018934087801
 10
128.5847438914649
 20
-149.6018934087801
 10
128.5775091909459
 20
-149.6018934087801
 10
128.5420247074478
 20
-149.5974147846492
 10
128.5365125546714
 20
-149.5974147846492
 10
128.5013725807219
 20
-149.6294541726621
 10
128.4607204539959
 20
-149.6632161084175
 10
128.3735595382191
 20
-149.7204046934727
 10
128.5013725807219
 20
-149.828236182161
 10
128.6402099287774
 20
-149.8854247672161
 10
128.8792995554538
 20
-149.9233208175539
 10
128.8792995554538
 20
-149.9233208175539
 10
128.7476969079172
 20
-150.0990206873016
 10
128.7476969079172
 20
-150.0990206873016
 10
128.5182535485996
 20
-150.0270181916599
 10
128.3811387482866
 20
-149.9381347281405
 10
128.3143038958728
 20
-149.8854247672161
 10
128.1830457578848
 20
-149.7837944504013
 10
128.0569552631246
 20
-149.6208414339489
 10
127.9904649202593
 20
-149.4558213602055
 10
127.931209277913
 20
-149.5212781744252
 10
127.8664414827903
 20
-149.574332644898
 10
127.7978840826339
 20
-149.6229084912401
 10
127.7978840826339
 20
-149.6229084912401
 10
127.7978840826339
 20
-149.8747449712118
 10
127.7978840826339
 20
-149.8747449712118
 10
127.9405110357232
 20
-149.849251264621
 10
128.1034640521755
 20
-149.8048095328613
 10
128.158930089488
 20
-149.7899956222747
 10
128.158930089488
 20
-149.7899956222747
 10
128.1330918733487
 20
-149.9591498106005
 10
128.1330918733487
 20
-149.9591498106005
 10
128.1310248160575
 20
-149.9591498106005
 10
128.1144883577283
 20
-149.9656954920224
 10
128.1127658099857
 20
-149.9656954920224
 10
127.938443978432
 20
-150.0035915423602
 10
127.6607692823209
 20
-150.0693928661284
 10
127.4885145080584
 20
-150.1052218591751
 10
127.4792127502482
 20
-150.1221028270528
 10
127.4588866868852
 20
-150.1537977055171
 10
127.4385606235223
 20
-150.1537977055171
 10
127.4144449551255
 20
-150.1537977055171
 10
127.4106553500918
 20
-150.1348496803482
 10
127.4089328023491
 20
-150.1159016551793
 10
127.4089328023491
 20
-150.1159016551793
 10
127.386539681695
 20
-149.9422688427227
 10
127.386539681695
 20
-149.9422688427227
 10
127.4516519863662
 20
-149.9340006135581
 10
127.5460476026621
 20
-149.9212537602627
 10
127.6404432189579
 20
-149.9002386778027
 10
127.6404432189579
 20
-149.9002386778027
 10
127.6404432189579
 20
-149.7224717507638
 10
127.6404432189579
 20
-149.7224717507638
 10
127.5143527241978
 20
-149.7944742464055
 10
127.4313259230033
 20
-149.8237575580301
 10
127.2866319126228
 20
-149.8533853792033
 10
127.2866319126228
 20
-149.8533853792033
 10
127.1812119907741
 20
-149.6842311908775
 10
127.1812119907741
 20
-149.6842311908775
 10
127.4588866868852
 20
-149.6566704269955
 10
127.627351856114
 20
-149.5636528488938
 10
127.7830701720473
 20
-149.4303276536146
 10
127.6552571295445
 20
-149.4303276536146
 10
127.3923963440199
 20
-149.4348062777454
 10
127.2201415697574
 20
-149.4410074496189
 10
127.2201415697574
 20
-149.4410074496189
 10
127.2201415697574
 20
-149.26324052258
 10
127.2201415697574
 20
-149.26324052258
 10
127.3551893127792
 20
-149.269786204002
 10
127.6146050028186
 20
-149.2759873758754
 10
127.7754909619797
 20
-149.2759873758754
 10
127.7754909619797
 20
-149.2759873758754
 10
127.9608370990862
 20
-149.2759873758754
 10
127.9608370990862
 20
-149.2759873758754
 10
127.9608370990862
 20
-149.1809027404825
 10
127.958770041795
 20
-149.1299153273008
 10
127.9532578890186
 20
-149.08340653825
 10
127.9532578890186
 20
-149.08340653825
 10
128.1423936311588
 20
-149.1002875061277
 10
128.1423936311588
 20
-149.1002875061277
 10
128.1847683056274
 20
-149.1047661302585
 10
128.1923475156949
 20
-149.1195800408451
 10
128.1923475156949
 20
-149.1343939514317
 10
128.1923475156949
 20
-149.159543148474
 10
128.1775336051084
 20
-149.1681558871871
 10
128.1330918733487
 20
-149.193649593778
 10
128.1310248160575
 20
-149.2187987908203
 10
128.1310248160575
 20
-149.2253444722423
 10
128.1293022683149
 20
-149.2759873758754
 10
128.1293022683149
 20
-149.2759873758754
 10
128.3311848637505
 20
-149.2759873758754
 10
128.3311848637505
 20
-149.2759873758754
 10
128.4755343645825
 20
-149.2759873758754
 10
128.731160449588
 20
-149.269786204002
 10
128.8886013132639
 20
-149.26324052258
 10
128.8886013132639
 20
-149.26324052258
 10
128.8886013132639
 20
-149.4410074496189
 10
128.8886013132639
 20
-149.4410074496189
 10
128.7756021813478
 20
-149.4368733350366
 10
128.7552761179848
 20
-149.4368733350366
 10
128.5123968862746
 20
-149.4323947109058
 97
        0
 97
        1
330
8E
 75
     2
 76
     1
 98
        1
 10
0.0
 20
0.0
450
        0
451
        0
460
0.0
461
0.0
452
        0
462
0.0
453
        0
470

  0
SPLINE
  5
90
330
7D
100
AcDbEntity
  8
レイヤー 1
100
AcDbSpline
210
0.0
220
0.0
230
1.0
 70
    11
 71
     3
 72
    17
 73
    13
 74
     0
 42
0.0000000001
 43
0.0000000001
 40
0.0
 40
0.0
 40
0.0
 40
0.0
 40
1.0
 40
1.0
 40
1.0
 40
2.0
 40
2.0
 40
2.0
 40
3.0
 40
3.0
 40
3.0
 40
4.0
 40
4.0
 40
4.0
 40
4.0
 10
130.3941080403181
 20
-148.9459472283885
 30
0.0
 10
130.3941080403181
 20
-148.9459472283885
 30
0.0
 10
129.992409906738
 20
-148.9459472283885
 30
0.0
 10
129.992409906738
 20
-148.9459472283885
 30
0.0
 10
129.992409906738
 20
-148.9459472283885
 30
0.0
 10
129.992409906738
 20
-149.2549722934154
 30
0.0
 10
129.992409906738
 20
-149.2549722934154
 30
0.0
 10
129.992409906738
 20
-149.2549722934154
 30
0.0
 10
130.3941080403181
 20
-149.2549722934154
 30
0.0
 10
130.3941080403181
 20
-149.2549722934154
 30
0.0
 10
130.3941080403181
 20
-149.2549722934154
 30
0.0
 10
130.3941080403181
 20
-148.9459472283885
 30
0.0
 10
130.3941080403181
 20
-148.9459472283885
 30
0.0
  0
SPLINE
  5
91
330
7D
100
AcDbEntity
  8
レイヤー 1
100
AcDbSpline
210
0.0
220
0.0
230
1.0
 70
    11
 71
     3
 72
    17
 73
    13
 74
     0
 42
0.0000000001
 43
0.0000000001
 40
0.0
 40
0.0
 40
0.0
 40
0.0
 40
1.0
 40
1.0
 40
1.0
 40
2.0
 40
2.0
 40
2.0
 40
3.0
 40
3.0
 40
3.0
 40
4.0
 40
4.0
 40
4.0
 40
4.0
 10
130.3941080403181
 20
-148.4741414016836
 30
0.0
 10
130.3941080403181
 20
-148.4741414016836
 30
0.0
 10
129.992409906738
 20
-148.4741414016836
 30
0.0
 10
129.992409906738
 20
-148.4741414016836
 30
0.0
 10
129.992409906738
 20
-148.4741414016836
 30
0.0
 10
129.992409906738
 20
-148.7786878425796
 30
0.0
 10
129.992409906738
 20
-148.7786878425796
 30
0.0
 10
129.992409906738
 20
-148.7786878425796
 30
0.0
 10
130.3941080403181
 20
-148.7786878425796
 30
0.0
 10
130.3941080403181
 20
-148.7786878425796
 30
0.0
 10
130.3941080403181
 20
-148.7786878425796
 30
0.0
 10
130.3941080403181
 20
-148.4741414016836
 30
0.0
 10
130.3941080403181
 20
-148.4741414016836
 30
0.0
  0
SPLINE
  5
92
330
7D
100
AcDbEntity
  8
レイヤー 1
100
AcDbSpline
210
0.0
220
0.0
230
1.0
 70
    11
 71
     3
 72
    17
 73
    13
 74
     0
 42
0.0000000001
 43
0.0000000001
 40
0.0
 40
0.0
 40
0.0
 40
0.0
 40
1.0
 40
1.0
 40
1.0
 40
2.0
 40
2.0
 40
2.0
 40
3.0
 40
3.0
 40
3.0
 40
4.0
 40
4.0
 40
4.0
 40
4.0
 10
129.8256672852519
 20
-148.9459472283885
 30
0.0
 10
129.8256672852519
 20
-148.9459472283885
 30
0.0
 10
129.4422281577436
 20
-148.9459472283885
 30
0.0
 10
129.4422281577436
 20
-148.9459472283885
 30
0.0
 10
129.4422281577436
 20
-148.9459472283885
 30
0.0
 10
129.4422281577436
 20
-149.2549722934154
 30
0.0
 10
129.4422281577436
 20
-149.2549722934154
 30
0.0
 10
129.4422281577436
 20
-149.2549722934154
 30
0.0
 10
129.8256672852519
 20
-149.2549722934154
 30
0.0
 10
129.8256672852519
 20
-149.2549722934154
 30
0.0
 10
129.8256672852519
 20
-149.2549722934154
 30
0.0
 10
129.8256672852519
 20
-148.9459472283885
 30
0.0
 10
129.8256672852519
 20
-148.9459472283885
 30
0.0
  0
SPLINE
  5
93
330
7D
100
AcDbEntity
  8
レイヤー 1
100
AcDbSpline
210
0.0
220
0.0
230
1.0
 70
    11
 71
     3
 72
    17
 73
    13
 74
     0
 42
0.0000000001
 43
0.0000000001
 40
0.0
 40
0.0
 40
0.0
 40
0.0
 40
1.0
 40
1.0
 40
1.0
 40
2.0
 40
2.0
 40
2.0
 40
3.0
 40
3.0
 40
3.0
 40
4.0
 40
4.0
 40
4.0
 40
4.0
 10
129.8256672852519
 20
-148.4741414016836
 30
0.0
 10
129.8256672852519
 20
-148.4741414016836
 30
0.0
 10
129.4422281577436
 20
-148.4741414016836
 30
0.0
 10
129.4422281577436
 20
-148.4741414016836
 30
0.0
 10
129.4422281577436
 20
-148.4741414016836
 30
0.0
 10
129.4422281577436
 20
-148.7786878425796
 30
0.0
 10
129.4422281577436
 20
-148.7786878425796
 30
0.0
 10
129.4422281577436
 20
-148.7786878425796
 30
0.0
 10
129.8256672852519
 20
-148.7786878425796
 30
0.0
 10
129.8256672852519
 20
-148.7786878425796
 30
0.0
 10
129.8256672852519
 20
-148.7786878425796
 30
0.0
 10
129.8256672852519
 20
-148.4741414016836
 30
0.0
 10
129.8256672852519
 20
-148.4741414016836
 30
0.0
  0
SPLINE
  5
94
330
7D
100
AcDbEntity
  8
レイヤー 1
100
AcDbSpline
210
0.0
220
0.0
230
1.0
 70
     9
 71
     3
 72
    77
 73
    73
 74
     0
 42
0.0000000001
 43
0.0000000001
 40
0.0
 40
0.0
 40
0.0
 40
0.0
 40
1.0
 40
1.0
 40
1.0
 40
2.0
 40
2.0
 40
2.0
 40
3.0
 40
3.0
 40
3.0
 40
4.0
 40
4.0
 40
4.0
 40
5.0
 40
5.0
 40
5.0
 40
6.0
 40
6.0
 40
6.0
 40
7.0
 40
7.0
 40
7.0
 40
8.0
 40
8.0
 40
8.0
 40
9.0
 40
9.0
 40
9.0
 40
10.0
 40
10.0
 40
10.0
 40
11.0
 40
11.0
 40
11.0
 40
12.0
 40
12.0
 40
12.0
 40
13.0
 40
13.0
 40
13.0
 40
14.0
 40
14.0
 40
14.0
 40
15.0
 40
15.0
 40
15.0
 40
16.0
 40
16.0
 40
16.0
 40
17.0
 40
17.0
 40
17.0
 40
18.0
 40
18.0
 40
18.0
 40
19.0
 40
19.0
 40
19.0
 40
20.0
 40
20.0
 40
20.0
 40
21.0
 40
21.0
 40
21.0
 40
22.0
 40
22.0
 40
22.0
 40
23.0
 40
23.0
 40
23.0
 40
24.0
 40
24.0
 40
24.0
 40
24.0
 10
130.5126193250107
 20
-150.0607801274153
 30
0.0
 10
130.4719671982848
 20
-150.0862738340062
 30
0.0
 10
130.3627576714023
 20
-150.0990206873016
 30
0.0
 10
130.2942002712459
 20
-150.0990206873016
 30
0.0
 10
130.2831759656931
 20
-150.0990206873016
 30
0.0
 10
130.260782845039
 20
-150.0990206873016
 30
0.0
 10
130.2311550238658
 20
-150.0945420631708
 30
0.0
 10
130.2311550238658
 20
-150.0945420631708
 30
0.0
 10
130.1460611653801
 20
-149.8681992897899
 30
0.0
 10
130.1460611653801
 20
-149.8681992897899
 30
0.0
 10
130.1718993815195
 20
-149.8747449712118
 30
0.0
 10
130.2218532660556
 20
-149.8830132003764
 30
0.0
 10
130.323828092419
 20
-149.8830132003764
 30
0.0
 10
130.3923854925755
 20
-149.8830132003764
 30
0.0
 10
130.3941080403181
 20
-149.8409830354564
 30
0.0
 10
130.3941080403181
 20
-149.7837944504013
 30
0.0
 10
130.3941080403181
 20
-149.7837944504013
 30
0.0
 10
130.3941080403181
 20
-149.4348062777454
 30
0.0
 10
130.3941080403181
 20
-149.4348062777454
 30
0.0
 10
130.3941080403181
 20
-149.4348062777454
 30
0.0
 10
129.992409906738
 20
-149.4348062777454
 30
0.0
 10
129.992409906738
 20
-149.4348062777454
 30
0.0
 10
129.9941324544806
 20
-149.5722655876069
 30
0.0
 10
129.9958550022232
 20
-149.7710475971058
 30
0.0
 10
130.0013671549996
 20
-149.904372792385
 30
0.0
 10
130.0034342122908
 20
-149.931933556267
 30
0.0
 10
130.0034342122908
 20
-149.9763752880267
 30
0.0
 10
130.0144585178436
 20
-150.0376979876642
 30
0.0
 10
130.0144585178436
 20
-150.0376979876642
 30
0.0
 10
129.8032741645978
 20
-150.0376979876642
 30
0.0
 10
129.8032741645978
 20
-150.0376979876642
 30
0.0
 10
129.8256672852519
 20
-149.9126410215496
 30
0.0
 10
129.8256672852519
 20
-149.5722655876069
 30
0.0
 10
129.8256672852519
 20
-149.4348062777454
 30
0.0
 10
129.8256672852519
 20
-149.4348062777454
 30
0.0
 10
129.4384385527098
 20
-149.4348062777454
 30
0.0
 10
129.4384385527098
 20
-149.4348062777454
 30
0.0
 10
129.4181124893468
 20
-149.6418565164089
 30
0.0
 10
129.3609239042917
 20
-149.9105739642585
 30
0.0
 10
129.1886691300292
 20
-150.0945420631708
 30
0.0
 10
129.1886691300292
 20
-150.0945420631708
 30
0.0
 10
129.0236490562857
 20
-149.9718966638959
 30
0.0
 10
129.0236490562857
 20
-149.9718966638959
 30
0.0
 10
129.2462022246329
 20
-149.7520995719369
 30
0.0
 10
129.2737629885149
 20
-149.4199923671589
 30
0.0
 10
129.2737629885149
 20
-149.0878851623808
 30
0.0
 10
129.2737629885149
 20
-149.0878851623808
 30
0.0
 10
129.2737629885149
 20
-148.6519083287224
 30
0.0
 10
129.2737629885149
 20
-148.6519083287224
 30
0.0
 10
129.2737629885149
 20
-148.6159070809016
 30
0.0
 10
129.2720404407723
 20
-148.3831908808729
 30
0.0
 10
129.2644612307047
 20
-148.281560564058
 30
0.0
 10
129.3867621204311
 20
-148.2922403600623
 30
0.0
 10
129.5979464736769
 20
-148.2922403600623
 30
0.0
 10
129.7236924588885
 20
-148.2922403600623
 30
0.0
 10
129.7236924588885
 20
-148.2922403600623
 30
0.0
 10
130.1257351020172
 20
-148.2922403600623
 30
0.0
 10
130.1257351020172
 20
-148.2922403600623
 30
0.0
 10
130.1384819553126
 20
-148.2922403600623
 30
0.0
 10
130.4440619248543
 20
-148.2922403600623
 30
0.0
 10
130.5828992729098
 20
-148.281560564058
 30
0.0
 10
130.5811767251672
 20
-148.3344427797566
 30
0.0
 10
130.5756645723908
 20
-148.4953287389178
 30
0.0
 10
130.5756645723908
 20
-148.5461438973253
 30
0.0
 10
130.5756645723908
 20
-148.5461438973253
 30
0.0
 10
130.5756645723908
 20
-149.1533419766005
 30
0.0
 10
130.5756645723908
 20
-149.1533419766005
 30
0.0
 10
130.5756645723908
 20
-149.1722900017694
 30
0.0
 10
130.584966330201
 20
-149.7434868332238
 30
0.0
 10
130.584966330201
 20
-149.855796946043
 30
0.0
 10
130.584966330201
 20
-149.9126410215496
 30
0.0
 10
130.584966330201
 20
-150.0142713383645
 30
0.0
 10
130.5126193250107
 20
-150.0607801274153
 30
0.0
  0
HATCH
  5
95
330
7D
100
AcDbEntity
  8
レイヤー 1
 62
   250
420
  2299925
440
 33554687
100
AcDbHatch
 10
0.0
 20
0.0
 30
0.0
210
0.0
220
0.0
230
1.0
  2
SOLID
 70
     1
 71
     1
 91
        5
 92
        1
 93
        1
 72
     4
 94
        3
 73
     0
 74
     0
 95
       17
 96
       13
 40
0.0
 40
0.0
 40
0.0
 40
0.0
 40
1.0
 40
1.0
 40
1.0
 40
2.0
 40
2.0
 40
2.0
 40
3.0
 40
3.0
 40
3.0
 40
4.0
 40
4.0
 40
4.0
 40
4.0
 10
130.3941080403181
 20
-148.9459472283885
 10
130.3941080403181
 20
-148.9459472283885
 10
129.992409906738
 20
-148.9459472283885
 10
129.992409906738
 20
-148.9459472283885
 10
129.992409906738
 20
-148.9459472283885
 10
129.992409906738
 20
-149.2549722934154
 10
129.992409906738
 20
-149.2549722934154
 10
129.992409906738
 20
-149.2549722934154
 10
130.3941080403181
 20
-149.2549722934154
 10
130.3941080403181
 20
-149.2549722934154
 10
130.3941080403181
 20
-149.2549722934154
 10
130.3941080403181
 20
-148.9459472283885
 10
130.3941080403181
 20
-148.9459472283885
 97
        0
 97
        1
330
90
 92
        1
 93
        1
 72
     4
 94
        3
 73
     0
 74
     0
 95
       17
 96
       13
 40
0.0
 40
0.0
 40
0.0
 40
0.0
 40
1.0
 40
1.0
 40
1.0
 40
2.0
 40
2.0
 40
2.0
 40
3.0
 40
3.0
 40
3.0
 40
4.0
 40
4.0
 40
4.0
 40
4.0
 10
130.3941080403181
 20
-148.4741414016836
 10
130.3941080403181
 20
-148.4741414016836
 10
129.992409906738
 20
-148.4741414016836
 10
129.992409906738
 20
-148.4741414016836
 10
129.992409906738
 20
-148.4741414016836
 10
129.992409906738
 20
-148.7786878425796
 10
129.992409906738
 20
-148.7786878425796
 10
129.992409906738
 20
-148.7786878425796
 10
130.3941080403181
 20
-148.7786878425796
 10
130.3941080403181
 20
-148.7786878425796
 10
130.3941080403181
 20
-148.7786878425796
 10
130.3941080403181
 20
-148.4741414016836
 10
130.3941080403181
 20
-148.4741414016836
 97
        0
 97
        1
330
91
 92
        1
 93
        1
 72
     4
 94
        3
 73
     0
 74
     0
 95
       17
 96
       13
 40
0.0
 40
0.0
 40
0.0
 40
0.0
 40
1.0
 40
1.0
 40
1.0
 40
2.0
 40
2.0
 40
2.0
 40
3.0
 40
3.0
 40
3.0
 40
4.0
 40
4.0
 40
4.0
 40
4.0
 10
129.8256672852519
 20
-148.9459472283885
 10
129.8256672852519
 20
-148.9459472283885
 10
129.4422281577436
 20
-148.9459472283885
 10
129.4422281577436
 20
-148.9459472283885
 10
129.4422281577436
 20
-148.9459472283885
 10
129.4422281577436
 20
-149.2549722934154
 10
129.4422281577436
 20
-149.2549722934154
 10
129.4422281577436
 20
-149.2549722934154
 10
129.8256672852519
 20
-149.2549722934154
 10
129.8256672852519
 20
-149.2549722934154
 10
129.8256672852519
 20
-149.2549722934154
 10
129.8256672852519
 20
-148.9459472283885
 10
129.8256672852519
 20
-148.9459472283885
 97
        0
 97
        1
330
92
 92
        1
 93
        1
 72
     4
 94
        3
 73
     0
 74
     0
 95
       17
 96
       13
 40
0.0
 40
0.0
 40
0.0
 40
0.0
 40
1.0
 40
1.0
 40
1.0
 40
2.0
 40
2.0
 40
2.0
 40
3.0
 40
3.0
 40
3.0
 40
4.0
 40
4.0
 40
4.0
 40
4.0
 10
129.8256672852519
 20
-148.4741414016836
 10
129.8256672852519
 20
-148.4741414016836
 10
129.4422281577436
 20
-148.4741414016836
 10
129.4422281577436
 20
-148.4741414016836
 10
129.4422281577436
 20
-148.4741414016836
 10
129.4422281577436
 20
-148.7786878425796
 10
129.4422281577436
 20
-148.7786878425796
 10
129.4422281577436
 20
-148.7786878425796
 10
129.8256672852519
 20
-148.7786878425796
 10
129.8256672852519
 20
-148.7786878425796
 10
129.8256672852519
 20
-148.7786878425796
 10
129.8256672852519
 20
-148.4741414016836
 10
129.8256672852519
 20
-148.4741414016836
 97
        0
 97
        1
330
93
 92
        1
 93
        1
 72
     4
 94
        3
 73
     0
 74
     0
 95
       77
 96
       73
 40
0.0
 40
0.0
 40
0.0
 40
0.0
 40
1.0
 40
1.0
 40
1.0
 40
2.0
 40
2.0
 40
2.0
 40
3.0
 40
3.0
 40
3.0
 40
4.0
 40
4.0
 40
4.0
 40
5.0
 40
5.0
 40
5.0
 40
6.0
 40
6.0
 40
6.0
 40
7.0
 40
7.0
 40
7.0
 40
8.0
 40
8.0
 40
8.0
 40
9.0
 40
9.0
 40
9.0
 40
10.0
 40
10.0
 40
10.0
 40
11.0
 40
11.0
 40
11.0
 40
12.0
 40
12.0
 40
12.0
 40
13.0
 40
13.0
 40
13.0
 40
14.0
 40
14.0
 40
14.0
 40
15.0
 40
15.0
 40
15.0
 40
16.0
 40
16.0
 40
16.0
 40
17.0
 40
17.0
 40
17.0
 40
18.0
 40
18.0
 40
18.0
 40
19.0
 40
19.0
 40
19.0
 40
20.0
 40
20.0
 40
20.0
 40
21.0
 40
21.0
 40
21.0
 40
22.0
 40
22.0
 40
22.0
 40
23.0
 40
23.0
 40
23.0
 40
24.0
 40
24.0
 40
24.0
 40
24.0
 10
130.5126193250107
 20
-150.0607801274153
 10
130.4719671982848
 20
-150.0862738340062
 10
130.3627576714023
 20
-150.0990206873016
 10
130.2942002712459
 20
-150.0990206873016
 10
130.2831759656931
 20
-150.0990206873016
 10
130.260782845039
 20
-150.0990206873016
 10
130.2311550238658
 20
-150.0945420631708
 10
130.2311550238658
 20
-150.0945420631708
 10
130.1460611653801
 20
-149.8681992897899
 10
130.1460611653801
 20
-149.8681992897899
 10
130.1718993815195
 20
-149.8747449712118
 10
130.2218532660556
 20
-149.8830132003764
 10
130.323828092419
 20
-149.8830132003764
 10
130.3923854925755
 20
-149.8830132003764
 10
130.3941080403181
 20
-149.8409830354564
 10
130.3941080403181
 20
-149.7837944504013
 10
130.3941080403181
 20
-149.7837944504013
 10
130.3941080403181
 20
-149.4348062777454
 10
130.3941080403181
 20
-149.4348062777454
 10
130.3941080403181
 20
-149.4348062777454
 10
129.992409906738
 20
-149.4348062777454
 10
129.992409906738
 20
-149.4348062777454
 10
129.9941324544806
 20
-149.5722655876069
 10
129.9958550022232
 20
-149.7710475971058
 10
130.0013671549996
 20
-149.904372792385
 10
130.0034342122908
 20
-149.931933556267
 10
130.0034342122908
 20
-149.9763752880267
 10
130.0144585178436
 20
-150.0376979876642
 10
130.0144585178436
 20
-150.0376979876642
 10
129.8032741645978
 20
-150.0376979876642
 10
129.8032741645978
 20
-150.0376979876642
 10
129.8256672852519
 20
-149.9126410215496
 10
129.8256672852519
 20
-149.5722655876069
 10
129.8256672852519
 20
-149.4348062777454
 10
129.8256672852519
 20
-149.4348062777454
 10
129.4384385527098
 20
-149.4348062777454
 10
129.4384385527098
 20
-149.4348062777454
 10
129.4181124893468
 20
-149.6418565164089
 10
129.3609239042917
 20
-149.9105739642585
 10
129.1886691300292
 20
-150.0945420631708
 10
129.1886691300292
 20
-150.0945420631708
 10
129.0236490562857
 20
-149.9718966638959
 10
129.0236490562857
 20
-149.9718966638959
 10
129.2462022246329
 20
-149.7520995719369
 10
129.2737629885149
 20
-149.4199923671589
 10
129.2737629885149
 20
-149.0878851623808
 10
129.2737629885149
 20
-149.0878851623808
 10
129.2737629885149
 20
-148.6519083287224
 10
129.2737629885149
 20
-148.6519083287224
 10
129.2737629885149
 20
-148.6159070809016
 10
129.2720404407723
 20
-148.3831908808729
 10
129.2644612307047
 20
-148.281560564058
 10
129.3867621204311
 20
-148.2922403600623
 10
129.5979464736769
 20
-148.2922403600623
 10
129.7236924588885
 20
-148.2922403600623
 10
129.7236924588885
 20
-148.2922403600623
 10
130.1257351020172
 20
-148.2922403600623
 10
130.1257351020172
 20
-148.2922403600623
 10
130.1384819553126
 20
-148.2922403600623
 10
130.4440619248543
 20
-148.2922403600623
 10
130.5828992729098
 20
-148.281560564058
 10
130.5811767251672
 20
-148.3344427797566
 10
130.5756645723908
 20
-148.4953287389178
 10
130.5756645723908
 20
-148.5461438973253
 10
130.5756645723908
 20
-148.5461438973253
 10
130.5756645723908
 20
-149.1533419766005
 10
130.5756645723908
 20
-149.1533419766005
 10
130.5756645723908
 20
-149.1722900017694
 10
130.584966330201
 20
-149.7434868332238
 10
130.584966330201
 20
-149.855796946043
 10
130.584966330201
 20
-149.9126410215496
 10
130.584966330201
 20
-150.0142713383645
 10
130.5126193250107
 20
-150.0607801274153
 97
        0
 97
        1
330
94
 75
     2
 76
     1
 98
        1
 10
0.0
 20
0.0
450
        0
451
        0
460
0.0
461
0.0
452
        0
462
0.0
453
        0
470

  0
SPLINE
  5
96
330
7D
100
AcDbEntity
  8
レイヤー 1
100
AcDbSpline
210
0.0
220
0.0
230
1.0
 70
     9
 71
     3
 72
    17
 73
    13
 74
     0
 42
0.0000000001
 43
0.0000000001
 40
0.0
 40
0.0
 40
0.0
 40
0.0
 40
1.0
 40
1.0
 40
1.0
 40
2.0
 40
2.0
 40
2.0
 40
3.0
 40
3.0
 40
3.0
 40
4.0
 40
4.0
 40
4.0
 40
4.0
 10
126.7953612964261
 20
-150.821801720107
 30
0.0
 10
126.7471299596326
 20
-150.821801720107
 30
0.0
 10
126.7082003806493
 20
-150.8662434518668
 30
0.0
 10
126.7082003806493
 20
-150.9213649796308
 30
0.0
 10
126.7082003806493
 20
-150.9782090551374
 30
0.0
 10
126.7471299596326
 20
-151.0271294110279
 30
0.0
 10
126.7991509014599
 20
-151.0271294110279
 30
0.0
 10
126.8508273337387
 20
-151.0271294110279
 30
0.0
 10
126.8859673076882
 20
-150.9761419978462
 30
0.0
 10
126.8859673076882
 20
-150.9234320369219
 30
0.0
 10
126.8859673076882
 20
-150.8662434518668
 30
0.0
 10
126.8453151809623
 20
-150.821801720107
 30
0.0
 10
126.7953612964261
 20
-150.821801720107
 30
0.0
  0
SPLINE
  5
97
330
7D
100
AcDbEntity
  8
レイヤー 1
100
AcDbSpline
210
0.0
220
0.0
230
1.0
 70
     9
 71
     3
 72
    17
 73
    13
 74
     0
 42
0.0000000001
 43
0.0000000001
 40
0.0
 40
0.0
 40
0.0
 40
0.0
 40
1.0
 40
1.0
 40
1.0
 40
2.0
 40
2.0
 40
2.0
 40
3.0
 40
3.0
 40
3.0
 40
4.0
 40
4.0
 40
4.0
 40
4.0
 10
126.7970838441688
 20
-151.151841867594
 30
0.0
 10
126.6861517695437
 20
-151.151841867594
 30
0.0
 10
126.5972683060243
 20
-151.0502115507791
 30
0.0
 10
126.5972683060243
 20
-150.9234320369219
 30
0.0
 10
126.5972683060243
 20
-150.7963080135162
 30
0.0
 10
126.6861517695437
 20
-150.6926106394102
 30
0.0
 10
126.7970838441688
 20
-150.6926106394102
 30
0.0
 10
126.9083604283423
 20
-150.6926106394102
 30
0.0
 10
126.9989664396044
 20
-150.7963080135162
 30
0.0
 10
126.9989664396044
 20
-150.9234320369219
 30
0.0
 10
126.9989664396044
 20
-151.0502115507791
 30
0.0
 10
126.9083604283423
 20
-151.151841867594
 30
0.0
 10
126.7970838441688
 20
-151.151841867594
 30
0.0
  0
SPLINE
  5
98
330
7D
100
AcDbEntity
  8
レイヤー 1
100
AcDbSpline
210
0.0
220
0.0
230
1.0
 70
     9
 71
     3
 72
    44
 73
    40
 74
     0
 42
0.0000000001
 43
0.0000000001
 40
0.0
 40
0.0
 40
0.0
 40
0.0
 40
1.0
 40
1.0
 40
1.0
 40
2.0
 40
2.0
 40
2.0
 40
3.0
 40
3.0
 40
3.0
 40
4.0
 40
4.0
 40
4.0
 40
5.0
 40
5.0
 40
5.0
 40
6.0
 40
6.0
 40
6.0
 40
7.0
 40
7.0
 40
7.0
 40
8.0
 40
8.0
 40
8.0
 40
9.0
 40
9.0
 40
9.0
 40
10.0
 40
10.0
 40
10.0
 40
11.0
 40
11.0
 40
11.0
 40
12.0
 40
12.0
 40
12.0
 40
13.0
 40
13.0
 40
13.0
 40
13.0
 10
126.6138047643535
 20
-151.3506238770929
 30
0.0
 10
126.5156195430239
 20
-151.7189045844661
 30
0.0
 10
126.4711778112641
 20
-151.8773789767876
 30
0.0
 10
126.2989230370016
 20
-152.1271483994682
 30
0.0
 10
126.1380370778405
 20
-152.3576252874314
 30
0.0
 10
125.9306423296284
 20
-152.5436604436349
 30
0.0
 10
125.6860405501757
 20
-152.6370225312852
 30
0.0
 10
125.6860405501757
 20
-152.6370225312852
 30
0.0
 10
125.517575380947
 20
-152.4571885469551
 30
0.0
 10
125.517575380947
 20
-152.4571885469551
 30
0.0
 10
126.0787814354942
 20
-152.3049153265071
 30
0.0
 10
126.3674804371581
 20
-151.7485324056392
 30
0.0
 10
126.4232909840192
 20
-151.3082492026243
 30
0.0
 10
126.4232909840192
 20
-151.3082492026243
 30
0.0
 10
125.7528754025895
 20
-151.3082492026243
 30
0.0
 10
125.7528754025895
 20
-151.3082492026243
 30
0.0
 10
125.6712266395891
 20
-151.3082492026243
 30
0.0
 10
125.5103406804279
 20
-151.3127278267551
 30
0.0
 10
125.373225880115
 20
-151.331675851924
 30
0.0
 10
125.373225880115
 20
-151.331675851924
 30
0.0
 10
125.373225880115
 20
-151.1115342504165
 30
0.0
 10
125.373225880115
 20
-151.1115342504165
 30
0.0
 10
125.4490179807905
 20
-151.1328938424251
 30
0.0
 10
125.6695040918465
 20
-151.1328938424251
 30
0.0
 10
125.7563204980748
 20
-151.1328938424251
 30
0.0
 10
125.7563204980748
 20
-151.1328938424251
 30
0.0
 10
126.1342474728067
 20
-151.1328938424251
 30
0.0
 10
126.1342474728067
 20
-151.1328938424251
 30
0.0
 10
126.1711099944989
 20
-151.1328938424251
 30
0.0
 10
126.3767821949683
 20
-151.1304822755854
 30
0.0
 10
126.4101996211752
 20
-151.124281103712
 30
0.0
 10
126.4470621428674
 20
-151.1180799318385
 30
0.0
 10
126.4491292001585
 20
-151.1160128745474
 30
0.0
 10
126.5028726897284
 20
-151.0757052573699
 30
0.0
 10
126.5028726897284
 20
-151.0757052573699
 30
0.0
 10
126.6675482539234
 20
-151.2300455351091
 30
0.0
 10
126.6675482539234
 20
-151.2300455351091
 30
0.0
 10
126.641710037784
 20
-151.2596733562823
 30
0.0
 10
126.62861867494
 20
-151.2913682347466
 30
0.0
 10
126.6138047643535
 20
-151.3506238770929
 30
0.0
  0
HATCH
  5
99
330
7D
100
AcDbEntity
  8
レイヤー 1
 62
   250
420
  2299925
440
 33554687
100
AcDbHatch
 10
0.0
 20
0.0
 30
0.0
210
0.0
220
0.0
230
1.0
  2
SOLID
 70
     1
 71
     1
 91
        3
 92
        1
 93
        1
 72
     4
 94
        3
 73
     0
 74
     0
 95
       17
 96
       13
 40
0.0
 40
0.0
 40
0.0
 40
0.0
 40
1.0
 40
1.0
 40
1.0
 40
2.0
 40
2.0
 40
2.0
 40
3.0
 40
3.0
 40
3.0
 40
4.0
 40
4.0
 40
4.0
 40
4.0
 10
126.7953612964261
 20
-150.821801720107
 10
126.7471299596326
 20
-150.821801720107
 10
126.7082003806493
 20
-150.8662434518668
 10
126.7082003806493
 20
-150.9213649796308
 10
126.7082003806493
 20
-150.9782090551374
 10
126.7471299596326
 20
-151.0271294110279
 10
126.7991509014599
 20
-151.0271294110279
 10
126.8508273337387
 20
-151.0271294110279
 10
126.8859673076882
 20
-150.9761419978462
 10
126.8859673076882
 20
-150.9234320369219
 10
126.8859673076882
 20
-150.8662434518668
 10
126.8453151809623
 20
-150.821801720107
 10
126.7953612964261
 20
-150.821801720107
 97
        0
 97
        1
330
96
 92
        1
 93
        1
 72
     4
 94
        3
 73
     0
 74
     0
 95
       17
 96
       13
 40
0.0
 40
0.0
 40
0.0
 40
0.0
 40
1.0
 40
1.0
 40
1.0
 40
2.0
 40
2.0
 40
2.0
 40
3.0
 40
3.0
 40
3.0
 40
4.0
 40
4.0
 40
4.0
 40
4.0
 10
126.7970838441688
 20
-151.151841867594
 10
126.6861517695437
 20
-151.151841867594
 10
126.5972683060243
 20
-151.0502115507791
 10
126.5972683060243
 20
-150.9234320369219
 10
126.5972683060243
 20
-150.7963080135162
 10
126.6861517695437
 20
-150.6926106394102
 10
126.7970838441688
 20
-150.6926106394102
 10
126.9083604283423
 20
-150.6926106394102
 10
126.9989664396044
 20
-150.7963080135162
 10
126.9989664396044
 20
-150.9234320369219
 10
126.9989664396044
 20
-151.0502115507791
 10
126.9083604283423
 20
-151.151841867594
 10
126.7970838441688
 20
-151.151841867594
 97
        0
 97
        1
330
97
 92
        1
 93
        1
 72
     4
 94
        3
 73
     0
 74
     0
 95
       44
 96
       40
 40
0.0
 40
0.0
 40
0.0
 40
0.0
 40
1.0
 40
1.0
 40
1.0
 40
2.0
 40
2.0
 40
2.0
 40
3.0
 40
3.0
 40
3.0
 40
4.0
 40
4.0
 40
4.0
 40
5.0
 40
5.0
 40
5.0
 40
6.0
 40
6.0
 40
6.0
 40
7.0
 40
7.0
 40
7.0
 40
8.0
 40
8.0
 40
8.0
 40
9.0
 40
9.0
 40
9.0
 40
10.0
 40
10.0
 40
10.0
 40
11.0
 40
11.0
 40
11.0
 40
12.0
 40
12.0
 40
12.0
 40
13.0
 40
13.0
 40
13.0
 40
13.0
 10
126.6138047643535
 20
-151.3506238770929
 10
126.5156195430239
 20
-151.7189045844661
 10
126.4711778112641
 20
-151.8773789767876
 10
126.2989230370016
 20
-152.1271483994682
 10
126.1380370778405
 20
-152.3576252874314
 10
125.9306423296284
 20
-152.5436604436349
 10
125.6860405501757
 20
-152.6370225312852
 10
125.6860405501757
 20
-152.6370225312852
 10
125.517575380947
 20
-152.4571885469551
 10
125.517575380947
 20
-152.4571885469551
 10
126.0787814354942
 20
-152.3049153265071
 10
126.3674804371581
 20
-151.7485324056392
 10
126.4232909840192
 20
-151.3082492026243
 10
126.4232909840192
 20
-151.3082492026243
 10
125.7528754025895
 20
-151.3082492026243
 10
125.7528754025895
 20
-151.3082492026243
 10
125.6712266395891
 20
-151.3082492026243
 10
125.5103406804279
 20
-151.3127278267551
 10
125.373225880115
 20
-151.331675851924
 10
125.373225880115
 20
-151.331675851924
 10
125.373225880115
 20
-151.1115342504165
 10
125.373225880115
 20
-151.1115342504165
 10
125.4490179807905
 20
-151.1328938424251
 10
125.6695040918465
 20
-151.1328938424251
 10
125.7563204980748
 20
-151.1328938424251
 10
125.7563204980748
 20
-151.1328938424251
 10
126.1342474728067
 20
-151.1328938424251
 10
126.1342474728067
 20
-151.1328938424251
 10
126.1711099944989
 20
-151.1328938424251
 10
126.3767821949683
 20
-151.1304822755854
 10
126.4101996211752
 20
-151.124281103712
 10
126.4470621428674
 20
-151.1180799318385
 10
126.4491292001585
 20
-151.1160128745474
 10
126.5028726897284
 20
-151.0757052573699
 10
126.5028726897284
 20
-151.0757052573699
 10
126.6675482539234
 20
-151.2300455351091
 10
126.6675482539234
 20
-151.2300455351091
 10
126.641710037784
 20
-151.2596733562823
 10
126.62861867494
 20
-151.2913682347466
 10
126.6138047643535
 20
-151.3506238770929
 97
        0
 97
        1
330
98
 75
     2
 76
     1
 98
        1
 10
0.0
 20
0.0
450
        0
451
        0
460
0.0
461
0.0
452
        0
462
0.0
453
        0
470

  0
SPLINE
  5
9A
330
7D
100
AcDbEntity
  8
レイヤー 1
100
AcDbSpline
210
0.0
220
0.0
230
1.0
 70
     9
 71
     3
 72
    29
 73
    25
 74
     0
 42
0.0000000001
 43
0.0000000001
 40
0.0
 40
0.0
 40
0.0
 40
0.0
 40
1.0
 40
1.0
 40
1.0
 40
2.0
 40
2.0
 40
2.0
 40
3.0
 40
3.0
 40
3.0
 40
4.0
 40
4.0
 40
4.0
 40
5.0
 40
5.0
 40
5.0
 40
6.0
 40
6.0
 40
6.0
 40
7.0
 40
7.0
 40
7.0
 40
8.0
 40
8.0
 40
8.0
 40
8.0
 10
127.9380994688835
 20
-151.0333305829013
 30
0.0
 10
127.9380994688835
 20
-151.0333305829013
 30
0.0
 10
127.6400987094094
 20
-151.0333305829013
 30
0.0
 10
127.6400987094094
 20
-151.0333305829013
 30
0.0
 10
127.5401909403372
 20
-151.0333305829013
 30
0.0
 10
127.4382161139738
 20
-151.0374646974837
 30
0.0
 10
127.3383083449015
 20
-151.0522786080703
 30
0.0
 10
127.3383083449015
 20
-151.0522786080703
 30
0.0
 10
127.3383083449015
 20
-150.8428168025671
 30
0.0
 10
127.3383083449015
 20
-150.8428168025671
 30
0.0
 10
127.4420057190075
 20
-150.8576307131536
 30
0.0
 10
127.593934429907
 20
-150.8621093372845
 30
0.0
 10
127.6400987094094
 20
-150.8621093372845
 30
0.0
 10
127.6400987094094
 20
-150.8621093372845
 30
0.0
 10
127.9380994688835
 20
-150.8621093372845
 30
0.0
 10
127.9380994688835
 20
-150.8621093372845
 30
0.0
 10
128.0400742952469
 20
-150.8621093372845
 30
0.0
 10
128.1417046120618
 20
-150.8576307131536
 30
0.0
 10
128.2436794384252
 20
-150.8428168025671
 30
0.0
 10
128.2436794384252
 20
-150.8428168025671
 30
0.0
 10
128.2436794384252
 20
-151.0522786080703
 30
0.0
 10
128.2436794384252
 20
-151.0522786080703
 30
0.0
 10
128.1120767908886
 20
-151.0333305829013
 30
0.0
 10
127.9511908317275
 20
-151.0333305829013
 30
0.0
 10
127.9380994688835
 20
-151.0333305829013
 30
0.0
  0
SPLINE
  5
9B
330
7D
100
AcDbEntity
  8
レイヤー 1
100
AcDbSpline
210
0.0
220
0.0
230
1.0
 70
     9
 71
     3
 72
    50
 73
    46
 74
     0
 42
0.0000000001
 43
0.0000000001
 40
0.0
 40
0.0
 40
0.0
 40
0.0
 40
1.0
 40
1.0
 40
1.0
 40
2.0
 40
2.0
 40
2.0
 40
3.0
 40
3.0
 40
3.0
 40
4.0
 40
4.0
 40
4.0
 40
5.0
 40
5.0
 40
5.0
 40
6.0
 40
6.0
 40
6.0
 40
7.0
 40
7.0
 40
7.0
 40
8.0
 40
8.0
 40
8.0
 40
9.0
 40
9.0
 40
9.0
 40
10.0
 40
10.0
 40
10.0
 40
11.0
 40
11.0
 40
11.0
 40
12.0
 40
12.0
 40
12.0
 40
13.0
 40
13.0
 40
13.0
 40
14.0
 40
14.0
 40
14.0
 40
15.0
 40
15.0
 40
15.0
 40
15.0
 10
128.3697699331853
 20
-151.6596489421198
 30
0.0
 10
128.3012125330288
 20
-151.8370713596102
 30
0.0
 10
128.1827012483363
 20
-152.0444661078222
 30
0.0
 10
128.0621229063525
 20
-152.1843369845233
 30
0.0
 10
127.9139838004868
 20
-152.3555582301403
 30
0.0
 10
127.7717013569459
 20
-152.4444416936597
 30
0.0
 10
127.4919596035436
 20
-152.5860351181035
 30
0.0
 10
127.4919596035436
 20
-152.5860351181035
 30
0.0
 10
127.3438204976779
 20
-152.3979329046088
 30
0.0
 10
127.3438204976779
 20
-152.3979329046088
 30
0.0
 10
127.5067735141302
 20
-152.3745062553091
 30
0.0
 10
127.6566351677386
 20
-152.2876898490808
 30
0.0
 10
127.7899603630178
 20
-152.1819254176837
 30
0.0
 10
128.019748231884
 20
-152.0000243760625
 30
0.0
 10
128.18649085337
 20
-151.6868651964533
 30
0.0
 10
128.2288655278386
 20
-151.5049641548321
 30
0.0
 10
128.2288655278386
 20
-151.5049641548321
 30
0.0
 10
127.641821257152
 20
-151.5049641548321
 30
0.0
 10
127.641821257152
 20
-151.5049641548321
 30
0.0
 10
127.5029839090965
 20
-151.5049641548321
 30
0.0
 10
127.2473578240909
 20
-151.5135768935452
 30
0.0
 10
127.1140326288118
 20
-151.5304578614229
 30
0.0
 10
127.1140326288118
 20
-151.5304578614229
 30
0.0
 10
127.1140326288118
 20
-151.3020480307509
 30
0.0
 10
127.1140326288118
 20
-151.3020480307509
 30
0.0
 10
127.1436604499849
 20
-151.3082492026243
 30
0.0
 10
127.166053570639
 20
-151.3147948840463
 30
0.0
 10
127.2122178501414
 20
-151.3189289986286
 30
0.0
 10
127.3011013136608
 20
-151.325130170502
 30
0.0
 10
127.4733560879233
 20
-151.3275417373417
 30
0.0
 10
127.5474256408562
 20
-151.3275417373417
 30
0.0
 10
127.5474256408562
 20
-151.3275417373417
 30
0.0
 10
127.9901204107108
 20
-151.3275417373417
 30
0.0
 10
127.9901204107108
 20
-151.3275417373417
 30
0.0
 10
128.0493760530571
 20
-151.3275417373417
 30
0.0
 10
128.1771890955598
 20
-151.3230631132109
 30
0.0
 10
128.2305880755812
 20
-151.3168619413374
 30
0.0
 10
128.2936333229613
 20
-151.3082492026243
 30
0.0
 10
128.317748991358
 20
-151.2934352920377
 30
0.0
 10
128.3473768125312
 20
-151.2703531522866
 30
0.0
 10
128.3473768125312
 20
-151.2703531522866
 30
0.0
 10
128.4917263133632
 20
-151.4374402833212
 30
0.0
 10
128.4917263133632
 20
-151.4374402833212
 30
0.0
 10
128.4307481232742
 20
-151.5049641548321
 30
0.0
 10
128.3900959965483
 20
-151.6086615289381
 30
0.0
 10
128.3697699331853
 20
-151.6596489421198
 30
0.0
  0
HATCH
  5
9C
330
7D
100
AcDbEntity
  8
レイヤー 1
 62
   250
420
  2299925
440
 33554687
100
AcDbHatch
 10
0.0
 20
0.0
 30
0.0
210
0.0
220
0.0
230
1.0
  2
SOLID
 70
     1
 71
     1
 91
        2
 92
        1
 93
        1
 72
     4
 94
        3
 73
     0
 74
     0
 95
       29
 96
       25
 40
0.0
 40
0.0
 40
0.0
 40
0.0
 40
1.0
 40
1.0
 40
1.0
 40
2.0
 40
2.0
 40
2.0
 40
3.0
 40
3.0
 40
3.0
 40
4.0
 40
4.0
 40
4.0
 40
5.0
 40
5.0
 40
5.0
 40
6.0
 40
6.0
 40
6.0
 40
7.0
 40
7.0
 40
7.0
 40
8.0
 40
8.0
 40
8.0
 40
8.0
 10
127.9380994688835
 20
-151.0333305829013
 10
127.9380994688835
 20
-151.0333305829013
 10
127.6400987094094
 20
-151.0333305829013
 10
127.6400987094094
 20
-151.0333305829013
 10
127.5401909403372
 20
-151.0333305829013
 10
127.4382161139738
 20
-151.0374646974837
 10
127.3383083449015
 20
-151.0522786080703
 10
127.3383083449015
 20
-151.0522786080703
 10
127.3383083449015
 20
-150.8428168025671
 10
127.3383083449015
 20
-150.8428168025671
 10
127.4420057190075
 20
-150.8576307131536
 10
127.593934429907
 20
-150.8621093372845
 10
127.6400987094094
 20
-150.8621093372845
 10
127.6400987094094
 20
-150.8621093372845
 10
127.9380994688835
 20
-150.8621093372845
 10
127.9380994688835
 20
-150.8621093372845
 10
128.0400742952469
 20
-150.8621093372845
 10
128.1417046120618
 20
-150.8576307131536
 10
128.2436794384252
 20
-150.8428168025671
 10
128.2436794384252
 20
-150.8428168025671
 10
128.2436794384252
 20
-151.0522786080703
 10
128.2436794384252
 20
-151.0522786080703
 10
128.1120767908886
 20
-151.0333305829013
 10
127.9511908317275
 20
-151.0333305829013
 10
127.9380994688835
 20
-151.0333305829013
 97
        0
 97
        1
330
9A
 92
        1
 93
        1
 72
     4
 94
        3
 73
     0
 74
     0
 95
       50
 96
       46
 40
0.0
 40
0.0
 40
0.0
 40
0.0
 40
1.0
 40
1.0
 40
1.0
 40
2.0
 40
2.0
 40
2.0
 40
3.0
 40
3.0
 40
3.0
 40
4.0
 40
4.0
 40
4.0
 40
5.0
 40
5.0
 40
5.0
 40
6.0
 40
6.0
 40
6.0
 40
7.0
 40
7.0
 40
7.0
 40
8.0
 40
8.0
 40
8.0
 40
9.0
 40
9.0
 40
9.0
 40
10.0
 40
10.0
 40
10.0
 40
11.0
 40
11.0
 40
11.0
 40
12.0
 40
12.0
 40
12.0
 40
13.0
 40
13.0
 40
13.0
 40
14.0
 40
14.0
 40
14.0
 40
15.0
 40
15.0
 40
15.0
 40
15.0
 10
128.3697699331853
 20
-151.6596489421198
 10
128.3012125330288
 20
-151.8370713596102
 10
128.1827012483363
 20
-152.0444661078222
 10
128.0621229063525
 20
-152.1843369845233
 10
127.9139838004868
 20
-152.3555582301403
 10
127.7717013569459
 20
-152.4444416936597
 10
127.4919596035436
 20
-152.5860351181035
 10
127.4919596035436
 20
-152.5860351181035
 10
127.3438204976779
 20
-152.3979329046088
 10
127.3438204976779
 20
-152.3979329046088
 10
127.5067735141302
 20
-152.3745062553091
 10
127.6566351677386
 20
-152.2876898490808
 10
127.7899603630178
 20
-152.1819254176837
 10
128.019748231884
 20
-152.0000243760625
 10
128.18649085337
 20
-151.6868651964533
 10
128.2288655278386
 20
-151.5049641548321
 10
128.2288655278386
 20
-151.5049641548321
 10
127.641821257152
 20
-151.5049641548321
 10
127.641821257152
 20
-151.5049641548321
 10
127.5029839090965
 20
-151.5049641548321
 10
127.2473578240909
 20
-151.5135768935452
 10
127.1140326288118
 20
-151.5304578614229
 10
127.1140326288118
 20
-151.5304578614229
 10
127.1140326288118
 20
-151.3020480307509
 10
127.1140326288118
 20
-151.3020480307509
 10
127.1436604499849
 20
-151.3082492026243
 10
127.166053570639
 20
-151.3147948840463
 10
127.2122178501414
 20
-151.3189289986286
 10
127.3011013136608
 20
-151.325130170502
 10
127.4733560879233
 20
-151.3275417373417
 10
127.5474256408562
 20
-151.3275417373417
 10
127.5474256408562
 20
-151.3275417373417
 10
127.9901204107108
 20
-151.3275417373417
 10
127.9901204107108
 20
-151.3275417373417
 10
128.0493760530571
 20
-151.3275417373417
 10
128.1771890955598
 20
-151.3230631132109
 10
128.2305880755812
 20
-151.3168619413374
 10
128.2936333229613
 20
-151.3082492026243
 10
128.317748991358
 20
-151.2934352920377
 10
128.3473768125312
 20
-151.2703531522866
 10
128.3473768125312
 20
-151.2703531522866
 10
128.4917263133632
 20
-151.4374402833212
 10
128.4917263133632
 20
-151.4374402833212
 10
128.4307481232742
 20
-151.5049641548321
 10
128.3900959965483
 20
-151.6086615289381
 10
128.3697699331853
 20
-151.6596489421198
 97
        0
 97
        1
330
9B
 75
     2
 76
     1
 98
        1
 10
0.0
 20
0.0
450
        0
451
        0
460
0.0
461
0.0
452
        0
462
0.0
453
        0
470

  0
SPLINE
  5
9D
330
7D
100
AcDbEntity
  8
レイヤー 1
100
AcDbSpline
210
0.0
220
0.0
230
1.0
 70
     9
 71
     3
 72
    50
 73
    46
 74
     0
 42
0.0000000001
 43
0.0000000001
 40
0.0
 40
0.0
 40
0.0
 40
0.0
 40
1.0
 40
1.0
 40
1.0
 40
2.0
 40
2.0
 40
2.0
 40
3.0
 40
3.0
 40
3.0
 40
4.0
 40
4.0
 40
4.0
 40
5.0
 40
5.0
 40
5.0
 40
6.0
 40
6.0
 40
6.0
 40
7.0
 40
7.0
 40
7.0
 40
8.0
 40
8.0
 40
8.0
 40
9.0
 40
9.0
 40
9.0
 40
10.0
 40
10.0
 40
10.0
 40
11.0
 40
11.0
 40
11.0
 40
12.0
 40
12.0
 40
12.0
 40
13.0
 40
13.0
 40
13.0
 40
14.0
 40
14.0
 40
14.0
 40
15.0
 40
15.0
 40
15.0
 40
15.0
 10
129.8676974501719
 20
-151.0185166723148
 30
0.0
 10
129.6844183703566
 20
-151.2321125924003
 30
0.0
 10
129.6217176325251
 20
-151.304115088042
 30
0.0
 10
129.4973496855076
 20
-151.4226263727346
 30
0.0
 10
129.4973496855076
 20
-151.4226263727346
 30
0.0
 10
129.4973496855076
 20
-151.9896890896067
 30
0.0
 10
129.4973496855076
 20
-151.9896890896067
 30
0.0
 10
129.4973496855076
 20
-152.1398952527636
 30
0.0
 10
129.5032063478325
 20
-152.1588432779325
 30
0.0
 10
129.5066514433178
 20
-152.3366102049714
 30
0.0
 10
129.5087185006089
 20
-152.4675238334109
 30
0.0
 10
129.5142306533853
 20
-152.5164441893014
 30
0.0
 10
129.5197428061617
 20
-152.5756998316477
 30
0.0
 10
129.5197428061617
 20
-152.5756998316477
 30
0.0
 10
129.3216498157599
 20
-152.5756998316477
 30
0.0
 10
129.3216498157599
 20
-152.5756998316477
 30
0.0
 10
129.3254394207936
 20
-152.531258099888
 30
0.0
 10
129.3288845162789
 20
-152.4844048012886
 30
0.0
 10
129.3288845162789
 20
-152.476136572124
 30
0.0
 10
129.3288845162789
 20
-152.3958658473177
 30
0.0
 10
129.3326741213126
 20
-152.0444661078222
 30
0.0
 10
129.3326741213126
 20
-151.9724636121805
 30
0.0
 10
129.3326741213126
 20
-151.9724636121805
 30
0.0
 10
129.3326741213126
 20
-151.5662868544695
 30
0.0
 10
129.3326741213126
 20
-151.5662868544695
 30
0.0
 10
129.1735107098941
 20
-151.6913438205841
 30
0.0
 10
129.0029784833742
 20
-151.8012423665636
 30
0.0
 10
128.8252115563353
 20
-151.8880587727919
 30
0.0
 10
128.8252115563353
 20
-151.8880587727919
 30
0.0
 10
128.6474446292964
 20
-151.7251057563395
 30
0.0
 10
128.6474446292964
 20
-151.7251057563395
 30
0.0
 10
128.7549316084362
 20
-151.6892767632929
 30
0.0
 10
128.9788628149775
 20
-151.6152072103601
 30
0.0
 10
129.2806531794854
 20
-151.359236615806
 30
0.0
 10
129.4697889216256
 20
-151.200417713936
 30
0.0
 10
129.6382540908543
 20
-151.0123155004413
 30
0.0
 10
129.7715792861335
 20
-150.7921738989339
 30
0.0
 10
129.7715792861335
 20
-150.7921738989339
 30
0.0
 10
129.9400444553622
 20
-150.9361788902173
 30
0.0
 10
129.9400444553622
 20
-150.9361788902173
 30
0.0
 10
129.951068760915
 20
-150.9465141766731
 30
0.0
 10
129.9586479709825
 20
-150.9613280872597
 30
0.0
 10
129.9586479709825
 20
-150.9740749405551
 30
0.0
 10
129.9586479709825
 20
-151.0143825577325
 30
0.0
 10
129.9252305447756
 20
-151.0143825577325
 30
0.0
 10
129.8676974501719
 20
-151.0185166723148
 30
0.0
  0
HATCH
  5
9E
330
7D
100
AcDbEntity
  8
レイヤー 1
 62
   250
420
  2299925
440
 33554687
100
AcDbHatch
 10
0.0
 20
0.0
 30
0.0
210
0.0
220
0.0
230
1.0
  2
SOLID
 70
     1
 71
     1
 91
        1
 92
        1
 93
        1
 72
     4
 94
        3
 73
     0
 74
     0
 95
       50
 96
       46
 40
0.0
 40
0.0
 40
0.0
 40
0.0
 40
1.0
 40
1.0
 40
1.0
 40
2.0
 40
2.0
 40
2.0
 40
3.0
 40
3.0
 40
3.0
 40
4.0
 40
4.0
 40
4.0
 40
5.0
 40
5.0
 40
5.0
 40
6.0
 40
6.0
 40
6.0
 40
7.0
 40
7.0
 40
7.0
 40
8.0
 40
8.0
 40
8.0
 40
9.0
 40
9.0
 40
9.0
 40
10.0
 40
10.0
 40
10.0
 40
11.0
 40
11.0
 40
11.0
 40
12.0
 40
12.0
 40
12.0
 40
13.0
 40
13.0
 40
13.0
 40
14.0
 40
14.0
 40
14.0
 40
15.0
 40
15.0
 40
15.0
 40
15.0
 10
129.8676974501719
 20
-151.0185166723148
 10
129.6844183703566
 20
-151.2321125924003
 10
129.6217176325251
 20
-151.304115088042
 10
129.4973496855076
 20
-151.4226263727346
 10
129.4973496855076
 20
-151.4226263727346
 10
129.4973496855076
 20
-151.9896890896067
 10
129.4973496855076
 20
-151.9896890896067
 10
129.4973496855076
 20
-152.1398952527636
 10
129.5032063478325
 20
-152.1588432779325
 10
129.5066514433178
 20
-152.3366102049714
 10
129.5087185006089
 20
-152.4675238334109
 10
129.5142306533853
 20
-152.5164441893014
 10
129.5197428061617
 20
-152.5756998316477
 10
129.5197428061617
 20
-152.5756998316477
 10
129.3216498157599
 20
-152.5756998316477
 10
129.3216498157599
 20
-152.5756998316477
 10
129.3254394207936
 20
-152.531258099888
 10
129.3288845162789
 20
-152.4844048012886
 10
129.3288845162789
 20
-152.476136572124
 10
129.3288845162789
 20
-152.3958658473177
 10
129.3326741213126
 20
-152.0444661078222
 10
129.3326741213126
 20
-151.9724636121805
 10
129.3326741213126
 20
-151.9724636121805
 10
129.3326741213126
 20
-151.5662868544695
 10
129.3326741213126
 20
-151.5662868544695
 10
129.1735107098941
 20
-151.6913438205841
 10
129.0029784833742
 20
-151.8012423665636
 10
128.8252115563353
 20
-151.8880587727919
 10
128.8252115563353
 20
-151.8880587727919
 10
128.6474446292964
 20
-151.7251057563395
 10
128.6474446292964
 20
-151.7251057563395
 10
128.7549316084362
 20
-151.6892767632929
 10
128.9788628149775
 20
-151.6152072103601
 10
129.2806531794854
 20
-151.359236615806
 10
129.4697889216256
 20
-151.200417713936
 10
129.6382540908543
 20
-151.0123155004413
 10
129.7715792861335
 20
-150.7921738989339
 10
129.7715792861335
 20
-150.7921738989339
 10
129.9400444553622
 20
-150.9361788902173
 10
129.9400444553622
 20
-150.9361788902173
 10
129.951068760915
 20
-150.9465141766731
 10
129.9586479709825
 20
-150.9613280872597
 10
129.9586479709825
 20
-150.9740749405551
 10
129.9586479709825
 20
-151.0143825577325
 10
129.9252305447756
 20
-151.0143825577325
 10
129.8676974501719
 20
-151.0185166723148
 97
        0
 97
        1
330
9D
 75
     2
 76
     1
 98
        1
 10
0.0
 20
0.0
450
        0
451
        0
460
0.0
461
0.0
452
        0
462
0.0
453
        0
470

  0
SPLINE
  5
9F
330
7D
100
AcDbEntity
  8
レイヤー 1
100
AcDbSpline
210
0.0
220
0.0
230
1.0
 70
     9
 71
     3
 72
    50
 73
    46
 74
     0
 42
0.0000000001
 43
0.0000000001
 40
0.0
 40
0.0
 40
0.0
 40
0.0
 40
1.0
 40
1.0
 40
1.0
 40
2.0
 40
2.0
 40
2.0
 40
3.0
 40
3.0
 40
3.0
 40
4.0
 40
4.0
 40
4.0
 40
5.0
 40
5.0
 40
5.0
 40
6.0
 40
6.0
 40
6.0
 40
7.0
 40
7.0
 40
7.0
 40
8.0
 40
8.0
 40
8.0
 40
9.0
 40
9.0
 40
9.0
 40
10.0
 40
10.0
 40
10.0
 40
11.0
 40
11.0
 40
11.0
 40
12.0
 40
12.0
 40
12.0
 40
13.0
 40
13.0
 40
13.0
 40
14.0
 40
14.0
 40
14.0
 40
15.0
 40
15.0
 40
15.0
 40
15.0
 10
131.363902419416
 20
-151.5452717720095
 30
0.0
 10
131.3105034393946
 20
-151.6172742676512
 30
0.0
 10
131.082438118271
 20
-151.9345675618427
 30
0.0
 10
131.0324842337349
 20
-151.9979573187713
 30
0.0
 10
131.1065537866678
 20
-152.0954535210039
 30
0.0
 10
131.1509955184275
 20
-152.1588432779325
 30
0.0
 10
131.2085286130312
 20
-152.2497937987431
 30
0.0
 10
131.2085286130312
 20
-152.2497937987431
 30
0.0
 10
131.0472981443215
 20
-152.3872531086046
 30
0.0
 10
131.0472981443215
 20
-152.3872531086046
 30
0.0
 10
130.9287868596289
 20
-152.1757242458102
 30
0.0
 10
130.7789252060205
 20
-151.9514485297204
 30
0.0
 10
130.5215765732724
 20
-151.7526665202215
 30
0.0
 10
130.5215765732724
 20
-151.7526665202215
 30
0.0
 10
130.6511121635178
 20
-151.5983262424823
 30
0.0
 10
130.6511121635178
 20
-151.5983262424823
 30
0.0
 10
130.7475748371048
 20
-151.6785969672887
 30
0.0
 10
130.8381808483668
 20
-151.7674804308081
 30
0.0
 10
130.9232747068525
 20
-151.862565066201
 30
0.0
 10
130.9825303491988
 20
-151.786428455977
 30
0.0
 10
131.1602972762377
 20
-151.5432047147184
 30
0.0
 10
131.2770860131877
 20
-151.3147948840463
 30
0.0
 10
131.2770860131877
 20
-151.3147948840463
 30
0.0
 10
130.6883191947585
 20
-151.3147948840463
 30
0.0
 10
130.6883191947585
 20
-151.3147948840463
 30
0.0
 10
130.5787651583275
 20
-151.3147948840463
 30
0.0
 10
130.3586235568201
 20
-151.3230631132109
 30
0.0
 10
130.1753444770048
 20
-151.3337429092151
 30
0.0
 10
130.1753444770048
 20
-151.3337429092151
 30
0.0
 10
130.1753444770048
 20
-151.1136013077077
 30
0.0
 10
130.1753444770048
 20
-151.1136013077077
 30
0.0
 10
130.3362304361659
 20
-151.1328938424251
 30
0.0
 10
130.516064420496
 20
-151.1370279570074
 30
0.0
 10
130.6807399846909
 20
-151.1370279570074
 30
0.0
 10
130.6807399846909
 20
-151.1370279570074
 30
0.0
 10
131.1213676972544
 20
-151.1370279570074
 30
0.0
 10
131.1213676972544
 20
-151.1370279570074
 30
0.0
 10
131.4176459089858
 20
-151.1370279570074
 30
0.0
 10
131.4565754879692
 20
-151.1222140464208
 30
0.0
 10
131.5289224931594
 20
-151.0819064292434
 30
0.0
 10
131.5289224931594
 20
-151.0819064292434
 30
0.0
 10
131.674994541734
 20
-151.2407253311134
 30
0.0
 10
131.674994541734
 20
-151.2407253311134
 30
0.0
 10
131.5416693464548
 20
-151.3127278267551
 30
0.0
 10
131.4159233612432
 20
-151.4753363336589
 30
0.0
 10
131.363902419416
 20
-151.5452717720095
 30
0.0
  0
HATCH
  5
A0
330
7D
100
AcDbEntity
  8
レイヤー 1
 62
   250
420
  2299925
440
 33554687
100
AcDbHatch
 10
0.0
 20
0.0
 30
0.0
210
0.0
220
0.0
230
1.0
  2
SOLID
 70
     1
 71
     1
 91
        1
 92
        1
 93
        1
 72
     4
 94
        3
 73
     0
 74
     0
 95
       50
 96
       46
 40
0.0
 40
0.0
 40
0.0
 40
0.0
 40
1.0
 40
1.0
 40
1.0
 40
2.0
 40
2.0
 40
2.0
 40
3.0
 40
3.0
 40
3.0
 40
4.0
 40
4.0
 40
4.0
 40
5.0
 40
5.0
 40
5.0
 40
6.0
 40
6.0
 40
6.0
 40
7.0
 40
7.0
 40
7.0
 40
8.0
 40
8.0
 40
8.0
 40
9.0
 40
9.0
 40
9.0
 40
10.0
 40
10.0
 40
10.0
 40
11.0
 40
11.0
 40
11.0
 40
12.0
 40
12.0
 40
12.0
 40
13.0
 40
13.0
 40
13.0
 40
14.0
 40
14.0
 40
14.0
 40
15.0
 40
15.0
 40
15.0
 40
15.0
 10
131.363902419416
 20
-151.5452717720095
 10
131.3105034393946
 20
-151.6172742676512
 10
131.082438118271
 20
-151.9345675618427
 10
131.0324842337349
 20
-151.9979573187713
 10
131.1065537866678
 20
-152.0954535210039
 10
131.1509955184275
 20
-152.1588432779325
 10
131.2085286130312
 20
-152.2497937987431
 10
131.2085286130312
 20
-152.2497937987431
 10
131.0472981443215
 20
-152.3872531086046
 10
131.0472981443215
 20
-152.3872531086046
 10
130.9287868596289
 20
-152.1757242458102
 10
130.7789252060205
 20
-151.9514485297204
 10
130.5215765732724
 20
-151.7526665202215
 10
130.5215765732724
 20
-151.7526665202215
 10
130.6511121635178
 20
-151.5983262424823
 10
130.6511121635178
 20
-151.5983262424823
 10
130.7475748371048
 20
-151.6785969672887
 10
130.8381808483668
 20
-151.7674804308081
 10
130.9232747068525
 20
-151.862565066201
 10
130.9825303491988
 20
-151.786428455977
 10
131.1602972762377
 20
-151.5432047147184
 10
131.2770860131877
 20
-151.3147948840463
 10
131.2770860131877
 20
-151.3147948840463
 10
130.6883191947585
 20
-151.3147948840463
 10
130.6883191947585
 20
-151.3147948840463
 10
130.5787651583275
 20
-151.3147948840463
 10
130.3586235568201
 20
-151.3230631132109
 10
130.1753444770048
 20
-151.3337429092151
 10
130.1753444770048
 20
-151.3337429092151
 10
130.1753444770048
 20
-151.1136013077077
 10
130.1753444770048
 20
-151.1136013077077
 10
130.3362304361659
 20
-151.1328938424251
 10
130.516064420496
 20
-151.1370279570074
 10
130.6807399846909
 20
-151.1370279570074
 10
130.6807399846909
 20
-151.1370279570074
 10
131.1213676972544
 20
-151.1370279570074
 10
131.1213676972544
 20
-151.1370279570074
 10
131.4176459089858
 20
-151.1370279570074
 10
131.4565754879692
 20
-151.1222140464208
 10
131.5289224931594
 20
-151.0819064292434
 10
131.5289224931594
 20
-151.0819064292434
 10
131.674994541734
 20
-151.2407253311134
 10
131.674994541734
 20
-151.2407253311134
 10
131.5416693464548
 20
-151.3127278267551
 10
131.4159233612432
 20
-151.4753363336589
 10
131.363902419416
 20
-151.5452717720095
 97
        0
 97
        1
330
9F
 75
     2
 76
     1
 98
        1
 10
0.0
 20
0.0
450
        0
451
        0
460
0.0
461
0.0
452
        0
462
0.0
453
        0
470

  0
SPLINE
  5
A1
330
7D
100
AcDbEntity
  8
レイヤー 1
100
AcDbSpline
210
0.0
220
0.0
230
1.0
 70
     9
 71
     3
 72
    29
 73
    25
 74
     0
 42
0.0000000001
 43
0.0000000001
 40
0.0
 40
0.0
 40
0.0
 40
0.0
 40
1.0
 40
1.0
 40
1.0
 40
2.0
 40
2.0
 40
2.0
 40
3.0
 40
3.0
 40
3.0
 40
4.0
 40
4.0
 40
4.0
 40
5.0
 40
5.0
 40
5.0
 40
6.0
 40
6.0
 40
6.0
 40
7.0
 40
7.0
 40
7.0
 40
8.0
 40
8.0
 40
8.0
 40
8.0
 10
132.7863823452756
 20
-151.7884955132682
 30
0.0
 10
132.7863823452756
 20
-151.7884955132682
 30
0.0
 10
132.3622910910414
 20
-151.7884955132682
 30
0.0
 10
132.3622910910414
 20
-151.7884955132682
 30
0.0
 10
132.3381754226446
 20
-151.7884955132682
 30
0.0
 10
132.060156216985
 20
-151.7884955132682
 30
0.0
 10
131.875154589427
 20
-151.813989219859
 30
0.0
 10
131.875154589427
 20
-151.813989219859
 30
0.0
 10
131.875154589427
 20
-151.5835123318958
 30
0.0
 10
131.875154589427
 20
-151.5835123318958
 30
0.0
 10
132.0139919374826
 20
-151.6065944716469
 30
0.0
 10
132.1807345589687
 20
-151.6086615289381
 30
0.0
 10
132.3622910910414
 20
-151.6086615289381
 30
0.0
 10
132.3622910910414
 20
-151.6086615289381
 30
0.0
 10
132.7863823452756
 20
-151.6086615289381
 30
0.0
 10
132.7863823452756
 20
-151.6086615289381
 30
0.0
 10
132.9489908521794
 20
-151.6086615289381
 30
0.0
 10
133.1122883781802
 20
-151.6065944716469
 30
0.0
 10
133.2731743373414
 20
-151.5835123318958
 30
0.0
 10
133.2731743373414
 20
-151.5835123318958
 30
0.0
 10
133.2731743373414
 20
-151.813989219859
 30
0.0
 10
133.2731743373414
 20
-151.813989219859
 30
0.0
 10
133.1122883781802
 20
-151.7905625705593
 30
0.0
 10
132.895591872158
 20
-151.7884955132682
 30
0.0
 10
132.7863823452756
 20
-151.7884955132682
 30
0.0
  0
HATCH
  5
A2
330
7D
100
AcDbEntity
  8
レイヤー 1
 62
   250
420
  2299925
440
 33554687
100
AcDbHatch
 10
0.0
 20
0.0
 30
0.0
210
0.0
220
0.0
230
1.0
  2
SOLID
 70
     1
 71
     1
 91
        1
 92
        1
 93
        1
 72
     4
 94
        3
 73
     0
 74
     0
 95
       29
 96
       25
 40
0.0
 40
0.0
 40
0.0
 40
0.0
 40
1.0
 40
1.0
 40
1.0
 40
2.0
 40
2.0
 40
2.0
 40
3.0
 40
3.0
 40
3.0
 40
4.0
 40
4.0
 40
4.0
 40
5.0
 40
5.0
 40
5.0
 40
6.0
 40
6.0
 40
6.0
 40
7.0
 40
7.0
 40
7.0
 40
8.0
 40
8.0
 40
8.0
 40
8.0
 10
132.7863823452756
 20
-151.7884955132682
 10
132.7863823452756
 20
-151.7884955132682
 10
132.3622910910414
 20
-151.7884955132682
 10
132.3622910910414
 20
-151.7884955132682
 10
132.3381754226446
 20
-151.7884955132682
 10
132.060156216985
 20
-151.7884955132682
 10
131.875154589427
 20
-151.813989219859
 10
131.875154589427
 20
-151.813989219859
 10
131.875154589427
 20
-151.5835123318958
 10
131.875154589427
 20
-151.5835123318958
 10
132.0139919374826
 20
-151.6065944716469
 10
132.1807345589687
 20
-151.6086615289381
 10
132.3622910910414
 20
-151.6086615289381
 10
132.3622910910414
 20
-151.6086615289381
 10
132.7863823452756
 20
-151.6086615289381
 10
132.7863823452756
 20
-151.6086615289381
 10
132.9489908521794
 20
-151.6086615289381
 10
133.1122883781802
 20
-151.6065944716469
 10
133.2731743373414
 20
-151.5835123318958
 10
133.2731743373414
 20
-151.5835123318958
 10
133.2731743373414
 20
-151.813989219859
 10
133.2731743373414
 20
-151.813989219859
 10
133.1122883781802
 20
-151.7905625705593
 10
132.895591872158
 20
-151.7884955132682
 10
132.7863823452756
 20
-151.7884955132682
 97
        0
 97
        1
330
A1
 75
     2
 76
     1
 98
        1
 10
0.0
 20
0.0
450
        0
451
        0
460
0.0
461
0.0
452
        0
462
0.0
453
        0
470

  0
SPLINE
  5
A3
330
7D
100
AcDbEntity
  8
レイヤー 1
100
AcDbSpline
210
0.0
220
0.0
230
1.0
 70
     9
 71
     3
 72
    20
 73
    16
 74
     0
 42
0.0000000001
 43
0.0000000001
 40
0.0
 40
0.0
 40
0.0
 40
0.0
 40
1.0
 40
1.0
 40
1.0
 40
2.0
 40
2.0
 40
2.0
 40
3.0
 40
3.0
 40
3.0
 40
4.0
 40
4.0
 40
4.0
 40
5.0
 40
5.0
 40
5.0
 40
5.0
 10
134.3621690202289
 20
-152.1398952527636
 30
0.0
 10
134.321516893503
 20
-151.9621283257247
 30
0.0
 10
134.2364230350173
 20
-151.8201903917324
 30
0.0
 10
134.1141221452909
 20
-151.7102918457529
 30
0.0
 10
134.1141221452909
 20
-151.7102918457529
 30
0.0
 10
134.2550265506376
 20
-151.5959146756427
 30
0.0
 10
134.2550265506376
 20
-151.5959146756427
 30
0.0
 10
134.308425530659
 20
-151.6382893501113
 30
0.0
 10
134.3439100141571
 20
-151.6720512858667
 30
0.0
 10
134.4104003570224
 20
-151.7802272841036
 30
0.0
 10
134.4806803049215
 20
-151.8963270019565
 30
0.0
 10
134.4992838205418
 20
-151.9493814724293
 30
0.0
 10
134.521676941196
 20
-152.0148382866491
 30
0.0
 10
134.521676941196
 20
-152.0148382866491
 30
0.0
 10
134.3621690202289
 20
-152.1398952527636
 30
0.0
 10
134.3621690202289
 20
-152.1398952527636
 30
0.0
  0
SPLINE
  5
A4
330
7D
100
AcDbEntity
  8
レイヤー 1
100
AcDbSpline
210
0.0
220
0.0
230
1.0
 70
     9
 71
     3
 72
    77
 73
    73
 74
     0
 42
0.0000000001
 43
0.0000000001
 40
0.0
 40
0.0
 40
0.0
 40
0.0
 40
1.0
 40
1.0
 40
1.0
 40
2.0
 40
2.0
 40
2.0
 40
3.0
 40
3.0
 40
3.0
 40
4.0
 40
4.0
 40
4.0
 40
5.0
 40
5.0
 40
5.0
 40
6.0
 40
6.0
 40
6.0
 40
7.0
 40
7.0
 40
7.0
 40
8.0
 40
8.0
 40
8.0
 40
9.0
 40
9.0
 40
9.0
 40
10.0
 40
10.0
 40
10.0
 40
11.0
 40
11.0
 40
11.0
 40
12.0
 40
12.0
 40
12.0
 40
13.0
 40
13.0
 40
13.0
 40
14.0
 40
14.0
 40
14.0
 40
15.0
 40
15.0
 40
15.0
 40
16.0
 40
16.0
 40
16.0
 40
17.0
 40
17.0
 40
17.0
 40
18.0
 40
18.0
 40
18.0
 40
19.0
 40
19.0
 40
19.0
 40
20.0
 40
20.0
 40
20.0
 40
21.0
 40
21.0
 40
21.0
 40
22.0
 40
22.0
 40
22.0
 40
23.0
 40
23.0
 40
23.0
 40
24.0
 40
24.0
 40
24.0
 40
24.0
 10
135.0363742066923
 20
-151.4140136340215
 30
0.0
 10
134.9753960166033
 20
-151.4098795194392
 30
0.0
 10
134.916140374257
 20
-151.4098795194392
 30
0.0
 10
134.8568847319107
 20
-151.4098795194392
 30
0.0
 10
134.8568847319107
 20
-151.4098795194392
 30
0.0
 10
134.8568847319107
 20
-152.1843369845233
 30
0.0
 10
134.8568847319107
 20
-152.1843369845233
 30
0.0
 10
134.8568847319107
 20
-152.448575808242
 30
0.0
 10
134.8548176746196
 20
-152.4782036294152
 30
0.0
 10
134.8493055218432
 20
-152.5078314505883
 30
0.0
 10
134.8196777006701
 20
-152.6411566458675
 30
0.0
 10
134.7307942371506
 20
-152.6494248750321
 30
0.0
 10
134.5771429785085
 20
-152.6494248750321
 30
0.0
 10
134.5420030045589
 20
-152.6494248750321
 30
0.0
 10
134.5271890939723
 20
-152.6494248750321
 30
0.0
 10
134.4920491200228
 20
-152.6452907604498
 30
0.0
 10
134.4920491200228
 20
-152.6452907604498
 30
0.0
 10
134.3828395931404
 20
-152.4041340764823
 30
0.0
 10
134.3828395931404
 20
-152.4041340764823
 30
0.0
 10
134.4844699099552
 20
-152.4358289549466
 30
0.0
 10
134.5568169151455
 20
-152.4358289549466
 30
0.0
 10
134.5771429785085
 20
-152.4358289549466
 30
0.0
 10
134.6381211685974
 20
-152.4358289549466
 30
0.0
 10
134.6677489897705
 20
-152.4189479870689
 30
0.0
 10
134.6715385948043
 20
-152.3617594020137
 30
0.0
 10
134.6715385948043
 20
-152.3490125487183
 30
0.0
 10
134.673261142547
 20
-152.2518608560342
 30
0.0
 10
134.673261142547
 20
-152.1946722709791
 30
0.0
 10
134.673261142547
 20
-152.1946722709791
 30
0.0
 10
134.673261142547
 20
-151.407812462148
 30
0.0
 10
134.673261142547
 20
-151.407812462148
 30
0.0
 10
134.673261142547
 20
-151.407812462148
 30
0.0
 10
134.4159125097988
 20
-151.407812462148
 30
0.0
 10
134.4159125097988
 20
-151.407812462148
 30
0.0
 10
134.288099467296
 20
-151.407812462148
 30
0.0
 10
134.1602864247932
 20
-151.4140136340215
 30
0.0
 10
134.0345404395816
 20
-151.4267604873169
 30
0.0
 10
134.0345404395816
 20
-151.4267604873169
 30
0.0
 10
134.0345404395816
 20
-151.2193657391049
 30
0.0
 10
134.0345404395816
 20
-151.2193657391049
 30
0.0
 10
134.1661430871182
 20
-151.2321125924003
 30
0.0
 10
134.3566568674525
 20
-151.2365912165311
 30
0.0
 10
134.4159125097988
 20
-151.2365912165311
 30
0.0
 10
134.4159125097988
 20
-151.2365912165311
 30
0.0
 10
134.673261142547
 20
-151.2365912165311
 30
0.0
 10
134.673261142547
 20
-151.2365912165311
 30
0.0
 10
134.6715385948043
 20
-150.9678737686816
 30
0.0
 10
134.6715385948043
 20
-150.8917371584576
 30
0.0
 10
134.6639593847368
 20
-150.7435980525919
 30
0.0
 10
134.6639593847368
 20
-150.7435980525919
 30
0.0
 10
134.8899576485692
 20
-150.7814941029296
 30
0.0
 10
134.8899576485692
 20
-150.7814941029296
 30
0.0
 10
134.9030490114131
 20
-150.7835611602208
 30
0.0
 10
134.916140374257
 20
-150.7901068416428
 30
0.0
 10
134.916140374257
 20
-150.8111219241028
 30
0.0
 10
134.916140374257
 20
-150.8304144588201
 30
0.0
 10
134.9102837119321
 20
-150.8324815161113
 30
0.0
 10
134.860329827396
 20
-150.8662434518668
 30
0.0
 10
134.8568847319107
 20
-150.9444471193819
 30
0.0
 10
134.8568847319107
 20
-150.9592610299685
 30
0.0
 10
134.8568847319107
 20
-151.2365912165311
 30
0.0
 10
135.0122585382955
 20
-151.2321125924003
 30
0.0
 10
135.0287949966247
 20
-151.2321125924003
 30
0.0
 10
135.0584228177979
 20
-151.227978477818
 30
0.0
 10
135.1028645495576
 20
-151.2238443632357
 30
0.0
 10
135.1066541545914
 20
-151.2217773059445
 30
0.0
 10
135.1455837335747
 20
-151.2193657391049
 30
0.0
 10
135.1455837335747
 20
-151.2193657391049
 30
0.0
 10
135.1455837335747
 20
-151.4267604873169
 30
0.0
 10
135.1455837335747
 20
-151.4267604873169
 30
0.0
 10
135.1197455174353
 20
-151.4246934300258
 30
0.0
 10
135.0715141806418
 20
-151.4160806913126
 30
0.0
 10
135.0363742066923
 20
-151.4140136340215
 30
0.0
  0
SPLINE
  5
A5
330
7D
100
AcDbEntity
  8
レイヤー 1
100
AcDbSpline
210
0.0
220
0.0
230
1.0
 70
     9
 71
     3
 72
    53
 73
    49
 74
     0
 42
0.0000000001
 43
0.0000000001
 40
0.0
 40
0.0
 40
0.0
 40
0.0
 40
1.0
 40
1.0
 40
1.0
 40
2.0
 40
2.0
 40
2.0
 40
3.0
 40
3.0
 40
3.0
 40
4.0
 40
4.0
 40
4.0
 40
5.0
 40
5.0
 40
5.0
 40
6.0
 40
6.0
 40
6.0
 40
7.0
 40
7.0
 40
7.0
 40
8.0
 40
8.0
 40
8.0
 40
9.0
 40
9.0
 40
9.0
 40
10.0
 40
10.0
 40
10.0
 40
11.0
 40
11.0
 40
11.0
 40
12.0
 40
12.0
 40
12.0
 40
13.0
 40
13.0
 40
13.0
 40
14.0
 40
14.0
 40
14.0
 40
15.0
 40
15.0
 40
15.0
 40
16.0
 40
16.0
 40
16.0
 40
16.0
 10
134.0290282868052
 20
-150.9148192982088
 30
0.0
 10
133.9697726444589
 20
-151.0670925186568
 30
0.0
 10
133.9325656132182
 20
-151.145296186172
 30
0.0
 10
133.8994926965598
 20
-151.2131645672314
 30
0.0
 10
133.936355218252
 20
-151.2341796496914
 30
0.0
 10
133.9401448232858
 20
-151.2365912165311
 30
0.0
 10
133.9401448232858
 20
-151.2514051271177
 30
0.0
 10
133.9401448232858
 20
-151.2638074708646
 30
0.0
 10
133.9105170021126
 20
-151.2979139161686
 30
0.0
 10
133.9012152443024
 20
-151.3061821453332
 30
0.0
 10
133.8994926965598
 20
-151.5028970975409
 30
0.0
 10
133.8994926965598
 20
-151.5242566895495
 30
0.0
 10
133.8994926965598
 20
-151.6575818848286
 30
0.0
 10
133.8974256392687
 20
-151.6699842285756
 30
0.0
 10
133.8974256392687
 20
-151.6847981391621
 30
0.0
 10
133.8974256392687
 20
-151.6996120497487
 30
0.0
 10
133.8974256392687
 20
-151.6996120497487
 30
0.0
 10
133.8974256392687
 20
-152.2349798881565
 30
0.0
 10
133.8974256392687
 20
-152.2349798881565
 30
0.0
 10
133.8974256392687
 20
-152.3069823837982
 30
0.0
 10
133.9012152443024
 20
-152.5415933863438
 30
0.0
 10
133.90879445437
 20
-152.6518364418718
 30
0.0
 10
133.90879445437
 20
-152.6518364418718
 30
0.0
 10
133.695543043833
 20
-152.6518364418718
 30
0.0
 10
133.695543043833
 20
-152.6518364418718
 30
0.0
 10
133.715869107196
 20
-152.4930175400017
 30
0.0
 10
133.7217257695209
 20
-152.2518608560342
 30
0.0
 10
133.7217257695209
 20
-152.2308457735742
 30
0.0
 10
133.7217257695209
 20
-152.2308457735742
 30
0.0
 10
133.7217257695209
 20
-151.5135768935452
 30
0.0
 10
133.7217257695209
 20
-151.5135768935452
 30
0.0
 10
133.6421440638117
 20
-151.6279540636555
 30
0.0
 10
133.5884005742418
 20
-151.6868651964533
 30
0.0
 10
133.5511935430011
 20
-151.7292398709219
 30
0.0
 10
133.5511935430011
 20
-151.7292398709219
 30
0.0
 10
133.384450921515
 20
-151.5917805610604
 30
0.0
 10
133.384450921515
 20
-151.5917805610604
 30
0.0
 10
133.6307752487103
 20
-151.3761175836837
 30
0.0
 10
133.799240417939
 20
-151.0670925186568
 30
0.0
 10
133.8974256392687
 20
-150.7308511992965
 30
0.0
 10
133.8974256392687
 20
-150.7308511992965
 30
0.0
 10
134.0900064768941
 20
-150.8452283694067
 30
0.0
 10
134.0900064768941
 20
-150.8452283694067
 30
0.0
 10
134.1010307824469
 20
-150.8514295412802
 30
0.0
 10
134.1086099925145
 20
-150.8555636558625
 30
0.0
 10
134.1086099925145
 20
-150.8703775664491
 30
0.0
 10
134.1086099925145
 20
-150.8958712730399
 30
0.0
 10
134.0937960819279
 20
-150.9000053876222
 30
0.0
 10
134.0290282868052
 20
-150.9148192982088
 30
0.0
  0
HATCH
  5
A6
330
7D
100
AcDbEntity
  8
レイヤー 1
 62
   250
420
  2299925
440
 33554687
100
AcDbHatch
 10
0.0
 20
0.0
 30
0.0
210
0.0
220
0.0
230
1.0
  2
SOLID
 70
     1
 71
     1
 91
        3
 92
        1
 93
        1
 72
     4
 94
        3
 73
     0
 74
     0
 95
       20
 96
       16
 40
0.0
 40
0.0
 40
0.0
 40
0.0
 40
1.0
 40
1.0
 40
1.0
 40
2.0
 40
2.0
 40
2.0
 40
3.0
 40
3.0
 40
3.0
 40
4.0
 40
4.0
 40
4.0
 40
5.0
 40
5.0
 40
5.0
 40
5.0
 10
134.3621690202289
 20
-152.1398952527636
 10
134.321516893503
 20
-151.9621283257247
 10
134.2364230350173
 20
-151.8201903917324
 10
134.1141221452909
 20
-151.7102918457529
 10
134.1141221452909
 20
-151.7102918457529
 10
134.2550265506376
 20
-151.5959146756427
 10
134.2550265506376
 20
-151.5959146756427
 10
134.308425530659
 20
-151.6382893501113
 10
134.3439100141571
 20
-151.6720512858667
 10
134.4104003570224
 20
-151.7802272841036
 10
134.4806803049215
 20
-151.8963270019565
 10
134.4992838205418
 20
-151.9493814724293
 10
134.521676941196
 20
-152.0148382866491
 10
134.521676941196
 20
-152.0148382866491
 10
134.3621690202289
 20
-152.1398952527636
 10
134.3621690202289
 20
-152.1398952527636
 97
        0
 97
        1
330
A3
 92
        1
 93
        1
 72
     4
 94
        3
 73
     0
 74
     0
 95
       77
 96
       73
 40
0.0
 40
0.0
 40
0.0
 40
0.0
 40
1.0
 40
1.0
 40
1.0
 40
2.0
 40
2.0
 40
2.0
 40
3.0
 40
3.0
 40
3.0
 40
4.0
 40
4.0
 40
4.0
 40
5.0
 40
5.0
 40
5.0
 40
6.0
 40
6.0
 40
6.0
 40
7.0
 40
7.0
 40
7.0
 40
8.0
 40
8.0
 40
8.0
 40
9.0
 40
9.0
 40
9.0
 40
10.0
 40
10.0
 40
10.0
 40
11.0
 40
11.0
 40
11.0
 40
12.0
 40
12.0
 40
12.0
 40
13.0
 40
13.0
 40
13.0
 40
14.0
 40
14.0
 40
14.0
 40
15.0
 40
15.0
 40
15.0
 40
16.0
 40
16.0
 40
16.0
 40
17.0
 40
17.0
 40
17.0
 40
18.0
 40
18.0
 40
18.0
 40
19.0
 40
19.0
 40
19.0
 40
20.0
 40
20.0
 40
20.0
 40
21.0
 40
21.0
 40
21.0
 40
22.0
 40
22.0
 40
22.0
 40
23.0
 40
23.0
 40
23.0
 40
24.0
 40
24.0
 40
24.0
 40
24.0
 10
135.0363742066923
 20
-151.4140136340215
 10
134.9753960166033
 20
-151.4098795194392
 10
134.916140374257
 20
-151.4098795194392
 10
134.8568847319107
 20
-151.4098795194392
 10
134.8568847319107
 20
-151.4098795194392
 10
134.8568847319107
 20
-152.1843369845233
 10
134.8568847319107
 20
-152.1843369845233
 10
134.8568847319107
 20
-152.448575808242
 10
134.8548176746196
 20
-152.4782036294152
 10
134.8493055218432
 20
-152.5078314505883
 10
134.8196777006701
 20
-152.6411566458675
 10
134.7307942371506
 20
-152.6494248750321
 10
134.5771429785085
 20
-152.6494248750321
 10
134.5420030045589
 20
-152.6494248750321
 10
134.5271890939723
 20
-152.6494248750321
 10
134.4920491200228
 20
-152.6452907604498
 10
134.4920491200228
 20
-152.6452907604498
 10
134.3828395931404
 20
-152.4041340764823
 10
134.3828395931404
 20
-152.4041340764823
 10
134.4844699099552
 20
-152.4358289549466
 10
134.5568169151455
 20
-152.4358289549466
 10
134.5771429785085
 20
-152.4358289549466
 10
134.6381211685974
 20
-152.4358289549466
 10
134.6677489897705
 20
-152.4189479870689
 10
134.6715385948043
 20
-152.3617594020137
 10
134.6715385948043
 20
-152.3490125487183
 10
134.673261142547
 20
-152.2518608560342
 10
134.673261142547
 20
-152.1946722709791
 10
134.673261142547
 20
-152.1946722709791
 10
134.673261142547
 20
-151.407812462148
 10
134.673261142547
 20
-151.407812462148
 10
134.673261142547
 20
-151.407812462148
 10
134.4159125097988
 20
-151.407812462148
 10
134.4159125097988
 20
-151.407812462148
 10
134.288099467296
 20
-151.407812462148
 10
134.1602864247932
 20
-151.4140136340215
 10
134.0345404395816
 20
-151.4267604873169
 10
134.0345404395816
 20
-151.4267604873169
 10
134.0345404395816
 20
-151.2193657391049
 10
134.0345404395816
 20
-151.2193657391049
 10
134.1661430871182
 20
-151.2321125924003
 10
134.3566568674525
 20
-151.2365912165311
 10
134.4159125097988
 20
-151.2365912165311
 10
134.4159125097988
 20
-151.2365912165311
 10
134.673261142547
 20
-151.2365912165311
 10
134.673261142547
 20
-151.2365912165311
 10
134.6715385948043
 20
-150.9678737686816
 10
134.6715385948043
 20
-150.8917371584576
 10
134.6639593847368
 20
-150.7435980525919
 10
134.6639593847368
 20
-150.7435980525919
 10
134.8899576485692
 20
-150.7814941029296
 10
134.8899576485692
 20
-150.7814941029296
 10
134.9030490114131
 20
-150.7835611602208
 10
134.916140374257
 20
-150.7901068416428
 10
134.916140374257
 20
-150.8111219241028
 10
134.916140374257
 20
-150.8304144588201
 10
134.9102837119321
 20
-150.8324815161113
 10
134.860329827396
 20
-150.8662434518668
 10
134.8568847319107
 20
-150.9444471193819
 10
134.8568847319107
 20
-150.9592610299685
 10
134.8568847319107
 20
-151.2365912165311
 10
135.0122585382955
 20
-151.2321125924003
 10
135.0287949966247
 20
-151.2321125924003
 10
135.0584228177979
 20
-151.227978477818
 10
135.1028645495576
 20
-151.2238443632357
 10
135.1066541545914
 20
-151.2217773059445
 10
135.1455837335747
 20
-151.2193657391049
 10
135.1455837335747
 20
-151.2193657391049
 10
135.1455837335747
 20
-151.4267604873169
 10
135.1455837335747
 20
-151.4267604873169
 10
135.1197455174353
 20
-151.4246934300258
 10
135.0715141806418
 20
-151.4160806913126
 10
135.0363742066923
 20
-151.4140136340215
 97
        0
 97
        1
330
A4
 92
        1
 93
        1
 72
     4
 94
        3
 73
     0
 74
     0
 95
       53
 96
       49
 40
0.0
 40
0.0
 40
0.0
 40
0.0
 40
1.0
 40
1.0
 40
1.0
 40
2.0
 40
2.0
 40
2.0
 40
3.0
 40
3.0
 40
3.0
 40
4.0
 40
4.0
 40
4.0
 40
5.0
 40
5.0
 40
5.0
 40
6.0
 40
6.0
 40
6.0
 40
7.0
 40
7.0
 40
7.0
 40
8.0
 40
8.0
 40
8.0
 40
9.0
 40
9.0
 40
9.0
 40
10.0
 40
10.0
 40
10.0
 40
11.0
 40
11.0
 40
11.0
 40
12.0
 40
12.0
 40
12.0
 40
13.0
 40
13.0
 40
13.0
 40
14.0
 40
14.0
 40
14.0
 40
15.0
 40
15.0
 40
15.0
 40
16.0
 40
16.0
 40
16.0
 40
16.0
 10
134.0290282868052
 20
-150.9148192982088
 10
133.9697726444589
 20
-151.0670925186568
 10
133.9325656132182
 20
-151.145296186172
 10
133.8994926965598
 20
-151.2131645672314
 10
133.936355218252
 20
-151.2341796496914
 10
133.9401448232858
 20
-151.2365912165311
 10
133.9401448232858
 20
-151.2514051271177
 10
133.9401448232858
 20
-151.2638074708646
 10
133.9105170021126
 20
-151.2979139161686
 10
133.9012152443024
 20
-151.3061821453332
 10
133.8994926965598
 20
-151.5028970975409
 10
133.8994926965598
 20
-151.5242566895495
 10
133.8994926965598
 20
-151.6575818848286
 10
133.8974256392687
 20
-151.6699842285756
 10
133.8974256392687
 20
-151.6847981391621
 10
133.8974256392687
 20
-151.6996120497487
 10
133.8974256392687
 20
-151.6996120497487
 10
133.8974256392687
 20
-152.2349798881565
 10
133.8974256392687
 20
-152.2349798881565
 10
133.8974256392687
 20
-152.3069823837982
 10
133.9012152443024
 20
-152.5415933863438
 10
133.90879445437
 20
-152.6518364418718
 10
133.90879445437
 20
-152.6518364418718
 10
133.695543043833
 20
-152.6518364418718
 10
133.695543043833
 20
-152.6518364418718
 10
133.715869107196
 20
-152.4930175400017
 10
133.7217257695209
 20
-152.2518608560342
 10
133.7217257695209
 20
-152.2308457735742
 10
133.7217257695209
 20
-152.2308457735742
 10
133.7217257695209
 20
-151.5135768935452
 10
133.7217257695209
 20
-151.5135768935452
 10
133.6421440638117
 20
-151.6279540636555
 10
133.5884005742418
 20
-151.6868651964533
 10
133.5511935430011
 20
-151.7292398709219
 10
133.5511935430011
 20
-151.7292398709219
 10
133.384450921515
 20
-151.5917805610604
 10
133.384450921515
 20
-151.5917805610604
 10
133.6307752487103
 20
-151.3761175836837
 10
133.799240417939
 20
-151.0670925186568
 10
133.8974256392687
 20
-150.7308511992965
 10
133.8974256392687
 20
-150.7308511992965
 10
134.0900064768941
 20
-150.8452283694067
 10
134.0900064768941
 20
-150.8452283694067
 10
134.1010307824469
 20
-150.8514295412802
 10
134.1086099925145
 20
-150.8555636558625
 10
134.1086099925145
 20
-150.8703775664491
 10
134.1086099925145
 20
-150.8958712730399
 10
134.0937960819279
 20
-150.9000053876222
 10
134.0290282868052
 20
-150.9148192982088
 97
        0
 97
        1
330
A5
 75
     2
 76
     1
 98
        1
 10
0.0
 20
0.0
450
        0
451
        0
460
0.0
461
0.0
452
        0
462
0.0
453
        0
470

  0
ENDBLK
  5
80
330
7D
100
AcDbEntity
  8
0
100
AcDbBlockEnd
  0
BLOCK
  5
113
330
111
100
AcDbEntity
  8
0
100
AcDbBlockBegin
  2
Block_2
 70
     0
 10
0.0
 20
0.0
 30
0.0
  3
Block_2
  1

  0
INSERT
  5
116
330
111
100
AcDbEntity
  8
レイヤー 1
100
AcDbBlockReference
  2
Block_3
 10
0.0
 20
0.0
 30
0.0
  0
ENDBLK
  5
114
330
111
100
AcDbEntity
  8
0
100
AcDbBlockEnd
  0
BLOCK
  5
117
330
115
100
AcDbEntity
  8
0
100
AcDbBlockBegin
  2
Block_3
 70
     0
 10
0.0
 20
0.0
 30
0.0
  3
Block_3
  1

  0
SPLINE
  5
119
330
115
100
AcDbEntity
  8
レイヤー 1
100
AcDbSpline
210
0.0
220
0.0
230
1.0
 70
     9
 71
     3
 72
    17
 73
    13
 74
     0
 42
0.0000000001
 43
0.0000000001
 40
0.0
 40
0.0
 40
0.0
 40
0.0
 40
1.0
 40
1.0
 40
1.0
 40
2.0
 40
2.0
 40
2.0
 40
3.0
 40
3.0
 40
3.0
 40
4.0
 40
4.0
 40
4.0
 40
4.0
 10
73.83184134438926
 20
-146.812916358696
 30
0.0
 10
73.83184134438926
 20
-147.0626857813767
 30
0.0
 10
74.11520044805107
 20
-147.1091945704275
 30
0.0
 10
74.46005450612457
 20
-147.1091945704275
 30
0.0
 10
74.77958711238149
 20
-147.1091945704275
 30
0.0
 10
75.08843992263414
 20
-147.0730210678324
 30
0.0
 10
75.08843992263414
 20
-146.812916358696
 30
0.0
 10
75.08843992263414
 20
-146.5652139933066
 30
0.0
 10
74.80697562148923
 20
-146.5166381469646
 30
0.0
 10
74.46005450612457
 20
-146.5166381469646
 30
0.0
 10
74.1406941546419
 20
-146.5166381469646
 30
0.0
 10
73.83184134438926
 20
-146.5548787068508
 30
0.0
 10
73.83184134438926
 20
-146.812916358696
 30
0.0
  0
SPLINE
  5
11A
330
115
100
AcDbEntity
  8
レイヤー 1
100
AcDbSpline
210
0.0
220
0.0
230
1.0
 70
     9
 71
     3
 72
    29
 73
    25
 74
     0
 42
0.0000000001
 43
0.0000000001
 40
0.0
 40
0.0
 40
0.0
 40
0.0
 40
1.0
 40
1.0
 40
1.0
 40
2.0
 40
2.0
 40
2.0
 40
3.0
 40
3.0
 40
3.0
 40
4.0
 40
4.0
 40
4.0
 40
5.0
 40
5.0
 40
5.0
 40
6.0
 40
6.0
 40
6.0
 40
7.0
 40
7.0
 40
7.0
 40
8.0
 40
8.0
 40
8.0
 40
8.0
 10
75.05450573210443
 20
-146.4150078301497
 30
0.0
 10
75.26396753760763
 20
-146.5231838283866
 30
0.0
 10
75.28308781755076
 20
-146.6964721312946
 30
0.0
 10
75.28308781755076
 20
-146.812916358696
 30
0.0
 10
75.28308781755076
 20
-146.9738023178572
 30
0.0
 10
75.23657902849989
 20
-147.115395742301
 30
0.0
 10
75.05450573210443
 20
-147.2104803776939
 30
0.0
 10
74.86003009196207
 20
-147.3141777517999
 30
0.0
 10
74.62300752257688
 20
-147.3334702865173
 30
0.0
 10
74.46005450612457
 20
-147.3334702865173
 30
0.0
 10
74.31622176961539
 20
-147.3334702865173
 30
0.0
 10
74.0645575444179
 20
-147.316244809091
 30
0.0
 10
73.86560328014471
 20
-147.2104803776939
 30
0.0
 10
73.66251490128924
 20
-147.1026488890056
 30
0.0
 10
73.6392605067638
 20
-146.9417629298444
 30
0.0
 10
73.6392605067638
 20
-146.812916358696
 30
0.0
 10
73.6392605067638
 20
-146.654097456826
 30
0.0
 10
73.68370223852352
 20
-146.5104369750911
 30
0.0
 10
73.86560328014471
 20
-146.4150078301497
 30
0.0
 10
74.05818411777018
 20
-146.3157890801745
 30
0.0
 10
74.28659394844224
 20
-146.2923624308748
 30
0.0
 10
74.46005450612457
 20
-146.2923624308748
 30
0.0
 10
74.63144800651575
 20
-146.2923624308748
 30
0.0
 10
74.86209714925323
 20
-146.3137220228833
 30
0.0
 10
75.05450573210443
 20
-146.4150078301497
 30
0.0
  0
HATCH
  5
11B
330
115
100
AcDbEntity
  8
レイヤー 1
 62
    18
420
        0
440
 33554687
100
AcDbHatch
 10
0.0
 20
0.0
 30
0.0
210
0.0
220
0.0
230
1.0
  2
SOLID
 70
     1
 71
     1
 91
        2
 92
        1
 93
        1
 72
     4
 94
        3
 73
     0
 74
     0
 95
       17
 96
       13
 40
0.0
 40
0.0
 40
0.0
 40
0.0
 40
1.0
 40
1.0
 40
1.0
 40
2.0
 40
2.0
 40
2.0
 40
3.0
 40
3.0
 40
3.0
 40
4.0
 40
4.0
 40
4.0
 40
4.0
 10
73.83184134438926
 20
-146.812916358696
 10
73.83184134438926
 20
-147.0626857813767
 10
74.11520044805107
 20
-147.1091945704275
 10
74.46005450612457
 20
-147.1091945704275
 10
74.77958711238149
 20
-147.1091945704275
 10
75.08843992263414
 20
-147.0730210678324
 10
75.08843992263414
 20
-146.812916358696
 10
75.08843992263414
 20
-146.5652139933066
 10
74.80697562148923
 20
-146.5166381469646
 10
74.46005450612457
 20
-146.5166381469646
 10
74.1406941546419
 20
-146.5166381469646
 10
73.83184134438926
 20
-146.5548787068508
 10
73.83184134438926
 20
-146.812916358696
 97
        0
 97
        1
330
119
 92
        1
 93
        1
 72
     4
 94
        3
 73
     0
 74
     0
 95
       29
 96
       25
 40
0.0
 40
0.0
 40
0.0
 40
0.0
 40
1.0
 40
1.0
 40
1.0
 40
2.0
 40
2.0
 40
2.0
 40
3.0
 40
3.0
 40
3.0
 40
4.0
 40
4.0
 40
4.0
 40
5.0
 40
5.0
 40
5.0
 40
6.0
 40
6.0
 40
6.0
 40
7.0
 40
7.0
 40
7.0
 40
8.0
 40
8.0
 40
8.0
 40
8.0
 10
75.05450573210443
 20
-146.4150078301497
 10
75.26396753760763
 20
-146.5231838283866
 10
75.28308781755076
 20
-146.6964721312946
 10
75.28308781755076
 20
-146.812916358696
 10
75.28308781755076
 20
-146.9738023178572
 10
75.23657902849989
 20
-147.115395742301
 10
75.05450573210443
 20
-147.2104803776939
 10
74.86003009196207
 20
-147.3141777517999
 10
74.62300752257688
 20
-147.3334702865173
 10
74.46005450612457
 20
-147.3334702865173
 10
74.31622176961539
 20
-147.3334702865173
 10
74.0645575444179
 20
-147.316244809091
 10
73.86560328014471
 20
-147.2104803776939
 10
73.66251490128924
 20
-147.1026488890056
 10
73.6392605067638
 20
-146.9417629298444
 10
73.6392605067638
 20
-146.812916358696
 10
73.6392605067638
 20
-146.654097456826
 10
73.68370223852352
 20
-146.5104369750911
 10
73.86560328014471
 20
-146.4150078301497
 10
74.05818411777018
 20
-146.3157890801745
 10
74.28659394844224
 20
-146.2923624308748
 10
74.46005450612457
 20
-146.2923624308748
 10
74.63144800651575
 20
-146.2923624308748
 10
74.86209714925323
 20
-146.3137220228833
 10
75.05450573210443
 20
-146.4150078301497
 97
        0
 97
        1
330
11A
 75
     2
 76
     1
 98
        1
 10
0.0
 20
0.0
450
        0
451
        0
460
0.0
461
0.0
452
        0
462
0.0
453
        0
470

  0
SPLINE
  5
11C
330
115
100
AcDbEntity
  8
レイヤー 1
100
AcDbSpline
210
0.0
220
0.0
230
1.0
 70
    11
 71
     3
 72
    17
 73
    13
 74
     0
 42
0.0000000001
 43
0.0000000001
 40
0.0
 40
0.0
 40
0.0
 40
0.0
 40
1.0
 40
1.0
 40
1.0
 40
2.0
 40
2.0
 40
2.0
 40
3.0
 40
3.0
 40
3.0
 40
4.0
 40
4.0
 40
4.0
 40
4.0
 10
75.23227265914332
 20
-146.0760104344011
 30
0.0
 10
75.23227265914332
 20
-146.0760104344011
 30
0.0
 10
74.98060843394582
 20
-146.0760104344011
 30
0.0
 10
74.98060843394582
 20
-146.0760104344011
 30
0.0
 10
74.98060843394582
 20
-146.0760104344011
 30
0.0
 10
74.98060843394582
 20
-145.8241739544293
 30
0.0
 10
74.98060843394582
 20
-145.8241739544293
 30
0.0
 10
74.98060843394582
 20
-145.8241739544293
 30
0.0
 10
75.23227265914332
 20
-145.8241739544293
 30
0.0
 10
75.23227265914332
 20
-145.8241739544293
 30
0.0
 10
75.23227265914332
 20
-145.8241739544293
 30
0.0
 10
75.23227265914332
 20
-146.0760104344011
 30
0.0
 10
75.23227265914332
 20
-146.0760104344011
 30
0.0
  0
HATCH
  5
11D
330
115
100
AcDbEntity
  8
レイヤー 1
 62
    18
420
        0
440
 33554687
100
AcDbHatch
 10
0.0
 20
0.0
 30
0.0
210
0.0
220
0.0
230
1.0
  2
SOLID
 70
     1
 71
     1
 91
        1
 92
        1
 93
        1
 72
     4
 94
        3
 73
     0
 74
     0
 95
       17
 96
       13
 40
0.0
 40
0.0
 40
0.0
 40
0.0
 40
1.0
 40
1.0
 40
1.0
 40
2.0
 40
2.0
 40
2.0
 40
3.0
 40
3.0
 40
3.0
 40
4.0
 40
4.0
 40
4.0
 40
4.0
 10
75.23227265914332
 20
-146.0760104344011
 10
75.23227265914332
 20
-146.0760104344011
 10
74.98060843394582
 20
-146.0760104344011
 10
74.98060843394582
 20
-146.0760104344011
 10
74.98060843394582
 20
-146.0760104344011
 10
74.98060843394582
 20
-145.8241739544293
 10
74.98060843394582
 20
-145.8241739544293
 10
74.98060843394582
 20
-145.8241739544293
 10
75.23227265914332
 20
-145.8241739544293
 10
75.23227265914332
 20
-145.8241739544293
 10
75.23227265914332
 20
-145.8241739544293
 10
75.23227265914332
 20
-146.0760104344011
 10
75.23227265914332
 20
-146.0760104344011
 97
        0
 97
        1
330
11C
 75
     2
 76
     1
 98
        1
 10
0.0
 20
0.0
450
        0
451
        0
460
0.0
461
0.0
452
        0
462
0.0
453
        0
470

  0
SPLINE
  5
11E
330
115
100
AcDbEntity
  8
レイヤー 1
100
AcDbSpline
210
0.0
220
0.0
230
1.0
 70
     9
 71
     3
 72
    53
 73
    49
 74
     0
 42
0.0000000001
 43
0.0000000001
 40
0.0
 40
0.0
 40
0.0
 40
0.0
 40
1.0
 40
1.0
 40
1.0
 40
2.0
 40
2.0
 40
2.0
 40
3.0
 40
3.0
 40
3.0
 40
4.0
 40
4.0
 40
4.0
 40
5.0
 40
5.0
 40
5.0
 40
6.0
 40
6.0
 40
6.0
 40
7.0
 40
7.0
 40
7.0
 40
8.0
 40
8.0
 40
8.0
 40
9.0
 40
9.0
 40
9.0
 40
10.0
 40
10.0
 40
10.0
 40
11.0
 40
11.0
 40
11.0
 40
12.0
 40
12.0
 40
12.0
 40
13.0
 40
13.0
 40
13.0
 40
14.0
 40
14.0
 40
14.0
 40
15.0
 40
15.0
 40
15.0
 40
16.0
 40
16.0
 40
16.0
 40
16.0
 10
75.28308781755076
 20
-145.1069050744004
 30
0.0
 10
75.28308781755076
 20
-145.1851087419155
 30
0.0
 10
75.26620684967304
 20
-145.2867390587304
 30
0.0
 10
75.20264483797017
 20
-145.3883693755452
 30
0.0
 10
75.09257403721644
 20
-145.5616576784533
 30
0.0
 10
74.96148815400268
 20
-145.5830172704619
 30
0.0
 10
74.85365666531436
 20
-145.6019652956308
 30
0.0
 10
74.85365666531436
 20
-145.6019652956308
 30
0.0
 10
74.85365666531436
 20
-145.3797566368321
 30
0.0
 10
74.85365666531436
 20
-145.3797566368321
 30
0.0
 10
75.05243867481329
 20
-145.3249796186167
 30
0.0
 10
75.08206649598642
 20
-145.1978555952109
 30
0.0
 10
75.08206649598642
 20
-145.1048380171092
 30
0.0
 10
75.08206649598642
 20
-144.9653116499566
 30
0.0
 10
74.98267549123697
 20
-144.8130384295085
 30
0.0
 10
74.74995929120834
 20
-144.8130384295085
 30
0.0
 10
74.49398869665428
 20
-144.8130384295085
 30
0.0
 10
74.42422551307797
 20
-144.9928724138386
 30
0.0
 10
74.42422551307797
 20
-145.1134507558223
 30
0.0
 10
74.42422551307797
 20
-145.1451456342866
 30
0.0
 10
74.42422551307797
 20
-145.2867390587304
 30
0.0
 10
74.55324433900059
 20
-145.3756225222498
 30
0.0
 10
74.55324433900059
 20
-145.3756225222498
 30
0.0
 10
74.53412405905744
 20
-145.5513223919976
 30
0.0
 10
74.53412405905744
 20
-145.5513223919976
 30
0.0
 10
74.53412405905744
 20
-145.5513223919976
 30
0.0
 10
73.68800860788008
 20
-145.4307440500138
 30
0.0
 10
73.68800860788008
 20
-145.4307440500138
 30
0.0
 10
73.68800860788008
 20
-145.4307440500138
 30
0.0
 10
73.68800860788008
 20
-144.6521524703473
 30
0.0
 10
73.68800860788008
 20
-144.6521524703473
 30
0.0
 10
73.68800860788008
 20
-144.6521524703473
 30
0.0
 10
73.8826565027967
 20
-144.6521524703473
 30
0.0
 10
73.8826565027967
 20
-144.6521524703473
 30
0.0
 10
73.8826565027967
 20
-144.6521524703473
 30
0.0
 10
73.8826565027967
 20
-145.2677910335615
 30
0.0
 10
73.8826565027967
 20
-145.2677910335615
 30
0.0
 10
73.8826565027967
 20
-145.2677910335615
 30
0.0
 10
74.30571422838538
 20
-145.3332478477812
 30
0.0
 10
74.30571422838538
 20
-145.3332478477812
 30
0.0
 10
74.27178003785567
 20
-145.2719251481438
 30
0.0
 10
74.23164467545252
 20
-145.1895873660463
 30
0.0
 10
74.23164467545252
 20
-145.0710760813537
 30
0.0
 10
74.23164467545252
 20
-144.8171725440908
 30
0.0
 10
74.41785208643025
 20
-144.5801499747056
 30
0.0
 10
74.7308390112652
 20
-144.5801499747056
 30
0.0
 10
75.04830456023099
 20
-144.5801499747056
 30
0.0
 10
75.28308781755076
 20
-144.8044256907954
 30
0.0
 10
75.28308781755076
 20
-145.1069050744004
 30
0.0
  0
HATCH
  5
11F
330
115
100
AcDbEntity
  8
レイヤー 1
 62
    18
420
        0
440
 33554687
100
AcDbHatch
 10
0.0
 20
0.0
 30
0.0
210
0.0
220
0.0
230
1.0
  2
SOLID
 70
     1
 71
     1
 91
        1
 92
        1
 93
        1
 72
     4
 94
        3
 73
     0
 74
     0
 95
       53
 96
       49
 40
0.0
 40
0.0
 40
0.0
 40
0.0
 40
1.0
 40
1.0
 40
1.0
 40
2.0
 40
2.0
 40
2.0
 40
3.0
 40
3.0
 40
3.0
 40
4.0
 40
4.0
 40
4.0
 40
5.0
 40
5.0
 40
5.0
 40
6.0
 40
6.0
 40
6.0
 40
7.0
 40
7.0
 40
7.0
 40
8.0
 40
8.0
 40
8.0
 40
9.0
 40
9.0
 40
9.0
 40
10.0
 40
10.0
 40
10.0
 40
11.0
 40
11.0
 40
11.0
 40
12.0
 40
12.0
 40
12.0
 40
13.0
 40
13.0
 40
13.0
 40
14.0
 40
14.0
 40
14.0
 40
15.0
 40
15.0
 40
15.0
 40
16.0
 40
16.0
 40
16.0
 40
16.0
 10
75.28308781755076
 20
-145.1069050744004
 10
75.28308781755076
 20
-145.1851087419155
 10
75.26620684967304
 20
-145.2867390587304
 10
75.20264483797017
 20
-145.3883693755452
 10
75.09257403721644
 20
-145.5616576784533
 10
74.96148815400268
 20
-145.5830172704619
 10
74.85365666531436
 20
-145.6019652956308
 10
74.85365666531436
 20
-145.6019652956308
 10
74.85365666531436
 20
-145.3797566368321
 10
74.85365666531436
 20
-145.3797566368321
 10
75.05243867481329
 20
-145.3249796186167
 10
75.08206649598642
 20
-145.1978555952109
 10
75.08206649598642
 20
-145.1048380171092
 10
75.08206649598642
 20
-144.9653116499566
 10
74.98267549123697
 20
-144.8130384295085
 10
74.74995929120834
 20
-144.8130384295085
 10
74.49398869665428
 20
-144.8130384295085
 10
74.42422551307797
 20
-144.9928724138386
 10
74.42422551307797
 20
-145.1134507558223
 10
74.42422551307797
 20
-145.1451456342866
 10
74.42422551307797
 20
-145.2867390587304
 10
74.55324433900059
 20
-145.3756225222498
 10
74.55324433900059
 20
-145.3756225222498
 10
74.53412405905744
 20
-145.5513223919976
 10
74.53412405905744
 20
-145.5513223919976
 10
74.53412405905744
 20
-145.5513223919976
 10
73.68800860788008
 20
-145.4307440500138
 10
73.68800860788008
 20
-145.4307440500138
 10
73.68800860788008
 20
-145.4307440500138
 10
73.68800860788008
 20
-144.6521524703473
 10
73.68800860788008
 20
-144.6521524703473
 10
73.68800860788008
 20
-144.6521524703473
 10
73.8826565027967
 20
-144.6521524703473
 10
73.8826565027967
 20
-144.6521524703473
 10
73.8826565027967
 20
-144.6521524703473
 10
73.8826565027967
 20
-145.2677910335615
 10
73.8826565027967
 20
-145.2677910335615
 10
73.8826565027967
 20
-145.2677910335615
 10
74.30571422838538
 20
-145.3332478477812
 10
74.30571422838538
 20
-145.3332478477812
 10
74.27178003785567
 20
-145.2719251481438
 10
74.23164467545252
 20
-145.1895873660463
 10
74.23164467545252
 20
-145.0710760813537
 10
74.23164467545252
 20
-144.8171725440908
 10
74.41785208643025
 20
-144.5801499747056
 10
74.7308390112652
 20
-144.5801499747056
 10
75.04830456023099
 20
-144.5801499747056
 10
75.28308781755076
 20
-144.8044256907954
 10
75.28308781755076
 20
-145.1069050744004
 97
        0
 97
        1
330
11E
 75
     2
 76
     1
 98
        1
 10
0.0
 20
0.0
450
        0
451
        0
460
0.0
461
0.0
452
        0
462
0.0
453
        0
470

  0
ENDBLK
  5
118
330
115
100
AcDbEntity
  8
0
100
AcDbBlockEnd
  0
BLOCK
  5
124
330
122
100
AcDbEntity
  8
0
100
AcDbBlockBegin
  2
Block_4
 70
     0
 10
0.0
 20
0.0
 30
0.0
  3
Block_4
  1

  0
INSERT
  5
127
330
122
100
AcDbEntity
  8
レイヤー 1
100
AcDbBlockReference
  2
Block_5
 10
0.0
 20
0.0
 30
0.0
  0
ENDBLK
  5
125
330
122
100
AcDbEntity
  8
0
100
AcDbBlockEnd
  0
BLOCK
  5
128
330
126
100
AcDbEntity
  8
0
100
AcDbBlockBegin
  2
Block_5
 70
     0
 10
0.0
 20
0.0
 30
0.0
  3
Block_5
  1

  0
SPLINE
  5
12A
330
126
100
AcDbEntity
  8
レイヤー 1
100
AcDbSpline
210
0.0
220
0.0
230
1.0
 70
     9
 71
     3
 72
    44
 73
    40
 74
     0
 42
0.0000000001
 43
0.0000000001
 40
0.0
 40
0.0
 40
0.0
 40
0.0
 40
1.0
 40
1.0
 40
1.0
 40
2.0
 40
2.0
 40
2.0
 40
3.0
 40
3.0
 40
3.0
 40
4.0
 40
4.0
 40
4.0
 40
5.0
 40
5.0
 40
5.0
 40
6.0
 40
6.0
 40
6.0
 40
7.0
 40
7.0
 40
7.0
 40
8.0
 40
8.0
 40
8.0
 40
9.0
 40
9.0
 40
9.0
 40
10.0
 40
10.0
 40
10.0
 40
11.0
 40
11.0
 40
11.0
 40
12.0
 40
12.0
 40
12.0
 40
13.0
 40
13.0
 40
13.0
 40
13.0
 10
90.60549449774795
 20
-139.600264450777
 30
0.0
 10
90.3875922083059
 20
-139.7589110978728
 30
0.0
 10
90.29440237542988
 20
-139.8329806508056
 30
0.0
 10
90.24582652908785
 20
-139.9768133873148
 30
0.0
 10
90.24582652908785
 20
-139.9768133873148
 30
0.0
 10
91.02424585398004
 20
-139.9768133873148
 30
0.0
 10
91.02424585398004
 20
-139.9768133873148
 30
0.0
 10
91.02424585398004
 20
-139.9768133873148
 30
0.0
 10
91.02424585398004
 20
-140.1819688234614
 30
0.0
 10
91.02424585398004
 20
-140.1819688234614
 30
0.0
 10
91.02424585398004
 20
-140.1819688234614
 30
0.0
 10
89.9962293611815
 20
-140.1819688234614
 30
0.0
 10
89.9962293611815
 20
-140.1819688234614
 30
0.0
 10
90.0279242396458
 20
-139.8243679120925
 30
0.0
 10
90.09338105386554
 20
-139.7461642445773
 30
0.0
 10
90.47854272911648
 20
-139.4478189755547
 30
0.0
 10
90.73451332367055
 20
-139.2490369660558
 30
0.0
 10
90.79997013789029
 20
-139.1813408397706
 30
0.0
 10
90.79997013789029
 20
-139.0438815299092
 30
0.0
 10
90.79997013789029
 20
-138.9253702452166
 30
0.0
 10
90.72813989702282
 20
-138.7941121072285
 30
0.0
 10
90.53142494481505
 20
-138.7941121072285
 30
0.0
 10
90.27114798090444
 20
-138.7941121072285
 30
0.0
 10
90.26270749696557
 20
-139.024761249966
 30
0.0
 10
90.25840112760901
 20
-139.1412054773675
 30
0.0
 10
90.25840112760901
 20
-139.1412054773675
 30
0.0
 10
90.0342976662935
 20
-139.1412054773675
 30
0.0
 10
90.0342976662935
 20
-139.1412054773675
 30
0.0
 10
90.04273815023237
 20
-139.014253708736
 30
0.0
 10
90.05324569146239
 20
-138.9021158506911
 30
0.0
 10
90.13368867104297
 20
-138.7836045659985
 30
0.0
 10
90.24358721702244
 20
-138.6228908616116
 30
0.0
 10
90.42979462800019
 20
-138.5889566710819
 30
0.0
 10
90.54623885540165
 20
-138.5889566710819
 30
0.0
 10
90.82339678719
 20
-138.5889566710819
 30
0.0
 10
91.03061928062777
 20
-138.7730970247685
 30
0.0
 10
91.03061928062777
 20
-139.0459485872003
 30
0.0
 10
91.03061928062777
 20
-139.2743584178724
 30
0.0
 10
90.91434730800058
 20
-139.3739216773961
 30
0.0
 10
90.60549449774795
 20
-139.600264450777
 30
0.0
  0
HATCH
  5
12B
330
126
100
AcDbEntity
  8
レイヤー 1
 62
    18
420
        0
440
 33554687
100
AcDbHatch
 10
0.0
 20
0.0
 30
0.0
210
0.0
220
0.0
230
1.0
  2
SOLID
 70
     1
 71
     1
 91
        1
 92
        1
 93
        1
 72
     4
 94
        3
 73
     0
 74
     0
 95
       44
 96
       40
 40
0.0
 40
0.0
 40
0.0
 40
0.0
 40
1.0
 40
1.0
 40
1.0
 40
2.0
 40
2.0
 40
2.0
 40
3.0
 40
3.0
 40
3.0
 40
4.0
 40
4.0
 40
4.0
 40
5.0
 40
5.0
 40
5.0
 40
6.0
 40
6.0
 40
6.0
 40
7.0
 40
7.0
 40
7.0
 40
8.0
 40
8.0
 40
8.0
 40
9.0
 40
9.0
 40
9.0
 40
10.0
 40
10.0
 40
10.0
 40
11.0
 40
11.0
 40
11.0
 40
12.0
 40
12.0
 40
12.0
 40
13.0
 40
13.0
 40
13.0
 40
13.0
 10
90.60549449774795
 20
-139.600264450777
 10
90.3875922083059
 20
-139.7589110978728
 10
90.29440237542988
 20
-139.8329806508056
 10
90.24582652908785
 20
-139.9768133873148
 10
90.24582652908785
 20
-139.9768133873148
 10
91.02424585398004
 20
-139.9768133873148
 10
91.02424585398004
 20
-139.9768133873148
 10
91.02424585398004
 20
-139.9768133873148
 10
91.02424585398004
 20
-140.1819688234614
 10
91.02424585398004
 20
-140.1819688234614
 10
91.02424585398004
 20
-140.1819688234614
 10
89.9962293611815
 20
-140.1819688234614
 10
89.9962293611815
 20
-140.1819688234614
 10
90.0279242396458
 20
-139.8243679120925
 10
90.09338105386554
 20
-139.7461642445773
 10
90.47854272911648
 20
-139.4478189755547
 10
90.73451332367055
 20
-139.2490369660558
 10
90.79997013789029
 20
-139.1813408397706
 10
90.79997013789029
 20
-139.0438815299092
 10
90.79997013789029
 20
-138.9253702452166
 10
90.72813989702282
 20
-138.7941121072285
 10
90.53142494481505
 20
-138.7941121072285
 10
90.27114798090444
 20
-138.7941121072285
 10
90.26270749696557
 20
-139.024761249966
 10
90.25840112760901
 20
-139.1412054773675
 10
90.25840112760901
 20
-139.1412054773675
 10
90.0342976662935
 20
-139.1412054773675
 10
90.0342976662935
 20
-139.1412054773675
 10
90.04273815023237
 20
-139.014253708736
 10
90.05324569146239
 20
-138.9021158506911
 10
90.13368867104297
 20
-138.7836045659985
 10
90.24358721702244
 20
-138.6228908616116
 10
90.42979462800019
 20
-138.5889566710819
 10
90.54623885540165
 20
-138.5889566710819
 10
90.82339678719
 20
-138.5889566710819
 10
91.03061928062777
 20
-138.7730970247685
 10
91.03061928062777
 20
-139.0459485872003
 10
91.03061928062777
 20
-139.2743584178724
 10
90.91434730800058
 20
-139.3739216773961
 10
90.60549449774795
 20
-139.600264450777
 97
        0
 97
        1
330
12A
 75
     2
 76
     1
 98
        1
 10
0.0
 20
0.0
450
        0
451
        0
460
0.0
461
0.0
452
        0
462
0.0
453
        0
470

  0
SPLINE
  5
12C
330
126
100
AcDbEntity
  8
レイヤー 1
100
AcDbSpline
210
0.0
220
0.0
230
1.0
 70
    11
 71
     3
 72
    26
 73
    22
 74
     0
 42
0.0000000001
 43
0.0000000001
 40
0.0
 40
0.0
 40
0.0
 40
0.0
 40
1.0
 40
1.0
 40
1.0
 40
2.0
 40
2.0
 40
2.0
 40
3.0
 40
3.0
 40
3.0
 40
4.0
 40
4.0
 40
4.0
 40
5.0
 40
5.0
 40
5.0
 40
6.0
 40
6.0
 40
6.0
 40
7.0
 40
7.0
 40
7.0
 40
7.0
 10
91.64057343629124
 20
-140.1819688234614
 30
0.0
 10
91.64057343629124
 20
-140.1819688234614
 30
0.0
 10
91.64057343629124
 20
-139.0776434656646
 30
0.0
 10
91.64057343629124
 20
-139.0776434656646
 30
0.0
 10
91.64057343629124
 20
-139.0776434656646
 30
0.0
 10
91.31053328880431
 20
-139.0776434656646
 30
0.0
 10
91.31053328880431
 20
-139.0776434656646
 30
0.0
 10
91.31053328880431
 20
-139.0776434656646
 30
0.0
 10
91.31053328880431
 20
-138.9295043597988
 30
0.0
 10
91.31053328880431
 20
-138.9295043597988
 30
0.0
 10
91.64264049358241
 20
-138.9148627039865
 30
0.0
 10
91.68914928263326
 20
-138.7519096875342
 30
0.0
 10
91.71877710380641
 20
-138.6377047721982
 30
0.0
 10
91.71877710380641
 20
-138.6377047721982
 30
0.0
 10
91.86484915238102
 20
-138.6377047721982
 30
0.0
 10
91.86484915238102
 20
-138.6377047721982
 30
0.0
 10
91.86484915238102
 20
-138.6377047721982
 30
0.0
 10
91.86484915238102
 20
-140.1819688234614
 30
0.0
 10
91.86484915238102
 20
-140.1819688234614
 30
0.0
 10
91.86484915238102
 20
-140.1819688234614
 30
0.0
 10
91.64057343629124
 20
-140.1819688234614
 30
0.0
 10
91.64057343629124
 20
-140.1819688234614
 30
0.0
  0
HATCH
  5
12D
330
126
100
AcDbEntity
  8
レイヤー 1
 62
    18
420
        0
440
 33554687
100
AcDbHatch
 10
0.0
 20
0.0
 30
0.0
210
0.0
220
0.0
230
1.0
  2
SOLID
 70
     1
 71
     1
 91
        1
 92
        1
 93
        1
 72
     4
 94
        3
 73
     0
 74
     0
 95
       26
 96
       22
 40
0.0
 40
0.0
 40
0.0
 40
0.0
 40
1.0
 40
1.0
 40
1.0
 40
2.0
 40
2.0
 40
2.0
 40
3.0
 40
3.0
 40
3.0
 40
4.0
 40
4.0
 40
4.0
 40
5.0
 40
5.0
 40
5.0
 40
6.0
 40
6.0
 40
6.0
 40
7.0
 40
7.0
 40
7.0
 40
7.0
 10
91.64057343629124
 20
-140.1819688234614
 10
91.64057343629124
 20
-140.1819688234614
 10
91.64057343629124
 20
-139.0776434656646
 10
91.64057343629124
 20
-139.0776434656646
 10
91.64057343629124
 20
-139.0776434656646
 10
91.31053328880431
 20
-139.0776434656646
 10
91.31053328880431
 20
-139.0776434656646
 10
91.31053328880431
 20
-139.0776434656646
 10
91.31053328880431
 20
-138.9295043597988
 10
91.31053328880431
 20
-138.9295043597988
 10
91.64264049358241
 20
-138.9148627039865
 10
91.68914928263326
 20
-138.7519096875342
 10
91.71877710380641
 20
-138.6377047721982
 10
91.71877710380641
 20
-138.6377047721982
 10
91.86484915238102
 20
-138.6377047721982
 10
91.86484915238102
 20
-138.6377047721982
 10
91.86484915238102
 20
-138.6377047721982
 10
91.86484915238102
 20
-140.1819688234614
 10
91.86484915238102
 20
-140.1819688234614
 10
91.86484915238102
 20
-140.1819688234614
 10
91.64057343629124
 20
-140.1819688234614
 10
91.64057343629124
 20
-140.1819688234614
 97
        0
 97
        1
330
12C
 75
     2
 76
     1
 98
        1
 10
0.0
 20
0.0
450
        0
451
        0
460
0.0
461
0.0
452
        0
462
0.0
453
        0
470

  0
ENDBLK
  5
129
330
126
100
AcDbEntity
  8
0
100
AcDbBlockEnd
  0
BLOCK
  5
132
330
130
100
AcDbEntity
  8
0
100
AcDbBlockBegin
  2
Block_6
 70
     0
 10
0.0
 20
0.0
 30
0.0
  3
Block_6
  1

  0
SPLINE
  5
134
330
130
100
AcDbEntity
  8
レイヤー 1
100
AcDbSpline
210
0.0
220
0.0
230
1.0
 70
     9
 71
     3
 72
    17
 73
    13
 74
     0
 42
0.0000000001
 43
0.0000000001
 40
0.0
 40
0.0
 40
0.0
 40
0.0
 40
1.0
 40
1.0
 40
1.0
 40
2.0
 40
2.0
 40
2.0
 40
3.0
 40
3.0
 40
3.0
 40
4.0
 40
4.0
 40
4.0
 40
4.0
 10
75.22228188223611
 20
-150.1555202532597
 30
0.0
 10
75.22228188223611
 20
-150.2991807349946
 30
0.0
 10
75.30892603369013
 20
-150.4517984649912
 30
0.0
 10
75.51201441254561
 20
-150.4517984649912
 30
0.0
 10
75.71716984869223
 20
-150.4517984649912
 30
0.0
 10
75.81880016550711
 20
-150.3246744415855
 30
0.0
 10
75.81880016550711
 20
-150.1555202532597
 30
0.0
 10
75.81880016550711
 20
-149.9694850970562
 30
0.0
 10
75.69615476623221
 20
-149.8592420415282
 30
0.0
 10
75.51838783919333
 20
-149.8592420415282
 30
0.0
 10
75.2961791803947
 20
-149.8592420415282
 30
0.0
 10
75.22228188223611
 20
-150.0221950579805
 30
0.0
 10
75.22228188223611
 20
-150.1555202532597
 30
0.0
  0
SPLINE
  5
135
330
130
100
AcDbEntity
  8
レイヤー 1
100
AcDbSpline
210
0.0
220
0.0
230
1.0
 70
     9
 71
     3
 72
    17
 73
    13
 74
     0
 42
0.0000000001
 43
0.0000000001
 40
0.0
 40
0.0
 40
0.0
 40
0.0
 40
1.0
 40
1.0
 40
1.0
 40
2.0
 40
2.0
 40
2.0
 40
3.0
 40
3.0
 40
3.0
 40
4.0
 40
4.0
 40
4.0
 40
4.0
 10
74.56220158726224
 20
-150.1555202532597
 30
0.0
 10
74.56220158726224
 20
-150.3205403270032
 30
0.0
 10
74.65728622265513
 20
-150.4052896759403
 30
0.0
 10
74.79267847522544
 20
-150.4052896759403
 30
0.0
 10
74.9154961292746
 20
-150.4052896759403
 30
0.0
 10
75.0340074139672
 20
-150.3332871802986
 30
0.0
 10
75.0340074139672
 20
-150.1555202532597
 30
0.0
 10
75.0340074139672
 20
-149.9777533262208
 30
0.0
 10
74.9154961292746
 20
-149.9057508305791
 30
0.0
 10
74.79267847522544
 20
-149.9057508305791
 30
0.0
 10
74.65728622265513
 20
-149.9057508305791
 30
0.0
 10
74.56220158726224
 20
-149.9925672368074
 30
0.0
 10
74.56220158726224
 20
-150.1555202532597
 30
0.0
  0
SPLINE
  5
136
330
130
100
AcDbEntity
  8
レイヤー 1
100
AcDbSpline
210
0.0
220
0.0
230
1.0
 70
     9
 71
     3
 72
    29
 73
    25
 74
     0
 42
0.0000000001
 43
0.0000000001
 40
0.0
 40
0.0
 40
0.0
 40
0.0
 40
1.0
 40
1.0
 40
1.0
 40
2.0
 40
2.0
 40
2.0
 40
3.0
 40
3.0
 40
3.0
 40
4.0
 40
4.0
 40
4.0
 40
5.0
 40
5.0
 40
5.0
 40
6.0
 40
6.0
 40
6.0
 40
7.0
 40
7.0
 40
7.0
 40
8.0
 40
8.0
 40
8.0
 40
8.0
 10
76.01344806042373
 20
-150.1555202532597
 30
0.0
 10
76.01344806042373
 20
-150.4221706438181
 30
0.0
 10
75.87581649578798
 20
-150.676074181081
 30
0.0
 10
75.52682832313218
 20
-150.676074181081
 30
0.0
 10
75.27085772857812
 20
-150.676074181081
 30
0.0
 10
75.17560083841096
 20
-150.5341362470887
 30
0.0
 10
75.11427813877351
 20
-150.4283718156915
 30
0.0
 10
75.05502249642721
 20
-150.5530842722575
 30
0.0
 10
74.94081758109118
 20
-150.6292208824816
 30
0.0
 10
74.78010387670429
 20
-150.6292208824816
 30
0.0
 10
74.50501300220707
 20
-150.6292208824816
 30
0.0
 10
74.36962074963677
 20
-150.4304388729827
 30
0.0
 10
74.36962074963677
 20
-150.1555202532597
 30
0.0
 10
74.36962074963677
 20
-149.8719888948237
 30
0.0
 10
74.51345348614594
 20
-149.6814751144893
 30
0.0
 10
74.78010387670429
 20
-149.6814751144893
 30
0.0
 10
74.94081758109118
 20
-149.6814751144893
 30
0.0
 10
75.05502249642721
 20
-149.760023291553
 30
0.0
 10
75.11427813877351
 20
-149.8847357481191
 30
0.0
 10
75.16509329718094
 20
-149.7958522845996
 30
0.0
 10
75.26035018734811
 20
-149.6370333827296
 30
0.0
 10
75.52269420854988
 20
-149.6370333827296
 30
0.0
 10
75.89700383302228
 20
-149.6370333827296
 30
0.0
 10
76.01344806042373
 20
-149.9164306265834
 30
0.0
 10
76.01344806042373
 20
-150.1555202532597
 30
0.0
  0
HATCH
  5
137
330
130
100
AcDbEntity
  8
レイヤー 1
 62
    18
420
        0
440
 33554687
100
AcDbHatch
 10
0.0
 20
0.0
 30
0.0
210
0.0
220
0.0
230
1.0
  2
SOLID
 70
     1
 71
     1
 91
        3
 92
        1
 93
        1
 72
     4
 94
        3
 73
     0
 74
     0
 95
       17
 96
       13
 40
0.0
 40
0.0
 40
0.0
 40
0.0
 40
1.0
 40
1.0
 40
1.0
 40
2.0
 40
2.0
 40
2.0
 40
3.0
 40
3.0
 40
3.0
 40
4.0
 40
4.0
 40
4.0
 40
4.0
 10
75.22228188223611
 20
-150.1555202532597
 10
75.22228188223611
 20
-150.2991807349946
 10
75.30892603369013
 20
-150.4517984649912
 10
75.51201441254561
 20
-150.4517984649912
 10
75.71716984869223
 20
-150.4517984649912
 10
75.81880016550711
 20
-150.3246744415855
 10
75.81880016550711
 20
-150.1555202532597
 10
75.81880016550711
 20
-149.9694850970562
 10
75.69615476623221
 20
-149.8592420415282
 10
75.51838783919333
 20
-149.8592420415282
 10
75.2961791803947
 20
-149.8592420415282
 10
75.22228188223611
 20
-150.0221950579805
 10
75.22228188223611
 20
-150.1555202532597
 97
        0
 97
        1
330
134
 92
        1
 93
        1
 72
     4
 94
        3
 73
     0
 74
     0
 95
       17
 96
       13
 40
0.0
 40
0.0
 40
0.0
 40
0.0
 40
1.0
 40
1.0
 40
1.0
 40
2.0
 40
2.0
 40
2.0
 40
3.0
 40
3.0
 40
3.0
 40
4.0
 40
4.0
 40
4.0
 40
4.0
 10
74.56220158726224
 20
-150.1555202532597
 10
74.56220158726224
 20
-150.3205403270032
 10
74.65728622265513
 20
-150.4052896759403
 10
74.79267847522544
 20
-150.4052896759403
 10
74.9154961292746
 20
-150.4052896759403
 10
75.0340074139672
 20
-150.3332871802986
 10
75.0340074139672
 20
-150.1555202532597
 10
75.0340074139672
 20
-149.9777533262208
 10
74.9154961292746
 20
-149.9057508305791
 10
74.79267847522544
 20
-149.9057508305791
 10
74.65728622265513
 20
-149.9057508305791
 10
74.56220158726224
 20
-149.9925672368074
 10
74.56220158726224
 20
-150.1555202532597
 97
        0
 97
        1
330
135
 92
        1
 93
        1
 72
     4
 94
        3
 73
     0
 74
     0
 95
       29
 96
       25
 40
0.0
 40
0.0
 40
0.0
 40
0.0
 40
1.0
 40
1.0
 40
1.0
 40
2.0
 40
2.0
 40
2.0
 40
3.0
 40
3.0
 40
3.0
 40
4.0
 40
4.0
 40
4.0
 40
5.0
 40
5.0
 40
5.0
 40
6.0
 40
6.0
 40
6.0
 40
7.0
 40
7.0
 40
7.0
 40
8.0
 40
8.0
 40
8.0
 40
8.0
 10
76.01344806042373
 20
-150.1555202532597
 10
76.01344806042373
 20
-150.4221706438181
 10
75.87581649578798
 20
-150.676074181081
 10
75.52682832313218
 20
-150.676074181081
 10
75.27085772857812
 20
-150.676074181081
 10
75.17560083841096
 20
-150.5341362470887
 10
75.11427813877351
 20
-150.4283718156915
 10
75.05502249642721
 20
-150.5530842722575
 10
74.94081758109118
 20
-150.6292208824816
 10
74.78010387670429
 20
-150.6292208824816
 10
74.50501300220707
 20
-150.6292208824816
 10
74.36962074963677
 20
-150.4304388729827
 10
74.36962074963677
 20
-150.1555202532597
 10
74.36962074963677
 20
-149.8719888948237
 10
74.51345348614594
 20
-149.6814751144893
 10
74.78010387670429
 20
-149.6814751144893
 10
74.94081758109118
 20
-149.6814751144893
 10
75.05502249642721
 20
-149.760023291553
 10
75.11427813877351
 20
-149.8847357481191
 10
75.16509329718094
 20
-149.7958522845996
 10
75.26035018734811
 20
-149.6370333827296
 10
75.52269420854988
 20
-149.6370333827296
 10
75.89700383302228
 20
-149.6370333827296
 10
76.01344806042373
 20
-149.9164306265834
 10
76.01344806042373
 20
-150.1555202532597
 97
        0
 97
        1
330
136
 75
     2
 76
     1
 98
        1
 10
0.0
 20
0.0
450
        0
451
        0
460
0.0
461
0.0
452
        0
462
0.0
453
        0
470

  0
ENDBLK
  5
133
330
130
100
AcDbEntity
  8
0
100
AcDbBlockEnd
  0
BLOCK
  5
13C
330
13A
100
AcDbEntity
  8
0
100
AcDbBlockBegin
  2
Block_7
 70
     0
 10
0.0
 20
0.0
 30
0.0
  3
Block_7
  1

  0
INSERT
  5
13F
330
13A
100
AcDbEntity
  8
レイヤー 1
100
AcDbBlockReference
  2
Block_8
 10
0.0
 20
0.0
 30
0.0
  0
ENDBLK
  5
13D
330
13A
100
AcDbEntity
  8
0
100
AcDbBlockEnd
  0
BLOCK
  5
140
330
13E
100
AcDbEntity
  8
0
100
AcDbBlockBegin
  2
Block_8
 70
     0
 10
0.0
 20
0.0
 30
0.0
  3
Block_8
  1

  0
SPLINE
  5
142
330
13E
100
AcDbEntity
  8
レイヤー 1
100
AcDbSpline
210
0.0
220
0.0
230
1.0
 70
     9
 71
     3
 72
    44
 73
    40
 74
     0
 42
0.0000000001
 43
0.0000000001
 40
0.0
 40
0.0
 40
0.0
 40
0.0
 40
1.0
 40
1.0
 40
1.0
 40
2.0
 40
2.0
 40
2.0
 40
3.0
 40
3.0
 40
3.0
 40
4.0
 40
4.0
 40
4.0
 40
5.0
 40
5.0
 40
5.0
 40
6.0
 40
6.0
 40
6.0
 40
7.0
 40
7.0
 40
7.0
 40
8.0
 40
8.0
 40
8.0
 40
9.0
 40
9.0
 40
9.0
 40
10.0
 40
10.0
 40
10.0
 40
11.0
 40
11.0
 40
11.0
 40
12.0
 40
12.0
 40
12.0
 40
13.0
 40
13.0
 40
13.0
 40
13.0
 10
116.7067436774205
 20
-139.600264450777
 30
0.0
 10
116.4890136427527
 20
-139.7589110978728
 30
0.0
 10
116.395996064651
 20
-139.8329806508056
 30
0.0
 10
116.3470757087604
 20
-139.9768133873148
 30
0.0
 10
116.3470757087604
 20
-139.9768133873148
 30
0.0
 10
117.1256672884269
 20
-139.9768133873148
 30
0.0
 10
117.1256672884269
 20
-139.9768133873148
 30
0.0
 10
117.1256672884269
 20
-139.9768133873148
 30
0.0
 10
117.1256672884269
 20
-140.1819688234614
 30
0.0
 10
117.1256672884269
 20
-140.1819688234614
 30
0.0
 10
117.1256672884269
 20
-140.1819688234614
 30
0.0
 10
116.0976507956283
 20
-140.1819688234614
 30
0.0
 10
116.0976507956283
 20
-140.1819688234614
 30
0.0
 10
116.1293456740926
 20
-139.8243679120925
 30
0.0
 10
116.1948024883124
 20
-139.7461642445773
 30
0.0
 10
116.5799641635633
 20
-139.4478189755547
 30
0.0
 10
116.8359347581174
 20
-139.2490369660558
 30
0.0
 10
116.9013915723371
 20
-139.1813408397706
 30
0.0
 10
116.9013915723371
 20
-139.0438815299092
 30
0.0
 10
116.9013915723371
 20
-138.9253702452166
 30
0.0
 10
116.8293890766954
 20
-138.7941121072285
 30
0.0
 10
116.6326741244876
 20
-138.7941121072285
 30
0.0
 10
116.3725694153513
 20
-138.7941121072285
 30
0.0
 10
116.3643011861867
 20
-139.024761249966
 30
0.0
 10
116.3598225620559
 20
-139.1412054773675
 30
0.0
 10
116.3598225620559
 20
-139.1412054773675
 30
0.0
 10
116.1355468459661
 20
-139.1412054773675
 30
0.0
 10
116.1355468459661
 20
-139.1412054773675
 30
0.0
 10
116.1441595846792
 20
-139.014253708736
 30
0.0
 10
116.1548393806835
 20
-138.9021158506911
 30
0.0
 10
116.2351101054898
 20
-138.7836045659985
 30
0.0
 10
116.3450086514693
 20
-138.6228908616116
 30
0.0
 10
116.5313883172213
 20
-138.5889566710819
 30
0.0
 10
116.6474880350742
 20
-138.5889566710819
 30
0.0
 10
116.9248182216368
 20
-138.5889566710819
 30
0.0
 10
117.1322129698489
 20
-138.7730970247685
 30
0.0
 10
117.1322129698489
 20
-139.0459485872003
 30
0.0
 10
117.1322129698489
 20
-139.2743584178724
 30
0.0
 10
117.0157687424474
 20
-139.3739216773961
 30
0.0
 10
116.7067436774205
 20
-139.600264450777
 30
0.0
  0
HATCH
  5
143
330
13E
100
AcDbEntity
  8
レイヤー 1
 62
    18
420
        0
440
 33554687
100
AcDbHatch
 10
0.0
 20
0.0
 30
0.0
210
0.0
220
0.0
230
1.0
  2
SOLID
 70
     1
 71
     1
 91
        1
 92
        1
 93
        1
 72
     4
 94
        3
 73
     0
 74
     0
 95
       44
 96
       40
 40
0.0
 40
0.0
 40
0.0
 40
0.0
 40
1.0
 40
1.0
 40
1.0
 40
2.0
 40
2.0
 40
2.0
 40
3.0
 40
3.0
 40
3.0
 40
4.0
 40
4.0
 40
4.0
 40
5.0
 40
5.0
 40
5.0
 40
6.0
 40
6.0
 40
6.0
 40
7.0
 40
7.0
 40
7.0
 40
8.0
 40
8.0
 40
8.0
 40
9.0
 40
9.0
 40
9.0
 40
10.0
 40
10.0
 40
10.0
 40
11.0
 40
11.0
 40
11.0
 40
12.0
 40
12.0
 40
12.0
 40
13.0
 40
13.0
 40
13.0
 40
13.0
 10
116.7067436774205
 20
-139.600264450777
 10
116.4890136427527
 20
-139.7589110978728
 10
116.395996064651
 20
-139.8329806508056
 10
116.3470757087604
 20
-139.9768133873148
 10
116.3470757087604
 20
-139.9768133873148
 10
117.1256672884269
 20
-139.9768133873148
 10
117.1256672884269
 20
-139.9768133873148
 10
117.1256672884269
 20
-139.9768133873148
 10
117.1256672884269
 20
-140.1819688234614
 10
117.1256672884269
 20
-140.1819688234614
 10
117.1256672884269
 20
-140.1819688234614
 10
116.0976507956283
 20
-140.1819688234614
 10
116.0976507956283
 20
-140.1819688234614
 10
116.1293456740926
 20
-139.8243679120925
 10
116.1948024883124
 20
-139.7461642445773
 10
116.5799641635633
 20
-139.4478189755547
 10
116.8359347581174
 20
-139.2490369660558
 10
116.9013915723371
 20
-139.1813408397706
 10
116.9013915723371
 20
-139.0438815299092
 10
116.9013915723371
 20
-138.9253702452166
 10
116.8293890766954
 20
-138.7941121072285
 10
116.6326741244876
 20
-138.7941121072285
 10
116.3725694153513
 20
-138.7941121072285
 10
116.3643011861867
 20
-139.024761249966
 10
116.3598225620559
 20
-139.1412054773675
 10
116.3598225620559
 20
-139.1412054773675
 10
116.1355468459661
 20
-139.1412054773675
 10
116.1355468459661
 20
-139.1412054773675
 10
116.1441595846792
 20
-139.014253708736
 10
116.1548393806835
 20
-138.9021158506911
 10
116.2351101054898
 20
-138.7836045659985
 10
116.3450086514693
 20
-138.6228908616116
 10
116.5313883172213
 20
-138.5889566710819
 10
116.6474880350742
 20
-138.5889566710819
 10
116.9248182216368
 20
-138.5889566710819
 10
117.1322129698489
 20
-138.7730970247685
 10
117.1322129698489
 20
-139.0459485872003
 10
117.1322129698489
 20
-139.2743584178724
 10
117.0157687424474
 20
-139.3739216773961
 10
116.7067436774205
 20
-139.600264450777
 97
        0
 97
        1
330
142
 75
     2
 76
     1
 98
        1
 10
0.0
 20
0.0
450
        0
451
        0
460
0.0
461
0.0
452
        0
462
0.0
453
        0
470

  0
SPLINE
  5
144
330
13E
100
AcDbEntity
  8
レイヤー 1
100
AcDbSpline
210
0.0
220
0.0
230
1.0
 70
    11
 71
     3
 72
    26
 73
    22
 74
     0
 42
0.0000000001
 43
0.0000000001
 40
0.0
 40
0.0
 40
0.0
 40
0.0
 40
1.0
 40
1.0
 40
1.0
 40
2.0
 40
2.0
 40
2.0
 40
3.0
 40
3.0
 40
3.0
 40
4.0
 40
4.0
 40
4.0
 40
5.0
 40
5.0
 40
5.0
 40
6.0
 40
6.0
 40
6.0
 40
7.0
 40
7.0
 40
7.0
 40
7.0
 10
117.7419948707381
 20
-140.1819688234614
 30
0.0
 10
117.7419948707381
 20
-140.1819688234614
 30
0.0
 10
117.7419948707381
 20
-139.0776434656646
 30
0.0
 10
117.7419948707381
 20
-139.0776434656646
 30
0.0
 10
117.7419948707381
 20
-139.0776434656646
 30
0.0
 10
117.4119547232512
 20
-139.0776434656646
 30
0.0
 10
117.4119547232512
 20
-139.0776434656646
 30
0.0
 10
117.4119547232512
 20
-139.0776434656646
 30
0.0
 10
117.4119547232512
 20
-138.9295043597988
 30
0.0
 10
117.4119547232512
 20
-138.9295043597988
 30
0.0
 10
117.7440619280292
 20
-138.9148627039865
 30
0.0
 10
117.7905707170801
 20
-138.7519096875342
 30
0.0
 10
117.8201985382533
 20
-138.6377047721982
 30
0.0
 10
117.8201985382533
 20
-138.6377047721982
 30
0.0
 10
117.9662705868279
 20
-138.6377047721982
 30
0.0
 10
117.9662705868279
 20
-138.6377047721982
 30
0.0
 10
117.9662705868279
 20
-138.6377047721982
 30
0.0
 10
117.9662705868279
 20
-140.1819688234614
 30
0.0
 10
117.9662705868279
 20
-140.1819688234614
 30
0.0
 10
117.9662705868279
 20
-140.1819688234614
 30
0.0
 10
117.7419948707381
 20
-140.1819688234614
 30
0.0
 10
117.7419948707381
 20
-140.1819688234614
 30
0.0
  0
HATCH
  5
145
330
13E
100
AcDbEntity
  8
レイヤー 1
 62
    18
420
        0
440
 33554687
100
AcDbHatch
 10
0.0
 20
0.0
 30
0.0
210
0.0
220
0.0
230
1.0
  2
SOLID
 70
     1
 71
     1
 91
        1
 92
        1
 93
        1
 72
     4
 94
        3
 73
     0
 74
     0
 95
       26
 96
       22
 40
0.0
 40
0.0
 40
0.0
 40
0.0
 40
1.0
 40
1.0
 40
1.0
 40
2.0
 40
2.0
 40
2.0
 40
3.0
 40
3.0
 40
3.0
 40
4.0
 40
4.0
 40
4.0
 40
5.0
 40
5.0
 40
5.0
 40
6.0
 40
6.0
 40
6.0
 40
7.0
 40
7.0
 40
7.0
 40
7.0
 10
117.7419948707381
 20
-140.1819688234614
 10
117.7419948707381
 20
-140.1819688234614
 10
117.7419948707381
 20
-139.0776434656646
 10
117.7419948707381
 20
-139.0776434656646
 10
117.7419948707381
 20
-139.0776434656646
 10
117.4119547232512
 20
-139.0776434656646
 10
117.4119547232512
 20
-139.0776434656646
 10
117.4119547232512
 20
-139.0776434656646
 10
117.4119547232512
 20
-138.9295043597988
 10
117.4119547232512
 20
-138.9295043597988
 10
117.7440619280292
 20
-138.9148627039865
 10
117.7905707170801
 20
-138.7519096875342
 10
117.8201985382533
 20
-138.6377047721982
 10
117.8201985382533
 20
-138.6377047721982
 10
117.9662705868279
 20
-138.6377047721982
 10
117.9662705868279
 20
-138.6377047721982
 10
117.9662705868279
 20
-138.6377047721982
 10
117.9662705868279
 20
-140.1819688234614
 10
117.9662705868279
 20
-140.1819688234614
 10
117.9662705868279
 20
-140.1819688234614
 10
117.7419948707381
 20
-140.1819688234614
 10
117.7419948707381
 20
-140.1819688234614
 97
        0
 97
        1
330
144
 75
     2
 76
     1
 98
        1
 10
0.0
 20
0.0
450
        0
451
        0
460
0.0
461
0.0
452
        0
462
0.0
453
        0
470

  0
ENDBLK
  5
141
330
13E
100
AcDbEntity
  8
0
100
AcDbBlockEnd
  0
BLOCK
  5
14B
330
149
100
AcDbEntity
  8
0
100
AcDbBlockBegin
  2
Block_9
 70
     0
 10
0.0
 20
0.0
 30
0.0
  3
Block_9
  1

  0
SPLINE
  5
14D
330
149
100
AcDbEntity
  8
レイヤー 1
100
AcDbSpline
210
0.0
220
0.0
230
1.0
 70
     9
 71
     3
 72
    53
 73
    49
 74
     0
 42
0.0000000001
 43
0.0000000001
 40
0.0
 40
0.0
 40
0.0
 40
0.0
 40
1.0
 40
1.0
 40
1.0
 40
2.0
 40
2.0
 40
2.0
 40
3.0
 40
3.0
 40
3.0
 40
4.0
 40
4.0
 40
4.0
 40
5.0
 40
5.0
 40
5.0
 40
6.0
 40
6.0
 40
6.0
 40
7.0
 40
7.0
 40
7.0
 40
8.0
 40
8.0
 40
8.0
 40
9.0
 40
9.0
 40
9.0
 40
10.0
 40
10.0
 40
10.0
 40
11.0
 40
11.0
 40
11.0
 40
12.0
 40
12.0
 40
12.0
 40
13.0
 40
13.0
 40
13.0
 40
14.0
 40
14.0
 40
14.0
 40
15.0
 40
15.0
 40
15.0
 40
16.0
 40
16.0
 40
16.0
 40
16.0
 10
104.1581556271722
 20
-140.2327839818689
 30
0.0
 10
104.0797797048828
 20
-140.2327839818689
 30
0.0
 10
103.9783216428422
 20
-140.2157307592169
 30
0.0
 10
103.8766913260273
 20
-140.1523410022883
 30
0.0
 10
103.703230768345
 20
-140.0422702015346
 30
0.0
 10
103.6820434311107
 20
-139.9111843183208
 30
0.0
 10
103.6630954059418
 20
-139.8033528296325
 30
0.0
 10
103.6630954059418
 20
-139.8033528296325
 30
0.0
 10
103.8851318099662
 20
-139.8033528296325
 30
0.0
 10
103.8851318099662
 20
-139.8033528296325
 30
0.0
 10
103.9402533377302
 20
-140.0021348391314
 30
0.0
 10
104.0672051063616
 20
-140.0317626603045
 30
0.0
 10
104.1602226844634
 20
-140.0317626603045
 30
0.0
 10
104.2999213063903
 20
-140.0317626603045
 30
0.0
 10
104.4521945268383
 20
-139.9323716555551
 30
0.0
 10
104.4521945268383
 20
-139.6996554555265
 30
0.0
 10
104.4521945268383
 20
-139.4436848609724
 30
0.0
 10
104.2723605425083
 20
-139.3739216773961
 30
0.0
 10
104.1517822005245
 20
-139.3739216773961
 30
0.0
 10
104.1200873220602
 20
-139.3739216773961
 30
0.0
 10
103.9783216428422
 20
-139.3739216773961
 30
0.0
 10
103.8894381793228
 20
-139.5029405033187
 30
0.0
 10
103.8894381793228
 20
-139.5029405033187
 30
0.0
 10
103.7139105643493
 20
-139.4838202233755
 30
0.0
 10
103.7139105643493
 20
-139.4838202233755
 30
0.0
 10
103.7139105643493
 20
-139.4838202233755
 30
0.0
 10
103.834488906333
 20
-138.6377047721982
 30
0.0
 10
103.834488906333
 20
-138.6377047721982
 30
0.0
 10
103.834488906333
 20
-138.6377047721982
 30
0.0
 10
104.6129082312252
 20
-138.6377047721982
 30
0.0
 10
104.6129082312252
 20
-138.6377047721982
 30
0.0
 10
104.6129082312252
 20
-138.6377047721982
 30
0.0
 10
104.6129082312252
 20
-138.8323526671148
 30
0.0
 10
104.6129082312252
 20
-138.8323526671148
 30
0.0
 10
104.6129082312252
 20
-138.8323526671148
 30
0.0
 10
103.9972696680111
 20
-138.8323526671148
 30
0.0
 10
103.9972696680111
 20
-138.8323526671148
 30
0.0
 10
103.9972696680111
 20
-138.8323526671148
 30
0.0
 10
103.9318128537913
 20
-139.2554103927035
 30
0.0
 10
103.9318128537913
 20
-139.2554103927035
 30
0.0
 10
103.9931355534288
 20
-139.2214762021738
 30
0.0
 10
104.0756455903005
 20
-139.1813408397706
 30
0.0
 10
104.1939846202188
 20
-139.1813408397706
 30
0.0
 10
104.4478881574818
 20
-139.1813408397706
 30
0.0
 10
104.684910726867
 20
-139.3675482507484
 30
0.0
 10
104.684910726867
 20
-139.6805351755833
 30
0.0
 10
104.684910726867
 20
-139.9980007245491
 30
0.0
 10
104.4606350107772
 20
-140.2327839818689
 30
0.0
 10
104.1581556271722
 20
-140.2327839818689
 30
0.0
  0
HATCH
  5
14E
330
149
100
AcDbEntity
  8
レイヤー 1
 62
    18
420
        0
440
 33554687
100
AcDbHatch
 10
0.0
 20
0.0
 30
0.0
210
0.0
220
0.0
230
1.0
  2
SOLID
 70
     1
 71
     1
 91
        1
 92
        1
 93
        1
 72
     4
 94
        3
 73
     0
 74
     0
 95
       53
 96
       49
 40
0.0
 40
0.0
 40
0.0
 40
0.0
 40
1.0
 40
1.0
 40
1.0
 40
2.0
 40
2.0
 40
2.0
 40
3.0
 40
3.0
 40
3.0
 40
4.0
 40
4.0
 40
4.0
 40
5.0
 40
5.0
 40
5.0
 40
6.0
 40
6.0
 40
6.0
 40
7.0
 40
7.0
 40
7.0
 40
8.0
 40
8.0
 40
8.0
 40
9.0
 40
9.0
 40
9.0
 40
10.0
 40
10.0
 40
10.0
 40
11.0
 40
11.0
 40
11.0
 40
12.0
 40
12.0
 40
12.0
 40
13.0
 40
13.0
 40
13.0
 40
14.0
 40
14.0
 40
14.0
 40
15.0
 40
15.0
 40
15.0
 40
16.0
 40
16.0
 40
16.0
 40
16.0
 10
104.1581556271722
 20
-140.2327839818689
 10
104.0797797048828
 20
-140.2327839818689
 10
103.9783216428422
 20
-140.2157307592169
 10
103.8766913260273
 20
-140.1523410022883
 10
103.703230768345
 20
-140.0422702015346
 10
103.6820434311107
 20
-139.9111843183208
 10
103.6630954059418
 20
-139.8033528296325
 10
103.6630954059418
 20
-139.8033528296325
 10
103.8851318099662
 20
-139.8033528296325
 10
103.8851318099662
 20
-139.8033528296325
 10
103.9402533377302
 20
-140.0021348391314
 10
104.0672051063616
 20
-140.0317626603045
 10
104.1602226844634
 20
-140.0317626603045
 10
104.2999213063903
 20
-140.0317626603045
 10
104.4521945268383
 20
-139.9323716555551
 10
104.4521945268383
 20
-139.6996554555265
 10
104.4521945268383
 20
-139.4436848609724
 10
104.2723605425083
 20
-139.3739216773961
 10
104.1517822005245
 20
-139.3739216773961
 10
104.1200873220602
 20
-139.3739216773961
 10
103.9783216428422
 20
-139.3739216773961
 10
103.8894381793228
 20
-139.5029405033187
 10
103.8894381793228
 20
-139.5029405033187
 10
103.7139105643493
 20
-139.4838202233755
 10
103.7139105643493
 20
-139.4838202233755
 10
103.7139105643493
 20
-139.4838202233755
 10
103.834488906333
 20
-138.6377047721982
 10
103.834488906333
 20
-138.6377047721982
 10
103.834488906333
 20
-138.6377047721982
 10
104.6129082312252
 20
-138.6377047721982
 10
104.6129082312252
 20
-138.6377047721982
 10
104.6129082312252
 20
-138.6377047721982
 10
104.6129082312252
 20
-138.8323526671148
 10
104.6129082312252
 20
-138.8323526671148
 10
104.6129082312252
 20
-138.8323526671148
 10
103.9972696680111
 20
-138.8323526671148
 10
103.9972696680111
 20
-138.8323526671148
 10
103.9972696680111
 20
-138.8323526671148
 10
103.9318128537913
 20
-139.2554103927035
 10
103.9318128537913
 20
-139.2554103927035
 10
103.9931355534288
 20
-139.2214762021738
 10
104.0756455903005
 20
-139.1813408397706
 10
104.1939846202188
 20
-139.1813408397706
 10
104.4478881574818
 20
-139.1813408397706
 10
104.684910726867
 20
-139.3675482507484
 10
104.684910726867
 20
-139.6805351755833
 10
104.684910726867
 20
-139.9980007245491
 10
104.4606350107772
 20
-140.2327839818689
 10
104.1581556271722
 20
-140.2327839818689
 97
        0
 97
        1
330
14D
 75
     2
 76
     1
 98
        1
 10
0.0
 20
0.0
450
        0
451
        0
460
0.0
461
0.0
452
        0
462
0.0
453
        0
470

  0
ENDBLK
  5
14C
330
149
100
AcDbEntity
  8
0
100
AcDbBlockEnd
  0
BLOCK
  5
156
330
154
100
AcDbEntity
  8
0
100
AcDbBlockBegin
  2
Block_10
 70
     0
 10
0.0
 20
0.0
 30
0.0
  3
Block_10
  1

  0
SPLINE
  5
158
330
154
100
AcDbEntity
  8
レイヤー 1
100
AcDbSpline
210
0.0
220
0.0
230
1.0
 70
     9
 71
     3
 72
    26
 73
    22
 74
     0
 42
0.0000000001
 43
0.0000000001
 40
0.0
 40
0.0
 40
0.0
 40
0.0
 40
1.0
 40
1.0
 40
1.0
 40
2.0
 40
2.0
 40
2.0
 40
3.0
 40
3.0
 40
3.0
 40
4.0
 40
4.0
 40
4.0
 40
5.0
 40
5.0
 40
5.0
 40
6.0
 40
6.0
 40
6.0
 40
7.0
 40
7.0
 40
7.0
 40
7.0
 10
104.2484171288858
 20
-157.5576524128675
 30
0.0
 10
104.2484171288858
 20
-157.5576524128675
 30
0.0
 10
104.0113945595006
 20
-157.5576524128675
 30
0.0
 10
104.0113945595006
 20
-157.5576524128675
 30
0.0
 10
104.0368882660914
 20
-157.2486273478406
 30
0.0
 10
104.2294691037169
 20
-156.730484986859
 30
0.0
 10
104.6356458614279
 20
-156.2247449696243
 30
0.0
 10
104.6356458614279
 20
-156.2247449696243
 30
0.0
 10
103.7977986394151
 20
-156.2247449696243
 30
0.0
 10
103.7977986394151
 20
-156.2247449696243
 30
0.0
 10
103.7977986394151
 20
-156.2247449696243
 30
0.0
 10
103.7977986394151
 20
-156.01321610683
 30
0.0
 10
103.7977986394151
 20
-156.01321610683
 30
0.0
 10
103.7977986394151
 20
-156.01321610683
 30
0.0
 10
104.8726684308131
 20
-156.01321610683
 30
0.0
 10
104.8726684308131
 20
-156.01321610683
 30
0.0
 10
104.8726684308131
 20
-156.01321610683
 30
0.0
 10
104.8726684308131
 20
-156.2247449696243
 30
0.0
 10
104.8726684308131
 20
-156.2247449696243
 30
0.0
 10
104.5488294551996
 20
-156.5148220094824
 30
0.0
 10
104.2821790646413
 20
-157.1070339233968
 30
0.0
 10
104.2484171288858
 20
-157.5576524128675
 30
0.0
  0
HATCH
  5
159
330
154
100
AcDbEntity
  8
レイヤー 1
 62
    18
420
        0
440
 33554687
100
AcDbHatch
 10
0.0
 20
0.0
 30
0.0
210
0.0
220
0.0
230
1.0
  2
SOLID
 70
     1
 71
     1
 91
        1
 92
        1
 93
        1
 72
     4
 94
        3
 73
     0
 74
     0
 95
       26
 96
       22
 40
0.0
 40
0.0
 40
0.0
 40
0.0
 40
1.0
 40
1.0
 40
1.0
 40
2.0
 40
2.0
 40
2.0
 40
3.0
 40
3.0
 40
3.0
 40
4.0
 40
4.0
 40
4.0
 40
5.0
 40
5.0
 40
5.0
 40
6.0
 40
6.0
 40
6.0
 40
7.0
 40
7.0
 40
7.0
 40
7.0
 10
104.2484171288858
 20
-157.5576524128675
 10
104.2484171288858
 20
-157.5576524128675
 10
104.0113945595006
 20
-157.5576524128675
 10
104.0113945595006
 20
-157.5576524128675
 10
104.0368882660914
 20
-157.2486273478406
 10
104.2294691037169
 20
-156.730484986859
 10
104.6356458614279
 20
-156.2247449696243
 10
104.6356458614279
 20
-156.2247449696243
 10
103.7977986394151
 20
-156.2247449696243
 10
103.7977986394151
 20
-156.2247449696243
 10
103.7977986394151
 20
-156.2247449696243
 10
103.7977986394151
 20
-156.01321610683
 10
103.7977986394151
 20
-156.01321610683
 10
103.7977986394151
 20
-156.01321610683
 10
104.8726684308131
 20
-156.01321610683
 10
104.8726684308131
 20
-156.01321610683
 10
104.8726684308131
 20
-156.01321610683
 10
104.8726684308131
 20
-156.2247449696243
 10
104.8726684308131
 20
-156.2247449696243
 10
104.5488294551996
 20
-156.5148220094824
 10
104.2821790646413
 20
-157.1070339233968
 10
104.2484171288858
 20
-157.5576524128675
 97
        0
 97
        1
330
158
 75
     2
 76
     1
 98
        1
 10
0.0
 20
0.0
450
        0
451
        0
460
0.0
461
0.0
452
        0
462
0.0
453
        0
470

  0
ENDBLK
  5
157
330
154
100
AcDbEntity
  8
0
100
AcDbBlockEnd
  0
BLOCK
  5
15D
330
15B
100
AcDbEntity
  8
0
100
AcDbBlockBegin
  2
Block_11
 70
     0
 10
0.0
 20
0.0
 30
0.0
  3
Block_11
  1

  0
SPLINE
  5
15F
330
15B
100
AcDbEntity
  8
レイヤー 1
100
AcDbSpline
210
0.0
220
0.0
230
1.0
 70
    11
 71
     3
 72
    26
 73
    22
 74
     0
 42
0.0000000001
 43
0.0000000001
 40
0.0
 40
0.0
 40
0.0
 40
0.0
 40
1.0
 40
1.0
 40
1.0
 40
2.0
 40
2.0
 40
2.0
 40
3.0
 40
3.0
 40
3.0
 40
4.0
 40
4.0
 40
4.0
 40
5.0
 40
5.0
 40
5.0
 40
6.0
 40
6.0
 40
6.0
 40
7.0
 40
7.0
 40
7.0
 40
7.0
 10
109.6091579587088
 20
-149.5347140468177
 30
0.0
 10
109.6091579587088
 20
-149.5347140468177
 30
0.0
 10
109.6091579587088
 20
-148.4303886890208
 30
0.0
 10
109.6091579587088
 20
-148.4303886890208
 30
0.0
 10
109.6091579587088
 20
-148.4303886890208
 30
0.0
 10
109.2791178112219
 20
-148.4303886890208
 30
0.0
 10
109.2791178112219
 20
-148.4303886890208
 30
0.0
 10
109.2791178112219
 20
-148.4303886890208
 30
0.0
 10
109.2791178112219
 20
-148.2822495831551
 30
0.0
 10
109.2791178112219
 20
-148.2822495831551
 30
0.0
 10
109.611225016
 20
-148.2676079273428
 30
0.0
 10
109.6577338050508
 20
-148.1046549108905
 30
0.0
 10
109.687361626224
 20
-147.9904499955545
 30
0.0
 10
109.687361626224
 20
-147.9904499955545
 30
0.0
 10
109.8334336747986
 20
-147.9904499955545
 30
0.0
 10
109.8334336747986
 20
-147.9904499955545
 30
0.0
 10
109.8334336747986
 20
-147.9904499955545
 30
0.0
 10
109.8334336747986
 20
-149.5347140468177
 30
0.0
 10
109.8334336747986
 20
-149.5347140468177
 30
0.0
 10
109.8334336747986
 20
-149.5347140468177
 30
0.0
 10
109.6091579587088
 20
-149.5347140468177
 30
0.0
 10
109.6091579587088
 20
-149.5347140468177
 30
0.0
  0
HATCH
  5
160
330
15B
100
AcDbEntity
  8
レイヤー 1
 62
    18
420
        0
440
 33554687
100
AcDbHatch
 10
0.0
 20
0.0
 30
0.0
210
0.0
220
0.0
230
1.0
  2
SOLID
 70
     1
 71
     1
 91
        1
 92
        1
 93
        1
 72
     4
 94
        3
 73
     0
 74
     0
 95
       26
 96
       22
 40
0.0
 40
0.0
 40
0.0
 40
0.0
 40
1.0
 40
1.0
 40
1.0
 40
2.0
 40
2.0
 40
2.0
 40
3.0
 40
3.0
 40
3.0
 40
4.0
 40
4.0
 40
4.0
 40
5.0
 40
5.0
 40
5.0
 40
6.0
 40
6.0
 40
6.0
 40
7.0
 40
7.0
 40
7.0
 40
7.0
 10
109.6091579587088
 20
-149.5347140468177
 10
109.6091579587088
 20
-149.5347140468177
 10
109.6091579587088
 20
-148.4303886890208
 10
109.6091579587088
 20
-148.4303886890208
 10
109.6091579587088
 20
-148.4303886890208
 10
109.2791178112219
 20
-148.4303886890208
 10
109.2791178112219
 20
-148.4303886890208
 10
109.2791178112219
 20
-148.4303886890208
 10
109.2791178112219
 20
-148.2822495831551
 10
109.2791178112219
 20
-148.2822495831551
 10
109.611225016
 20
-148.2676079273428
 10
109.6577338050508
 20
-148.1046549108905
 10
109.687361626224
 20
-147.9904499955545
 10
109.687361626224
 20
-147.9904499955545
 10
109.8334336747986
 20
-147.9904499955545
 10
109.8334336747986
 20
-147.9904499955545
 10
109.8334336747986
 20
-147.9904499955545
 10
109.8334336747986
 20
-149.5347140468177
 10
109.8334336747986
 20
-149.5347140468177
 10
109.8334336747986
 20
-149.5347140468177
 10
109.6091579587088
 20
-149.5347140468177
 10
109.6091579587088
 20
-149.5347140468177
 97
        0
 97
        1
330
15F
 75
     2
 76
     1
 98
        1
 10
0.0
 20
0.0
450
        0
451
        0
460
0.0
461
0.0
452
        0
462
0.0
453
        0
470

  0
ENDBLK
  5
15E
330
15B
100
AcDbEntity
  8
0
100
AcDbBlockEnd
  0
ENDSEC
  0
SECTION
  2
ENTITIES
  0
INSERT
  5
7A
330
70
100
AcDbEntity
  8
レイヤー 1
100
AcDbBlockReference
  2
Block_0
 10
0.0
 20
0.0
 30
0.0
  0
LWPOLYLINE
  5
A7
330
70
100
AcDbEntity
  8
レイヤー 1
 62
   250
420
  2299925
370
     9
100
AcDbPolyline
 90
        3
 70
     0
 43
0.0
 10
119.0936340765954
 20
-145.0139218084859
 10
125.2672450302046
 20
-153.1278106953463
 10
135.9094919809205
 20
-153.1278106953463
  0
LWPOLYLINE
  5
A8
330
70
100
AcDbEntity
  8
レイヤー 1
  6
AI-Linetype-0
 62
   154
420
    23468
370
    25
100
AcDbPolyline
 90
        6
 70
     0
 43
0.0
 10
80.56730371369601
 20
-145.1021162529083
 10
102.2360778400012
 20
-144.3379995864326
 10
102.2360778400012
 20
-152.6282773621382
 10
106.2293105159028
 20
-152.6282773621382
 10
106.2293105159028
 20
-144.3965606975291
 10
127.7807866327455
 20
-145.1610301417823
  0
LINE
  5
AA
330
70
100
AcDbEntity
  8
レイヤー 1
 62
    18
420
        0
370
    25
100
AcDbLine
 10
107.6776043678433
 20
-154.1575690284222
 30
0.0
 11
100.6778937130871
 21
-154.1575690284222
 31
0.0
  0
LINE
  5
AB
330
70
100
AcDbEntity
  8
レイヤー 1
 62
    18
420
        0
370
    25
100
AcDbLine
 10
80.67617093589113
 20
-145.6574943083251
 30
0.0
 11
80.67617093589113
 21
-146.1576979193109
 31
0.0
  0
LINE
  5
AC
330
70
100
AcDbEntity
  8
レイヤー 1
 62
    18
420
        0
370
    25
100
AcDbLine
 10
100.6778937130871
 20
-146.1576979193109
 30
0.0
 11
80.67617093589113
 21
-146.1576979193109
 31
0.0
  0
LINE
  5
AD
330
70
100
AcDbEntity
  8
レイヤー 1
 62
    18
420
        0
370
    25
100
AcDbLine
 10
80.67617093589113
 20
-145.6574943083251
 30
0.0
 11
81.19016815798497
 21
-146.0395526415628
 31
0.0
  0
LINE
  5
AE
330
70
100
AcDbEntity
  8
レイヤー 1
 62
    18
420
        0
370
    25
100
AcDbLine
 10
81.19016815798497
 20
-146.0395526415628
 30
0.0
 11
81.6755903800856
 21
-145.6220048638893
 31
0.0
  0
LINE
  5
AF
330
70
100
AcDbEntity
  8
レイヤー 1
 62
    18
420
        0
370
    25
100
AcDbLine
 10
82.18958760217942
 20
-146.0040631971273
 30
0.0
 11
82.67518621316925
 21
-145.586162641676
 31
0.0
  0
LINE
  5
B0
330
70
100
AcDbEntity
  8
レイヤー 1
 62
    18
420
        0
370
    25
100
AcDbLine
 10
81.6755903800856
 20
-145.6220048638893
 30
0.0
 11
82.18958760217942
 21
-146.0040631971273
 31
0.0
  0
LINE
  5
B1
330
70
100
AcDbEntity
  8
レイヤー 1
 62
    18
420
        0
370
    25
100
AcDbLine
 10
82.67518621316925
 20
-145.586162641676
 30
0.0
 11
83.18918343526277
 21
-145.968220974914
 31
0.0
  0
LINE
  5
B2
330
70
100
AcDbEntity
  8
レイヤー 1
 62
    18
420
        0
370
    25
100
AcDbLine
 10
83.18918343526277
 20
-145.968220974914
 30
0.0
 11
83.67425287958594
 21
-145.5506731972405
 31
0.0
  0
LINE
  5
B3
330
70
100
AcDbEntity
  8
レイヤー 1
 62
    18
420
        0
370
    25
100
AcDbLine
 10
83.67425287958594
 20
-145.5506731972405
 30
0.0
 11
84.18828537945763
 21
-145.9324140304783
 31
0.0
  0
LINE
  5
B4
330
70
100
AcDbEntity
  8
レイヤー 1
 62
    18
420
        0
370
    25
100
AcDbLine
 10
84.18828537945763
 20
-145.9324140304783
 30
0.0
 11
84.67402510155817
 21
-145.5148662528051
 31
0.0
  0
LINE
  5
B5
330
70
100
AcDbEntity
  8
レイヤー 1
 62
    18
420
        0
370
    25
100
AcDbLine
 10
84.67402510155817
 20
-145.5148662528051
 30
0.0
 11
85.18802232365233
 21
-145.8965718082651
 31
0.0
  0
LINE
  5
B6
330
70
100
AcDbEntity
  8
レイヤー 1
 62
    18
420
        0
370
    25
100
AcDbLine
 10
85.18802232365233
 20
-145.8965718082651
 30
0.0
 11
85.6730917679755
 21
-145.4790240305919
 31
0.0
  0
LINE
  5
B7
330
70
100
AcDbEntity
  8
レイヤー 1
 62
    18
420
        0
370
    25
100
AcDbLine
 10
85.6730917679755
 20
-145.4790240305919
 30
0.0
 11
86.18712426784655
 21
-145.8610823638296
 31
0.0
  0
LINE
  5
B8
330
70
100
AcDbEntity
  8
レイヤー 1
 62
    18
420
        0
370
    25
100
AcDbLine
 10
86.18712426784655
 20
-145.8610823638296
 30
0.0
 11
86.67286398994741
 21
-145.4435345861561
 31
0.0
  0
LINE
  5
B9
330
70
100
AcDbEntity
  8
レイヤー 1
 62
    18
420
        0
370
    25
100
AcDbLine
 10
86.67286398994741
 20
-145.4435345861561
 30
0.0
 11
87.18619093426324
 21
-145.8255929193941
 31
0.0
  0
LINE
  5
BA
330
70
100
AcDbEntity
  8
レイヤー 1
 62
    18
420
        0
370
    25
100
AcDbLine
 10
87.18619093426324
 20
-145.8255929193941
 30
0.0
 11
87.67196593414226
 21
-145.4077276417207
 31
0.0
  0
LINE
  5
BB
330
70
100
AcDbEntity
  8
レイヤー 1
 62
    18
420
        0
370
    25
100
AcDbLine
 10
88.18596315623578
 20
-145.7897859749587
 30
0.0
 11
88.67103260055896
 21
-145.3722381972852
 31
0.0
  0
LINE
  5
BC
330
70
100
AcDbEntity
  8
レイヤー 1
 62
    18
420
        0
370
    25
100
AcDbLine
 10
87.67196593414226
 20
-145.4077276417207
 30
0.0
 11
88.18596315623578
 21
-145.7897859749587
 31
0.0
  0
LINE
  5
BD
330
70
100
AcDbEntity
  8
レイヤー 1
 62
    18
420
        0
370
    25
100
AcDbLine
 10
88.67103260055896
 20
-145.3722381972852
 30
0.0
 11
89.1850298226528
 21
-145.7539437527458
 31
0.0
  0
LINE
  5
BE
330
70
100
AcDbEntity
  8
レイヤー 1
 62
    18
420
        0
370
    25
100
AcDbLine
 10
89.1850298226528
 20
-145.7539437527458
 30
0.0
 11
89.67080482253118
 21
-145.3363959750719
 31
0.0
  0
LINE
  5
BF
330
70
100
AcDbEntity
  8
レイヤー 1
 62
    18
420
        0
370
    25
100
AcDbLine
 10
90.1848020446247
 20
-145.7181015305322
 30
0.0
 11
90.66987148894789
 21
-145.3005537528587
 31
0.0
  0
LINE
  5
C0
330
70
100
AcDbEntity
  8
レイヤー 1
 62
    18
420
        0
370
    25
100
AcDbLine
 10
89.67080482253118
 20
-145.3363959750719
 30
0.0
 11
90.1848020446247
 21
-145.7181015305322
 31
0.0
  0
LINE
  5
C1
330
70
100
AcDbEntity
  8
レイヤー 1
 62
    18
420
        0
370
    25
100
AcDbLine
 10
91.18386871104204
 20
-145.6826473638742
 30
0.0
 11
91.66964371092042
 21
-145.2650995862007
 31
0.0
  0
LINE
  5
C2
330
70
100
AcDbEntity
  8
レイヤー 1
 62
    18
420
        0
370
    25
100
AcDbLine
 10
90.66987148894789
 20
-145.3005537528587
 30
0.0
 11
91.18386871104204
 21
-145.6826473638742
 31
0.0
  0
LINE
  5
C3
330
70
100
AcDbEntity
  8
レイヤー 1
 62
    18
420
        0
370
    25
100
AcDbLine
 10
91.66964371092042
 20
-145.2650995862007
 30
0.0
 11
92.18364093301426
 21
-145.6471579194387
 31
0.0
  0
LINE
  5
C4
330
70
100
AcDbEntity
  8
レイヤー 1
 62
    18
420
        0
370
    25
100
AcDbLine
 10
92.18364093301426
 20
-145.6471579194387
 30
0.0
 11
92.66871037733745
 21
-145.2292573639875
 31
0.0
  0
LINE
  5
C5
330
70
100
AcDbEntity
  8
レイヤー 1
 62
    18
420
        0
370
    25
100
AcDbLine
 10
92.66871037733745
 20
-145.2292573639875
 30
0.0
 11
93.18274195985992
 21
-145.6113156972255
 31
0.0
  0
LINE
  5
C6
330
70
100
AcDbEntity
  8
レイヤー 1
 62
    18
420
        0
370
    25
100
AcDbLine
 10
93.18274195985992
 20
-145.6113156972255
 30
0.0
 11
93.66781139192921
 21
-145.193767919552
 31
0.0
  0
LINE
  5
C7
330
70
100
AcDbEntity
  8
レイヤー 1
 62
    18
420
        0
370
    25
100
AcDbLine
 10
93.66781139192921
 20
-145.193767919552
 30
0.0
 11
94.18180860103827
 21
-145.5754734750122
 31
0.0
  0
LINE
  5
C8
330
70
100
AcDbEntity
  8
レイヤー 1
 62
    18
420
        0
370
    25
100
AcDbLine
 10
94.18180860103827
 20
-145.5754734750122
 30
0.0
 11
94.66754926572667
 21
-145.1579256973387
 31
0.0
  0
LINE
  5
C9
330
70
100
AcDbEntity
  8
レイヤー 1
 62
    18
420
        0
370
    25
100
AcDbLine
 10
94.66754926572667
 20
-145.1579256973387
 30
0.0
 11
95.18158079775417
 21
-145.5396665305765
 31
0.0
  0
LINE
  5
CA
330
70
100
AcDbEntity
  8
レイヤー 1
 62
    18
420
        0
370
    25
100
AcDbLine
 10
95.18158079775417
 20
-145.5396665305765
 30
0.0
 11
95.66665022982347
 21
-145.1221187529033
 31
0.0
  0
LINE
  5
CB
330
70
100
AcDbEntity
  8
レイヤー 1
 62
    18
420
        0
370
    25
100
AcDbLine
 10
95.66665022982347
 20
-145.1221187529033
 30
0.0
 11
96.18064743893254
 21
-145.504177086141
 31
0.0
  0
LINE
  5
CC
330
70
100
AcDbEntity
  8
レイヤー 1
 62
    18
420
        0
370
    25
100
AcDbLine
 10
96.18064743893254
 20
-145.504177086141
 30
0.0
 11
96.66642242653939
 21
-145.0866293084675
 31
0.0
  0
LINE
  5
CD
330
70
100
AcDbEntity
  8
レイヤー 1
 62
    18
420
        0
370
    25
100
AcDbLine
 10
96.66642242653939
 20
-145.0866293084675
 30
0.0
 11
97.18041963564845
 21
-145.4686876417055
 31
0.0
  0
LINE
  5
CE
330
70
100
AcDbEntity
  8
レイヤー 1
 62
    18
420
        0
370
    25
100
AcDbLine
 10
97.18041963564845
 20
-145.4686876417055
 30
0.0
 11
97.66548906771774
 21
-145.0507870862543
 31
0.0
  0
LINE
  5
CF
330
70
100
AcDbEntity
  8
レイヤー 1
 62
    18
420
        0
370
    25
100
AcDbLine
 10
97.66548906771774
 20
-145.0507870862543
 30
0.0
 11
98.17948627682712
 21
-145.4328454194923
 31
0.0
  0
LINE
  5
D0
330
70
100
AcDbEntity
  8
レイヤー 1
 62
    18
420
        0
370
    25
100
AcDbLine
 10
98.17948627682712
 20
-145.4328454194923
 30
0.0
 11
98.66526126443396
 21
-145.0152976418188
 31
0.0
  0
LINE
  5
D1
330
70
100
AcDbEntity
  8
レイヤー 1
 62
    18
420
        0
370
    25
100
AcDbLine
 10
98.66526126443396
 20
-145.0152976418188
 30
0.0
 11
99.1792584735427
 21
-145.3970384750569
 31
0.0
  0
LINE
  5
D2
330
70
100
AcDbEntity
  8
レイヤー 1
 62
    18
420
        0
370
    25
100
AcDbLine
 10
99.1792584735427
 20
-145.3970384750569
 30
0.0
 11
99.66432790561199
 21
-144.9794906973834
 31
0.0
  0
LINE
  5
D3
330
70
100
AcDbEntity
  8
レイヤー 1
 62
    18
420
        0
370
    25
100
AcDbLine
 10
99.66432790561199
 20
-144.9794906973834
 30
0.0
 11
100.178325114721
 21
-145.3611962528433
 31
0.0
  0
LINE
  5
D4
330
70
100
AcDbEntity
  8
レイヤー 1
 62
    18
420
        0
370
    25
100
AcDbLine
 10
100.178325114721
 20
-145.3611962528433
 30
0.0
 11
100.6641001023279
 21
-144.9436484751701
 31
0.0
  0
LINE
  5
D5
330
70
100
AcDbEntity
  8
レイヤー 1
 62
    18
420
        0
370
    25
100
AcDbLine
 10
100.7242134341276
 20
-144.89542375296
 30
0.0
 11
101.6776306320261
 21
-144.89542375296
 31
0.0
  0
LINE
  5
D6
330
70
100
AcDbEntity
  8
レイヤー 1
 62
    18
420
        0
370
    25
100
AcDbLine
 10
101.6776306320261
 20
-144.89542375296
 30
0.0
 11
101.6776306320261
 21
-153.1574440286725
 31
0.0
  0
LINE
  5
D7
330
70
100
AcDbEntity
  8
レイヤー 1
 62
    18
420
        0
370
    25
100
AcDbLine
 10
100.6778937130871
 20
-146.1576979193109
 30
0.0
 11
100.6778937130871
 21
-154.1575690284222
 31
0.0
  0
LINE
  5
D8
330
70
100
AcDbEntity
  8
レイヤー 1
 62
    18
420
        0
370
    25
100
AcDbLine
 10
106.6778687071689
 20
-153.1574440286725
 30
0.0
 11
101.6776306320261
 21
-153.1574440286725
 31
0.0
  0
LINE
  5
D9
330
70
100
AcDbEntity
  8
レイヤー 1
 62
    18
420
        0
370
    25
100
AcDbLine
 10
117.6849218903124
 20
-145.3005537528587
 30
0.0
 11
117.1716302367409
 21
-145.6826473638742
 31
0.0
  0
LINE
  5
DA
330
70
100
AcDbEntity
  8
レイヤー 1
 62
    18
420
        0
370
    25
100
AcDbLine
 10
122.6824070405937
 20
-145.4790240305919
 30
0.0
 11
122.1683745537078
 21
-145.8610823638296
 31
0.0
  0
LINE
  5
DB
330
70
100
AcDbEntity
  8
レイヤー 1
 62
    18
420
        0
370
    25
100
AcDbLine
 10
118.1706968779193
 20
-145.7181015305322
 30
0.0
 11
117.6849218903124
 21
-145.3005537528587
 31
0.0
  0
LINE
  5
DC
330
70
100
AcDbEntity
  8
レイヤー 1
 62
    18
420
        0
370
    25
100
AcDbLine
 10
119.1697635190983
 20
-145.7539437527458
 30
0.0
 11
118.6846940870283
 21
-145.3363959750719
 31
0.0
  0
LINE
  5
DD
330
70
100
AcDbEntity
  8
レイヤー 1
 62
    18
420
        0
370
    25
100
AcDbLine
 10
117.1716302367409
 20
-145.6826473638742
 30
0.0
 11
116.6858552491341
 21
-145.2650995862007
 31
0.0
  0
LINE
  5
DE
330
70
100
AcDbEntity
  8
レイヤー 1
 62
    18
420
        0
370
    25
100
AcDbLine
 10
118.6846940870283
 20
-145.3363959750719
 30
0.0
 11
118.1706968779193
 21
-145.7181015305322
 31
0.0
  0
LINE
  5
DF
330
70
100
AcDbEntity
  8
レイヤー 1
 62
    18
420
        0
370
    25
100
AcDbLine
 10
126.6793791608447
 20
-145.6220048638893
 30
0.0
 11
126.1653819517357
 21
-146.0040631971273
 31
0.0
  0
LINE
  5
E0
330
70
100
AcDbEntity
  8
レイヤー 1
 62
    18
420
        0
370
    25
100
AcDbLine
 10
119.6837960059836
 20
-145.3722381972852
 30
0.0
 11
119.1697635190983
 21
-145.7539437527458
 31
0.0
  0
LINE
  5
E1
330
70
100
AcDbEntity
  8
レイヤー 1
 62
    18
420
        0
370
    25
100
AcDbLine
 10
120.6835329249226
 20
-145.4077276417207
 30
0.0
 11
120.1695357158136
 21
-145.7897859749587
 31
0.0
  0
LINE
  5
E2
330
70
100
AcDbEntity
  8
レイヤー 1
 62
    18
420
        0
370
    25
100
AcDbLine
 10
106.6778687071689
 20
-144.89542375296
 30
0.0
 11
106.6778687071689
 21
-153.1574440286725
 31
0.0
  0
LINE
  5
E3
330
70
100
AcDbEntity
  8
レイヤー 1
 62
    18
420
        0
370
    25
100
AcDbLine
 10
120.1695357158136
 20
-145.7897859749587
 30
0.0
 11
119.6837960059836
 21
-145.3722381972852
 31
0.0
  0
LINE
  5
E4
330
70
100
AcDbEntity
  8
レイヤー 1
 62
    18
420
        0
370
    25
100
AcDbLine
 10
121.1686023569919
 20
-145.8255929193941
 30
0.0
 11
120.6835329249226
 21
-145.4077276417207
 31
0.0
  0
LINE
  5
E5
330
70
100
AcDbEntity
  8
レイヤー 1
 62
    18
420
        0
370
    25
100
AcDbLine
 10
126.1653819517357
 20
-146.0040631971273
 30
0.0
 11
125.6803125196664
 21
-145.586162641676
 31
0.0
  0
LINE
  5
E6
330
70
100
AcDbEntity
  8
レイヤー 1
 62
    18
420
        0
370
    25
100
AcDbLine
 10
121.6826348438778
 20
-145.4435345861561
 30
0.0
 11
121.1686023569919
 21
-145.8255929193941
 31
0.0
  0
LINE
  5
E7
330
70
100
AcDbEntity
  8
レイヤー 1
 62
    18
420
        0
370
    25
100
AcDbLine
 10
122.1683745537078
 20
-145.8610823638296
 30
0.0
 11
121.6826348438778
 21
-145.4435345861561
 31
0.0
  0
LINE
  5
E8
330
70
100
AcDbEntity
  8
レイヤー 1
 62
    18
420
        0
370
    25
100
AcDbLine
 10
127.1651541484516
 20
-146.0395526415628
 30
0.0
 11
126.6793791608447
 21
-145.6220048638893
 31
0.0
  0
LINE
  5
E9
330
70
100
AcDbEntity
  8
レイヤー 1
 62
    18
420
        0
370
    25
100
AcDbLine
 10
123.6814736817721
 20
-145.5148662528051
 30
0.0
 11
123.167476472663
 21
-145.8965718082651
 31
0.0
  0
LINE
  5
EA
330
70
100
AcDbEntity
  8
レイヤー 1
 62
    18
420
        0
370
    25
100
AcDbLine
 10
124.6805403229505
 20
-145.5506731972405
 30
0.0
 11
124.1665431138414
 21
-145.9324140304783
 31
0.0
  0
LINE
  5
EB
330
70
100
AcDbEntity
  8
レイヤー 1
 62
    18
420
        0
370
    25
100
AcDbLine
 10
124.1665431138414
 20
-145.9324140304783
 30
0.0
 11
123.6814736817721
 21
-145.5148662528051
 31
0.0
  0
LINE
  5
EC
330
70
100
AcDbEntity
  8
レイヤー 1
 62
    18
420
        0
370
    25
100
AcDbLine
 10
127.6791513575606
 20
-145.6574943083251
 30
0.0
 11
127.1651541484516
 21
-146.0395526415628
 31
0.0
  0
LINE
  5
ED
330
70
100
AcDbEntity
  8
レイヤー 1
 62
    18
420
        0
370
    25
100
AcDbLine
 10
123.167476472663
 20
-145.8965718082651
 30
0.0
 11
122.6824070405937
 21
-145.4790240305919
 31
0.0
  0
LINE
  5
EE
330
70
100
AcDbEntity
  8
レイヤー 1
 62
    18
420
        0
370
    25
100
AcDbLine
 10
125.6803125196664
 20
-145.586162641676
 30
0.0
 11
125.1663153105573
 21
-145.968220974914
 31
0.0
  0
LINE
  5
EF
330
70
100
AcDbEntity
  8
レイヤー 1
 62
    18
420
        0
370
    25
100
AcDbLine
 10
125.1663153105573
 20
-145.968220974914
 30
0.0
 11
124.6805403229505
 21
-145.5506731972405
 31
0.0
  0
LINE
  5
F0
330
70
100
AcDbEntity
  8
レイヤー 1
 62
    18
420
        0
370
    25
100
AcDbLine
 10
127.6791513575606
 20
-145.6574943083251
 30
0.0
 11
127.6791513575606
 21
-146.1576979193109
 31
0.0
  0
LINE
  5
F1
330
70
100
AcDbEntity
  8
レイヤー 1
 62
    18
420
        0
370
    25
100
AcDbLine
 10
107.6776043678433
 20
-146.1576979193109
 30
0.0
 11
127.6791513575606
 21
-146.1576979193109
 31
0.0
  0
LINE
  5
F2
330
70
100
AcDbEntity
  8
レイヤー 1
 62
    18
420
        0
370
    25
100
AcDbLine
 10
116.6858552491341
 20
-145.2650995862007
 30
0.0
 11
116.171858040025
 21
-145.6471579194387
 31
0.0
  0
LINE
  5
F3
330
70
100
AcDbEntity
  8
レイヤー 1
 62
    18
420
        0
370
    25
100
AcDbLine
 10
116.171858040025
 20
-145.6471579194387
 30
0.0
 11
115.6867886079557
 21
-145.2292573639875
 31
0.0
  0
LINE
  5
F4
330
70
100
AcDbEntity
  8
レイヤー 1
 62
    18
420
        0
370
    25
100
AcDbLine
 10
115.6867886079557
 20
-145.2292573639875
 30
0.0
 11
115.1727575939334
 21
-145.6113156972255
 31
0.0
  0
LINE
  5
F5
330
70
100
AcDbEntity
  8
レイヤー 1
 62
    18
420
        0
370
    25
100
AcDbLine
 10
115.1727575939334
 20
-145.6113156972255
 30
0.0
 11
114.6870164112398
 21
-145.193767919552
 31
0.0
  0
LINE
  5
F6
330
70
100
AcDbEntity
  8
レイヤー 1
 62
    18
420
        0
370
    25
100
AcDbLine
 10
114.6870164112398
 20
-145.193767919552
 30
0.0
 11
114.1730192021308
 21
-145.5754734750122
 31
0.0
  0
LINE
  5
F7
330
70
100
AcDbEntity
  8
レイヤー 1
 62
    18
420
        0
370
    25
100
AcDbLine
 10
114.1730192021308
 20
-145.5754734750122
 30
0.0
 11
113.6879497700615
 21
-145.1579256973387
 31
0.0
  0
LINE
  5
F8
330
70
100
AcDbEntity
  8
レイヤー 1
 62
    18
420
        0
370
    25
100
AcDbLine
 10
113.6879497700615
 20
-145.1579256973387
 30
0.0
 11
113.1739187055444
 21
-145.5396665305765
 31
0.0
  0
LINE
  5
F9
330
70
100
AcDbEntity
  8
レイヤー 1
 62
    18
420
        0
370
    25
100
AcDbLine
 10
113.1739187055444
 20
-145.5396665305765
 30
0.0
 11
112.6881775733462
 21
-145.1221187529033
 31
0.0
  0
LINE
  5
FA
330
70
100
AcDbEntity
  8
レイヤー 1
 62
    18
420
        0
370
    25
100
AcDbLine
 10
112.6881775733462
 20
-145.1221187529033
 30
0.0
 11
112.1741464835719
 21
-145.504177086141
 31
0.0
  0
LINE
  5
FB
330
70
100
AcDbEntity
  8
レイヤー 1
 62
    18
420
        0
370
    25
100
AcDbLine
 10
112.1741464835719
 20
-145.504177086141
 30
0.0
 11
111.6890770392487
 21
-145.0866293084675
 31
0.0
  0
LINE
  5
FC
330
70
100
AcDbEntity
  8
レイヤー 1
 62
    18
420
        0
370
    25
100
AcDbLine
 10
111.6890770392487
 20
-145.0866293084675
 30
0.0
 11
111.1750798171555
 21
-145.4686876417055
 31
0.0
  0
LINE
  5
FD
330
70
100
AcDbEntity
  8
レイヤー 1
 62
    18
420
        0
370
    25
100
AcDbLine
 10
111.1750798171555
 20
-145.4686876417055
 30
0.0
 11
110.6900103728323
 21
-145.0507870862543
 31
0.0
  0
LINE
  5
FE
330
70
100
AcDbEntity
  8
レイヤー 1
 62
    18
420
        0
370
    25
100
AcDbLine
 10
110.6900103728323
 20
-145.0507870862543
 30
0.0
 11
110.1760131507379
 21
-145.4328454194923
 31
0.0
  0
LINE
  5
FF
330
70
100
AcDbEntity
  8
レイヤー 1
 62
    18
420
        0
370
    25
100
AcDbLine
 10
110.1760131507379
 20
-145.4328454194923
 30
0.0
 11
109.6902381508598
 21
-145.0152976418188
 31
0.0
  0
LINE
  5
100
330
70
100
AcDbEntity
  8
レイヤー 1
 62
    18
420
        0
370
    25
100
AcDbLine
 10
109.6902381508598
 20
-145.0152976418188
 30
0.0
 11
109.176240928766
 21
-145.3970384750569
 31
0.0
  0
LINE
  5
101
330
70
100
AcDbEntity
  8
レイヤー 1
 62
    18
420
        0
370
    25
100
AcDbLine
 10
109.176240928766
 20
-145.3970384750569
 30
0.0
 11
108.6911714844428
 21
-144.9794906973834
 31
0.0
  0
LINE
  5
102
330
70
100
AcDbEntity
  8
レイヤー 1
 62
    18
420
        0
370
    25
100
AcDbLine
 10
108.6911714844428
 20
-144.9794906973834
 30
0.0
 11
108.1771742623496
 21
-145.3611962528433
 31
0.0
  0
LINE
  5
103
330
70
100
AcDbEntity
  8
レイヤー 1
 62
    18
420
        0
370
    25
100
AcDbLine
 10
108.1771742623496
 20
-145.3611962528433
 30
0.0
 11
107.6913992624709
 21
-144.9436484751701
 31
0.0
  0
LINE
  5
104
330
70
100
AcDbEntity
  8
レイヤー 1
 62
    18
420
        0
370
    25
100
AcDbLine
 10
107.6254298180423
 20
-144.89542375296
 30
0.0
 11
106.6778687071689
 21
-144.89542375296
 31
0.0
  0
LINE
  5
105
330
70
100
AcDbEntity
  8
レイヤー 1
 62
    18
420
        0
370
    25
100
AcDbLine
 10
107.6776043678433
 20
-146.1576979193109
 30
0.0
 11
107.6776043678433
 21
-154.1575690284222
 31
0.0
  0
SPLINE
  5
106
330
70
100
AcDbEntity
  8
レイヤー 1
 62
    18
420
        0
370
     9
100
AcDbSpline
210
0.0
220
0.0
230
1.0
 70
     9
 71
     3
 72
    17
 73
    13
 74
     0
 42
0.0000000001
 43
0.0000000001
 40
0.0
 40
0.0
 40
0.0
 40
0.0
 40
1.0
 40
1.0
 40
1.0
 40
2.0
 40
2.0
 40
2.0
 40
3.0
 40
3.0
 40
3.0
 40
4.0
 40
4.0
 40
4.0
 40
4.0
 10
80.77607760253309
 20
-140.8956645872931
 30
0.0
 10
80.77607760253309
 20
-140.8402079206404
 30
0.0
 10
80.73127482476637
 20
-140.7954051428737
 30
0.0
 10
80.67617093589113
 20
-140.7954051428737
 30
0.0
 10
80.62103176923839
 20
-140.7954051428737
 30
0.0
 10
80.57626426924949
 20
-140.8402079206404
 30
0.0
 10
80.57626426924949
 20
-140.8956645872931
 30
0.0
 10
80.57626426924949
 20
-140.9508037539461
 30
0.0
 10
80.62103176923839
 20
-140.9955712539347
 30
0.0
 10
80.67617093589113
 20
-140.9955712539347
 30
0.0
 10
80.73127482476637
 20
-140.9955712539347
 30
0.0
 10
80.77607760253309
 20
-140.9508037539461
 30
0.0
 10
80.77607760253309
 20
-140.8956645872931
 30
0.0
  0
CIRCLE
  5
107
330
70
100
AcDbEntity
  8
レイヤー 1
 62
    18
420
        0
370
     9
100
AcDbCircle
 10
76.67641177022433
 20
-145.657494308325
 30
0.0
 40
0.0999066666417981
  0
CIRCLE
  5
108
330
70
100
AcDbEntity
  8
レイヤー 1
 62
    18
420
        0
370
     9
100
AcDbCircle
 10
76.67641177022433
 20
-146.1576979193109
 30
0.0
 40
0.0999066666416778
  0
CIRCLE
  5
109
330
70
100
AcDbEntity
  8
レイヤー 1
 62
    18
420
        0
370
     9
100
AcDbCircle
 10
76.67641177022433
 20
-154.1575690284222
 30
0.0
 40
0.0999066666416778
  0
SPLINE
  5
10A
330
70
100
AcDbEntity
  8
レイヤー 1
 62
    18
420
        0
370
     9
100
AcDbSpline
210
0.0
220
0.0
230
1.0
 70
     9
 71
     3
 72
    17
 73
    13
 74
     0
 42
0.0000000001
 43
0.0000000001
 40
0.0
 40
0.0
 40
0.0
 40
0.0
 40
1.0
 40
1.0
 40
1.0
 40
2.0
 40
2.0
 40
2.0
 40
3.0
 40
3.0
 40
3.0
 40
4.0
 40
4.0
 40
4.0
 40
4.0
 10
101.777537296144
 20
-140.8956645872931
 30
0.0
 10
101.777537296144
 20
-140.8402079206404
 30
0.0
 10
101.7327697972861
 20
-140.7954051428737
 30
0.0
 10
101.6776306320261
 20
-140.7954051428737
 30
0.0
 10
101.622526744543
 20
-140.7954051428737
 30
0.0
 10
101.5777239679086
 20
-140.8402079206404
 30
0.0
 10
101.5777239679086
 20
-140.8956645872931
 30
0.0
 10
101.5777239679086
 20
-140.9508037539461
 30
0.0
 10
101.622526744543
 20
-140.9955712539347
 30
0.0
 10
101.6776306320261
 20
-140.9955712539347
 30
0.0
 10
101.7327697972861
 20
-140.9955712539347
 30
0.0
 10
101.777537296144
 20
-140.9508037539461
 30
0.0
 10
101.777537296144
 20
-140.8956645872931
 30
0.0
  0
SPLINE
  5
10B
330
70
100
AcDbEntity
  8
レイヤー 1
 62
    18
420
        0
370
     9
100
AcDbSpline
210
0.0
220
0.0
230
1.0
 70
     9
 71
     3
 72
    17
 73
    13
 74
     0
 42
0.0000000001
 43
0.0000000001
 40
0.0
 40
0.0
 40
0.0
 40
0.0
 40
1.0
 40
1.0
 40
1.0
 40
2.0
 40
2.0
 40
2.0
 40
3.0
 40
3.0
 40
3.0
 40
4.0
 40
4.0
 40
4.0
 40
4.0
 10
127.8789646857963
 20
-140.8956645872931
 30
0.0
 10
127.8789646857963
 20
-140.8402079206404
 30
0.0
 10
127.8341971869384
 20
-140.7954051428737
 30
0.0
 10
127.7790580216785
 20
-140.7954051428737
 30
0.0
 10
127.7232485786585
 20
-140.7954051428737
 30
0.0
 10
127.6784810797999
 20
-140.8402079206404
 30
0.0
 10
127.6784810797999
 20
-140.8956645872931
 30
0.0
 10
127.6784810797999
 20
-140.9508037539461
 30
0.0
 10
127.7232485786585
 20
-140.9955712539347
 30
0.0
 10
127.7790580216785
 20
-140.9955712539347
 30
0.0
 10
127.8341971869384
 20
-140.9955712539347
 30
0.0
 10
127.8789646857963
 20
-140.9508037539461
 30
0.0
 10
127.8789646857963
 20
-140.8956645872931
 30
0.0
  0
SPLINE
  5
10C
330
70
100
AcDbEntity
  8
レイヤー 1
 62
    18
420
        0
370
     9
100
AcDbSpline
210
0.0
220
0.0
230
1.0
 70
     9
 71
     3
 72
    17
 73
    13
 74
     0
 42
0.0000000001
 43
0.0000000001
 40
0.0
 40
0.0
 40
0.0
 40
0.0
 40
1.0
 40
1.0
 40
1.0
 40
2.0
 40
2.0
 40
2.0
 40
3.0
 40
3.0
 40
3.0
 40
4.0
 40
4.0
 40
4.0
 40
4.0
 10
106.8776807771393
 20
-140.8956645872931
 30
0.0
 10
106.8776807771393
 20
-140.8402079206404
 30
0.0
 10
106.8328780005045
 20
-140.7954051428737
 30
0.0
 10
106.7777741130214
 20
-140.7954051428737
 30
0.0
 10
106.7226349477615
 20
-140.7954051428737
 30
0.0
 10
106.6778687071689
 20
-140.8402079206404
 30
0.0
 10
106.6778687071689
 20
-140.8956645872931
 30
0.0
 10
106.6778687071689
 20
-140.9508037539461
 30
0.0
 10
106.7226349477615
 20
-140.9955712539347
 30
0.0
 10
106.7777741130214
 20
-140.9955712539347
 30
0.0
 10
106.8328780005045
 20
-140.9955712539347
 30
0.0
 10
106.8776807771393
 20
-140.9508037539461
 30
0.0
 10
106.8776807771393
 20
-140.8956645872931
 30
0.0
  0
LINE
  5
10D
330
70
100
AcDbEntity
  8
レイヤー 1
 62
    18
420
        0
370
     9
100
AcDbLine
 10
76.67641177022424
 20
-145.6574943083251
 30
0.0
 11
76.67641177022424
 21
-140.3995884763062
 31
0.0
  0
LINE
  5
10E
330
70
100
AcDbEntity
  8
レイヤー 1
 62
    18
420
        0
370
     9
100
AcDbLine
 10
76.67641177022424
 20
-145.6574943083251
 30
0.0
 11
76.67641177022424
 21
-146.1576979193109
 31
0.0
  0
LINE
  5
10F
330
70
100
AcDbEntity
  8
レイヤー 1
 62
    18
420
        0
370
     9
100
AcDbLine
 10
78.13645315874828
 20
-145.6574943083251
 30
0.0
 11
75.67628677047427
 21
-145.6574943083251
 31
0.0
  0
LINE
  5
110
330
70
100
AcDbEntity
  8
レイヤー 1
 62
    18
420
        0
370
     9
100
AcDbLine
 10
78.13645315874828
 20
-146.1576979193109
 30
0.0
 11
75.67628677047427
 21
-146.1576979193109
 31
0.0
  0
INSERT
  5
112
330
70
100
AcDbEntity
  8
レイヤー 1
100
AcDbBlockReference
  2
Block_2
 10
0.0
 20
0.0
 30
0.0
  0
LINE
  5
120
330
70
100
AcDbEntity
  8
レイヤー 1
 62
    18
420
        0
370
     9
100
AcDbLine
 10
80.67617093589113
 20
-140.8956645872931
 30
0.0
 11
101.6776306320261
 21
-140.8956645872931
 31
0.0
  0
LINE
  5
121
330
70
100
AcDbEntity
  8
レイヤー 1
 62
    18
420
        0
370
     9
100
AcDbLine
 10
80.67617093589113
 20
-143.1177412534044
 30
0.0
 11
80.67617093589113
 21
-139.8955748653209
 31
0.0
  0
INSERT
  5
123
330
70
100
AcDbEntity
  8
レイヤー 1
100
AcDbBlockReference
  2
Block_4
 10
0.0
 20
0.0
 30
0.0
  0
LINE
  5
12E
330
70
100
AcDbEntity
  8
レイヤー 1
 62
    18
420
        0
370
     9
100
AcDbLine
 10
76.67641177022424
 20
-146.1576979193109
 30
0.0
 11
76.67641177022424
 21
-154.1575690284222
 31
0.0
  0
LINE
  5
12F
330
70
100
AcDbEntity
  8
レイヤー 1
 62
    18
420
        0
370
     9
100
AcDbLine
 10
98.13814072232606
 20
-154.1575690284222
 30
0.0
 11
75.67628677047427
 21
-154.1575690284222
 31
0.0
  0
INSERT
  5
131
330
70
100
AcDbEntity
  8
レイヤー 1
100
AcDbBlockReference
  2
Block_6
 10
0.0
 20
0.0
 30
0.0
  0
LINE
  5
138
330
70
100
AcDbEntity
  8
レイヤー 1
 62
    18
420
        0
370
     9
100
AcDbLine
 10
127.7790580216785
 20
-140.8956645872931
 30
0.0
 11
106.7777741130214
 21
-140.8956645872931
 31
0.0
  0
LINE
  5
139
330
70
100
AcDbEntity
  8
レイヤー 1
 62
    18
420
        0
370
     9
100
AcDbLine
 10
127.7790580216785
 20
-143.1177412534044
 30
0.0
 11
127.7790580216785
 21
-139.8955748653209
 31
0.0
  0
INSERT
  5
13B
330
70
100
AcDbEntity
  8
レイヤー 1
100
AcDbBlockReference
  2
Block_7
 10
0.0
 20
0.0
 30
0.0
  0
LINE
  5
146
330
70
100
AcDbEntity
  8
レイヤー 1
 62
    18
420
        0
370
     9
100
AcDbLine
 10
101.6776306320261
 20
-140.8956645872931
 30
0.0
 11
106.6778687071689
 21
-140.8956645872931
 31
0.0
  0
LINE
  5
147
330
70
100
AcDbEntity
  8
レイヤー 1
 62
    18
420
        0
370
     9
100
AcDbLine
 10
101.6776306320261
 20
-142.3557059758171
 30
0.0
 11
101.6776306320261
 21
-139.8955748653209
 31
0.0
  0
LINE
  5
148
330
70
100
AcDbEntity
  8
レイヤー 1
 62
    18
420
        0
370
     9
100
AcDbLine
 10
106.7777741130214
 20
-142.3557059758171
 30
0.0
 11
106.7777741130214
 21
-139.8955748653209
 31
0.0
  0
INSERT
  5
14A
330
70
100
AcDbEntity
  8
レイヤー 1
100
AcDbBlockReference
  2
Block_9
 10
0.0
 20
0.0
 30
0.0
  0
SPLINE
  5
14F
330
70
100
AcDbEntity
  8
レイヤー 1
 62
    18
420
        0
370
     9
100
AcDbSpline
210
0.0
220
0.0
230
1.0
 70
     9
 71
     3
 72
    17
 73
    13
 74
     0
 42
0.0000000001
 43
0.0000000001
 40
0.0
 40
0.0
 40
0.0
 40
0.0
 40
1.0
 40
1.0
 40
1.0
 40
2.0
 40
2.0
 40
2.0
 40
3.0
 40
3.0
 40
3.0
 40
4.0
 40
4.0
 40
4.0
 40
4.0
 10
100.9617387058456
 20
-158.2709931940608
 30
0.0
 10
100.9617387058456
 20
-158.2158893051852
 30
0.0
 10
100.905929262825
 20
-158.1710865274185
 30
0.0
 10
100.8377373201202
 20
-158.1710865274185
 30
0.0
 10
100.768840930868
 20
-158.1710865274185
 30
0.0
 10
100.7137006566183
 20
-158.2158893051852
 30
0.0
 10
100.7137006566183
 20
-158.2709931940608
 30
0.0
 10
100.7137006566183
 20
-158.3261323607132
 30
0.0
 10
100.768840930868
 20
-158.3708998607018
 30
0.0
 10
100.8377373201202
 20
-158.3708998607018
 30
0.0
 10
100.905929262825
 20
-158.3708998607018
 30
0.0
 10
100.9617387058456
 20
-158.3261323607132
 30
0.0
 10
100.9617387058456
 20
-158.2709931940608
 30
0.0
  0
SPLINE
  5
150
330
70
100
AcDbEntity
  8
レイヤー 1
 62
    18
420
        0
370
     9
100
AcDbSpline
210
0.0
220
0.0
230
1.0
 70
     9
 71
     3
 72
    17
 73
    13
 74
     0
 42
0.0000000001
 43
0.0000000001
 40
0.0
 40
0.0
 40
0.0
 40
0.0
 40
1.0
 40
1.0
 40
1.0
 40
2.0
 40
2.0
 40
2.0
 40
3.0
 40
3.0
 40
3.0
 40
4.0
 40
4.0
 40
4.0
 40
4.0
 10
107.9621901939155
 20
-158.2709931940608
 30
0.0
 10
107.9621901939155
 20
-158.2158893051852
 30
0.0
 10
107.9063807508949
 20
-158.1710865274185
 30
0.0
 10
107.8374832526526
 20
-158.1710865274185
 30
0.0
 10
107.7685857544104
 20
-158.1710865274185
 30
0.0
 10
107.7134465891504
 20
-158.2158893051852
 30
0.0
 10
107.7134465891504
 20
-158.2709931940608
 30
0.0
 10
107.7134465891504
 20
-158.3261323607132
 30
0.0
 10
107.7685857544104
 20
-158.3708998607018
 30
0.0
 10
107.8374832526526
 20
-158.3708998607018
 30
0.0
 10
107.9063807508949
 20
-158.3708998607018
 30
0.0
 10
107.9621901939155
 20
-158.3261323607132
 30
0.0
 10
107.9621901939155
 20
-158.2709931940608
 30
0.0
  0
LINE
  5
151
330
70
100
AcDbEntity
  8
レイヤー 1
 62
    18
420
        0
370
     9
100
AcDbLine
 10
107.8374832526526
 20
-158.2709931940608
 30
0.0
 11
100.8377373201202
 21
-158.2709931940608
 31
0.0
  0
LINE
  5
152
330
70
100
AcDbEntity
  8
レイヤー 1
 62
    18
420
        0
370
     9
100
AcDbLine
 10
107.8374832526526
 20
-156.810987083314
 30
0.0
 11
107.8374832526526
 21
-159.2711181938105
 31
0.0
  0
LINE
  5
153
330
70
100
AcDbEntity
  8
レイヤー 1
 62
    18
420
        0
370
     9
100
AcDbLine
 10
100.8377373201202
 20
-156.810987083314
 30
0.0
 11
100.8377373201202
 21
-159.2711181938105
 31
0.0
  0
INSERT
  5
155
330
70
100
AcDbEntity
  8
レイヤー 1
100
AcDbBlockReference
  2
Block_10
 10
0.0
 20
0.0
 30
0.0
  0
LINE
  5
15A
330
70
100
AcDbEntity
  8
レイヤー 1
 62
    18
420
        0
370
     9
100
AcDbLine
 10
104.6493964854534
 20
-150.3028368071632
 30
0.0
 11
112.6495836854413
 21
-150.3028368071632
 31
0.0
  0
INSERT
  5
15C
330
70
100
AcDbEntity
  8
レイヤー 1
100
AcDbBlockReference
  2
Block_11
 10
0.0
 20
0.0
 30
0.0
  0
ENDSEC
  0
SECTION
  2
OBJECTS
  0
DICTIONARY
  5
C
330
0
100
AcDbDictionary
281
     1
  3
ACAD_COLOR
350
63
  3
ACAD_DETAILVIEWSTYLE
350
6A
  3
ACAD_GROUP
350
D
  3
ACAD_LAYOUT
350
62
  3
ACAD_MATERIAL
350
10
  3
ACAD_MLEADERSTYLE
350
66
  3
ACAD_MLINESTYLE
350
5F
  3
ACAD_PLOTSETTINGS
350
61
  3
ACAD_PLOTSTYLENAME
350
E
  3
ACAD_SCALELIST
350
42
  3
ACAD_SECTIONVIEWSTYLE
350
68
  3
ACAD_TABLESTYLE
350
64
  3
ACAD_VISUALSTYLE
350
29
  3
ACDB_RECOMPOSE_DATA
350
169
  3
AcDbVariableDictionary
350
161
  0
DICTIONARY
  5
63
102
{ACAD_REACTORS
330
C
102
}
330
C
100
AcDbDictionary
281
     1
  0
DICTIONARY
  5
6A
102
{ACAD_REACTORS
330
C
102
}
330
C
100
AcDbDictionary
281
     1
  3
Imperial24
350
6B
  0
DICTIONARY
  5
D
102
{ACAD_REACTORS
330
C
102
}
330
C
100
AcDbDictionary
281
     1
  0
DICTIONARY
  5
62
102
{ACAD_REACTORS
330
C
102
}
330
C
100
AcDbDictionary
281
     1
  3
Layout1
350
6F
  3
Layout2
350
77
  3
Model
350
73
  0
DICTIONARY
  5
10
102
{ACAD_REACTORS
330
C
102
}
330
C
100
AcDbDictionary
281
     1
  3
ByBlock
350
19
  3
ByLayer
350
11
  3
Global
350
21
  0
DICTIONARY
  5
66
102
{ACAD_REACTORS
330
C
102
}
330
C
100
AcDbDictionary
281
     1
  3
Standard
350
67
  0
DICTIONARY
  5
5F
102
{ACAD_REACTORS
330
C
102
}
330
C
100
AcDbDictionary
281
     1
  3
Standard
350
60
  0
DICTIONARY
  5
61
102
{ACAD_REACTORS
330
C
102
}
330
C
100
AcDbDictionary
281
     1
  0
ACDBDICTIONARYWDFLT
  5
E
102
{ACAD_REACTORS
330
C
102
}
330
C
100
AcDbDictionary
281
     1
  3
Normal
350
F
100
AcDbDictionaryWithDefault
340
F
  0
DICTIONARY
  5
42
102
{ACAD_REACTORS
330
C
102
}
330
C
100
AcDbDictionary
281
     1
  3
A0
350
43
  3
A1
350
44
  3
A2
350
45
  3
A3
350
46
  3
A4
350
47
  3
A5
350
48
  3
A6
350
49
  3
A7
350
4A
  3
A8
350
4B
  3
A9
350
4C
  3
B0
350
4D
  3
B1
350
4E
  3
B2
350
4F
  3
B3
350
50
  3
B4
350
51
  3
B5
350
52
  3
B6
350
53
  0
DICTIONARY
  5
68
102
{ACAD_REACTORS
330
C
102
}
330
C
100
AcDbDictionary
281
     1
  3
Imperial24
350
69
  0
DICTIONARY
  5
64
102
{ACAD_REACTORS
330
C
102
}
330
C
100
AcDbDictionary
281
     1
  3
Standard
350
65
  0
DICTIONARY
  5
29
102
{ACAD_REACTORS
330
C
102
}
330
C
100
AcDbDictionary
281
     1
  3
2dWireframe
350
2F
  3
Basic
350
2E
  3
Brighten
350
35
  3
ColorChange
350
39
  3
Conceptual
350
32
  3
Dim
350
34
  3
EdgeColorOff
350
41
  3
Facepattern
350
38
  3
Flat
350
2A
  3
FlatWithEdges
350
2B
  3
Gouraud
350
2C
  3
GouraudWithEdges
350
2D
  3
Hidden
350
31
  3
JitterOff
350
3F
  3
Linepattern
350
37
  3
OverhangOff
350
40
  3
Realistic
350
33
  3
Shaded
350
3E
  3
Shaded with edges
350
3D
  3
Shades of Gray
350
3A
  3
Sketchy
350
3B
  3
Thicken
350
36
  3
Wireframe
350
30
  3
X-Ray
350
3C
  0
XRECORD
  5
169
102
{ACAD_REACTORS
330
C
102
}
330
C
100
AcDbXrecord
280
     1
 90
        1
330
65
  0
DICTIONARY
  5
161
102
{ACAD_REACTORS
330
C
102
}
330
C
100
AcDbDictionary
281
     1
  3
CANNOSCALE
350
166
  3
CMLEADERSTYLE
350
163
  3
CTABLESTYLE
350
162
  3
CVIEWDETAILSTYLE
350
164
  3
CVIEWSECTIONSTYLE
350
165
  0
ACDBDETAILVIEWSTYLE
  5
6B
102
{ACAD_XDICTIONARY
360
19E
102
}
102
{ACAD_REACTORS
330
6A
102
}
330
6A
100
AcDbModelDocViewStyle
 70
     0
  3
Imperial24
290
     0
100
AcDbDetailViewStyle
 70
     0
 71
     0
 90
        3
 71
     1
340
55
 62
   256
 40
0.24
340
0
 62
   256
 40
0.24
300

 40
0.36
280
     3
 71
     2
340
5D
 90
       25
 62
   256
 71
     3
340
55
 62
   256
 40
0.24
 90
        1
 40
0.75
 90
        1
300
%<\AcVar ViewType \f "%tc1">% %<\AcVar ViewDetailId>%\PSCALE %<\AcVar ViewScale \f "%sn">%
 71
     4
340
5D
 90
       25
 62
   256
340
5D
 90
       25
 62
   256
280
     0
  0
LAYOUT
  5
6F
102
{ACAD_REACTORS
330
62
102
}
330
62
100
AcDbPlotSettings
  1

  2

  4

  6

 40
0.0
 41
0.0
 42
0.0
 43
0.0
 44
0.0
 45
0.0
 46
0.0
 47
0.0
 48
0.0
 49
0.0
140
0.0
141
0.0
142
1.0
143
1.0
 70
   688
 72
     0
 73
     0
 74
     5
  7

 75
    16
147
1.0
 76
     0
 77
     2
 78
   300
148
0.0
149
0.0
100
AcDbLayout
  1
Layout1
 70
     1
 71
     1
 10
0.0
 20
0.0
 11
12.0
 21
9.0
 12
0.0
 22
0.0
 32
0.0
 14
0.0
 24
0.0
 34
0.0
 15
0.0
 25
0.0
 35
0.0
146
0.0
 13
0.0
 23
0.0
 33
0.0
 16
1.0
 26
0.0
 36
0.0
 17
0.0
 27
1.0
 37
0.0
 76
     0
330
6C
  0
LAYOUT
  5
77
102
{ACAD_REACTORS
330
62
102
}
330
62
100
AcDbPlotSettings
  1

  2

  4

  6

 40
0.0
 41
0.0
 42
0.0
 43
0.0
 44
0.0
 45
0.0
 46
0.0
 47
0.0
 48
0.0
 49
0.0
140
0.0
141
0.0
142
1.0
143
1.0
 70
   688
 72
     0
 73
     0
 74
     5
  7

 75
    16
147
1.0
 76
     0
 77
     2
 78
   300
148
0.0
149
0.0
100
AcDbLayout
  1
Layout2
 70
     1
 71
     2
 10
0.0
 20
0.0
 11
12.0
 21
9.0
 12
0.0
 22
0.0
 32
0.0
 14
0.0
 24
0.0
 34
0.0
 15
0.0
 25
0.0
 35
0.0
146
0.0
 13
0.0
 23
0.0
 33
0.0
 16
1.0
 26
0.0
 36
0.0
 17
0.0
 27
1.0
 37
0.0
 76
     0
330
74
  0
LAYOUT
  5
73
102
{ACAD_REACTORS
330
62
102
}
330
62
100
AcDbPlotSettings
  1

  2

  4

  6

 40
0.0
 41
0.0
 42
0.0
 43
0.0
 44
0.0
 45
0.0
 46
0.0
 47
0.0
 48
0.0
 49
0.0
140
0.0
141
0.0
142
1.0
143
1.0
 70
  1712
 72
     0
 73
     0
 74
     0
  7

 75
     0
147
1.0
 76
     0
 77
     2
 78
   300
148
0.0
149
0.0
100
AcDbLayout
  1
Model
 70
     1
 71
     0
 10
0.0
 20
0.0
 11
12.0
 21
9.0
 12
0.0
 22
0.0
 32
0.0
 14
0.0
 24
0.0
 34
0.0
 15
0.0
 25
0.0
 35
0.0
146
0.0
 13
0.0
 23
0.0
 33
0.0
 16
1.0
 26
0.0
 36
0.0
 17
0.0
 27
1.0
 37
0.0
 76
     0
330
70
  0
MATERIAL
  5
19
102
{ACAD_XDICTIONARY
360
1A
102
}
102
{ACAD_REACTORS
330
10
102
}
330
10
100
AcDbMaterial
  1
ByBlock
 72
     0
 43
0.0208333333333333
 43
0.0
 43
0.0
 43
0.0
 43
0.0
 43
0.0208333333333333
 43
0.0
 43
0.0
 43
0.0
 43
0.0
 43
1.0
 43
0.0
 43
0.0
 43
0.0
 43
0.0
 43
1.0
 77
     0
 47
0.0208333333333333
 47
0.0
 47
0.0
 47
0.0
 47
0.0
 47
0.0208333333333333
 47
0.0
 47
0.0
 47
0.0
 47
0.0
 47
1.0
 47
0.0
 47
0.0
 47
0.0
 47
0.0
 47
1.0
171
     0
 49
0.0208333333333333
 49
0.0
 49
0.0
 49
0.0
 49
0.0
 49
0.0208333333333333
 49
0.0
 49
0.0
 49
0.0
 49
0.0
 49
1.0
 49
0.0
 49
0.0
 49
0.0
 49
0.0
 49
1.0
175
     0
142
0.0208333333333333
142
0.0
142
0.0
142
0.0
142
0.0
142
0.0208333333333333
142
0.0
142
0.0
142
0.0
142
0.0
142
1.0
142
0.0
142
0.0
142
0.0
142
0.0
142
1.0
179
     0
144
0.0208333333333333
144
0.0
144
0.0
144
0.0
144
0.0
144
0.0208333333333333
144
0.0
144
0.0
144
0.0
144
0.0
144
1.0
144
0.0
144
0.0
144
0.0
144
0.0
144
1.0
147
0.0208333333333333
147
0.0
147
0.0
147
0.0
147
0.0
147
0.0208333333333333
147
0.0
147
0.0
147
0.0
147
0.0
147
1.0
147
0.0
147
0.0
147
0.0
147
0.0
147
1.0
  0
MATERIAL
  5
11
102
{ACAD_XDICTIONARY
360
12
102
}
102
{ACAD_REACTORS
330
10
102
}
330
10
100
AcDbMaterial
  1
ByLayer
 72
     0
 43
0.0208333333333333
 43
0.0
 43
0.0
 43
0.0
 43
0.0
 43
0.0208333333333333
 43
0.0
 43
0.0
 43
0.0
 43
0.0
 43
1.0
 43
0.0
 43
0.0
 43
0.0
 43
0.0
 43
1.0
 77
     0
 47
0.0208333333333333
 47
0.0
 47
0.0
 47
0.0
 47
0.0
 47
0.0208333333333333
 47
0.0
 47
0.0
 47
0.0
 47
0.0
 47
1.0
 47
0.0
 47
0.0
 47
0.0
 47
0.0
 47
1.0
171
     0
 49
0.0208333333333333
 49
0.0
 49
0.0
 49
0.0
 49
0.0
 49
0.0208333333333333
 49
0.0
 49
0.0
 49
0.0
 49
0.0
 49
1.0
 49
0.0
 49
0.0
 49
0.0
 49
0.0
 49
1.0
175
     0
142
0.0208333333333333
142
0.0
142
0.0
142
0.0
142
0.0
142
0.0208333333333333
142
0.0
142
0.0
142
0.0
142
0.0
142
1.0
142
0.0
142
0.0
142
0.0
142
0.0
142
1.0
179
     0
144
0.0208333333333333
144
0.0
144
0.0
144
0.0
144
0.0
144
0.0208333333333333
144
0.0
144
0.0
144
0.0
144
0.0
144
1.0
144
0.0
144
0.0
144
0.0
144
0.0
144
1.0
147
0.0208333333333333
147
0.0
147
0.0
147
0.0
147
0.0
147
0.0208333333333333
147
0.0
147
0.0
147
0.0
147
0.0
147
1.0
147
0.0
147
0.0
147
0.0
147
0.0
147
1.0
  0
MATERIAL
  5
21
102
{ACAD_XDICTIONARY
360
22
102
}
102
{ACAD_REACTORS
330
10
102
}
330
10
100
AcDbMaterial
  1
Global
 72
     0
 43
0.0208333333333333
 43
0.0
 43
0.0
 43
0.0
 43
0.0
 43
0.0208333333333333
 43
0.0
 43
0.0
 43
0.0
 43
0.0
 43
1.0
 43
0.0
 43
0.0
 43
0.0
 43
0.0
 43
1.0
 77
     0
 47
0.0208333333333333
 47
0.0
 47
0.0
 47
0.0
 47
0.0
 47
0.0208333333333333
 47
0.0
 47
0.0
 47
0.0
 47
0.0
 47
1.0
 47
0.0
 47
0.0
 47
0.0
 47
0.0
 47
1.0
171
     0
 49
0.0208333333333333
 49
0.0
 49
0.0
 49
0.0
 49
0.0
 49
0.0208333333333333
 49
0.0
 49
0.0
 49
0.0
 49
0.0
 49
1.0
 49
0.0
 49
0.0
 49
0.0
 49
0.0
 49
1.0
175
     0
142
0.0208333333333333
142
0.0
142
0.0
142
0.0
142
0.0
142
0.0208333333333333
142
0.0
142
0.0
142
0.0
142
0.0
142
1.0
142
0.0
142
0.0
142
0.0
142
0.0
142
1.0
179
     0
144
0.0208333333333333
144
0.0
144
0.0
144
0.0
144
0.0
144
0.0208333333333333
144
0.0
144
0.0
144
0.0
144
0.0
144
1.0
144
0.0
144
0.0
144
0.0
144
0.0
144
1.0
147
0.0208333333333333
147
0.0
147
0.0
147
0.0
147
0.0
147
0.0208333333333333
147
0.0
147
0.0
147
0.0
147
0.0
147
1.0
147
0.0
147
0.0
147
0.0
147
0.0
147
1.0
  0
MLEADERSTYLE
  5
67
102
{ACAD_XDICTIONARY
360
19A
102
}
102
{ACAD_REACTORS
330
66
102
}
330
66
100
AcDbMLeaderStyle
179
     2
170
     2
171
     1
172
     0
 90
        2
 40
0.0
 41
0.0
173
     1
 91
-1056964608
340
5B
 92
       -2
290
     1
 42
0.09
291
     1
 43
0.36
  3
Standard
 44
0.18
300

342
55
174
     1
178
     6
175
     1
176
     0
 93
-1056964608
 45
0.18
292
     0
297
     0
 46
0.18
 94
-1056964608
 47
1.0
 49
1.0
140
1.0
293
     1
141
0.0
294
     1
177
     0
142
1.0
295
     0
296
     0
143
0.125
271
     0
272
     9
273
     9
  0
MLINESTYLE
  5
60
102
{ACAD_REACTORS
330
5F
102
}
330
5F
100
AcDbMlineStyle
  2
STANDARD
 70
     0
  3

 62
   256
 51
90.0
 52
90.0
 71
     2
 49
0.5
 62
   256
  6
BYLAYER
 49
-0.5
 62
   256
  6
BYLAYER
  0
ACDBPLACEHOLDER
  5
F
102
{ACAD_REACTORS
330
E
102
}
330
E
  0
SCALE
  5
43
102
{ACAD_REACTORS
330
42
102
}
330
42
100
AcDbScale
 70
     0
300
1:1
140
1.0
141
1.0
290
     1
  0
SCALE
  5
44
102
{ACAD_REACTORS
330
42
102
}
330
42
100
AcDbScale
 70
     0
300
1/128" = 1'-0"
140
0.0078125
141
12.0
290
     0
  0
SCALE
  5
45
102
{ACAD_REACTORS
330
42
102
}
330
42
100
AcDbScale
 70
     0
300
1/64" = 1'-0"
140
0.015625
141
12.0
290
     0
  0
SCALE
  5
46
102
{ACAD_REACTORS
330
42
102
}
330
42
100
AcDbScale
 70
     0
300
1/32" = 1'-0"
140
0.03125
141
12.0
290
     0
  0
SCALE
  5
47
102
{ACAD_REACTORS
330
42
102
}
330
42
100
AcDbScale
 70
     0
300
1/16" = 1'-0"
140
0.0625
141
12.0
290
     0
  0
SCALE
  5
48
102
{ACAD_REACTORS
330
42
102
}
330
42
100
AcDbScale
 70
     0
300
3/32" = 1'-0"
140
0.09375
141
12.0
290
     0
  0
SCALE
  5
49
102
{ACAD_REACTORS
330
42
102
}
330
42
100
AcDbScale
 70
     0
300
1/8" = 1'-0"
140
0.125
141
12.0
290
     0
  0
SCALE
  5
4A
102
{ACAD_REACTORS
330
42
102
}
330
42
100
AcDbScale
 70
     0
300
3/16" = 1'-0"
140
0.1875
141
12.0
290
     0
  0
SCALE
  5
4B
102
{ACAD_REACTORS
330
42
102
}
330
42
100
AcDbScale
 70
     0
300
1/4" = 1'-0"
140
0.25
141
12.0
290
     0
  0
SCALE
  5
4C
102
{ACAD_REACTORS
330
42
102
}
330
42
100
AcDbScale
 70
     0
300
3/8" = 1'-0"
140
0.375
141
12.0
290
     0
  0
SCALE
  5
4D
102
{ACAD_REACTORS
330
42
102
}
330
42
100
AcDbScale
 70
     0
300
1/2" = 1'-0"
140
0.5
141
12.0
290
     0
  0
SCALE
  5
4E
102
{ACAD_REACTORS
330
42
102
}
330
42
100
AcDbScale
 70
     0
300
3/4" = 1'-0"
140
0.75
141
12.0
290
     0
  0
SCALE
  5
4F
102
{ACAD_REACTORS
330
42
102
}
330
42
100
AcDbScale
 70
     0
300
1" = 1'-0"
140
1.0
141
12.0
290
     0
  0
SCALE
  5
50
102
{ACAD_REACTORS
330
42
102
}
330
42
100
AcDbScale
 70
     0
300
1-1/2" = 1'-0"
140
1.5
141
12.0
290
     0
  0
SCALE
  5
51
102
{ACAD_REACTORS
330
42
102
}
330
42
100
AcDbScale
 70
     0
300
3" = 1'-0"
140
3.0
141
12.0
290
     0
  0
SCALE
  5
52
102
{ACAD_REACTORS
330
42
102
}
330
42
100
AcDbScale
 70
     0
300
6" = 1'-0"
140
6.0
141
12.0
290
     0
  0
SCALE
  5
53
102
{ACAD_REACTORS
330
42
102
}
330
42
100
AcDbScale
 70
     0
300
1'-0" = 1'-0"
140
12.0
141
12.0
290
     0
  0
ACDBSECTIONVIEWSTYLE
  5
69
102
{ACAD_XDICTIONARY
360
19C
102
}
102
{ACAD_REACTORS
330
68
102
}
330
68
100
AcDbModelDocViewStyle
 70
     0
  3
Imperial24
290
     0
100
AcDbSectionViewStyle
 70
     0
 71
     0
 90
       78
 71
     1
340
55
 62
   256
 40
0.24
340
0
340
0
 62
   256
 40
0.24
300
I, O, Q, S, X, Z
 40
0.48
 90
        3
 40
0.18
 90
        1
 71
     2
340
5D
 90
       25
 62
   256
340
5D
 90
       50
 62
   256
 40
0.24
 40
0.0
 40
0.24
 71
     3
340
55
 62
   256
 40
0.24
 90
        1
 40
0.75
 90
        1
300
%<\AcVar ViewType \f "%tc1">% %<\AcVar ViewSectionStartId>%-%<\AcVar ViewSectionEndId>%\PSCALE %<\AcVar ViewScale \f "%sn">%
 71
     4
 62
   256
 62
   257
300
ANSI31
 40
1.0
 90
        0
290
     0
290
     0
 90
        6
 40
0.0
 40
1.570796326794896
 40
0.2617993877991494
 40
1.308996938995747
 40
-0.2617993877991494
 40
1.832595714594046
  0
TABLESTYLE
  5
65
102
{ACAD_XDICTIONARY
360
167
102
}
102
{ACAD_REACTORS
330
64
102
}
330
64
100
AcDbTableStyle
280
     0
  3
Standard
 70
     0
 71
     0
 40
0.06
 41
0.06
280
     0
281
     0
  7
Standard
140
0.18
170
     2
 62
     0
 63
     7
283
     0
 90
      512
 91
        0
  1

274
    -2
284
     1
 64
     0
275
    -2
285
     1
 65
     0
276
    -2
286
     1
 66
     0
277
    -2
287
     1
 67
     0
278
    -2
288
     1
 68
     0
279
    -2
289
     1
 69
     0
  7
Standard
140
0.25
170
     5
 62
     0
 63
     7
283
     0
 90
      512
 91
        0
  1

274
    -2
284
     1
 64
     0
275
    -2
285
     1
 65
     0
276
    -2
286
     1
 66
     0
277
    -2
287
     1
 67
     0
278
    -2
288
     1
 68
     0
279
    -2
289
     1
 69
     0
  7
Standard
140
0.18
170
     5
 62
     0
 63
     7
283
     0
 90
      512
 91
        0
  1

274
    -2
284
     1
 64
     0
275
    -2
285
     1
 65
     0
276
    -2
286
     1
 66
     0
277
    -2
287
     1
 67
     0
278
    -2
288
     1
 68
     0
279
    -2
289
     1
 69
     0
  0
VISUALSTYLE
  5
2F
102
{ACAD_XDICTIONARY
360
174
102
}
102
{ACAD_REACTORS
330
29
102
}
330
29
100
AcDbVisualStyle
  2
2dWireframe
 70
     4
177
     2
291
     0
 71
     0
176
     1
 72
     2
176
     1
 73
     0
176
     1
 90
        0
176
     1
 40
0.6
176
     1
 41
30.0
176
     1
 63
     7
421
 16777215
176
     1
 74
     1
176
     1
 91
        4
176
     1
 64
     7
176
     1
 65
   257
176
     1
 75
     1
176
     1
175
     1
176
     1
 42
1.0
176
     1
 92
        0
176
     1
 66
   257
176
     1
 43
1.0
176
     1
 76
     1
176
     1
 77
     6
176
     1
 78
     2
176
     1
 67
     7
176
     1
 79
     5
176
     1
170
     0
176
     1
171
     0
176
     1
290
     0
176
     1
 93
        1
176
     1
 44
0.0
176
     1
173
     0
176
     1
1001
ACAD
1000
AcDbSavedByObjectVersion
1070
     0
  0
VISUALSTYLE
  5
2E
102
{ACAD_XDICTIONARY
360
172
102
}
102
{ACAD_REACTORS
330
29
102
}
330
29
100
AcDbVisualStyle
  2
Basic
 70
     7
177
     2
291
     1
 71
     1
176
     1
 72
     0
176
     1
 73
     1
176
     1
 90
        0
176
     1
 40
0.6
176
     1
 41
30.0
176
     1
 63
     7
421
 16777215
176
     1
 74
     0
176
     1
 91
        4
176
     1
 64
     7
176
     1
 65
   257
176
     1
 75
     1
176
     1
175
     1
176
     1
 42
1.0
176
     1
 92
        8
176
     1
 66
     7
176
     1
 43
1.0
176
     1
 76
     1
176
     1
 77
     6
176
     1
 78
     2
176
     1
 67
     7
176
     1
 79
     5
176
     1
170
     0
176
     1
171
     0
176
     1
290
     0
176
     1
 93
        1
176
     1
 44
0.0
176
     1
173
     0
176
     1
1001
ACAD
1000
AcDbSavedByObjectVersion
1070
     0
  0
VISUALSTYLE
  5
35
102
{ACAD_XDICTIONARY
360
180
102
}
102
{ACAD_REACTORS
330
29
102
}
330
29
100
AcDbVisualStyle
  2
Brighten
 70
    12
177
     2
291
     1
 71
     2
176
     1
 72
     2
176
     1
 73
     0
176
     1
 90
        0
176
     1
 40
0.6
176
     1
 41
30.0
176
     1
 63
     7
421
 16777215
176
     1
 74
     1
176
     1
 91
        4
176
     1
 64
     7
176
     1
 65
   257
176
     1
 75
     1
176
     1
175
     1
176
     1
 42
1.0
176
     1
 92
        8
176
     1
 66
     7
176
     1
 43
1.0
176
     1
 76
     1
176
     1
 77
     6
176
     1
 78
     2
176
     1
 67
     7
176
     1
 79
     5
176
     1
170
     0
176
     1
171
     0
176
     1
290
     0
176
     1
 93
        1
176
     1
 44
50.0
176
     1
173
     0
176
     1
1001
ACAD
1000
AcDbSavedByObjectVersion
1070
     0
  0
VISUALSTYLE
  5
39
102
{ACAD_XDICTIONARY
360
188
102
}
102
{ACAD_REACTORS
330
29
102
}
330
29
100
AcDbVisualStyle
  2
ColorChange
 70
    16
177
     2
291
     1
 71
     2
176
     1
 72
     2
176
     1
 73
     3
176
     1
 90
        0
176
     1
 40
0.6
176
     1
 41
30.0
176
     1
 63
     8
421
  8421504
176
     1
 74
     1
176
     1
 91
        4
176
     1
 64
     7
176
     1
 65
   257
176
     1
 75
     1
176
     1
175
     1
176
     1
 42
1.0
176
     1
 92
        8
176
     1
 66
     8
424
  8421504
176
     1
 43
1.0
176
     1
 76
     1
176
     1
 77
     6
176
     1
 78
     2
176
     1
 67
     7
176
     1
 79
     5
176
     1
170
     0
176
     1
171
     0
176
     1
290
     0
176
     1
 93
        1
176
     1
 44
0.0
176
     1
173
     0
176
     1
1001
ACAD
1000
AcDbSavedByObjectVersion
1070
     0
  0
VISUALSTYLE
  5
32
102
{ACAD_XDICTIONARY
360
17A
102
}
102
{ACAD_REACTORS
330
29
102
}
330
29
100
AcDbVisualStyle
  2
Conceptual
 70
     9
177
     2
291
     0
 71
     3
176
     1
 72
     2
176
     1
 73
     0
176
     1
 90
        0
176
     1
 40
0.6
176
     1
 41
30.0
176
     1
 63
     7
421
 16777215
176
     1
 74
     2
176
     1
 91
        2
176
     1
 64
     7
176
     1
 65
   257
176
     1
 75
     1
176
     1
175
     1
176
     1
 42
179.0
176
     1
 92
        8
176
     1
 66
     7
176
     1
 43
1.0
176
     1
 76
     1
176
     1
 77
     6
176
     1
 78
     2
176
     1
 67
     7
176
     1
 79
     3
176
     1
170
     0
176
     1
171
     0
176
     1
290
     0
176
     1
 93
        1
176
     1
 44
0.0
176
     1
173
     0
176
     1
1001
ACAD
1000
AcDbSavedByObjectVersion
1070
     0
  0
VISUALSTYLE
  5
34
102
{ACAD_XDICTIONARY
360
17E
102
}
102
{ACAD_REACTORS
330
29
102
}
330
29
100
AcDbVisualStyle
  2
Dim
 70
    11
177
     2
291
     1
 71
     2
176
     1
 72
     2
176
     1
 73
     0
176
     1
 90
        0
176
     1
 40
0.6
176
     1
 41
30.0
176
     1
 63
     7
421
 16777215
176
     1
 74
     1
176
     1
 91
        4
176
     1
 64
     7
176
     1
 65
   257
176
     1
 75
     1
176
     1
175
     1
176
     1
 42
1.0
176
     1
 92
        8
176
     1
 66
     7
176
     1
 43
1.0
176
     1
 76
     1
176
     1
 77
     6
176
     1
 78
     2
176
     1
 67
     7
176
     1
 79
     5
176
     1
170
     0
176
     1
171
     0
176
     1
290
     0
176
     1
 93
        1
176
     1
 44
-50.0
176
     1
173
     0
176
     1
1001
ACAD
1000
AcDbSavedByObjectVersion
1070
     0
  0
VISUALSTYLE
  5
41
102
{ACAD_XDICTIONARY
360
198
102
}
102
{ACAD_REACTORS
330
29
102
}
330
29
100
AcDbVisualStyle
  2
EdgeColorOff
 70
    22
177
     2
291
     1
 71
     2
176
     0
 72
     2
176
     0
 73
     0
176
     0
 90
        0
176
     0
 40
0.6
176
     0
 41
30.0
176
     0
 63
     7
421
 16777215
176
     0
 74
     1
176
     0
 91
        4
176
     0
 64
     7
176
     0
 65
   257
176
     0
 75
     1
176
     0
175
     1
176
     0
 42
1.0
176
     0
 92
        8
176
     2
 66
     7
176
     0
 43
1.0
176
     0
 76
     1
176
     0
 77
     6
176
     0
 78
     2
176
     0
 67
     7
176
     0
 79
     5
176
     0
170
     0
176
     0
171
     0
176
     0
290
     0
176
     0
 93
        1
176
     0
 44
0.0
176
     0
173
     0
176
     0
1001
ACAD
1000
AcDbSavedByObjectVersion
1070
     0
  0
VISUALSTYLE
  5
38
102
{ACAD_XDICTIONARY
360
186
102
}
102
{ACAD_REACTORS
330
29
102
}
330
29
100
AcDbVisualStyle
  2
Facepattern
 70
    15
177
     2
291
     1
 71
     2
176
     1
 72
     2
176
     1
 73
     0
176
     1
 90
        0
176
     1
 40
0.6
176
     1
 41
30.0
176
     1
 63
     7
421
 16777215
176
     1
 74
     1
176
     1
 91
        4
176
     1
 64
     7
176
     1
 65
   257
176
     1
 75
     1
176
     1
175
     1
176
     1
 42
1.0
176
     1
 92
        8
176
     1
 66
     7
176
     1
 43
1.0
176
     1
 76
     1
176
     1
 77
     6
176
     1
 78
     2
176
     1
 67
     7
176
     1
 79
     5
176
     1
170
     0
176
     1
171
     0
176
     1
290
     0
176
     1
 93
        1
176
     1
 44
0.0
176
     1
173
     0
176
     1
1001
ACAD
1000
AcDbSavedByObjectVersion
1070
     0
  0
VISUALSTYLE
  5
2A
102
{ACAD_XDICTIONARY
360
16A
102
}
102
{ACAD_REACTORS
330
29
102
}
330
29
100
AcDbVisualStyle
  2
Flat
 70
     0
177
     2
291
     1
 71
     2
176
     1
 72
     1
176
     1
 73
     1
176
     1
 90
        2
176
     1
 40
0.6
176
     1
 41
30.0
176
     1
 63
     7
421
 16777215
176
     1
 74
     0
176
     1
 91
        0
176
     1
 64
     7
176
     1
 65
   257
176
     1
 75
     1
176
     1
175
     1
176
     1
 42
1.0
176
     1
 92
        8
176
     1
 66
     7
176
     1
 43
1.0
176
     1
 76
     1
176
     1
 77
     6
176
     1
 78
     2
176
     1
 67
     7
176
     1
 79
     5
176
     1
170
     0
176
     1
171
     0
176
     1
290
     0
176
     1
 93
       13
176
     1
 44
0.0
176
     1
173
     0
176
     1
1001
ACAD
1000
AcDbSavedByObjectVersion
1070
     0
  0
VISUALSTYLE
  5
2B
102
{ACAD_XDICTIONARY
360
16C
102
}
102
{ACAD_REACTORS
330
29
102
}
330
29
100
AcDbVisualStyle
  2
FlatWithEdges
 70
     1
177
     2
291
     1
 71
     2
176
     1
 72
     1
176
     1
 73
     1
176
     1
 90
        2
176
     1
 40
0.6
176
     1
 41
30.0
176
     1
 63
     7
421
 16777215
176
     1
 74
     1
176
     1
 91
        0
176
     1
 64
     7
176
     1
 65
   257
176
     1
 75
     1
176
     1
175
     1
176
     1
 42
1.0
176
     1
 92
        0
176
     1
 66
   257
176
     1
 43
1.0
176
     1
 76
     1
176
     1
 77
     6
176
     1
 78
     2
176
     1
 67
     7
176
     1
 79
     5
176
     1
170
     0
176
     1
171
     0
176
     1
290
     0
176
     1
 93
       13
176
     1
 44
0.0
176
     1
173
     0
176
     1
1001
ACAD
1000
AcDbSavedByObjectVersion
1070
     0
  0
VISUALSTYLE
  5
2C
102
{ACAD_XDICTIONARY
360
16E
102
}
102
{ACAD_REACTORS
330
29
102
}
330
29
100
AcDbVisualStyle
  2
Gouraud
 70
     2
177
     2
291
     1
 71
     2
176
     1
 72
     2
176
     1
 73
     1
176
     1
 90
        2
176
     1
 40
0.6
176
     1
 41
30.0
176
     1
 63
     7
421
 16777215
176
     1
 74
     0
176
     1
 91
        0
176
     1
 64
     7
176
     1
 65
   257
176
     1
 75
     1
176
     1
175
     1
176
     1
 42
1.0
176
     1
 92
        0
176
     1
 66
     7
176
     1
 43
1.0
176
     1
 76
     1
176
     1
 77
     6
176
     1
 78
     2
176
     1
 67
     7
176
     1
 79
     5
176
     1
170
     0
176
     1
171
     0
176
     1
290
     0
176
     1
 93
       13
176
     1
 44
0.0
176
     1
173
     0
176
     1
1001
ACAD
1000
AcDbSavedByObjectVersion
1070
     0
  0
VISUALSTYLE
  5
2D
102
{ACAD_XDICTIONARY
360
170
102
}
102
{ACAD_REACTORS
330
29
102
}
330
29
100
AcDbVisualStyle
  2
GouraudWithEdges
 70
     3
177
     2
291
     1
 71
     2
176
     1
 72
     2
176
     1
 73
     1
176
     1
 90
        2
176
     1
 40
0.6
176
     1
 41
30.0
176
     1
 63
     7
421
 16777215
176
     1
 74
     1
176
     1
 91
        0
176
     1
 64
     7
176
     1
 65
   257
176
     1
 75
     1
176
     1
175
     1
176
     1
 42
1.0
176
     1
 92
        0
176
     1
 66
   257
176
     1
 43
1.0
176
     1
 76
     1
176
     1
 77
     6
176
     1
 78
     2
176
     1
 67
     7
176
     1
 79
     5
176
     1
170
     0
176
     1
171
     0
176
     1
290
     0
176
     1
 93
       13
176
     1
 44
0.0
176
     1
173
     0
176
     1
1001
ACAD
1000
AcDbSavedByObjectVersion
1070
     0
  0
VISUALSTYLE
  5
31
102
{ACAD_XDICTIONARY
360
178
102
}
102
{ACAD_REACTORS
330
29
102
}
330
29
100
AcDbVisualStyle
  2
Hidden
 70
     6
177
     2
291
     0
 71
     1
176
     1
 72
     2
176
     1
 73
     2
176
     1
 90
        0
176
     1
 40
0.6
176
     1
 41
30.0
176
     1
 63
     7
421
 16777215
176
     1
 74
     2
176
     1
 91
        2
176
     1
 64
     7
176
     1
 65
   257
176
     1
 75
     2
176
     1
175
     1
176
     1
 42
40.0
176
     1
 92
        0
176
     1
 66
   257
176
     1
 43
1.0
176
     1
 76
     1
176
     1
 77
     6
176
     1
 78
     2
176
     1
 67
     7
176
     1
 79
     3
176
     1
170
     0
176
     1
171
     0
176
     1
290
     0
176
     1
 93
        1
176
     1
 44
0.0
176
     1
173
     0
176
     1
1001
ACAD
1000
AcDbSavedByObjectVersion
1070
     0
  0
VISUALSTYLE
  5
3F
102
{ACAD_XDICTIONARY
360
194
102
}
102
{ACAD_REACTORS
330
29
102
}
330
29
100
AcDbVisualStyle
  2
JitterOff
 70
    20
177
     2
291
     1
 71
     2
176
     0
 72
     2
176
     0
 73
     0
176
     0
 90
        0
176
     0
 40
0.6
176
     0
 41
30.0
176
     0
 63
     7
421
 16777215
176
     0
 74
     1
176
     0
 91
        4
176
     0
 64
     7
176
     0
 65
   257
176
     0
 75
     1
176
     0
175
     1
176
     0
 42
1.0
176
     0
 92
       10
176
     2
 66
     7
176
     0
 43
1.0
176
     0
 76
     1
176
     0
 77
     6
176
     0
 78
     2
176
     0
 67
     7
176
     0
 79
     5
176
     0
170
     0
176
     0
171
     0
176
     0
290
     0
176
     0
 93
        1
176
     0
 44
0.0
176
     0
173
     0
176
     0
1001
ACAD
1000
AcDbSavedByObjectVersion
1070
     0
  0
VISUALSTYLE
  5
37
102
{ACAD_XDICTIONARY
360
184
102
}
102
{ACAD_REACTORS
330
29
102
}
330
29
100
AcDbVisualStyle
  2
Linepattern
 70
    14
177
     2
291
     1
 71
     2
176
     1
 72
     2
176
     1
 73
     0
176
     1
 90
        0
176
     1
 40
0.6
176
     1
 41
30.0
176
     1
 63
     7
421
 16777215
176
     1
 74
     1
176
     1
 91
        4
176
     1
 64
     7
176
     1
 65
   257
176
     1
 75
     7
176
     1
175
     7
176
     1
 42
1.0
176
     1
 92
        8
176
     1
 66
     7
176
     1
 43
1.0
176
     1
 76
     1
176
     1
 77
     6
176
     1
 78
     2
176
     1
 67
     7
176
     1
 79
     5
176
     1
170
     0
176
     1
171
     0
176
     1
290
     0
176
     1
 93
        1
176
     1
 44
0.0
176
     1
173
     0
176
     1
1001
ACAD
1000
AcDbSavedByObjectVersion
1070
     0
  0
VISUALSTYLE
  5
40
102
{ACAD_XDICTIONARY
360
196
102
}
102
{ACAD_REACTORS
330
29
102
}
330
29
100
AcDbVisualStyle
  2
OverhangOff
 70
    21
177
     2
291
     1
 71
     2
176
     0
 72
     2
176
     0
 73
     0
176
     0
 90
        0
176
     0
 40
0.6
176
     0
 41
30.0
176
     0
 63
     7
421
 16777215
176
     0
 74
     1
176
     0
 91
        4
176
     0
 64
     7
176
     0
 65
   257
176
     0
 75
     1
176
     0
175
     1
176
     0
 42
1.0
176
     0
 92
        9
176
     2
 66
     7
176
     0
 43
1.0
176
     0
 76
     1
176
     0
 77
     6
176
     0
 78
     2
176
     0
 67
     7
176
     0
 79
     5
176
     0
170
     0
176
     0
171
     0
176
     0
290
     0
176
     0
 93
        1
176
     0
 44
0.0
176
     0
173
     0
176
     0
1001
ACAD
1000
AcDbSavedByObjectVersion
1070
     0
  0
VISUALSTYLE
  5
33
102
{ACAD_XDICTIONARY
360
17C
102
}
102
{ACAD_REACTORS
330
29
102
}
330
29
100
AcDbVisualStyle
  2
Realistic
 70
     8
177
     2
291
     0
 71
     2
176
     1
 72
     3
176
     1
 73
     0
176
     1
 90
        2
176
     1
 40
0.6
176
     1
 41
30.0
176
     1
 63
     7
421
 16777215
176
     1
 74
     0
176
     1
 91
        0
176
     1
 64
     7
176
     1
 65
   257
176
     1
 75
     1
176
     1
175
     1
176
     1
 42
1.0
176
     1
 92
        8
176
     1
 66
   257
176
     1
 43
1.0
176
     1
 76
     1
176
     1
 77
     6
176
     1
 78
     2
176
     1
 67
     7
176
     1
 79
     3
176
     1
170
     0
176
     1
171
     0
176
     1
290
     0
176
     1
 93
       13
176
     1
 44
0.0
176
     1
173
     0
176
     1
1001
ACAD
1000
AcDbSavedByObjectVersion
1070
     0
  0
VISUALSTYLE
  5
3E
102
{ACAD_XDICTIONARY
360
192
102
}
102
{ACAD_REACTORS
330
29
102
}
330
29
100
AcDbVisualStyle
  2
Shaded
 70
    27
177
     2
291
     0
 71
     2
176
     1
 72
     2
176
     1
 73
     1
176
     1
 90
        2
176
     1
 40
0.6
176
     1
 41
30.0
176
     1
 63
     7
421
 16777215
176
     1
 74
     0
176
     1
 91
        4
176
     1
 64
     7
176
     1
 65
   257
176
     1
 75
     1
176
     1
175
     1
176
     1
 42
1.0
176
     1
 92
        8
176
     1
 66
   257
176
     1
 43
1.0
176
     1
 76
     1
176
     1
 77
     6
176
     1
 78
     2
176
     1
 67
     8
425
  7895160
176
     1
 79
     3
176
     1
170
     0
176
     1
171
     0
176
     1
290
     0
176
     1
 93
        5
176
     1
 44
0.0
176
     1
173
     0
176
     1
1001
ACAD
1000
AcDbSavedByObjectVersion
1070
     0
  0
VISUALSTYLE
  5
3D
102
{ACAD_XDICTIONARY
360
190
102
}
102
{ACAD_REACTORS
330
29
102
}
330
29
100
AcDbVisualStyle
  2
Shaded with edges
 70
    26
177
     2
291
     0
 71
     2
176
     1
 72
     2
176
     1
 73
     1
176
     1
 90
        2
176
     1
 40
0.6
176
     1
 41
30.0
176
     1
 63
     7
421
 16777215
176
     1
 74
     1
176
     1
 91
        2
176
     1
 64
     7
176
     1
 65
   257
176
     1
 75
     2
176
     1
175
     1
176
     1
 42
1.0
176
     1
 92
        8
176
     1
 66
   257
176
     1
 43
1.0
176
     1
 76
     1
176
     1
 77
     6
176
     1
 78
     2
176
     1
 67
     7
176
     1
 79
     3
176
     1
170
     0
176
     1
171
     0
176
     1
290
     0
176
     1
 93
        5
176
     1
 44
0.0
176
     1
173
     0
176
     1
1001
ACAD
1000
AcDbSavedByObjectVersion
1070
     0
  0
VISUALSTYLE
  5
3A
102
{ACAD_XDICTIONARY
360
18A
102
}
102
{ACAD_REACTORS
330
29
102
}
330
29
100
AcDbVisualStyle
  2
Shades of Gray
 70
    23
177
     2
291
     0
 71
     2
176
     1
 72
     2
176
     1
 73
     3
176
     1
 90
        0
176
     1
 40
0.6
176
     1
 41
30.0
176
     1
 63
     7
421
 16777215
176
     1
 74
     2
176
     1
 91
        2
176
     1
 64
     7
176
     1
 65
     7
176
     1
 75
     1
176
     1
175
     1
176
     1
 42
40.0
176
     1
 92
        8
176
     1
 66
     7
176
     1
 43
1.0
176
     1
 76
     1
176
     1
 77
     6
176
     1
 78
     2
176
     1
 67
     7
176
     1
 79
     3
176
     1
170
     0
176
     1
171
     0
176
     1
290
     0
176
     1
 93
        1
176
     1
 44
0.0
176
     1
173
     0
176
     1
1001
ACAD
1000
AcDbSavedByObjectVersion
1070
     0
  0
VISUALSTYLE
  5
3B
102
{ACAD_XDICTIONARY
360
18C
102
}
102
{ACAD_REACTORS
330
29
102
}
330
29
100
AcDbVisualStyle
  2
Sketchy
 70
    24
177
     2
291
     0
 71
     1
176
     1
 72
     2
176
     1
 73
     2
176
     1
 90
        0
176
     1
 40
0.6
176
     1
 41
30.0
176
     1
 63
     7
421
 16777215
176
     1
 74
     2
176
     1
 91
        2
176
     1
 64
     7
176
     1
 65
     7
176
     1
 75
     1
176
     1
175
     1
176
     1
 42
40.0
176
     1
 92
       11
176
     1
 66
     7
176
     1
 43
1.0
176
     1
 76
     1
176
     1
 77
     6
176
     1
 78
     2
176
     1
 67
     7
176
     1
 79
     6
176
     1
170
     0
176
     1
171
     0
176
     1
290
     0
176
     1
 93
        1
176
     1
 44
0.0
176
     1
173
     0
176
     1
1001
ACAD
1000
AcDbSavedByObjectVersion
1070
     0
  0
VISUALSTYLE
  5
36
102
{ACAD_XDICTIONARY
360
182
102
}
102
{ACAD_REACTORS
330
29
102
}
330
29
100
AcDbVisualStyle
  2
Thicken
 70
    13
177
     2
291
     1
 71
     2
176
     1
 72
     2
176
     1
 73
     0
176
     1
 90
        0
176
     1
 40
0.6
176
     1
 41
30.0
176
     1
 63
     7
421
 16777215
176
     1
 74
     1
176
     1
 91
        4
176
     1
 64
     7
176
     1
 65
   257
176
     1
 75
     1
176
     1
175
     1
176
     1
 42
1.0
176
     1
 92
       12
176
     1
 66
     7
176
     1
 43
1.0
176
     1
 76
     1
176
     1
 77
     6
176
     1
 78
     2
176
     1
 67
     7
176
     1
 79
     5
176
     1
170
     0
176
     1
171
     0
176
     1
290
     0
176
     1
 93
        1
176
     1
 44
0.0
176
     1
173
     0
176
     1
1001
ACAD
1000
AcDbSavedByObjectVersion
1070
     0
  0
VISUALSTYLE
  5
30
102
{ACAD_XDICTIONARY
360
176
102
}
102
{ACAD_REACTORS
330
29
102
}
330
29
100
AcDbVisualStyle
  2
Wireframe
 70
     5
177
     2
291
     0
 71
     0
176
     1
 72
     2
176
     1
 73
     0
176
     1
 90
        0
176
     1
 40
0.6
176
     1
 41
30.0
176
     1
 63
     7
421
 16777215
176
     1
 74
     1
176
     1
 91
        4
176
     1
 64
     7
176
     1
 65
   257
176
     1
 75
     1
176
     1
175
     1
176
     1
 42
1.0
176
     1
 92
        0
176
     1
 66
   257
176
     1
 43
1.0
176
     1
 76
     1
176
     1
 77
     6
176
     1
 78
     2
176
     1
 67
     7
176
     1
 79
     3
176
     1
170
     0
176
     1
171
     0
176
     1
290
     0
176
     1
 93
        1
176
     1
 44
0.0
176
     1
173
     0
176
     1
1001
ACAD
1000
AcDbSavedByObjectVersion
1070
     0
  0
VISUALSTYLE
  5
3C
102
{ACAD_XDICTIONARY
360
18E
102
}
102
{ACAD_REACTORS
330
29
102
}
330
29
100
AcDbVisualStyle
  2
X-Ray
 70
    25
177
     2
291
     0
 71
     2
176
     1
 72
     2
176
     1
 73
     1
176
     1
 90
        1
176
     1
 40
0.5
176
     1
 41
30.0
176
     1
 63
     7
421
 16777215
176
     1
 74
     1
176
     1
 91
        0
176
     1
 64
     7
176
     1
 65
   257
176
     1
 75
     1
176
     1
175
     1
176
     1
 42
1.0
176
     1
 92
        8
176
     1
 66
     7
176
     1
 43
1.0
176
     1
 76
     1
176
     1
 77
     6
176
     1
 78
     2
176
     1
 67
     7
176
     1
 79
     3
176
     1
170
     0
176
     1
171
     0
176
     1
290
     0
176
     1
 93
       13
176
     1
 44
0.0
176
     1
173
     0
176
     1
1001
ACAD
1000
AcDbSavedByObjectVersion
1070
     0
  0
DICTIONARYVAR
  5
166
102
{ACAD_REACTORS
330
161
102
}
330
161
100
DictionaryVariables
280
     0
  1
1:1
  0
DICTIONARYVAR
  5
163
102
{ACAD_REACTORS
330
161
102
}
330
161
100
DictionaryVariables
280
     0
  1
STANDARD
  0
DICTIONARYVAR
  5
162
102
{ACAD_REACTORS
330
161
102
}
330
161
100
DictionaryVariables
280
     0
  1
STANDARD
  0
DICTIONARYVAR
  5
164
102
{ACAD_REACTORS
330
161
102
}
330
161
100
DictionaryVariables
280
     0
  1
Imperial24
  0
DICTIONARYVAR
  5
165
102
{ACAD_REACTORS
330
161
102
}
330
161
100
DictionaryVariables
280
     0
  1
Imperial24
  0
DICTIONARY
  5
19E
330
6B
100
AcDbDictionary
280
     1
281
     1
  3
ACAD_XREC_ROUNDTRIP
360
19F
  0
DICTIONARY
  5
1A
330
19
100
AcDbDictionary
280
     1
281
     1
  3
BUMPTILE
360
1C
  3
DIFFUSETILE
360
1B
  3
OPACITYTILE
360
1F
  3
REFLECTIONTILE
360
1E
  3
REFRACTIONTILE
360
20
  3
SPECULARTILE
360
1D
  0
DICTIONARY
  5
12
330
11
100
AcDbDictionary
280
     1
281
     1
  3
BUMPTILE
360
14
  3
DIFFUSETILE
360
13
  3
OPACITYTILE
360
17
  3
REFLECTIONTILE
360
16
  3
REFRACTIONTILE
360
18
  3
SPECULARTILE
360
15
  0
DICTIONARY
  5
22
330
21
100
AcDbDictionary
280
     1
281
     1
  3
BUMPTILE
360
24
  3
DIFFUSETILE
360
23
  3
OPACITYTILE
360
27
  3
REFLECTIONTILE
360
26
  3
REFRACTIONTILE
360
28
  3
SPECULARTILE
360
25
  0
DICTIONARY
  5
19A
330
67
100
AcDbDictionary
280
     1
281
     1
  3
ACAD_XREC_ROUNDTRIP
360
19B
  0
DICTIONARY
  5
19C
330
69
100
AcDbDictionary
280
     1
281
     1
  3
ACAD_XREC_ROUNDTRIP
360
19D
  0
DICTIONARY
  5
167
330
65
100
AcDbDictionary
280
     1
281
     1
  3
ACAD_ROUNDTRIP_2008_TABLESTYLE_CELLSTYLEMAP
360
168
  0
DICTIONARY
  5
174
330
2F
100
AcDbDictionary
280
     1
281
     1
  3
ACAD_XREC_ROUNDTRIP
360
175
  0
DICTIONARY
  5
172
330
2E
100
AcDbDictionary
280
     1
281
     1
  3
ACAD_XREC_ROUNDTRIP
360
173
  0
DICTIONARY
  5
180
330
35
100
AcDbDictionary
280
     1
281
     1
  3
ACAD_XREC_ROUNDTRIP
360
181
  0
DICTIONARY
  5
188
330
39
100
AcDbDictionary
280
     1
281
     1
  3
ACAD_XREC_ROUNDTRIP
360
189
  0
DICTIONARY
  5
17A
330
32
100
AcDbDictionary
280
     1
281
     1
  3
ACAD_XREC_ROUNDTRIP
360
17B
  0
DICTIONARY
  5
17E
330
34
100
AcDbDictionary
280
     1
281
     1
  3
ACAD_XREC_ROUNDTRIP
360
17F
  0
DICTIONARY
  5
198
330
41
100
AcDbDictionary
280
     1
281
     1
  3
ACAD_XREC_ROUNDTRIP
360
199
  0
DICTIONARY
  5
186
330
38
100
AcDbDictionary
280
     1
281
     1
  3
ACAD_XREC_ROUNDTRIP
360
187
  0
DICTIONARY
  5
16A
330
2A
100
AcDbDictionary
280
     1
281
     1
  3
ACAD_XREC_ROUNDTRIP
360
16B
  0
DICTIONARY
  5
16C
330
2B
100
AcDbDictionary
280
     1
281
     1
  3
ACAD_XREC_ROUNDTRIP
360
16D
  0
DICTIONARY
  5
16E
330
2C
100
AcDbDictionary
280
     1
281
     1
  3
ACAD_XREC_ROUNDTRIP
360
16F
  0
DICTIONARY
  5
170
330
2D
100
AcDbDictionary
280
     1
281
     1
  3
ACAD_XREC_ROUNDTRIP
360
171
  0
DICTIONARY
  5
178
330
31
100
AcDbDictionary
280
     1
281
     1
  3
ACAD_XREC_ROUNDTRIP
360
179
  0
DICTIONARY
  5
194
330
3F
100
AcDbDictionary
280
     1
281
     1
  3
ACAD_XREC_ROUNDTRIP
360
195
  0
DICTIONARY
  5
184
330
37
100
AcDbDictionary
280
     1
281
     1
  3
ACAD_XREC_ROUNDTRIP
360
185
  0
DICTIONARY
  5
196
330
40
100
AcDbDictionary
280
     1
281
     1
  3
ACAD_XREC_ROUNDTRIP
360
197
  0
DICTIONARY
  5
17C
330
33
100
AcDbDictionary
280
     1
281
     1
  3
ACAD_XREC_ROUNDTRIP
360
17D
  0
DICTIONARY
  5
192
330
3E
100
AcDbDictionary
280
     1
281
     1
  3
ACAD_XREC_ROUNDTRIP
360
193
  0
DICTIONARY
  5
190
330
3D
100
AcDbDictionary
280
     1
281
     1
  3
ACAD_XREC_ROUNDTRIP
360
191
  0
DICTIONARY
  5
18A
330
3A
100
AcDbDictionary
280
     1
281
     1
  3
ACAD_XREC_ROUNDTRIP
360
18B
  0
DICTIONARY
  5
18C
330
3B
100
AcDbDictionary
280
     1
281
     1
  3
ACAD_XREC_ROUNDTRIP
360
18D
  0
DICTIONARY
  5
182
330
36
100
AcDbDictionary
280
     1
281
     1
  3
ACAD_XREC_ROUNDTRIP
360
183
  0
DICTIONARY
  5
176
330
30
100
AcDbDictionary
280
     1
281
     1
  3
ACAD_XREC_ROUNDTRIP
360
177
  0
DICTIONARY
  5
18E
330
3C
100
AcDbDictionary
280
     1
281
     1
  3
ACAD_XREC_ROUNDTRIP
360
18F
  0
XRECORD
  5
19F
102
{ACAD_REACTORS
330
19E
102
}
330
19E
100
AcDbXrecord
280
     1
102
DISPLAYNAME
  1
Imperial24
102
FLAGS
 90
        0
  0
XRECORD
  5
1C
102
{ACAD_REACTORS
330
1A
102
}
330
1A
100
AcDbXrecord
280
     1
270
     1
271
     1
  0
XRECORD
  5
1B
102
{ACAD_REACTORS
330
1A
102
}
330
1A
100
AcDbXrecord
280
     1
270
     1
271
     1
  0
XRECORD
  5
1F
102
{ACAD_REACTORS
330
1A
102
}
330
1A
100
AcDbXrecord
280
     1
270
     1
271
     1
  0
XRECORD
  5
1E
102
{ACAD_REACTORS
330
1A
102
}
330
1A
100
AcDbXrecord
280
     1
270
     1
271
     1
  0
XRECORD
  5
20
102
{ACAD_REACTORS
330
1A
102
}
330
1A
100
AcDbXrecord
280
     1
270
     1
271
     1
  0
XRECORD
  5
1D
102
{ACAD_REACTORS
330
1A
102
}
330
1A
100
AcDbXrecord
280
     1
270
     1
271
     1
  0
XRECORD
  5
14
102
{ACAD_REACTORS
330
12
102
}
330
12
100
AcDbXrecord
280
     1
270
     1
271
     1
  0
XRECORD
  5
13
102
{ACAD_REACTORS
330
12
102
}
330
12
100
AcDbXrecord
280
     1
270
     1
271
     1
  0
XRECORD
  5
17
102
{ACAD_REACTORS
330
12
102
}
330
12
100
AcDbXrecord
280
     1
270
     1
271
     1
  0
XRECORD
  5
16
102
{ACAD_REACTORS
330
12
102
}
330
12
100
AcDbXrecord
280
     1
270
     1
271
     1
  0
XRECORD
  5
18
102
{ACAD_REACTORS
330
12
102
}
330
12
100
AcDbXrecord
280
     1
270
     1
271
     1
  0
XRECORD
  5
15
102
{ACAD_REACTORS
330
12
102
}
330
12
100
AcDbXrecord
280
     1
270
     1
271
     1
  0
XRECORD
  5
24
102
{ACAD_REACTORS
330
22
102
}
330
22
100
AcDbXrecord
280
     1
270
     1
271
     1
  0
XRECORD
  5
23
102
{ACAD_REACTORS
330
22
102
}
330
22
100
AcDbXrecord
280
     1
270
     1
271
     1
  0
XRECORD
  5
27
102
{ACAD_REACTORS
330
22
102
}
330
22
100
AcDbXrecord
280
     1
270
     1
271
     1
  0
XRECORD
  5
26
102
{ACAD_REACTORS
330
22
102
}
330
22
100
AcDbXrecord
280
     1
270
     1
271
     1
  0
XRECORD
  5
28
102
{ACAD_REACTORS
330
22
102
}
330
22
100
AcDbXrecord
280
     1
270
     1
271
     1
  0
XRECORD
  5
25
102
{ACAD_REACTORS
330
22
102
}
330
22
100
AcDbXrecord
280
     1
270
     1
271
     1
  0
XRECORD
  5
19B
102
{ACAD_REACTORS
330
19A
102
}
330
19A
100
AcDbXrecord
280
     1
102
ACAD_ROUNDTRIP_2012_MLEADER_STYLE
298
     1
  0
XRECORD
  5
19D
102
{ACAD_REACTORS
330
19C
102
}
330
19C
100
AcDbXrecord
280
     1
102
DISPLAYNAME
  1
Imperial24
102
FLAGS
 90
        0
  0
CELLSTYLEMAP
  5
168
102
{ACAD_REACTORS
330
167
102
}
330
167
100
AcDbCellStyleMap
 90
        3
300
CELLSTYLE
  1
TABLEFORMAT_BEGIN
 90
        5
170
     1
 91
        0
 92
    32768
 62
   257
 93
        1
300
CONTENTFORMAT
  1
CONTENTFORMAT_BEGIN
 90
        0
 91
        0
 92
      512
 93
        0
300

 40
0.0
140
1.0
 94
        5
 62
     0
340
55
144
0.25
309
CONTENTFORMAT_END
171
     0
 94
        0
309
TABLEFORMAT_END
  1
CELLSTYLE_BEGIN
 90
        1
 91
        1
300
_TITLE
309
CELLSTYLE_END
300
CELLSTYLE
  1
TABLEFORMAT_BEGIN
 90
        5
170
     1
 91
        0
 92
        0
 62
   257
 93
        1
300
CONTENTFORMAT
  1
CONTENTFORMAT_BEGIN
 90
        0
 91
        0
 92
      512
 93
        0
300

 40
0.0
140
1.0
 94
        5
 62
     0
340
55
144
0.18
309
CONTENTFORMAT_END
171
     0
 94
        0
309
TABLEFORMAT_END
  1
CELLSTYLE_BEGIN
 90
        2
 91
        1
300
_HEADER
309
CELLSTYLE_END
300
CELLSTYLE
  1
TABLEFORMAT_BEGIN
 90
        5
170
     1
 91
        0
 92
        0
 62
   257
 93
        1
300
CONTENTFORMAT
  1
CONTENTFORMAT_BEGIN
 90
        0
 91
        0
 92
      512
 93
        0
300

 40
0.0
140
1.0
 94
        2
 62
     0
340
55
144
0.18
309
CONTENTFORMAT_END
171
     0
 94
        0
309
TABLEFORMAT_END
  1
CELLSTYLE_BEGIN
 90
        3
 91
        2
300
_DATA
309
CELLSTYLE_END
  0
XRECORD
  5
175
102
{ACAD_REACTORS
330
174
102
}
330
174
100
AcDbXrecord
280
     1
102
RTVSPost2010Prop28
280
     1
102
RTVSPost2010PropOp28
 70
     1
102
RTVSPost2010Prop29
280
     1
102
RTVSPost2010PropOp29
 70
     1
102
RTVSPost2010Prop30
280
     0
102
RTVSPost2010PropOp30
 70
     1
102
RTVSPost2010Prop31
280
     0
102
RTVSPost2010PropOp31
 70
     1
102
RTVSPost2010Prop32
280
     0
102
RTVSPost2010PropOp32
 70
     1
102
RTVSPost2010Prop33
280
     0
102
RTVSPost2010PropOp33
 70
     1
102
RTVSPost2010Prop34
280
     0
102
RTVSPost2010PropOp34
 70
     1
102
RTVSPost2010Prop35
280
     0
102
RTVSPost2010PropOp35
 70
     1
102
RTVSPost2010Prop36
280
     0
102
RTVSPost2010PropOp36
 70
     1
102
RTVSPost2010Prop37
 90
       50
102
RTVSPost2010PropOp37
 70
     1
102
RTVSPost2010Prop38
140
0.0
102
RTVSPost2010PropOp38
 70
     1
102
RTVSPost2010Prop39
140
1.0
102
RTVSPost2010PropOp39
 70
     1
102
RTVSPost2010Prop40
 90
        0
102
RTVSPost2010PropOp40
 70
     1
102
RTVSPost2010Prop41ColorIndex
 90
       18
102
RTVSPost2010Prop41ColorRGB
 90
        0
102
RTVSPost2010PropOp41
 70
     1
102
RTVSPost2010Prop42
 90
       50
102
RTVSPost2010PropOp42
 70
     1
102
RTVSPost2010Prop43
 90
        3
102
RTVSPost2010PropOp43
 70
     1
102
RTVSPost2010Prop44ColorIndex
 90
        5
102
RTVSPost2010Prop44ColorRGB
 90
      255
102
RTVSPost2010PropOp44
 70
     1
102
RTVSPost2010Prop45
280
     0
102
RTVSPost2010PropOp45
 70
     1
102
RTVSPost2010Prop46
 90
       50
102
RTVSPost2010PropOp46
 70
     1
102
RTVSPost2010Prop47
 90
       50
102
RTVSPost2010PropOp47
 70
     1
102
RTVSPost2010Prop48
 90
       50
102
RTVSPost2010PropOp48
 70
     1
102
RTVSPost2010Prop49
280
     0
102
RTVSPost2010PropOp49
 70
     1
102
RTVSPost2010Prop50
 90
       50
102
RTVSPost2010PropOp50
 70
     1
102
RTVSPost2010Prop51ColorIndex
 90
      256
102
RTVSPost2010Prop51ColorRGB
 90
-16777216
102
RTVSPost2010PropOp51
 70
     0
102
RTVSPost2010Prop52
140
1.0
102
RTVSPost2010PropOp52
 70
     0
102
RTVSPost2010Prop53
 90
        2
102
RTVSPost2010PropOp53
 70
     1
102
RTVSPost2010Prop54
  1
strokes_ogs.tif
102
RTVSPost2010PropOp54
 70
     1
102
RTVSPost2010Prop55
280
     0
102
RTVSPost2010PropOp55
 70
     1
102
RTVSPost2010Prop56
140
1.0
102
RTVSPost2010PropOp56
 70
     1
102
RTVSPost2010Prop57
140
1.0
102
RTVSPost2010PropOp57
 70
     1
  0
XRECORD
  5
173
102
{ACAD_REACTORS
330
172
102
}
330
172
100
AcDbXrecord
280
     1
102
RTVSPost2010Prop28
280
     0
102
RTVSPost2010PropOp28
 70
     1
102
RTVSPost2010Prop29
280
     1
102
RTVSPost2010PropOp29
 70
     1
102
RTVSPost2010Prop30
280
     1
102
RTVSPost2010PropOp30
 70
     1
102
RTVSPost2010Prop31
280
     0
102
RTVSPost2010PropOp31
 70
     1
102
RTVSPost2010Prop32
280
     0
102
RTVSPost2010PropOp32
 70
     1
102
RTVSPost2010Prop33
280
     0
102
RTVSPost2010PropOp33
 70
     1
102
RTVSPost2010Prop34
280
     0
102
RTVSPost2010PropOp34
 70
     1
102
RTVSPost2010Prop35
280
     0
102
RTVSPost2010PropOp35
 70
     1
102
RTVSPost2010Prop36
280
     0
102
RTVSPost2010PropOp36
 70
     1
102
RTVSPost2010Prop37
 90
       50
102
RTVSPost2010PropOp37
 70
     1
102
RTVSPost2010Prop38
140
0.0
102
RTVSPost2010PropOp38
 70
     1
102
RTVSPost2010Prop39
140
1.0
102
RTVSPost2010PropOp39
 70
     1
102
RTVSPost2010Prop40
 90
        0
102
RTVSPost2010PropOp40
 70
     1
102
RTVSPost2010Prop41ColorIndex
 90
       18
102
RTVSPost2010Prop41ColorRGB
 90
        0
102
RTVSPost2010PropOp41
 70
     1
102
RTVSPost2010Prop42
 90
       50
102
RTVSPost2010PropOp42
 70
     1
102
RTVSPost2010Prop43
 90
        3
102
RTVSPost2010PropOp43
 70
     1
102
RTVSPost2010Prop44ColorIndex
 90
        5
102
RTVSPost2010Prop44ColorRGB
 90
      255
102
RTVSPost2010PropOp44
 70
     1
102
RTVSPost2010Prop45
280
     0
102
RTVSPost2010PropOp45
 70
     1
102
RTVSPost2010Prop46
 90
       50
102
RTVSPost2010PropOp46
 70
     1
102
RTVSPost2010Prop47
 90
       50
102
RTVSPost2010PropOp47
 70
     1
102
RTVSPost2010Prop48
 90
       50
102
RTVSPost2010PropOp48
 70
     1
102
RTVSPost2010Prop49
280
     0
102
RTVSPost2010PropOp49
 70
     1
102
RTVSPost2010Prop50
 90
       50
102
RTVSPost2010PropOp50
 70
     1
102
RTVSPost2010Prop51ColorIndex
 90
      256
102
RTVSPost2010Prop51ColorRGB
 90
-16777216
102
RTVSPost2010PropOp51
 70
     0
102
RTVSPost2010Prop52
140
1.0
102
RTVSPost2010PropOp52
 70
     0
102
RTVSPost2010Prop53
 90
        2
102
RTVSPost2010PropOp53
 70
     1
102
RTVSPost2010Prop54
  1
strokes_ogs.tif
102
RTVSPost2010PropOp54
 70
     1
102
RTVSPost2010Prop55
280
     0
102
RTVSPost2010PropOp55
 70
     1
102
RTVSPost2010Prop56
140
1.0
102
RTVSPost2010PropOp56
 70
     1
102
RTVSPost2010Prop57
140
1.0
102
RTVSPost2010PropOp57
 70
     1
  0
XRECORD
  5
181
102
{ACAD_REACTORS
330
180
102
}
330
180
100
AcDbXrecord
280
     1
102
RTVSPost2010Prop28
280
     0
102
RTVSPost2010PropOp28
 70
     1
102
RTVSPost2010Prop29
280
     1
102
RTVSPost2010PropOp29
 70
     1
102
RTVSPost2010Prop30
280
     1
102
RTVSPost2010PropOp30
 70
     1
102
RTVSPost2010Prop31
280
     0
102
RTVSPost2010PropOp31
 70
     1
102
RTVSPost2010Prop32
280
     0
102
RTVSPost2010PropOp32
 70
     1
102
RTVSPost2010Prop33
280
     0
102
RTVSPost2010PropOp33
 70
     1
102
RTVSPost2010Prop34
280
     0
102
RTVSPost2010PropOp34
 70
     1
102
RTVSPost2010Prop35
280
     0
102
RTVSPost2010PropOp35
 70
     1
102
RTVSPost2010Prop36
280
     0
102
RTVSPost2010PropOp36
 70
     1
102
RTVSPost2010Prop37
 90
       50
102
RTVSPost2010PropOp37
 70
     1
102
RTVSPost2010Prop38
140
0.0
102
RTVSPost2010PropOp38
 70
     1
102
RTVSPost2010Prop39
140
1.0
102
RTVSPost2010PropOp39
 70
     1
102
RTVSPost2010Prop40
 90
        0
102
RTVSPost2010PropOp40
 70
     1
102
RTVSPost2010Prop41ColorIndex
 90
       18
102
RTVSPost2010Prop41ColorRGB
 90
        0
102
RTVSPost2010PropOp41
 70
     1
102
RTVSPost2010Prop42
 90
       50
102
RTVSPost2010PropOp42
 70
     1
102
RTVSPost2010Prop43
 90
        3
102
RTVSPost2010PropOp43
 70
     1
102
RTVSPost2010Prop44ColorIndex
 90
        5
102
RTVSPost2010Prop44ColorRGB
 90
      255
102
RTVSPost2010PropOp44
 70
     1
102
RTVSPost2010Prop45
280
     0
102
RTVSPost2010PropOp45
 70
     1
102
RTVSPost2010Prop46
 90
       50
102
RTVSPost2010PropOp46
 70
     1
102
RTVSPost2010Prop47
 90
       50
102
RTVSPost2010PropOp47
 70
     1
102
RTVSPost2010Prop48
 90
       50
102
RTVSPost2010PropOp48
 70
     1
102
RTVSPost2010Prop49
280
     0
102
RTVSPost2010PropOp49
 70
     1
102
RTVSPost2010Prop50
 90
       50
102
RTVSPost2010PropOp50
 70
     1
102
RTVSPost2010Prop51ColorIndex
 90
      256
102
RTVSPost2010Prop51ColorRGB
 90
-16777216
102
RTVSPost2010PropOp51
 70
     0
102
RTVSPost2010Prop52
140
1.0
102
RTVSPost2010PropOp52
 70
     0
102
RTVSPost2010Prop53
 90
        2
102
RTVSPost2010PropOp53
 70
     1
102
RTVSPost2010Prop54
  1
strokes_ogs.tif
102
RTVSPost2010PropOp54
 70
     1
102
RTVSPost2010Prop55
280
     0
102
RTVSPost2010PropOp55
 70
     1
102
RTVSPost2010Prop56
140
1.0
102
RTVSPost2010PropOp56
 70
     1
102
RTVSPost2010Prop57
140
1.0
102
RTVSPost2010PropOp57
 70
     1
  0
XRECORD
  5
189
102
{ACAD_REACTORS
330
188
102
}
330
188
100
AcDbXrecord
280
     1
102
RTVSPost2010Prop28
280
     0
102
RTVSPost2010PropOp28
 70
     1
102
RTVSPost2010Prop29
280
     1
102
RTVSPost2010PropOp29
 70
     1
102
RTVSPost2010Prop30
280
     1
102
RTVSPost2010PropOp30
 70
     1
102
RTVSPost2010Prop31
280
     0
102
RTVSPost2010PropOp31
 70
     1
102
RTVSPost2010Prop32
280
     0
102
RTVSPost2010PropOp32
 70
     1
102
RTVSPost2010Prop33
280
     0
102
RTVSPost2010PropOp33
 70
     1
102
RTVSPost2010Prop34
280
     0
102
RTVSPost2010PropOp34
 70
     1
102
RTVSPost2010Prop35
280
     0
102
RTVSPost2010PropOp35
 70
     1
102
RTVSPost2010Prop36
280
     0
102
RTVSPost2010PropOp36
 70
     1
102
RTVSPost2010Prop37
 90
       50
102
RTVSPost2010PropOp37
 70
     1
102
RTVSPost2010Prop38
140
0.0
102
RTVSPost2010PropOp38
 70
     1
102
RTVSPost2010Prop39
140
1.0
102
RTVSPost2010PropOp39
 70
     1
102
RTVSPost2010Prop40
 90
        0
102
RTVSPost2010PropOp40
 70
     1
102
RTVSPost2010Prop41ColorIndex
 90
       18
102
RTVSPost2010Prop41ColorRGB
 90
        0
102
RTVSPost2010PropOp41
 70
     1
102
RTVSPost2010Prop42
 90
       50
102
RTVSPost2010PropOp42
 70
     1
102
RTVSPost2010Prop43
 90
        3
102
RTVSPost2010PropOp43
 70
     1
102
RTVSPost2010Prop44ColorIndex
 90
        5
102
RTVSPost2010Prop44ColorRGB
 90
      255
102
RTVSPost2010PropOp44
 70
     1
102
RTVSPost2010Prop45
280
     0
102
RTVSPost2010PropOp45
 70
     1
102
RTVSPost2010Prop46
 90
       50
102
RTVSPost2010PropOp46
 70
     1
102
RTVSPost2010Prop47
 90
       50
102
RTVSPost2010PropOp47
 70
     1
102
RTVSPost2010Prop48
 90
       50
102
RTVSPost2010PropOp48
 70
     1
102
RTVSPost2010Prop49
280
     0
102
RTVSPost2010PropOp49
 70
     1
102
RTVSPost2010Prop50
 90
       50
102
RTVSPost2010PropOp50
 70
     1
102
RTVSPost2010Prop51ColorIndex
 90
      256
102
RTVSPost2010Prop51ColorRGB
 90
-16777216
102
RTVSPost2010PropOp51
 70
     0
102
RTVSPost2010Prop52
140
1.0
102
RTVSPost2010PropOp52
 70
     0
102
RTVSPost2010Prop53
 90
        2
102
RTVSPost2010PropOp53
 70
     1
102
RTVSPost2010Prop54
  1
strokes_ogs.tif
102
RTVSPost2010PropOp54
 70
     1
102
RTVSPost2010Prop55
280
     0
102
RTVSPost2010PropOp55
 70
     1
102
RTVSPost2010Prop56
140
1.0
102
RTVSPost2010PropOp56
 70
     1
102
RTVSPost2010Prop57
140
1.0
102
RTVSPost2010PropOp57
 70
     1
  0
XRECORD
  5
17B
102
{ACAD_REACTORS
330
17A
102
}
330
17A
100
AcDbXrecord
280
     1
102
RTVSPost2010Prop28
280
     0
102
RTVSPost2010PropOp28
 70
     1
102
RTVSPost2010Prop29
280
     1
102
RTVSPost2010PropOp29
 70
     1
102
RTVSPost2010Prop30
280
     1
102
RTVSPost2010PropOp30
 70
     1
102
RTVSPost2010Prop31
280
     0
102
RTVSPost2010PropOp31
 70
     1
102
RTVSPost2010Prop32
280
     0
102
RTVSPost2010PropOp32
 70
     1
102
RTVSPost2010Prop33
280
     0
102
RTVSPost2010PropOp33
 70
     1
102
RTVSPost2010Prop34
280
     0
102
RTVSPost2010PropOp34
 70
     1
102
RTVSPost2010Prop35
280
     0
102
RTVSPost2010PropOp35
 70
     1
102
RTVSPost2010Prop36
280
     0
102
RTVSPost2010PropOp36
 70
     1
102
RTVSPost2010Prop37
 90
       50
102
RTVSPost2010PropOp37
 70
     1
102
RTVSPost2010Prop38
140
0.0
102
RTVSPost2010PropOp38
 70
     1
102
RTVSPost2010Prop39
140
1.0
102
RTVSPost2010PropOp39
 70
     1
102
RTVSPost2010Prop40
 90
        0
102
RTVSPost2010PropOp40
 70
     1
102
RTVSPost2010Prop41ColorIndex
 90
       18
102
RTVSPost2010Prop41ColorRGB
 90
        0
102
RTVSPost2010PropOp41
 70
     1
102
RTVSPost2010Prop42
 90
       50
102
RTVSPost2010PropOp42
 70
     1
102
RTVSPost2010Prop43
 90
        3
102
RTVSPost2010PropOp43
 70
     1
102
RTVSPost2010Prop44ColorIndex
 90
        5
102
RTVSPost2010Prop44ColorRGB
 90
      255
102
RTVSPost2010PropOp44
 70
     1
102
RTVSPost2010Prop45
280
     0
102
RTVSPost2010PropOp45
 70
     1
102
RTVSPost2010Prop46
 90
       50
102
RTVSPost2010PropOp46
 70
     1
102
RTVSPost2010Prop47
 90
       50
102
RTVSPost2010PropOp47
 70
     1
102
RTVSPost2010Prop48
 90
       50
102
RTVSPost2010PropOp48
 70
     1
102
RTVSPost2010Prop49
280
     0
102
RTVSPost2010PropOp49
 70
     1
102
RTVSPost2010Prop50
 90
       50
102
RTVSPost2010PropOp50
 70
     1
102
RTVSPost2010Prop51ColorIndex
 90
      256
102
RTVSPost2010Prop51ColorRGB
 90
-16777216
102
RTVSPost2010PropOp51
 70
     0
102
RTVSPost2010Prop52
140
1.0
102
RTVSPost2010PropOp52
 70
     0
102
RTVSPost2010Prop53
 90
        2
102
RTVSPost2010PropOp53
 70
     1
102
RTVSPost2010Prop54
  1
strokes_ogs.tif
102
RTVSPost2010PropOp54
 70
     1
102
RTVSPost2010Prop55
280
     0
102
RTVSPost2010PropOp55
 70
     1
102
RTVSPost2010Prop56
140
1.0
102
RTVSPost2010PropOp56
 70
     1
102
RTVSPost2010Prop57
140
1.0
102
RTVSPost2010PropOp57
 70
     1
  0
XRECORD
  5
17F
102
{ACAD_REACTORS
330
17E
102
}
330
17E
100
AcDbXrecord
280
     1
102
RTVSPost2010Prop28
280
     0
102
RTVSPost2010PropOp28
 70
     1
102
RTVSPost2010Prop29
280
     1
102
RTVSPost2010PropOp29
 70
     1
102
RTVSPost2010Prop30
280
     1
102
RTVSPost2010PropOp30
 70
     1
102
RTVSPost2010Prop31
280
     0
102
RTVSPost2010PropOp31
 70
     1
102
RTVSPost2010Prop32
280
     0
102
RTVSPost2010PropOp32
 70
     1
102
RTVSPost2010Prop33
280
     0
102
RTVSPost2010PropOp33
 70
     1
102
RTVSPost2010Prop34
280
     0
102
RTVSPost2010PropOp34
 70
     1
102
RTVSPost2010Prop35
280
     0
102
RTVSPost2010PropOp35
 70
     1
102
RTVSPost2010Prop36
280
     0
102
RTVSPost2010PropOp36
 70
     1
102
RTVSPost2010Prop37
 90
       50
102
RTVSPost2010PropOp37
 70
     1
102
RTVSPost2010Prop38
140
0.0
102
RTVSPost2010PropOp38
 70
     1
102
RTVSPost2010Prop39
140
1.0
102
RTVSPost2010PropOp39
 70
     1
102
RTVSPost2010Prop40
 90
        0
102
RTVSPost2010PropOp40
 70
     1
102
RTVSPost2010Prop41ColorIndex
 90
       18
102
RTVSPost2010Prop41ColorRGB
 90
        0
102
RTVSPost2010PropOp41
 70
     1
102
RTVSPost2010Prop42
 90
       50
102
RTVSPost2010PropOp42
 70
     1
102
RTVSPost2010Prop43
 90
        3
102
RTVSPost2010PropOp43
 70
     1
102
RTVSPost2010Prop44ColorIndex
 90
        5
102
RTVSPost2010Prop44ColorRGB
 90
      255
102
RTVSPost2010PropOp44
 70
     1
102
RTVSPost2010Prop45
280
     0
102
RTVSPost2010PropOp45
 70
     1
102
RTVSPost2010Prop46
 90
       50
102
RTVSPost2010PropOp46
 70
     1
102
RTVSPost2010Prop47
 90
       50
102
RTVSPost2010PropOp47
 70
     1
102
RTVSPost2010Prop48
 90
       50
102
RTVSPost2010PropOp48
 70
     1
102
RTVSPost2010Prop49
280
     0
102
RTVSPost2010PropOp49
 70
     1
102
RTVSPost2010Prop50
 90
       50
102
RTVSPost2010PropOp50
 70
     1
102
RTVSPost2010Prop51ColorIndex
 90
      256
102
RTVSPost2010Prop51ColorRGB
 90
-16777216
102
RTVSPost2010PropOp51
 70
     0
102
RTVSPost2010Prop52
140
1.0
102
RTVSPost2010PropOp52
 70
     0
102
RTVSPost2010Prop53
 90
        2
102
RTVSPost2010PropOp53
 70
     1
102
RTVSPost2010Prop54
  1
strokes_ogs.tif
102
RTVSPost2010PropOp54
 70
     1
102
RTVSPost2010Prop55
280
     0
102
RTVSPost2010PropOp55
 70
     1
102
RTVSPost2010Prop56
140
1.0
102
RTVSPost2010PropOp56
 70
     1
102
RTVSPost2010Prop57
140
1.0
102
RTVSPost2010PropOp57
 70
     1
  0
XRECORD
  5
199
102
{ACAD_REACTORS
330
198
102
}
330
198
100
AcDbXrecord
280
     1
102
RTVSPost2010Prop28
280
     0
102
RTVSPost2010PropOp28
 70
     0
102
RTVSPost2010Prop29
280
     1
102
RTVSPost2010PropOp29
 70
     0
102
RTVSPost2010Prop30
280
     1
102
RTVSPost2010PropOp30
 70
     0
102
RTVSPost2010Prop31
280
     0
102
RTVSPost2010PropOp31
 70
     0
102
RTVSPost2010Prop32
280
     0
102
RTVSPost2010PropOp32
 70
     0
102
RTVSPost2010Prop33
280
     0
102
RTVSPost2010PropOp33
 70
     0
102
RTVSPost2010Prop34
280
     0
102
RTVSPost2010PropOp34
 70
     0
102
RTVSPost2010Prop35
280
     0
102
RTVSPost2010PropOp35
 70
     0
102
RTVSPost2010Prop36
280
     0
102
RTVSPost2010PropOp36
 70
     0
102
RTVSPost2010Prop37
 90
       50
102
RTVSPost2010PropOp37
 70
     0
102
RTVSPost2010Prop38
140
0.0
102
RTVSPost2010PropOp38
 70
     0
102
RTVSPost2010Prop39
140
1.0
102
RTVSPost2010PropOp39
 70
     0
102
RTVSPost2010Prop40
 90
        0
102
RTVSPost2010PropOp40
 70
     0
102
RTVSPost2010Prop41ColorIndex
 90
       18
102
RTVSPost2010Prop41ColorRGB
 90
        0
102
RTVSPost2010PropOp41
 70
     0
102
RTVSPost2010Prop42
 90
       50
102
RTVSPost2010PropOp42
 70
     0
102
RTVSPost2010Prop43
 90
        3
102
RTVSPost2010PropOp43
 70
     0
102
RTVSPost2010Prop44ColorIndex
 90
        5
102
RTVSPost2010Prop44ColorRGB
 90
      255
102
RTVSPost2010PropOp44
 70
     0
102
RTVSPost2010Prop45
280
     0
102
RTVSPost2010PropOp45
 70
     0
102
RTVSPost2010Prop46
 90
       50
102
RTVSPost2010PropOp46
 70
     0
102
RTVSPost2010Prop47
 90
       50
102
RTVSPost2010PropOp47
 70
     0
102
RTVSPost2010Prop48
 90
       50
102
RTVSPost2010PropOp48
 70
     0
102
RTVSPost2010Prop49
280
     0
102
RTVSPost2010PropOp49
 70
     0
102
RTVSPost2010Prop50
 90
       50
102
RTVSPost2010PropOp50
 70
     0
102
RTVSPost2010Prop51ColorIndex
 90
      256
102
RTVSPost2010Prop51ColorRGB
 90
-16777216
102
RTVSPost2010PropOp51
 70
     0
102
RTVSPost2010Prop52
140
1.0
102
RTVSPost2010PropOp52
 70
     0
102
RTVSPost2010Prop53
 90
        2
102
RTVSPost2010PropOp53
 70
     0
102
RTVSPost2010Prop54
  1
strokes_ogs.tif
102
RTVSPost2010PropOp54
 70
     0
102
RTVSPost2010Prop55
280
     0
102
RTVSPost2010PropOp55
 70
     0
102
RTVSPost2010Prop56
140
1.0
102
RTVSPost2010PropOp56
 70
     0
102
RTVSPost2010Prop57
140
1.0
102
RTVSPost2010PropOp57
 70
     0
  0
XRECORD
  5
187
102
{ACAD_REACTORS
330
186
102
}
330
186
100
AcDbXrecord
280
     1
102
RTVSPost2010Prop28
280
     0
102
RTVSPost2010PropOp28
 70
     1
102
RTVSPost2010Prop29
280
     1
102
RTVSPost2010PropOp29
 70
     1
102
RTVSPost2010Prop30
280
     1
102
RTVSPost2010PropOp30
 70
     1
102
RTVSPost2010Prop31
280
     0
102
RTVSPost2010PropOp31
 70
     1
102
RTVSPost2010Prop32
280
     0
102
RTVSPost2010PropOp32
 70
     1
102
RTVSPost2010Prop33
280
     0
102
RTVSPost2010PropOp33
 70
     1
102
RTVSPost2010Prop34
280
     0
102
RTVSPost2010PropOp34
 70
     1
102
RTVSPost2010Prop35
280
     0
102
RTVSPost2010PropOp35
 70
     1
102
RTVSPost2010Prop36
280
     0
102
RTVSPost2010PropOp36
 70
     1
102
RTVSPost2010Prop37
 90
       50
102
RTVSPost2010PropOp37
 70
     1
102
RTVSPost2010Prop38
140
0.0
102
RTVSPost2010PropOp38
 70
     1
102
RTVSPost2010Prop39
140
1.0
102
RTVSPost2010PropOp39
 70
     1
102
RTVSPost2010Prop40
 90
        0
102
RTVSPost2010PropOp40
 70
     1
102
RTVSPost2010Prop41ColorIndex
 90
       18
102
RTVSPost2010Prop41ColorRGB
 90
        0
102
RTVSPost2010PropOp41
 70
     1
102
RTVSPost2010Prop42
 90
       50
102
RTVSPost2010PropOp42
 70
     1
102
RTVSPost2010Prop43
 90
        3
102
RTVSPost2010PropOp43
 70
     1
102
RTVSPost2010Prop44ColorIndex
 90
        5
102
RTVSPost2010Prop44ColorRGB
 90
      255
102
RTVSPost2010PropOp44
 70
     1
102
RTVSPost2010Prop45
280
     0
102
RTVSPost2010PropOp45
 70
     1
102
RTVSPost2010Prop46
 90
       50
102
RTVSPost2010PropOp46
 70
     1
102
RTVSPost2010Prop47
 90
       50
102
RTVSPost2010PropOp47
 70
     1
102
RTVSPost2010Prop48
 90
       50
102
RTVSPost2010PropOp48
 70
     1
102
RTVSPost2010Prop49
280
     0
102
RTVSPost2010PropOp49
 70
     1
102
RTVSPost2010Prop50
 90
       50
102
RTVSPost2010PropOp50
 70
     1
102
RTVSPost2010Prop51ColorIndex
 90
      256
102
RTVSPost2010Prop51ColorRGB
 90
-16777216
102
RTVSPost2010PropOp51
 70
     0
102
RTVSPost2010Prop52
140
1.0
102
RTVSPost2010PropOp52
 70
     0
102
RTVSPost2010Prop53
 90
        2
102
RTVSPost2010PropOp53
 70
     1
102
RTVSPost2010Prop54
  1
strokes_ogs.tif
102
RTVSPost2010PropOp54
 70
     1
102
RTVSPost2010Prop55
280
     0
102
RTVSPost2010PropOp55
 70
     1
102
RTVSPost2010Prop56
140
1.0
102
RTVSPost2010PropOp56
 70
     1
102
RTVSPost2010Prop57
140
1.0
102
RTVSPost2010PropOp57
 70
     1
  0
XRECORD
  5
16B
102
{ACAD_REACTORS
330
16A
102
}
330
16A
100
AcDbXrecord
280
     1
102
RTVSPost2010Prop28
280
     0
102
RTVSPost2010PropOp28
 70
     1
102
RTVSPost2010Prop29
280
     1
102
RTVSPost2010PropOp29
 70
     1
102
RTVSPost2010Prop30
280
     1
102
RTVSPost2010PropOp30
 70
     1
102
RTVSPost2010Prop31
280
     0
102
RTVSPost2010PropOp31
 70
     1
102
RTVSPost2010Prop32
280
     0
102
RTVSPost2010PropOp32
 70
     1
102
RTVSPost2010Prop33
280
     0
102
RTVSPost2010PropOp33
 70
     1
102
RTVSPost2010Prop34
280
     0
102
RTVSPost2010PropOp34
 70
     1
102
RTVSPost2010Prop35
280
     0
102
RTVSPost2010PropOp35
 70
     1
102
RTVSPost2010Prop36
280
     0
102
RTVSPost2010PropOp36
 70
     1
102
RTVSPost2010Prop37
 90
       50
102
RTVSPost2010PropOp37
 70
     1
102
RTVSPost2010Prop38
140
0.0
102
RTVSPost2010PropOp38
 70
     1
102
RTVSPost2010Prop39
140
1.0
102
RTVSPost2010PropOp39
 70
     1
102
RTVSPost2010Prop40
 90
        0
102
RTVSPost2010PropOp40
 70
     1
102
RTVSPost2010Prop41ColorIndex
 90
       18
102
RTVSPost2010Prop41ColorRGB
 90
        0
102
RTVSPost2010PropOp41
 70
     1
102
RTVSPost2010Prop42
 90
       50
102
RTVSPost2010PropOp42
 70
     1
102
RTVSPost2010Prop43
 90
        3
102
RTVSPost2010PropOp43
 70
     1
102
RTVSPost2010Prop44ColorIndex
 90
        5
102
RTVSPost2010Prop44ColorRGB
 90
      255
102
RTVSPost2010PropOp44
 70
     1
102
RTVSPost2010Prop45
280
     0
102
RTVSPost2010PropOp45
 70
     1
102
RTVSPost2010Prop46
 90
       50
102
RTVSPost2010PropOp46
 70
     1
102
RTVSPost2010Prop47
 90
       50
102
RTVSPost2010PropOp47
 70
     1
102
RTVSPost2010Prop48
 90
       50
102
RTVSPost2010PropOp48
 70
     1
102
RTVSPost2010Prop49
280
     0
102
RTVSPost2010PropOp49
 70
     1
102
RTVSPost2010Prop50
 90
       50
102
RTVSPost2010PropOp50
 70
     1
102
RTVSPost2010Prop51ColorIndex
 90
      256
102
RTVSPost2010Prop51ColorRGB
 90
-16777216
102
RTVSPost2010PropOp51
 70
     0
102
RTVSPost2010Prop52
140
1.0
102
RTVSPost2010PropOp52
 70
     0
102
RTVSPost2010Prop53
 90
        2
102
RTVSPost2010PropOp53
 70
     1
102
RTVSPost2010Prop54
  1
strokes_ogs.tif
102
RTVSPost2010PropOp54
 70
     1
102
RTVSPost2010Prop55
280
     0
102
RTVSPost2010PropOp55
 70
     1
102
RTVSPost2010Prop56
140
1.0
102
RTVSPost2010PropOp56
 70
     1
102
RTVSPost2010Prop57
140
1.0
102
RTVSPost2010PropOp57
 70
     1
  0
XRECORD
  5
16D
102
{ACAD_REACTORS
330
16C
102
}
330
16C
100
AcDbXrecord
280
     1
102
RTVSPost2010Prop28
280
     0
102
RTVSPost2010PropOp28
 70
     1
102
RTVSPost2010Prop29
280
     1
102
RTVSPost2010PropOp29
 70
     1
102
RTVSPost2010Prop30
280
     1
102
RTVSPost2010PropOp30
 70
     1
102
RTVSPost2010Prop31
280
     0
102
RTVSPost2010PropOp31
 70
     1
102
RTVSPost2010Prop32
280
     0
102
RTVSPost2010PropOp32
 70
     1
102
RTVSPost2010Prop33
280
     0
102
RTVSPost2010PropOp33
 70
     1
102
RTVSPost2010Prop34
280
     0
102
RTVSPost2010PropOp34
 70
     1
102
RTVSPost2010Prop35
280
     0
102
RTVSPost2010PropOp35
 70
     1
102
RTVSPost2010Prop36
280
     0
102
RTVSPost2010PropOp36
 70
     1
102
RTVSPost2010Prop37
 90
       50
102
RTVSPost2010PropOp37
 70
     1
102
RTVSPost2010Prop38
140
0.0
102
RTVSPost2010PropOp38
 70
     1
102
RTVSPost2010Prop39
140
1.0
102
RTVSPost2010PropOp39
 70
     1
102
RTVSPost2010Prop40
 90
        0
102
RTVSPost2010PropOp40
 70
     1
102
RTVSPost2010Prop41ColorIndex
 90
       18
102
RTVSPost2010Prop41ColorRGB
 90
        0
102
RTVSPost2010PropOp41
 70
     1
102
RTVSPost2010Prop42
 90
       50
102
RTVSPost2010PropOp42
 70
     1
102
RTVSPost2010Prop43
 90
        3
102
RTVSPost2010PropOp43
 70
     1
102
RTVSPost2010Prop44ColorIndex
 90
        5
102
RTVSPost2010Prop44ColorRGB
 90
      255
102
RTVSPost2010PropOp44
 70
     1
102
RTVSPost2010Prop45
280
     0
102
RTVSPost2010PropOp45
 70
     1
102
RTVSPost2010Prop46
 90
       50
102
RTVSPost2010PropOp46
 70
     1
102
RTVSPost2010Prop47
 90
       50
102
RTVSPost2010PropOp47
 70
     1
102
RTVSPost2010Prop48
 90
       50
102
RTVSPost2010PropOp48
 70
     1
102
RTVSPost2010Prop49
280
     0
102
RTVSPost2010PropOp49
 70
     1
102
RTVSPost2010Prop50
 90
       50
102
RTVSPost2010PropOp50
 70
     1
102
RTVSPost2010Prop51ColorIndex
 90
      256
102
RTVSPost2010Prop51ColorRGB
 90
-16777216
102
RTVSPost2010PropOp51
 70
     0
102
RTVSPost2010Prop52
140
1.0
102
RTVSPost2010PropOp52
 70
     0
102
RTVSPost2010Prop53
 90
        2
102
RTVSPost2010PropOp53
 70
     1
102
RTVSPost2010Prop54
  1
strokes_ogs.tif
102
RTVSPost2010PropOp54
 70
     1
102
RTVSPost2010Prop55
280
     0
102
RTVSPost2010PropOp55
 70
     1
102
RTVSPost2010Prop56
140
1.0
102
RTVSPost2010PropOp56
 70
     1
102
RTVSPost2010Prop57
140
1.0
102
RTVSPost2010PropOp57
 70
     1
  0
XRECORD
  5
16F
102
{ACAD_REACTORS
330
16E
102
}
330
16E
100
AcDbXrecord
280
     1
102
RTVSPost2010Prop28
280
     0
102
RTVSPost2010PropOp28
 70
     1
102
RTVSPost2010Prop29
280
     1
102
RTVSPost2010PropOp29
 70
     1
102
RTVSPost2010Prop30
280
     1
102
RTVSPost2010PropOp30
 70
     1
102
RTVSPost2010Prop31
280
     0
102
RTVSPost2010PropOp31
 70
     1
102
RTVSPost2010Prop32
280
     0
102
RTVSPost2010PropOp32
 70
     1
102
RTVSPost2010Prop33
280
     0
102
RTVSPost2010PropOp33
 70
     1
102
RTVSPost2010Prop34
280
     0
102
RTVSPost2010PropOp34
 70
     1
102
RTVSPost2010Prop35
280
     0
102
RTVSPost2010PropOp35
 70
     1
102
RTVSPost2010Prop36
280
     0
102
RTVSPost2010PropOp36
 70
     1
102
RTVSPost2010Prop37
 90
       50
102
RTVSPost2010PropOp37
 70
     1
102
RTVSPost2010Prop38
140
0.0
102
RTVSPost2010PropOp38
 70
     1
102
RTVSPost2010Prop39
140
1.0
102
RTVSPost2010PropOp39
 70
     1
102
RTVSPost2010Prop40
 90
        0
102
RTVSPost2010PropOp40
 70
     1
102
RTVSPost2010Prop41ColorIndex
 90
       18
102
RTVSPost2010Prop41ColorRGB
 90
        0
102
RTVSPost2010PropOp41
 70
     1
102
RTVSPost2010Prop42
 90
       50
102
RTVSPost2010PropOp42
 70
     1
102
RTVSPost2010Prop43
 90
        3
102
RTVSPost2010PropOp43
 70
     1
102
RTVSPost2010Prop44ColorIndex
 90
        5
102
RTVSPost2010Prop44ColorRGB
 90
      255
102
RTVSPost2010PropOp44
 70
     1
102
RTVSPost2010Prop45
280
     0
102
RTVSPost2010PropOp45
 70
     1
102
RTVSPost2010Prop46
 90
       50
102
RTVSPost2010PropOp46
 70
     1
102
RTVSPost2010Prop47
 90
       50
102
RTVSPost2010PropOp47
 70
     1
102
RTVSPost2010Prop48
 90
       50
102
RTVSPost2010PropOp48
 70
     1
102
RTVSPost2010Prop49
280
     0
102
RTVSPost2010PropOp49
 70
     1
102
RTVSPost2010Prop50
 90
       50
102
RTVSPost2010PropOp50
 70
     1
102
RTVSPost2010Prop51ColorIndex
 90
      256
102
RTVSPost2010Prop51ColorRGB
 90
-16777216
102
RTVSPost2010PropOp51
 70
     0
102
RTVSPost2010Prop52
140
1.0
102
RTVSPost2010PropOp52
 70
     0
102
RTVSPost2010Prop53
 90
        2
102
RTVSPost2010PropOp53
 70
     1
102
RTVSPost2010Prop54
  1
strokes_ogs.tif
102
RTVSPost2010PropOp54
 70
     1
102
RTVSPost2010Prop55
280
     0
102
RTVSPost2010PropOp55
 70
     1
102
RTVSPost2010Prop56
140
1.0
102
RTVSPost2010PropOp56
 70
     1
102
RTVSPost2010Prop57
140
1.0
102
RTVSPost2010PropOp57
 70
     1
  0
XRECORD
  5
171
102
{ACAD_REACTORS
330
170
102
}
330
170
100
AcDbXrecord
280
     1
102
RTVSPost2010Prop28
280
     0
102
RTVSPost2010PropOp28
 70
     1
102
RTVSPost2010Prop29
280
     1
102
RTVSPost2010PropOp29
 70
     1
102
RTVSPost2010Prop30
280
     1
102
RTVSPost2010PropOp30
 70
     1
102
RTVSPost2010Prop31
280
     0
102
RTVSPost2010PropOp31
 70
     1
102
RTVSPost2010Prop32
280
     0
102
RTVSPost2010PropOp32
 70
     1
102
RTVSPost2010Prop33
280
     0
102
RTVSPost2010PropOp33
 70
     1
102
RTVSPost2010Prop34
280
     0
102
RTVSPost2010PropOp34
 70
     1
102
RTVSPost2010Prop35
280
     0
102
RTVSPost2010PropOp35
 70
     1
102
RTVSPost2010Prop36
280
     0
102
RTVSPost2010PropOp36
 70
     1
102
RTVSPost2010Prop37
 90
       50
102
RTVSPost2010PropOp37
 70
     1
102
RTVSPost2010Prop38
140
0.0
102
RTVSPost2010PropOp38
 70
     1
102
RTVSPost2010Prop39
140
1.0
102
RTVSPost2010PropOp39
 70
     1
102
RTVSPost2010Prop40
 90
        0
102
RTVSPost2010PropOp40
 70
     1
102
RTVSPost2010Prop41ColorIndex
 90
       18
102
RTVSPost2010Prop41ColorRGB
 90
        0
102
RTVSPost2010PropOp41
 70
     1
102
RTVSPost2010Prop42
 90
       50
102
RTVSPost2010PropOp42
 70
     1
102
RTVSPost2010Prop43
 90
        3
102
RTVSPost2010PropOp43
 70
     1
102
RTVSPost2010Prop44ColorIndex
 90
        5
102
RTVSPost2010Prop44ColorRGB
 90
      255
102
RTVSPost2010PropOp44
 70
     1
102
RTVSPost2010Prop45
280
     0
102
RTVSPost2010PropOp45
 70
     1
102
RTVSPost2010Prop46
 90
       50
102
RTVSPost2010PropOp46
 70
     1
102
RTVSPost2010Prop47
 90
       50
102
RTVSPost2010PropOp47
 70
     1
102
RTVSPost2010Prop48
 90
       50
102
RTVSPost2010PropOp48
 70
     1
102
RTVSPost2010Prop49
280
     0
102
RTVSPost2010PropOp49
 70
     1
102
RTVSPost2010Prop50
 90
       50
102
RTVSPost2010PropOp50
 70
     1
102
RTVSPost2010Prop51ColorIndex
 90
      256
102
RTVSPost2010Prop51ColorRGB
 90
-16777216
102
RTVSPost2010PropOp51
 70
     0
102
RTVSPost2010Prop52
140
1.0
102
RTVSPost2010PropOp52
 70
     0
102
RTVSPost2010Prop53
 90
        2
102
RTVSPost2010PropOp53
 70
     1
102
RTVSPost2010Prop54
  1
strokes_ogs.tif
102
RTVSPost2010PropOp54
 70
     1
102
RTVSPost2010Prop55
280
     0
102
RTVSPost2010PropOp55
 70
     1
102
RTVSPost2010Prop56
140
1.0
102
RTVSPost2010PropOp56
 70
     1
102
RTVSPost2010Prop57
140
1.0
102
RTVSPost2010PropOp57
 70
     1
  0
XRECORD
  5
179
102
{ACAD_REACTORS
330
178
102
}
330
178
100
AcDbXrecord
280
     1
102
RTVSPost2010Prop28
280
     0
102
RTVSPost2010PropOp28
 70
     1
102
RTVSPost2010Prop29
280
     1
102
RTVSPost2010PropOp29
 70
     1
102
RTVSPost2010Prop30
280
     1
102
RTVSPost2010PropOp30
 70
     1
102
RTVSPost2010Prop31
280
     0
102
RTVSPost2010PropOp31
 70
     1
102
RTVSPost2010Prop32
280
     0
102
RTVSPost2010PropOp32
 70
     1
102
RTVSPost2010Prop33
280
     0
102
RTVSPost2010PropOp33
 70
     1
102
RTVSPost2010Prop34
280
     0
102
RTVSPost2010PropOp34
 70
     1
102
RTVSPost2010Prop35
280
     0
102
RTVSPost2010PropOp35
 70
     1
102
RTVSPost2010Prop36
280
     0
102
RTVSPost2010PropOp36
 70
     1
102
RTVSPost2010Prop37
 90
       50
102
RTVSPost2010PropOp37
 70
     1
102
RTVSPost2010Prop38
140
0.0
102
RTVSPost2010PropOp38
 70
     1
102
RTVSPost2010Prop39
140
1.0
102
RTVSPost2010PropOp39
 70
     1
102
RTVSPost2010Prop40
 90
        0
102
RTVSPost2010PropOp40
 70
     1
102
RTVSPost2010Prop41ColorIndex
 90
       18
102
RTVSPost2010Prop41ColorRGB
 90
        0
102
RTVSPost2010PropOp41
 70
     1
102
RTVSPost2010Prop42
 90
       50
102
RTVSPost2010PropOp42
 70
     1
102
RTVSPost2010Prop43
 90
        3
102
RTVSPost2010PropOp43
 70
     1
102
RTVSPost2010Prop44ColorIndex
 90
        5
102
RTVSPost2010Prop44ColorRGB
 90
      255
102
RTVSPost2010PropOp44
 70
     1
102
RTVSPost2010Prop45
280
     0
102
RTVSPost2010PropOp45
 70
     1
102
RTVSPost2010Prop46
 90
       50
102
RTVSPost2010PropOp46
 70
     1
102
RTVSPost2010Prop47
 90
       50
102
RTVSPost2010PropOp47
 70
     1
102
RTVSPost2010Prop48
 90
       50
102
RTVSPost2010PropOp48
 70
     1
102
RTVSPost2010Prop49
280
     0
102
RTVSPost2010PropOp49
 70
     1
102
RTVSPost2010Prop50
 90
       50
102
RTVSPost2010PropOp50
 70
     1
102
RTVSPost2010Prop51ColorIndex
 90
      256
102
RTVSPost2010Prop51ColorRGB
 90
-16777216
102
RTVSPost2010PropOp51
 70
     0
102
RTVSPost2010Prop52
140
1.0
102
RTVSPost2010PropOp52
 70
     0
102
RTVSPost2010Prop53
 90
        2
102
RTVSPost2010PropOp53
 70
     1
102
RTVSPost2010Prop54
  1
strokes_ogs.tif
102
RTVSPost2010PropOp54
 70
     1
102
RTVSPost2010Prop55
280
     0
102
RTVSPost2010PropOp55
 70
     1
102
RTVSPost2010Prop56
140
1.0
102
RTVSPost2010PropOp56
 70
     1
102
RTVSPost2010Prop57
140
1.0
102
RTVSPost2010PropOp57
 70
     1
  0
XRECORD
  5
195
102
{ACAD_REACTORS
330
194
102
}
330
194
100
AcDbXrecord
280
     1
102
RTVSPost2010Prop28
280
     0
102
RTVSPost2010PropOp28
 70
     0
102
RTVSPost2010Prop29
280
     1
102
RTVSPost2010PropOp29
 70
     0
102
RTVSPost2010Prop30
280
     1
102
RTVSPost2010PropOp30
 70
     0
102
RTVSPost2010Prop31
280
     0
102
RTVSPost2010PropOp31
 70
     0
102
RTVSPost2010Prop32
280
     0
102
RTVSPost2010PropOp32
 70
     0
102
RTVSPost2010Prop33
280
     0
102
RTVSPost2010PropOp33
 70
     0
102
RTVSPost2010Prop34
280
     0
102
RTVSPost2010PropOp34
 70
     0
102
RTVSPost2010Prop35
280
     0
102
RTVSPost2010PropOp35
 70
     0
102
RTVSPost2010Prop36
280
     0
102
RTVSPost2010PropOp36
 70
     0
102
RTVSPost2010Prop37
 90
       50
102
RTVSPost2010PropOp37
 70
     0
102
RTVSPost2010Prop38
140
0.0
102
RTVSPost2010PropOp38
 70
     0
102
RTVSPost2010Prop39
140
1.0
102
RTVSPost2010PropOp39
 70
     0
102
RTVSPost2010Prop40
 90
        0
102
RTVSPost2010PropOp40
 70
     0
102
RTVSPost2010Prop41ColorIndex
 90
       18
102
RTVSPost2010Prop41ColorRGB
 90
        0
102
RTVSPost2010PropOp41
 70
     0
102
RTVSPost2010Prop42
 90
       50
102
RTVSPost2010PropOp42
 70
     0
102
RTVSPost2010Prop43
 90
        3
102
RTVSPost2010PropOp43
 70
     0
102
RTVSPost2010Prop44ColorIndex
 90
        5
102
RTVSPost2010Prop44ColorRGB
 90
      255
102
RTVSPost2010PropOp44
 70
     0
102
RTVSPost2010Prop45
280
     0
102
RTVSPost2010PropOp45
 70
     0
102
RTVSPost2010Prop46
 90
       50
102
RTVSPost2010PropOp46
 70
     0
102
RTVSPost2010Prop47
 90
       50
102
RTVSPost2010PropOp47
 70
     0
102
RTVSPost2010Prop48
 90
       50
102
RTVSPost2010PropOp48
 70
     0
102
RTVSPost2010Prop49
280
     0
102
RTVSPost2010PropOp49
 70
     0
102
RTVSPost2010Prop50
 90
       50
102
RTVSPost2010PropOp50
 70
     0
102
RTVSPost2010Prop51ColorIndex
 90
      256
102
RTVSPost2010Prop51ColorRGB
 90
-16777216
102
RTVSPost2010PropOp51
 70
     0
102
RTVSPost2010Prop52
140
1.0
102
RTVSPost2010PropOp52
 70
     0
102
RTVSPost2010Prop53
 90
        2
102
RTVSPost2010PropOp53
 70
     0
102
RTVSPost2010Prop54
  1
strokes_ogs.tif
102
RTVSPost2010PropOp54
 70
     0
102
RTVSPost2010Prop55
280
     0
102
RTVSPost2010PropOp55
 70
     0
102
RTVSPost2010Prop56
140
1.0
102
RTVSPost2010PropOp56
 70
     0
102
RTVSPost2010Prop57
140
1.0
102
RTVSPost2010PropOp57
 70
     0
  0
XRECORD
  5
185
102
{ACAD_REACTORS
330
184
102
}
330
184
100
AcDbXrecord
280
     1
102
RTVSPost2010Prop28
280
     0
102
RTVSPost2010PropOp28
 70
     1
102
RTVSPost2010Prop29
280
     1
102
RTVSPost2010PropOp29
 70
     1
102
RTVSPost2010Prop30
280
     1
102
RTVSPost2010PropOp30
 70
     1
102
RTVSPost2010Prop31
280
     0
102
RTVSPost2010PropOp31
 70
     1
102
RTVSPost2010Prop32
280
     0
102
RTVSPost2010PropOp32
 70
     1
102
RTVSPost2010Prop33
280
     0
102
RTVSPost2010PropOp33
 70
     1
102
RTVSPost2010Prop34
280
     0
102
RTVSPost2010PropOp34
 70
     1
102
RTVSPost2010Prop35
280
     0
102
RTVSPost2010PropOp35
 70
     1
102
RTVSPost2010Prop36
280
     0
102
RTVSPost2010PropOp36
 70
     1
102
RTVSPost2010Prop37
 90
       50
102
RTVSPost2010PropOp37
 70
     1
102
RTVSPost2010Prop38
140
0.0
102
RTVSPost2010PropOp38
 70
     1
102
RTVSPost2010Prop39
140
1.0
102
RTVSPost2010PropOp39
 70
     1
102
RTVSPost2010Prop40
 90
        0
102
RTVSPost2010PropOp40
 70
     1
102
RTVSPost2010Prop41ColorIndex
 90
       18
102
RTVSPost2010Prop41ColorRGB
 90
        0
102
RTVSPost2010PropOp41
 70
     1
102
RTVSPost2010Prop42
 90
       50
102
RTVSPost2010PropOp42
 70
     1
102
RTVSPost2010Prop43
 90
        3
102
RTVSPost2010PropOp43
 70
     1
102
RTVSPost2010Prop44ColorIndex
 90
        5
102
RTVSPost2010Prop44ColorRGB
 90
      255
102
RTVSPost2010PropOp44
 70
     1
102
RTVSPost2010Prop45
280
     0
102
RTVSPost2010PropOp45
 70
     1
102
RTVSPost2010Prop46
 90
       50
102
RTVSPost2010PropOp46
 70
     1
102
RTVSPost2010Prop47
 90
       50
102
RTVSPost2010PropOp47
 70
     1
102
RTVSPost2010Prop48
 90
       50
102
RTVSPost2010PropOp48
 70
     1
102
RTVSPost2010Prop49
280
     0
102
RTVSPost2010PropOp49
 70
     1
102
RTVSPost2010Prop50
 90
       50
102
RTVSPost2010PropOp50
 70
     1
102
RTVSPost2010Prop51ColorIndex
 90
      256
102
RTVSPost2010Prop51ColorRGB
 90
-16777216
102
RTVSPost2010PropOp51
 70
     0
102
RTVSPost2010Prop52
140
1.0
102
RTVSPost2010PropOp52
 70
     0
102
RTVSPost2010Prop53
 90
        2
102
RTVSPost2010PropOp53
 70
     1
102
RTVSPost2010Prop54
  1
strokes_ogs.tif
102
RTVSPost2010PropOp54
 70
     1
102
RTVSPost2010Prop55
280
     0
102
RTVSPost2010PropOp55
 70
     1
102
RTVSPost2010Prop56
140
1.0
102
RTVSPost2010PropOp56
 70
     1
102
RTVSPost2010Prop57
140
1.0
102
RTVSPost2010PropOp57
 70
     1
  0
XRECORD
  5
197
102
{ACAD_REACTORS
330
196
102
}
330
196
100
AcDbXrecord
280
     1
102
RTVSPost2010Prop28
280
     0
102
RTVSPost2010PropOp28
 70
     0
102
RTVSPost2010Prop29
280
     1
102
RTVSPost2010PropOp29
 70
     0
102
RTVSPost2010Prop30
280
     1
102
RTVSPost2010PropOp30
 70
     0
102
RTVSPost2010Prop31
280
     0
102
RTVSPost2010PropOp31
 70
     0
102
RTVSPost2010Prop32
280
     0
102
RTVSPost2010PropOp32
 70
     0
102
RTVSPost2010Prop33
280
     0
102
RTVSPost2010PropOp33
 70
     0
102
RTVSPost2010Prop34
280
     0
102
RTVSPost2010PropOp34
 70
     0
102
RTVSPost2010Prop35
280
     0
102
RTVSPost2010PropOp35
 70
     0
102
RTVSPost2010Prop36
280
     0
102
RTVSPost2010PropOp36
 70
     0
102
RTVSPost2010Prop37
 90
       50
102
RTVSPost2010PropOp37
 70
     0
102
RTVSPost2010Prop38
140
0.0
102
RTVSPost2010PropOp38
 70
     0
102
RTVSPost2010Prop39
140
1.0
102
RTVSPost2010PropOp39
 70
     0
102
RTVSPost2010Prop40
 90
        0
102
RTVSPost2010PropOp40
 70
     0
102
RTVSPost2010Prop41ColorIndex
 90
       18
102
RTVSPost2010Prop41ColorRGB
 90
        0
102
RTVSPost2010PropOp41
 70
     0
102
RTVSPost2010Prop42
 90
       50
102
RTVSPost2010PropOp42
 70
     0
102
RTVSPost2010Prop43
 90
        3
102
RTVSPost2010PropOp43
 70
     0
102
RTVSPost2010Prop44ColorIndex
 90
        5
102
RTVSPost2010Prop44ColorRGB
 90
      255
102
RTVSPost2010PropOp44
 70
     0
102
RTVSPost2010Prop45
280
     0
102
RTVSPost2010PropOp45
 70
     0
102
RTVSPost2010Prop46
 90
       50
102
RTVSPost2010PropOp46
 70
     0
102
RTVSPost2010Prop47
 90
       50
102
RTVSPost2010PropOp47
 70
     0
102
RTVSPost2010Prop48
 90
       50
102
RTVSPost2010PropOp48
 70
     0
102
RTVSPost2010Prop49
280
     0
102
RTVSPost2010PropOp49
 70
     0
102
RTVSPost2010Prop50
 90
       50
102
RTVSPost2010PropOp50
 70
     0
102
RTVSPost2010Prop51ColorIndex
 90
      256
102
RTVSPost2010Prop51ColorRGB
 90
-16777216
102
RTVSPost2010PropOp51
 70
     0
102
RTVSPost2010Prop52
140
1.0
102
RTVSPost2010PropOp52
 70
     0
102
RTVSPost2010Prop53
 90
        2
102
RTVSPost2010PropOp53
 70
     0
102
RTVSPost2010Prop54
  1
strokes_ogs.tif
102
RTVSPost2010PropOp54
 70
     0
102
RTVSPost2010Prop55
280
     0
102
RTVSPost2010PropOp55
 70
     0
102
RTVSPost2010Prop56
140
1.0
102
RTVSPost2010PropOp56
 70
     0
102
RTVSPost2010Prop57
140
1.0
102
RTVSPost2010PropOp57
 70
     0
  0
XRECORD
  5
17D
102
{ACAD_REACTORS
330
17C
102
}
330
17C
100
AcDbXrecord
280
     1
102
RTVSPost2010Prop28
280
     0
102
RTVSPost2010PropOp28
 70
     1
102
RTVSPost2010Prop29
280
     1
102
RTVSPost2010PropOp29
 70
     1
102
RTVSPost2010Prop30
280
     1
102
RTVSPost2010PropOp30
 70
     1
102
RTVSPost2010Prop31
280
     0
102
RTVSPost2010PropOp31
 70
     1
102
RTVSPost2010Prop32
280
     0
102
RTVSPost2010PropOp32
 70
     1
102
RTVSPost2010Prop33
280
     0
102
RTVSPost2010PropOp33
 70
     1
102
RTVSPost2010Prop34
280
     0
102
RTVSPost2010PropOp34
 70
     1
102
RTVSPost2010Prop35
280
     0
102
RTVSPost2010PropOp35
 70
     1
102
RTVSPost2010Prop36
280
     0
102
RTVSPost2010PropOp36
 70
     1
102
RTVSPost2010Prop37
 90
       50
102
RTVSPost2010PropOp37
 70
     1
102
RTVSPost2010Prop38
140
0.0
102
RTVSPost2010PropOp38
 70
     1
102
RTVSPost2010Prop39
140
1.0
102
RTVSPost2010PropOp39
 70
     1
102
RTVSPost2010Prop40
 90
        0
102
RTVSPost2010PropOp40
 70
     1
102
RTVSPost2010Prop41ColorIndex
 90
       18
102
RTVSPost2010Prop41ColorRGB
 90
        0
102
RTVSPost2010PropOp41
 70
     1
102
RTVSPost2010Prop42
 90
       50
102
RTVSPost2010PropOp42
 70
     1
102
RTVSPost2010Prop43
 90
        3
102
RTVSPost2010PropOp43
 70
     1
102
RTVSPost2010Prop44ColorIndex
 90
        5
102
RTVSPost2010Prop44ColorRGB
 90
      255
102
RTVSPost2010PropOp44
 70
     1
102
RTVSPost2010Prop45
280
     0
102
RTVSPost2010PropOp45
 70
     1
102
RTVSPost2010Prop46
 90
       50
102
RTVSPost2010PropOp46
 70
     1
102
RTVSPost2010Prop47
 90
       50
102
RTVSPost2010PropOp47
 70
     1
102
RTVSPost2010Prop48
 90
       50
102
RTVSPost2010PropOp48
 70
     1
102
RTVSPost2010Prop49
280
     0
102
RTVSPost2010PropOp49
 70
     1
102
RTVSPost2010Prop50
 90
       50
102
RTVSPost2010PropOp50
 70
     1
102
RTVSPost2010Prop51ColorIndex
 90
      256
102
RTVSPost2010Prop51ColorRGB
 90
-16777216
102
RTVSPost2010PropOp51
 70
     0
102
RTVSPost2010Prop52
140
1.0
102
RTVSPost2010PropOp52
 70
     0
102
RTVSPost2010Prop53
 90
        2
102
RTVSPost2010PropOp53
 70
     1
102
RTVSPost2010Prop54
  1
strokes_ogs.tif
102
RTVSPost2010PropOp54
 70
     1
102
RTVSPost2010Prop55
280
     0
102
RTVSPost2010PropOp55
 70
     1
102
RTVSPost2010Prop56
140
1.0
102
RTVSPost2010PropOp56
 70
     1
102
RTVSPost2010Prop57
140
1.0
102
RTVSPost2010PropOp57
 70
     1
  0
XRECORD
  5
193
102
{ACAD_REACTORS
330
192
102
}
330
192
100
AcDbXrecord
280
     1
102
RTVSPost2010Prop28
280
     0
102
RTVSPost2010PropOp28
 70
     1
102
RTVSPost2010Prop29
280
     1
102
RTVSPost2010PropOp29
 70
     1
102
RTVSPost2010Prop30
280
     1
102
RTVSPost2010PropOp30
 70
     1
102
RTVSPost2010Prop31
280
     0
102
RTVSPost2010PropOp31
 70
     1
102
RTVSPost2010Prop32
280
     0
102
RTVSPost2010PropOp32
 70
     1
102
RTVSPost2010Prop33
280
     0
102
RTVSPost2010PropOp33
 70
     1
102
RTVSPost2010Prop34
280
     0
102
RTVSPost2010PropOp34
 70
     1
102
RTVSPost2010Prop35
280
     0
102
RTVSPost2010PropOp35
 70
     1
102
RTVSPost2010Prop36
280
     0
102
RTVSPost2010PropOp36
 70
     1
102
RTVSPost2010Prop37
 90
       50
102
RTVSPost2010PropOp37
 70
     1
102
RTVSPost2010Prop38
140
0.0
102
RTVSPost2010PropOp38
 70
     1
102
RTVSPost2010Prop39
140
1.0
102
RTVSPost2010PropOp39
 70
     1
102
RTVSPost2010Prop40
 90
        0
102
RTVSPost2010PropOp40
 70
     1
102
RTVSPost2010Prop41ColorIndex
 90
       18
102
RTVSPost2010Prop41ColorRGB
 90
        0
102
RTVSPost2010PropOp41
 70
     1
102
RTVSPost2010Prop42
 90
       50
102
RTVSPost2010PropOp42
 70
     1
102
RTVSPost2010Prop43
 90
        3
102
RTVSPost2010PropOp43
 70
     1
102
RTVSPost2010Prop44ColorIndex
 90
        5
102
RTVSPost2010Prop44ColorRGB
 90
      255
102
RTVSPost2010PropOp44
 70
     1
102
RTVSPost2010Prop45
280
     0
102
RTVSPost2010PropOp45
 70
     1
102
RTVSPost2010Prop46
 90
       50
102
RTVSPost2010PropOp46
 70
     1
102
RTVSPost2010Prop47
 90
       50
102
RTVSPost2010PropOp47
 70
     1
102
RTVSPost2010Prop48
 90
       50
102
RTVSPost2010PropOp48
 70
     1
102
RTVSPost2010Prop49
280
     0
102
RTVSPost2010PropOp49
 70
     1
102
RTVSPost2010Prop50
 90
       50
102
RTVSPost2010PropOp50
 70
     1
102
RTVSPost2010Prop51ColorIndex
 90
      256
102
RTVSPost2010Prop51ColorRGB
 90
-16777216
102
RTVSPost2010PropOp51
 70
     0
102
RTVSPost2010Prop52
140
1.0
102
RTVSPost2010PropOp52
 70
     0
102
RTVSPost2010Prop53
 90
        2
102
RTVSPost2010PropOp53
 70
     1
102
RTVSPost2010Prop54
  1
strokes_ogs.tif
102
RTVSPost2010PropOp54
 70
     1
102
RTVSPost2010Prop55
280
     0
102
RTVSPost2010PropOp55
 70
     1
102
RTVSPost2010Prop56
140
1.0
102
RTVSPost2010PropOp56
 70
     1
102
RTVSPost2010Prop57
140
1.0
102
RTVSPost2010PropOp57
 70
     1
  0
XRECORD
  5
191
102
{ACAD_REACTORS
330
190
102
}
330
190
100
AcDbXrecord
280
     1
102
RTVSPost2010Prop28
280
     0
102
RTVSPost2010PropOp28
 70
     1
102
RTVSPost2010Prop29
280
     1
102
RTVSPost2010PropOp29
 70
     1
102
RTVSPost2010Prop30
280
     1
102
RTVSPost2010PropOp30
 70
     1
102
RTVSPost2010Prop31
280
     0
102
RTVSPost2010PropOp31
 70
     1
102
RTVSPost2010Prop32
280
     0
102
RTVSPost2010PropOp32
 70
     1
102
RTVSPost2010Prop33
280
     0
102
RTVSPost2010PropOp33
 70
     1
102
RTVSPost2010Prop34
280
     0
102
RTVSPost2010PropOp34
 70
     1
102
RTVSPost2010Prop35
280
     0
102
RTVSPost2010PropOp35
 70
     1
102
RTVSPost2010Prop36
280
     0
102
RTVSPost2010PropOp36
 70
     1
102
RTVSPost2010Prop37
 90
       50
102
RTVSPost2010PropOp37
 70
     1
102
RTVSPost2010Prop38
140
0.0
102
RTVSPost2010PropOp38
 70
     1
102
RTVSPost2010Prop39
140
1.0
102
RTVSPost2010PropOp39
 70
     1
102
RTVSPost2010Prop40
 90
        0
102
RTVSPost2010PropOp40
 70
     1
102
RTVSPost2010Prop41ColorIndex
 90
       18
102
RTVSPost2010Prop41ColorRGB
 90
        0
102
RTVSPost2010PropOp41
 70
     1
102
RTVSPost2010Prop42
 90
       50
102
RTVSPost2010PropOp42
 70
     1
102
RTVSPost2010Prop43
 90
        3
102
RTVSPost2010PropOp43
 70
     1
102
RTVSPost2010Prop44ColorIndex
 90
        5
102
RTVSPost2010Prop44ColorRGB
 90
      255
102
RTVSPost2010PropOp44
 70
     1
102
RTVSPost2010Prop45
280
     0
102
RTVSPost2010PropOp45
 70
     1
102
RTVSPost2010Prop46
 90
       50
102
RTVSPost2010PropOp46
 70
     1
102
RTVSPost2010Prop47
 90
       50
102
RTVSPost2010PropOp47
 70
     1
102
RTVSPost2010Prop48
 90
       50
102
RTVSPost2010PropOp48
 70
     1
102
RTVSPost2010Prop49
280
     0
102
RTVSPost2010PropOp49
 70
     1
102
RTVSPost2010Prop50
 90
       50
102
RTVSPost2010PropOp50
 70
     1
102
RTVSPost2010Prop51ColorIndex
 90
      256
102
RTVSPost2010Prop51ColorRGB
 90
-16777216
102
RTVSPost2010PropOp51
 70
     0
102
RTVSPost2010Prop52
140
1.0
102
RTVSPost2010PropOp52
 70
     0
102
RTVSPost2010Prop53
 90
        2
102
RTVSPost2010PropOp53
 70
     1
102
RTVSPost2010Prop54
  1
strokes_ogs.tif
102
RTVSPost2010PropOp54
 70
     1
102
RTVSPost2010Prop55
280
     0
102
RTVSPost2010PropOp55
 70
     1
102
RTVSPost2010Prop56
140
1.0
102
RTVSPost2010PropOp56
 70
     1
102
RTVSPost2010Prop57
140
1.0
102
RTVSPost2010PropOp57
 70
     1
  0
XRECORD
  5
18B
102
{ACAD_REACTORS
330
18A
102
}
330
18A
100
AcDbXrecord
280
     1
102
RTVSPost2010Prop28
280
     0
102
RTVSPost2010PropOp28
 70
     1
102
RTVSPost2010Prop29
280
     1
102
RTVSPost2010PropOp29
 70
     1
102
RTVSPost2010Prop30
280
     1
102
RTVSPost2010PropOp30
 70
     1
102
RTVSPost2010Prop31
280
     0
102
RTVSPost2010PropOp31
 70
     1
102
RTVSPost2010Prop32
280
     0
102
RTVSPost2010PropOp32
 70
     1
102
RTVSPost2010Prop33
280
     0
102
RTVSPost2010PropOp33
 70
     1
102
RTVSPost2010Prop34
280
     0
102
RTVSPost2010PropOp34
 70
     1
102
RTVSPost2010Prop35
280
     0
102
RTVSPost2010PropOp35
 70
     1
102
RTVSPost2010Prop36
280
     0
102
RTVSPost2010PropOp36
 70
     1
102
RTVSPost2010Prop37
 90
       50
102
RTVSPost2010PropOp37
 70
     1
102
RTVSPost2010Prop38
140
0.0
102
RTVSPost2010PropOp38
 70
     1
102
RTVSPost2010Prop39
140
1.0
102
RTVSPost2010PropOp39
 70
     1
102
RTVSPost2010Prop40
 90
        0
102
RTVSPost2010PropOp40
 70
     1
102
RTVSPost2010Prop41ColorIndex
 90
       18
102
RTVSPost2010Prop41ColorRGB
 90
        0
102
RTVSPost2010PropOp41
 70
     1
102
RTVSPost2010Prop42
 90
       50
102
RTVSPost2010PropOp42
 70
     1
102
RTVSPost2010Prop43
 90
        3
102
RTVSPost2010PropOp43
 70
     1
102
RTVSPost2010Prop44ColorIndex
 90
        5
102
RTVSPost2010Prop44ColorRGB
 90
      255
102
RTVSPost2010PropOp44
 70
     1
102
RTVSPost2010Prop45
280
     0
102
RTVSPost2010PropOp45
 70
     1
102
RTVSPost2010Prop46
 90
       50
102
RTVSPost2010PropOp46
 70
     1
102
RTVSPost2010Prop47
 90
       50
102
RTVSPost2010PropOp47
 70
     1
102
RTVSPost2010Prop48
 90
       50
102
RTVSPost2010PropOp48
 70
     1
102
RTVSPost2010Prop49
280
     0
102
RTVSPost2010PropOp49
 70
     1
102
RTVSPost2010Prop50
 90
       50
102
RTVSPost2010PropOp50
 70
     1
102
RTVSPost2010Prop51ColorIndex
 90
      256
102
RTVSPost2010Prop51ColorRGB
 90
-16777216
102
RTVSPost2010PropOp51
 70
     0
102
RTVSPost2010Prop52
140
1.0
102
RTVSPost2010PropOp52
 70
     0
102
RTVSPost2010Prop53
 90
        2
102
RTVSPost2010PropOp53
 70
     1
102
RTVSPost2010Prop54
  1
strokes_ogs.tif
102
RTVSPost2010PropOp54
 70
     1
102
RTVSPost2010Prop55
280
     0
102
RTVSPost2010PropOp55
 70
     1
102
RTVSPost2010Prop56
140
1.0
102
RTVSPost2010PropOp56
 70
     1
102
RTVSPost2010Prop57
140
1.0
102
RTVSPost2010PropOp57
 70
     1
  0
XRECORD
  5
18D
102
{ACAD_REACTORS
330
18C
102
}
330
18C
100
AcDbXrecord
280
     1
102
RTVSPost2010Prop28
280
     0
102
RTVSPost2010PropOp28
 70
     1
102
RTVSPost2010Prop29
280
     1
102
RTVSPost2010PropOp29
 70
     1
102
RTVSPost2010Prop30
280
     1
102
RTVSPost2010PropOp30
 70
     1
102
RTVSPost2010Prop31
280
     0
102
RTVSPost2010PropOp31
 70
     1
102
RTVSPost2010Prop32
280
     0
102
RTVSPost2010PropOp32
 70
     1
102
RTVSPost2010Prop33
280
     0
102
RTVSPost2010PropOp33
 70
     1
102
RTVSPost2010Prop34
280
     0
102
RTVSPost2010PropOp34
 70
     1
102
RTVSPost2010Prop35
280
     0
102
RTVSPost2010PropOp35
 70
     1
102
RTVSPost2010Prop36
280
     0
102
RTVSPost2010PropOp36
 70
     1
102
RTVSPost2010Prop37
 90
       50
102
RTVSPost2010PropOp37
 70
     1
102
RTVSPost2010Prop38
140
0.0
102
RTVSPost2010PropOp38
 70
     1
102
RTVSPost2010Prop39
140
1.0
102
RTVSPost2010PropOp39
 70
     1
102
RTVSPost2010Prop40
 90
        0
102
RTVSPost2010PropOp40
 70
     1
102
RTVSPost2010Prop41ColorIndex
 90
       18
102
RTVSPost2010Prop41ColorRGB
 90
        0
102
RTVSPost2010PropOp41
 70
     1
102
RTVSPost2010Prop42
 90
       50
102
RTVSPost2010PropOp42
 70
     1
102
RTVSPost2010Prop43
 90
        3
102
RTVSPost2010PropOp43
 70
     1
102
RTVSPost2010Prop44ColorIndex
 90
        5
102
RTVSPost2010Prop44ColorRGB
 90
      255
102
RTVSPost2010PropOp44
 70
     1
102
RTVSPost2010Prop45
280
     0
102
RTVSPost2010PropOp45
 70
     1
102
RTVSPost2010Prop46
 90
       50
102
RTVSPost2010PropOp46
 70
     1
102
RTVSPost2010Prop47
 90
       50
102
RTVSPost2010PropOp47
 70
     1
102
RTVSPost2010Prop48
 90
       50
102
RTVSPost2010PropOp48
 70
     1
102
RTVSPost2010Prop49
280
     0
102
RTVSPost2010PropOp49
 70
     1
102
RTVSPost2010Prop50
 90
       50
102
RTVSPost2010PropOp50
 70
     1
102
RTVSPost2010Prop51ColorIndex
 90
      256
102
RTVSPost2010Prop51ColorRGB
 90
-16777216
102
RTVSPost2010PropOp51
 70
     0
102
RTVSPost2010Prop52
140
1.0
102
RTVSPost2010PropOp52
 70
     0
102
RTVSPost2010Prop53
 90
        2
102
RTVSPost2010PropOp53
 70
     1
102
RTVSPost2010Prop54
  1
strokes_ogs.tif
102
RTVSPost2010PropOp54
 70
     1
102
RTVSPost2010Prop55
280
     0
102
RTVSPost2010PropOp55
 70
     1
102
RTVSPost2010Prop56
140
1.0
102
RTVSPost2010PropOp56
 70
     1
102
RTVSPost2010Prop57
140
1.0
102
RTVSPost2010PropOp57
 70
     1
  0
XRECORD
  5
183
102
{ACAD_REACTORS
330
182
102
}
330
182
100
AcDbXrecord
280
     1
102
RTVSPost2010Prop28
280
     0
102
RTVSPost2010PropOp28
 70
     1
102
RTVSPost2010Prop29
280
     1
102
RTVSPost2010PropOp29
 70
     1
102
RTVSPost2010Prop30
280
     1
102
RTVSPost2010PropOp30
 70
     1
102
RTVSPost2010Prop31
280
     0
102
RTVSPost2010PropOp31
 70
     1
102
RTVSPost2010Prop32
280
     0
102
RTVSPost2010PropOp32
 70
     1
102
RTVSPost2010Prop33
280
     0
102
RTVSPost2010PropOp33
 70
     1
102
RTVSPost2010Prop34
280
     0
102
RTVSPost2010PropOp34
 70
     1
102
RTVSPost2010Prop35
280
     0
102
RTVSPost2010PropOp35
 70
     1
102
RTVSPost2010Prop36
280
     0
102
RTVSPost2010PropOp36
 70
     1
102
RTVSPost2010Prop37
 90
       50
102
RTVSPost2010PropOp37
 70
     1
102
RTVSPost2010Prop38
140
0.0
102
RTVSPost2010PropOp38
 70
     1
102
RTVSPost2010Prop39
140
1.0
102
RTVSPost2010PropOp39
 70
     1
102
RTVSPost2010Prop40
 90
        0
102
RTVSPost2010PropOp40
 70
     1
102
RTVSPost2010Prop41ColorIndex
 90
       18
102
RTVSPost2010Prop41ColorRGB
 90
        0
102
RTVSPost2010PropOp41
 70
     1
102
RTVSPost2010Prop42
 90
       50
102
RTVSPost2010PropOp42
 70
     1
102
RTVSPost2010Prop43
 90
        3
102
RTVSPost2010PropOp43
 70
     1
102
RTVSPost2010Prop44ColorIndex
 90
        5
102
RTVSPost2010Prop44ColorRGB
 90
      255
102
RTVSPost2010PropOp44
 70
     1
102
RTVSPost2010Prop45
280
     0
102
RTVSPost2010PropOp45
 70
     1
102
RTVSPost2010Prop46
 90
       50
102
RTVSPost2010PropOp46
 70
     1
102
RTVSPost2010Prop47
 90
       50
102
RTVSPost2010PropOp47
 70
     1
102
RTVSPost2010Prop48
 90
       50
102
RTVSPost2010PropOp48
 70
     1
102
RTVSPost2010Prop49
280
     0
102
RTVSPost2010PropOp49
 70
     1
102
RTVSPost2010Prop50
 90
       50
102
RTVSPost2010PropOp50
 70
     1
102
RTVSPost2010Prop51ColorIndex
 90
      256
102
RTVSPost2010Prop51ColorRGB
 90
-16777216
102
RTVSPost2010PropOp51
 70
     0
102
RTVSPost2010Prop52
140
1.0
102
RTVSPost2010PropOp52
 70
     0
102
RTVSPost2010Prop53
 90
        2
102
RTVSPost2010PropOp53
 70
     1
102
RTVSPost2010Prop54
  1
strokes_ogs.tif
102
RTVSPost2010PropOp54
 70
     1
102
RTVSPost2010Prop55
280
     0
102
RTVSPost2010PropOp55
 70
     1
102
RTVSPost2010Prop56
140
1.0
102
RTVSPost2010PropOp56
 70
     1
102
RTVSPost2010Prop57
140
1.0
102
RTVSPost2010PropOp57
 70
     1
  0
XRECORD
  5
177
102
{ACAD_REACTORS
330
176
102
}
330
176
100
AcDbXrecord
280
     1
102
RTVSPost2010Prop28
280
     0
102
RTVSPost2010PropOp28
 70
     1
102
RTVSPost2010Prop29
280
     1
102
RTVSPost2010PropOp29
 70
     1
102
RTVSPost2010Prop30
280
     1
102
RTVSPost2010PropOp30
 70
     1
102
RTVSPost2010Prop31
280
     0
102
RTVSPost2010PropOp31
 70
     1
102
RTVSPost2010Prop32
280
     0
102
RTVSPost2010PropOp32
 70
     1
102
RTVSPost2010Prop33
280
     0
102
RTVSPost2010PropOp33
 70
     1
102
RTVSPost2010Prop34
280
     0
102
RTVSPost2010PropOp34
 70
     1
102
RTVSPost2010Prop35
280
     0
102
RTVSPost2010PropOp35
 70
     1
102
RTVSPost2010Prop36
280
     0
102
RTVSPost2010PropOp36
 70
     1
102
RTVSPost2010Prop37
 90
       50
102
RTVSPost2010PropOp37
 70
     1
102
RTVSPost2010Prop38
140
0.0
102
RTVSPost2010PropOp38
 70
     1
102
RTVSPost2010Prop39
140
1.0
102
RTVSPost2010PropOp39
 70
     1
102
RTVSPost2010Prop40
 90
        0
102
RTVSPost2010PropOp40
 70
     1
102
RTVSPost2010Prop41ColorIndex
 90
       18
102
RTVSPost2010Prop41ColorRGB
 90
        0
102
RTVSPost2010PropOp41
 70
     1
102
RTVSPost2010Prop42
 90
       50
102
RTVSPost2010PropOp42
 70
     1
102
RTVSPost2010Prop43
 90
        3
102
RTVSPost2010PropOp43
 70
     1
102
RTVSPost2010Prop44ColorIndex
 90
        5
102
RTVSPost2010Prop44ColorRGB
 90
      255
102
RTVSPost2010PropOp44
 70
     1
102
RTVSPost2010Prop45
280
     0
102
RTVSPost2010PropOp45
 70
     1
102
RTVSPost2010Prop46
 90
       50
102
RTVSPost2010PropOp46
 70
     1
102
RTVSPost2010Prop47
 90
       50
102
RTVSPost2010PropOp47
 70
     1
102
RTVSPost2010Prop48
 90
       50
102
RTVSPost2010PropOp48
 70
     1
102
RTVSPost2010Prop49
280
     0
102
RTVSPost2010PropOp49
 70
     1
102
RTVSPost2010Prop50
 90
       50
102
RTVSPost2010PropOp50
 70
     1
102
RTVSPost2010Prop51ColorIndex
 90
      256
102
RTVSPost2010Prop51ColorRGB
 90
-16777216
102
RTVSPost2010PropOp51
 70
     0
102
RTVSPost2010Prop52
140
1.0
102
RTVSPost2010PropOp52
 70
     0
102
RTVSPost2010Prop53
 90
        2
102
RTVSPost2010PropOp53
 70
     1
102
RTVSPost2010Prop54
  1
strokes_ogs.tif
102
RTVSPost2010PropOp54
 70
     1
102
RTVSPost2010Prop55
280
     0
102
RTVSPost2010PropOp55
 70
     1
102
RTVSPost2010Prop56
140
1.0
102
RTVSPost2010PropOp56
 70
     1
102
RTVSPost2010Prop57
140
1.0
102
RTVSPost2010PropOp57
 70
     1
  0
XRECORD
  5
18F
102
{ACAD_REACTORS
330
18E
102
}
330
18E
100
AcDbXrecord
280
     1
102
RTVSPost2010Prop28
280
     0
102
RTVSPost2010PropOp28
 70
     1
102
RTVSPost2010Prop29
280
     1
102
RTVSPost2010PropOp29
 70
     1
102
RTVSPost2010Prop30
280
     1
102
RTVSPost2010PropOp30
 70
     1
102
RTVSPost2010Prop31
280
     0
102
RTVSPost2010PropOp31
 70
     1
102
RTVSPost2010Prop32
280
     0
102
RTVSPost2010PropOp32
 70
     1
102
RTVSPost2010Prop33
280
     0
102
RTVSPost2010PropOp33
 70
     1
102
RTVSPost2010Prop34
280
     0
102
RTVSPost2010PropOp34
 70
     1
102
RTVSPost2010Prop35
280
     0
102
RTVSPost2010PropOp35
 70
     1
102
RTVSPost2010Prop36
280
     0
102
RTVSPost2010PropOp36
 70
     1
102
RTVSPost2010Prop37
 90
       50
102
RTVSPost2010PropOp37
 70
     1
102
RTVSPost2010Prop38
140
0.0
102
RTVSPost2010PropOp38
 70
     1
102
RTVSPost2010Prop39
140
1.0
102
RTVSPost2010PropOp39
 70
     1
102
RTVSPost2010Prop40
 90
        0
102
RTVSPost2010PropOp40
 70
     1
102
RTVSPost2010Prop41ColorIndex
 90
       18
102
RTVSPost2010Prop41ColorRGB
 90
        0
102
RTVSPost2010PropOp41
 70
     1
102
RTVSPost2010Prop42
 90
       50
102
RTVSPost2010PropOp42
 70
     1
102
RTVSPost2010Prop43
 90
        3
102
RTVSPost2010PropOp43
 70
     1
102
RTVSPost2010Prop44ColorIndex
 90
        5
102
RTVSPost2010Prop44ColorRGB
 90
      255
102
RTVSPost2010PropOp44
 70
     1
102
RTVSPost2010Prop45
280
     0
102
RTVSPost2010PropOp45
 70
     1
102
RTVSPost2010Prop46
 90
       50
102
RTVSPost2010PropOp46
 70
     1
102
RTVSPost2010Prop47
 90
       50
102
RTVSPost2010PropOp47
 70
     1
102
RTVSPost2010Prop48
 90
       50
102
RTVSPost2010PropOp48
 70
     1
102
RTVSPost2010Prop49
280
     0
102
RTVSPost2010PropOp49
 70
     1
102
RTVSPost2010Prop50
 90
       50
102
RTVSPost2010PropOp50
 70
     1
102
RTVSPost2010Prop51ColorIndex
 90
      256
102
RTVSPost2010Prop51ColorRGB
 90
-16777216
102
RTVSPost2010PropOp51
 70
     0
102
RTVSPost2010Prop52
140
1.0
102
RTVSPost2010PropOp52
 70
     0
102
RTVSPost2010Prop53
 90
        2
102
RTVSPost2010PropOp53
 70
     1
102
RTVSPost2010Prop54
  1
strokes_ogs.tif
102
RTVSPost2010PropOp54
 70
     1
102
RTVSPost2010Prop55
280
     0
102
RTVSPost2010PropOp55
 70
     1
102
RTVSPost2010Prop56
140
1.0
102
RTVSPost2010PropOp56
 70
     1
102
RTVSPost2010Prop57
140
1.0
102
RTVSPost2010PropOp57
 70
     1
  0
ENDSEC
  0
EOF
