  0
SECTION
  2
HEADER
  9
$ACADVER
  1
AC1024
  9
$ACADMAINTVER
 70
     6
  9
$DWGCODEPAGE
  3
UNDEFINED
  9
$INSBASE
 10
0.0
 20
0.0
 30
0.0
  9
$EXTMIN
 10
1.000000000000000E+20
 20
1.000000000000000E+20
 30
1.000000000000000E+20
  9
$EXTMAX
 10
-1.000000000000000E+20
 20
-1.000000000000000E+20
 30
-1.000000000000000E+20
  9
$LIMMIN
 10
0.0
 20
0.0
  9
$LIMMAX
 10
12.0
 20
9.0
  9
$ORTHOMODE
 70
     0
  9
$REGENMODE
 70
     1
  9
$FILLMODE
 70
     1
  9
$QTEXTMODE
 70
     0
  9
$MIRRTEXT
 70
     1
  9
$LTSCALE
 40
1.0
  9
$ATTMODE
 70
     1
  9
$TEXTSIZE
 40
0.2
  9
$TRACEWID
 40
0.05
  9
$TEXTSTYLE
  7
Standard
  9
$CLAYER
  8
0
  9
$CELTYPE
  6
ByLayer
  9
$CECOLOR
 62
   256
  9
$CELTSCALE
 40
1.0
  9
$DISPSILH
 70
     0
  9
$DIMSCALE
 40
1.0
  9
$DIMASZ
 40
0.18
  9
$DIMEXO
 40
0.0625
  9
$DIMDLI
 40
0.38
  9
$DIMRND
 40
0.0
  9
$DIMDLE
 40
0.0
  9
$DIMEXE
 40
0.18
  9
$DIMTP
 40
0.0
  9
$DIMTM
 40
0.0
  9
$DIMTXT
 40
0.18
  9
$DIMCEN
 40
0.09
  9
$DIMTSZ
 40
0.0
  9
$DIMTOL
 70
     0
  9
$DIMLIM
 70
     0
  9
$DIMTIH
 70
     1
  9
$DIMTOH
 70
     1
  9
$DIMSE1
 70
     0
  9
$DIMSE2
 70
     0
  9
$DIMTAD
 70
     0
  9
$DIMZIN
 70
     0
  9
$DIMBLK
  1

  9
$DIMASO
 70
     1
  9
$DIMSHO
 70
     1
  9
$DIMPOST
  1

  9
$DIMAPOST
  1

  9
$DIMALT
 70
     0
  9
$DIMALTD
 70
     2
  9
$DIMALTF
 40
25.4
  9
$DIMLFAC
 40
1.0
  9
$DIMTOFL
 70
     0
  9
$DIMTVP
 40
0.0
  9
$DIMTIX
 70
     0
  9
$DIMSOXD
 70
     0
  9
$DIMSAH
 70
     0
  9
$DIMBLK1
  1

  9
$DIMBLK2
  1

  9
$DIMSTYLE
  2
Standard
  9
$DIMCLRD
 70
     0
  9
$DIMCLRE
 70
     0
  9
$DIMCLRT
 70
     0
  9
$DIMTFAC
 40
1.0
  9
$DIMGAP
 40
0.09
  9
$DIMJUST
 70
     0
  9
$DIMSD1
 70
     0
  9
$DIMSD2
 70
     0
  9
$DIMTOLJ
 70
     1
  9
$DIMTZIN
 70
     0
  9
$DIMALTZ
 70
     0
  9
$DIMALTTZ
 70
     0
  9
$DIMUPT
 70
     0
  9
$DIMDEC
 70
     4
  9
$DIMTDEC
 70
     4
  9
$DIMALTU
 70
     2
  9
$DIMALTTD
 70
     2
  9
$DIMTXSTY
  7
Standard
  9
$DIMAUNIT
 70
     0
  9
$DIMADEC
 70
     0
  9
$DIMALTRND
 40
0.0
  9
$DIMAZIN
 70
     0
  9
$DIMDSEP
 70
    46
  9
$DIMATFIT
 70
     3
  9
$DIMFRAC
 70
     0
  9
$DIMLDRBLK
  1

  9
$DIMLUNIT
 70
     2
  9
$DIMLWD
 70
    -2
  9
$DIMLWE
 70
    -2
  9
$DIMTMOVE
 70
     0
  9
$DIMFXL
 40
1.0
  9
$DIMFXLON
 70
     0
  9
$DIMJOGANG
 40
0.7853981633974483
  9
$DIMTFILL
 70
     0
  9
$DIMTFILLCLR
 70
     0
  9
$DIMARCSYM
 70
     0
  9
$DIMLTYPE
  6

  9
$DIMLTEX1
  6

  9
$DIMLTEX2
  6

  9
$DIMTXTDIRECTION
 70
     0
  9
$LUNITS
 70
     2
  9
$LUPREC
 70
     4
  9
$SKETCHINC
 40
0.1
  9
$FILLETRAD
 40
0.5
  9
$AUNITS
 70
     0
  9
$AUPREC
 70
     0
  9
$MENU
  1
.
  9
$ELEVATION
 40
0.0
  9
$PELEVATION
 40
0.0
  9
$THICKNESS
 40
0.0
  9
$LIMCHECK
 70
     0
  9
$CHAMFERA
 40
0.5
  9
$CHAMFERB
 40
0.5
  9
$CHAMFERC
 40
1.0
  9
$CHAMFERD
 40
0.0
  9
$SKPOLY
 70
     0
  9
$TDCREATE
 40
2457917.595983785
  9
$TDUCREATE
 40
2457917.220983796
  9
$TDUPDATE
 40
2457917.595983785
  9
$TDUUPDATE
 40
2457917.220983796
  9
$TDINDWG
 40
0.0000000116
  9
$TDUSRTIMER
 40
0.0000000116
  9
$USRTIMER
 70
     1
  9
$ANGBASE
 50
0.0
  9
$ANGDIR
 70
     0
  9
$PDMODE
 70
     0
  9
$PDSIZE
 40
0.0
  9
$PLINEWID
 40
0.0
  9
$SPLFRAME
 70
     0
  9
$SPLINETYPE
 70
     6
  9
$SPLINESEGS
 70
     8
  9
$HANDSEED
  5
1F9
  9
$SURFTAB1
 70
     6
  9
$SURFTAB2
 70
     6
  9
$SURFTYPE
 70
     6
  9
$SURFU
 70
     6
  9
$SURFV
 70
     6
  9
$UCSBASE
  2

  9
$UCSNAME
  2

  9
$UCSORG
 10
0.0
 20
0.0
 30
0.0
  9
$UCSXDIR
 10
1.0
 20
0.0
 30
0.0
  9
$UCSYDIR
 10
0.0
 20
1.0
 30
0.0
  9
$UCSORTHOREF
  2

  9
$UCSORTHOVIEW
 70
     0
  9
$UCSORGTOP
 10
0.0
 20
0.0
 30
0.0
  9
$UCSORGBOTTOM
 10
0.0
 20
0.0
 30
0.0
  9
$UCSORGLEFT
 10
0.0
 20
0.0
 30
0.0
  9
$UCSORGRIGHT
 10
0.0
 20
0.0
 30
0.0
  9
$UCSORGFRONT
 10
0.0
 20
0.0
 30
0.0
  9
$UCSORGBACK
 10
0.0
 20
0.0
 30
0.0
  9
$PUCSBASE
  2

  9
$PUCSNAME
  2

  9
$PUCSORG
 10
0.0
 20
0.0
 30
0.0
  9
$PUCSXDIR
 10
1.0
 20
0.0
 30
0.0
  9
$PUCSYDIR
 10
0.0
 20
1.0
 30
0.0
  9
$PUCSORTHOREF
  2

  9
$PUCSORTHOVIEW
 70
     0
  9
$PUCSORGTOP
 10
0.0
 20
0.0
 30
0.0
  9
$PUCSORGBOTTOM
 10
0.0
 20
0.0
 30
0.0
  9
$PUCSORGLEFT
 10
0.0
 20
0.0
 30
0.0
  9
$PUCSORGRIGHT
 10
0.0
 20
0.0
 30
0.0
  9
$PUCSORGFRONT
 10
0.0
 20
0.0
 30
0.0
  9
$PUCSORGBACK
 10
0.0
 20
0.0
 30
0.0
  9
$USERI1
 70
     0
  9
$USERI2
 70
     0
  9
$USERI3
 70
     0
  9
$USERI4
 70
     0
  9
$USERI5
 70
     0
  9
$USERR1
 40
0.0
  9
$USERR2
 40
0.0
  9
$USERR3
 40
0.0
  9
$USERR4
 40
0.0
  9
$USERR5
 40
0.0
  9
$WORLDVIEW
 70
     1
  9
$SHADEDGE
 70
     3
  9
$SHADEDIF
 70
    70
  9
$TILEMODE
 70
     1
  9
$MAXACTVP
 70
    64
  9
$PINSBASE
 10
0.0
 20
0.0
 30
0.0
  9
$PLIMCHECK
 70
     0
  9
$PEXTMIN
 10
1.000000000000000E+20
 20
1.000000000000000E+20
 30
1.000000000000000E+20
  9
$PEXTMAX
 10
-1.000000000000000E+20
 20
-1.000000000000000E+20
 30
-1.000000000000000E+20
  9
$PLIMMIN
 10
0.0
 20
0.0
  9
$PLIMMAX
 10
12.0
 20
9.0
  9
$UNITMODE
 70
     0
  9
$VISRETAIN
 70
     1
  9
$PLINEGEN
 70
     0
  9
$PSLTSCALE
 70
     1
  9
$TREEDEPTH
 70
  3020
  9
$CMLSTYLE
  2
Standard
  9
$CMLJUST
 70
     0
  9
$CMLSCALE
 40
1.0
  9
$PROXYGRAPHICS
 70
     1
  9
$MEASUREMENT
 70
     0
  9
$CELWEIGHT
370
    -1
  9
$ENDCAPS
280
     0
  9
$JOINSTYLE
280
     0
  9
$LWDISPLAY
290
     1
  9
$INSUNITS
 70
     1
  9
$HYPERLINKBASE
  1

  9
$STYLESHEET
  1

  9
$XEDIT
290
     1
  9
$CEPSNTYPE
380
     0
  9
$PSTYLEMODE
290
     1
  9
$FINGERPRINTGUID
  2
{4225FF4C-D206-40E6-9DC1-36764E3F036E}
  9
$VERSIONGUID
  2
{FAEB1C32-E019-11D5-929B-00C0DF256EC4}
  9
$EXTNAMES
290
     1
  9
$PSVPSCALE
 40
0.0
  9
$OLESTARTUP
290
     0
  9
$SORTENTS
280
   127
  9
$INDEXCTL
280
     0
  9
$HIDETEXT
280
     1
  9
$XCLIPFRAME
280
     2
  9
$HALOGAP
280
     0
  9
$OBSCOLOR
 70
   257
  9
$OBSLTYPE
280
     0
  9
$INTERSECTIONDISPLAY
280
     0
  9
$INTERSECTIONCOLOR
 70
   257
  9
$DIMASSOC
280
     2
  9
$PROJECTNAME
  1

  9
$CAMERADISPLAY
290
     0
  9
$LENSLENGTH
 40
50.0
  9
$CAMERAHEIGHT
 40
0.0
  9
$STEPSPERSEC
 40
2.0
  9
$STEPSIZE
 40
6.0
  9
$3DDWFPREC
 40
2.0
  9
$PSOLWIDTH
 40
0.25
  9
$PSOLHEIGHT
 40
4.0
  9
$LOFTANG1
 40
1.570796326794897
  9
$LOFTANG2
 40
1.570796326794897
  9
$LOFTMAG1
 40
0.0
  9
$LOFTMAG2
 40
0.0
  9
$LOFTPARAM
 70
     7
  9
$LOFTNORMALS
280
     1
  9
$LATITUDE
 40
37.795
  9
$LONGITUDE
 40
-122.394
  9
$NORTHDIRECTION
 40
0.0
  9
$TIMEZONE
 70
 -8000
  9
$LIGHTGLYPHDISPLAY
280
     1
  9
$TILEMODELIGHTSYNCH
280
     1
  9
$CMATERIAL
347
3C
  9
$SOLIDHIST
280
     1
  9
$SHOWHIST
280
     1
  9
$DWFFRAME
280
     2
  9
$DGNFRAME
280
     2
  9
$REALWORLDSCALE
290
     1
  9
$INTERFERECOLOR
 62
   256
  9
$CSHADOW
280
     0
  9
$SHADOWPLANELOCATION
 40
0.0
  0
ENDSEC
  0
SECTION
  2
CLASSES
  0
CLASS
  1
ACDBDICTIONARYWDFLT
  2
AcDbDictionaryWithDefault
  3
ObjectDBX Classes
 90
        0
 91
        4
280
     0
281
     0
  0
CLASS
  1
VISUALSTYLE
  2
AcDbVisualStyle
  3
ObjectDBX Classes
 90
     4095
 91
        4
280
     0
281
     0
  0
CLASS
  1
MATERIAL
  2
AcDbMaterial
  3
ObjectDBX Classes
 90
     1153
 91
        4
280
     0
281
     0
  0
CLASS
  1
SUN
  2
AcDbSun
  3
SCENEOE
 90
     1024
 91
        4
280
     0
281
     0
  0
ENDSEC
  0
SECTION
  2
TABLES
  0
TABLE
  2
VPORT
  5
8
330
0
100
AcDbSymbolTable
 70
     1
  0
VPORT
  5
29
330
8
100
AcDbSymbolTableRecord
100
AcDbViewportTableRecord
  2
*Active
 70
     0
 10
0.0
 20
0.0
 11
1.0
 21
1.0
 12
0.0
 22
0.0
 13
0.0
 23
0.0
 14
0.5
 24
0.5
 15
0.5
 25
0.5
 16
0.0
 26
0.0
 36
1.0
 17
91.00082462281999
 27
-128.4993055234307
 37
0.0
 40
256.9986110468615
 41
0.7081814508812795
 42
50.0
 43
0.0
 44
0.0
 50
0.0
 51
0.0
 71
     0
 72
   100
 73
     1
 74
     3
 75
     0
 76
     0
 77
     0
 78
     0
281
     0
 65
     1
110
0.0
120
0.0
130
0.0
111
1.0
121
0.0
131
0.0
112
0.0
122
1.0
132
0.0
 79
     0
146
0.0
 60
     3
 61
     5
292
     1
282
     1
141
0.0
142
0.0
 63
   250
361
3F
  0
ENDTAB
  0
TABLE
  2
LTYPE
  5
5
330
0
100
AcDbSymbolTable
 70
     1
  0
LTYPE
  5
14
330
5
100
AcDbSymbolTableRecord
100
AcDbLinetypeTableRecord
  2
ByBlock
 70
     0
  3

 72
    65
 73
     0
 40
0.0
  0
LTYPE
  5
15
330
5
100
AcDbSymbolTableRecord
100
AcDbLinetypeTableRecord
  2
ByLayer
 70
     0
  3

 72
    65
 73
     0
 40
0.0
  0
LTYPE
  5
16
330
5
100
AcDbSymbolTableRecord
100
AcDbLinetypeTableRecord
  2
Continuous
 70
     0
  3
Solid line
 72
    65
 73
     0
 40
0.0
  0
ENDTAB
  0
TABLE
  2
LAYER
  5
2
330
0
100
AcDbSymbolTable
 70
     2
  0
LAYER
  5
10
330
2
100
AcDbSymbolTableRecord
100
AcDbLayerTableRecord
  2
0
 70
     0
 62
     7
  6
Continuous
370
    -3
390
F
347
3E
  0
LAYER
  5
40
330
2
100
AcDbSymbolTableRecord
100
AcDbLayerTableRecord
  2
_U+30EC_U+30A4_U+30E4_U+30FC 1
 70
     0
 62
     7
  6
Continuous
370
    -3
390
F
347
3E
  0
ENDTAB
  0
TABLE
  2
STYLE
  5
3
330
0
100
AcDbSymbolTable
 70
     1
  0
STYLE
  5
11
330
3
100
AcDbSymbolTableRecord
100
AcDbTextStyleTableRecord
  2
Standard
 70
     0
 40
0.0
 41
1.0
 50
0.0
 71
     0
 42
0.2
  3
txt
  4

  0
ENDTAB
  0
TABLE
  2
VIEW
  5
6
330
0
100
AcDbSymbolTable
 70
     0
  0
ENDTAB
  0
TABLE
  2
UCS
  5
7
330
0
100
AcDbSymbolTable
 70
     0
  0
ENDTAB
  0
TABLE
  2
APPID
  5
9
330
0
100
AcDbSymbolTable
 70
     1
  0
APPID
  5
12
330
9
100
AcDbSymbolTableRecord
100
AcDbRegAppTableRecord
  2
ACAD
 70
     0
  0
ENDTAB
  0
TABLE
  2
DIMSTYLE
  5
A
330
0
100
AcDbSymbolTable
 70
     1
100
AcDbDimStyleTable
  0
DIMSTYLE
105
27
330
A
100
AcDbSymbolTableRecord
100
AcDbDimStyleTableRecord
  2
Standard
 70
     0
178
     0
340
11
  0
ENDTAB
  0
TABLE
  2
BLOCK_RECORD
  5
1
330
0
100
AcDbSymbolTable
 70
    17
  0
BLOCK_RECORD
  5
1F
330
1
100
AcDbSymbolTableRecord
100
AcDbBlockTableRecord
  2
*Model_Space
340
22
 70
     0
280
     1
281
     0
  0
BLOCK_RECORD
  5
1B
330
1
100
AcDbSymbolTableRecord
100
AcDbBlockTableRecord
  2
*Paper_Space
340
1E
 70
     0
280
     1
281
     0
  0
BLOCK_RECORD
  5
23
330
1
100
AcDbSymbolTableRecord
100
AcDbBlockTableRecord
  2
*Paper_Space0
340
26
 70
     0
280
     1
281
     0
  0
BLOCK_RECORD
  5
41
330
1
100
AcDbSymbolTableRecord
100
AcDbBlockTableRecord
  2
block 2
340
0
102
{BLKREFS
331
42
102
}
 70
     0
280
     1
281
     0
  0
BLOCK_RECORD
  5
6F
330
1
100
AcDbSymbolTableRecord
100
AcDbBlockTableRecord
  2
block 3
340
0
102
{BLKREFS
331
70
102
}
 70
     0
280
     1
281
     0
  0
BLOCK_RECORD
  5
83
330
1
100
AcDbSymbolTableRecord
100
AcDbBlockTableRecord
  2
block 4
340
0
102
{BLKREFS
331
84
102
}
 70
     0
280
     1
281
     0
  0
BLOCK_RECORD
  5
94
330
1
100
AcDbSymbolTableRecord
100
AcDbBlockTableRecord
  2
block 5
340
0
102
{BLKREFS
331
95
102
}
 70
     0
280
     1
281
     0
  0
BLOCK_RECORD
  5
B3
330
1
100
AcDbSymbolTableRecord
100
AcDbBlockTableRecord
  2
block 6
340
0
102
{BLKREFS
331
B4
102
}
 70
     0
280
     1
281
     0
  0
BLOCK_RECORD
  5
BC
330
1
100
AcDbSymbolTableRecord
100
AcDbBlockTableRecord
  2
block 7
340
0
102
{BLKREFS
331
BD
102
}
 70
     0
280
     1
281
     0
  0
BLOCK_RECORD
  5
C2
330
1
100
AcDbSymbolTableRecord
100
AcDbBlockTableRecord
  2
block 8
340
0
102
{BLKREFS
331
C3
102
}
 70
     0
280
     1
281
     0
  0
BLOCK_RECORD
  5
DD
330
1
100
AcDbSymbolTableRecord
100
AcDbBlockTableRecord
  2
block 9
340
0
102
{BLKREFS
331
DE
102
}
 70
     0
280
     1
281
     0
  0
BLOCK_RECORD
  5
E4
330
1
100
AcDbSymbolTableRecord
100
AcDbBlockTableRecord
  2
block 10
340
0
102
{BLKREFS
331
E5
102
}
 70
     0
280
     1
281
     0
  0
BLOCK_RECORD
  5
100
330
1
100
AcDbSymbolTableRecord
100
AcDbBlockTableRecord
  2
block 11
340
0
102
{BLKREFS
331
101
102
}
 70
     0
280
     1
281
     0
  0
BLOCK_RECORD
  5
1B1
330
1
100
AcDbSymbolTableRecord
100
AcDbBlockTableRecord
  2
block 12
340
0
102
{BLKREFS
331
1B2
102
}
 70
     0
280
     1
281
     0
  0
BLOCK_RECORD
  5
1BD
330
1
100
AcDbSymbolTableRecord
100
AcDbBlockTableRecord
  2
block 13
340
0
102
{BLKREFS
331
1BE
102
}
 70
     0
280
     1
281
     0
  0
BLOCK_RECORD
  5
1C9
330
1
100
AcDbSymbolTableRecord
100
AcDbBlockTableRecord
  2
block 14
340
0
102
{BLKREFS
331
1CA
102
}
 70
     0
280
     1
281
     0
  0
BLOCK_RECORD
  5
1D5
330
1
100
AcDbSymbolTableRecord
100
AcDbBlockTableRecord
  2
block 15
340
0
102
{BLKREFS
331
1D6
102
}
 70
     0
280
     1
281
     0
  0
BLOCK_RECORD
  5
1E1
330
1
100
AcDbSymbolTableRecord
100
AcDbBlockTableRecord
  2
block 16
340
0
102
{BLKREFS
331
1E2
102
}
 70
     0
280
     1
281
     0
  0
BLOCK_RECORD
  5
1ED
330
1
100
AcDbSymbolTableRecord
100
AcDbBlockTableRecord
  2
block 17
340
0
102
{BLKREFS
331
1EE
102
}
 70
     0
280
     1
281
     0
  0
ENDTAB
  0
ENDSEC
  0
SECTION
  2
BLOCKS
  0
BLOCK
  5
20
330
1F
100
AcDbEntity
  8
0
100
AcDbBlockBegin
  2
*Model_Space
 70
     0
 10
0.0
 20
0.0
 30
0.0
  3
*Model_Space
  1

  0
ENDBLK
  5
21
330
1F
100
AcDbEntity
  8
0
100
AcDbBlockEnd
  0
BLOCK
  5
1C
330
1B
100
AcDbEntity
 67
     1
  8
0
100
AcDbBlockBegin
  2
*Paper_Space
 70
     0
 10
0.0
 20
0.0
 30
0.0
  3
*Paper_Space
  1

  0
ENDBLK
  5
1D
330
1B
100
AcDbEntity
 67
     1
  8
0
100
AcDbBlockEnd
  0
BLOCK
  5
24
330
23
100
AcDbEntity
  8
0
100
AcDbBlockBegin
  2
*Paper_Space0
 70
     0
 10
0.0
 20
0.0
 30
0.0
  3
*Paper_Space0
  1

  0
ENDBLK
  5
25
330
23
100
AcDbEntity
  8
0
100
AcDbBlockEnd
  0
BLOCK
  5
43
330
41
100
AcDbEntity
  8
0
100
AcDbBlockBegin
  2
block 2
 70
     0
 10
0.0
 20
0.0
 30
0.0
  3
block 2
  1

  0
POLYLINE
  5
45
330
41
100
AcDbEntity
  8
_U+30EC_U+30A4_U+30E4_U+30FC 1
 62
     7
420
 16777215
370
    25
100
AcDb2dPolyline
 66
     1
 10
0.0
 20
0.0
 30
0.0
  0
VERTEX
  5
46
330
45
100
AcDbEntity
  8
_U+30EC_U+30A4_U+30E4_U+30FC 1
 62
     7
420
 16777215
370
    25
100
AcDbVertex
100
AcDb2dVertex
 10
85.30709726807908
 20
-137.9905446877247
 30
0.0
  0
VERTEX
  5
47
330
45
100
AcDbEntity
  8
_U+30EC_U+30A4_U+30E4_U+30FC 1
 62
     7
420
 16777215
370
    25
100
AcDbVertex
100
AcDb2dVertex
 10
80.76578905060417
 20
-137.9809138543938
 30
0.0
  0
SEQEND
  5
48
330
45
100
AcDbEntity
  8
_U+30EC_U+30A4_U+30E4_U+30FC 1
 62
     7
420
 16777215
370
    25
  0
POLYLINE
  5
49
330
41
100
AcDbEntity
  8
_U+30EC_U+30A4_U+30E4_U+30FC 1
 62
     7
420
 16777215
370
    25
100
AcDb2dPolyline
 66
     1
 10
0.0
 20
0.0
 30
0.0
  0
VERTEX
  5
4A
330
49
100
AcDbEntity
  8
_U+30EC_U+30A4_U+30E4_U+30FC 1
 62
     7
420
 16777215
370
    25
100
AcDbVertex
100
AcDb2dVertex
 10
85.33673060065641
 20
-141.0043252425266
 30
0.0
  0
VERTEX
  5
4B
330
49
100
AcDbEntity
  8
_U+30EC_U+30A4_U+30E4_U+30FC 1
 62
     7
420
 16777215
370
    25
100
AcDbVertex
100
AcDb2dVertex
 10
85.33673060065641
 20
-137.9905446877247
 30
0.0
  0
SEQEND
  5
4C
330
49
100
AcDbEntity
  8
_U+30EC_U+30A4_U+30E4_U+30FC 1
 62
     7
420
 16777215
370
    25
  0
POLYLINE
  5
4D
330
41
100
AcDbEntity
  8
_U+30EC_U+30A4_U+30E4_U+30FC 1
 62
     7
420
 16777215
370
    25
100
AcDb2dPolyline
 66
     1
 10
0.0
 20
0.0
 30
0.0
  0
VERTEX
  5
4E
330
4D
100
AcDbEntity
  8
_U+30EC_U+30A4_U+30E4_U+30FC 1
 62
     7
420
 16777215
370
    25
100
AcDbVertex
100
AcDb2dVertex
 10
88.45281663226953
 20
-141.0043252425266
 30
0.0
  0
VERTEX
  5
4F
330
4D
100
AcDbEntity
  8
_U+30EC_U+30A4_U+30E4_U+30FC 1
 62
     7
420
 16777215
370
    25
100
AcDbVertex
100
AcDb2dVertex
 10
85.33673060065641
 20
-141.0043252425266
 30
0.0
  0
SEQEND
  5
50
330
4D
100
AcDbEntity
  8
_U+30EC_U+30A4_U+30E4_U+30FC 1
 62
     7
420
 16777215
370
    25
  0
POLYLINE
  5
51
330
41
100
AcDbEntity
  8
_U+30EC_U+30A4_U+30E4_U+30FC 1
 62
     7
420
 16777215
370
    25
100
AcDb2dPolyline
 66
     1
 10
0.0
 20
0.0
 30
0.0
  0
VERTEX
  5
52
330
51
100
AcDbEntity
  8
_U+30EC_U+30A4_U+30E4_U+30FC 1
 62
     7
420
 16777215
370
    25
100
AcDbVertex
100
AcDb2dVertex
 10
88.45281663226953
 20
-142.0040974644992
 30
0.0
  0
VERTEX
  5
53
330
51
100
AcDbEntity
  8
_U+30EC_U+30A4_U+30E4_U+30FC 1
 62
     7
420
 16777215
370
    25
100
AcDbVertex
100
AcDb2dVertex
 10
88.45281663226953
 20
-141.0043252425266
 30
0.0
  0
SEQEND
  5
54
330
51
100
AcDbEntity
  8
_U+30EC_U+30A4_U+30E4_U+30FC 1
 62
     7
420
 16777215
370
    25
  0
POLYLINE
  5
55
330
41
100
AcDbEntity
  8
_U+30EC_U+30A4_U+30E4_U+30FC 1
 62
     7
420
 16777215
370
    25
100
AcDb2dPolyline
 66
     1
 10
0.0
 20
0.0
 30
0.0
  0
VERTEX
  5
56
330
55
100
AcDbEntity
  8
_U+30EC_U+30A4_U+30E4_U+30FC 1
 62
     7
420
 16777215
370
    25
100
AcDbVertex
100
AcDb2dVertex
 10
84.45274006765332
 20
-142.0736652422591
 30
0.0
  0
VERTEX
  5
57
330
55
100
AcDbEntity
  8
_U+30EC_U+30A4_U+30E4_U+30FC 1
 62
     7
420
 16777215
370
    25
100
AcDbVertex
100
AcDb2dVertex
 10
88.45281663226953
 20
-142.0736652422591
 30
0.0
  0
SEQEND
  5
58
330
55
100
AcDbEntity
  8
_U+30EC_U+30A4_U+30E4_U+30FC 1
 62
     7
420
 16777215
370
    25
  0
POLYLINE
  5
59
330
41
100
AcDbEntity
  8
_U+30EC_U+30A4_U+30E4_U+30FC 1
 62
     7
420
 16777215
370
    25
100
AcDb2dPolyline
 66
     1
 10
0.0
 20
0.0
 30
0.0
  0
VERTEX
  5
5A
330
59
100
AcDbEntity
  8
_U+30EC_U+30A4_U+30E4_U+30FC 1
 62
     7
420
 16777215
370
    25
100
AcDbVertex
100
AcDb2dVertex
 10
84.42550562390369
 20
-139.0626716319011
 30
0.0
  0
VERTEX
  5
5B
330
59
100
AcDbEntity
  8
_U+30EC_U+30A4_U+30E4_U+30FC 1
 62
     7
420
 16777215
370
    25
100
AcDbVertex
100
AcDb2dVertex
 10
84.42550562390369
 20
-142.0626585755954
 30
0.0
  0
SEQEND
  5
5C
330
59
100
AcDbEntity
  8
_U+30EC_U+30A4_U+30E4_U+30FC 1
 62
     7
420
 16777215
370
    25
  0
POLYLINE
  5
5D
330
41
100
AcDbEntity
  8
_U+30EC_U+30A4_U+30E4_U+30FC 1
 62
     7
420
 16777215
370
    25
100
AcDb2dPolyline
 66
     1
 10
0.0
 20
0.0
 30
0.0
  0
VERTEX
  5
5E
330
5D
100
AcDbEntity
  8
_U+30EC_U+30A4_U+30E4_U+30FC 1
 62
     7
420
 16777215
370
    25
100
AcDbVertex
100
AcDb2dVertex
 10
78.39589855550956
 20
-138.9758530208115
 30
0.0
  0
VERTEX
  5
5F
330
5D
100
AcDbEntity
  8
_U+30EC_U+30A4_U+30E4_U+30FC 1
 62
     7
420
 16777215
370
    25
100
AcDbVertex
100
AcDb2dVertex
 10
84.39587229132637
 20
-138.9758530208115
 30
0.0
  0
SEQEND
  5
60
330
5D
100
AcDbEntity
  8
_U+30EC_U+30A4_U+30E4_U+30FC 1
 62
     7
420
 16777215
370
    25
  0
SPLINE
  5
61
330
41
100
AcDbEntity
  8
_U+30EC_U+30A4_U+30E4_U+30FC 1
 62
   179
420
  2234388
370
     9
100
AcDbSpline
210
0.0
220
0.0
230
1.0
 70
    11
 71
     3
 72
    17
 73
    13
 74
     0
 42
0.0000000001
 43
0.0000000001
 12
1.0
 22
0.0
 32
0.0
 13
1.0
 23
0.0
 33
0.0
 40
0.0
 40
0.0
 40
0.0
 40
0.0
 40
1.0
 40
1.0
 40
1.0
 40
2.0
 40
2.0
 40
2.0
 40
3.0
 40
3.0
 40
3.0
 40
4.0
 40
4.0
 40
4.0
 40
4.0
 10
90.83854684918226
 20
-141.997183020056
 30
0.0
 10
90.83854684918226
 20
-141.942079131181
 30
0.0
 10
90.79409685031628
 20
-141.8972763534143
 30
0.0
 10
90.73864018506443
 20
-141.8972763534143
 30
0.0
 10
90.68353629758136
 20
-141.8972763534143
 30
0.0
 10
90.63873352094659
 20
-141.942079131181
 30
0.0
 10
90.63873352094659
 20
-141.997183020056
 30
0.0
 10
90.63873352094659
 20
-142.052322186709
 30
0.0
 10
90.68353629758136
 20
-142.0970896866982
 30
0.0
 10
90.73864018506443
 20
-142.0970896866982
 30
0.0
 10
90.79409685031628
 20
-142.0970896866982
 30
0.0
 10
90.83854684918226
 20
-142.052322186709
 30
0.0
 10
90.83854684918226
 20
-141.997183020056
 30
0.0
  0
SPLINE
  5
62
330
41
100
AcDbEntity
  8
_U+30EC_U+30A4_U+30E4_U+30FC 1
 62
   179
420
  2234388
370
     9
100
AcDbSpline
210
0.0
220
0.0
230
1.0
 70
    11
 71
     3
 72
    17
 73
    13
 74
     0
 42
0.0000000001
 43
0.0000000001
 12
1.0
 22
0.0
 32
0.0
 13
1.0
 23
0.0
 33
0.0
 40
0.0
 40
0.0
 40
0.0
 40
0.0
 40
1.0
 40
1.0
 40
1.0
 40
2.0
 40
2.0
 40
2.0
 40
3.0
 40
3.0
 40
3.0
 40
4.0
 40
4.0
 40
4.0
 40
4.0
 10
90.83854684918226
 20
-140.8920007981102
 30
0.0
 10
90.83854684918226
 20
-140.8368969092353
 30
0.0
 10
90.79409685031628
 20
-140.7920941314686
 30
0.0
 10
90.73864018506443
 20
-140.7920941314686
 30
0.0
 10
90.68353629758136
 20
-140.7920941314686
 30
0.0
 10
90.63873352094659
 20
-140.8368969092353
 30
0.0
 10
90.63873352094659
 20
-140.8920007981102
 30
0.0
 10
90.63873352094659
 20
-140.9478102425407
 30
0.0
 10
90.68353629758136
 20
-140.9919074647519
 30
0.0
 10
90.73864018506443
 20
-140.9919074647519
 30
0.0
 10
90.79409685031628
 20
-140.9919074647519
 30
0.0
 10
90.83854684918226
 20
-140.9478102425407
 30
0.0
 10
90.83854684918226
 20
-140.8920007981102
 30
0.0
  0
POLYLINE
  5
63
330
41
100
AcDbEntity
  8
_U+30EC_U+30A4_U+30E4_U+30FC 1
 62
   179
420
  2234388
370
     9
100
AcDb2dPolyline
 66
     1
 10
0.0
 20
0.0
 30
0.0
  0
VERTEX
  5
64
330
63
100
AcDbEntity
  8
_U+30EC_U+30A4_U+30E4_U+30FC 1
 62
   179
420
  2234388
370
     9
100
AcDbVertex
100
AcDb2dVertex
 10
90.73864018506443
 20
-140.8920007981102
 30
0.0
  0
VERTEX
  5
65
330
63
100
AcDbEntity
  8
_U+30EC_U+30A4_U+30E4_U+30FC 1
 62
   179
420
  2234388
370
     9
100
AcDbVertex
100
AcDb2dVertex
 10
90.73864018506443
 20
-141.8924432978601
 30
0.0
  0
SEQEND
  5
66
330
63
100
AcDbEntity
  8
_U+30EC_U+30A4_U+30E4_U+30FC 1
 62
   179
420
  2234388
370
     9
  0
POLYLINE
  5
67
330
41
100
AcDbEntity
  8
_U+30EC_U+30A4_U+30E4_U+30FC 1
 62
   179
420
  2234388
370
     9
100
AcDb2dPolyline
 66
     1
 10
0.0
 20
0.0
 30
0.0
  0
VERTEX
  5
68
330
67
100
AcDbEntity
  8
_U+30EC_U+30A4_U+30E4_U+30FC 1
 62
   179
420
  2234388
370
     9
100
AcDbVertex
100
AcDb2dVertex
 10
92.6989204128313
 20
-140.8920007981102
 30
0.0
  0
VERTEX
  5
69
330
67
100
AcDbEntity
  8
_U+30EC_U+30A4_U+30E4_U+30FC 1
 62
   179
420
  2234388
370
     9
100
AcDbVertex
100
AcDb2dVertex
 10
89.73886798834852
 20
-140.8920007981102
 30
0.0
  0
SEQEND
  5
6A
330
67
100
AcDbEntity
  8
_U+30EC_U+30A4_U+30E4_U+30FC 1
 62
   179
420
  2234388
370
     9
  0
POLYLINE
  5
6B
330
41
100
AcDbEntity
  8
_U+30EC_U+30A4_U+30E4_U+30FC 1
 62
   179
420
  2234388
370
     9
100
AcDb2dPolyline
 66
     1
 10
0.0
 20
0.0
 30
0.0
  0
VERTEX
  5
6C
330
6B
100
AcDbEntity
  8
_U+30EC_U+30A4_U+30E4_U+30FC 1
 62
   179
420
  2234388
370
     9
100
AcDbVertex
100
AcDb2dVertex
 10
92.6989204128313
 20
-141.997183020056
 30
0.0
  0
VERTEX
  5
6D
330
6B
100
AcDbEntity
  8
_U+30EC_U+30A4_U+30E4_U+30FC 1
 62
   179
420
  2234388
370
     9
100
AcDbVertex
100
AcDb2dVertex
 10
89.73886798834852
 20
-141.997183020056
 30
0.0
  0
SEQEND
  5
6E
330
6B
100
AcDbEntity
  8
_U+30EC_U+30A4_U+30E4_U+30FC 1
 62
   179
420
  2234388
370
     9
  0
INSERT
  5
70
330
41
100
AcDbEntity
  8
_U+30EC_U+30A4_U+30E4_U+30FC 1
100
AcDbBlockReference
  2
block 3
 10
0.0
 20
0.0
 30
0.0
  0
SPLINE
  5
75
330
41
100
AcDbEntity
  8
_U+30EC_U+30A4_U+30E4_U+30FC 1
 62
   179
420
  2234388
370
     9
100
AcDbSpline
210
0.0
220
0.0
230
1.0
 70
    11
 71
     3
 72
    17
 73
    13
 74
     0
 42
0.0000000001
 43
0.0000000001
 12
1.0
 22
0.0
 32
0.0
 13
1.0
 23
0.0
 33
0.0
 40
0.0
 40
0.0
 40
0.0
 40
0.0
 40
1.0
 40
1.0
 40
1.0
 40
2.0
 40
2.0
 40
2.0
 40
3.0
 40
3.0
 40
3.0
 40
4.0
 40
4.0
 40
4.0
 40
4.0
 10
104.855254269364
 20
-113.5622358049428
 30
0.0
 10
104.8159901036991
 20
-113.523289138286
 30
0.0
 10
104.7529487164185
 20
-113.523289138286
 30
0.0
 10
104.7140020507455
 20
-113.5622358049428
 30
0.0
 10
104.6750906628493
 20
-113.6014999715998
 30
0.0
 10
104.6747378850805
 20
-113.6645413604727
 30
0.0
 10
104.7140020507455
 20
-113.7034880271298
 30
0.0
 10
104.7529487164185
 20
-113.7427521937865
 30
0.0
 10
104.8163428814679
 20
-113.7427521937865
 30
0.0
 10
104.855254269364
 20
-113.7034880271298
 30
0.0
 10
104.8945537128059
 20
-113.6645413604727
 30
0.0
 10
104.8942009350371
 20
-113.6014999715998
 30
0.0
 10
104.855254269364
 20
-113.5622358049428
 30
0.0
  0
SPLINE
  5
76
330
41
100
AcDbEntity
  8
_U+30EC_U+30A4_U+30E4_U+30FC 1
 62
   179
420
  2234388
370
     9
100
AcDbSpline
210
0.0
220
0.0
230
1.0
 70
    11
 71
     3
 72
    17
 73
    13
 74
     0
 42
0.0000000001
 43
0.0000000001
 12
1.0
 22
0.0
 32
0.0
 13
1.0
 23
0.0
 33
0.0
 40
0.0
 40
0.0
 40
0.0
 40
0.0
 40
1.0
 40
1.0
 40
1.0
 40
2.0
 40
2.0
 40
2.0
 40
3.0
 40
3.0
 40
3.0
 40
4.0
 40
4.0
 40
4.0
 40
4.0
 10
104.567246498934
 20
-113.2745808050148
 30
0.0
 10
104.527982333269
 20
-113.23528136058
 30
0.0
 10
104.4649409459884
 20
-113.2349638605801
 30
0.0
 10
104.4256767803235
 20
-113.2742280272371
 30
0.0
 10
104.3867301146504
 20
-113.313139416116
 30
0.0
 10
104.3867301146504
 20
-113.3765335827671
 30
0.0
 10
104.4259942803154
 20
-113.4158330272016
 30
0.0
 10
104.4652937237572
 20
-113.4550971938583
 30
0.0
 10
104.5283351110378
 20
-113.4547444160809
 30
0.0
 10
104.567246498934
 20
-113.4158330272016
 30
0.0
 10
104.6065459423758
 20
-113.3765335827671
 30
0.0
 10
104.6065459423758
 20
-113.3134921938938
 30
0.0
 10
104.567246498934
 20
-113.2745808050148
 30
0.0
  0
POLYLINE
  5
77
330
41
100
AcDbEntity
  8
_U+30EC_U+30A4_U+30E4_U+30FC 1
 62
   179
420
  2234388
370
     9
100
AcDb2dPolyline
 66
     1
 10
0.0
 20
0.0
 30
0.0
  0
VERTEX
  5
78
330
77
100
AcDbEntity
  8
_U+30EC_U+30A4_U+30E4_U+30FC 1
 62
   179
420
  2234388
370
     9
100
AcDbVertex
100
AcDb2dVertex
 10
104.4966203896247
 20
-113.3452069161081
 30
0.0
  0
VERTEX
  5
79
330
77
100
AcDbEntity
  8
_U+30EC_U+30A4_U+30E4_U+30FC 1
 62
   179
420
  2234388
370
     9
100
AcDbVertex
100
AcDb2dVertex
 10
104.7088514953213
 20
-113.5574027493886
 30
0.0
  0
SEQEND
  5
7A
330
77
100
AcDbEntity
  8
_U+30EC_U+30A4_U+30E4_U+30FC 1
 62
   179
420
  2234388
370
     9
  0
POLYLINE
  5
7B
330
41
100
AcDbEntity
  8
_U+30EC_U+30A4_U+30E4_U+30FC 1
 62
   179
420
  2234388
370
     9
100
AcDb2dPolyline
 66
     1
 10
0.0
 20
0.0
 30
0.0
  0
VERTEX
  5
7C
330
7B
100
AcDbEntity
  8
_U+30EC_U+30A4_U+30E4_U+30FC 1
 62
   179
420
  2234388
370
     9
100
AcDbVertex
100
AcDb2dVertex
 10
105.8825784098215
 20
-111.9588960831214
 30
0.0
  0
VERTEX
  5
7D
330
7B
100
AcDbEntity
  8
_U+30EC_U+30A4_U+30E4_U+30FC 1
 62
   179
420
  2234388
370
     9
100
AcDbVertex
100
AcDb2dVertex
 10
103.7896916407194
 20
-114.0521383048204
 30
0.0
  0
SEQEND
  5
7E
330
7B
100
AcDbEntity
  8
_U+30EC_U+30A4_U+30E4_U+30FC 1
 62
   179
420
  2234388
370
     9
  0
POLYLINE
  5
7F
330
41
100
AcDbEntity
  8
_U+30EC_U+30A4_U+30E4_U+30FC 1
 62
   179
420
  2234388
370
     9
100
AcDb2dPolyline
 66
     1
 10
0.0
 20
0.0
 30
0.0
  0
VERTEX
  5
80
330
7F
100
AcDbEntity
  8
_U+30EC_U+30A4_U+30E4_U+30FC 1
 62
   179
420
  2234388
370
     9
100
AcDbVertex
100
AcDb2dVertex
 10
106.1706214580284
 20
-112.2469038608271
 30
0.0
  0
VERTEX
  5
81
330
7F
100
AcDbEntity
  8
_U+30EC_U+30A4_U+30E4_U+30FC 1
 62
   179
420
  2234388
370
     9
100
AcDbVertex
100
AcDb2dVertex
 10
104.0776967892012
 20
-114.3401460825261
 30
0.0
  0
SEQEND
  5
82
330
7F
100
AcDbEntity
  8
_U+30EC_U+30A4_U+30E4_U+30FC 1
 62
   179
420
  2234388
370
     9
  0
INSERT
  5
84
330
41
100
AcDbEntity
  8
_U+30EC_U+30A4_U+30E4_U+30FC 1
100
AcDbBlockReference
  2
block 4
 10
0.0
 20
0.0
 30
0.0
  0
INSERT
  5
95
330
41
100
AcDbEntity
  8
_U+30EC_U+30A4_U+30E4_U+30FC 1
100
AcDbBlockReference
  2
block 5
 10
0.0
 20
0.0
 30
0.0
  0
SPLINE
  5
A1
330
41
100
AcDbEntity
  8
_U+30EC_U+30A4_U+30E4_U+30FC 1
 62
   179
420
  2234388
370
     9
100
AcDbSpline
210
0.0
220
0.0
230
1.0
 70
    11
 71
     3
 72
    17
 73
    13
 74
     0
 42
0.0000000001
 43
0.0000000001
 12
1.0
 22
0.0
 32
0.0
 13
1.0
 23
0.0
 33
0.0
 40
0.0
 40
0.0
 40
0.0
 40
0.0
 40
1.0
 40
1.0
 40
1.0
 40
2.0
 40
2.0
 40
2.0
 40
3.0
 40
3.0
 40
3.0
 40
4.0
 40
4.0
 40
4.0
 40
4.0
 10
75.16096169359523
 20
-142.2617663533231
 30
0.0
 10
75.16096169359523
 20
-142.2059569088927
 30
0.0
 10
75.11686447249802
 20
-142.1618596866815
 30
0.0
 10
75.06105502947739
 20
-142.1618596866815
 30
0.0
 10
75.00591586421744
 20
-142.1618596866815
 30
0.0
 10
74.96114836535956
 20
-142.2059569088927
 30
0.0
 10
74.96114836535956
 20
-142.2617663533231
 30
0.0
 10
74.96114836535956
 20
-142.3169055199762
 30
0.0
 10
75.00591586421744
 20
-142.3616730199654
 30
0.0
 10
75.06105502947739
 20
-142.3616730199654
 30
0.0
 10
75.11686447249802
 20
-142.3616730199654
 30
0.0
 10
75.16096169359523
 20
-142.3169055199762
 30
0.0
 10
75.16096169359523
 20
-142.2617663533231
 30
0.0
  0
SPLINE
  5
A2
330
41
100
AcDbEntity
  8
_U+30EC_U+30A4_U+30E4_U+30FC 1
 62
   179
420
  2234388
370
     9
100
AcDbSpline
210
0.0
220
0.0
230
1.0
 70
    11
 71
     3
 72
    17
 73
    13
 74
     0
 42
0.0000000001
 43
0.0000000001
 12
1.0
 22
0.0
 32
0.0
 13
1.0
 23
0.0
 33
0.0
 40
0.0
 40
0.0
 40
0.0
 40
0.0
 40
1.0
 40
1.0
 40
1.0
 40
2.0
 40
2.0
 40
2.0
 40
3.0
 40
3.0
 40
3.0
 40
4.0
 40
4.0
 40
4.0
 40
4.0
 10
75.16096169359523
 20
-139.3045007985071
 30
0.0
 10
75.16096169359523
 20
-139.2493969096322
 30
0.0
 10
75.11686447249802
 20
-139.2045941318655
 30
0.0
 10
75.06105502947739
 20
-139.2045941318655
 30
0.0
 10
75.00591586421744
 20
-139.2045941318655
 30
0.0
 10
74.96114836535956
 20
-139.2493969096322
 30
0.0
 10
74.96114836535956
 20
-139.3045007985071
 30
0.0
 10
74.96114836535956
 20
-139.3603102429375
 30
0.0
 10
75.00591586421744
 20
-139.4044074651488
 30
0.0
 10
75.06105502947739
 20
-139.4044074651488
 30
0.0
 10
75.11686447249802
 20
-139.4044074651488
 30
0.0
 10
75.16096169359523
 20
-139.3603102429375
 30
0.0
 10
75.16096169359523
 20
-139.3045007985071
 30
0.0
  0
POLYLINE
  5
A3
330
41
100
AcDbEntity
  8
_U+30EC_U+30A4_U+30E4_U+30FC 1
 62
   179
420
  2234388
370
     9
100
AcDb2dPolyline
 66
     1
 10
0.0
 20
0.0
 30
0.0
  0
VERTEX
  5
A4
330
A3
100
AcDbEntity
  8
_U+30EC_U+30A4_U+30E4_U+30FC 1
 62
   179
420
  2234388
370
     9
100
AcDbVertex
100
AcDb2dVertex
 10
75.06105502947739
 20
-139.3045007985071
 30
0.0
  0
VERTEX
  5
A5
330
A3
100
AcDbEntity
  8
_U+30EC_U+30A4_U+30E4_U+30FC 1
 62
   179
420
  2234388
370
     9
100
AcDbVertex
100
AcDb2dVertex
 10
75.06105502947739
 20
-142.3044877422014
 30
0.0
  0
SEQEND
  5
A6
330
A3
100
AcDbEntity
  8
_U+30EC_U+30A4_U+30E4_U+30FC 1
 62
   179
420
  2234388
370
     9
  0
POLYLINE
  5
A7
330
41
100
AcDbEntity
  8
_U+30EC_U+30A4_U+30E4_U+30FC 1
 62
   179
420
  2234388
370
     9
100
AcDb2dPolyline
 66
     1
 10
0.0
 20
0.0
 30
0.0
  0
VERTEX
  5
A8
330
A7
100
AcDbEntity
  8
_U+30EC_U+30A4_U+30E4_U+30FC 1
 62
   179
420
  2234388
370
     9
100
AcDbVertex
100
AcDb2dVertex
 10
77.02129997946737
 20
-139.3045007985071
 30
0.0
  0
VERTEX
  5
A9
330
A7
100
AcDbEntity
  8
_U+30EC_U+30A4_U+30E4_U+30FC 1
 62
   179
420
  2234388
370
     9
100
AcDbVertex
100
AcDb2dVertex
 10
74.06128283276148
 20
-139.3045007985071
 30
0.0
  0
SEQEND
  5
AA
330
A7
100
AcDbEntity
  8
_U+30EC_U+30A4_U+30E4_U+30FC 1
 62
   179
420
  2234388
370
     9
  0
POLYLINE
  5
AB
330
41
100
AcDbEntity
  8
_U+30EC_U+30A4_U+30E4_U+30FC 1
 62
   179
420
  2234388
370
     9
100
AcDb2dPolyline
 66
     1
 10
0.0
 20
0.0
 30
0.0
  0
VERTEX
  5
AC
330
AB
100
AcDbEntity
  8
_U+30EC_U+30A4_U+30E4_U+30FC 1
 62
   179
420
  2234388
370
     9
100
AcDbVertex
100
AcDb2dVertex
 10
77.02129997946737
 20
-138.9889410763637
 30
0.0
  0
VERTEX
  5
AD
330
AB
100
AcDbEntity
  8
_U+30EC_U+30A4_U+30E4_U+30FC 1
 62
   179
420
  2234388
370
     9
100
AcDbVertex
100
AcDb2dVertex
 10
72.42968565216478
 20
-138.9889410763637
 30
0.0
  0
SEQEND
  5
AE
330
AB
100
AcDbEntity
  8
_U+30EC_U+30A4_U+30E4_U+30FC 1
 62
   179
420
  2234388
370
     9
  0
POLYLINE
  5
AF
330
41
100
AcDbEntity
  8
_U+30EC_U+30A4_U+30E4_U+30FC 1
 62
   179
420
  2234388
370
     9
100
AcDb2dPolyline
 66
     1
 10
0.0
 20
0.0
 30
0.0
  0
VERTEX
  5
B0
330
AF
100
AcDbEntity
  8
_U+30EC_U+30A4_U+30E4_U+30FC 1
 62
   179
420
  2234388
370
     9
100
AcDbVertex
100
AcDb2dVertex
 10
77.02129997946737
 20
-142.2617663533231
 30
0.0
  0
VERTEX
  5
B1
330
AF
100
AcDbEntity
  8
_U+30EC_U+30A4_U+30E4_U+30FC 1
 62
   179
420
  2234388
370
     9
100
AcDbVertex
100
AcDb2dVertex
 10
74.06128283276148
 20
-142.2617663533231
 30
0.0
  0
SEQEND
  5
B2
330
AF
100
AcDbEntity
  8
_U+30EC_U+30A4_U+30E4_U+30FC 1
 62
   179
420
  2234388
370
     9
  0
INSERT
  5
B4
330
41
100
AcDbEntity
  8
_U+30EC_U+30A4_U+30E4_U+30FC 1
100
AcDbBlockReference
  2
block 6
 10
0.0
 20
0.0
 30
0.0
  0
INSERT
  5
BD
330
41
100
AcDbEntity
  8
_U+30EC_U+30A4_U+30E4_U+30FC 1
100
AcDbBlockReference
  2
block 7
 10
0.0
 20
0.0
 30
0.0
  0
INSERT
  5
C3
330
41
100
AcDbEntity
  8
_U+30EC_U+30A4_U+30E4_U+30FC 1
100
AcDbBlockReference
  2
block 8
 10
0.0
 20
0.0
 30
0.0
  0
SPLINE
  5
CA
330
41
100
AcDbEntity
  8
_U+30EC_U+30A4_U+30E4_U+30FC 1
 62
   179
420
  2234388
370
     9
100
AcDbSpline
210
0.0
220
0.0
230
1.0
 70
    11
 71
     3
 72
    17
 73
    13
 74
     0
 42
0.0000000001
 43
0.0000000001
 12
1.0
 22
0.0
 32
0.0
 13
1.0
 23
0.0
 33
0.0
 40
0.0
 40
0.0
 40
0.0
 40
0.0
 40
1.0
 40
1.0
 40
1.0
 40
2.0
 40
2.0
 40
2.0
 40
3.0
 40
3.0
 40
3.0
 40
4.0
 40
4.0
 40
4.0
 40
4.0
 10
78.48236438663696
 20
-145.2610830192401
 30
0.0
 10
78.53785831369902
 20
-145.2610830192401
 30
0.0
 10
78.5822710507548
 20
-145.2162802414734
 30
0.0
 10
78.5822710507548
 20
-145.1611763525985
 30
0.0
 10
78.5822710507548
 20
-145.1060371859454
 30
0.0
 10
78.53785831369902
 20
-145.0612696859569
 30
0.0
 10
78.48236438663696
 20
-145.0612696859569
 30
0.0
 10
78.42726049915389
 20
-145.0612696859569
 30
0.0
 10
78.38245772251913
 20
-145.1060371859454
 30
0.0
 10
78.38245772251913
 20
-145.1611763525985
 30
0.0
 10
78.38245772251913
 20
-145.2162802414734
 30
0.0
 10
78.42726049915389
 20
-145.2610830192401
 30
0.0
 10
78.48236438663696
 20
-145.2610830192401
 30
0.0
  0
SPLINE
  5
CB
330
41
100
AcDbEntity
  8
_U+30EC_U+30A4_U+30E4_U+30FC 1
 62
   179
420
  2234388
370
     9
100
AcDbSpline
210
0.0
220
0.0
230
1.0
 70
    11
 71
     3
 72
    17
 73
    13
 74
     0
 42
0.0000000001
 43
0.0000000001
 12
1.0
 22
0.0
 32
0.0
 13
1.0
 23
0.0
 33
0.0
 40
0.0
 40
0.0
 40
0.0
 40
0.0
 40
1.0
 40
1.0
 40
1.0
 40
2.0
 40
2.0
 40
2.0
 40
3.0
 40
3.0
 40
3.0
 40
4.0
 40
4.0
 40
4.0
 40
4.0
 10
84.48233812245377
 20
-145.2610830192401
 30
0.0
 10
84.5378300654825
 20
-145.2610830192401
 30
0.0
 10
84.58259756434039
 20
-145.2162802414734
 30
0.0
 10
84.58259756434039
 20
-145.1611763525985
 30
0.0
 10
84.58259756434039
 20
-145.1060371859454
 30
0.0
 10
84.5378300654825
 20
-145.0612696859569
 30
0.0
 10
84.48233812245377
 20
-145.0612696859569
 30
0.0
 10
84.42688145720192
 20
-145.0612696859569
 30
0.0
 10
84.38243145833593
 20
-145.1060371859454
 30
0.0
 10
84.38243145833593
 20
-145.1611763525985
 30
0.0
 10
84.38243145833593
 20
-145.2162802414734
 30
0.0
 10
84.42688145720192
 20
-145.2610830192401
 30
0.0
 10
84.48233812245377
 20
-145.2610830192401
 30
0.0
  0
POLYLINE
  5
CC
330
41
100
AcDbEntity
  8
_U+30EC_U+30A4_U+30E4_U+30FC 1
 62
   179
420
  2234388
370
     9
100
AcDb2dPolyline
 66
     1
 10
0.0
 20
0.0
 30
0.0
  0
VERTEX
  5
CD
330
CC
100
AcDbEntity
  8
_U+30EC_U+30A4_U+30E4_U+30FC 1
 62
   179
420
  2234388
370
     9
100
AcDbVertex
100
AcDb2dVertex
 10
88.48244996484686
 20
-145.1611763525985
 30
0.0
  0
VERTEX
  5
CE
330
CC
100
AcDbEntity
  8
_U+30EC_U+30A4_U+30E4_U+30FC 1
 62
   179
420
  2234388
370
     9
100
AcDbVertex
100
AcDb2dVertex
 10
78.48236438663696
 20
-145.1611763525985
 30
0.0
  0
SEQEND
  5
CF
330
CC
100
AcDbEntity
  8
_U+30EC_U+30A4_U+30E4_U+30FC 1
 62
   179
420
  2234388
370
     9
  0
POLYLINE
  5
D0
330
41
100
AcDbEntity
  8
_U+30EC_U+30A4_U+30E4_U+30FC 1
 62
   179
420
  2234388
370
     9
100
AcDb2dPolyline
 66
     1
 10
0.0
 20
0.0
 30
0.0
  0
VERTEX
  5
D1
330
D0
100
AcDbEntity
  8
_U+30EC_U+30A4_U+30E4_U+30FC 1
 62
   179
420
  2234388
370
     9
100
AcDbVertex
100
AcDb2dVertex
 10
84.48233812245377
 20
-147.1214213521084
 30
0.0
  0
VERTEX
  5
D2
330
D0
100
AcDbEntity
  8
_U+30EC_U+30A4_U+30E4_U+30FC 1
 62
   179
420
  2234388
370
     9
100
AcDbVertex
100
AcDb2dVertex
 10
84.48233812245377
 20
-144.1614041306266
 30
0.0
  0
SEQEND
  5
D3
330
D0
100
AcDbEntity
  8
_U+30EC_U+30A4_U+30E4_U+30FC 1
 62
   179
420
  2234388
370
     9
  0
SPLINE
  5
D4
330
41
100
AcDbEntity
  8
_U+30EC_U+30A4_U+30E4_U+30FC 1
 62
   179
420
  2234388
370
     9
100
AcDbSpline
210
0.0
220
0.0
230
1.0
 70
    11
 71
     3
 72
    17
 73
    13
 74
     0
 42
0.0000000001
 43
0.0000000001
 12
1.0
 22
0.0
 32
0.0
 13
1.0
 23
0.0
 33
0.0
 40
0.0
 40
0.0
 40
0.0
 40
0.0
 40
1.0
 40
1.0
 40
1.0
 40
2.0
 40
2.0
 40
2.0
 40
3.0
 40
3.0
 40
3.0
 40
4.0
 40
4.0
 40
4.0
 40
4.0
 10
88.48244996484686
 20
-145.2610830192401
 30
0.0
 10
88.5379066300987
 20
-145.2610830192401
 30
0.0
 10
88.58270940673347
 20
-145.2162802414734
 30
0.0
 10
88.58270940673347
 20
-145.1611763525985
 30
0.0
 10
88.58270940673347
 20
-145.1060371859454
 30
0.0
 10
88.5379066300987
 20
-145.0612696859569
 30
0.0
 10
88.48244996484686
 20
-145.0612696859569
 30
0.0
 10
88.42699329959501
 20
-145.0612696859569
 30
0.0
 10
88.38254330072903
 20
-145.1060371859454
 30
0.0
 10
88.38254330072903
 20
-145.1611763525985
 30
0.0
 10
88.38254330072903
 20
-145.2162802414734
 30
0.0
 10
88.42699329959501
 20
-145.2610830192401
 30
0.0
 10
88.48244996484686
 20
-145.2610830192401
 30
0.0
  0
POLYLINE
  5
D5
330
41
100
AcDbEntity
  8
_U+30EC_U+30A4_U+30E4_U+30FC 1
 62
   179
420
  2234388
370
     9
100
AcDb2dPolyline
 66
     1
 10
0.0
 20
0.0
 30
0.0
  0
VERTEX
  5
D6
330
D5
100
AcDbEntity
  8
_U+30EC_U+30A4_U+30E4_U+30FC 1
 62
   179
420
  2234388
370
     9
100
AcDbVertex
100
AcDb2dVertex
 10
88.48244996484686
 20
-147.1214213521084
 30
0.0
  0
VERTEX
  5
D7
330
D5
100
AcDbEntity
  8
_U+30EC_U+30A4_U+30E4_U+30FC 1
 62
   179
420
  2234388
370
     9
100
AcDbVertex
100
AcDb2dVertex
 10
88.48244996484686
 20
-144.1614041306266
 30
0.0
  0
SEQEND
  5
D8
330
D5
100
AcDbEntity
  8
_U+30EC_U+30A4_U+30E4_U+30FC 1
 62
   179
420
  2234388
370
     9
  0
POLYLINE
  5
D9
330
41
100
AcDbEntity
  8
_U+30EC_U+30A4_U+30E4_U+30FC 1
 62
   179
420
  2234388
370
     9
100
AcDb2dPolyline
 66
     1
 10
0.0
 20
0.0
 30
0.0
  0
VERTEX
  5
DA
330
D9
100
AcDbEntity
  8
_U+30EC_U+30A4_U+30E4_U+30FC 1
 62
   179
420
  2234388
370
     9
100
AcDbVertex
100
AcDb2dVertex
 10
78.48236438663696
 20
-147.4211413520333
 30
0.0
  0
VERTEX
  5
DB
330
D9
100
AcDbEntity
  8
_U+30EC_U+30A4_U+30E4_U+30FC 1
 62
   179
420
  2234388
370
     9
100
AcDbVertex
100
AcDb2dVertex
 10
78.48236438663696
 20
-144.1614041306266
 30
0.0
  0
SEQEND
  5
DC
330
D9
100
AcDbEntity
  8
_U+30EC_U+30A4_U+30E4_U+30FC 1
 62
   179
420
  2234388
370
     9
  0
INSERT
  5
DE
330
41
100
AcDbEntity
  8
_U+30EC_U+30A4_U+30E4_U+30FC 1
100
AcDbBlockReference
  2
block 9
 10
0.0
 20
0.0
 30
0.0
  0
INSERT
  5
E5
330
41
100
AcDbEntity
  8
_U+30EC_U+30A4_U+30E4_U+30FC 1
100
AcDbBlockReference
  2
block 10
 10
0.0
 20
0.0
 30
0.0
  0
POLYLINE
  5
FD
330
41
100
AcDbEntity
  8
_U+30EC_U+30A4_U+30E4_U+30FC 1
 62
     7
420
 16777215
370
    25
100
AcDb2dPolyline
 66
     1
 10
0.0
 20
0.0
 30
0.0
  0
VERTEX
  5
FE
330
FD
100
AcDbEntity
  8
_U+30EC_U+30A4_U+30E4_U+30FC 1
 62
     7
420
 16777215
370
    25
100
AcDbVertex
100
AcDb2dVertex
 10
77.11983081028698
 20
-138.5348807986996
 30
0.0
  0
VERTEX
  5
1F5
330
FD
100
AcDbEntity
  8
0
100
AcDbVertex
100
AcDb2dVertex
 10
77.11983081028698
 20
-138.5348807986996
 30
0.0
  0
SEQEND
  5
FF
330
FD
100
AcDbEntity
  8
_U+30EC_U+30A4_U+30E4_U+30FC 1
 62
     7
420
 16777215
370
    25
  0
INSERT
  5
101
330
41
100
AcDbEntity
  8
_U+30EC_U+30A4_U+30E4_U+30FC 1
100
AcDbBlockReference
  2
block 11
 10
0.0
 20
0.0
 30
0.0
  0
SPLINE
  5
109
330
41
100
AcDbEntity
  8
_U+30EC_U+30A4_U+30E4_U+30FC 1
 62
     7
420
 16777215
370
     9
100
AcDbSpline
210
0.0
220
0.0
230
1.0
 70
     8
 71
     3
 72
    14
 73
    10
 74
     0
 42
0.0000000001
 43
0.0000000001
 12
1.0
 22
0.0
 32
0.0
 13
1.0
 23
0.0
 33
0.0
 40
0.0
 40
0.0
 40
0.0
 40
0.0
 40
1.0
 40
1.0
 40
1.0
 40
2.0
 40
2.0
 40
2.0
 40
3.0
 40
3.0
 40
3.0
 40
3.0
 10
73.23447757607727
 20
-138.984813576365
 30
0.0
 10
72.44072759632752
 20
-137.6990796877977
 30
0.0
 10
71.9825045524622
 20
-136.1853102437313
 30
0.0
 10
71.9825045524622
 20
-134.5640494108033
 30
0.0
 10
71.9825045524622
 20
-129.9131683008548
 30
0.0
 10
75.75352251181107
 20
-126.1423266351311
 30
0.0
 10
80.405073782029
 20
-126.1423266351311
 30
0.0
 10
83.37578009512886
 20
-126.1423266351311
 30
0.0
 10
85.88709919772644
 20
-127.5803194125495
 30
0.0
 10
87.38640471503153
 20
-129.903537467524
 30
0.0
  0
POLYLINE
  5
10A
330
41
100
AcDbEntity
  8
_U+30EC_U+30A4_U+30E4_U+30FC 1
 62
     7
420
 16777215
370
    25
100
AcDb2dPolyline
 66
     1
 10
0.0
 20
0.0
 30
0.0
  0
VERTEX
  5
10B
330
10A
100
AcDbEntity
  8
_U+30EC_U+30A4_U+30E4_U+30FC 1
 62
     7
420
 16777215
370
    25
100
AcDbVertex
100
AcDb2dVertex
 10
95.77295533440613
 20
-121.969635802841
 30
0.0
  0
VERTEX
  5
10C
330
10A
100
AcDbEntity
  8
_U+30EC_U+30A4_U+30E4_U+30FC 1
 62
     7
420
 16777215
370
    25
100
AcDbVertex
100
AcDb2dVertex
 10
103.3656148629235
 20
-114.5385835824765
 30
0.0
  0
SEQEND
  5
10D
330
10A
100
AcDbEntity
  8
_U+30EC_U+30A4_U+30E4_U+30FC 1
 62
     7
420
 16777215
370
    25
  0
POLYLINE
  5
10E
330
41
100
AcDbEntity
  8
_U+30EC_U+30A4_U+30E4_U+30FC 1
 62
     7
420
 16777215
370
    25
100
AcDb2dPolyline
 66
     1
 10
0.0
 20
0.0
 30
0.0
  0
VERTEX
  5
10F
330
10E
100
AcDbEntity
  8
_U+30EC_U+30A4_U+30E4_U+30FC 1
 62
     7
420
 16777215
370
    25
100
AcDbVertex
100
AcDb2dVertex
 10
78.39589855550956
 20
-138.9758530208115
 30
0.0
  0
VERTEX
  5
1F6
330
10E
100
AcDbEntity
  8
0
100
AcDbVertex
100
AcDb2dVertex
 10
78.39589855550956
 20
-138.9758530208115
 30
0.0
  0
SEQEND
  5
110
330
10E
100
AcDbEntity
  8
_U+30EC_U+30A4_U+30E4_U+30FC 1
 62
     7
420
 16777215
370
    25
  0
POLYLINE
  5
111
330
41
100
AcDbEntity
  8
_U+30EC_U+30A4_U+30E4_U+30FC 1
 62
     7
420
 16777215
370
     9
100
AcDb2dPolyline
 66
     1
 10
0.0
 20
0.0
 30
0.0
  0
VERTEX
  5
112
330
111
100
AcDbEntity
  8
_U+30EC_U+30A4_U+30E4_U+30FC 1
 62
     7
420
 16777215
370
     9
100
AcDbVertex
100
AcDb2dVertex
 10
76.55415165805199
 20
-137.1341060768276
 30
0.0
  0
VERTEX
  5
113
330
111
100
AcDbEntity
  8
_U+30EC_U+30A4_U+30E4_U+30FC 1
 62
     7
420
 16777215
370
     9
100
AcDbVertex
100
AcDb2dVertex
 10
101.5238679654659
 20
-112.6968366384925
 30
0.0
  0
SEQEND
  5
114
330
111
100
AcDbEntity
  8
_U+30EC_U+30A4_U+30E4_U+30FC 1
 62
     7
420
 16777215
370
     9
  0
POLYLINE
  5
115
330
41
100
AcDbEntity
  8
_U+30EC_U+30A4_U+30E4_U+30FC 1
 62
     7
420
 16777215
370
    25
100
AcDb2dPolyline
 66
     1
 10
0.0
 20
0.0
 30
0.0
  0
VERTEX
  5
116
330
115
100
AcDbEntity
  8
_U+30EC_U+30A4_U+30E4_U+30FC 1
 62
     7
420
 16777215
370
    25
100
AcDbVertex
100
AcDb2dVertex
 10
80.76578905060417
 20
-137.9809138543938
 30
0.0
  0
VERTEX
  5
117
330
115
100
AcDbEntity
  8
_U+30EC_U+30A4_U+30E4_U+30FC 1
 62
     7
420
 16777215
370
    25
100
AcDbVertex
100
AcDb2dVertex
 10
103.6797987437969
 20
-114.7821413601935
 30
0.0
  0
SEQEND
  5
118
330
115
100
AcDbEntity
  8
_U+30EC_U+30A4_U+30E4_U+30FC 1
 62
     7
420
 16777215
370
    25
  0
POLYLINE
  5
119
330
41
100
AcDbEntity
  8
_U+30EC_U+30A4_U+30E4_U+30FC 1
 62
     7
420
 16777215
370
    25
100
AcDb2dPolyline
 66
     1
 10
0.0
 20
0.0
 30
0.0
  0
VERTEX
  5
11A
330
119
100
AcDbEntity
  8
_U+30EC_U+30A4_U+30E4_U+30FC 1
 62
     7
420
 16777215
370
    25
100
AcDbVertex
100
AcDb2dVertex
 10
103.4434729164927
 20
-114.499284138042
 30
0.0
  0
VERTEX
  5
11B
330
119
100
AcDbEntity
  8
_U+30EC_U+30A4_U+30E4_U+30FC 1
 62
     7
420
 16777215
370
    25
100
AcDbVertex
100
AcDb2dVertex
 10
103.6491423556901
 20
-114.7177241379874
 30
0.0
  0
SEQEND
  5
11C
330
119
100
AcDbEntity
  8
_U+30EC_U+30A4_U+30E4_U+30FC 1
 62
     7
420
 16777215
370
    25
  0
ENDBLK
  5
44
330
41
100
AcDbEntity
  8
0
100
AcDbBlockEnd
  0
BLOCK
  5
71
330
6F
100
AcDbEntity
  8
0
100
AcDbBlockBegin
  2
block 3
 70
     0
 10
0.0
 20
0.0
 30
0.0
  3
block 3
  1

  0
SPLINE
  5
73
330
6F
100
AcDbEntity
  8
_U+30EC_U+30A4_U+30E4_U+30FC 1
370
     0
100
AcDbSpline
210
0.0
220
0.0
230
1.0
 70
    11
 71
     3
 72
    26
 73
    22
 74
     0
 42
0.0000000001
 43
0.0000000001
 12
1.0
 22
0.0
 32
0.0
 13
1.0
 23
0.0
 33
0.0
 40
0.0
 40
0.0
 40
0.0
 40
0.0
 40
1.0
 40
1.0
 40
1.0
 40
2.0
 40
2.0
 40
2.0
 40
3.0
 40
3.0
 40
3.0
 40
4.0
 40
4.0
 40
4.0
 40
5.0
 40
5.0
 40
5.0
 40
6.0
 40
6.0
 40
6.0
 40
7.0
 40
7.0
 40
7.0
 40
7.0
 10
95.33199324873645
 20
-141.4253037840881
 30
0.0
 10
95.33199324873645
 20
-141.4253037840881
 30
0.0
 10
94.22784014571388
 20
-141.4253037840881
 30
0.0
 10
94.22784014571388
 20
-141.4253037840881
 30
0.0
 10
94.22784014571388
 20
-141.4253037840881
 30
0.0
 10
94.22784014571388
 20
-141.7553439315751
 30
0.0
 10
94.22784014571388
 20
-141.7553439315751
 30
0.0
 10
94.22784014571388
 20
-141.7553439315751
 30
0.0
 10
94.07970103984813
 20
-141.7553439315751
 30
0.0
 10
94.07970103984813
 20
-141.7553439315751
 30
0.0
 10
94.06488712926156
 20
-141.423236726797
 30
0.0
 10
93.90193411280924
 20
-141.3767279377461
 30
0.0
 10
93.78755694269894
 20
-141.347100116573
 30
0.0
 10
93.78755694269894
 20
-141.347100116573
 30
0.0
 10
93.78755694269894
 20
-141.2010280679984
 30
0.0
 10
93.78755694269894
 20
-141.2010280679984
 30
0.0
 10
93.78755694269894
 20
-141.2010280679984
 30
0.0
 10
95.33199324873645
 20
-141.2010280679984
 30
0.0
 10
95.33199324873645
 20
-141.2010280679984
 30
0.0
 10
95.33199324873645
 20
-141.2010280679984
 30
0.0
 10
95.33199324873645
 20
-141.4253037840881
 30
0.0
 10
95.33199324873645
 20
-141.4253037840881
 30
0.0
  0
HATCH
  5
74
330
6F
100
AcDbEntity
  8
_U+30EC_U+30A4_U+30E4_U+30FC 1
 62
   179
420
  2234388
100
AcDbHatch
 10
0.0
 20
0.0
 30
0.0
210
0.0
220
0.0
230
1.0
  2
SOLID
 70
     1
 71
     0
 91
        1
 92
        1
 93
        1
 72
     4
 94
        3
 73
     0
 74
     1
 95
       26
 96
       22
 40
0.0
 40
0.0
 40
0.0
 40
0.0
 40
1.0
 40
1.0
 40
1.0
 40
2.0
 40
2.0
 40
2.0
 40
3.0
 40
3.0
 40
3.0
 40
4.0
 40
4.0
 40
4.0
 40
5.0
 40
5.0
 40
5.0
 40
6.0
 40
6.0
 40
6.0
 40
7.0
 40
7.0
 40
7.0
 40
7.0
 10
95.33199324873645
 20
-141.4253037840881
 10
95.33199324873645
 20
-141.4253037840881
 10
94.22784014571388
 20
-141.4253037840881
 10
94.22784014571388
 20
-141.4253037840881
 10
94.22784014571388
 20
-141.4253037840881
 10
94.22784014571388
 20
-141.7553439315751
 10
94.22784014571388
 20
-141.7553439315751
 10
94.22784014571388
 20
-141.7553439315751
 10
94.07970103984813
 20
-141.7553439315751
 10
94.07970103984813
 20
-141.7553439315751
 10
94.06488712926156
 20
-141.423236726797
 10
93.90193411280924
 20
-141.3767279377461
 10
93.78755694269894
 20
-141.347100116573
 10
93.78755694269894
 20
-141.347100116573
 10
93.78755694269894
 20
-141.2010280679984
 10
93.78755694269894
 20
-141.2010280679984
 10
93.78755694269894
 20
-141.2010280679984
 10
95.33199324873645
 20
-141.2010280679984
 10
95.33199324873645
 20
-141.2010280679984
 10
95.33199324873645
 20
-141.2010280679984
 10
95.33199324873645
 20
-141.4253037840881
 10
95.33199324873645
 20
-141.4253037840881
 97
        0
 97
        0
 75
     2
 76
     1
 98
        0
  0
ENDBLK
  5
72
330
6F
100
AcDbEntity
  8
0
100
AcDbBlockEnd
  0
BLOCK
  5
85
330
83
100
AcDbEntity
  8
0
100
AcDbBlockBegin
  2
block 4
 70
     0
 10
0.0
 20
0.0
 30
0.0
  3
block 4
  1

  0
SPLINE
  5
87
330
83
100
AcDbEntity
  8
_U+30EC_U+30A4_U+30E4_U+30FC 1
370
     0
100
AcDbSpline
210
0.0
220
0.0
230
1.0
 70
    11
 71
     3
 72
    29
 73
    25
 74
     0
 42
0.0000000001
 43
0.0000000001
 12
1.0
 22
0.0
 32
0.0
 13
1.0
 23
0.0
 33
0.0
 40
0.0
 40
0.0
 40
0.0
 40
0.0
 40
1.0
 40
1.0
 40
1.0
 40
2.0
 40
2.0
 40
2.0
 40
3.0
 40
3.0
 40
3.0
 40
4.0
 40
4.0
 40
4.0
 40
5.0
 40
5.0
 40
5.0
 40
6.0
 40
6.0
 40
6.0
 40
7.0
 40
7.0
 40
7.0
 40
8.0
 40
8.0
 40
8.0
 40
8.0
 10
106.6797932676009
 20
-111.2440280212341
 30
0.0
 10
106.5726507980096
 20
-111.4538343362859
 30
0.0
 10
106.3993624951016
 20
-111.4732991257775
 30
0.0
 10
106.2829182677001
 20
-111.473643635326
 30
0.0
 10
106.1220323085389
 20
-111.4739881448746
 30
0.0
 10
105.9800943745467
 20
-111.4278238653722
 30
0.0
 10
105.8846652296052
 20
-111.2460950785253
 30
0.0
 10
105.7802788364022
 20
-111.0517916931572
 30
0.0
 10
105.7606417921362
 20
-110.8149413785463
 30
0.0
 10
105.7602972825877
 20
-110.651988362094
 30
0.0
 10
105.7599527730392
 20
-110.5081556255848
 30
0.0
 10
105.7761447218199
 20
-110.256319145613
 30
0.0
 10
105.8815646436685
 20
-110.0571926265656
 30
0.0
 10
105.9887071132598
 20
-109.8539319929358
 30
0.0
 10
106.1495930724209
 20
-109.8301608340876
 30
0.0
 10
106.2784396435693
 20
-109.8298163245391
 30
0.0
 10
106.4372585454393
 20
-109.8294718149906
 30
0.0
 10
106.5812635367227
 20
-109.8735690372017
 30
0.0
 10
106.6766926816642
 20
-110.0551255692744
 30
0.0
 10
106.7766004507364
 20
-110.2473618973514
 30
0.0
 10
106.8007161191332
 20
-110.4757717280234
 30
0.0
 10
106.8010606286817
 20
-110.6492322857058
 30
0.0
 10
106.8014051382302
 20
-110.8206257860969
 30
0.0
 10
106.7810790748672
 20
-111.0512749288344
 30
0.0
 10
106.6797932676009
 20
-111.2440280212341
 30
0.0
  0
SPLINE
  5
88
330
83
100
AcDbEntity
  8
_U+30EC_U+30A4_U+30E4_U+30FC 1
370
     0
100
AcDbSpline
210
0.0
220
0.0
230
1.0
 70
    11
 71
     3
 72
    17
 73
    13
 74
     0
 42
0.0000000001
 43
0.0000000001
 12
1.0
 22
0.0
 32
0.0
 13
1.0
 23
0.0
 33
0.0
 40
0.0
 40
0.0
 40
0.0
 40
0.0
 40
1.0
 40
1.0
 40
1.0
 40
2.0
 40
2.0
 40
2.0
 40
3.0
 40
3.0
 40
3.0
 40
4.0
 40
4.0
 40
4.0
 40
4.0
 10
106.2791286626663
 20
-110.0223971621645
 30
0.0
 10
106.0293592399857
 20
-110.0230861812616
 30
0.0
 10
105.9835394700319
 20
-110.3066175396977
 30
0.0
 10
105.9845729986775
 20
-110.6514715977712
 30
0.0
 10
105.9852620177745
 20
-110.9708319492538
 30
0.0
 10
106.0221245394667
 20
-111.2796847595065
 30
0.0
 10
106.2822292486031
 20
-111.2789957404094
 30
0.0
 10
106.5299316139925
 20
-111.2783067213124
 30
0.0
 10
106.5778184412375
 20
-110.9968424201675
 30
0.0
 10
106.5767849125919
 20
-110.6499213048028
 30
0.0
 10
106.5760958934949
 20
-110.3303886985459
 30
0.0
 10
106.5371663145116
 20
-110.0217081430675
 30
0.0
 10
106.2791286626663
 20
-110.0223971621645
 30
0.0
  0
HATCH
  5
89
330
83
100
AcDbEntity
  8
_U+30EC_U+30A4_U+30E4_U+30FC 1
 62
   179
420
  2234388
100
AcDbHatch
 10
0.0
 20
0.0
 30
0.0
210
0.0
220
0.0
230
1.0
  2
SOLID
 70
     1
 71
     0
 91
        2
 92
        1
 93
        1
 72
     4
 94
        3
 73
     0
 74
     1
 95
       29
 96
       25
 40
0.0
 40
0.0
 40
0.0
 40
0.0
 40
1.0
 40
1.0
 40
1.0
 40
2.0
 40
2.0
 40
2.0
 40
3.0
 40
3.0
 40
3.0
 40
4.0
 40
4.0
 40
4.0
 40
5.0
 40
5.0
 40
5.0
 40
6.0
 40
6.0
 40
6.0
 40
7.0
 40
7.0
 40
7.0
 40
8.0
 40
8.0
 40
8.0
 40
8.0
 10
106.6797932676009
 20
-111.2440280212341
 10
106.5726507980096
 20
-111.4538343362859
 10
106.3993624951016
 20
-111.4732991257775
 10
106.2829182677001
 20
-111.473643635326
 10
106.1220323085389
 20
-111.4739881448746
 10
105.9800943745467
 20
-111.4278238653722
 10
105.8846652296052
 20
-111.2460950785253
 10
105.7802788364022
 20
-111.0517916931572
 10
105.7606417921362
 20
-110.8149413785463
 10
105.7602972825877
 20
-110.651988362094
 10
105.7599527730392
 20
-110.5081556255848
 10
105.7761447218199
 20
-110.256319145613
 10
105.8815646436685
 20
-110.0571926265656
 10
105.9887071132598
 20
-109.8539319929358
 10
106.1495930724209
 20
-109.8301608340876
 10
106.2784396435693
 20
-109.8298163245391
 10
106.4372585454393
 20
-109.8294718149906
 10
106.5812635367227
 20
-109.8735690372017
 10
106.6766926816642
 20
-110.0551255692744
 10
106.7766004507364
 20
-110.2473618973514
 10
106.8007161191332
 20
-110.4757717280234
 10
106.8010606286817
 20
-110.6492322857058
 10
106.8014051382302
 20
-110.8206257860969
 10
106.7810790748672
 20
-111.0512749288344
 10
106.6797932676009
 20
-111.2440280212341
 97
        0
 97
        0
 92
        1
 93
        1
 72
     4
 94
        3
 73
     0
 74
     1
 95
       17
 96
       13
 40
0.0
 40
0.0
 40
0.0
 40
0.0
 40
1.0
 40
1.0
 40
1.0
 40
2.0
 40
2.0
 40
2.0
 40
3.0
 40
3.0
 40
3.0
 40
4.0
 40
4.0
 40
4.0
 40
4.0
 10
106.2791286626663
 20
-110.0223971621645
 10
106.0293592399857
 20
-110.0230861812616
 10
105.9835394700319
 20
-110.3066175396977
 10
105.9845729986775
 20
-110.6514715977712
 10
105.9852620177745
 20
-110.9708319492538
 10
106.0221245394667
 20
-111.2796847595065
 10
106.2822292486031
 20
-111.2789957404094
 10
106.5299316139925
 20
-111.2783067213124
 10
106.5778184412375
 20
-110.9968424201675
 10
106.5767849125919
 20
-110.6499213048028
 10
106.5760958934949
 20
-110.3303886985459
 10
106.5371663145116
 20
-110.0217081430675
 10
106.2791286626663
 20
-110.0223971621645
 97
        0
 97
        0
 75
     2
 76
     1
 98
        0
  0
POLYLINE
  5
8A
330
83
100
AcDbEntity
  8
_U+30EC_U+30A4_U+30E4_U+30FC 1
370
     0
100
AcDb2dPolyline
 66
     1
 10
0.0
 20
0.0
 30
0.0
  0
VERTEX
  5
8B
330
8A
100
AcDbEntity
  8
_U+30EC_U+30A4_U+30E4_U+30FC 1
370
     0
100
AcDbVertex
100
AcDb2dVertex
 10
107.0194796824465
 20
-111.4209336744017
 30
0.0
  0
VERTEX
  5
8C
330
8A
100
AcDbEntity
  8
_U+30EC_U+30A4_U+30E4_U+30FC 1
370
     0
100
AcDbVertex
100
AcDb2dVertex
 10
107.0187906633495
 20
-111.16909719443
 30
0.0
  0
VERTEX
  5
8D
330
8A
100
AcDbEntity
  8
_U+30EC_U+30A4_U+30E4_U+30FC 1
370
     0
100
AcDbVertex
100
AcDb2dVertex
 10
107.2706271433212
 20
-111.1684081753329
 30
0.0
  0
VERTEX
  5
8E
330
8A
100
AcDbEntity
  8
_U+30EC_U+30A4_U+30E4_U+30FC 1
370
     0
100
AcDbVertex
100
AcDb2dVertex
 10
107.2713161624183
 20
-111.4202446553047
 30
0.0
  0
VERTEX
  5
8F
330
8A
100
AcDbEntity
  8
_U+30EC_U+30A4_U+30E4_U+30FC 1
370
     0
100
AcDbVertex
100
AcDb2dVertex
 10
107.0194796824465
 20
-111.4209336744017
 30
0.0
  0
SEQEND
  5
90
330
8A
100
AcDbEntity
  8
_U+30EC_U+30A4_U+30E4_U+30FC 1
370
     0
  0
HATCH
  5
91
330
83
100
AcDbEntity
  8
_U+30EC_U+30A4_U+30E4_U+30FC 1
 62
   179
420
  2234388
100
AcDbHatch
 10
0.0
 20
0.0
 30
0.0
210
0.0
220
0.0
230
1.0
  2
SOLID
 70
     1
 71
     0
 91
        1
 92
        1
 93
        4
 72
     1
 10
107.0194796824465
 20
-111.4209336744017
 11
107.0187906633495
 21
-111.16909719443
 72
     1
 10
107.0187906633495
 20
-111.16909719443
 11
107.2706271433212
 21
-111.1684081753329
 72
     1
 10
107.2706271433212
 20
-111.1684081753329
 11
107.2713161624183
 21
-111.4202446553047
 72
     1
 10
107.2713161624183
 20
-111.4202446553047
 11
107.0194796824465
 21
-111.4209336744017
 97
        0
 75
     2
 76
     1
 98
        0
  0
SPLINE
  5
92
330
83
100
AcDbEntity
  8
_U+30EC_U+30A4_U+30E4_U+30FC 1
370
     0
100
AcDbSpline
210
0.0
220
0.0
230
1.0
 70
    11
 71
     3
 72
    62
 73
    58
 74
     0
 42
0.0000000001
 43
0.0000000001
 12
1.0
 22
0.0
 32
0.0
 13
1.0
 23
0.0
 33
0.0
 40
0.0
 40
0.0
 40
0.0
 40
0.0
 40
1.0
 40
1.0
 40
1.0
 40
2.0
 40
2.0
 40
2.0
 40
3.0
 40
3.0
 40
3.0
 40
4.0
 40
4.0
 40
4.0
 40
5.0
 40
5.0
 40
5.0
 40
6.0
 40
6.0
 40
6.0
 40
7.0
 40
7.0
 40
7.0
 40
8.0
 40
8.0
 40
8.0
 40
9.0
 40
9.0
 40
9.0
 40
10.0
 40
10.0
 40
10.0
 40
11.0
 40
11.0
 40
11.0
 40
12.0
 40
12.0
 40
12.0
 40
13.0
 40
13.0
 40
13.0
 40
14.0
 40
14.0
 40
14.0
 40
15.0
 40
15.0
 40
15.0
 40
16.0
 40
16.0
 40
16.0
 40
17.0
 40
17.0
 40
17.0
 40
18.0
 40
18.0
 40
18.0
 40
19.0
 40
19.0
 40
19.0
 40
19.0
 10
107.9996093480001
 20
-111.4691650111952
 30
0.0
 10
107.9041802030587
 20
-111.4693372659695
 30
0.0
 10
107.6864501683909
 20
-111.4488389478322
 30
0.0
 10
107.5610486927278
 20
-111.262976046403
 30
0.0
 10
107.4866346302464
 20
-111.1510104431324
 30
0.0
 10
107.4821560061156
 20
-111.0516194383829
 30
0.0
 10
107.4776773819847
 20
-110.96704234422
 30
0.0
 10
107.4776773819847
 20
-110.96704234422
 30
0.0
 10
107.6978189834922
 20
-110.966353325123
 30
0.0
 10
107.6978189834922
 20
-110.966353325123
 30
0.0
 10
107.6998860407834
 20
-111.0404228780559
 30
0.0
 10
107.7112548558847
 20
-111.2752061353757
 30
0.0
 10
107.9947862143208
 20
-111.2745171162786
 30
0.0
 10
108.1322455241822
 20
-111.2741726067301
 30
0.0
 10
108.2841742350817
 20
-111.203892658831
 30
0.0
 10
108.2838297255332
 20
-110.9754828281589
 30
0.0
 10
108.2834852159847
 20
-110.8590386007575
 30
0.0
 10
108.2452446560984
 20
-110.8104627544154
 30
0.0
 10
108.2135497776341
 20
-110.7789401307254
 30
0.0
 10
108.1391357151527
 20
-110.7050428325668
 30
0.0
 10
108.0226914877513
 20
-110.6926404888199
 30
0.0
 10
107.9679144695358
 20
-110.6928127435942
 30
0.0
 10
107.9486219348184
 20
-110.6928127435942
 30
0.0
 10
107.9127929417718
 20
-110.6950520556596
 30
0.0
 10
107.8852321778898
 20
-110.6993584250161
 30
0.0
 10
107.8852321778898
 20
-110.6993584250161
 30
0.0
 10
107.8848876683413
 20
-110.5047105300995
 30
0.0
 10
107.8848876683413
 20
-110.5047105300995
 30
0.0
 10
107.922783718679
 20
-110.510911701973
 30
0.0
 10
107.9651583931476
 20
-110.5129787592641
 30
0.0
 10
107.9717040745696
 20
-110.5129787592641
 30
0.0
 10
108.0371608887893
 20
-110.5128065044899
 30
0.0
 10
108.2359428982882
 20
-110.4911024029328
 30
0.0
 10
108.2352538791912
 20
-110.2540798335476
 30
0.0
 10
108.2349093696427
 20
-110.076485161283
 30
0.0
 10
108.1036512316547
 20
-110.0218803978418
 30
0.0
 10
107.9934081761266
 20
-110.022052652616
 30
0.0
 10
107.729169352408
 20
-110.0227416717131
 30
0.0
 10
107.7212456327919
 20
-110.2554578717417
 30
0.0
 10
107.7171115182096
 20
-110.3274603673834
 30
0.0
 10
107.7171115182096
 20
-110.3274603673834
 30
0.0
 10
107.5141953941284
 20
-110.3279771317062
 30
0.0
 10
107.5141953941284
 20
-110.3279771317062
 30
0.0
 10
107.5221191137445
 20
-110.2030924203659
 30
0.0
 10
107.5486463489809
 20
-109.8265434838281
 30
0.0
 10
108.0058105198735
 20
-109.8253377004083
 30
0.0
 10
108.2300862359633
 20
-109.8246486813112
 30
0.0
 10
108.4715874294793
 20
-109.9510836856199
 30
0.0
 10
108.4722764485764
 20
-110.2471896425771
 30
0.0
 10
108.4726209581249
 20
-110.4333970535549
 30
0.0
 10
108.3778808322805
 20
-110.5160793452009
 30
0.0
 10
108.2783175727568
 20
-110.5777465543868
 30
0.0
 10
108.3399847819428
 20
-110.6051350634946
 30
0.0
 10
108.521885823564
 20
-110.6848890239781
 30
0.0
 10
108.5229193522096
 20
-110.9620469557664
 30
0.0
 10
108.5236083713066
 20
-111.3005275871922
 30
0.0
 10
108.2765950250142
 20
-111.4683037373239
 30
0.0
 10
107.9996093480001
 20
-111.4691650111952
 30
0.0
  0
HATCH
  5
93
330
83
100
AcDbEntity
  8
_U+30EC_U+30A4_U+30E4_U+30FC 1
 62
   179
420
  2234388
100
AcDbHatch
 10
0.0
 20
0.0
 30
0.0
210
0.0
220
0.0
230
1.0
  2
SOLID
 70
     1
 71
     0
 91
        1
 92
        1
 93
        1
 72
     4
 94
        3
 73
     0
 74
     1
 95
       62
 96
       58
 40
0.0
 40
0.0
 40
0.0
 40
0.0
 40
1.0
 40
1.0
 40
1.0
 40
2.0
 40
2.0
 40
2.0
 40
3.0
 40
3.0
 40
3.0
 40
4.0
 40
4.0
 40
4.0
 40
5.0
 40
5.0
 40
5.0
 40
6.0
 40
6.0
 40
6.0
 40
7.0
 40
7.0
 40
7.0
 40
8.0
 40
8.0
 40
8.0
 40
9.0
 40
9.0
 40
9.0
 40
10.0
 40
10.0
 40
10.0
 40
11.0
 40
11.0
 40
11.0
 40
12.0
 40
12.0
 40
12.0
 40
13.0
 40
13.0
 40
13.0
 40
14.0
 40
14.0
 40
14.0
 40
15.0
 40
15.0
 40
15.0
 40
16.0
 40
16.0
 40
16.0
 40
17.0
 40
17.0
 40
17.0
 40
18.0
 40
18.0
 40
18.0
 40
19.0
 40
19.0
 40
19.0
 40
19.0
 10
107.9996093480001
 20
-111.4691650111952
 10
107.9041802030587
 20
-111.4693372659695
 10
107.6864501683909
 20
-111.4488389478322
 10
107.5610486927278
 20
-111.262976046403
 10
107.4866346302464
 20
-111.1510104431324
 10
107.4821560061156
 20
-111.0516194383829
 10
107.4776773819847
 20
-110.96704234422
 10
107.4776773819847
 20
-110.96704234422
 10
107.6978189834922
 20
-110.966353325123
 10
107.6978189834922
 20
-110.966353325123
 10
107.6998860407834
 20
-111.0404228780559
 10
107.7112548558847
 20
-111.2752061353757
 10
107.9947862143208
 20
-111.2745171162786
 10
108.1322455241822
 20
-111.2741726067301
 10
108.2841742350817
 20
-111.203892658831
 10
108.2838297255332
 20
-110.9754828281589
 10
108.2834852159847
 20
-110.8590386007575
 10
108.2452446560984
 20
-110.8104627544154
 10
108.2135497776341
 20
-110.7789401307254
 10
108.1391357151527
 20
-110.7050428325668
 10
108.0226914877513
 20
-110.6926404888199
 10
107.9679144695358
 20
-110.6928127435942
 10
107.9486219348184
 20
-110.6928127435942
 10
107.9127929417718
 20
-110.6950520556596
 10
107.8852321778898
 20
-110.6993584250161
 10
107.8852321778898
 20
-110.6993584250161
 10
107.8848876683413
 20
-110.5047105300995
 10
107.8848876683413
 20
-110.5047105300995
 10
107.922783718679
 20
-110.510911701973
 10
107.9651583931476
 20
-110.5129787592641
 10
107.9717040745696
 20
-110.5129787592641
 10
108.0371608887893
 20
-110.5128065044899
 10
108.2359428982882
 20
-110.4911024029328
 10
108.2352538791912
 20
-110.2540798335476
 10
108.2349093696427
 20
-110.076485161283
 10
108.1036512316547
 20
-110.0218803978418
 10
107.9934081761266
 20
-110.022052652616
 10
107.729169352408
 20
-110.0227416717131
 10
107.7212456327919
 20
-110.2554578717417
 10
107.7171115182096
 20
-110.3274603673834
 10
107.7171115182096
 20
-110.3274603673834
 10
107.5141953941284
 20
-110.3279771317062
 10
107.5141953941284
 20
-110.3279771317062
 10
107.5221191137445
 20
-110.2030924203659
 10
107.5486463489809
 20
-109.8265434838281
 10
108.0058105198735
 20
-109.8253377004083
 10
108.2300862359633
 20
-109.8246486813112
 10
108.4715874294793
 20
-109.9510836856199
 10
108.4722764485764
 20
-110.2471896425771
 10
108.4726209581249
 20
-110.4333970535549
 10
108.3778808322805
 20
-110.5160793452009
 10
108.2783175727568
 20
-110.5777465543868
 10
108.3399847819428
 20
-110.6051350634946
 10
108.521885823564
 20
-110.6848890239781
 10
108.5229193522096
 20
-110.9620469557664
 10
108.5236083713066
 20
-111.3005275871922
 10
108.2765950250142
 20
-111.4683037373239
 10
107.9996093480001
 20
-111.4691650111952
 97
        0
 97
        0
 75
     2
 76
     1
 98
        0
  0
ENDBLK
  5
86
330
83
100
AcDbEntity
  8
0
100
AcDbBlockEnd
  0
BLOCK
  5
96
330
94
100
AcDbEntity
  8
0
100
AcDbBlockBegin
  2
block 5
 70
     0
 10
0.0
 20
0.0
 30
0.0
  3
block 5
  1

  0
SPLINE
  5
98
330
94
100
AcDbEntity
  8
_U+30EC_U+30A4_U+30E4_U+30FC 1
370
     0
100
AcDbSpline
210
0.0
220
0.0
230
1.0
 70
    11
 71
     3
 72
    26
 73
    22
 74
     0
 42
0.0000000001
 43
0.0000000001
 12
1.0
 22
0.0
 32
0.0
 13
1.0
 23
0.0
 33
0.0
 40
0.0
 40
0.0
 40
0.0
 40
0.0
 40
1.0
 40
1.0
 40
1.0
 40
2.0
 40
2.0
 40
2.0
 40
3.0
 40
3.0
 40
3.0
 40
4.0
 40
4.0
 40
4.0
 40
5.0
 40
5.0
 40
5.0
 40
6.0
 40
6.0
 40
6.0
 40
7.0
 40
7.0
 40
7.0
 40
7.0
 10
74.2817708147629
 20
-125.7935275293155
 30
0.0
 10
74.2817708147629
 20
-125.7935275293155
 30
0.0
 10
74.27884248360043
 20
-124.6892021715187
 30
0.0
 10
74.27884248360043
 20
-124.6892021715187
 30
0.0
 10
74.27884248360043
 20
-124.6892021715187
 30
0.0
 10
73.94897459088776
 20
-124.69006344539
 30
0.0
 10
73.94897459088776
 20
-124.69006344539
 30
0.0
 10
73.94897459088776
 20
-124.69006344539
 30
0.0
 10
73.94845782656498
 20
-124.5419243395242
 30
0.0
 10
73.94845782656498
 20
-124.5419243395242
 30
0.0
 10
74.28056503134306
 20
-124.5262491550664
 30
0.0
 10
74.32672931084541
 20
-124.363296138614
 30
0.0
 10
74.35601262247003
 20
-124.2489189685037
 30
0.0
 10
74.35601262247003
 20
-124.2489189685037
 30
0.0
 10
74.50208467104463
 20
-124.2485744589552
 30
0.0
 10
74.50208467104463
 20
-124.2485744589552
 30
0.0
 10
74.50208467104463
 20
-124.2485744589552
 30
0.0
 10
74.50604653085266
 20
-125.7928385102185
 30
0.0
 10
74.50604653085266
 20
-125.7928385102185
 30
0.0
 10
74.50604653085266
 20
-125.7928385102185
 30
0.0
 10
74.2817708147629
 20
-125.7935275293155
 30
0.0
 10
74.2817708147629
 20
-125.7935275293155
 30
0.0
  0
HATCH
  5
99
330
94
100
AcDbEntity
  8
_U+30EC_U+30A4_U+30E4_U+30FC 1
 62
   179
420
  2234388
100
AcDbHatch
 10
0.0
 20
0.0
 30
0.0
210
0.0
220
0.0
230
1.0
  2
SOLID
 70
     1
 71
     0
 91
        1
 92
        1
 93
        1
 72
     4
 94
        3
 73
     0
 74
     1
 95
       26
 96
       22
 40
0.0
 40
0.0
 40
0.0
 40
0.0
 40
1.0
 40
1.0
 40
1.0
 40
2.0
 40
2.0
 40
2.0
 40
3.0
 40
3.0
 40
3.0
 40
4.0
 40
4.0
 40
4.0
 40
5.0
 40
5.0
 40
5.0
 40
6.0
 40
6.0
 40
6.0
 40
7.0
 40
7.0
 40
7.0
 40
7.0
 10
74.2817708147629
 20
-125.7935275293155
 10
74.2817708147629
 20
-125.7935275293155
 10
74.27884248360043
 20
-124.6892021715187
 10
74.27884248360043
 20
-124.6892021715187
 10
74.27884248360043
 20
-124.6892021715187
 10
73.94897459088776
 20
-124.69006344539
 10
73.94897459088776
 20
-124.69006344539
 10
73.94897459088776
 20
-124.69006344539
 10
73.94845782656498
 20
-124.5419243395242
 10
73.94845782656498
 20
-124.5419243395242
 10
74.28056503134306
 20
-124.5262491550664
 10
74.32672931084541
 20
-124.363296138614
 10
74.35601262247003
 20
-124.2489189685037
 10
74.35601262247003
 20
-124.2489189685037
 10
74.50208467104463
 20
-124.2485744589552
 10
74.50208467104463
 20
-124.2485744589552
 10
74.50208467104463
 20
-124.2485744589552
 10
74.50604653085266
 20
-125.7928385102185
 10
74.50604653085266
 20
-125.7928385102185
 10
74.50604653085266
 20
-125.7928385102185
 10
74.2817708147629
 20
-125.7935275293155
 10
74.2817708147629
 20
-125.7935275293155
 97
        0
 97
        0
 75
     2
 76
     1
 98
        0
  0
SPLINE
  5
9A
330
94
100
AcDbEntity
  8
_U+30EC_U+30A4_U+30E4_U+30FC 1
370
     0
100
AcDbSpline
210
0.0
220
0.0
230
1.0
 70
    11
 71
     3
 72
    62
 73
    58
 74
     0
 42
0.0000000001
 43
0.0000000001
 12
1.0
 22
0.0
 32
0.0
 13
1.0
 23
0.0
 33
0.0
 40
0.0
 40
0.0
 40
0.0
 40
0.0
 40
1.0
 40
1.0
 40
1.0
 40
2.0
 40
2.0
 40
2.0
 40
3.0
 40
3.0
 40
3.0
 40
4.0
 40
4.0
 40
4.0
 40
5.0
 40
5.0
 40
5.0
 40
6.0
 40
6.0
 40
6.0
 40
7.0
 40
7.0
 40
7.0
 40
8.0
 40
8.0
 40
8.0
 40
9.0
 40
9.0
 40
9.0
 40
10.0
 40
10.0
 40
10.0
 40
11.0
 40
11.0
 40
11.0
 40
12.0
 40
12.0
 40
12.0
 40
13.0
 40
13.0
 40
13.0
 40
14.0
 40
14.0
 40
14.0
 40
15.0
 40
15.0
 40
15.0
 40
16.0
 40
16.0
 40
16.0
 40
17.0
 40
17.0
 40
17.0
 40
18.0
 40
18.0
 40
18.0
 40
19.0
 40
19.0
 40
19.0
 40
19.0
 10
75.49909530447593
 20
-125.841069847012
 30
0.0
 10
75.40383841430877
 20
-125.8412421017862
 30
0.0
 10
75.18593612486671
 20
-125.820743783649
 30
0.0
 10
75.06053464920362
 20
-125.6348808822198
 30
0.0
 10
74.98629284149649
 20
-125.5229152789491
 30
0.0
 10
74.98181421736567
 20
-125.4235242741997
 30
0.0
 10
74.97733559323484
 20
-125.3389471800368
 30
0.0
 10
74.97733559323484
 20
-125.3389471800368
 30
0.0
 10
75.19730493996803
 20
-125.338430415714
 30
0.0
 10
75.19730493996803
 20
-125.338430415714
 30
0.0
 10
75.19954425203345
 20
-125.4123277138726
 30
0.0
 10
75.21074081236051
 20
-125.6471109711924
 30
0.0
 10
75.49427217079658
 20
-125.6464219520953
 30
0.0
 10
75.63173148065805
 20
-125.6460774425468
 30
0.0
 10
75.78400470110608
 20
-125.5757974946477
 30
0.0
 10
75.78331568200903
 20
-125.3473876639757
 30
0.0
 10
75.7829711724605
 20
-125.2311156913485
 30
0.0
 10
75.74473061257424
 20
-125.1825398450065
 30
0.0
 10
75.71303573410994
 20
-125.1508449665422
 30
0.0
 10
75.63879392640281
 20
-125.0769476683836
 30
0.0
 10
75.52234969900137
 20
-125.0645453246366
 30
0.0
 10
75.46740042601162
 20
-125.0647175794109
 30
0.0
 10
75.44828014606848
 20
-125.0647175794109
 30
0.0
 10
75.41245115302189
 20
-125.0669568914763
 30
0.0
 10
75.3848903891399
 20
-125.0712632608329
 30
0.0
 10
75.3848903891399
 20
-125.0712632608329
 30
0.0
 10
75.3843736248171
 20
-124.8766153659163
 30
0.0
 10
75.3843736248171
 20
-124.8766153659163
 30
0.0
 10
75.42244192992912
 20
-124.882988792564
 30
0.0
 10
75.46481660439768
 20
-124.8848835950809
 30
0.0
 10
75.4711900310454
 20
-124.8848835950809
 30
0.0
 10
75.53664684526515
 20
-124.8847113403066
 30
0.0
 10
75.73542885476407
 20
-124.8630072387495
 30
0.0
 10
75.73491209044127
 20
-124.6261569241386
 30
0.0
 10
75.73439532611849
 20
-124.4483899970997
 30
0.0
 10
75.60313718813048
 20
-124.3937852336585
 30
0.0
 10
75.49306638737674
 20
-124.394129743207
 30
0.0
 10
75.22865530888382
 20
-124.3948187623041
 30
0.0
 10
75.22073158926774
 20
-124.6275349623327
 30
0.0
 10
75.2167697294597
 20
-124.6993652032002
 30
0.0
 10
75.2167697294597
 20
-124.6993652032002
 30
0.0
 10
75.01368135060422
 20
-124.699881967523
 30
0.0
 10
75.01368135060422
 20
-124.699881967523
 30
0.0
 10
75.02177732499456
 20
-124.5751695109569
 30
0.0
 10
75.04830456023099
 20
-124.1984483196448
 30
0.0
 10
75.50529647634937
 20
-124.197242536225
 30
0.0
 10
75.72957219243914
 20
-124.1967257719022
 30
0.0
 10
75.97107338595515
 20
-124.3229885214366
 30
0.0
 10
75.9717624050522
 20
-124.6190944783938
 30
0.0
 10
75.97227916937499
 20
-124.8053018893716
 30
0.0
 10
75.87736678875636
 20
-124.8881564357919
 30
0.0
 10
75.7779757840069
 20
-124.9496513902036
 30
0.0
 10
75.83947073841861
 20
-124.9770398993113
 30
0.0
 10
76.02154403481406
 20
-125.0569661145691
 30
0.0
 10
76.02240530868538
 20
-125.3341240463574
 30
0.0
 10
76.02326658255669
 20
-125.6726046777832
 30
0.0
 10
75.77608098149001
 20
-125.8403808279149
 30
0.0
 10
75.49909530447593
 20
-125.841069847012
 30
0.0
  0
HATCH
  5
9B
330
94
100
AcDbEntity
  8
_U+30EC_U+30A4_U+30E4_U+30FC 1
 62
   179
420
  2234388
100
AcDbHatch
 10
0.0
 20
0.0
 30
0.0
210
0.0
220
0.0
230
1.0
  2
SOLID
 70
     1
 71
     0
 91
        1
 92
        1
 93
        1
 72
     4
 94
        3
 73
     0
 74
     1
 95
       62
 96
       58
 40
0.0
 40
0.0
 40
0.0
 40
0.0
 40
1.0
 40
1.0
 40
1.0
 40
2.0
 40
2.0
 40
2.0
 40
3.0
 40
3.0
 40
3.0
 40
4.0
 40
4.0
 40
4.0
 40
5.0
 40
5.0
 40
5.0
 40
6.0
 40
6.0
 40
6.0
 40
7.0
 40
7.0
 40
7.0
 40
8.0
 40
8.0
 40
8.0
 40
9.0
 40
9.0
 40
9.0
 40
10.0
 40
10.0
 40
10.0
 40
11.0
 40
11.0
 40
11.0
 40
12.0
 40
12.0
 40
12.0
 40
13.0
 40
13.0
 40
13.0
 40
14.0
 40
14.0
 40
14.0
 40
15.0
 40
15.0
 40
15.0
 40
16.0
 40
16.0
 40
16.0
 40
17.0
 40
17.0
 40
17.0
 40
18.0
 40
18.0
 40
18.0
 40
19.0
 40
19.0
 40
19.0
 40
19.0
 10
75.49909530447593
 20
-125.841069847012
 10
75.40383841430877
 20
-125.8412421017862
 10
75.18593612486671
 20
-125.820743783649
 10
75.06053464920362
 20
-125.6348808822198
 10
74.98629284149649
 20
-125.5229152789491
 10
74.98181421736567
 20
-125.4235242741997
 10
74.97733559323484
 20
-125.3389471800368
 10
74.97733559323484
 20
-125.3389471800368
 10
75.19730493996803
 20
-125.338430415714
 10
75.19730493996803
 20
-125.338430415714
 10
75.19954425203345
 20
-125.4123277138726
 10
75.21074081236051
 20
-125.6471109711924
 10
75.49427217079658
 20
-125.6464219520953
 10
75.63173148065805
 20
-125.6460774425468
 10
75.78400470110608
 20
-125.5757974946477
 10
75.78331568200903
 20
-125.3473876639757
 10
75.7829711724605
 20
-125.2311156913485
 10
75.74473061257424
 20
-125.1825398450065
 10
75.71303573410994
 20
-125.1508449665422
 10
75.63879392640281
 20
-125.0769476683836
 10
75.52234969900137
 20
-125.0645453246366
 10
75.46740042601162
 20
-125.0647175794109
 10
75.44828014606848
 20
-125.0647175794109
 10
75.41245115302189
 20
-125.0669568914763
 10
75.3848903891399
 20
-125.0712632608329
 10
75.3848903891399
 20
-125.0712632608329
 10
75.3843736248171
 20
-124.8766153659163
 10
75.3843736248171
 20
-124.8766153659163
 10
75.42244192992912
 20
-124.882988792564
 10
75.46481660439768
 20
-124.8848835950809
 10
75.4711900310454
 20
-124.8848835950809
 10
75.53664684526515
 20
-124.8847113403066
 10
75.73542885476407
 20
-124.8630072387495
 10
75.73491209044127
 20
-124.6261569241386
 10
75.73439532611849
 20
-124.4483899970997
 10
75.60313718813048
 20
-124.3937852336585
 10
75.49306638737674
 20
-124.394129743207
 10
75.22865530888382
 20
-124.3948187623041
 10
75.22073158926774
 20
-124.6275349623327
 10
75.2167697294597
 20
-124.6993652032002
 10
75.2167697294597
 20
-124.6993652032002
 10
75.01368135060422
 20
-124.699881967523
 10
75.01368135060422
 20
-124.699881967523
 10
75.02177732499456
 20
-124.5751695109569
 10
75.04830456023099
 20
-124.1984483196448
 10
75.50529647634937
 20
-124.197242536225
 10
75.72957219243914
 20
-124.1967257719022
 10
75.97107338595515
 20
-124.3229885214366
 10
75.9717624050522
 20
-124.6190944783938
 10
75.97227916937499
 20
-124.8053018893716
 10
75.87736678875636
 20
-124.8881564357919
 10
75.7779757840069
 20
-124.9496513902036
 10
75.83947073841861
 20
-124.9770398993113
 10
76.02154403481406
 20
-125.0569661145691
 10
76.02240530868538
 20
-125.3341240463574
 10
76.02326658255669
 20
-125.6726046777832
 10
75.77608098149001
 20
-125.8403808279149
 10
75.49909530447593
 20
-125.841069847012
 97
        0
 97
        0
 75
     2
 76
     1
 98
        0
  0
SPLINE
  5
9C
330
94
100
AcDbEntity
  8
_U+30EC_U+30A4_U+30E4_U+30FC 1
370
     0
100
AcDbSpline
210
0.0
220
0.0
230
1.0
 70
    11
 71
     3
 72
    53
 73
    49
 74
     0
 42
0.0000000001
 43
0.0000000001
 12
1.0
 22
0.0
 32
0.0
 13
1.0
 23
0.0
 33
0.0
 40
0.0
 40
0.0
 40
0.0
 40
0.0
 40
1.0
 40
1.0
 40
1.0
 40
2.0
 40
2.0
 40
2.0
 40
3.0
 40
3.0
 40
3.0
 40
4.0
 40
4.0
 40
4.0
 40
5.0
 40
5.0
 40
5.0
 40
6.0
 40
6.0
 40
6.0
 40
7.0
 40
7.0
 40
7.0
 40
8.0
 40
8.0
 40
8.0
 40
9.0
 40
9.0
 40
9.0
 40
10.0
 40
10.0
 40
10.0
 40
11.0
 40
11.0
 40
11.0
 40
12.0
 40
12.0
 40
12.0
 40
13.0
 40
13.0
 40
13.0
 40
14.0
 40
14.0
 40
14.0
 40
15.0
 40
15.0
 40
15.0
 40
16.0
 40
16.0
 40
16.0
 40
16.0
 10
76.665260126233
 20
-125.8379692610752
 30
0.0
 10
76.58705645871783
 20
-125.8381415158495
 30
0.0
 10
76.48542614190295
 20
-125.8216050575203
 30
0.0
 10
76.38379582508809
 20
-125.758387555366
 30
0.0
 10
76.20999075785723
 20
-125.648833518935
 30
0.0
 10
76.18845891107442
 20
-125.5177476357213
 30
0.0
 10
76.16916637635701
 20
-125.4099161470329
 30
0.0
 10
76.16916637635701
 20
-125.4099161470329
 30
0.0
 10
76.39120278038136
 20
-125.4092271279359
 30
0.0
 10
76.39120278038136
 20
-125.4092271279359
 30
0.0
 10
76.44684107246816
 20
-125.6080091374348
 30
0.0
 10
76.57379284109962
 20
-125.6372924490594
 30
0.0
 10
76.66698267397562
 20
-125.6369479395109
 30
0.0
 10
76.80650904112824
 20
-125.6366034299624
 30
0.0
 10
76.95861000680202
 20
-125.5368679156644
 30
0.0
 10
76.95792098770497
 20
-125.3041517156358
 30
0.0
 10
76.95723196860791
 20
-125.0481811210817
 30
0.0
 10
76.77722572950361
 20
-124.9787624470539
 30
0.0
 10
76.65664738751987
 20
-124.9791069566025
 30
0.0
 10
76.62495250905557
 20
-124.9792792113767
 30
0.0
 10
76.48318682983754
 20
-124.9796237209252
 30
0.0
 10
76.39464787586662
 20
-125.1088148016221
 30
0.0
 10
76.39464787586662
 20
-125.1088148016221
 30
0.0
 10
76.21912026089313
 20
-125.0902112860018
 30
0.0
 10
76.21912026089313
 20
-125.0902112860018
 30
0.0
 10
76.21912026089313
 20
-125.0902112860018
 30
0.0
 10
76.33745929081147
 20
-124.2437513252759
 30
0.0
 10
76.33745929081147
 20
-124.2437513252759
 30
0.0
 10
76.33745929081147
 20
-124.2437513252759
 30
0.0
 10
77.11587861570368
 20
-124.2416842679847
 30
0.0
 10
77.11587861570368
 20
-124.2416842679847
 30
0.0
 10
77.11587861570368
 20
-124.2416842679847
 30
0.0
 10
77.11639538002646
 20
-124.4363321629013
 30
0.0
 10
77.11639538002646
 20
-124.4363321629013
 30
0.0
 10
77.11639538002646
 20
-124.4363321629013
 30
0.0
 10
76.50092907158658
 20
-124.4378824558697
 30
0.0
 10
76.50092907158658
 20
-124.4378824558697
 30
0.0
 10
76.50092907158658
 20
-124.4378824558697
 30
0.0
 10
76.43633353123815
 20
-124.8612846910069
 30
0.0
 10
76.43633353123815
 20
-124.8612846910069
 30
0.0
 10
76.49765623087559
 20
-124.8271782457029
 30
0.0
 10
76.57999401297306
 20
-124.7868706285255
 30
0.0
 10
76.69850529766566
 20
-124.786526118977
 30
0.0
 10
76.95240883492856
 20
-124.7858370998799
 30
0.0
 10
77.18977591386228
 20
-124.9713554917606
 30
0.0
 10
77.1906371877336
 20
-125.2845146713698
 30
0.0
 10
77.19149846160491
 20
-125.6018079655614
 30
0.0
 10
76.9679117646122
 20
-125.8372802419782
 30
0.0
 10
76.665260126233
 20
-125.8379692610752
 30
0.0
  0
HATCH
  5
9D
330
94
100
AcDbEntity
  8
_U+30EC_U+30A4_U+30E4_U+30FC 1
 62
   179
420
  2234388
100
AcDbHatch
 10
0.0
 20
0.0
 30
0.0
210
0.0
220
0.0
230
1.0
  2
SOLID
 70
     1
 71
     0
 91
        1
 92
        1
 93
        1
 72
     4
 94
        3
 73
     0
 74
     1
 95
       53
 96
       49
 40
0.0
 40
0.0
 40
0.0
 40
0.0
 40
1.0
 40
1.0
 40
1.0
 40
2.0
 40
2.0
 40
2.0
 40
3.0
 40
3.0
 40
3.0
 40
4.0
 40
4.0
 40
4.0
 40
5.0
 40
5.0
 40
5.0
 40
6.0
 40
6.0
 40
6.0
 40
7.0
 40
7.0
 40
7.0
 40
8.0
 40
8.0
 40
8.0
 40
9.0
 40
9.0
 40
9.0
 40
10.0
 40
10.0
 40
10.0
 40
11.0
 40
11.0
 40
11.0
 40
12.0
 40
12.0
 40
12.0
 40
13.0
 40
13.0
 40
13.0
 40
14.0
 40
14.0
 40
14.0
 40
15.0
 40
15.0
 40
15.0
 40
16.0
 40
16.0
 40
16.0
 40
16.0
 10
76.665260126233
 20
-125.8379692610752
 10
76.58705645871783
 20
-125.8381415158495
 10
76.48542614190295
 20
-125.8216050575203
 10
76.38379582508809
 20
-125.758387555366
 10
76.20999075785723
 20
-125.648833518935
 10
76.18845891107442
 20
-125.5177476357213
 10
76.16916637635701
 20
-125.4099161470329
 10
76.16916637635701
 20
-125.4099161470329
 10
76.39120278038136
 20
-125.4092271279359
 10
76.39120278038136
 20
-125.4092271279359
 10
76.44684107246816
 20
-125.6080091374348
 10
76.57379284109962
 20
-125.6372924490594
 10
76.66698267397562
 20
-125.6369479395109
 10
76.80650904112824
 20
-125.6366034299624
 10
76.95861000680202
 20
-125.5368679156644
 10
76.95792098770497
 20
-125.3041517156358
 10
76.95723196860791
 20
-125.0481811210817
 10
76.77722572950361
 20
-124.9787624470539
 10
76.65664738751987
 20
-124.9791069566025
 10
76.62495250905557
 20
-124.9792792113767
 10
76.48318682983754
 20
-124.9796237209252
 10
76.39464787586662
 20
-125.1088148016221
 10
76.39464787586662
 20
-125.1088148016221
 10
76.21912026089313
 20
-125.0902112860018
 10
76.21912026089313
 20
-125.0902112860018
 10
76.21912026089313
 20
-125.0902112860018
 10
76.33745929081147
 20
-124.2437513252759
 10
76.33745929081147
 20
-124.2437513252759
 10
76.33745929081147
 20
-124.2437513252759
 10
77.11587861570368
 20
-124.2416842679847
 10
77.11587861570368
 20
-124.2416842679847
 10
77.11587861570368
 20
-124.2416842679847
 10
77.11639538002646
 20
-124.4363321629013
 10
77.11639538002646
 20
-124.4363321629013
 10
77.11639538002646
 20
-124.4363321629013
 10
76.50092907158658
 20
-124.4378824558697
 10
76.50092907158658
 20
-124.4378824558697
 10
76.50092907158658
 20
-124.4378824558697
 10
76.43633353123815
 20
-124.8612846910069
 10
76.43633353123815
 20
-124.8612846910069
 10
76.49765623087559
 20
-124.8271782457029
 10
76.57999401297306
 20
-124.7868706285255
 10
76.69850529766566
 20
-124.786526118977
 10
76.95240883492856
 20
-124.7858370998799
 10
77.18977591386228
 20
-124.9713554917606
 10
77.1906371877336
 20
-125.2845146713698
 10
77.19149846160491
 20
-125.6018079655614
 10
76.9679117646122
 20
-125.8372802419782
 10
76.665260126233
 20
-125.8379692610752
 97
        0
 97
        0
 75
     2
 76
     1
 98
        0
  0
SPLINE
  5
9E
330
94
100
AcDbEntity
  8
_U+30EC_U+30A4_U+30E4_U+30FC 1
370
     0
100
AcDbSpline
210
0.0
220
0.0
230
1.0
 70
    11
 71
     3
 72
    17
 73
    13
 74
     0
 42
0.0000000001
 43
0.0000000001
 12
1.0
 22
0.0
 32
0.0
 13
1.0
 23
0.0
 33
0.0
 40
0.0
 40
0.0
 40
0.0
 40
0.0
 40
1.0
 40
1.0
 40
1.0
 40
2.0
 40
2.0
 40
2.0
 40
3.0
 40
3.0
 40
3.0
 40
4.0
 40
4.0
 40
4.0
 40
4.0
 10
77.98455944230942
 20
-124.4954155504734
 30
0.0
 10
77.9850762066322
 20
-124.6604356242168
 30
0.0
 10
77.85209552090156
 20
-124.800306500918
 30
0.0
 10
77.68070202051038
 20
-124.8008232652408
 30
0.0
 10
77.51154783218462
 20
-124.8013400295636
 30
0.0
 10
77.37581107006578
 20
-124.6640529744763
 30
0.0
 10
77.37529430574298
 20
-124.4969658434417
 30
0.0
 10
77.37494979619446
 20
-124.3298787124071
 30
0.0
 10
77.50999753921626
 20
-124.1920748929971
 30
0.0
 10
77.67915172754202
 20
-124.1915581286743
 30
0.0
 10
77.8505452279332
 20
-124.1910413643515
 30
0.0
 10
77.98421493276089
 20
-124.3303954767299
 30
0.0
 10
77.98455944230942
 20
-124.4954155504734
 30
0.0
  0
SPLINE
  5
9F
330
94
100
AcDbEntity
  8
_U+30EC_U+30A4_U+30E4_U+30FC 1
370
     0
100
AcDbSpline
210
0.0
220
0.0
230
1.0
 70
    11
 71
     3
 72
    17
 73
    13
 74
     0
 42
0.0000000001
 43
0.0000000001
 12
1.0
 22
0.0
 32
0.0
 13
1.0
 23
0.0
 33
0.0
 40
0.0
 40
0.0
 40
0.0
 40
0.0
 40
1.0
 40
1.0
 40
1.0
 40
2.0
 40
2.0
 40
2.0
 40
3.0
 40
3.0
 40
3.0
 40
4.0
 40
4.0
 40
4.0
 40
4.0
 10
77.5001790170833
 20
-124.4966213338932
 30
0.0
 10
77.50035127185755
 20
-124.5961845934169
 30
0.0
 10
77.5809665062124
 20
-124.676283063449
 30
0.0
 10
77.68052976573613
 20
-124.6759385539005
 30
0.0
 10
77.77992077048557
 20
-124.6757662991262
 30
0.0
 10
77.86001924051764
 20
-124.5951510647714
 30
0.0
 10
77.85984698574337
 20
-124.4957600600219
 30
0.0
 10
77.85950247619485
 20
-124.3963690552724
 30
0.0
 10
77.78112655390542
 20
-124.3160983304661
 30
0.0
 10
77.67949623709055
 20
-124.3164428400146
 30
0.0
 10
77.57803817504994
 20
-124.3166150947889
 30
0.0
 10
77.49983450753477
 20
-124.3972303291438
 30
0.0
 10
77.5001790170833
 20
-124.4966213338932
 30
0.0
  0
HATCH
  5
A0
330
94
100
AcDbEntity
  8
_U+30EC_U+30A4_U+30E4_U+30FC 1
 62
   179
420
  2234388
100
AcDbHatch
 10
0.0
 20
0.0
 30
0.0
210
0.0
220
0.0
230
1.0
  2
SOLID
 70
     1
 71
     0
 91
        2
 92
        1
 93
        1
 72
     4
 94
        3
 73
     0
 74
     1
 95
       17
 96
       13
 40
0.0
 40
0.0
 40
0.0
 40
0.0
 40
1.0
 40
1.0
 40
1.0
 40
2.0
 40
2.0
 40
2.0
 40
3.0
 40
3.0
 40
3.0
 40
4.0
 40
4.0
 40
4.0
 40
4.0
 10
77.98455944230942
 20
-124.4954155504734
 10
77.9850762066322
 20
-124.6604356242168
 10
77.85209552090156
 20
-124.800306500918
 10
77.68070202051038
 20
-124.8008232652408
 10
77.51154783218462
 20
-124.8013400295636
 10
77.37581107006578
 20
-124.6640529744763
 10
77.37529430574298
 20
-124.4969658434417
 10
77.37494979619446
 20
-124.3298787124071
 10
77.50999753921626
 20
-124.1920748929971
 10
77.67915172754202
 20
-124.1915581286743
 10
77.8505452279332
 20
-124.1910413643515
 10
77.98421493276089
 20
-124.3303954767299
 10
77.98455944230942
 20
-124.4954155504734
 97
        0
 97
        0
 92
        1
 93
        1
 72
     4
 94
        3
 73
     0
 74
     1
 95
       17
 96
       13
 40
0.0
 40
0.0
 40
0.0
 40
0.0
 40
1.0
 40
1.0
 40
1.0
 40
2.0
 40
2.0
 40
2.0
 40
3.0
 40
3.0
 40
3.0
 40
4.0
 40
4.0
 40
4.0
 40
4.0
 10
77.5001790170833
 20
-124.4966213338932
 10
77.50035127185755
 20
-124.5961845934169
 10
77.5809665062124
 20
-124.676283063449
 10
77.68052976573613
 20
-124.6759385539005
 10
77.77992077048557
 20
-124.6757662991262
 10
77.86001924051764
 20
-124.5951510647714
 10
77.85984698574337
 20
-124.4957600600219
 10
77.85950247619485
 20
-124.3963690552724
 10
77.78112655390542
 20
-124.3160983304661
 10
77.67949623709055
 20
-124.3164428400146
 10
77.57803817504994
 20
-124.3166150947889
 10
77.49983450753477
 20
-124.3972303291438
 10
77.5001790170833
 20
-124.4966213338932
 97
        0
 97
        0
 75
     2
 76
     1
 98
        0
  0
ENDBLK
  5
97
330
94
100
AcDbEntity
  8
0
100
AcDbBlockEnd
  0
BLOCK
  5
B5
330
B3
100
AcDbEntity
  8
0
100
AcDbBlockBegin
  2
block 6
 70
     0
 10
0.0
 20
0.0
 30
0.0
  3
block 6
  1

  0
SPLINE
  5
B7
330
B3
100
AcDbEntity
  8
_U+30EC_U+30A4_U+30E4_U+30FC 1
 62
   179
420
  2234388
370
     9
100
AcDbSpline
210
0.0
220
0.0
230
1.0
 70
    11
 71
     3
 72
    17
 73
    13
 74
     0
 42
0.0000000001
 43
0.0000000001
 12
1.0
 22
0.0
 32
0.0
 13
1.0
 23
0.0
 33
0.0
 40
0.0
 40
0.0
 40
0.0
 40
0.0
 40
1.0
 40
1.0
 40
1.0
 40
2.0
 40
2.0
 40
2.0
 40
3.0
 40
3.0
 40
3.0
 40
4.0
 40
4.0
 40
4.0
 40
4.0
 10
76.62513054513006
 20
-137.2401863545788
 30
0.0
 10
76.66439471079501
 20
-137.2016277434772
 30
0.0
 10
76.66439471079501
 20
-137.1382335768269
 30
0.0
 10
76.62513054513006
 20
-137.0989694101698
 30
0.0
 10
76.5858663794651
 20
-137.0603755212902
 30
0.0
 10
76.52314442531372
 20
-137.0596699657353
 30
0.0
 10
76.48387832651149
 20
-137.0989694101698
 30
0.0
 10
76.44461416084653
 20
-137.1382335768269
 30
0.0
 10
76.44461416084653
 20
-137.2016277434772
 30
0.0
 10
76.48387832651149
 20
-137.2401863545788
 30
0.0
 10
76.52314442531372
 20
-137.2794857990133
 30
0.0
 10
76.5858663794651
 20
-137.2794857990133
 30
0.0
 10
76.62513054513006
 20
-137.2401863545788
 30
0.0
  0
POLYLINE
  5
B8
330
B3
100
AcDbEntity
  8
_U+30EC_U+30A4_U+30E4_U+30FC 1
 62
   179
420
  2234388
370
     9
100
AcDb2dPolyline
 66
     1
 10
0.0
 20
0.0
 30
0.0
  0
VERTEX
  5
B9
330
B8
100
AcDbEntity
  8
_U+30EC_U+30A4_U+30E4_U+30FC 1
 62
   179
420
  2234388
370
     9
100
AcDbVertex
100
AcDb2dVertex
 10
77.94046245601758
 20
-138.5562238542496
 30
0.0
  0
VERTEX
  5
BA
330
B8
100
AcDbEntity
  8
_U+30EC_U+30A4_U+30E4_U+30FC 1
 62
   179
420
  2234388
370
     9
100
AcDbVertex
100
AcDb2dVertex
 10
75.84757498103818
 20
-136.4629816325506
 30
0.0
  0
SEQEND
  5
BB
330
B8
100
AcDbEntity
  8
_U+30EC_U+30A4_U+30E4_U+30FC 1
 62
   179
420
  2234388
370
     9
  0
ENDBLK
  5
B6
330
B3
100
AcDbEntity
  8
0
100
AcDbBlockEnd
  0
BLOCK
  5
BE
330
BC
100
AcDbEntity
  8
0
100
AcDbBlockBegin
  2
block 7
 70
     0
 10
0.0
 20
0.0
 30
0.0
  3
block 7
  1

  0
SPLINE
  5
C0
330
BC
100
AcDbEntity
  8
_U+30EC_U+30A4_U+30E4_U+30FC 1
370
     0
100
AcDbSpline
210
0.0
220
0.0
230
1.0
 70
    11
 71
     3
 72
    62
 73
    58
 74
     0
 42
0.0000000001
 43
0.0000000001
 12
1.0
 22
0.0
 32
0.0
 13
1.0
 23
0.0
 33
0.0
 40
0.0
 40
0.0
 40
0.0
 40
0.0
 40
1.0
 40
1.0
 40
1.0
 40
2.0
 40
2.0
 40
2.0
 40
3.0
 40
3.0
 40
3.0
 40
4.0
 40
4.0
 40
4.0
 40
5.0
 40
5.0
 40
5.0
 40
6.0
 40
6.0
 40
6.0
 40
7.0
 40
7.0
 40
7.0
 40
8.0
 40
8.0
 40
8.0
 40
9.0
 40
9.0
 40
9.0
 40
10.0
 40
10.0
 40
10.0
 40
11.0
 40
11.0
 40
11.0
 40
12.0
 40
12.0
 40
12.0
 40
13.0
 40
13.0
 40
13.0
 40
14.0
 40
14.0
 40
14.0
 40
15.0
 40
15.0
 40
15.0
 40
16.0
 40
16.0
 40
16.0
 40
17.0
 40
17.0
 40
17.0
 40
18.0
 40
18.0
 40
18.0
 40
19.0
 40
19.0
 40
19.0
 40
19.0
 10
78.40468883673563
 20
-140.7676350559539
 30
0.0
 10
78.40468883673563
 20
-140.8630642008953
 30
0.0
 10
78.38350149950135
 20
-141.0807942355631
 30
0.0
 10
78.19729408852359
 20
-141.2058512016777
 30
0.0
 10
78.08515623047872
 20
-141.2799207546106
 30
0.0
 10
77.98576522572925
 20
-141.2840548691929
 30
0.0
 10
77.90118813156637
 20
-141.2881889837752
 30
0.0
 10
77.90118813156637
 20
-141.2881889837752
 30
0.0
 10
77.90118813156637
 20
-141.0680473822677
 30
0.0
 10
77.90118813156637
 20
-141.0680473822677
 30
0.0
 10
77.97525768449924
 20
-141.0659803249766
 30
0.0
 10
78.21004094181902
 20
-141.0556450385208
 30
0.0
 10
78.21004094181902
 20
-140.7721136800847
 30
0.0
 10
78.21004094181902
 20
-140.6346543702233
 30
0.0
 10
78.14027775824272
 20
-140.4820366402267
 30
0.0
 10
77.91169567279638
 20
-140.4820366402267
 30
0.0
 10
77.79542370016921
 20
-140.4820366402267
 30
0.0
 10
77.74667559905292
 20
-140.520277200113
 30
0.0
 10
77.71498072058861
 20
-140.5519720785773
 30
0.0
 10
77.64091116765574
 20
-140.6260416315102
 30
0.0
 10
77.62833656913459
 20
-140.7424858589116
 30
0.0
 10
77.62833656913459
 20
-140.7972628771271
 30
0.0
 10
77.62833656913459
 20
-140.8165554118445
 30
0.0
 10
77.63040362642573
 20
-140.8523844048911
 30
0.0
 10
77.63453774100803
 20
-140.8799451687731
 30
0.0
 10
77.63453774100803
 20
-140.8799451687731
 30
0.0
 10
77.43988984609142
 20
-140.8799451687731
 30
0.0
 10
77.43988984609142
 20
-140.8799451687731
 30
0.0
 10
77.44626327273913
 20
-140.8417046088868
 30
0.0
 10
77.44850258480454
 20
-140.7996744439668
 30
0.0
 10
77.44850258480454
 20
-140.7931287625448
 30
0.0
 10
77.44850258480454
 20
-140.727671948325
 30
0.0
 10
77.42731524757026
 20
-140.5288899388261
 30
0.0
 10
77.19029267818507
 20
-140.5288899388261
 30
0.0
 10
77.01269800592044
 20
-140.5288899388261
 30
0.0
 10
76.95757647815644
 20
-140.6598035672656
 30
0.0
 10
76.95757647815644
 20
-140.7700466227936
 30
0.0
 10
76.95757647815644
 20
-141.0342854465123
 30
0.0
 10
77.19029267818507
 20
-141.0428981852254
 30
0.0
 10
77.26229517382679
 20
-141.0470322998077
 30
0.0
 10
77.26229517382679
 20
-141.0470322998077
 30
0.0
 10
77.26229517382679
 20
-141.2502929334374
 30
0.0
 10
77.26229517382679
 20
-141.2502929334374
 30
0.0
 10
77.13741046248649
 20
-141.2416801947243
 30
0.0
 10
76.76086152594868
 20
-141.2141194308423
 30
0.0
 10
76.76086152594868
 20
-140.7572997694982
 30
0.0
 10
76.76086152594868
 20
-140.5330240534084
 30
0.0
 10
76.88781329458013
 20
-140.2918673694409
 30
0.0
 10
77.18391925153736
 20
-140.2918673694409
 30
0.0
 10
77.3701266625151
 20
-140.2918673694409
 30
0.0
 10
77.45263669938684
 20
-140.3869520048338
 30
0.0
 10
77.51395939902429
 20
-140.4865152643575
 30
0.0
 10
77.5415201629063
 20
-140.4251925647201
 30
0.0
 10
77.62196314248688
 20
-140.2432915230989
 30
0.0
 10
77.89912107427523
 20
-140.2432915230989
 30
0.0
 10
78.23760170570102
 20
-140.2432915230989
 30
0.0
 10
78.40468883673563
 20
-140.4906493789398
 30
0.0
 10
78.40468883673563
 20
-140.7676350559539
 30
0.0
  0
HATCH
  5
C1
330
BC
100
AcDbEntity
  8
_U+30EC_U+30A4_U+30E4_U+30FC 1
 62
   179
420
  2234388
100
AcDbHatch
 10
0.0
 20
0.0
 30
0.0
210
0.0
220
0.0
230
1.0
  2
SOLID
 70
     1
 71
     0
 91
        1
 92
        1
 93
        1
 72
     4
 94
        3
 73
     0
 74
     1
 95
       62
 96
       58
 40
0.0
 40
0.0
 40
0.0
 40
0.0
 40
1.0
 40
1.0
 40
1.0
 40
2.0
 40
2.0
 40
2.0
 40
3.0
 40
3.0
 40
3.0
 40
4.0
 40
4.0
 40
4.0
 40
5.0
 40
5.0
 40
5.0
 40
6.0
 40
6.0
 40
6.0
 40
7.0
 40
7.0
 40
7.0
 40
8.0
 40
8.0
 40
8.0
 40
9.0
 40
9.0
 40
9.0
 40
10.0
 40
10.0
 40
10.0
 40
11.0
 40
11.0
 40
11.0
 40
12.0
 40
12.0
 40
12.0
 40
13.0
 40
13.0
 40
13.0
 40
14.0
 40
14.0
 40
14.0
 40
15.0
 40
15.0
 40
15.0
 40
16.0
 40
16.0
 40
16.0
 40
17.0
 40
17.0
 40
17.0
 40
18.0
 40
18.0
 40
18.0
 40
19.0
 40
19.0
 40
19.0
 40
19.0
 10
78.40468883673563
 20
-140.7676350559539
 10
78.40468883673563
 20
-140.8630642008953
 10
78.38350149950135
 20
-141.0807942355631
 10
78.19729408852359
 20
-141.2058512016777
 10
78.08515623047872
 20
-141.2799207546106
 10
77.98576522572925
 20
-141.2840548691929
 10
77.90118813156637
 20
-141.2881889837752
 10
77.90118813156637
 20
-141.2881889837752
 10
77.90118813156637
 20
-141.0680473822677
 10
77.90118813156637
 20
-141.0680473822677
 10
77.97525768449924
 20
-141.0659803249766
 10
78.21004094181902
 20
-141.0556450385208
 10
78.21004094181902
 20
-140.7721136800847
 10
78.21004094181902
 20
-140.6346543702233
 10
78.14027775824272
 20
-140.4820366402267
 10
77.91169567279638
 20
-140.4820366402267
 10
77.79542370016921
 20
-140.4820366402267
 10
77.74667559905292
 20
-140.520277200113
 10
77.71498072058861
 20
-140.5519720785773
 10
77.64091116765574
 20
-140.6260416315102
 10
77.62833656913459
 20
-140.7424858589116
 10
77.62833656913459
 20
-140.7972628771271
 10
77.62833656913459
 20
-140.8165554118445
 10
77.63040362642573
 20
-140.8523844048911
 10
77.63453774100803
 20
-140.8799451687731
 10
77.63453774100803
 20
-140.8799451687731
 10
77.43988984609142
 20
-140.8799451687731
 10
77.43988984609142
 20
-140.8799451687731
 10
77.44626327273913
 20
-140.8417046088868
 10
77.44850258480454
 20
-140.7996744439668
 10
77.44850258480454
 20
-140.7931287625448
 10
77.44850258480454
 20
-140.727671948325
 10
77.42731524757026
 20
-140.5288899388261
 10
77.19029267818507
 20
-140.5288899388261
 10
77.01269800592044
 20
-140.5288899388261
 10
76.95757647815644
 20
-140.6598035672656
 10
76.95757647815644
 20
-140.7700466227936
 10
76.95757647815644
 20
-141.0342854465123
 10
77.19029267818507
 20
-141.0428981852254
 10
77.26229517382679
 20
-141.0470322998077
 10
77.26229517382679
 20
-141.0470322998077
 10
77.26229517382679
 20
-141.2502929334374
 10
77.26229517382679
 20
-141.2502929334374
 10
77.13741046248649
 20
-141.2416801947243
 10
76.76086152594868
 20
-141.2141194308423
 10
76.76086152594868
 20
-140.7572997694982
 10
76.76086152594868
 20
-140.5330240534084
 10
76.88781329458013
 20
-140.2918673694409
 10
77.18391925153736
 20
-140.2918673694409
 10
77.3701266625151
 20
-140.2918673694409
 10
77.45263669938684
 20
-140.3869520048338
 10
77.51395939902429
 20
-140.4865152643575
 10
77.5415201629063
 20
-140.4251925647201
 10
77.62196314248688
 20
-140.2432915230989
 10
77.89912107427523
 20
-140.2432915230989
 10
78.23760170570102
 20
-140.2432915230989
 10
78.40468883673563
 20
-140.4906493789398
 10
78.40468883673563
 20
-140.7676350559539
 97
        0
 97
        0
 75
     2
 76
     1
 98
        0
  0
ENDBLK
  5
BF
330
BC
100
AcDbEntity
  8
0
100
AcDbBlockEnd
  0
BLOCK
  5
C4
330
C2
100
AcDbEntity
  8
0
100
AcDbBlockBegin
  2
block 8
 70
     0
 10
0.0
 20
0.0
 30
0.0
  3
block 8
  1

  0
SPLINE
  5
C6
330
C2
100
AcDbEntity
  8
_U+30EC_U+30A4_U+30E4_U+30FC 1
370
     0
100
AcDbSpline
210
0.0
220
0.0
230
1.0
 70
    11
 71
     3
 72
    62
 73
    58
 74
     0
 42
0.0000000001
 43
0.0000000001
 12
1.0
 22
0.0
 32
0.0
 13
1.0
 23
0.0
 33
0.0
 40
0.0
 40
0.0
 40
0.0
 40
0.0
 40
1.0
 40
1.0
 40
1.0
 40
2.0
 40
2.0
 40
2.0
 40
3.0
 40
3.0
 40
3.0
 40
4.0
 40
4.0
 40
4.0
 40
5.0
 40
5.0
 40
5.0
 40
6.0
 40
6.0
 40
6.0
 40
7.0
 40
7.0
 40
7.0
 40
8.0
 40
8.0
 40
8.0
 40
9.0
 40
9.0
 40
9.0
 40
10.0
 40
10.0
 40
10.0
 40
11.0
 40
11.0
 40
11.0
 40
12.0
 40
12.0
 40
12.0
 40
13.0
 40
13.0
 40
13.0
 40
14.0
 40
14.0
 40
14.0
 40
15.0
 40
15.0
 40
15.0
 40
16.0
 40
16.0
 40
16.0
 40
17.0
 40
17.0
 40
17.0
 40
18.0
 40
18.0
 40
18.0
 40
19.0
 40
19.0
 40
19.0
 40
19.0
 10
87.92882756048307
 20
-124.9014200534101
 30
0.0
 10
87.86147594374644
 20
-124.9687716701467
 30
0.0
 10
87.69249401019493
 20
-125.1077812729765
 30
0.0
 10
87.47252466346174
 20
-125.0643730698624
 30
0.0
 10
87.34092201592519
 20
-125.0375013250774
 30
0.0
 10
87.26754148208937
 20
-124.9701497083408
 30
0.0
 10
87.20484074425782
 20
-124.9133056328342
 30
0.0
 10
87.20484074425782
 20
-124.9133056328342
 30
0.0
 10
87.36038680541685
 20
-124.7577595716752
 30
0.0
 10
87.36038680541685
 20
-124.7577595716752
 30
0.0
 10
87.41413029498675
 20
-124.8085747300826
 30
0.0
 10
87.58776310744334
 20
-124.9672213771783
 30
0.0
 10
87.78809540991062
 20
-124.7667168199368
 30
0.0
 10
87.88541935736893
 20
-124.6695651272528
 30
0.0
 10
87.94381372584391
 20
-124.5124687731254
 30
0.0
 10
87.7822387475857
 20
-124.3508937948671
 30
0.0
 10
87.69990096548823
 20
-124.2685560127697
 30
0.0
 10
87.63857826585078
 20
-124.2611490574764
 30
0.0
 10
87.59361976976827
 20
-124.2611490574764
 30
0.0
 10
87.48906112179094
 20
-124.2611490574764
 30
0.0
 10
87.39776609143182
 20
-124.3343573365379
 30
0.0
 10
87.35883651244849
 20
-124.3732869155213
 30
0.0
 10
87.34540064005601
 20
-124.3867227879137
 30
0.0
 10
87.32145722643352
 20
-124.413766787473
 30
0.0
 10
87.30492076810432
 20
-124.4361599081271
 30
0.0
 10
87.30492076810432
 20
-124.4361599081271
 30
0.0
 10
87.1672892034686
 20
-124.2985283434913
 30
0.0
 10
87.1672892034686
 20
-124.2985283434913
 30
0.0
 10
87.19881182715864
 20
-124.2761352228372
 30
0.0
 10
87.2301621960744
 20
-124.2477131850839
 30
0.0
 10
87.23464082020523
 20
-124.2432345609531
 30
0.0
 10
87.28097735448185
 20
-124.1968980266765
 30
0.0
 10
87.40672333969346
 20
-124.0411797107432
 30
0.0
 10
87.23911944433605
 20
-123.87374807016
 30
0.0
 10
87.1135457138987
 20
-123.7480020849484
 30
0.0
 10
86.98194306636216
 20
-123.8019178292926
 30
0.0
 10
86.9040839083955
 20
-123.879604732485
 30
0.0
 10
86.71718747832071
 20
-124.066673417334
 30
0.0
 10
86.8756618706422
 20
-124.2372056438539
 30
0.0
 10
86.92354869788717
 20
-124.2911213881981
 30
0.0
 10
86.92354869788717
 20
-124.2911213881981
 30
0.0
 10
86.77988821615226
 20
-124.4346096151587
 30
0.0
 10
86.77988821615226
 20
-124.4346096151587
 30
0.0
 10
86.69772268882905
 20
-124.3403862536371
 30
0.0
 10
86.4508815973109
 20
-124.0547878379099
 30
0.0
 10
86.77403155382733
 20
-123.7316378813935
 30
0.0
 10
86.93250594614882
 20
-123.5729912342977
 30
0.0
 10
87.19278291005945
 20
-123.4922037451686
 30
0.0
 10
87.40224471556263
 20
-123.7016655506718
 30
0.0
 10
87.53384736309918
 20
-123.8332681982084
 30
0.0
 10
87.52489011483753
 20
-123.95901418342
 30
0.0
 10
87.49801837005258
 20
-124.0727023344332
 30
0.0
 10
87.56071910788413
 20
-124.0487589208107
 30
0.0
 10
87.74623749976483
 20
-123.9769286799433
 30
0.0
 10
87.94226343287555
 20
-124.172954613054
 30
0.0
 10
88.18152531432615
 20
-124.4122164945046
 30
0.0
 10
88.12468123881953
 20
-124.7053941202993
 30
0.0
 10
87.92882756048307
 20
-124.9014200534101
 30
0.0
  0
HATCH
  5
C7
330
C2
100
AcDbEntity
  8
_U+30EC_U+30A4_U+30E4_U+30FC 1
 62
   179
420
  2234388
100
AcDbHatch
 10
0.0
 20
0.0
 30
0.0
210
0.0
220
0.0
230
1.0
  2
SOLID
 70
     1
 71
     0
 91
        1
 92
        1
 93
        1
 72
     4
 94
        3
 73
     0
 74
     1
 95
       62
 96
       58
 40
0.0
 40
0.0
 40
0.0
 40
0.0
 40
1.0
 40
1.0
 40
1.0
 40
2.0
 40
2.0
 40
2.0
 40
3.0
 40
3.0
 40
3.0
 40
4.0
 40
4.0
 40
4.0
 40
5.0
 40
5.0
 40
5.0
 40
6.0
 40
6.0
 40
6.0
 40
7.0
 40
7.0
 40
7.0
 40
8.0
 40
8.0
 40
8.0
 40
9.0
 40
9.0
 40
9.0
 40
10.0
 40
10.0
 40
10.0
 40
11.0
 40
11.0
 40
11.0
 40
12.0
 40
12.0
 40
12.0
 40
13.0
 40
13.0
 40
13.0
 40
14.0
 40
14.0
 40
14.0
 40
15.0
 40
15.0
 40
15.0
 40
16.0
 40
16.0
 40
16.0
 40
17.0
 40
17.0
 40
17.0
 40
18.0
 40
18.0
 40
18.0
 40
19.0
 40
19.0
 40
19.0
 40
19.0
 10
87.92882756048307
 20
-124.9014200534101
 10
87.86147594374644
 20
-124.9687716701467
 10
87.69249401019493
 20
-125.1077812729765
 10
87.47252466346174
 20
-125.0643730698624
 10
87.34092201592519
 20
-125.0375013250774
 10
87.26754148208937
 20
-124.9701497083408
 10
87.20484074425782
 20
-124.9133056328342
 10
87.20484074425782
 20
-124.9133056328342
 10
87.36038680541685
 20
-124.7577595716752
 10
87.36038680541685
 20
-124.7577595716752
 10
87.41413029498675
 20
-124.8085747300826
 10
87.58776310744334
 20
-124.9672213771783
 10
87.78809540991062
 20
-124.7667168199368
 10
87.88541935736893
 20
-124.6695651272528
 10
87.94381372584391
 20
-124.5124687731254
 10
87.7822387475857
 20
-124.3508937948671
 10
87.69990096548823
 20
-124.2685560127697
 10
87.63857826585078
 20
-124.2611490574764
 10
87.59361976976827
 20
-124.2611490574764
 10
87.48906112179094
 20
-124.2611490574764
 10
87.39776609143182
 20
-124.3343573365379
 10
87.35883651244849
 20
-124.3732869155213
 10
87.34540064005601
 20
-124.3867227879137
 10
87.32145722643352
 20
-124.413766787473
 10
87.30492076810432
 20
-124.4361599081271
 10
87.30492076810432
 20
-124.4361599081271
 10
87.1672892034686
 20
-124.2985283434913
 10
87.1672892034686
 20
-124.2985283434913
 10
87.19881182715864
 20
-124.2761352228372
 10
87.2301621960744
 20
-124.2477131850839
 10
87.23464082020523
 20
-124.2432345609531
 10
87.28097735448185
 20
-124.1968980266765
 10
87.40672333969346
 20
-124.0411797107432
 10
87.23911944433605
 20
-123.87374807016
 10
87.1135457138987
 20
-123.7480020849484
 10
86.98194306636216
 20
-123.8019178292926
 10
86.9040839083955
 20
-123.879604732485
 10
86.71718747832071
 20
-124.066673417334
 10
86.8756618706422
 20
-124.2372056438539
 10
86.92354869788717
 20
-124.2911213881981
 10
86.92354869788717
 20
-124.2911213881981
 10
86.77988821615226
 20
-124.4346096151587
 10
86.77988821615226
 20
-124.4346096151587
 10
86.69772268882905
 20
-124.3403862536371
 10
86.4508815973109
 20
-124.0547878379099
 10
86.77403155382733
 20
-123.7316378813935
 10
86.93250594614882
 20
-123.5729912342977
 10
87.19278291005945
 20
-123.4922037451686
 10
87.40224471556263
 20
-123.7016655506718
 10
87.53384736309918
 20
-123.8332681982084
 10
87.52489011483753
 20
-123.95901418342
 10
87.49801837005258
 20
-124.0727023344332
 10
87.56071910788413
 20
-124.0487589208107
 10
87.74623749976483
 20
-123.9769286799433
 10
87.94226343287555
 20
-124.172954613054
 10
88.18152531432615
 20
-124.4122164945046
 10
88.12468123881953
 20
-124.7053941202993
 10
87.92882756048307
 20
-124.9014200534101
 97
        0
 97
        0
 75
     2
 76
     1
 98
        0
  0
SPLINE
  5
C8
330
C2
100
AcDbEntity
  8
_U+30EC_U+30A4_U+30E4_U+30FC 1
370
     0
100
AcDbSpline
210
0.0
220
0.0
230
1.0
 70
    11
 71
     3
 72
    53
 73
    49
 74
     0
 42
0.0000000001
 43
0.0000000001
 12
1.0
 22
0.0
 32
0.0
 13
1.0
 23
0.0
 33
0.0
 40
0.0
 40
0.0
 40
0.0
 40
0.0
 40
1.0
 40
1.0
 40
1.0
 40
2.0
 40
2.0
 40
2.0
 40
3.0
 40
3.0
 40
3.0
 40
4.0
 40
4.0
 40
4.0
 40
5.0
 40
5.0
 40
5.0
 40
6.0
 40
6.0
 40
6.0
 40
7.0
 40
7.0
 40
7.0
 40
8.0
 40
8.0
 40
8.0
 40
9.0
 40
9.0
 40
9.0
 40
10.0
 40
10.0
 40
10.0
 40
11.0
 40
11.0
 40
11.0
 40
12.0
 40
12.0
 40
12.0
 40
13.0
 40
13.0
 40
13.0
 40
14.0
 40
14.0
 40
14.0
 40
15.0
 40
15.0
 40
15.0
 40
16.0
 40
16.0
 40
16.0
 40
16.0
 10
88.75341116487762
 20
-124.0766641942413
 30
0.0
 10
88.69811738233936
 20
-124.1319579767795
 30
0.0
 10
88.61440156204779
 20
-124.1919026382229
 30
0.0
 10
88.49761282509782
 20
-124.2187743830078
 30
0.0
 10
88.29728052263054
 20
-124.2637328790903
 30
0.0
 10
88.18944903394222
 20
-124.1858737211237
 30
0.0
 10
88.09970429655147
 20
-124.1230007285179
 30
0.0
 10
88.09970429655147
 20
-124.1230007285179
 30
0.0
 10
88.25680065067885
 20
-123.9660766291647
 30
0.0
 10
88.25680065067885
 20
-123.9660766291647
 30
0.0
 10
88.43629012546037
 20
-124.0677069459796
 30
0.0
 10
88.54704994531116
 20
-123.9989772910489
 30
0.0
 10
88.61285126907943
 20
-123.9330037125063
 30
0.0
 10
88.71155325473184
 20
-123.8343017268539
 30
0.0
 10
88.7489325407468
 20
-123.6563625450408
 30
0.0
 10
88.58442923132611
 20
-123.4918592356201
 30
0.0
 10
88.40338946357625
 20
-123.3108194678702
 30
0.0
 10
88.22700057473145
 20
-123.3885063710626
 30
0.0
 10
88.14173446147151
 20
-123.4737724843225
 30
0.0
 10
88.11916908604313
 20
-123.4963378597509
 30
0.0
 10
88.01891680742236
 20
-123.5965901383717
 30
0.0
 10
88.04733884517567
 20
-123.7505859065624
 30
0.0
 10
88.04733884517567
 20
-123.7505859065624
 30
0.0
 10
87.90970728053993
 20
-123.8613457264131
 30
0.0
 10
87.90970728053993
 20
-123.8613457264131
 30
0.0
 10
87.90970728053993
 20
-123.8613457264131
 30
0.0
 10
87.39673256278624
 20
-123.1776665273653
 30
0.0
 10
87.39673256278624
 20
-123.1776665273653
 30
0.0
 10
87.39673256278624
 20
-123.1776665273653
 30
0.0
 10
87.94725882132916
 20
-122.6271402688224
 30
0.0
 10
87.94725882132916
 20
-122.6271402688224
 30
0.0
 10
87.94725882132916
 20
-122.6271402688224
 30
0.0
 10
88.0848903859649
 20
-122.7647718334581
 30
0.0
 10
88.0848903859649
 20
-122.7647718334581
 30
0.0
 10
88.0848903859649
 20
-122.7647718334581
 30
0.0
 10
87.6494303166293
 20
-123.2000596480194
 30
0.0
 10
87.6494303166293
 20
-123.2000596480194
 30
0.0
 10
87.6494303166293
 20
-123.2000596480194
 30
0.0
 10
87.90230032524666
 20
-123.54560272519
 30
0.0
 10
87.90230032524666
 20
-123.54560272519
 30
0.0
 10
87.9217651147383
 20
-123.4782511084534
 30
0.0
 10
87.95173744545998
 20
-123.3916069569993
 30
0.0
 10
88.03545326575156
 20
-123.3077188819335
 30
0.0
 10
88.21494274053308
 20
-123.128229407152
 30
0.0
 10
88.51414928342702
 20
-123.0924004141054
 30
0.0
 10
88.73549666835433
 20
-123.3137477990327
 30
0.0
 10
88.95994463921835
 20
-123.5381957698967
 30
0.0
 10
88.96735159451164
 20
-123.8627237646072
 30
0.0
 10
88.75341116487762
 20
-124.0766641942413
 30
0.0
  0
HATCH
  5
C9
330
C2
100
AcDbEntity
  8
_U+30EC_U+30A4_U+30E4_U+30FC 1
 62
   179
420
  2234388
100
AcDbHatch
 10
0.0
 20
0.0
 30
0.0
210
0.0
220
0.0
230
1.0
  2
SOLID
 70
     1
 71
     0
 91
        1
 92
        1
 93
        1
 72
     4
 94
        3
 73
     0
 74
     1
 95
       53
 96
       49
 40
0.0
 40
0.0
 40
0.0
 40
0.0
 40
1.0
 40
1.0
 40
1.0
 40
2.0
 40
2.0
 40
2.0
 40
3.0
 40
3.0
 40
3.0
 40
4.0
 40
4.0
 40
4.0
 40
5.0
 40
5.0
 40
5.0
 40
6.0
 40
6.0
 40
6.0
 40
7.0
 40
7.0
 40
7.0
 40
8.0
 40
8.0
 40
8.0
 40
9.0
 40
9.0
 40
9.0
 40
10.0
 40
10.0
 40
10.0
 40
11.0
 40
11.0
 40
11.0
 40
12.0
 40
12.0
 40
12.0
 40
13.0
 40
13.0
 40
13.0
 40
14.0
 40
14.0
 40
14.0
 40
15.0
 40
15.0
 40
15.0
 40
16.0
 40
16.0
 40
16.0
 40
16.0
 10
88.75341116487762
 20
-124.0766641942413
 10
88.69811738233936
 20
-124.1319579767795
 10
88.61440156204779
 20
-124.1919026382229
 10
88.49761282509782
 20
-124.2187743830078
 10
88.29728052263054
 20
-124.2637328790903
 10
88.18944903394222
 20
-124.1858737211237
 10
88.09970429655147
 20
-124.1230007285179
 10
88.09970429655147
 20
-124.1230007285179
 10
88.25680065067885
 20
-123.9660766291647
 10
88.25680065067885
 20
-123.9660766291647
 10
88.43629012546037
 20
-124.0677069459796
 10
88.54704994531116
 20
-123.9989772910489
 10
88.61285126907943
 20
-123.9330037125063
 10
88.71155325473184
 20
-123.8343017268539
 10
88.7489325407468
 20
-123.6563625450408
 10
88.58442923132611
 20
-123.4918592356201
 10
88.40338946357625
 20
-123.3108194678702
 10
88.22700057473145
 20
-123.3885063710626
 10
88.14173446147151
 20
-123.4737724843225
 10
88.11916908604313
 20
-123.4963378597509
 10
88.01891680742236
 20
-123.5965901383717
 10
88.04733884517567
 20
-123.7505859065624
 10
88.04733884517567
 20
-123.7505859065624
 10
87.90970728053993
 20
-123.8613457264131
 10
87.90970728053993
 20
-123.8613457264131
 10
87.90970728053993
 20
-123.8613457264131
 10
87.39673256278624
 20
-123.1776665273653
 10
87.39673256278624
 20
-123.1776665273653
 10
87.39673256278624
 20
-123.1776665273653
 10
87.94725882132916
 20
-122.6271402688224
 10
87.94725882132916
 20
-122.6271402688224
 10
87.94725882132916
 20
-122.6271402688224
 10
88.0848903859649
 20
-122.7647718334581
 10
88.0848903859649
 20
-122.7647718334581
 10
88.0848903859649
 20
-122.7647718334581
 10
87.6494303166293
 20
-123.2000596480194
 10
87.6494303166293
 20
-123.2000596480194
 10
87.6494303166293
 20
-123.2000596480194
 10
87.90230032524666
 20
-123.54560272519
 10
87.90230032524666
 20
-123.54560272519
 10
87.9217651147383
 20
-123.4782511084534
 10
87.95173744545998
 20
-123.3916069569993
 10
88.03545326575156
 20
-123.3077188819335
 10
88.21494274053308
 20
-123.128229407152
 10
88.51414928342702
 20
-123.0924004141054
 10
88.73549666835433
 20
-123.3137477990327
 10
88.95994463921835
 20
-123.5381957698967
 10
88.96735159451164
 20
-123.8627237646072
 10
88.75341116487762
 20
-124.0766641942413
 97
        0
 97
        0
 75
     2
 76
     1
 98
        0
  0
ENDBLK
  5
C5
330
C2
100
AcDbEntity
  8
0
100
AcDbBlockEnd
  0
BLOCK
  5
DF
330
DD
100
AcDbEntity
  8
0
100
AcDbBlockBegin
  2
block 9
 70
     0
 10
0.0
 20
0.0
 30
0.0
  3
block 9
  1

  0
SPLINE
  5
E1
330
DD
100
AcDbEntity
  8
_U+30EC_U+30A4_U+30E4_U+30FC 1
370
     0
100
AcDbSpline
210
0.0
220
0.0
230
1.0
 70
    11
 71
     3
 72
    32
 73
    28
 74
     0
 42
0.0000000001
 43
0.0000000001
 12
1.0
 22
0.0
 32
0.0
 13
1.0
 23
0.0
 33
0.0
 40
0.0
 40
0.0
 40
0.0
 40
0.0
 40
1.0
 40
1.0
 40
1.0
 40
2.0
 40
2.0
 40
2.0
 40
3.0
 40
3.0
 40
3.0
 40
4.0
 40
4.0
 40
4.0
 40
5.0
 40
5.0
 40
5.0
 40
6.0
 40
6.0
 40
6.0
 40
7.0
 40
7.0
 40
7.0
 40
8.0
 40
8.0
 40
8.0
 40
9.0
 40
9.0
 40
9.0
 40
9.0
 10
81.48873831513129
 20
-144.7336289785735
 30
0.0
 10
80.9724907566666
 20
-144.7336289785735
 30
0.0
 10
80.96405027272775
 20
-144.1796576245454
 30
0.0
 10
80.96405027272775
 20
-143.9657171949113
 30
0.0
 10
80.96405027272775
 20
-143.7352403069481
 30
0.0
 10
80.98317055267088
 20
-143.0879068652697
 30
0.0
 10
81.5268066202433
 20
-143.0879068652697
 30
0.0
 10
81.70026717792562
 20
-143.0879068652697
 30
0.0
 10
81.94573023124968
 20
-143.1578423036203
 30
0.0
 10
81.98379853636169
 20
-143.4899495083984
 30
0.0
 10
81.98379853636169
 20
-143.4899495083984
 30
0.0
 10
81.77003036150194
 20
-143.4899495083984
 30
0.0
 10
81.77003036150194
 20
-143.4899495083984
 30
0.0
 10
81.75952282027193
 20
-143.4327609233432
 30
0.0
 10
81.72782794180763
 20
-143.2846218174775
 30
0.0
 10
81.52473956295215
 20
-143.2846218174775
 30
0.0
 10
81.23276772057723
 20
-143.2846218174775
 30
0.0
 10
81.19246010339981
 20
-143.6125949076732
 30
0.0
 10
81.17988550487864
 20
-143.8175780890456
 30
0.0
 10
81.27290308298039
 20
-143.7393744215304
 30
0.0
 10
81.34059920926555
 20
-143.6801187791841
 30
0.0
 10
81.52250025088674
 20
-143.6801187791841
 30
0.0
 10
81.70233423521678
 20
-143.6801187791841
 30
0.0
 10
82.00481361882171
 20
-143.788294777421
 30
0.0
 10
82.00481361882171
 20
-144.194471535132
 30
0.0
 10
82.00481361882171
 20
-144.5138318866146
 30
0.0
 10
81.8060316093228
 20
-144.7336289785735
 30
0.0
 10
81.48873831513129
 20
-144.7336289785735
 30
0.0
  0
SPLINE
  5
E2
330
DD
100
AcDbEntity
  8
_U+30EC_U+30A4_U+30E4_U+30FC 1
370
     0
100
AcDbSpline
210
0.0
220
0.0
230
1.0
 70
    11
 71
     3
 72
    17
 73
    13
 74
     0
 42
0.0000000001
 43
0.0000000001
 12
1.0
 22
0.0
 32
0.0
 13
1.0
 23
0.0
 33
0.0
 40
0.0
 40
0.0
 40
0.0
 40
0.0
 40
1.0
 40
1.0
 40
1.0
 40
2.0
 40
2.0
 40
2.0
 40
3.0
 40
3.0
 40
3.0
 40
4.0
 40
4.0
 40
4.0
 40
4.0
 10
81.50561928300901
 20
-143.8747666741008
 30
0.0
 10
81.24327526180724
 20
-143.8747666741008
 30
0.0
 10
81.20520695669524
 20
-144.0862955368951
 30
0.0
 10
81.20520695669524
 20
-144.2027397642966
 30
0.0
 10
81.20520695669524
 20
-144.3784396340443
 30
0.0
 10
81.30046384686239
 20
-144.5413926504966
 30
0.0
 10
81.48443194577473
 20
-144.5413926504966
 30
0.0
 10
81.60501028775847
 20
-144.5413926504966
 30
0.0
 10
81.78071015750622
 20
-144.4821370081503
 30
0.0
 10
81.78071015750622
 20
-144.1965385924231
 30
0.0
 10
81.78071015750622
 20
-143.9722628763333
 30
0.0
 10
81.64101153557934
 20
-143.8747666741008
 30
0.0
 10
81.50561928300901
 20
-143.8747666741008
 30
0.0
  0
HATCH
  5
E3
330
DD
100
AcDbEntity
  8
_U+30EC_U+30A4_U+30E4_U+30FC 1
 62
   179
420
  2234388
100
AcDbHatch
 10
0.0
 20
0.0
 30
0.0
210
0.0
220
0.0
230
1.0
  2
SOLID
 70
     1
 71
     0
 91
        2
 92
        1
 93
        1
 72
     4
 94
        3
 73
     0
 74
     1
 95
       32
 96
       28
 40
0.0
 40
0.0
 40
0.0
 40
0.0
 40
1.0
 40
1.0
 40
1.0
 40
2.0
 40
2.0
 40
2.0
 40
3.0
 40
3.0
 40
3.0
 40
4.0
 40
4.0
 40
4.0
 40
5.0
 40
5.0
 40
5.0
 40
6.0
 40
6.0
 40
6.0
 40
7.0
 40
7.0
 40
7.0
 40
8.0
 40
8.0
 40
8.0
 40
9.0
 40
9.0
 40
9.0
 40
9.0
 10
81.48873831513129
 20
-144.7336289785735
 10
80.9724907566666
 20
-144.7336289785735
 10
80.96405027272775
 20
-144.1796576245454
 10
80.96405027272775
 20
-143.9657171949113
 10
80.96405027272775
 20
-143.7352403069481
 10
80.98317055267088
 20
-143.0879068652697
 10
81.5268066202433
 20
-143.0879068652697
 10
81.70026717792562
 20
-143.0879068652697
 10
81.94573023124968
 20
-143.1578423036203
 10
81.98379853636169
 20
-143.4899495083984
 10
81.98379853636169
 20
-143.4899495083984
 10
81.77003036150194
 20
-143.4899495083984
 10
81.77003036150194
 20
-143.4899495083984
 10
81.75952282027193
 20
-143.4327609233432
 10
81.72782794180763
 20
-143.2846218174775
 10
81.52473956295215
 20
-143.2846218174775
 10
81.23276772057723
 20
-143.2846218174775
 10
81.19246010339981
 20
-143.6125949076732
 10
81.17988550487864
 20
-143.8175780890456
 10
81.27290308298039
 20
-143.7393744215304
 10
81.34059920926555
 20
-143.6801187791841
 10
81.52250025088674
 20
-143.6801187791841
 10
81.70233423521678
 20
-143.6801187791841
 10
82.00481361882171
 20
-143.788294777421
 10
82.00481361882171
 20
-144.194471535132
 10
82.00481361882171
 20
-144.5138318866146
 10
81.8060316093228
 20
-144.7336289785735
 10
81.48873831513129
 20
-144.7336289785735
 97
        0
 97
        0
 92
        1
 93
        1
 72
     4
 94
        3
 73
     0
 74
     1
 95
       17
 96
       13
 40
0.0
 40
0.0
 40
0.0
 40
0.0
 40
1.0
 40
1.0
 40
1.0
 40
2.0
 40
2.0
 40
2.0
 40
3.0
 40
3.0
 40
3.0
 40
4.0
 40
4.0
 40
4.0
 40
4.0
 10
81.50561928300901
 20
-143.8747666741008
 10
81.24327526180724
 20
-143.8747666741008
 10
81.20520695669524
 20
-144.0862955368951
 10
81.20520695669524
 20
-144.2027397642966
 10
81.20520695669524
 20
-144.3784396340443
 10
81.30046384686239
 20
-144.5413926504966
 10
81.48443194577473
 20
-144.5413926504966
 10
81.60501028775847
 20
-144.5413926504966
 10
81.78071015750622
 20
-144.4821370081503
 10
81.78071015750622
 20
-144.1965385924231
 10
81.78071015750622
 20
-143.9722628763333
 10
81.64101153557934
 20
-143.8747666741008
 10
81.50561928300901
 20
-143.8747666741008
 97
        0
 97
        0
 75
     2
 76
     1
 98
        0
  0
ENDBLK
  5
E0
330
DD
100
AcDbEntity
  8
0
100
AcDbBlockEnd
  0
BLOCK
  5
E6
330
E4
100
AcDbEntity
  8
0
100
AcDbBlockBegin
  2
block 10
 70
     0
 10
0.0
 20
0.0
 30
0.0
  3
block 10
  1

  0
POLYLINE
  5
E8
330
E4
100
AcDbEntity
  8
_U+30EC_U+30A4_U+30E4_U+30FC 1
370
     0
100
AcDb2dPolyline
 66
     1
 10
0.0
 20
0.0
 30
0.0
  0
VERTEX
  5
E9
330
E8
100
AcDbEntity
  8
_U+30EC_U+30A4_U+30E4_U+30FC 1
370
     0
100
AcDbVertex
100
AcDb2dVertex
 10
86.75542803820699
 20
-144.3360649595757
 30
0.0
  0
VERTEX
  5
EA
330
E8
100
AcDbEntity
  8
_U+30EC_U+30A4_U+30E4_U+30FC 1
370
     0
100
AcDbVertex
100
AcDb2dVertex
 10
86.75542803820699
 20
-144.6829860749404
 30
0.0
  0
VERTEX
  5
EB
330
E8
100
AcDbEntity
  8
_U+30EC_U+30A4_U+30E4_U+30FC 1
370
     0
100
AcDbVertex
100
AcDb2dVertex
 10
86.53752574876493
 20
-144.6829860749404
 30
0.0
  0
VERTEX
  5
EC
330
E8
100
AcDbEntity
  8
_U+30EC_U+30A4_U+30E4_U+30FC 1
370
     0
100
AcDbVertex
100
AcDb2dVertex
 10
86.53752574876493
 20
-144.3360649595757
 30
0.0
  0
VERTEX
  5
ED
330
E8
100
AcDbEntity
  8
_U+30EC_U+30A4_U+30E4_U+30FC 1
370
     0
100
AcDbVertex
100
AcDb2dVertex
 10
85.88175182314762
 20
-144.3360649595757
 30
0.0
  0
VERTEX
  5
EE
330
E8
100
AcDbEntity
  8
_U+30EC_U+30A4_U+30E4_U+30FC 1
370
     0
100
AcDbVertex
100
AcDb2dVertex
 10
85.88175182314762
 20
-144.111789243486
 30
0.0
  0
VERTEX
  5
EF
330
E8
100
AcDbEntity
  8
_U+30EC_U+30A4_U+30E4_U+30FC 1
370
     0
100
AcDbVertex
100
AcDb2dVertex
 10
86.56078014329036
 20
-143.1385497689029
 30
0.0
  0
VERTEX
  5
F0
330
E8
100
AcDbEntity
  8
_U+30EC_U+30A4_U+30E4_U+30FC 1
370
     0
100
AcDbVertex
100
AcDb2dVertex
 10
86.75542803820699
 20
-143.1385497689029
 30
0.0
  0
VERTEX
  5
F1
330
E8
100
AcDbEntity
  8
_U+30EC_U+30A4_U+30E4_U+30FC 1
370
     0
100
AcDbVertex
100
AcDb2dVertex
 10
86.75542803820699
 20
-144.1372829500768
 30
0.0
  0
VERTEX
  5
F2
330
E8
100
AcDbEntity
  8
_U+30EC_U+30A4_U+30E4_U+30FC 1
370
     0
100
AcDbVertex
100
AcDb2dVertex
 10
86.96282278641903
 20
-144.1372829500768
 30
0.0
  0
VERTEX
  5
F3
330
E8
100
AcDbEntity
  8
_U+30EC_U+30A4_U+30E4_U+30FC 1
370
     0
100
AcDbVertex
100
AcDb2dVertex
 10
86.96282278641903
 20
-144.3360649595757
 30
0.0
  0
VERTEX
  5
F4
330
E8
100
AcDbEntity
  8
_U+30EC_U+30A4_U+30E4_U+30FC 1
370
     0
100
AcDbVertex
100
AcDb2dVertex
 10
86.75542803820699
 20
-144.3360649595757
 30
0.0
  0
SEQEND
  5
F5
330
E8
100
AcDbEntity
  8
_U+30EC_U+30A4_U+30E4_U+30FC 1
370
     0
  0
POLYLINE
  5
F6
330
E4
100
AcDbEntity
  8
_U+30EC_U+30A4_U+30E4_U+30FC 1
370
     0
100
AcDb2dPolyline
 66
     1
 10
0.0
 20
0.0
 30
0.0
  0
VERTEX
  5
F7
330
F6
100
AcDbEntity
  8
_U+30EC_U+30A4_U+30E4_U+30FC 1
370
     0
100
AcDbVertex
100
AcDb2dVertex
 10
86.53752574876493
 20
-143.4813367696852
 30
0.0
  0
VERTEX
  5
F8
330
F6
100
AcDbEntity
  8
_U+30EC_U+30A4_U+30E4_U+30FC 1
370
     0
100
AcDbVertex
100
AcDb2dVertex
 10
86.0807060874208
 20
-144.1372829500768
 30
0.0
  0
VERTEX
  5
F9
330
F6
100
AcDbEntity
  8
_U+30EC_U+30A4_U+30E4_U+30FC 1
370
     0
100
AcDbVertex
100
AcDb2dVertex
 10
86.53752574876493
 20
-144.1372829500768
 30
0.0
  0
VERTEX
  5
FA
330
F6
100
AcDbEntity
  8
_U+30EC_U+30A4_U+30E4_U+30FC 1
370
     0
100
AcDbVertex
100
AcDb2dVertex
 10
86.53752574876493
 20
-143.4813367696852
 30
0.0
  0
SEQEND
  5
FB
330
F6
100
AcDbEntity
  8
_U+30EC_U+30A4_U+30E4_U+30FC 1
370
     0
  0
HATCH
  5
FC
330
E4
100
AcDbEntity
  8
_U+30EC_U+30A4_U+30E4_U+30FC 1
 62
   179
420
  2234388
100
AcDbHatch
 10
0.0
 20
0.0
 30
0.0
210
0.0
220
0.0
230
1.0
  2
SOLID
 70
     1
 71
     0
 91
        2
 92
        1
 93
       11
 72
     1
 10
86.75542803820699
 20
-144.3360649595757
 11
86.75542803820699
 21
-144.6829860749404
 72
     1
 10
86.75542803820699
 20
-144.6829860749404
 11
86.53752574876493
 21
-144.6829860749404
 72
     1
 10
86.53752574876493
 20
-144.6829860749404
 11
86.53752574876493
 21
-144.3360649595757
 72
     1
 10
86.53752574876493
 20
-144.3360649595757
 11
85.88175182314762
 21
-144.3360649595757
 72
     1
 10
85.88175182314762
 20
-144.3360649595757
 11
85.88175182314762
 21
-144.111789243486
 72
     1
 10
85.88175182314762
 20
-144.111789243486
 11
86.56078014329036
 21
-143.1385497689029
 72
     1
 10
86.56078014329036
 20
-143.1385497689029
 11
86.75542803820699
 21
-143.1385497689029
 72
     1
 10
86.75542803820699
 20
-143.1385497689029
 11
86.75542803820699
 21
-144.1372829500768
 72
     1
 10
86.75542803820699
 20
-144.1372829500768
 11
86.96282278641903
 21
-144.1372829500768
 72
     1
 10
86.96282278641903
 20
-144.1372829500768
 11
86.96282278641903
 21
-144.3360649595757
 72
     1
 10
86.96282278641903
 20
-144.3360649595757
 11
86.75542803820699
 21
-144.3360649595757
 97
        0
 92
        1
 93
        3
 72
     1
 10
86.53752574876493
 20
-143.4813367696852
 11
86.0807060874208
 21
-144.1372829500768
 72
     1
 10
86.0807060874208
 20
-144.1372829500768
 11
86.53752574876493
 21
-144.1372829500768
 72
     1
 10
86.53752574876493
 20
-144.1372829500768
 11
86.53752574876493
 21
-143.4813367696852
 97
        0
 75
     2
 76
     1
 98
        0
  0
ENDBLK
  5
E7
330
E4
100
AcDbEntity
  8
0
100
AcDbBlockEnd
  0
BLOCK
  5
102
330
100
100
AcDbEntity
  8
0
100
AcDbBlockBegin
  2
block 11
 70
     0
 10
0.0
 20
0.0
 30
0.0
  3
block 11
  1

  0
SPLINE
  5
104
330
100
100
AcDbEntity
  8
_U+30EC_U+30A4_U+30E4_U+30FC 1
 62
   179
420
  2234388
370
     9
100
AcDbSpline
210
0.0
220
0.0
230
1.0
 70
    11
 71
     3
 72
    17
 73
    13
 74
     0
 42
0.0000000001
 43
0.0000000001
 12
1.0
 22
0.0
 32
0.0
 13
1.0
 23
0.0
 33
0.0
 40
0.0
 40
0.0
 40
0.0
 40
0.0
 40
1.0
 40
1.0
 40
1.0
 40
2.0
 40
2.0
 40
2.0
 40
3.0
 40
3.0
 40
3.0
 40
4.0
 40
4.0
 40
4.0
 40
4.0
 10
101.6247976851132
 20
-112.7471074718133
 30
0.0
 10
101.6640618507781
 20
-112.7078433051563
 30
0.0
 10
101.6640618507781
 20
-112.6451546940611
 30
0.0
 10
101.6247976851132
 20
-112.6058905274041
 30
0.0
 10
101.585536085715
 20
-112.5665910829695
 30
0.0
 10
101.5228449099365
 20
-112.5665910829695
 30
0.0
 10
101.4835454664946
 20
-112.6058905274041
 30
0.0
 10
101.4442813008297
 20
-112.6444491385055
 30
0.0
 10
101.4442813008297
 20
-112.7078433051563
 30
0.0
 10
101.4835454664946
 20
-112.7471074718133
 30
0.0
 10
101.5228449099365
 20
-112.7864069162478
 30
0.0
 10
101.585536085715
 20
-112.7857013606926
 30
0.0
 10
101.6247976851132
 20
-112.7471074718133
 30
0.0
  0
POLYLINE
  5
105
330
100
100
AcDbEntity
  8
_U+30EC_U+30A4_U+30E4_U+30FC 1
 62
   179
420
  2234388
370
     9
100
AcDb2dPolyline
 66
     1
 10
0.0
 20
0.0
 30
0.0
  0
VERTEX
  5
106
330
105
100
AcDbEntity
  8
_U+30EC_U+30A4_U+30E4_U+30FC 1
 62
   179
420
  2234388
370
     9
100
AcDbVertex
100
AcDb2dVertex
 10
102.9401295960007
 20
-114.0624746937065
 30
0.0
  0
VERTEX
  5
107
330
105
100
AcDbEntity
  8
_U+30EC_U+30A4_U+30E4_U+30FC 1
 62
   179
420
  2234388
370
     9
100
AcDbVertex
100
AcDb2dVertex
 10
100.8472402049503
 20
-111.9692324720078
 30
0.0
  0
SEQEND
  5
108
330
105
100
AcDbEntity
  8
_U+30EC_U+30A4_U+30E4_U+30FC 1
 62
   179
420
  2234388
370
     9
  0
ENDBLK
  5
103
330
100
100
AcDbEntity
  8
0
100
AcDbBlockEnd
  0
BLOCK
  5
1B3
330
1B1
100
AcDbEntity
  8
0
100
AcDbBlockBegin
  2
block 12
 70
     0
 10
0.0
 20
0.0
 30
0.0
  3
block 12
  1

  0
POLYLINE
  5
1B5
330
1B1
100
AcDbEntity
  8
_U+30EC_U+30A4_U+30E4_U+30FC 1
 62
   179
420
  2234388
370
    25
100
AcDb2dPolyline
 66
     1
 10
0.0
 20
0.0
 30
0.0
  0
VERTEX
  5
1B6
330
1B5
100
AcDbEntity
  8
_U+30EC_U+30A4_U+30E4_U+30FC 1
 62
   179
420
  2234388
370
    25
100
AcDbVertex
100
AcDb2dVertex
 10
82.12451262705136
 20
-135.30269552173
 30
0.0
  0
VERTEX
  5
1B7
330
1B5
100
AcDbEntity
  8
_U+30EC_U+30A4_U+30E4_U+30FC 1
 62
   179
420
  2234388
370
    25
100
AcDbVertex
100
AcDb2dVertex
 10
82.27250290105358
 20
-134.7411438552037
 30
0.0
  0
SEQEND
  5
1B8
330
1B5
100
AcDbEntity
  8
_U+30EC_U+30A4_U+30E4_U+30FC 1
 62
   179
420
  2234388
370
    25
  0
POLYLINE
  5
1B9
330
1B1
100
AcDbEntity
  8
_U+30EC_U+30A4_U+30E4_U+30FC 1
 62
   179
420
  2234388
370
    25
100
AcDb2dPolyline
 66
     1
 10
0.0
 20
0.0
 30
0.0
  0
VERTEX
  5
1BA
330
1B9
100
AcDbEntity
  8
_U+30EC_U+30A4_U+30E4_U+30FC 1
 62
   179
420
  2234388
370
    25
100
AcDbVertex
100
AcDb2dVertex
 10
81.55900986370075
 20
-135.4342816328081
 30
0.0
  0
VERTEX
  5
1BB
330
1B9
100
AcDbEntity
  8
_U+30EC_U+30A4_U+30E4_U+30FC 1
 62
   179
420
  2234388
370
    25
100
AcDbVertex
100
AcDb2dVertex
 10
82.12451262705136
 20
-135.30269552173
 30
0.0
  0
SEQEND
  5
1BC
330
1B9
100
AcDbEntity
  8
_U+30EC_U+30A4_U+30E4_U+30FC 1
 62
   179
420
  2234388
370
    25
  0
ENDBLK
  5
1B4
330
1B1
100
AcDbEntity
  8
0
100
AcDbBlockEnd
  0
BLOCK
  5
1BF
330
1BD
100
AcDbEntity
  8
0
100
AcDbBlockBegin
  2
block 13
 70
     0
 10
0.0
 20
0.0
 30
0.0
  3
block 13
  1

  0
POLYLINE
  5
1C1
330
1BD
100
AcDbEntity
  8
_U+30EC_U+30A4_U+30E4_U+30FC 1
 62
   179
420
  2234388
370
    25
100
AcDb2dPolyline
 66
     1
 10
0.0
 20
0.0
 30
0.0
  0
VERTEX
  5
1C2
330
1C1
100
AcDbEntity
  8
_U+30EC_U+30A4_U+30E4_U+30FC 1
 62
   179
420
  2234388
370
    25
100
AcDbVertex
100
AcDb2dVertex
 10
81.39020570134065
 20
-135.9813694104494
 30
0.0
  0
VERTEX
  5
1C3
330
1C1
100
AcDbEntity
  8
_U+30EC_U+30A4_U+30E4_U+30FC 1
 62
   179
420
  2234388
370
    25
100
AcDbVertex
100
AcDb2dVertex
 10
81.538160697566
 20
-135.419817743923
 30
0.0
  0
SEQEND
  5
1C4
330
1C1
100
AcDbEntity
  8
_U+30EC_U+30A4_U+30E4_U+30FC 1
 62
   179
420
  2234388
370
    25
  0
POLYLINE
  5
1C5
330
1BD
100
AcDbEntity
  8
_U+30EC_U+30A4_U+30E4_U+30FC 1
 62
   179
420
  2234388
370
    25
100
AcDb2dPolyline
 66
     1
 10
0.0
 20
0.0
 30
0.0
  0
VERTEX
  5
1C6
330
1C5
100
AcDbEntity
  8
_U+30EC_U+30A4_U+30E4_U+30FC 1
 62
   179
420
  2234388
370
    25
100
AcDbVertex
100
AcDb2dVertex
 10
80.82470293799004
 20
-136.1129555215275
 30
0.0
  0
VERTEX
  5
1C7
330
1C5
100
AcDbEntity
  8
_U+30EC_U+30A4_U+30E4_U+30FC 1
 62
   179
420
  2234388
370
    25
100
AcDbVertex
100
AcDb2dVertex
 10
81.39020570134065
 20
-135.9813694104494
 30
0.0
  0
SEQEND
  5
1C8
330
1C5
100
AcDbEntity
  8
_U+30EC_U+30A4_U+30E4_U+30FC 1
 62
   179
420
  2234388
370
    25
  0
ENDBLK
  5
1C0
330
1BD
100
AcDbEntity
  8
0
100
AcDbBlockEnd
  0
BLOCK
  5
1CB
330
1C9
100
AcDbEntity
  8
0
100
AcDbBlockBegin
  2
block 14
 70
     0
 10
0.0
 20
0.0
 30
0.0
  3
block 14
  1

  0
POLYLINE
  5
1CD
330
1C9
100
AcDbEntity
  8
_U+30EC_U+30A4_U+30E4_U+30FC 1
 62
   179
420
  2234388
370
    25
100
AcDb2dPolyline
 66
     1
 10
0.0
 20
0.0
 30
0.0
  0
VERTEX
  5
1CE
330
1CD
100
AcDbEntity
  8
_U+30EC_U+30A4_U+30E4_U+30FC 1
 62
   179
420
  2234388
370
    25
100
AcDbVertex
100
AcDb2dVertex
 10
80.65572238674554
 20
-136.6600432991681
 30
0.0
  0
VERTEX
  5
1CF
330
1CD
100
AcDbEntity
  8
_U+30EC_U+30A4_U+30E4_U+30FC 1
 62
   179
420
  2234388
370
    25
100
AcDbVertex
100
AcDb2dVertex
 10
80.80367738297089
 20
-136.0984916326418
 30
0.0
  0
SEQEND
  5
1D0
330
1CD
100
AcDbEntity
  8
_U+30EC_U+30A4_U+30E4_U+30FC 1
 62
   179
420
  2234388
370
    25
  0
POLYLINE
  5
1D1
330
1C9
100
AcDbEntity
  8
_U+30EC_U+30A4_U+30E4_U+30FC 1
 62
   179
420
  2234388
370
    25
100
AcDb2dPolyline
 66
     1
 10
0.0
 20
0.0
 30
0.0
  0
VERTEX
  5
1D2
330
1D1
100
AcDbEntity
  8
_U+30EC_U+30A4_U+30E4_U+30FC 1
 62
   179
420
  2234388
370
    25
100
AcDbVertex
100
AcDb2dVertex
 10
80.09018434561806
 20
-136.7916646880244
 30
0.0
  0
VERTEX
  5
1D3
330
1D1
100
AcDbEntity
  8
_U+30EC_U+30A4_U+30E4_U+30FC 1
 62
   179
420
  2234388
370
    25
100
AcDbVertex
100
AcDb2dVertex
 10
80.65572238674554
 20
-136.6600432991681
 30
0.0
  0
SEQEND
  5
1D4
330
1D1
100
AcDbEntity
  8
_U+30EC_U+30A4_U+30E4_U+30FC 1
 62
   179
420
  2234388
370
    25
  0
ENDBLK
  5
1CC
330
1C9
100
AcDbEntity
  8
0
100
AcDbBlockEnd
  0
BLOCK
  5
1D7
330
1D5
100
AcDbEntity
  8
0
100
AcDbBlockBegin
  2
block 15
 70
     0
 10
0.0
 20
0.0
 30
0.0
  3
block 15
  1

  0
POLYLINE
  5
1D9
330
1D5
100
AcDbEntity
  8
_U+30EC_U+30A4_U+30E4_U+30FC 1
 62
   179
420
  2234388
370
    25
100
AcDb2dPolyline
 66
     1
 10
0.0
 20
0.0
 30
0.0
  0
VERTEX
  5
1DA
330
1D9
100
AcDbEntity
  8
_U+30EC_U+30A4_U+30E4_U+30FC 1
 62
   179
420
  2234388
370
    25
100
AcDbVertex
100
AcDb2dVertex
 10
79.92138018325795
 20
-137.3387171878875
 30
0.0
  0
VERTEX
  5
1DB
330
1D9
100
AcDbEntity
  8
_U+30EC_U+30A4_U+30E4_U+30FC 1
 62
   179
420
  2234388
370
    25
100
AcDbVertex
100
AcDb2dVertex
 10
80.06937045726018
 20
-136.7771655213612
 30
0.0
  0
SEQEND
  5
1DC
330
1D9
100
AcDbEntity
  8
_U+30EC_U+30A4_U+30E4_U+30FC 1
 62
   179
420
  2234388
370
    25
  0
POLYLINE
  5
1DD
330
1D5
100
AcDbEntity
  8
_U+30EC_U+30A4_U+30E4_U+30FC 1
 62
   179
420
  2234388
370
    25
100
AcDb2dPolyline
 66
     1
 10
0.0
 20
0.0
 30
0.0
  0
VERTEX
  5
1DE
330
1DD
100
AcDbEntity
  8
_U+30EC_U+30A4_U+30E4_U+30FC 1
 62
   179
420
  2234388
370
    25
100
AcDbVertex
100
AcDb2dVertex
 10
79.35587741990734
 20
-137.4703385767437
 30
0.0
  0
VERTEX
  5
1DF
330
1DD
100
AcDbEntity
  8
_U+30EC_U+30A4_U+30E4_U+30FC 1
 62
   179
420
  2234388
370
    25
100
AcDbVertex
100
AcDb2dVertex
 10
79.92138018325795
 20
-137.3387171878875
 30
0.0
  0
SEQEND
  5
1E0
330
1DD
100
AcDbEntity
  8
_U+30EC_U+30A4_U+30E4_U+30FC 1
 62
   179
420
  2234388
370
    25
  0
ENDBLK
  5
1D8
330
1D5
100
AcDbEntity
  8
0
100
AcDbBlockEnd
  0
BLOCK
  5
1E3
330
1E1
100
AcDbEntity
  8
0
100
AcDbBlockBegin
  2
block 16
 70
     0
 10
0.0
 20
0.0
 30
0.0
  3
block 16
  1

  0
POLYLINE
  5
1E5
330
1E1
100
AcDbEntity
  8
_U+30EC_U+30A4_U+30E4_U+30FC 1
 62
   179
420
  2234388
370
    25
100
AcDb2dPolyline
 66
     1
 10
0.0
 20
0.0
 30
0.0
  0
VERTEX
  5
1E6
330
1E5
100
AcDbEntity
  8
_U+30EC_U+30A4_U+30E4_U+30FC 1
 62
   179
420
  2234388
370
    25
100
AcDbVertex
100
AcDb2dVertex
 10
79.18707325754723
 20
-138.0174263543844
 30
0.0
  0
VERTEX
  5
1E7
330
1E5
100
AcDbEntity
  8
_U+30EC_U+30A4_U+30E4_U+30FC 1
 62
   179
420
  2234388
370
    25
100
AcDbVertex
100
AcDb2dVertex
 10
79.33502825377259
 20
-137.4558746878581
 30
0.0
  0
SEQEND
  5
1E8
330
1E5
100
AcDbEntity
  8
_U+30EC_U+30A4_U+30E4_U+30FC 1
 62
   179
420
  2234388
370
    25
  0
POLYLINE
  5
1E9
330
1E1
100
AcDbEntity
  8
_U+30EC_U+30A4_U+30E4_U+30FC 1
 62
   179
420
  2234388
370
    25
100
AcDb2dPolyline
 66
     1
 10
0.0
 20
0.0
 30
0.0
  0
VERTEX
  5
1EA
330
1E9
100
AcDbEntity
  8
_U+30EC_U+30A4_U+30E4_U+30FC 1
 62
   179
420
  2234388
370
    25
100
AcDbVertex
100
AcDb2dVertex
 10
78.62139410531225
 20
-138.1490124654625
 30
0.0
  0
VERTEX
  5
1EB
330
1E9
100
AcDbEntity
  8
_U+30EC_U+30A4_U+30E4_U+30FC 1
 62
   179
420
  2234388
370
    25
100
AcDbVertex
100
AcDb2dVertex
 10
79.18707325754723
 20
-138.0174263543844
 30
0.0
  0
SEQEND
  5
1EC
330
1E9
100
AcDbEntity
  8
_U+30EC_U+30A4_U+30E4_U+30FC 1
 62
   179
420
  2234388
370
    25
  0
ENDBLK
  5
1E4
330
1E1
100
AcDbEntity
  8
0
100
AcDbBlockEnd
  0
BLOCK
  5
1EF
330
1ED
100
AcDbEntity
  8
0
100
AcDbBlockBegin
  2
block 17
 70
     0
 10
0.0
 20
0.0
 30
0.0
  3
block 17
  1

  0
POLYLINE
  5
1F1
330
1ED
100
AcDbEntity
  8
_U+30EC_U+30A4_U+30E4_U+30FC 1
 62
   179
420
  2234388
370
    25
100
AcDb2dPolyline
 66
     1
 10
0.0
 20
0.0
 30
0.0
  0
VERTEX
  5
1F2
330
1F1
100
AcDbEntity
  8
_U+30EC_U+30A4_U+30E4_U+30FC 1
 62
   179
420
  2234388
370
    25
100
AcDbVertex
100
AcDb2dVertex
 10
78.32922355721058
 20
-138.9861894096979
 30
0.0
  0
VERTEX
  5
1F3
330
1F1
100
AcDbEntity
  8
_U+30EC_U+30A4_U+30E4_U+30FC 1
 62
   179
420
  2234388
370
    25
100
AcDbVertex
100
AcDb2dVertex
 10
78.60054493917748
 20
-138.1345485765775
 30
0.0
  0
SEQEND
  5
1F4
330
1F1
100
AcDbEntity
  8
_U+30EC_U+30A4_U+30E4_U+30FC 1
 62
   179
420
  2234388
370
    25
  0
ENDBLK
  5
1F0
330
1ED
100
AcDbEntity
  8
0
100
AcDbBlockEnd
  0
ENDSEC
  0
SECTION
  2
ENTITIES
  0
INSERT
  5
42
330
1F
100
AcDbEntity
  8
_U+30EC_U+30A4_U+30E4_U+30FC 1
100
AcDbBlockReference
  2
block 2
 10
0.0
 20
0.0
 30
0.0
  0
POLYLINE
  5
11D
330
1F
100
AcDbEntity
  8
_U+30EC_U+30A4_U+30E4_U+30FC 1
 62
   179
420
  2234388
370
    25
100
AcDb2dPolyline
 66
     1
 10
0.0
 20
0.0
 30
0.0
  0
VERTEX
  5
11E
330
11D
100
AcDbEntity
  8
_U+30EC_U+30A4_U+30E4_U+30FC 1
 62
   179
420
  2234388
370
    25
100
AcDbVertex
100
AcDb2dVertex
 10
94.96992729933753
 20
-122.8264271915155
 30
0.0
  0
VERTEX
  5
11F
330
11D
100
AcDbEntity
  8
_U+30EC_U+30A4_U+30E4_U+30FC 1
 62
   179
420
  2234388
370
    25
100
AcDbVertex
100
AcDb2dVertex
 10
95.1177083095539
 20
-122.2645580249893
 30
0.0
  0
SEQEND
  5
120
330
11D
100
AcDbEntity
  8
_U+30EC_U+30A4_U+30E4_U+30FC 1
 62
   179
420
  2234388
370
    25
  0
POLYLINE
  5
121
330
1F
100
AcDbEntity
  8
_U+30EC_U+30A4_U+30E4_U+30FC 1
 62
   179
420
  2234388
370
    25
100
AcDb2dPolyline
 66
     1
 10
0.0
 20
0.0
 30
0.0
  0
VERTEX
  5
122
330
121
100
AcDbEntity
  8
_U+30EC_U+30A4_U+30E4_U+30FC 1
 62
   179
420
  2234388
370
    25
100
AcDbVertex
100
AcDb2dVertex
 10
95.1177083095539
 20
-122.2645580249893
 30
0.0
  0
VERTEX
  5
123
330
121
100
AcDbEntity
  8
_U+30EC_U+30A4_U+30E4_U+30FC 1
 62
   179
420
  2234388
370
    25
100
AcDbVertex
100
AcDb2dVertex
 10
95.70956116935677
 20
-122.0330299694917
 30
0.0
  0
SEQEND
  5
124
330
121
100
AcDbEntity
  8
_U+30EC_U+30A4_U+30E4_U+30FC 1
 62
   179
420
  2234388
370
    25
  0
POLYLINE
  5
125
330
1F
100
AcDbEntity
  8
_U+30EC_U+30A4_U+30E4_U+30FC 1
 62
   179
420
  2234388
370
    25
100
AcDb2dPolyline
 66
     1
 10
0.0
 20
0.0
 30
0.0
  0
VERTEX
  5
126
330
125
100
AcDbEntity
  8
_U+30EC_U+30A4_U+30E4_U+30FC 1
 62
   179
420
  2234388
370
    25
100
AcDbVertex
100
AcDb2dVertex
 10
94.2564342619847
 20
-123.5196002468978
 30
0.0
  0
VERTEX
  5
127
330
125
100
AcDbEntity
  8
_U+30EC_U+30A4_U+30E4_U+30FC 1
 62
   179
420
  2234388
370
    25
100
AcDbVertex
100
AcDb2dVertex
 10
94.40389536933375
 20
-122.9580485803715
 30
0.0
  0
SEQEND
  5
128
330
125
100
AcDbEntity
  8
_U+30EC_U+30A4_U+30E4_U+30FC 1
 62
   179
420
  2234388
370
    25
  0
POLYLINE
  5
129
330
1F
100
AcDbEntity
  8
_U+30EC_U+30A4_U+30E4_U+30FC 1
 62
   179
420
  2234388
370
    25
100
AcDb2dPolyline
 66
     1
 10
0.0
 20
0.0
 30
0.0
  0
VERTEX
  5
12A
330
129
100
AcDbEntity
  8
_U+30EC_U+30A4_U+30E4_U+30FC 1
 62
   179
420
  2234388
370
    25
100
AcDbVertex
100
AcDb2dVertex
 10
94.40389536933375
 20
-122.9580485803715
 30
0.0
  0
VERTEX
  5
12B
330
129
100
AcDbEntity
  8
_U+30EC_U+30A4_U+30E4_U+30FC 1
 62
   179
420
  2234388
370
    25
100
AcDbVertex
100
AcDb2dVertex
 10
94.96992729933753
 20
-122.8264271915155
 30
0.0
  0
SEQEND
  5
12C
330
129
100
AcDbEntity
  8
_U+30EC_U+30A4_U+30E4_U+30FC 1
 62
   179
420
  2234388
370
    25
  0
POLYLINE
  5
12D
330
1F
100
AcDbEntity
  8
_U+30EC_U+30A4_U+30E4_U+30FC 1
 62
   179
420
  2234388
370
    25
100
AcDb2dPolyline
 66
     1
 10
0.0
 20
0.0
 30
0.0
  0
VERTEX
  5
12E
330
12D
100
AcDbEntity
  8
_U+30EC_U+30A4_U+30E4_U+30FC 1
 62
   179
420
  2234388
370
    25
100
AcDbVertex
100
AcDb2dVertex
 10
93.54262372463997
 20
-124.21309080228
 30
0.0
  0
VERTEX
  5
12F
330
12D
100
AcDbEntity
  8
_U+30EC_U+30A4_U+30E4_U+30FC 1
 62
   179
420
  2234388
370
    25
100
AcDbVertex
100
AcDb2dVertex
 10
93.6907551097497
 20
-123.6511863579762
 30
0.0
  0
SEQEND
  5
130
330
12D
100
AcDbEntity
  8
_U+30EC_U+30A4_U+30E4_U+30FC 1
 62
   179
420
  2234388
370
    25
  0
POLYLINE
  5
131
330
1F
100
AcDbEntity
  8
_U+30EC_U+30A4_U+30E4_U+30FC 1
 62
   179
420
  2234388
370
    25
100
AcDb2dPolyline
 66
     1
 10
0.0
 20
0.0
 30
0.0
  0
VERTEX
  5
132
330
131
100
AcDbEntity
  8
_U+30EC_U+30A4_U+30E4_U+30FC 1
 62
   179
420
  2234388
370
    25
100
AcDbVertex
100
AcDb2dVertex
 10
93.6907551097497
 20
-123.6511863579762
 30
0.0
  0
VERTEX
  5
133
330
131
100
AcDbEntity
  8
_U+30EC_U+30A4_U+30E4_U+30FC 1
 62
   179
420
  2234388
370
    25
100
AcDbVertex
100
AcDb2dVertex
 10
94.2564342619847
 20
-123.5196002468978
 30
0.0
  0
SEQEND
  5
134
330
131
100
AcDbEntity
  8
_U+30EC_U+30A4_U+30E4_U+30FC 1
 62
   179
420
  2234388
370
    25
  0
POLYLINE
  5
135
330
1F
100
AcDbEntity
  8
_U+30EC_U+30A4_U+30E4_U+30FC 1
 62
   179
420
  2234388
370
    25
100
AcDb2dPolyline
 66
     1
 10
0.0
 20
0.0
 30
0.0
  0
VERTEX
  5
136
330
135
100
AcDbEntity
  8
_U+30EC_U+30A4_U+30E4_U+30FC 1
 62
   179
420
  2234388
370
    25
100
AcDbVertex
100
AcDb2dVertex
 10
92.8294834650559
 20
-124.905558302107
 30
0.0
  0
VERTEX
  5
137
330
135
100
AcDbEntity
  8
_U+30EC_U+30A4_U+30E4_U+30FC 1
 62
   179
420
  2234388
370
    25
100
AcDbVertex
100
AcDb2dVertex
 10
92.97659179463619
 20
-124.3433010800251
 30
0.0
  0
SEQEND
  5
138
330
135
100
AcDbEntity
  8
_U+30EC_U+30A4_U+30E4_U+30FC 1
 62
   179
420
  2234388
370
    25
  0
POLYLINE
  5
139
330
1F
100
AcDbEntity
  8
_U+30EC_U+30A4_U+30E4_U+30FC 1
 62
   179
420
  2234388
370
    25
100
AcDb2dPolyline
 66
     1
 10
0.0
 20
0.0
 30
0.0
  0
VERTEX
  5
13A
330
139
100
AcDbEntity
  8
_U+30EC_U+30A4_U+30E4_U+30FC 1
 62
   179
420
  2234388
370
    25
100
AcDbVertex
100
AcDb2dVertex
 10
92.97659179463619
 20
-124.3433010800251
 30
0.0
  0
VERTEX
  5
13B
330
139
100
AcDbEntity
  8
_U+30EC_U+30A4_U+30E4_U+30FC 1
 62
   179
420
  2234388
370
    25
100
AcDbVertex
100
AcDb2dVertex
 10
93.54262372463997
 20
-124.21309080228
 30
0.0
  0
SEQEND
  5
13C
330
139
100
AcDbEntity
  8
_U+30EC_U+30A4_U+30E4_U+30FC 1
 62
   179
420
  2234388
370
    25
  0
POLYLINE
  5
13D
330
1F
100
AcDbEntity
  8
_U+30EC_U+30A4_U+30E4_U+30FC 1
 62
   179
420
  2234388
370
    25
100
AcDb2dPolyline
 66
     1
 10
0.0
 20
0.0
 30
0.0
  0
VERTEX
  5
13E
330
13D
100
AcDbEntity
  8
_U+30EC_U+30A4_U+30E4_U+30FC 1
 62
   179
420
  2234388
370
    25
100
AcDbVertex
100
AcDb2dVertex
 10
92.1156376499343
 20
-125.5983785797115
 30
0.0
  0
VERTEX
  5
13F
330
13D
100
AcDbEntity
  8
_U+30EC_U+30A4_U+30E4_U+30FC 1
 62
   179
420
  2234388
370
    25
100
AcDbVertex
100
AcDb2dVertex
 10
92.26309875728336
 20
-125.0368269131851
 30
0.0
  0
SEQEND
  5
140
330
13D
100
AcDbEntity
  8
_U+30EC_U+30A4_U+30E4_U+30FC 1
 62
   179
420
  2234388
370
    25
  0
POLYLINE
  5
141
330
1F
100
AcDbEntity
  8
_U+30EC_U+30A4_U+30E4_U+30FC 1
 62
   179
420
  2234388
370
    25
100
AcDb2dPolyline
 66
     1
 10
0.0
 20
0.0
 30
0.0
  0
VERTEX
  5
142
330
141
100
AcDbEntity
  8
_U+30EC_U+30A4_U+30E4_U+30FC 1
 62
   179
420
  2234388
370
    25
100
AcDbVertex
100
AcDb2dVertex
 10
92.26309875728336
 20
-125.0368269131851
 30
0.0
  0
VERTEX
  5
143
330
141
100
AcDbEntity
  8
_U+30EC_U+30A4_U+30E4_U+30FC 1
 62
   179
420
  2234388
370
    25
100
AcDbVertex
100
AcDb2dVertex
 10
92.8294834650559
 20
-124.905558302107
 30
0.0
  0
SEQEND
  5
144
330
141
100
AcDbEntity
  8
_U+30EC_U+30A4_U+30E4_U+30FC 1
 62
   179
420
  2234388
370
    25
  0
POLYLINE
  5
145
330
1F
100
AcDbEntity
  8
_U+30EC_U+30A4_U+30E4_U+30FC 1
 62
   179
420
  2234388
370
    25
100
AcDb2dPolyline
 66
     1
 10
0.0
 20
0.0
 30
0.0
  0
VERTEX
  5
146
330
145
100
AcDbEntity
  8
_U+30EC_U+30A4_U+30E4_U+30FC 1
 62
   179
420
  2234388
370
    25
100
AcDbVertex
100
AcDb2dVertex
 10
91.40182711258957
 20
-126.2911635795384
 30
0.0
  0
VERTEX
  5
147
330
145
100
AcDbEntity
  8
_U+30EC_U+30A4_U+30E4_U+30FC 1
 62
   179
420
  2234388
370
    25
100
AcDbVertex
100
AcDb2dVertex
 10
91.54960571993053
 20
-125.7296119130121
 30
0.0
  0
SEQEND
  5
148
330
145
100
AcDbEntity
  8
_U+30EC_U+30A4_U+30E4_U+30FC 1
 62
   179
420
  2234388
370
    25
  0
POLYLINE
  5
149
330
1F
100
AcDbEntity
  8
_U+30EC_U+30A4_U+30E4_U+30FC 1
 62
   179
420
  2234388
370
    25
100
AcDb2dPolyline
 66
     1
 10
0.0
 20
0.0
 30
0.0
  0
VERTEX
  5
14A
330
149
100
AcDbEntity
  8
_U+30EC_U+30A4_U+30E4_U+30FC 1
 62
   179
420
  2234388
370
    25
100
AcDbVertex
100
AcDb2dVertex
 10
91.54960571993053
 20
-125.7296119130121
 30
0.0
  0
VERTEX
  5
14B
330
149
100
AcDbEntity
  8
_U+30EC_U+30A4_U+30E4_U+30FC 1
 62
   179
420
  2234388
370
    25
100
AcDbVertex
100
AcDb2dVertex
 10
92.1156376499343
 20
-125.5983785797115
 30
0.0
  0
SEQEND
  5
14C
330
149
100
AcDbEntity
  8
_U+30EC_U+30A4_U+30E4_U+30FC 1
 62
   179
420
  2234388
370
    25
  0
POLYLINE
  5
14D
330
1F
100
AcDbEntity
  8
_U+30EC_U+30A4_U+30E4_U+30FC 1
 62
   179
420
  2234388
370
    25
100
AcDb2dPolyline
 66
     1
 10
0.0
 20
0.0
 30
0.0
  0
VERTEX
  5
14E
330
14D
100
AcDbEntity
  8
_U+30EC_U+30A4_U+30E4_U+30FC 1
 62
   179
420
  2234388
370
    25
100
AcDbVertex
100
AcDb2dVertex
 10
90.68815768635234
 20
-126.9846541349206
 30
0.0
  0
VERTEX
  5
14F
330
14D
100
AcDbEntity
  8
_U+30EC_U+30A4_U+30E4_U+30FC 1
 62
   179
420
  2234388
370
    25
100
AcDbVertex
100
AcDb2dVertex
 10
90.83597157147018
 20
-126.4231024683943
 30
0.0
  0
SEQEND
  5
150
330
14D
100
AcDbEntity
  8
_U+30EC_U+30A4_U+30E4_U+30FC 1
 62
   179
420
  2234388
370
    25
  0
POLYLINE
  5
151
330
1F
100
AcDbEntity
  8
_U+30EC_U+30A4_U+30E4_U+30FC 1
 62
   179
420
  2234388
370
    25
100
AcDb2dPolyline
 66
     1
 10
0.0
 20
0.0
 30
0.0
  0
VERTEX
  5
152
330
151
100
AcDbEntity
  8
_U+30EC_U+30A4_U+30E4_U+30FC 1
 62
   179
420
  2234388
370
    25
100
AcDbVertex
100
AcDb2dVertex
 10
90.83597157147018
 20
-126.4231024683943
 30
0.0
  0
VERTEX
  5
153
330
151
100
AcDbEntity
  8
_U+30EC_U+30A4_U+30E4_U+30FC 1
 62
   179
420
  2234388
370
    25
100
AcDbVertex
100
AcDb2dVertex
 10
91.40182711258957
 20
-126.2911635795384
 30
0.0
  0
SEQEND
  5
154
330
151
100
AcDbEntity
  8
_U+30EC_U+30A4_U+30E4_U+30FC 1
 62
   179
420
  2234388
370
    25
  0
POLYLINE
  5
155
330
1F
100
AcDbEntity
  8
_U+30EC_U+30A4_U+30E4_U+30FC 1
 62
   179
420
  2234388
370
    25
100
AcDb2dPolyline
 66
     1
 10
0.0
 20
0.0
 30
0.0
  0
VERTEX
  5
156
330
155
100
AcDbEntity
  8
_U+30EC_U+30A4_U+30E4_U+30FC 1
 62
   179
420
  2234388
370
    25
100
AcDbVertex
100
AcDb2dVertex
 10
89.974523537892
 20
-127.6778271903028
 30
0.0
  0
VERTEX
  5
157
330
155
100
AcDbEntity
  8
_U+30EC_U+30A4_U+30E4_U+30FC 1
 62
   179
420
  2234388
370
    25
100
AcDbVertex
100
AcDb2dVertex
 10
90.12247853411736
 20
-127.1166283015543
 30
0.0
  0
SEQEND
  5
158
330
155
100
AcDbEntity
  8
_U+30EC_U+30A4_U+30E4_U+30FC 1
 62
   179
420
  2234388
370
    25
  0
POLYLINE
  5
159
330
1F
100
AcDbEntity
  8
_U+30EC_U+30A4_U+30E4_U+30FC 1
 62
   179
420
  2234388
370
    25
100
AcDb2dPolyline
 66
     1
 10
0.0
 20
0.0
 30
0.0
  0
VERTEX
  5
15A
330
159
100
AcDbEntity
  8
_U+30EC_U+30A4_U+30E4_U+30FC 1
 62
   179
420
  2234388
370
    25
100
AcDbVertex
100
AcDb2dVertex
 10
90.12247853411736
 20
-127.1166283015543
 30
0.0
  0
VERTEX
  5
15B
330
159
100
AcDbEntity
  8
_U+30EC_U+30A4_U+30E4_U+30FC 1
 62
   179
420
  2234388
370
    25
100
AcDbVertex
100
AcDb2dVertex
 10
90.68815768635234
 20
-126.9846541349206
 30
0.0
  0
SEQEND
  5
15C
330
159
100
AcDbEntity
  8
_U+30EC_U+30A4_U+30E4_U+30FC 1
 62
   179
420
  2234388
370
    25
  0
POLYLINE
  5
15D
330
1F
100
AcDbEntity
  8
_U+30EC_U+30A4_U+30E4_U+30FC 1
 62
   179
420
  2234388
370
    25
100
AcDb2dPolyline
 66
     1
 10
0.0
 20
0.0
 30
0.0
  0
VERTEX
  5
15E
330
15D
100
AcDbEntity
  8
_U+30EC_U+30A4_U+30E4_U+30FC 1
 62
   179
420
  2234388
370
    25
100
AcDbVertex
100
AcDb2dVertex
 10
89.26103050053918
 20
-128.3709649679072
 30
0.0
  0
VERTEX
  5
15F
330
15D
100
AcDbEntity
  8
_U+30EC_U+30A4_U+30E4_U+30FC 1
 62
   179
420
  2234388
370
    25
100
AcDbVertex
100
AcDb2dVertex
 10
89.40866799677262
 20
-127.8087430236032
 30
0.0
  0
SEQEND
  5
160
330
15D
100
AcDbEntity
  8
_U+30EC_U+30A4_U+30E4_U+30FC 1
 62
   179
420
  2234388
370
    25
  0
POLYLINE
  5
161
330
1F
100
AcDbEntity
  8
_U+30EC_U+30A4_U+30E4_U+30FC 1
 62
   179
420
  2234388
370
    25
100
AcDb2dPolyline
 66
     1
 10
0.0
 20
0.0
 30
0.0
  0
VERTEX
  5
162
330
161
100
AcDbEntity
  8
_U+30EC_U+30A4_U+30E4_U+30FC 1
 62
   179
420
  2234388
370
    25
100
AcDbVertex
100
AcDb2dVertex
 10
89.40866799677262
 20
-127.8087430236032
 30
0.0
  0
VERTEX
  5
163
330
161
100
AcDbEntity
  8
_U+30EC_U+30A4_U+30E4_U+30FC 1
 62
   179
420
  2234388
370
    25
100
AcDbVertex
100
AcDb2dVertex
 10
89.974523537892
 20
-127.6778271903028
 30
0.0
  0
SEQEND
  5
164
330
161
100
AcDbEntity
  8
_U+30EC_U+30A4_U+30E4_U+30FC 1
 62
   179
420
  2234388
370
    25
  0
POLYLINE
  5
165
330
1F
100
AcDbEntity
  8
_U+30EC_U+30A4_U+30E4_U+30FC 1
 62
   179
420
  2234388
370
    25
100
AcDb2dPolyline
 66
     1
 10
0.0
 20
0.0
 30
0.0
  0
VERTEX
  5
166
330
165
100
AcDbEntity
  8
_U+30EC_U+30A4_U+30E4_U+30FC 1
 62
   179
420
  2234388
370
    25
100
AcDbVertex
100
AcDb2dVertex
 10
88.54686942230767
 20
-129.0643144121784
 30
0.0
  0
VERTEX
  5
167
330
165
100
AcDbEntity
  8
_U+30EC_U+30A4_U+30E4_U+30FC 1
 62
   179
420
  2234388
370
    25
100
AcDbVertex
100
AcDb2dVertex
 10
88.6948574594279
 20
-128.5022335789857
 30
0.0
  0
SEQEND
  5
168
330
165
100
AcDbEntity
  8
_U+30EC_U+30A4_U+30E4_U+30FC 1
 62
   179
420
  2234388
370
    25
  0
POLYLINE
  5
169
330
1F
100
AcDbEntity
  8
_U+30EC_U+30A4_U+30E4_U+30FC 1
 62
   179
420
  2234388
370
    25
100
AcDb2dPolyline
 66
     1
 10
0.0
 20
0.0
 30
0.0
  0
VERTEX
  5
16A
330
169
100
AcDbEntity
  8
_U+30EC_U+30A4_U+30E4_U+30FC 1
 62
   179
420
  2234388
370
    25
100
AcDbVertex
100
AcDb2dVertex
 10
88.6948574594279
 20
-128.5022335789857
 30
0.0
  0
VERTEX
  5
16B
330
169
100
AcDbEntity
  8
_U+30EC_U+30A4_U+30E4_U+30FC 1
 62
   179
420
  2234388
370
    25
100
AcDbVertex
100
AcDb2dVertex
 10
89.26103050053918
 20
-128.3709649679072
 30
0.0
  0
SEQEND
  5
16C
330
169
100
AcDbEntity
  8
_U+30EC_U+30A4_U+30E4_U+30FC 1
 62
   179
420
  2234388
370
    25
  0
POLYLINE
  5
16D
330
1F
100
AcDbEntity
  8
_U+30EC_U+30A4_U+30E4_U+30FC 1
 62
   179
420
  2234388
370
    25
100
AcDb2dPolyline
 66
     1
 10
0.0
 20
0.0
 30
0.0
  0
VERTEX
  5
16E
330
16D
100
AcDbEntity
  8
_U+30EC_U+30A4_U+30E4_U+30FC 1
 62
   179
420
  2234388
370
    25
100
AcDbVertex
100
AcDb2dVertex
 10
87.83340942584971
 20
-129.7567819120054
 30
0.0
  0
VERTEX
  5
16F
330
16D
100
AcDbEntity
  8
_U+30EC_U+30A4_U+30E4_U+30FC 1
 62
   179
420
  2234388
370
    25
100
AcDbVertex
100
AcDb2dVertex
 10
87.98171942244899
 20
-129.1952302454791
 30
0.0
  0
SEQEND
  5
170
330
16D
100
AcDbEntity
  8
_U+30EC_U+30A4_U+30E4_U+30FC 1
 62
   179
420
  2234388
370
    25
  0
POLYLINE
  5
171
330
1F
100
AcDbEntity
  8
_U+30EC_U+30A4_U+30E4_U+30FC 1
 62
   179
420
  2234388
370
    25
100
AcDb2dPolyline
 66
     1
 10
0.0
 20
0.0
 30
0.0
  0
VERTEX
  5
172
330
171
100
AcDbEntity
  8
_U+30EC_U+30A4_U+30E4_U+30FC 1
 62
   179
420
  2234388
370
    25
100
AcDbVertex
100
AcDb2dVertex
 10
87.98171942244899
 20
-129.1952302454791
 30
0.0
  0
VERTEX
  5
173
330
171
100
AcDbEntity
  8
_U+30EC_U+30A4_U+30E4_U+30FC 1
 62
   179
420
  2234388
370
    25
100
AcDbVertex
100
AcDb2dVertex
 10
88.54686942230767
 20
-129.0643144121784
 30
0.0
  0
SEQEND
  5
174
330
171
100
AcDbEntity
  8
_U+30EC_U+30A4_U+30E4_U+30FC 1
 62
   179
420
  2234388
370
    25
  0
POLYLINE
  5
175
330
1F
100
AcDbEntity
  8
_U+30EC_U+30A4_U+30E4_U+30FC 1
 62
   179
420
  2234388
370
    25
100
AcDb2dPolyline
 66
     1
 10
0.0
 20
0.0
 30
0.0
  0
VERTEX
  5
176
330
175
100
AcDbEntity
  8
_U+30EC_U+30A4_U+30E4_U+30FC 1
 62
   179
420
  2234388
370
    25
100
AcDbVertex
100
AcDb2dVertex
 10
87.11991638849688
 20
-130.4499196896098
 30
0.0
  0
VERTEX
  5
177
330
175
100
AcDbEntity
  8
_U+30EC_U+30A4_U+30E4_U+30FC 1
 62
   179
420
  2234388
370
    25
100
AcDbVertex
100
AcDb2dVertex
 10
87.26804997818292
 20
-129.8883680230835
 30
0.0
  0
SEQEND
  5
178
330
175
100
AcDbEntity
  8
_U+30EC_U+30A4_U+30E4_U+30FC 1
 62
   179
420
  2234388
370
    25
  0
POLYLINE
  5
179
330
1F
100
AcDbEntity
  8
_U+30EC_U+30A4_U+30E4_U+30FC 1
 62
   179
420
  2234388
370
    25
100
AcDb2dPolyline
 66
     1
 10
0.0
 20
0.0
 30
0.0
  0
VERTEX
  5
17A
330
179
100
AcDbEntity
  8
_U+30EC_U+30A4_U+30E4_U+30FC 1
 62
   179
420
  2234388
370
    25
100
AcDbVertex
100
AcDb2dVertex
 10
87.26804997818292
 20
-129.8883680230835
 30
0.0
  0
VERTEX
  5
17B
330
179
100
AcDbEntity
  8
_U+30EC_U+30A4_U+30E4_U+30FC 1
 62
   179
420
  2234388
370
    25
100
AcDbVertex
100
AcDb2dVertex
 10
87.83340942584971
 20
-129.7567819120054
 30
0.0
  0
SEQEND
  5
17C
330
179
100
AcDbEntity
  8
_U+30EC_U+30A4_U+30E4_U+30FC 1
 62
   179
420
  2234388
370
    25
  0
POLYLINE
  5
17D
330
1F
100
AcDbEntity
  8
_U+30EC_U+30A4_U+30E4_U+30FC 1
 62
   179
420
  2234388
370
    25
100
AcDb2dPolyline
 66
     1
 10
0.0
 20
0.0
 30
0.0
  0
VERTEX
  5
17E
330
17D
100
AcDbEntity
  8
_U+30EC_U+30A4_U+30E4_U+30FC 1
 62
   179
420
  2234388
370
    25
100
AcDbVertex
100
AcDb2dVertex
 10
86.40628224003653
 20
-131.1437630227697
 30
0.0
  0
VERTEX
  5
17F
330
17D
100
AcDbEntity
  8
_U+30EC_U+30A4_U+30E4_U+30FC 1
 62
   179
420
  2234388
370
    25
100
AcDbVertex
100
AcDb2dVertex
 10
86.55423723626188
 20
-130.5815058006879
 30
0.0
  0
SEQEND
  5
180
330
17D
100
AcDbEntity
  8
_U+30EC_U+30A4_U+30E4_U+30FC 1
 62
   179
420
  2234388
370
    25
  0
POLYLINE
  5
181
330
1F
100
AcDbEntity
  8
_U+30EC_U+30A4_U+30E4_U+30FC 1
 62
   179
420
  2234388
370
    25
100
AcDb2dPolyline
 66
     1
 10
0.0
 20
0.0
 30
0.0
  0
VERTEX
  5
182
330
181
100
AcDbEntity
  8
_U+30EC_U+30A4_U+30E4_U+30FC 1
 62
   179
420
  2234388
370
    25
100
AcDbVertex
100
AcDb2dVertex
 10
86.55423723626188
 20
-130.5815058006879
 30
0.0
  0
VERTEX
  5
183
330
181
100
AcDbEntity
  8
_U+30EC_U+30A4_U+30E4_U+30FC 1
 62
   179
420
  2234388
370
    25
100
AcDbVertex
100
AcDb2dVertex
 10
87.11991638849688
 20
-130.4499196896098
 30
0.0
  0
SEQEND
  5
184
330
181
100
AcDbEntity
  8
_U+30EC_U+30A4_U+30E4_U+30FC 1
 62
   179
420
  2234388
370
    25
  0
POLYLINE
  5
185
330
1F
100
AcDbEntity
  8
_U+30EC_U+30A4_U+30E4_U+30FC 1
 62
   179
420
  2234388
370
    25
100
AcDb2dPolyline
 66
     1
 10
0.0
 20
0.0
 30
0.0
  0
VERTEX
  5
186
330
185
100
AcDbEntity
  8
_U+30EC_U+30A4_U+30E4_U+30FC 1
 62
   179
420
  2234388
370
    25
100
AcDbVertex
100
AcDb2dVertex
 10
85.6927892026837
 20
-131.8369008003741
 30
0.0
  0
VERTEX
  5
187
330
185
100
AcDbEntity
  8
_U+30EC_U+30A4_U+30E4_U+30FC 1
 62
   179
420
  2234388
370
    25
100
AcDbVertex
100
AcDb2dVertex
 10
85.84074419890905
 20
-131.2746788560704
 30
0.0
  0
SEQEND
  5
188
330
185
100
AcDbEntity
  8
_U+30EC_U+30A4_U+30E4_U+30FC 1
 62
   179
420
  2234388
370
    25
  0
POLYLINE
  5
189
330
1F
100
AcDbEntity
  8
_U+30EC_U+30A4_U+30E4_U+30FC 1
 62
   179
420
  2234388
370
    25
100
AcDb2dPolyline
 66
     1
 10
0.0
 20
0.0
 30
0.0
  0
VERTEX
  5
18A
330
189
100
AcDbEntity
  8
_U+30EC_U+30A4_U+30E4_U+30FC 1
 62
   179
420
  2234388
370
    25
100
AcDbVertex
100
AcDb2dVertex
 10
85.84074419890905
 20
-131.2746788560704
 30
0.0
  0
VERTEX
  5
18B
330
189
100
AcDbEntity
  8
_U+30EC_U+30A4_U+30E4_U+30FC 1
 62
   179
420
  2234388
370
    25
100
AcDbVertex
100
AcDb2dVertex
 10
86.40628224003653
 20
-131.1437630227697
 30
0.0
  0
SEQEND
  5
18C
330
189
100
AcDbEntity
  8
_U+30EC_U+30A4_U+30E4_U+30FC 1
 62
   179
420
  2234388
370
    25
  0
POLYLINE
  5
18D
330
1F
100
AcDbEntity
  8
_U+30EC_U+30A4_U+30E4_U+30FC 1
 62
   179
420
  2234388
370
    25
100
AcDb2dPolyline
 66
     1
 10
0.0
 20
0.0
 30
0.0
  0
VERTEX
  5
18E
330
18D
100
AcDbEntity
  8
_U+30EC_U+30A4_U+30E4_U+30FC 1
 62
   179
420
  2234388
370
    25
100
AcDbVertex
100
AcDb2dVertex
 10
84.97897866533897
 20
-132.5293683002012
 30
0.0
  0
VERTEX
  5
18F
330
18D
100
AcDbEntity
  8
_U+30EC_U+30A4_U+30E4_U+30FC 1
 62
   179
420
  2234388
370
    25
100
AcDbVertex
100
AcDb2dVertex
 10
85.12693366156432
 20
-131.9678166336748
 30
0.0
  0
SEQEND
  5
190
330
18D
100
AcDbEntity
  8
_U+30EC_U+30A4_U+30E4_U+30FC 1
 62
   179
420
  2234388
370
    25
  0
POLYLINE
  5
191
330
1F
100
AcDbEntity
  8
_U+30EC_U+30A4_U+30E4_U+30FC 1
 62
   179
420
  2234388
370
    25
100
AcDb2dPolyline
 66
     1
 10
0.0
 20
0.0
 30
0.0
  0
VERTEX
  5
192
330
191
100
AcDbEntity
  8
_U+30EC_U+30A4_U+30E4_U+30FC 1
 62
   179
420
  2234388
370
    25
100
AcDbVertex
100
AcDb2dVertex
 10
85.12693366156432
 20
-131.9678166336748
 30
0.0
  0
VERTEX
  5
193
330
191
100
AcDbEntity
  8
_U+30EC_U+30A4_U+30E4_U+30FC 1
 62
   179
420
  2234388
370
    25
100
AcDbVertex
100
AcDb2dVertex
 10
85.6927892026837
 20
-131.8369008003741
 30
0.0
  0
SEQEND
  5
194
330
191
100
AcDbEntity
  8
_U+30EC_U+30A4_U+30E4_U+30FC 1
 62
   179
420
  2234388
370
    25
  0
POLYLINE
  5
195
330
1F
100
AcDbEntity
  8
_U+30EC_U+30A4_U+30E4_U+30FC 1
 62
   179
420
  2234388
370
    25
100
AcDb2dPolyline
 66
     1
 10
0.0
 20
0.0
 30
0.0
  0
VERTEX
  5
196
330
195
100
AcDbEntity
  8
_U+30EC_U+30A4_U+30E4_U+30FC 1
 62
   179
420
  2234388
370
    25
100
AcDbVertex
100
AcDb2dVertex
 10
84.26548562798614
 20
-133.2232116333611
 30
0.0
  0
VERTEX
  5
197
330
195
100
AcDbEntity
  8
_U+30EC_U+30A4_U+30E4_U+30FC 1
 62
   179
420
  2234388
370
    25
100
AcDbVertex
100
AcDb2dVertex
 10
84.41344062421149
 20
-132.6609896890567
 30
0.0
  0
SEQEND
  5
198
330
195
100
AcDbEntity
  8
_U+30EC_U+30A4_U+30E4_U+30FC 1
 62
   179
420
  2234388
370
    25
  0
POLYLINE
  5
199
330
1F
100
AcDbEntity
  8
_U+30EC_U+30A4_U+30E4_U+30FC 1
 62
   179
420
  2234388
370
    25
100
AcDb2dPolyline
 66
     1
 10
0.0
 20
0.0
 30
0.0
  0
VERTEX
  5
19A
330
199
100
AcDbEntity
  8
_U+30EC_U+30A4_U+30E4_U+30FC 1
 62
   179
420
  2234388
370
    25
100
AcDbVertex
100
AcDb2dVertex
 10
84.41344062421149
 20
-132.6609896890567
 30
0.0
  0
VERTEX
  5
19B
330
199
100
AcDbEntity
  8
_U+30EC_U+30A4_U+30E4_U+30FC 1
 62
   179
420
  2234388
370
    25
100
AcDbVertex
100
AcDb2dVertex
 10
84.97897866533897
 20
-132.5293683002012
 30
0.0
  0
SEQEND
  5
19C
330
199
100
AcDbEntity
  8
_U+30EC_U+30A4_U+30E4_U+30FC 1
 62
   179
420
  2234388
370
    25
  0
POLYLINE
  5
19D
330
1F
100
AcDbEntity
  8
_U+30EC_U+30A4_U+30E4_U+30FC 1
 62
   179
420
  2234388
370
    25
100
AcDb2dPolyline
 66
     1
 10
0.0
 20
0.0
 30
0.0
  0
VERTEX
  5
19E
330
19D
100
AcDbEntity
  8
_U+30EC_U+30A4_U+30E4_U+30FC 1
 62
   179
420
  2234388
370
    25
100
AcDbVertex
100
AcDb2dVertex
 10
83.5519925906333
 20
-133.916384688743
 30
0.0
  0
VERTEX
  5
19F
330
19D
100
AcDbEntity
  8
_U+30EC_U+30A4_U+30E4_U+30FC 1
 62
   179
420
  2234388
370
    25
100
AcDbVertex
100
AcDb2dVertex
 10
83.69998286463554
 20
-133.3541274666612
 30
0.0
  0
SEQEND
  5
1A0
330
19D
100
AcDbEntity
  8
_U+30EC_U+30A4_U+30E4_U+30FC 1
 62
   179
420
  2234388
370
    25
  0
POLYLINE
  5
1A1
330
1F
100
AcDbEntity
  8
_U+30EC_U+30A4_U+30E4_U+30FC 1
 62
   179
420
  2234388
370
    25
100
AcDb2dPolyline
 66
     1
 10
0.0
 20
0.0
 30
0.0
  0
VERTEX
  5
1A2
330
1A1
100
AcDbEntity
  8
_U+30EC_U+30A4_U+30E4_U+30FC 1
 62
   179
420
  2234388
370
    25
100
AcDbVertex
100
AcDb2dVertex
 10
83.69998286463554
 20
-133.3541274666612
 30
0.0
  0
VERTEX
  5
1A3
330
1A1
100
AcDbEntity
  8
_U+30EC_U+30A4_U+30E4_U+30FC 1
 62
   179
420
  2234388
370
    25
100
AcDbVertex
100
AcDb2dVertex
 10
84.26548562798614
 20
-133.2232116333611
 30
0.0
  0
SEQEND
  5
1A4
330
1A1
100
AcDbEntity
  8
_U+30EC_U+30A4_U+30E4_U+30FC 1
 62
   179
420
  2234388
370
    25
  0
POLYLINE
  5
1A5
330
1F
100
AcDbEntity
  8
_U+30EC_U+30A4_U+30E4_U+30FC 1
 62
   179
420
  2234388
370
    25
100
AcDb2dPolyline
 66
     1
 10
0.0
 20
0.0
 30
0.0
  0
VERTEX
  5
1A6
330
1A5
100
AcDbEntity
  8
_U+30EC_U+30A4_U+30E4_U+30FC 1
 62
   179
420
  2234388
370
    25
100
AcDbVertex
100
AcDb2dVertex
 10
82.83835844217296
 20
-134.6095224663474
 30
0.0
  0
VERTEX
  5
1A7
330
1A5
100
AcDbEntity
  8
_U+30EC_U+30A4_U+30E4_U+30FC 1
 62
   179
420
  2234388
370
    25
100
AcDbVertex
100
AcDb2dVertex
 10
82.98596066062954
 20
-134.0479707998211
 30
0.0
  0
SEQEND
  5
1A8
330
1A5
100
AcDbEntity
  8
_U+30EC_U+30A4_U+30E4_U+30FC 1
 62
   179
420
  2234388
370
    25
  0
POLYLINE
  5
1A9
330
1F
100
AcDbEntity
  8
_U+30EC_U+30A4_U+30E4_U+30FC 1
 62
   179
420
  2234388
370
    25
100
AcDb2dPolyline
 66
     1
 10
0.0
 20
0.0
 30
0.0
  0
VERTEX
  5
1AA
330
1A9
100
AcDbEntity
  8
_U+30EC_U+30A4_U+30E4_U+30FC 1
 62
   179
420
  2234388
370
    25
100
AcDbVertex
100
AcDb2dVertex
 10
82.98596066062954
 20
-134.0479707998211
 30
0.0
  0
VERTEX
  5
1AB
330
1A9
100
AcDbEntity
  8
_U+30EC_U+30A4_U+30E4_U+30FC 1
 62
   179
420
  2234388
370
    25
100
AcDbVertex
100
AcDb2dVertex
 10
83.5519925906333
 20
-133.916384688743
 30
0.0
  0
SEQEND
  5
1AC
330
1A9
100
AcDbEntity
  8
_U+30EC_U+30A4_U+30E4_U+30FC 1
 62
   179
420
  2234388
370
    25
  0
POLYLINE
  5
1AD
330
1F
100
AcDbEntity
  8
_U+30EC_U+30A4_U+30E4_U+30FC 1
 62
   179
420
  2234388
370
    25
100
AcDb2dPolyline
 66
     1
 10
0.0
 20
0.0
 30
0.0
  0
VERTEX
  5
1AE
330
1AD
100
AcDbEntity
  8
_U+30EC_U+30A4_U+30E4_U+30FC 1
 62
   179
420
  2234388
370
    25
100
AcDbVertex
100
AcDb2dVertex
 10
82.27250290105358
 20
-134.7411438552037
 30
0.0
  0
VERTEX
  5
1AF
330
1AD
100
AcDbEntity
  8
_U+30EC_U+30A4_U+30E4_U+30FC 1
 62
   179
420
  2234388
370
    25
100
AcDbVertex
100
AcDb2dVertex
 10
82.83835844217296
 20
-134.6095224663474
 30
0.0
  0
SEQEND
  5
1B0
330
1AD
100
AcDbEntity
  8
_U+30EC_U+30A4_U+30E4_U+30FC 1
 62
   179
420
  2234388
370
    25
  0
INSERT
  5
1B2
330
1F
100
AcDbEntity
  8
_U+30EC_U+30A4_U+30E4_U+30FC 1
100
AcDbBlockReference
  2
block 12
 10
0.0
 20
0.0
 30
0.0
  0
INSERT
  5
1BE
330
1F
100
AcDbEntity
  8
_U+30EC_U+30A4_U+30E4_U+30FC 1
100
AcDbBlockReference
  2
block 13
 10
0.0
 20
0.0
 30
0.0
  0
INSERT
  5
1CA
330
1F
100
AcDbEntity
  8
_U+30EC_U+30A4_U+30E4_U+30FC 1
100
AcDbBlockReference
  2
block 14
 10
0.0
 20
0.0
 30
0.0
  0
INSERT
  5
1D6
330
1F
100
AcDbEntity
  8
_U+30EC_U+30A4_U+30E4_U+30FC 1
100
AcDbBlockReference
  2
block 15
 10
0.0
 20
0.0
 30
0.0
  0
INSERT
  5
1E2
330
1F
100
AcDbEntity
  8
_U+30EC_U+30A4_U+30E4_U+30FC 1
100
AcDbBlockReference
  2
block 16
 10
0.0
 20
0.0
 30
0.0
  0
INSERT
  5
1EE
330
1F
100
AcDbEntity
  8
_U+30EC_U+30A4_U+30E4_U+30FC 1
100
AcDbBlockReference
  2
block 17
 10
0.0
 20
0.0
 30
0.0
  0
ENDSEC
  0
SECTION
  2
OBJECTS
  0
DICTIONARY
  5
C
330
0
100
AcDbDictionary
281
     1
  3
ACAD_GROUP
350
D
  3
ACAD_LAYOUT
350
1A
  3
ACAD_MATERIAL
350
3B
  3
ACAD_MLEADERSTYLE
350
1F8
  3
ACAD_MLINESTYLE
350
17
  3
ACAD_PLOTSETTINGS
350
19
  3
ACAD_PLOTSTYLENAME
350
E
  3
ACAD_TABLESTYLE
350
1F7
  3
ACAD_VISUALSTYLE
350
2A
  0
SUN
  5
3F
330
29
100
AcDbSun
 90
        1
290
     0
 63
     7
421
 16777215
 40
1.0
291
     1
 91
  2455826
 92
 54000000
292
     0
 70
     2
 71
   256
280
     1
  0
DICTIONARY
  5
D
102
{ACAD_REACTORS
330
C
102
}
330
C
100
AcDbDictionary
281
     1
  0
DICTIONARY
  5
1A
102
{ACAD_REACTORS
330
C
102
}
330
C
100
AcDbDictionary
281
     1
  3
Layout1
350
1E
  3
Layout2
350
26
  3
Model
350
22
  0
DICTIONARY
  5
3B
102
{ACAD_REACTORS
330
C
102
}
330
C
100
AcDbDictionary
281
     1
  3
ByBlock
350
3D
  3
ByLayer
350
3C
  3
Global
350
3E
  0
DICTIONARY
  5
1F8
102
{ACAD_REACTORS
330
C
102
}
330
C
100
AcDbDictionary
281
     1
  0
DICTIONARY
  5
17
102
{ACAD_REACTORS
330
C
102
}
330
C
100
AcDbDictionary
281
     1
  3
Standard
350
18
  0
DICTIONARY
  5
19
102
{ACAD_REACTORS
330
C
102
}
330
C
100
AcDbDictionary
281
     1
  0
ACDBDICTIONARYWDFLT
  5
E
102
{ACAD_REACTORS
330
C
102
}
330
C
100
AcDbDictionary
281
     1
  3
Normal
350
F
100
AcDbDictionaryWithDefault
340
F
  0
DICTIONARY
  5
1F7
102
{ACAD_REACTORS
330
C
102
}
330
C
100
AcDbDictionary
281
     1
  0
DICTIONARY
  5
2A
102
{ACAD_REACTORS
330
C
102
}
330
C
100
AcDbDictionary
281
     1
  3
2dWireframe
350
2F
  3
3D Hidden
350
31
  3
3dWireframe
350
30
  3
Basic
350
32
  3
Brighten
350
36
  3
ColorChange
350
3A
  3
Conceptual
350
34
  3
Dim
350
35
  3
Facepattern
350
39
  3
Flat
350
2B
  3
FlatWithEdges
350
2C
  3
Gouraud
350
2D
  3
GouraudWithEdges
350
2E
  3
Linepattern
350
38
  3
Realistic
350
33
  3
Thicken
350
37
  0
LAYOUT
  5
1E
102
{ACAD_REACTORS
330
1A
102
}
330
1A
100
AcDbPlotSettings
  1

  2
none_device
  4

  6

 40
0.0
 41
0.0
 42
0.0
 43
0.0
 44
0.0
 45
0.0
 46
0.0
 47
0.0
 48
0.0
 49
0.0
140
0.0
141
0.0
142
1.0
143
1.0
 70
   688
 72
     0
 73
     0
 74
     5
  7

 75
    16
 76
     0
 77
     2
 78
   300
147
1.0
148
0.0
149
0.0
100
AcDbLayout
  1
Layout1
 70
     1
 71
     1
 10
0.0
 20
0.0
 11
12.0
 21
9.0
 12
0.0
 22
0.0
 32
0.0
 14
1.000000000000000E+20
 24
1.000000000000000E+20
 34
1.000000000000000E+20
 15
-1.000000000000000E+20
 25
-1.000000000000000E+20
 35
-1.000000000000000E+20
146
0.0
 13
0.0
 23
0.0
 33
0.0
 16
1.0
 26
0.0
 36
0.0
 17
0.0
 27
1.0
 37
0.0
 76
     0
330
1B
  0
LAYOUT
  5
26
102
{ACAD_REACTORS
330
1A
102
}
330
1A
100
AcDbPlotSettings
  1

  2
none_device
  4

  6

 40
0.0
 41
0.0
 42
0.0
 43
0.0
 44
0.0
 45
0.0
 46
0.0
 47
0.0
 48
0.0
 49
0.0
140
0.0
141
0.0
142
1.0
143
1.0
 70
   688
 72
     0
 73
     0
 74
     5
  7

 75
    16
 76
     0
 77
     2
 78
   300
147
1.0
148
0.0
149
0.0
100
AcDbLayout
  1
Layout2
 70
     1
 71
     2
 10
0.0
 20
0.0
 11
0.0
 21
0.0
 12
0.0
 22
0.0
 32
0.0
 14
0.0
 24
0.0
 34
0.0
 15
0.0
 25
0.0
 35
0.0
146
0.0
 13
0.0
 23
0.0
 33
0.0
 16
1.0
 26
0.0
 36
0.0
 17
0.0
 27
1.0
 37
0.0
 76
     0
330
23
  0
LAYOUT
  5
22
102
{ACAD_REACTORS
330
1A
102
}
330
1A
100
AcDbPlotSettings
  1

  2
none_device
  4

  6

 40
0.0
 41
0.0
 42
0.0
 43
0.0
 44
0.0
 45
0.0
 46
0.0
 47
0.0
 48
0.0
 49
0.0
140
0.0
141
0.0
142
1.0
143
1.0
 70
  1712
 72
     0
 73
     0
 74
     0
  7

 75
     0
 76
     0
 77
     2
 78
   300
147
1.0
148
0.0
149
0.0
100
AcDbLayout
  1
Model
 70
     1
 71
     0
 10
0.0
 20
0.0
 11
12.0
 21
9.0
 12
0.0
 22
0.0
 32
0.0
 14
1.000000000000000E+20
 24
1.000000000000000E+20
 34
1.000000000000000E+20
 15
-1.000000000000000E+20
 25
-1.000000000000000E+20
 35
-1.000000000000000E+20
146
0.0
 13
0.0
 23
0.0
 33
0.0
 16
1.0
 26
0.0
 36
0.0
 17
0.0
 27
1.0
 37
0.0
 76
     0
330
1F
331
29
  0
MATERIAL
  5
3D
102
{ACAD_REACTORS
330
3B
102
}
330
3B
100
AcDbMaterial
  1
ByBlock
 72
     1
 94
      127
  0
MATERIAL
  5
3C
102
{ACAD_REACTORS
330
3B
102
}
330
3B
100
AcDbMaterial
  1
ByLayer
 72
     1
 94
      127
  0
MATERIAL
  5
3E
102
{ACAD_REACTORS
330
3B
102
}
330
3B
100
AcDbMaterial
  1
Global
 72
     1
 94
      127
  0
MLINESTYLE
  5
18
102
{ACAD_REACTORS
330
17
102
}
330
17
100
AcDbMlineStyle
  2
Standard
 70
     0
  3

 62
   256
 51
90.0
 52
90.0
 71
     2
 49
0.5
 62
   256
  6
BYLAYER
 49
-0.5
 62
   256
  6
BYLAYER
  0
ACDBPLACEHOLDER
  5
F
102
{ACAD_REACTORS
330
E
102
}
330
E
  0
VISUALSTYLE
  5
2F
102
{ACAD_REACTORS
330
2A
102
}
330
2A
100
AcDbVisualStyle
  2
2dWireframe
 70
     4
177
     2
291
     0
 71
     0
176
     1
 72
     2
176
     1
 73
     0
176
     1
 90
        0
176
     1
 40
-0.6
176
     1
 41
-30.0
176
     1
 62
     5
 63
     7
421
 16777215
176
     1
 74
     1
176
     1
 91
        4
176
     1
 64
     7
176
     1
 65
   257
176
     1
 75
     1
176
     1
175
     1
176
     1
 42
1.0
176
     1
 92
        0
176
     1
 66
   257
176
     1
 43
1.0
176
     1
 76
     1
176
     1
 77
     6
176
     1
 78
     2
176
     1
 67
     7
176
     1
 79
     5
176
     1
170
     0
176
     1
171
     0
176
     1
290
     0
176
     1
 93
        1
176
     1
 44
0.0
176
     1
173
     0
176
     1
  0
VISUALSTYLE
  5
31
102
{ACAD_REACTORS
330
2A
102
}
330
2A
100
AcDbVisualStyle
  2
3D Hidden
 70
     6
177
     2
291
     0
 71
     1
176
     1
 72
     2
176
     1
 73
     2
176
     1
 90
        0
176
     1
 40
-0.6
176
     1
 41
-30.0
176
     1
 62
     5
 63
     7
421
 16777215
176
     1
 74
     2
176
     1
 91
        2
176
     1
 64
     7
176
     1
 65
   257
176
     1
 75
     2
176
     1
175
     1
176
     1
 42
40.0
176
     1
 92
        0
176
     1
 66
   257
176
     1
 43
1.0
176
     1
 76
     1
176
     1
 77
     6
176
     1
 78
     2
176
     1
 67
     7
176
     1
 79
     3
176
     1
170
     0
176
     1
171
     0
176
     1
290
     0
176
     1
 93
        1
176
     1
 44
0.0
176
     1
173
     0
176
     1
  0
VISUALSTYLE
  5
30
102
{ACAD_REACTORS
330
2A
102
}
330
2A
100
AcDbVisualStyle
  2
3dWireframe
 70
     5
177
     2
291
     0
 71
     0
176
     1
 72
     2
176
     1
 73
     0
176
     1
 90
        0
176
     1
 40
-0.6
176
     1
 41
-30.0
176
     1
 62
     5
 63
     7
421
 16777215
176
     1
 74
     1
176
     1
 91
        4
176
     1
 64
     7
176
     1
 65
   257
176
     1
 75
     1
176
     1
175
     1
176
     1
 42
1.0
176
     1
 92
        0
176
     1
 66
   257
176
     1
 43
1.0
176
     1
 76
     1
176
     1
 77
     6
176
     1
 78
     2
176
     1
 67
     7
176
     1
 79
     5
176
     1
170
     0
176
     1
171
     0
176
     1
290
     0
176
     1
 93
        1
176
     1
 44
0.0
176
     1
173
     0
176
     1
  0
VISUALSTYLE
  5
32
102
{ACAD_REACTORS
330
2A
102
}
330
2A
100
AcDbVisualStyle
  2
Basic
 70
     7
177
     2
291
     1
 71
     1
176
     1
 72
     0
176
     1
 73
     1
176
     1
 90
        0
176
     1
 40
-0.6
176
     1
 41
-30.0
176
     1
 62
     5
 63
     7
421
 16777215
176
     1
 74
     0
176
     1
 91
        4
176
     1
 64
     7
176
     1
 65
   257
176
     1
 75
     1
176
     1
175
     1
176
     1
 42
1.0
176
     1
 92
        8
176
     1
 66
     7
176
     1
 43
1.0
176
     1
 76
     1
176
     1
 77
     6
176
     1
 78
     2
176
     1
 67
     7
176
     1
 79
     5
176
     1
170
     0
176
     1
171
     0
176
     1
290
     0
176
     1
 93
        1
176
     1
 44
0.0
176
     1
173
     0
176
     1
  0
VISUALSTYLE
  5
36
102
{ACAD_REACTORS
330
2A
102
}
330
2A
100
AcDbVisualStyle
  2
Brighten
 70
    12
177
     2
291
     1
 71
     2
176
     1
 72
     2
176
     1
 73
     0
176
     1
 90
        0
176
     1
 40
-0.6
176
     1
 41
-30.0
176
     1
 62
     5
 63
     7
421
 16777215
176
     1
 74
     1
176
     1
 91
        4
176
     1
 64
     7
176
     1
 65
   257
176
     1
 75
     1
176
     1
175
     1
176
     1
 42
1.0
176
     1
 92
        8
176
     1
 66
     7
176
     1
 43
1.0
176
     1
 76
     1
176
     1
 77
     6
176
     1
 78
     2
176
     1
 67
     7
176
     1
 79
     5
176
     1
170
     0
176
     1
171
     0
176
     1
290
     0
176
     1
 93
        1
176
     1
 44
50.0
176
     1
173
     0
176
     1
  0
VISUALSTYLE
  5
3A
102
{ACAD_REACTORS
330
2A
102
}
330
2A
100
AcDbVisualStyle
  2
ColorChange
 70
    16
177
     2
291
     1
 71
     2
176
     1
 72
     2
176
     1
 73
     3
176
     1
 90
        0
176
     1
 40
-0.6
176
     1
 41
-30.0
176
     1
 62
     5
 63
     8
421
  8421504
176
     1
 74
     1
176
     1
 91
        4
176
     1
 64
     7
176
     1
 65
   257
176
     1
 75
     1
176
     1
175
     1
176
     1
 42
1.0
176
     1
 92
        8
176
     1
 66
     8
424
  8421504
176
     1
 43
1.0
176
     1
 76
     1
176
     1
 77
     6
176
     1
 78
     2
176
     1
 67
     7
176
     1
 79
     5
176
     1
170
     0
176
     1
171
     0
176
     1
290
     0
176
     1
 93
        1
176
     1
 44
0.0
176
     1
173
     0
176
     1
  0
VISUALSTYLE
  5
34
102
{ACAD_REACTORS
330
2A
102
}
330
2A
100
AcDbVisualStyle
  2
Conceptual
 70
     9
177
     2
291
     0
 71
     3
176
     1
 72
     2
176
     1
 73
     0
176
     1
 90
        0
176
     1
 40
-0.6
176
     1
 41
-30.0
176
     1
 62
     5
 63
     7
421
 16777215
176
     1
 74
     2
176
     1
 91
        2
176
     1
 64
     7
176
     1
 65
   257
176
     1
 75
     1
176
     1
175
     1
176
     1
 42
40.0
176
     1
 92
        8
176
     1
 66
     7
176
     1
 43
1.0
176
     1
 76
     1
176
     1
 77
     6
176
     1
 78
     2
176
     1
 67
     7
176
     1
 79
     3
176
     1
170
     0
176
     1
171
     0
176
     1
290
     0
176
     1
 93
        1
176
     1
 44
0.0
176
     1
173
     0
176
     1
  0
VISUALSTYLE
  5
35
102
{ACAD_REACTORS
330
2A
102
}
330
2A
100
AcDbVisualStyle
  2
Dim
 70
    11
177
     2
291
     1
 71
     2
176
     1
 72
     2
176
     1
 73
     0
176
     1
 90
        0
176
     1
 40
-0.6
176
     1
 41
-30.0
176
     1
 62
     5
 63
     7
421
 16777215
176
     1
 74
     1
176
     1
 91
        4
176
     1
 64
     7
176
     1
 65
   257
176
     1
 75
     1
176
     1
175
     1
176
     1
 42
1.0
176
     1
 92
        8
176
     1
 66
     7
176
     1
 43
1.0
176
     1
 76
     1
176
     1
 77
     6
176
     1
 78
     2
176
     1
 67
     7
176
     1
 79
     5
176
     1
170
     0
176
     1
171
     0
176
     1
290
     0
176
     1
 93
        1
176
     1
 44
-50.0
176
     1
173
     0
176
     1
  0
VISUALSTYLE
  5
39
102
{ACAD_REACTORS
330
2A
102
}
330
2A
100
AcDbVisualStyle
  2
Facepattern
 70
    15
177
     2
291
     1
 71
     2
176
     1
 72
     2
176
     1
 73
     0
176
     1
 90
        0
176
     1
 40
-0.6
176
     1
 41
-30.0
176
     1
 62
     5
 63
     7
421
 16777215
176
     1
 74
     1
176
     1
 91
        4
176
     1
 64
     7
176
     1
 65
   257
176
     1
 75
     1
176
     1
175
     1
176
     1
 42
1.0
176
     1
 92
        8
176
     1
 66
     7
176
     1
 43
1.0
176
     1
 76
     1
176
     1
 77
     6
176
     1
 78
     2
176
     1
 67
     7
176
     1
 79
     5
176
     1
170
     0
176
     1
171
     0
176
     1
290
     0
176
     1
 93
        1
176
     1
 44
0.0
176
     1
173
     0
176
     1
  0
VISUALSTYLE
  5
2B
102
{ACAD_REACTORS
330
2A
102
}
330
2A
100
AcDbVisualStyle
  2
Flat
 70
     0
177
     2
291
     1
 71
     2
176
     1
 72
     1
176
     1
 73
     1
176
     1
 90
        2
176
     1
 40
-0.6
176
     1
 41
30.0
176
     1
 62
     5
 63
     7
421
 16777215
176
     1
 74
     0
176
     1
 91
        4
176
     1
 64
     7
176
     1
 65
   257
176
     1
 75
     1
176
     1
175
     1
176
     1
 42
1.0
176
     1
 92
        8
176
     1
 66
     7
176
     1
 43
1.0
176
     1
 76
     1
176
     1
 77
     6
176
     1
 78
     2
176
     1
 67
     7
176
     1
 79
     5
176
     1
170
     0
176
     1
171
     0
176
     1
290
     0
176
     1
 93
       13
176
     1
 44
0.0
176
     1
173
     0
176
     1
  0
VISUALSTYLE
  5
2C
102
{ACAD_REACTORS
330
2A
102
}
330
2A
100
AcDbVisualStyle
  2
FlatWithEdges
 70
     1
177
     2
291
     1
 71
     2
176
     1
 72
     1
176
     1
 73
     1
176
     1
 90
        2
176
     1
 40
-0.6
176
     1
 41
30.0
176
     1
 62
     5
 63
     7
421
 16777215
176
     1
 74
     1
176
     1
 91
        4
176
     1
 64
     7
176
     1
 65
   257
176
     1
 75
     1
176
     1
175
     1
176
     1
 42
1.0
176
     1
 92
        0
176
     1
 66
   257
176
     1
 43
1.0
176
     1
 76
     1
176
     1
 77
     6
176
     1
 78
     2
176
     1
 67
     7
176
     1
 79
     5
176
     1
170
     0
176
     1
171
     0
176
     1
290
     0
176
     1
 93
       13
176
     1
 44
0.0
176
     1
173
     0
176
     1
  0
VISUALSTYLE
  5
2D
102
{ACAD_REACTORS
330
2A
102
}
330
2A
100
AcDbVisualStyle
  2
Gouraud
 70
     2
177
     2
291
     1
 71
     2
176
     1
 72
     2
176
     1
 73
     1
176
     1
 90
        2
176
     1
 40
-0.6
176
     1
 41
30.0
176
     1
 62
     5
 63
     7
421
 16777215
176
     1
 74
     0
176
     1
 91
        4
176
     1
 64
     7
176
     1
 65
   257
176
     1
 75
     1
176
     1
175
     1
176
     1
 42
1.0
176
     1
 92
        0
176
     1
 66
     7
176
     1
 43
1.0
176
     1
 76
     1
176
     1
 77
     6
176
     1
 78
     2
176
     1
 67
     7
176
     1
 79
     5
176
     1
170
     0
176
     1
171
     0
176
     1
290
     0
176
     1
 93
       13
176
     1
 44
0.0
176
     1
173
     0
176
     1
  0
VISUALSTYLE
  5
2E
102
{ACAD_REACTORS
330
2A
102
}
330
2A
100
AcDbVisualStyle
  2
GouraudWithEdges
 70
     3
177
     2
291
     1
 71
     2
176
     1
 72
     2
176
     1
 73
     1
176
     1
 90
        2
176
     1
 40
-0.6
176
     1
 41
30.0
176
     1
 62
     5
 63
     7
421
 16777215
176
     1
 74
     1
176
     1
 91
        4
176
     1
 64
     7
176
     1
 65
   257
176
     1
 75
     1
176
     1
175
     1
176
     1
 42
1.0
176
     1
 92
        0
176
     1
 66
   257
176
     1
 43
1.0
176
     1
 76
     1
176
     1
 77
     6
176
     1
 78
     2
176
     1
 67
     7
176
     1
 79
     5
176
     1
170
     0
176
     1
171
     0
176
     1
290
     0
176
     1
 93
       13
176
     1
 44
0.0
176
     1
173
     0
176
     1
  0
VISUALSTYLE
  5
38
102
{ACAD_REACTORS
330
2A
102
}
330
2A
100
AcDbVisualStyle
  2
Linepattern
 70
    14
177
     2
291
     1
 71
     2
176
     1
 72
     2
176
     1
 73
     0
176
     1
 90
        0
176
     1
 40
-0.6
176
     1
 41
-30.0
176
     1
 62
     5
 63
     7
421
 16777215
176
     1
 74
     1
176
     1
 91
        4
176
     1
 64
     7
176
     1
 65
   257
176
     1
 75
     7
176
     1
175
     7
176
     1
 42
1.0
176
     1
 92
        8
176
     1
 66
     7
176
     1
 43
1.0
176
     1
 76
     1
176
     1
 77
     6
176
     1
 78
     2
176
     1
 67
     7
176
     1
 79
     5
176
     1
170
     0
176
     1
171
     0
176
     1
290
     0
176
     1
 93
        1
176
     1
 44
0.0
176
     1
173
     0
176
     1
  0
VISUALSTYLE
  5
33
102
{ACAD_REACTORS
330
2A
102
}
330
2A
100
AcDbVisualStyle
  2
Realistic
 70
     8
177
     2
291
     0
 71
     2
176
     1
 72
     2
176
     1
 73
     0
176
     1
 90
        0
176
     1
 40
-0.6
176
     1
 41
-30.0
176
     1
 62
     5
 63
     7
421
 16777215
176
     1
 74
     1
176
     1
 91
        0
176
     1
 64
     7
176
     1
 65
   257
176
     1
 75
     1
176
     1
175
     1
176
     1
 42
1.0
176
     1
 92
        8
176
     1
 66
     8
424
  7895160
176
     1
 43
1.0
176
     1
 76
     1
176
     1
 77
     6
176
     1
 78
     2
176
     1
 67
     7
176
     1
 79
     5
176
     1
170
     0
176
     1
171
     0
176
     1
290
     0
176
     1
 93
       13
176
     1
 44
0.0
176
     1
173
     0
176
     1
  0
VISUALSTYLE
  5
37
102
{ACAD_REACTORS
330
2A
102
}
330
2A
100
AcDbVisualStyle
  2
Thicken
 70
    13
177
     2
291
     1
 71
     2
176
     1
 72
     2
176
     1
 73
     0
176
     1
 90
        0
176
     1
 40
-0.6
176
     1
 41
-30.0
176
     1
 62
     5
 63
     7
421
 16777215
176
     1
 74
     1
176
     1
 91
        4
176
     1
 64
     7
176
     1
 65
   257
176
     1
 75
     1
176
     1
175
     1
176
     1
 42
1.0
176
     1
 92
       12
176
     1
 66
     7
176
     1
 43
1.0
176
     1
 76
     1
176
     1
 77
     6
176
     1
 78
     2
176
     1
 67
     7
176
     1
 79
     5
176
     1
170
     0
176
     1
171
     0
176
     1
290
     0
176
     1
 93
        1
176
     1
 44
0.0
176
     1
173
     0
176
     1
  0
ENDSEC
  0
EOF
