  0
SECTION
  2
HEADER
  9
$ACADVER
  1
AC1024
  9
$ACADMAINTVER
 70
     6
  9
$DWGCODEPAGE
  3
UNDEFINED
  9
$INSBASE
 10
0.0
 20
0.0
 30
0.0
  9
$EXTMIN
 10
1.000000000000000E+20
 20
1.000000000000000E+20
 30
1.000000000000000E+20
  9
$EXTMAX
 10
-1.000000000000000E+20
 20
-1.000000000000000E+20
 30
-1.000000000000000E+20
  9
$LIMMIN
 10
0.0
 20
0.0
  9
$LIMMAX
 10
12.0
 20
9.0
  9
$ORTHOMODE
 70
     0
  9
$REGENMODE
 70
     1
  9
$FILLMODE
 70
     1
  9
$QTEXTMODE
 70
     0
  9
$MIRRTEXT
 70
     1
  9
$LTSCALE
 40
1.0
  9
$ATTMODE
 70
     1
  9
$TEXTSIZE
 40
0.2
  9
$TRACEWID
 40
0.05
  9
$TEXTSTYLE
  7
Standard
  9
$CLAYER
  8
0
  9
$CELTYPE
  6
ByLayer
  9
$CECOLOR
 62
   256
  9
$CELTSCALE
 40
1.0
  9
$DISPSILH
 70
     0
  9
$DIMSCALE
 40
1.0
  9
$DIMASZ
 40
0.18
  9
$DIMEXO
 40
0.0625
  9
$DIMDLI
 40
0.38
  9
$DIMRND
 40
0.0
  9
$DIMDLE
 40
0.0
  9
$DIMEXE
 40
0.18
  9
$DIMTP
 40
0.0
  9
$DIMTM
 40
0.0
  9
$DIMTXT
 40
0.18
  9
$DIMCEN
 40
0.09
  9
$DIMTSZ
 40
0.0
  9
$DIMTOL
 70
     0
  9
$DIMLIM
 70
     0
  9
$DIMTIH
 70
     1
  9
$DIMTOH
 70
     1
  9
$DIMSE1
 70
     0
  9
$DIMSE2
 70
     0
  9
$DIMTAD
 70
     0
  9
$DIMZIN
 70
     0
  9
$DIMBLK
  1

  9
$DIMASO
 70
     1
  9
$DIMSHO
 70
     1
  9
$DIMPOST
  1

  9
$DIMAPOST
  1

  9
$DIMALT
 70
     0
  9
$DIMALTD
 70
     2
  9
$DIMALTF
 40
25.4
  9
$DIMLFAC
 40
1.0
  9
$DIMTOFL
 70
     0
  9
$DIMTVP
 40
0.0
  9
$DIMTIX
 70
     0
  9
$DIMSOXD
 70
     0
  9
$DIMSAH
 70
     0
  9
$DIMBLK1
  1

  9
$DIMBLK2
  1

  9
$DIMSTYLE
  2
Standard
  9
$DIMCLRD
 70
     0
  9
$DIMCLRE
 70
     0
  9
$DIMCLRT
 70
     0
  9
$DIMTFAC
 40
1.0
  9
$DIMGAP
 40
0.09
  9
$DIMJUST
 70
     0
  9
$DIMSD1
 70
     0
  9
$DIMSD2
 70
     0
  9
$DIMTOLJ
 70
     1
  9
$DIMTZIN
 70
     0
  9
$DIMALTZ
 70
     0
  9
$DIMALTTZ
 70
     0
  9
$DIMUPT
 70
     0
  9
$DIMDEC
 70
     4
  9
$DIMTDEC
 70
     4
  9
$DIMALTU
 70
     2
  9
$DIMALTTD
 70
     2
  9
$DIMTXSTY
  7
Standard
  9
$DIMAUNIT
 70
     0
  9
$DIMADEC
 70
     0
  9
$DIMALTRND
 40
0.0
  9
$DIMAZIN
 70
     0
  9
$DIMDSEP
 70
    46
  9
$DIMATFIT
 70
     3
  9
$DIMFRAC
 70
     0
  9
$DIMLDRBLK
  1

  9
$DIMLUNIT
 70
     2
  9
$DIMLWD
 70
    -2
  9
$DIMLWE
 70
    -2
  9
$DIMTMOVE
 70
     0
  9
$DIMFXL
 40
1.0
  9
$DIMFXLON
 70
     0
  9
$DIMJOGANG
 40
0.7853981633974483
  9
$DIMTFILL
 70
     0
  9
$DIMTFILLCLR
 70
     0
  9
$DIMARCSYM
 70
     0
  9
$DIMLTYPE
  6

  9
$DIMLTEX1
  6

  9
$DIMLTEX2
  6

  9
$DIMTXTDIRECTION
 70
     0
  9
$LUNITS
 70
     2
  9
$LUPREC
 70
     4
  9
$SKETCHINC
 40
0.1
  9
$FILLETRAD
 40
0.5
  9
$AUNITS
 70
     0
  9
$AUPREC
 70
     0
  9
$MENU
  1
.
  9
$ELEVATION
 40
0.0
  9
$PELEVATION
 40
0.0
  9
$THICKNESS
 40
0.0
  9
$LIMCHECK
 70
     0
  9
$CHAMFERA
 40
0.5
  9
$CHAMFERB
 40
0.5
  9
$CHAMFERC
 40
1.0
  9
$CHAMFERD
 40
0.0
  9
$SKPOLY
 70
     0
  9
$TDCREATE
 40
2457917.595960648
  9
$TDUCREATE
 40
2457917.220960648
  9
$TDUPDATE
 40
2457917.595960648
  9
$TDUUPDATE
 40
2457917.220960648
  9
$TDINDWG
 40
0.0000000116
  9
$TDUSRTIMER
 40
0.0000000116
  9
$USRTIMER
 70
     1
  9
$ANGBASE
 50
0.0
  9
$ANGDIR
 70
     0
  9
$PDMODE
 70
     0
  9
$PDSIZE
 40
0.0
  9
$PLINEWID
 40
0.0
  9
$SPLFRAME
 70
     0
  9
$SPLINETYPE
 70
     6
  9
$SPLINESEGS
 70
     8
  9
$HANDSEED
  5
9E
  9
$SURFTAB1
 70
     6
  9
$SURFTAB2
 70
     6
  9
$SURFTYPE
 70
     6
  9
$SURFU
 70
     6
  9
$SURFV
 70
     6
  9
$UCSBASE
  2

  9
$UCSNAME
  2

  9
$UCSORG
 10
0.0
 20
0.0
 30
0.0
  9
$UCSXDIR
 10
1.0
 20
0.0
 30
0.0
  9
$UCSYDIR
 10
0.0
 20
1.0
 30
0.0
  9
$UCSORTHOREF
  2

  9
$UCSORTHOVIEW
 70
     0
  9
$UCSORGTOP
 10
0.0
 20
0.0
 30
0.0
  9
$UCSORGBOTTOM
 10
0.0
 20
0.0
 30
0.0
  9
$UCSORGLEFT
 10
0.0
 20
0.0
 30
0.0
  9
$UCSORGRIGHT
 10
0.0
 20
0.0
 30
0.0
  9
$UCSORGFRONT
 10
0.0
 20
0.0
 30
0.0
  9
$UCSORGBACK
 10
0.0
 20
0.0
 30
0.0
  9
$PUCSBASE
  2

  9
$PUCSNAME
  2

  9
$PUCSORG
 10
0.0
 20
0.0
 30
0.0
  9
$PUCSXDIR
 10
1.0
 20
0.0
 30
0.0
  9
$PUCSYDIR
 10
0.0
 20
1.0
 30
0.0
  9
$PUCSORTHOREF
  2

  9
$PUCSORTHOVIEW
 70
     0
  9
$PUCSORGTOP
 10
0.0
 20
0.0
 30
0.0
  9
$PUCSORGBOTTOM
 10
0.0
 20
0.0
 30
0.0
  9
$PUCSORGLEFT
 10
0.0
 20
0.0
 30
0.0
  9
$PUCSORGRIGHT
 10
0.0
 20
0.0
 30
0.0
  9
$PUCSORGFRONT
 10
0.0
 20
0.0
 30
0.0
  9
$PUCSORGBACK
 10
0.0
 20
0.0
 30
0.0
  9
$USERI1
 70
     0
  9
$USERI2
 70
     0
  9
$USERI3
 70
     0
  9
$USERI4
 70
     0
  9
$USERI5
 70
     0
  9
$USERR1
 40
0.0
  9
$USERR2
 40
0.0
  9
$USERR3
 40
0.0
  9
$USERR4
 40
0.0
  9
$USERR5
 40
0.0
  9
$WORLDVIEW
 70
     1
  9
$SHADEDGE
 70
     3
  9
$SHADEDIF
 70
    70
  9
$TILEMODE
 70
     1
  9
$MAXACTVP
 70
    64
  9
$PINSBASE
 10
0.0
 20
0.0
 30
0.0
  9
$PLIMCHECK
 70
     0
  9
$PEXTMIN
 10
1.000000000000000E+20
 20
1.000000000000000E+20
 30
1.000000000000000E+20
  9
$PEXTMAX
 10
-1.000000000000000E+20
 20
-1.000000000000000E+20
 30
-1.000000000000000E+20
  9
$PLIMMIN
 10
0.0
 20
0.0
  9
$PLIMMAX
 10
12.0
 20
9.0
  9
$UNITMODE
 70
     0
  9
$VISRETAIN
 70
     1
  9
$PLINEGEN
 70
     0
  9
$PSLTSCALE
 70
     1
  9
$TREEDEPTH
 70
  3020
  9
$CMLSTYLE
  2
Standard
  9
$CMLJUST
 70
     0
  9
$CMLSCALE
 40
1.0
  9
$PROXYGRAPHICS
 70
     1
  9
$MEASUREMENT
 70
     0
  9
$CELWEIGHT
370
    -1
  9
$ENDCAPS
280
     0
  9
$JOINSTYLE
280
     0
  9
$LWDISPLAY
290
     1
  9
$INSUNITS
 70
     1
  9
$HYPERLINKBASE
  1

  9
$STYLESHEET
  1

  9
$XEDIT
290
     1
  9
$CEPSNTYPE
380
     0
  9
$PSTYLEMODE
290
     1
  9
$FINGERPRINTGUID
  2
{317D6432-B106-F03A-B02E-1CDF62AF7F66}
  9
$VERSIONGUID
  2
{FAEB1C32-E019-11D5-929B-00C0DF256EC4}
  9
$EXTNAMES
290
     1
  9
$PSVPSCALE
 40
0.0
  9
$OLESTARTUP
290
     0
  9
$SORTENTS
280
   127
  9
$INDEXCTL
280
     0
  9
$HIDETEXT
280
     1
  9
$XCLIPFRAME
280
     2
  9
$HALOGAP
280
     0
  9
$OBSCOLOR
 70
   257
  9
$OBSLTYPE
280
     0
  9
$INTERSECTIONDISPLAY
280
     0
  9
$INTERSECTIONCOLOR
 70
   257
  9
$DIMASSOC
280
     2
  9
$PROJECTNAME
  1

  9
$CAMERADISPLAY
290
     0
  9
$LENSLENGTH
 40
50.0
  9
$CAMERAHEIGHT
 40
0.0
  9
$STEPSPERSEC
 40
2.0
  9
$STEPSIZE
 40
6.0
  9
$3DDWFPREC
 40
2.0
  9
$PSOLWIDTH
 40
0.25
  9
$PSOLHEIGHT
 40
4.0
  9
$LOFTANG1
 40
1.570796326794897
  9
$LOFTANG2
 40
1.570796326794897
  9
$LOFTMAG1
 40
0.0
  9
$LOFTMAG2
 40
0.0
  9
$LOFTPARAM
 70
     7
  9
$LOFTNORMALS
280
     1
  9
$LATITUDE
 40
37.795
  9
$LONGITUDE
 40
-122.394
  9
$NORTHDIRECTION
 40
0.0
  9
$TIMEZONE
 70
 -8000
  9
$LIGHTGLYPHDISPLAY
280
     1
  9
$TILEMODELIGHTSYNCH
280
     1
  9
$CMATERIAL
347
3C
  9
$SOLIDHIST
280
     1
  9
$SHOWHIST
280
     1
  9
$DWFFRAME
280
     2
  9
$DGNFRAME
280
     2
  9
$REALWORLDSCALE
290
     1
  9
$INTERFERECOLOR
 62
   256
  9
$CSHADOW
280
     0
  9
$SHADOWPLANELOCATION
 40
0.0
  0
ENDSEC
  0
SECTION
  2
CLASSES
  0
CLASS
  1
ACDBDICTIONARYWDFLT
  2
AcDbDictionaryWithDefault
  3
ObjectDBX Classes
 90
        0
 91
        4
280
     0
281
     0
  0
CLASS
  1
VISUALSTYLE
  2
AcDbVisualStyle
  3
ObjectDBX Classes
 90
     4095
 91
        4
280
     0
281
     0
  0
CLASS
  1
MATERIAL
  2
AcDbMaterial
  3
ObjectDBX Classes
 90
     1153
 91
        4
280
     0
281
     0
  0
CLASS
  1
SUN
  2
AcDbSun
  3
SCENEOE
 90
     1024
 91
        4
280
     0
281
     0
  0
ENDSEC
  0
SECTION
  2
TABLES
  0
TABLE
  2
VPORT
  5
8
330
0
100
AcDbSymbolTable
 70
     1
  0
VPORT
  5
29
330
8
100
AcDbSymbolTableRecord
100
AcDbViewportTableRecord
  2
*Active
 70
     0
 10
0.0
 20
0.0
 11
1.0
 21
1.0
 12
0.0
 22
0.0
 13
0.0
 23
0.0
 14
0.5
 24
0.5
 15
0.5
 25
0.5
 16
0.0
 26
0.0
 36
1.0
 17
91.00082462281999
 27
-128.4993055234307
 37
0.0
 40
256.9986110468615
 41
0.7081814508812795
 42
50.0
 43
0.0
 44
0.0
 50
0.0
 51
0.0
 71
     0
 72
   100
 73
     1
 74
     3
 75
     0
 76
     0
 77
     0
 78
     0
281
     0
 65
     1
110
0.0
120
0.0
130
0.0
111
1.0
121
0.0
131
0.0
112
0.0
122
1.0
132
0.0
 79
     0
146
0.0
 60
     3
 61
     5
292
     1
282
     1
141
0.0
142
0.0
 63
   250
361
3F
  0
ENDTAB
  0
TABLE
  2
LTYPE
  5
5
330
0
100
AcDbSymbolTable
 70
     1
  0
LTYPE
  5
14
330
5
100
AcDbSymbolTableRecord
100
AcDbLinetypeTableRecord
  2
ByBlock
 70
     0
  3

 72
    65
 73
     0
 40
0.0
  0
LTYPE
  5
15
330
5
100
AcDbSymbolTableRecord
100
AcDbLinetypeTableRecord
  2
ByLayer
 70
     0
  3

 72
    65
 73
     0
 40
0.0
  0
LTYPE
  5
16
330
5
100
AcDbSymbolTableRecord
100
AcDbLinetypeTableRecord
  2
Continuous
 70
     0
  3
Solid line
 72
    65
 73
     0
 40
0.0
  0
ENDTAB
  0
TABLE
  2
LAYER
  5
2
330
0
100
AcDbSymbolTable
 70
     2
  0
LAYER
  5
10
330
2
100
AcDbSymbolTableRecord
100
AcDbLayerTableRecord
  2
0
 70
     0
 62
     7
  6
Continuous
370
    -3
390
F
347
3E
  0
LAYER
  5
40
330
2
100
AcDbSymbolTableRecord
100
AcDbLayerTableRecord
  2
_U+30EC_U+30A4_U+30E4_U+30FC 1
 70
     0
 62
     7
  6
Continuous
370
    -3
390
F
347
3E
  0
ENDTAB
  0
TABLE
  2
STYLE
  5
3
330
0
100
AcDbSymbolTable
 70
     1
  0
STYLE
  5
11
330
3
100
AcDbSymbolTableRecord
100
AcDbTextStyleTableRecord
  2
Standard
 70
     0
 40
0.0
 41
1.0
 50
0.0
 71
     0
 42
0.2
  3
txt
  4

  0
ENDTAB
  0
TABLE
  2
VIEW
  5
6
330
0
100
AcDbSymbolTable
 70
     0
  0
ENDTAB
  0
TABLE
  2
UCS
  5
7
330
0
100
AcDbSymbolTable
 70
     0
  0
ENDTAB
  0
TABLE
  2
APPID
  5
9
330
0
100
AcDbSymbolTable
 70
     1
  0
APPID
  5
12
330
9
100
AcDbSymbolTableRecord
100
AcDbRegAppTableRecord
  2
ACAD
 70
     0
  0
ENDTAB
  0
TABLE
  2
DIMSTYLE
  5
A
330
0
100
AcDbSymbolTable
 70
     1
100
AcDbDimStyleTable
  0
DIMSTYLE
105
27
330
A
100
AcDbSymbolTableRecord
100
AcDbDimStyleTableRecord
  2
Standard
 70
     0
178
     0
340
11
  0
ENDTAB
  0
TABLE
  2
BLOCK_RECORD
  5
1
330
0
100
AcDbSymbolTable
 70
     5
  0
BLOCK_RECORD
  5
1F
330
1
100
AcDbSymbolTableRecord
100
AcDbBlockTableRecord
  2
*Model_Space
340
22
 70
     0
280
     1
281
     0
  0
BLOCK_RECORD
  5
1B
330
1
100
AcDbSymbolTableRecord
100
AcDbBlockTableRecord
  2
*Paper_Space
340
1E
 70
     0
280
     1
281
     0
  0
BLOCK_RECORD
  5
23
330
1
100
AcDbSymbolTableRecord
100
AcDbBlockTableRecord
  2
*Paper_Space0
340
26
 70
     0
280
     1
281
     0
  0
BLOCK_RECORD
  5
67
330
1
100
AcDbSymbolTableRecord
100
AcDbBlockTableRecord
  2
block 2
340
0
102
{BLKREFS
331
68
102
}
 70
     0
280
     1
281
     0
  0
BLOCK_RECORD
  5
6F
330
1
100
AcDbSymbolTableRecord
100
AcDbBlockTableRecord
  2
block 3
340
0
102
{BLKREFS
331
70
102
}
 70
     0
280
     1
281
     0
  0
BLOCK_RECORD
  5
76
330
1
100
AcDbSymbolTableRecord
100
AcDbBlockTableRecord
  2
block 4
340
0
102
{BLKREFS
331
77
102
}
 70
     0
280
     1
281
     0
  0
BLOCK_RECORD
  5
7C
330
1
100
AcDbSymbolTableRecord
100
AcDbBlockTableRecord
  2
block 5
340
0
102
{BLKREFS
331
7D
102
}
 70
     0
280
     1
281
     0
  0
ENDTAB
  0
ENDSEC
  0
SECTION
  2
BLOCKS
  0
BLOCK
  5
20
330
1F
100
AcDbEntity
  8
0
100
AcDbBlockBegin
  2
*Model_Space
 70
     0
 10
0.0
 20
0.0
 30
0.0
  3
*Model_Space
  1

  0
ENDBLK
  5
21
330
1F
100
AcDbEntity
  8
0
100
AcDbBlockEnd
  0
BLOCK
  5
1C
330
1B
100
AcDbEntity
 67
     1
  8
0
100
AcDbBlockBegin
  2
*Paper_Space
 70
     0
 10
0.0
 20
0.0
 30
0.0
  3
*Paper_Space
  1

  0
ENDBLK
  5
1D
330
1B
100
AcDbEntity
 67
     1
  8
0
100
AcDbBlockEnd
  0
BLOCK
  5
24
330
23
100
AcDbEntity
  8
0
100
AcDbBlockBegin
  2
*Paper_Space0
 70
     0
 10
0.0
 20
0.0
 30
0.0
  3
*Paper_Space0
  1

  0
ENDBLK
  5
25
330
23
100
AcDbEntity
  8
0
100
AcDbBlockEnd
  0
BLOCK
  5
69
330
67
100
AcDbEntity
  8
0
100
AcDbBlockBegin
  2
block 2
 70
     0
 10
0.0
 20
0.0
 30
0.0
  3
block 2
  1

  0
SPLINE
  5
6B
330
67
100
AcDbEntity
  8
_U+30EC_U+30A4_U+30E4_U+30FC 1
370
     0
100
AcDbSpline
210
0.0
220
0.0
230
1.0
 70
    11
 71
     3
 72
    44
 73
    40
 74
     0
 42
0.0000000001
 43
0.0000000001
 12
1.0
 22
0.0
 32
0.0
 13
1.0
 23
0.0
 33
0.0
 40
0.0
 40
0.0
 40
0.0
 40
0.0
 40
1.0
 40
1.0
 40
1.0
 40
2.0
 40
2.0
 40
2.0
 40
3.0
 40
3.0
 40
3.0
 40
4.0
 40
4.0
 40
4.0
 40
5.0
 40
5.0
 40
5.0
 40
6.0
 40
6.0
 40
6.0
 40
7.0
 40
7.0
 40
7.0
 40
8.0
 40
8.0
 40
8.0
 40
9.0
 40
9.0
 40
9.0
 40
10.0
 40
10.0
 40
10.0
 40
11.0
 40
11.0
 40
11.0
 40
12.0
 40
12.0
 40
12.0
 40
13.0
 40
13.0
 40
13.0
 40
13.0
 10
87.37123885619539
 20
-123.2505302968783
 30
0.0
 10
87.15333656675334
 20
-123.4091769439741
 30
0.0
 10
87.06014673387733
 20
-123.483246496907
 30
0.0
 10
87.0115708875353
 20
-123.6270792334162
 30
0.0
 10
87.0115708875353
 20
-123.6270792334162
 30
0.0
 10
87.78999021242751
 20
-123.6270792334162
 30
0.0
 10
87.78999021242751
 20
-123.6270792334162
 30
0.0
 10
87.78999021242751
 20
-123.6270792334162
 30
0.0
 10
87.78999021242751
 20
-123.8322346695628
 30
0.0
 10
87.78999021242751
 20
-123.8322346695628
 30
0.0
 10
87.78999021242751
 20
-123.8322346695628
 30
0.0
 10
86.76197371962895
 20
-123.8322346695628
 30
0.0
 10
86.76197371962895
 20
-123.8322346695628
 30
0.0
 10
86.79366859809325
 20
-123.4746337581938
 30
0.0
 10
86.859125412313
 20
-123.3964300906787
 30
0.0
 10
87.24428708756393
 20
-123.098084821656
 30
0.0
 10
87.50025768211799
 20
-122.8993028121571
 30
0.0
 10
87.56571449633775
 20
-122.831606685872
 30
0.0
 10
87.56571449633775
 20
-122.6941473760105
 30
0.0
 10
87.56571449633775
 20
-122.5756360913179
 30
0.0
 10
87.49388425547028
 20
-122.4445502081041
 30
0.0
 10
87.29716930326252
 20
-122.4445502081041
 30
0.0
 10
87.0368923393519
 20
-122.4445502081041
 30
0.0
 10
87.02845185541302
 20
-122.6750270960674
 30
0.0
 10
87.02414548605647
 20
-122.7914713234688
 30
0.0
 10
87.02414548605647
 20
-122.7914713234688
 30
0.0
 10
86.80004202474096
 20
-122.7914713234688
 30
0.0
 10
86.80004202474096
 20
-122.7914713234688
 30
0.0
 10
86.80848250867983
 20
-122.6645195548374
 30
0.0
 10
86.81899004990984
 20
-122.5523816967925
 30
0.0
 10
86.89943302949042
 20
-122.4338704120999
 30
0.0
 10
87.00933157546989
 20
-122.273156707713
 30
0.0
 10
87.19553898644764
 20
-122.2392225171833
 30
0.0
 10
87.31198321384909
 20
-122.2392225171833
 30
0.0
 10
87.58914114563744
 20
-122.2392225171833
 30
0.0
 10
87.79636363907522
 20
-122.4233628708699
 30
0.0
 10
87.79636363907522
 20
-122.6962144333016
 30
0.0
 10
87.79636363907522
 20
-122.9246242639737
 30
0.0
 10
87.68009166644804
 20
-123.0241875234974
 30
0.0
 10
87.37123885619539
 20
-123.2505302968783
 30
0.0
  0
HATCH
  5
6C
330
67
100
AcDbEntity
  8
_U+30EC_U+30A4_U+30E4_U+30FC 1
 62
     7
420
 16777215
100
AcDbHatch
 10
0.0
 20
0.0
 30
0.0
210
0.0
220
0.0
230
1.0
  2
SOLID
 70
     1
 71
     0
 91
        1
 92
        1
 93
        1
 72
     4
 94
        3
 73
     0
 74
     1
 95
       44
 96
       40
 40
0.0
 40
0.0
 40
0.0
 40
0.0
 40
1.0
 40
1.0
 40
1.0
 40
2.0
 40
2.0
 40
2.0
 40
3.0
 40
3.0
 40
3.0
 40
4.0
 40
4.0
 40
4.0
 40
5.0
 40
5.0
 40
5.0
 40
6.0
 40
6.0
 40
6.0
 40
7.0
 40
7.0
 40
7.0
 40
8.0
 40
8.0
 40
8.0
 40
9.0
 40
9.0
 40
9.0
 40
10.0
 40
10.0
 40
10.0
 40
11.0
 40
11.0
 40
11.0
 40
12.0
 40
12.0
 40
12.0
 40
13.0
 40
13.0
 40
13.0
 40
13.0
 10
87.37123885619539
 20
-123.2505302968783
 10
87.15333656675334
 20
-123.4091769439741
 10
87.06014673387733
 20
-123.483246496907
 10
87.0115708875353
 20
-123.6270792334162
 10
87.0115708875353
 20
-123.6270792334162
 10
87.78999021242751
 20
-123.6270792334162
 10
87.78999021242751
 20
-123.6270792334162
 10
87.78999021242751
 20
-123.6270792334162
 10
87.78999021242751
 20
-123.8322346695628
 10
87.78999021242751
 20
-123.8322346695628
 10
87.78999021242751
 20
-123.8322346695628
 10
86.76197371962895
 20
-123.8322346695628
 10
86.76197371962895
 20
-123.8322346695628
 10
86.79366859809325
 20
-123.4746337581938
 10
86.859125412313
 20
-123.3964300906787
 10
87.24428708756393
 20
-123.098084821656
 10
87.50025768211799
 20
-122.8993028121571
 10
87.56571449633775
 20
-122.831606685872
 10
87.56571449633775
 20
-122.6941473760105
 10
87.56571449633775
 20
-122.5756360913179
 10
87.49388425547028
 20
-122.4445502081041
 10
87.29716930326252
 20
-122.4445502081041
 10
87.0368923393519
 20
-122.4445502081041
 10
87.02845185541302
 20
-122.6750270960674
 10
87.02414548605647
 20
-122.7914713234688
 10
87.02414548605647
 20
-122.7914713234688
 10
86.80004202474096
 20
-122.7914713234688
 10
86.80004202474096
 20
-122.7914713234688
 10
86.80848250867983
 20
-122.6645195548374
 10
86.81899004990984
 20
-122.5523816967925
 10
86.89943302949042
 20
-122.4338704120999
 10
87.00933157546989
 20
-122.273156707713
 10
87.19553898644764
 20
-122.2392225171833
 10
87.31198321384909
 20
-122.2392225171833
 10
87.58914114563744
 20
-122.2392225171833
 10
87.79636363907522
 20
-122.4233628708699
 10
87.79636363907522
 20
-122.6962144333016
 10
87.79636363907522
 20
-122.9246242639737
 10
87.68009166644804
 20
-123.0241875234974
 10
87.37123885619539
 20
-123.2505302968783
 97
        0
 97
        0
 75
     2
 76
     1
 98
        0
  0
SPLINE
  5
6D
330
67
100
AcDbEntity
  8
_U+30EC_U+30A4_U+30E4_U+30FC 1
370
     0
100
AcDbSpline
210
0.0
220
0.0
230
1.0
 70
    11
 71
     3
 72
    53
 73
    49
 74
     0
 42
0.0000000001
 43
0.0000000001
 12
1.0
 22
0.0
 32
0.0
 13
1.0
 23
0.0
 33
0.0
 40
0.0
 40
0.0
 40
0.0
 40
0.0
 40
1.0
 40
1.0
 40
1.0
 40
2.0
 40
2.0
 40
2.0
 40
3.0
 40
3.0
 40
3.0
 40
4.0
 40
4.0
 40
4.0
 40
5.0
 40
5.0
 40
5.0
 40
6.0
 40
6.0
 40
6.0
 40
7.0
 40
7.0
 40
7.0
 40
8.0
 40
8.0
 40
8.0
 40
9.0
 40
9.0
 40
9.0
 40
10.0
 40
10.0
 40
10.0
 40
11.0
 40
11.0
 40
11.0
 40
12.0
 40
12.0
 40
12.0
 40
13.0
 40
13.0
 40
13.0
 40
14.0
 40
14.0
 40
14.0
 40
15.0
 40
15.0
 40
15.0
 40
16.0
 40
16.0
 40
16.0
 40
16.0
 10
88.43594561591185
 20
-123.8830498279702
 30
0.0
 10
88.35774194839668
 20
-123.8830498279702
 30
0.0
 10
88.2561116315818
 20
-123.8659966053182
 30
0.0
 10
88.15448131476694
 20
-123.8026068483896
 30
0.0
 10
87.98102075708461
 20
-123.6925360476359
 30
0.0
 10
87.95983341985033
 20
-123.5614501644221
 30
0.0
 10
87.94088539468144
 20
-123.4536186757338
 30
0.0
 10
87.94088539468144
 20
-123.4536186757338
 30
0.0
 10
88.16309405348007
 20
-123.4536186757338
 30
0.0
 10
88.16309405348007
 20
-123.4536186757338
 30
0.0
 10
88.21787107169554
 20
-123.6524006852327
 30
0.0
 10
88.34499509510125
 20
-123.6820285064059
 30
0.0
 10
88.438012673203
 20
-123.6820285064059
 30
0.0
 10
88.57753904035562
 20
-123.6820285064059
 30
0.0
 10
88.72981226080366
 20
-123.5826375016564
 30
0.0
 10
88.72981226080366
 20
-123.3499213016278
 30
0.0
 10
88.72981226080366
 20
-123.0939507070737
 30
0.0
 10
88.54997827647362
 20
-123.0241875234974
 30
0.0
 10
88.42939993448988
 20
-123.0241875234974
 30
0.0
 10
88.39770505602557
 20
-123.0241875234974
 30
0.0
 10
88.2561116315818
 20
-123.0241875234974
 30
0.0
 10
88.16722816806237
 20
-123.15320634942
 30
0.0
 10
88.16722816806237
 20
-123.15320634942
 30
0.0
 10
87.99170055308889
 20
-123.1340860694769
 30
0.0
 10
87.99170055308889
 20
-123.1340860694769
 30
0.0
 10
87.99170055308889
 20
-123.1340860694769
 30
0.0
 10
88.11210664029836
 20
-122.2879706182995
 30
0.0
 10
88.11210664029836
 20
-122.2879706182995
 30
0.0
 10
88.11210664029836
 20
-122.2879706182995
 30
0.0
 10
88.89069821996483
 20
-122.2879706182995
 30
0.0
 10
88.89069821996483
 20
-122.2879706182995
 30
0.0
 10
88.89069821996483
 20
-122.2879706182995
 30
0.0
 10
88.89069821996483
 20
-122.4826185132162
 30
0.0
 10
88.89069821996483
 20
-122.4826185132162
 30
0.0
 10
88.89069821996483
 20
-122.4826185132162
 30
0.0
 10
88.27505965675068
 20
-122.4826185132162
 30
0.0
 10
88.27505965675068
 20
-122.4826185132162
 30
0.0
 10
88.27505965675068
 20
-122.4826185132162
 30
0.0
 10
88.20960284253094
 20
-122.9056762388048
 30
0.0
 10
88.20960284253094
 20
-122.9056762388048
 30
0.0
 10
88.27092554216838
 20
-122.8717420482751
 30
0.0
 10
88.35326332426585
 20
-122.831606685872
 30
0.0
 10
88.47177460895846
 20
-122.831606685872
 30
0.0
 10
88.72567814622136
 20
-122.831606685872
 30
0.0
 10
88.96270071560654
 20
-123.0178140968497
 30
0.0
 10
88.96270071560654
 20
-123.3308010216847
 30
0.0
 10
88.96270071560654
 20
-123.6482665706504
 30
0.0
 10
88.73842499951678
 20
-123.8830498279702
 30
0.0
 10
88.43594561591185
 20
-123.8830498279702
 30
0.0
  0
HATCH
  5
6E
330
67
100
AcDbEntity
  8
_U+30EC_U+30A4_U+30E4_U+30FC 1
 62
     7
420
 16777215
100
AcDbHatch
 10
0.0
 20
0.0
 30
0.0
210
0.0
220
0.0
230
1.0
  2
SOLID
 70
     1
 71
     0
 91
        1
 92
        1
 93
        1
 72
     4
 94
        3
 73
     0
 74
     1
 95
       53
 96
       49
 40
0.0
 40
0.0
 40
0.0
 40
0.0
 40
1.0
 40
1.0
 40
1.0
 40
2.0
 40
2.0
 40
2.0
 40
3.0
 40
3.0
 40
3.0
 40
4.0
 40
4.0
 40
4.0
 40
5.0
 40
5.0
 40
5.0
 40
6.0
 40
6.0
 40
6.0
 40
7.0
 40
7.0
 40
7.0
 40
8.0
 40
8.0
 40
8.0
 40
9.0
 40
9.0
 40
9.0
 40
10.0
 40
10.0
 40
10.0
 40
11.0
 40
11.0
 40
11.0
 40
12.0
 40
12.0
 40
12.0
 40
13.0
 40
13.0
 40
13.0
 40
14.0
 40
14.0
 40
14.0
 40
15.0
 40
15.0
 40
15.0
 40
16.0
 40
16.0
 40
16.0
 40
16.0
 10
88.43594561591185
 20
-123.8830498279702
 10
88.35774194839668
 20
-123.8830498279702
 10
88.2561116315818
 20
-123.8659966053182
 10
88.15448131476694
 20
-123.8026068483896
 10
87.98102075708461
 20
-123.6925360476359
 10
87.95983341985033
 20
-123.5614501644221
 10
87.94088539468144
 20
-123.4536186757338
 10
87.94088539468144
 20
-123.4536186757338
 10
88.16309405348007
 20
-123.4536186757338
 10
88.16309405348007
 20
-123.4536186757338
 10
88.21787107169554
 20
-123.6524006852327
 10
88.34499509510125
 20
-123.6820285064059
 10
88.438012673203
 20
-123.6820285064059
 10
88.57753904035562
 20
-123.6820285064059
 10
88.72981226080366
 20
-123.5826375016564
 10
88.72981226080366
 20
-123.3499213016278
 10
88.72981226080366
 20
-123.0939507070737
 10
88.54997827647362
 20
-123.0241875234974
 10
88.42939993448988
 20
-123.0241875234974
 10
88.39770505602557
 20
-123.0241875234974
 10
88.2561116315818
 20
-123.0241875234974
 10
88.16722816806237
 20
-123.15320634942
 10
88.16722816806237
 20
-123.15320634942
 10
87.99170055308889
 20
-123.1340860694769
 10
87.99170055308889
 20
-123.1340860694769
 10
87.99170055308889
 20
-123.1340860694769
 10
88.11210664029836
 20
-122.2879706182995
 10
88.11210664029836
 20
-122.2879706182995
 10
88.11210664029836
 20
-122.2879706182995
 10
88.89069821996483
 20
-122.2879706182995
 10
88.89069821996483
 20
-122.2879706182995
 10
88.89069821996483
 20
-122.2879706182995
 10
88.89069821996483
 20
-122.4826185132162
 10
88.89069821996483
 20
-122.4826185132162
 10
88.89069821996483
 20
-122.4826185132162
 10
88.27505965675068
 20
-122.4826185132162
 10
88.27505965675068
 20
-122.4826185132162
 10
88.27505965675068
 20
-122.4826185132162
 10
88.20960284253094
 20
-122.9056762388048
 10
88.20960284253094
 20
-122.9056762388048
 10
88.27092554216838
 20
-122.8717420482751
 10
88.35326332426585
 20
-122.831606685872
 10
88.47177460895846
 20
-122.831606685872
 10
88.72567814622136
 20
-122.831606685872
 10
88.96270071560654
 20
-123.0178140968497
 10
88.96270071560654
 20
-123.3308010216847
 10
88.96270071560654
 20
-123.6482665706504
 10
88.73842499951678
 20
-123.8830498279702
 10
88.43594561591185
 20
-123.8830498279702
 97
        0
 97
        0
 75
     2
 76
     1
 98
        0
  0
ENDBLK
  5
6A
330
67
100
AcDbEntity
  8
0
100
AcDbBlockEnd
  0
BLOCK
  5
71
330
6F
100
AcDbEntity
  8
0
100
AcDbBlockBegin
  2
block 3
 70
     0
 10
0.0
 20
0.0
 30
0.0
  3
block 3
  1

  0
SPLINE
  5
73
330
6F
100
AcDbEntity
  8
_U+30EC_U+30A4_U+30E4_U+30FC 1
370
     0
100
AcDbSpline
210
0.0
220
0.0
230
1.0
 70
    11
 71
     3
 72
    32
 73
    28
 74
     0
 42
0.0000000001
 43
0.0000000001
 12
1.0
 22
0.0
 32
0.0
 13
1.0
 23
0.0
 33
0.0
 40
0.0
 40
0.0
 40
0.0
 40
0.0
 40
1.0
 40
1.0
 40
1.0
 40
2.0
 40
2.0
 40
2.0
 40
3.0
 40
3.0
 40
3.0
 40
4.0
 40
4.0
 40
4.0
 40
5.0
 40
5.0
 40
5.0
 40
6.0
 40
6.0
 40
6.0
 40
7.0
 40
7.0
 40
7.0
 40
8.0
 40
8.0
 40
8.0
 40
9.0
 40
9.0
 40
9.0
 40
9.0
 10
87.87077770155662
 20
-134.8827229480502
 30
0.0
 10
87.35453014309192
 20
-134.8827229480502
 30
0.0
 10
87.34608965915307
 20
-134.328751594022
 30
0.0
 10
87.34608965915307
 20
-134.114811164388
 30
0.0
 10
87.34608965915307
 20
-133.8843342764248
 30
0.0
 10
87.3652099390962
 20
-133.2370008347463
 30
0.0
 10
87.90884600666863
 20
-133.2370008347463
 30
0.0
 10
88.08213430957669
 20
-133.2370008347463
 30
0.0
 10
88.327769617675
 20
-133.3069362730969
 30
0.0
 10
88.36566566801275
 20
-133.639043477875
 30
0.0
 10
88.36566566801275
 20
-133.639043477875
 30
0.0
 10
88.15206974792727
 20
-133.639043477875
 30
0.0
 10
88.15206974792727
 20
-133.639043477875
 30
0.0
 10
88.14138995192299
 20
-133.5818548928198
 30
0.0
 10
88.1096950734587
 20
-133.4337157869541
 30
0.0
 10
87.90677894937748
 20
-133.4337157869541
 30
0.0
 10
87.61480710700255
 20
-133.4337157869541
 30
0.0
 10
87.57449948982513
 20
-133.7616888771499
 30
0.0
 10
87.56192489130397
 20
-133.9666720585222
 30
0.0
 10
87.65494246940571
 20
-133.8884683910071
 30
0.0
 10
87.72263859569087
 20
-133.8292127486608
 30
0.0
 10
87.90453963731207
 20
-133.8292127486608
 30
0.0
 10
88.08454587641637
 20
-133.8292127486608
 30
0.0
 10
88.3870252600213
 20
-133.9373887468976
 30
0.0
 10
88.3870252600213
 20
-134.3435655046086
 30
0.0
 10
88.3870252600213
 20
-134.6629258560912
 30
0.0
 10
88.18789874097386
 20
-134.8827229480502
 30
0.0
 10
87.87077770155662
 20
-134.8827229480502
 30
0.0
  0
SPLINE
  5
74
330
6F
100
AcDbEntity
  8
_U+30EC_U+30A4_U+30E4_U+30FC 1
370
     0
100
AcDbSpline
210
0.0
220
0.0
230
1.0
 70
    11
 71
     3
 72
    17
 73
    13
 74
     0
 42
0.0000000001
 43
0.0000000001
 12
1.0
 22
0.0
 32
0.0
 13
1.0
 23
0.0
 33
0.0
 40
0.0
 40
0.0
 40
0.0
 40
0.0
 40
1.0
 40
1.0
 40
1.0
 40
2.0
 40
2.0
 40
2.0
 40
3.0
 40
3.0
 40
3.0
 40
4.0
 40
4.0
 40
4.0
 40
4.0
 10
87.88765866943434
 20
-134.0238606435774
 30
0.0
 10
87.62531464823256
 20
-134.0238606435774
 30
0.0
 10
87.58724634312055
 20
-134.2353895063717
 30
0.0
 10
87.58724634312055
 20
-134.3518337337732
 30
0.0
 10
87.58724634312055
 20
-134.5275336035209
 30
0.0
 10
87.68250323328772
 20
-134.6904866199732
 30
0.0
 10
87.86647133220005
 20
-134.6904866199732
 30
0.0
 10
87.9870496741838
 20
-134.6904866199732
 30
0.0
 10
88.16274954393154
 20
-134.6312309776269
 30
0.0
 10
88.16274954393154
 20
-134.3456325618997
 30
0.0
 10
88.16274954393154
 20
-134.1213568458099
 30
0.0
 10
88.0228786672304
 20
-134.0238606435774
 30
0.0
 10
87.88765866943434
 20
-134.0238606435774
 30
0.0
  0
HATCH
  5
75
330
6F
100
AcDbEntity
  8
_U+30EC_U+30A4_U+30E4_U+30FC 1
 62
     7
420
 16777215
100
AcDbHatch
 10
0.0
 20
0.0
 30
0.0
210
0.0
220
0.0
230
1.0
  2
SOLID
 70
     1
 71
     0
 91
        2
 92
        1
 93
        1
 72
     4
 94
        3
 73
     0
 74
     1
 95
       32
 96
       28
 40
0.0
 40
0.0
 40
0.0
 40
0.0
 40
1.0
 40
1.0
 40
1.0
 40
2.0
 40
2.0
 40
2.0
 40
3.0
 40
3.0
 40
3.0
 40
4.0
 40
4.0
 40
4.0
 40
5.0
 40
5.0
 40
5.0
 40
6.0
 40
6.0
 40
6.0
 40
7.0
 40
7.0
 40
7.0
 40
8.0
 40
8.0
 40
8.0
 40
9.0
 40
9.0
 40
9.0
 40
9.0
 10
87.87077770155662
 20
-134.8827229480502
 10
87.35453014309192
 20
-134.8827229480502
 10
87.34608965915307
 20
-134.328751594022
 10
87.34608965915307
 20
-134.114811164388
 10
87.34608965915307
 20
-133.8843342764248
 10
87.3652099390962
 20
-133.2370008347463
 10
87.90884600666863
 20
-133.2370008347463
 10
88.08213430957669
 20
-133.2370008347463
 10
88.327769617675
 20
-133.3069362730969
 10
88.36566566801275
 20
-133.639043477875
 10
88.36566566801275
 20
-133.639043477875
 10
88.15206974792727
 20
-133.639043477875
 10
88.15206974792727
 20
-133.639043477875
 10
88.14138995192299
 20
-133.5818548928198
 10
88.1096950734587
 20
-133.4337157869541
 10
87.90677894937748
 20
-133.4337157869541
 10
87.61480710700255
 20
-133.4337157869541
 10
87.57449948982513
 20
-133.7616888771499
 10
87.56192489130397
 20
-133.9666720585222
 10
87.65494246940571
 20
-133.8884683910071
 10
87.72263859569087
 20
-133.8292127486608
 10
87.90453963731207
 20
-133.8292127486608
 10
88.08454587641637
 20
-133.8292127486608
 10
88.3870252600213
 20
-133.9373887468976
 10
88.3870252600213
 20
-134.3435655046086
 10
88.3870252600213
 20
-134.6629258560912
 10
88.18789874097386
 20
-134.8827229480502
 10
87.87077770155662
 20
-134.8827229480502
 97
        0
 97
        0
 92
        1
 93
        1
 72
     4
 94
        3
 73
     0
 74
     1
 95
       17
 96
       13
 40
0.0
 40
0.0
 40
0.0
 40
0.0
 40
1.0
 40
1.0
 40
1.0
 40
2.0
 40
2.0
 40
2.0
 40
3.0
 40
3.0
 40
3.0
 40
4.0
 40
4.0
 40
4.0
 40
4.0
 10
87.88765866943434
 20
-134.0238606435774
 10
87.62531464823256
 20
-134.0238606435774
 10
87.58724634312055
 20
-134.2353895063717
 10
87.58724634312055
 20
-134.3518337337732
 10
87.58724634312055
 20
-134.5275336035209
 10
87.68250323328772
 20
-134.6904866199732
 10
87.86647133220005
 20
-134.6904866199732
 10
87.9870496741838
 20
-134.6904866199732
 10
88.16274954393154
 20
-134.6312309776269
 10
88.16274954393154
 20
-134.3456325618997
 10
88.16274954393154
 20
-134.1213568458099
 10
88.0228786672304
 20
-134.0238606435774
 10
87.88765866943434
 20
-134.0238606435774
 97
        0
 97
        0
 75
     2
 76
     1
 98
        0
  0
ENDBLK
  5
72
330
6F
100
AcDbEntity
  8
0
100
AcDbBlockEnd
  0
BLOCK
  5
78
330
76
100
AcDbEntity
  8
0
100
AcDbBlockBegin
  2
block 4
 70
     0
 10
0.0
 20
0.0
 30
0.0
  3
block 4
  1

  0
SPLINE
  5
7A
330
76
100
AcDbEntity
  8
_U+30EC_U+30A4_U+30E4_U+30FC 1
370
     0
100
AcDbSpline
210
0.0
220
0.0
230
1.0
 70
    11
 71
     3
 72
    62
 73
    58
 74
     0
 42
0.0000000001
 43
0.0000000001
 12
1.0
 22
0.0
 32
0.0
 13
1.0
 23
0.0
 33
0.0
 40
0.0
 40
0.0
 40
0.0
 40
0.0
 40
1.0
 40
1.0
 40
1.0
 40
2.0
 40
2.0
 40
2.0
 40
3.0
 40
3.0
 40
3.0
 40
4.0
 40
4.0
 40
4.0
 40
5.0
 40
5.0
 40
5.0
 40
6.0
 40
6.0
 40
6.0
 40
7.0
 40
7.0
 40
7.0
 40
8.0
 40
8.0
 40
8.0
 40
9.0
 40
9.0
 40
9.0
 40
10.0
 40
10.0
 40
10.0
 40
11.0
 40
11.0
 40
11.0
 40
12.0
 40
12.0
 40
12.0
 40
13.0
 40
13.0
 40
13.0
 40
14.0
 40
14.0
 40
14.0
 40
15.0
 40
15.0
 40
15.0
 40
16.0
 40
16.0
 40
16.0
 40
17.0
 40
17.0
 40
17.0
 40
18.0
 40
18.0
 40
18.0
 40
19.0
 40
19.0
 40
19.0
 40
19.0
 10
94.27159285837655
 20
-129.9868977539616
 30
0.0
 10
94.27159285837655
 20
-130.082326898903
 30
0.0
 10
94.25057777591653
 20
-130.3000569335708
 30
0.0
 10
94.06454261971304
 20
-130.4251138996854
 30
0.0
 10
93.95223250689389
 20
-130.4988389430697
 30
0.0
 10
93.8530137569187
 20
-130.5033175672006
 30
0.0
 10
93.76826440798155
 20
-130.5074516817829
 30
0.0
 10
93.76826440798155
 20
-130.5074516817829
 30
0.0
 10
93.76826440798155
 20
-130.2873100802754
 30
0.0
 10
93.76826440798155
 20
-130.2873100802754
 30
0.0
 10
93.84233396091442
 20
-130.2852430229842
 30
0.0
 10
94.07694496345994
 20
-130.2749077365285
 30
0.0
 10
94.07694496345994
 20
-129.9913763780924
 30
0.0
 10
94.07694496345994
 20
-129.853917068231
 30
0.0
 10
94.0073540346579
 20
-129.7012993382344
 30
0.0
 10
93.77894420398583
 20
-129.7012993382344
 30
0.0
 10
93.66249997658439
 20
-129.7012993382344
 30
0.0
 10
93.61392413024235
 20
-129.7395398981207
 30
0.0
 10
93.58222925177806
 20
-129.771234776585
 30
0.0
 10
93.50815969884519
 20
-129.8453043295179
 30
0.0
 10
93.49541284554977
 20
-129.9617485569193
 30
0.0
 10
93.49541284554977
 20
-130.0165255751348
 30
0.0
 10
93.49541284554977
 20
-130.0358181098522
 30
0.0
 10
93.49747990284091
 20
-130.0716471028988
 30
0.0
 10
93.50161401742321
 20
-130.0992078667808
 30
0.0
 10
93.50161401742321
 20
-130.0992078667808
 30
0.0
 10
93.3069661225066
 20
-130.0992078667808
 30
0.0
 10
93.3069661225066
 20
-130.0992078667808
 30
0.0
 10
93.31351180392858
 20
-130.0609673068945
 30
0.0
 10
93.31557886121972
 20
-130.0189371419744
 30
0.0
 10
93.31557886121972
 20
-130.0123914605525
 30
0.0
 10
93.31557886121972
 20
-129.9469346463327
 30
0.0
 10
93.29421926921117
 20
-129.7481526368338
 30
0.0
 10
93.0575412093745
 20
-129.7481526368338
 30
0.0
 10
92.87977428233562
 20
-129.7481526368338
 30
0.0
 10
92.82465275457162
 20
-129.8790662652733
 30
0.0
 10
92.82465275457162
 20
-129.9893093208013
 30
0.0
 10
92.82465275457162
 20
-130.25354814452
 30
0.0
 10
93.0575412093745
 20
-130.2621608832331
 30
0.0
 10
93.1291991954677
 20
-130.2662949978154
 30
0.0
 10
93.1291991954677
 20
-130.2662949978154
 30
0.0
 10
93.1291991954677
 20
-130.4695556314451
 30
0.0
 10
93.1291991954677
 20
-130.4695556314451
 30
0.0
 10
93.00448673890166
 20
-130.460942892732
 30
0.0
 10
92.62793780236386
 20
-130.43338212885
 30
0.0
 10
92.62793780236386
 20
-129.9765624675059
 30
0.0
 10
92.62793780236386
 20
-129.7522867514161
 30
0.0
 10
92.75506182576957
 20
-129.5111300674486
 30
0.0
 10
93.05099552795254
 20
-129.5111300674486
 30
0.0
 10
93.23737519370455
 20
-129.5111300674486
 30
0.0
 10
93.31971297580202
 20
-129.6062147028415
 30
0.0
 10
93.38103567543946
 20
-129.7057779623652
 30
0.0
 10
93.40859643932147
 20
-129.6444552627278
 30
0.0
 10
93.48886716412778
 20
-129.4625542211066
 30
0.0
 10
93.7661973506904
 20
-129.4625542211066
 30
0.0
 10
94.10450572734193
 20
-129.4625542211066
 30
0.0
 10
94.27159285837655
 20
-129.7099120769475
 30
0.0
 10
94.27159285837655
 20
-129.9868977539616
 30
0.0
  0
HATCH
  5
7B
330
76
100
AcDbEntity
  8
_U+30EC_U+30A4_U+30E4_U+30FC 1
 62
     7
420
 16777215
100
AcDbHatch
 10
0.0
 20
0.0
 30
0.0
210
0.0
220
0.0
230
1.0
  2
SOLID
 70
     1
 71
     0
 91
        1
 92
        1
 93
        1
 72
     4
 94
        3
 73
     0
 74
     1
 95
       62
 96
       58
 40
0.0
 40
0.0
 40
0.0
 40
0.0
 40
1.0
 40
1.0
 40
1.0
 40
2.0
 40
2.0
 40
2.0
 40
3.0
 40
3.0
 40
3.0
 40
4.0
 40
4.0
 40
4.0
 40
5.0
 40
5.0
 40
5.0
 40
6.0
 40
6.0
 40
6.0
 40
7.0
 40
7.0
 40
7.0
 40
8.0
 40
8.0
 40
8.0
 40
9.0
 40
9.0
 40
9.0
 40
10.0
 40
10.0
 40
10.0
 40
11.0
 40
11.0
 40
11.0
 40
12.0
 40
12.0
 40
12.0
 40
13.0
 40
13.0
 40
13.0
 40
14.0
 40
14.0
 40
14.0
 40
15.0
 40
15.0
 40
15.0
 40
16.0
 40
16.0
 40
16.0
 40
17.0
 40
17.0
 40
17.0
 40
18.0
 40
18.0
 40
18.0
 40
19.0
 40
19.0
 40
19.0
 40
19.0
 10
94.27159285837655
 20
-129.9868977539616
 10
94.27159285837655
 20
-130.082326898903
 10
94.25057777591653
 20
-130.3000569335708
 10
94.06454261971304
 20
-130.4251138996854
 10
93.95223250689389
 20
-130.4988389430697
 10
93.8530137569187
 20
-130.5033175672006
 10
93.76826440798155
 20
-130.5074516817829
 10
93.76826440798155
 20
-130.5074516817829
 10
93.76826440798155
 20
-130.2873100802754
 10
93.76826440798155
 20
-130.2873100802754
 10
93.84233396091442
 20
-130.2852430229842
 10
94.07694496345994
 20
-130.2749077365285
 10
94.07694496345994
 20
-129.9913763780924
 10
94.07694496345994
 20
-129.853917068231
 10
94.0073540346579
 20
-129.7012993382344
 10
93.77894420398583
 20
-129.7012993382344
 10
93.66249997658439
 20
-129.7012993382344
 10
93.61392413024235
 20
-129.7395398981207
 10
93.58222925177806
 20
-129.771234776585
 10
93.50815969884519
 20
-129.8453043295179
 10
93.49541284554977
 20
-129.9617485569193
 10
93.49541284554977
 20
-130.0165255751348
 10
93.49541284554977
 20
-130.0358181098522
 10
93.49747990284091
 20
-130.0716471028988
 10
93.50161401742321
 20
-130.0992078667808
 10
93.50161401742321
 20
-130.0992078667808
 10
93.3069661225066
 20
-130.0992078667808
 10
93.3069661225066
 20
-130.0992078667808
 10
93.31351180392858
 20
-130.0609673068945
 10
93.31557886121972
 20
-130.0189371419744
 10
93.31557886121972
 20
-130.0123914605525
 10
93.31557886121972
 20
-129.9469346463327
 10
93.29421926921117
 20
-129.7481526368338
 10
93.0575412093745
 20
-129.7481526368338
 10
92.87977428233562
 20
-129.7481526368338
 10
92.82465275457162
 20
-129.8790662652733
 10
92.82465275457162
 20
-129.9893093208013
 10
92.82465275457162
 20
-130.25354814452
 10
93.0575412093745
 20
-130.2621608832331
 10
93.1291991954677
 20
-130.2662949978154
 10
93.1291991954677
 20
-130.2662949978154
 10
93.1291991954677
 20
-130.4695556314451
 10
93.1291991954677
 20
-130.4695556314451
 10
93.00448673890166
 20
-130.460942892732
 10
92.62793780236386
 20
-130.43338212885
 10
92.62793780236386
 20
-129.9765624675059
 10
92.62793780236386
 20
-129.7522867514161
 10
92.75506182576957
 20
-129.5111300674486
 10
93.05099552795254
 20
-129.5111300674486
 10
93.23737519370455
 20
-129.5111300674486
 10
93.31971297580202
 20
-129.6062147028415
 10
93.38103567543946
 20
-129.7057779623652
 10
93.40859643932147
 20
-129.6444552627278
 10
93.48886716412778
 20
-129.4625542211066
 10
93.7661973506904
 20
-129.4625542211066
 10
94.10450572734193
 20
-129.4625542211066
 10
94.27159285837655
 20
-129.7099120769475
 10
94.27159285837655
 20
-129.9868977539616
 97
        0
 97
        0
 75
     2
 76
     1
 98
        0
  0
ENDBLK
  5
79
330
76
100
AcDbEntity
  8
0
100
AcDbBlockEnd
  0
BLOCK
  5
7E
330
7C
100
AcDbEntity
  8
0
100
AcDbBlockBegin
  2
block 5
 70
     0
 10
0.0
 20
0.0
 30
0.0
  3
block 5
  1

  0
SPLINE
  5
80
330
7C
100
AcDbEntity
  8
_U+30EC_U+30A4_U+30E4_U+30FC 1
370
     0
100
AcDbSpline
210
0.0
220
0.0
230
1.0
 70
    11
 71
     3
 72
    29
 73
    25
 74
     0
 42
0.0000000001
 43
0.0000000001
 12
1.0
 22
0.0
 32
0.0
 13
1.0
 23
0.0
 33
0.0
 40
0.0
 40
0.0
 40
0.0
 40
0.0
 40
1.0
 40
1.0
 40
1.0
 40
2.0
 40
2.0
 40
2.0
 40
3.0
 40
3.0
 40
3.0
 40
4.0
 40
4.0
 40
4.0
 40
5.0
 40
5.0
 40
5.0
 40
6.0
 40
6.0
 40
6.0
 40
7.0
 40
7.0
 40
7.0
 40
8.0
 40
8.0
 40
8.0
 40
8.0
 10
103.4903238673566
 20
-126.8408365568315
 30
0.0
 10
103.6997856728598
 20
-126.9490125550683
 30
0.0
 10
103.7187336980287
 20
-127.1223008579764
 30
0.0
 10
103.7187336980287
 20
-127.2387450853778
 30
0.0
 10
103.7187336980287
 20
-127.399631044539
 30
0.0
 10
103.6722249089778
 20
-127.5412244689828
 30
0.0
 10
103.4903238673566
 20
-127.6363091043757
 30
0.0
 10
103.29567597244
 20
-127.7400064784817
 30
0.0
 10
103.0586534030548
 20
-127.7592990131991
 30
0.0
 10
102.896044896151
 20
-127.7592990131991
 30
0.0
 10
102.7520399048675
 20
-127.7592990131991
 30
0.0
 10
102.5002034248958
 20
-127.7420735357728
 30
0.0
 10
102.3014214153969
 20
-127.6363091043757
 30
0.0
 10
102.0985052913157
 20
-127.5284776156873
 30
0.0
 10
102.075078642016
 20
-127.3675916565262
 30
0.0
 10
102.075078642016
 20
-127.2387450853778
 30
0.0
 10
102.075078642016
 20
-127.0799261835078
 30
0.0
 10
102.1195203737757
 20
-126.9362657017729
 30
0.0
 10
102.3014214153969
 20
-126.8408365568315
 30
0.0
 10
102.4940022530223
 20
-126.7416178068563
 30
0.0
 10
102.7224120836944
 20
-126.7181911575566
 30
0.0
 10
102.896044896151
 20
-126.7181911575566
 30
0.0
 10
103.0672661417679
 20
-126.7181911575566
 30
0.0
 10
103.2977430297311
 20
-126.7395507495651
 30
0.0
 10
103.4903238673566
 20
-126.8408365568315
 30
0.0
  0
SPLINE
  5
81
330
7C
100
AcDbEntity
  8
_U+30EC_U+30A4_U+30E4_U+30FC 1
370
     0
100
AcDbSpline
210
0.0
220
0.0
230
1.0
 70
    11
 71
     3
 72
    17
 73
    13
 74
     0
 42
0.0000000001
 43
0.0000000001
 12
1.0
 22
0.0
 32
0.0
 13
1.0
 23
0.0
 33
0.0
 40
0.0
 40
0.0
 40
0.0
 40
0.0
 40
1.0
 40
1.0
 40
1.0
 40
2.0
 40
2.0
 40
2.0
 40
3.0
 40
3.0
 40
3.0
 40
4.0
 40
4.0
 40
4.0
 40
4.0
 10
102.2676594796414
 20
-127.2387450853778
 30
0.0
 10
102.2676594796414
 20
-127.4885145080584
 30
0.0
 10
102.5511908380775
 20
-127.5350232971093
 30
0.0
 10
102.896044896151
 20
-127.5350232971093
 30
0.0
 10
103.2154052476337
 20
-127.5350232971093
 30
0.0
 10
103.524085803112
 20
-127.4988497945142
 30
0.0
 10
103.524085803112
 20
-127.2387450853778
 30
0.0
 10
103.524085803112
 20
-126.9910427199884
 30
0.0
 10
103.2429660115156
 20
-126.9424668736463
 30
0.0
 10
102.896044896151
 20
-126.9424668736463
 30
0.0
 10
102.5763400351198
 20
-126.9424668736463
 30
0.0
 10
102.2676594796414
 20
-126.9807074335326
 30
0.0
 10
102.2676594796414
 20
-127.2387450853778
 30
0.0
  0
HATCH
  5
82
330
7C
100
AcDbEntity
  8
_U+30EC_U+30A4_U+30E4_U+30FC 1
 62
     7
420
 16777215
100
AcDbHatch
 10
0.0
 20
0.0
 30
0.0
210
0.0
220
0.0
230
1.0
  2
SOLID
 70
     1
 71
     0
 91
        2
 92
        1
 93
        1
 72
     4
 94
        3
 73
     0
 74
     1
 95
       29
 96
       25
 40
0.0
 40
0.0
 40
0.0
 40
0.0
 40
1.0
 40
1.0
 40
1.0
 40
2.0
 40
2.0
 40
2.0
 40
3.0
 40
3.0
 40
3.0
 40
4.0
 40
4.0
 40
4.0
 40
5.0
 40
5.0
 40
5.0
 40
6.0
 40
6.0
 40
6.0
 40
7.0
 40
7.0
 40
7.0
 40
8.0
 40
8.0
 40
8.0
 40
8.0
 10
103.4903238673566
 20
-126.8408365568315
 10
103.6997856728598
 20
-126.9490125550683
 10
103.7187336980287
 20
-127.1223008579764
 10
103.7187336980287
 20
-127.2387450853778
 10
103.7187336980287
 20
-127.399631044539
 10
103.6722249089778
 20
-127.5412244689828
 10
103.4903238673566
 20
-127.6363091043757
 10
103.29567597244
 20
-127.7400064784817
 10
103.0586534030548
 20
-127.7592990131991
 10
102.896044896151
 20
-127.7592990131991
 10
102.7520399048675
 20
-127.7592990131991
 10
102.5002034248958
 20
-127.7420735357728
 10
102.3014214153969
 20
-127.6363091043757
 10
102.0985052913157
 20
-127.5284776156873
 10
102.075078642016
 20
-127.3675916565262
 10
102.075078642016
 20
-127.2387450853778
 10
102.075078642016
 20
-127.0799261835078
 10
102.1195203737757
 20
-126.9362657017729
 10
102.3014214153969
 20
-126.8408365568315
 10
102.4940022530223
 20
-126.7416178068563
 10
102.7224120836944
 20
-126.7181911575566
 10
102.896044896151
 20
-126.7181911575566
 10
103.0672661417679
 20
-126.7181911575566
 10
103.2977430297311
 20
-126.7395507495651
 10
103.4903238673566
 20
-126.8408365568315
 97
        0
 97
        0
 92
        1
 93
        1
 72
     4
 94
        3
 73
     0
 74
     1
 95
       17
 96
       13
 40
0.0
 40
0.0
 40
0.0
 40
0.0
 40
1.0
 40
1.0
 40
1.0
 40
2.0
 40
2.0
 40
2.0
 40
3.0
 40
3.0
 40
3.0
 40
4.0
 40
4.0
 40
4.0
 40
4.0
 10
102.2676594796414
 20
-127.2387450853778
 10
102.2676594796414
 20
-127.4885145080584
 10
102.5511908380775
 20
-127.5350232971093
 10
102.896044896151
 20
-127.5350232971093
 10
103.2154052476337
 20
-127.5350232971093
 10
103.524085803112
 20
-127.4988497945142
 10
103.524085803112
 20
-127.2387450853778
 10
103.524085803112
 20
-126.9910427199884
 10
103.2429660115156
 20
-126.9424668736463
 10
102.896044896151
 20
-126.9424668736463
 10
102.5763400351198
 20
-126.9424668736463
 10
102.2676594796414
 20
-126.9807074335326
 10
102.2676594796414
 20
-127.2387450853778
 97
        0
 97
        0
 75
     2
 76
     1
 98
        0
  0
POLYLINE
  5
83
330
7C
100
AcDbEntity
  8
_U+30EC_U+30A4_U+30E4_U+30FC 1
370
     0
100
AcDb2dPolyline
 66
     1
 10
0.0
 20
0.0
 30
0.0
  0
VERTEX
  5
84
330
83
100
AcDbEntity
  8
_U+30EC_U+30A4_U+30E4_U+30FC 1
370
     0
100
AcDbVertex
100
AcDb2dVertex
 10
103.6680907943955
 20
-126.5018391610829
 30
0.0
  0
VERTEX
  5
85
330
83
100
AcDbEntity
  8
_U+30EC_U+30A4_U+30E4_U+30FC 1
370
     0
100
AcDbVertex
100
AcDb2dVertex
 10
103.4162543144237
 20
-126.5018391610829
 30
0.0
  0
VERTEX
  5
86
330
83
100
AcDbEntity
  8
_U+30EC_U+30A4_U+30E4_U+30FC 1
370
     0
100
AcDbVertex
100
AcDb2dVertex
 10
103.4162543144237
 20
-126.2500026811111
 30
0.0
  0
VERTEX
  5
87
330
83
100
AcDbEntity
  8
_U+30EC_U+30A4_U+30E4_U+30FC 1
370
     0
100
AcDbVertex
100
AcDb2dVertex
 10
103.6680907943955
 20
-126.2500026811111
 30
0.0
  0
VERTEX
  5
88
330
83
100
AcDbEntity
  8
_U+30EC_U+30A4_U+30E4_U+30FC 1
370
     0
100
AcDbVertex
100
AcDb2dVertex
 10
103.6680907943955
 20
-126.5018391610829
 30
0.0
  0
SEQEND
  5
89
330
83
100
AcDbEntity
  8
_U+30EC_U+30A4_U+30E4_U+30FC 1
370
     0
  0
HATCH
  5
8A
330
7C
100
AcDbEntity
  8
_U+30EC_U+30A4_U+30E4_U+30FC 1
 62
     7
420
 16777215
100
AcDbHatch
 10
0.0
 20
0.0
 30
0.0
210
0.0
220
0.0
230
1.0
  2
SOLID
 70
     1
 71
     0
 91
        1
 92
        1
 93
        4
 72
     1
 10
103.6680907943955
 20
-126.5018391610829
 11
103.4162543144237
 21
-126.5018391610829
 72
     1
 10
103.4162543144237
 20
-126.5018391610829
 11
103.4162543144237
 21
-126.2500026811111
 72
     1
 10
103.4162543144237
 20
-126.2500026811111
 11
103.6680907943955
 21
-126.2500026811111
 72
     1
 10
103.6680907943955
 20
-126.2500026811111
 11
103.6680907943955
 21
-126.5018391610829
 97
        0
 75
     2
 76
     1
 98
        0
  0
SPLINE
  5
8B
330
7C
100
AcDbEntity
  8
_U+30EC_U+30A4_U+30E4_U+30FC 1
370
     0
100
AcDbSpline
210
0.0
220
0.0
230
1.0
 70
    11
 71
     3
 72
    53
 73
    49
 74
     0
 42
0.0000000001
 43
0.0000000001
 12
1.0
 22
0.0
 32
0.0
 13
1.0
 23
0.0
 33
0.0
 40
0.0
 40
0.0
 40
0.0
 40
0.0
 40
1.0
 40
1.0
 40
1.0
 40
2.0
 40
2.0
 40
2.0
 40
3.0
 40
3.0
 40
3.0
 40
4.0
 40
4.0
 40
4.0
 40
5.0
 40
5.0
 40
5.0
 40
6.0
 40
6.0
 40
6.0
 40
7.0
 40
7.0
 40
7.0
 40
8.0
 40
8.0
 40
8.0
 40
9.0
 40
9.0
 40
9.0
 40
10.0
 40
10.0
 40
10.0
 40
11.0
 40
11.0
 40
11.0
 40
12.0
 40
12.0
 40
12.0
 40
13.0
 40
13.0
 40
13.0
 40
14.0
 40
14.0
 40
14.0
 40
15.0
 40
15.0
 40
15.0
 40
16.0
 40
16.0
 40
16.0
 40
16.0
 10
103.7187336980287
 20
-125.5327338010821
 30
0.0
 10
103.7187336980287
 20
-125.6109374685973
 30
0.0
 10
103.7018527301509
 20
-125.7125677854121
 30
0.0
 10
103.6384629732223
 20
-125.814198102227
 30
0.0
 10
103.5285644272429
 20
-125.9874864051351
 30
0.0
 10
103.3973062892548
 20
-126.0088459971436
 30
0.0
 10
103.2894748005665
 20
-126.0277940223125
 30
0.0
 10
103.2894748005665
 20
-126.0277940223125
 30
0.0
 10
103.2894748005665
 20
-125.8055853635139
 30
0.0
 10
103.2894748005665
 20
-125.8055853635139
 30
0.0
 10
103.4882568100654
 20
-125.7508083452984
 30
0.0
 10
103.5178846312386
 20
-125.6236843218927
 30
0.0
 10
103.5178846312386
 20
-125.5306667437909
 30
0.0
 10
103.5178846312386
 20
-125.3911403766383
 30
0.0
 10
103.4183213717149
 20
-125.2388671561903
 30
0.0
 10
103.1857774264605
 20
-125.2388671561903
 30
0.0
 10
102.9298068319064
 20
-125.2388671561903
 30
0.0
 10
102.8598713935559
 20
-125.4187011405203
 30
0.0
 10
102.8598713935559
 20
-125.5392794825041
 30
0.0
 10
102.8598713935559
 20
-125.5709743609684
 30
0.0
 10
102.8598713935559
 20
-125.7125677854121
 30
0.0
 10
102.9890624742527
 20
-125.8014512489316
 30
0.0
 10
102.9890624742527
 20
-125.8014512489316
 30
0.0
 10
102.9701144490839
 20
-125.9771511186793
 30
0.0
 10
102.9701144490839
 20
-125.9771511186793
 30
0.0
 10
102.9701144490839
 20
-125.9771511186793
 30
0.0
 10
102.123654488358
 20
-125.8565727766956
 30
0.0
 10
102.123654488358
 20
-125.8565727766956
 30
0.0
 10
102.123654488358
 20
-125.8565727766956
 30
0.0
 10
102.123654488358
 20
-125.0779811970291
 30
0.0
 10
102.123654488358
 20
-125.0779811970291
 30
0.0
 10
102.123654488358
 20
-125.0779811970291
 30
0.0
 10
102.3183023832746
 20
-125.0779811970291
 30
0.0
 10
102.3183023832746
 20
-125.0779811970291
 30
0.0
 10
102.3183023832746
 20
-125.0779811970291
 30
0.0
 10
102.3183023832746
 20
-125.6936197602433
 30
0.0
 10
102.3183023832746
 20
-125.6936197602433
 30
0.0
 10
102.3183023832746
 20
-125.6936197602433
 30
0.0
 10
102.7413601088633
 20
-125.759076574463
 30
0.0
 10
102.7413601088633
 20
-125.759076574463
 30
0.0
 10
102.7075981731078
 20
-125.6977538748256
 30
0.0
 10
102.6672905559304
 20
-125.6154160927281
 30
0.0
 10
102.6672905559304
 20
-125.4969048080355
 30
0.0
 10
102.6672905559304
 20
-125.2430012707726
 30
0.0
 10
102.8536702216824
 20
-125.0059787013874
 30
0.0
 10
103.1668294012916
 20
-125.0059787013874
 30
0.0
 10
103.4841226954831
 20
-125.0059787013874
 30
0.0
 10
103.7187336980287
 20
-125.2302544174772
 30
0.0
 10
103.7187336980287
 20
-125.5327338010821
 30
0.0
  0
HATCH
  5
8C
330
7C
100
AcDbEntity
  8
_U+30EC_U+30A4_U+30E4_U+30FC 1
 62
     7
420
 16777215
100
AcDbHatch
 10
0.0
 20
0.0
 30
0.0
210
0.0
220
0.0
230
1.0
  2
SOLID
 70
     1
 71
     0
 91
        1
 92
        1
 93
        1
 72
     4
 94
        3
 73
     0
 74
     1
 95
       53
 96
       49
 40
0.0
 40
0.0
 40
0.0
 40
0.0
 40
1.0
 40
1.0
 40
1.0
 40
2.0
 40
2.0
 40
2.0
 40
3.0
 40
3.0
 40
3.0
 40
4.0
 40
4.0
 40
4.0
 40
5.0
 40
5.0
 40
5.0
 40
6.0
 40
6.0
 40
6.0
 40
7.0
 40
7.0
 40
7.0
 40
8.0
 40
8.0
 40
8.0
 40
9.0
 40
9.0
 40
9.0
 40
10.0
 40
10.0
 40
10.0
 40
11.0
 40
11.0
 40
11.0
 40
12.0
 40
12.0
 40
12.0
 40
13.0
 40
13.0
 40
13.0
 40
14.0
 40
14.0
 40
14.0
 40
15.0
 40
15.0
 40
15.0
 40
16.0
 40
16.0
 40
16.0
 40
16.0
 10
103.7187336980287
 20
-125.5327338010821
 10
103.7187336980287
 20
-125.6109374685973
 10
103.7018527301509
 20
-125.7125677854121
 10
103.6384629732223
 20
-125.814198102227
 10
103.5285644272429
 20
-125.9874864051351
 10
103.3973062892548
 20
-126.0088459971436
 10
103.2894748005665
 20
-126.0277940223125
 10
103.2894748005665
 20
-126.0277940223125
 10
103.2894748005665
 20
-125.8055853635139
 10
103.2894748005665
 20
-125.8055853635139
 10
103.4882568100654
 20
-125.7508083452984
 10
103.5178846312386
 20
-125.6236843218927
 10
103.5178846312386
 20
-125.5306667437909
 10
103.5178846312386
 20
-125.3911403766383
 10
103.4183213717149
 20
-125.2388671561903
 10
103.1857774264605
 20
-125.2388671561903
 10
102.9298068319064
 20
-125.2388671561903
 10
102.8598713935559
 20
-125.4187011405203
 10
102.8598713935559
 20
-125.5392794825041
 10
102.8598713935559
 20
-125.5709743609684
 10
102.8598713935559
 20
-125.7125677854121
 10
102.9890624742527
 20
-125.8014512489316
 10
102.9890624742527
 20
-125.8014512489316
 10
102.9701144490839
 20
-125.9771511186793
 10
102.9701144490839
 20
-125.9771511186793
 10
102.9701144490839
 20
-125.9771511186793
 10
102.123654488358
 20
-125.8565727766956
 10
102.123654488358
 20
-125.8565727766956
 10
102.123654488358
 20
-125.8565727766956
 10
102.123654488358
 20
-125.0779811970291
 10
102.123654488358
 20
-125.0779811970291
 10
102.123654488358
 20
-125.0779811970291
 10
102.3183023832746
 20
-125.0779811970291
 10
102.3183023832746
 20
-125.0779811970291
 10
102.3183023832746
 20
-125.0779811970291
 10
102.3183023832746
 20
-125.6936197602433
 10
102.3183023832746
 20
-125.6936197602433
 10
102.3183023832746
 20
-125.6936197602433
 10
102.7413601088633
 20
-125.759076574463
 10
102.7413601088633
 20
-125.759076574463
 10
102.7075981731078
 20
-125.6977538748256
 10
102.6672905559304
 20
-125.6154160927281
 10
102.6672905559304
 20
-125.4969048080355
 10
102.6672905559304
 20
-125.2430012707726
 10
102.8536702216824
 20
-125.0059787013874
 10
103.1668294012916
 20
-125.0059787013874
 10
103.4841226954831
 20
-125.0059787013874
 10
103.7187336980287
 20
-125.2302544174772
 10
103.7187336980287
 20
-125.5327338010821
 97
        0
 97
        0
 75
     2
 76
     1
 98
        0
  0
ENDBLK
  5
7F
330
7C
100
AcDbEntity
  8
0
100
AcDbBlockEnd
  0
ENDSEC
  0
SECTION
  2
ENTITIES
  0
SPLINE
  5
41
330
1F
100
AcDbEntity
  8
_U+30EC_U+30A4_U+30E4_U+30FC 1
 62
     7
420
 16777215
370
     9
100
AcDbSpline
210
0.0
220
0.0
230
1.0
 70
    11
 71
     3
 72
    17
 73
    13
 74
     0
 42
0.0000000001
 43
0.0000000001
 12
1.0
 22
0.0
 32
0.0
 13
1.0
 23
0.0
 33
0.0
 40
0.0
 40
0.0
 40
0.0
 40
0.0
 40
1.0
 40
1.0
 40
1.0
 40
2.0
 40
2.0
 40
2.0
 40
3.0
 40
3.0
 40
3.0
 40
4.0
 40
4.0
 40
4.0
 40
4.0
 10
75.46671418579483
 20
-124.4780269133249
 30
0.0
 10
75.46671418579483
 20
-124.4228877466721
 30
0.0
 10
75.42191140916007
 20
-124.3781202466833
 30
0.0
 10
75.366807521677
 20
-124.3781202466833
 30
0.0
 10
75.31149196753266
 20
-124.3781202466833
 30
0.0
 10
75.26672446867477
 20
-124.4228877466721
 30
0.0
 10
75.26672446867477
 20
-124.4780269133249
 30
0.0
 10
75.26672446867477
 20
-124.5334835799779
 30
0.0
 10
75.31149196753266
 20
-124.5782863577443
 30
0.0
 10
75.366807521677
 20
-124.5782863577443
 30
0.0
 10
75.42191140916007
 20
-124.5782863577443
 30
0.0
 10
75.46671418579483
 20
-124.5334835799779
 30
0.0
 10
75.46671418579483
 20
-124.4780269133249
 30
0.0
  0
SPLINE
  5
42
330
1F
100
AcDbEntity
  8
_U+30EC_U+30A4_U+30E4_U+30FC 1
 62
     7
420
 16777215
370
     9
100
AcDbSpline
210
0.0
220
0.0
230
1.0
 70
    11
 71
     3
 72
    17
 73
    13
 74
     0
 42
0.0000000001
 43
0.0000000001
 12
1.0
 22
0.0
 32
0.0
 13
1.0
 23
0.0
 33
0.0
 40
0.0
 40
0.0
 40
0.0
 40
0.0
 40
1.0
 40
1.0
 40
1.0
 40
2.0
 40
2.0
 40
2.0
 40
3.0
 40
3.0
 40
3.0
 40
4.0
 40
4.0
 40
4.0
 40
4.0
 10
84.96691366564677
 20
-135.4783788550193
 30
0.0
 10
84.96691366564677
 20
-135.4225694105888
 30
0.0
 10
84.922110889012
 20
-135.3777666328221
 30
0.0
 10
84.86683061264455
 20
-135.3777666328221
 30
0.0
 10
84.8116914473846
 20
-135.3777666328221
 30
0.0
 10
84.76692394852671
 20
-135.4225694105888
 30
0.0
 10
84.76692394852671
 20
-135.4783788550193
 30
0.0
 10
84.76692394852671
 20
-135.5335180216723
 30
0.0
 10
84.8116914473846
 20
-135.5782855216609
 30
0.0
 10
84.86683061264455
 20
-135.5782855216609
 30
0.0
 10
84.922110889012
 20
-135.5782855216609
 30
0.0
 10
84.96691366564677
 20
-135.5335180216723
 30
0.0
 10
84.96691366564677
 20
-135.4783788550193
 30
0.0
  0
SPLINE
  5
43
330
1F
100
AcDbEntity
  8
_U+30EC_U+30A4_U+30E4_U+30FC 1
 62
     7
420
 16777215
370
     9
100
AcDbSpline
210
0.0
220
0.0
230
1.0
 70
    11
 71
     3
 72
    17
 73
    13
 74
     0
 42
0.0000000001
 43
0.0000000001
 12
1.0
 22
0.0
 32
0.0
 13
1.0
 23
0.0
 33
0.0
 40
0.0
 40
0.0
 40
0.0
 40
0.0
 40
1.0
 40
1.0
 40
1.0
 40
2.0
 40
2.0
 40
2.0
 40
3.0
 40
3.0
 40
3.0
 40
4.0
 40
4.0
 40
4.0
 40
4.0
 10
90.9667110125792
 20
-135.4783788550193
 30
0.0
 10
90.9667110125792
 20
-135.4225694105888
 30
0.0
 10
90.92190823594443
 20
-135.3777666328221
 30
0.0
 10
90.86680434846136
 20
-135.3777666328221
 30
0.0
 10
90.81166518320141
 20
-135.3777666328221
 30
0.0
 10
90.76689997730841
 20
-135.4225694105888
 30
0.0
 10
90.76689997730841
 20
-135.4783788550193
 30
0.0
 10
90.76689997730841
 20
-135.5335180216723
 30
0.0
 10
90.81166518320141
 20
-135.5782855216609
 30
0.0
 10
90.86680434846136
 20
-135.5782855216609
 30
0.0
 10
90.92190823594443
 20
-135.5782855216609
 30
0.0
 10
90.9667110125792
 20
-135.5335180216723
 30
0.0
 10
90.9667110125792
 20
-135.4783788550193
 30
0.0
  0
SPLINE
  5
44
330
1F
100
AcDbEntity
  8
_U+30EC_U+30A4_U+30E4_U+30FC 1
 62
     7
420
 16777215
370
     9
100
AcDbSpline
210
0.0
220
0.0
230
1.0
 70
    11
 71
     3
 72
    17
 73
    13
 74
     0
 42
0.0000000001
 43
0.0000000001
 12
1.0
 22
0.0
 32
0.0
 13
1.0
 23
0.0
 33
0.0
 40
0.0
 40
0.0
 40
0.0
 40
0.0
 40
1.0
 40
1.0
 40
1.0
 40
2.0
 40
2.0
 40
2.0
 40
3.0
 40
3.0
 40
3.0
 40
4.0
 40
4.0
 40
4.0
 40
4.0
 10
94.96682285497228
 20
-131.477949411575
 30
0.0
 10
94.96682285497228
 20
-131.4228102449219
 30
0.0
 10
94.92202007833751
 20
-131.3780427449334
 30
0.0
 10
94.86691619085444
 20
-131.3780427449334
 30
0.0
 10
94.8117770255945
 20
-131.3780427449334
 30
0.0
 10
94.76700952673662
 20
-131.4228102449219
 30
0.0
 10
94.76700952673662
 20
-131.477949411575
 30
0.0
 10
94.76700952673662
 20
-131.5330533004499
 30
0.0
 10
94.8117770255945
 20
-131.5778560782166
 30
0.0
 10
94.86691619085444
 20
-131.5778560782166
 30
0.0
 10
94.92202007833751
 20
-131.5778560782166
 30
0.0
 10
94.96682285497228
 20
-131.5330533004499
 30
0.0
 10
94.96682285497228
 20
-131.477949411575
 30
0.0
  0
SPLINE
  5
45
330
1F
100
AcDbEntity
  8
_U+30EC_U+30A4_U+30E4_U+30FC 1
 62
     7
420
 16777215
370
     9
100
AcDbSpline
210
0.0
220
0.0
230
1.0
 70
    11
 71
     3
 72
    17
 73
    13
 74
     0
 42
0.0000000001
 43
0.0000000001
 12
1.0
 22
0.0
 32
0.0
 13
1.0
 23
0.0
 33
0.0
 40
0.0
 40
0.0
 40
0.0
 40
0.0
 40
1.0
 40
1.0
 40
1.0
 40
2.0
 40
2.0
 40
2.0
 40
3.0
 40
3.0
 40
3.0
 40
4.0
 40
4.0
 40
4.0
 40
4.0
 10
94.96682285497228
 20
-128.4781035789917
 30
0.0
 10
94.96682285497228
 20
-128.4229996901165
 30
0.0
 10
94.92202007833751
 20
-128.3781969123498
 30
0.0
 10
94.86691619085444
 20
-128.3781969123498
 30
0.0
 10
94.8117770255945
 20
-128.3781969123498
 30
0.0
 10
94.76700952673662
 20
-128.4229996901165
 30
0.0
 10
94.76700952673662
 20
-128.4781035789917
 30
0.0
 10
94.76700952673662
 20
-128.5332427456445
 30
0.0
 10
94.8117770255945
 20
-128.5780102456334
 30
0.0
 10
94.86691619085444
 20
-128.5780102456334
 30
0.0
 10
94.92202007833751
 20
-128.5780102456334
 30
0.0
 10
94.96682285497228
 20
-128.5332427456445
 30
0.0
 10
94.96682285497228
 20
-128.4781035789917
 30
0.0
  0
SPLINE
  5
46
330
1F
100
AcDbEntity
  8
_U+30EC_U+30A4_U+30E4_U+30FC 1
 62
     7
420
 16777215
370
     9
100
AcDbSpline
210
0.0
220
0.0
230
1.0
 70
    11
 71
     3
 72
    17
 73
    13
 74
     0
 42
0.0000000001
 43
0.0000000001
 12
1.0
 22
0.0
 32
0.0
 13
1.0
 23
0.0
 33
0.0
 40
0.0
 40
0.0
 40
0.0
 40
0.0
 40
1.0
 40
1.0
 40
1.0
 40
2.0
 40
2.0
 40
2.0
 40
3.0
 40
3.0
 40
3.0
 40
4.0
 40
4.0
 40
4.0
 40
4.0
 10
100.4534721971089
 20
-124.4780269133249
 30
0.0
 10
100.4534721971089
 20
-124.4228877466721
 30
0.0
 10
100.4086694193421
 20
-124.3781202466833
 30
0.0
 10
100.3535629953229
 20
-124.3781202466833
 30
0.0
 10
100.2984238300629
 20
-124.3781202466833
 30
0.0
 10
100.253656331205
 20
-124.4228877466721
 30
0.0
 10
100.253656331205
 20
-124.4780269133249
 30
0.0
 10
100.253656331205
 20
-124.5334835799779
 30
0.0
 10
100.2984238300629
 20
-124.5782863577443
 30
0.0
 10
100.3535629953229
 20
-124.5782863577443
 30
0.0
 10
100.4086694193421
 20
-124.5782863577443
 30
0.0
 10
100.4534721971089
 20
-124.5334835799779
 30
0.0
 10
100.4534721971089
 20
-124.4780269133249
 30
0.0
  0
POLYLINE
  5
47
330
1F
100
AcDbEntity
  8
_U+30EC_U+30A4_U+30E4_U+30FC 1
 62
     7
420
 16777215
370
     9
100
AcDb2dPolyline
 66
     1
 10
0.0
 20
0.0
 30
0.0
  0
VERTEX
  5
48
330
47
100
AcDbEntity
  8
_U+30EC_U+30A4_U+30E4_U+30FC 1
 62
     7
420
 16777215
370
     9
100
AcDbVertex
100
AcDb2dVertex
 10
75.366807521677
 20
-124.4780269133249
 30
0.0
  0
VERTEX
  5
49
330
47
100
AcDbEntity
  8
_U+30EC_U+30A4_U+30E4_U+30FC 1
 62
     7
420
 16777215
370
     9
100
AcDbVertex
100
AcDb2dVertex
 10
100.3535629953229
 20
-124.4780269133249
 30
0.0
  0
SEQEND
  5
4A
330
47
100
AcDbEntity
  8
_U+30EC_U+30A4_U+30E4_U+30FC 1
 62
     7
420
 16777215
370
     9
  0
POLYLINE
  5
4B
330
1F
100
AcDbEntity
  8
_U+30EC_U+30A4_U+30E4_U+30FC 1
 62
     7
420
 16777215
370
     9
100
AcDb2dPolyline
 66
     1
 10
0.0
 20
0.0
 30
0.0
  0
VERTEX
  5
4C
330
4B
100
AcDbEntity
  8
_U+30EC_U+30A4_U+30E4_U+30FC 1
 62
     7
420
 16777215
370
     9
100
AcDbVertex
100
AcDb2dVertex
 10
75.366807521677
 20
-125.9380330240711
 30
0.0
  0
VERTEX
  5
4D
330
4B
100
AcDbEntity
  8
_U+30EC_U+30A4_U+30E4_U+30FC 1
 62
     7
420
 16777215
370
     9
100
AcDbVertex
100
AcDb2dVertex
 10
75.366807521677
 20
-123.4779019135749
 30
0.0
  0
SEQEND
  5
4E
330
4B
100
AcDbEntity
  8
_U+30EC_U+30A4_U+30E4_U+30FC 1
 62
     7
420
 16777215
370
     9
  0
POLYLINE
  5
4F
330
1F
100
AcDbEntity
  8
_U+30EC_U+30A4_U+30E4_U+30FC 1
 62
     7
420
 16777215
370
     9
100
AcDb2dPolyline
 66
     1
 10
0.0
 20
0.0
 30
0.0
  0
VERTEX
  5
50
330
4F
100
AcDbEntity
  8
_U+30EC_U+30A4_U+30E4_U+30FC 1
 62
     7
420
 16777215
370
     9
100
AcDbVertex
100
AcDb2dVertex
 10
100.3535629953229
 20
-125.9380330240711
 30
0.0
  0
VERTEX
  5
51
330
4F
100
AcDbEntity
  8
_U+30EC_U+30A4_U+30E4_U+30FC 1
 62
     7
420
 16777215
370
     9
100
AcDbVertex
100
AcDb2dVertex
 10
100.3535629953229
 20
-123.4779019135749
 30
0.0
  0
SEQEND
  5
52
330
4F
100
AcDbEntity
  8
_U+30EC_U+30A4_U+30E4_U+30FC 1
 62
     7
420
 16777215
370
     9
  0
POLYLINE
  5
53
330
1F
100
AcDbEntity
  8
_U+30EC_U+30A4_U+30E4_U+30FC 1
 62
     7
420
 16777215
370
     9
100
AcDb2dPolyline
 66
     1
 10
0.0
 20
0.0
 30
0.0
  0
VERTEX
  5
54
330
53
100
AcDbEntity
  8
_U+30EC_U+30A4_U+30E4_U+30FC 1
 62
     7
420
 16777215
370
     9
100
AcDbVertex
100
AcDb2dVertex
 10
84.86683061264455
 20
-135.4783788550193
 30
0.0
  0
VERTEX
  5
55
330
53
100
AcDbEntity
  8
_U+30EC_U+30A4_U+30E4_U+30FC 1
 62
     7
420
 16777215
370
     9
100
AcDbVertex
100
AcDb2dVertex
 10
90.86680434846136
 20
-135.4783788550193
 30
0.0
  0
SEQEND
  5
56
330
53
100
AcDbEntity
  8
_U+30EC_U+30A4_U+30E4_U+30FC 1
 62
     7
420
 16777215
370
     9
  0
POLYLINE
  5
57
330
1F
100
AcDbEntity
  8
_U+30EC_U+30A4_U+30E4_U+30FC 1
 62
     7
420
 16777215
370
     9
100
AcDb2dPolyline
 66
     1
 10
0.0
 20
0.0
 30
0.0
  0
VERTEX
  5
58
330
57
100
AcDbEntity
  8
_U+30EC_U+30A4_U+30E4_U+30FC 1
 62
     7
420
 16777215
370
     9
100
AcDbVertex
100
AcDb2dVertex
 10
84.86683061264455
 20
-133.0178949667456
 30
0.0
  0
VERTEX
  5
59
330
57
100
AcDbEntity
  8
_U+30EC_U+30A4_U+30E4_U+30FC 1
 62
     7
420
 16777215
370
     9
100
AcDbVertex
100
AcDb2dVertex
 10
84.86683061264455
 20
-136.4781510769918
 30
0.0
  0
SEQEND
  5
5A
330
57
100
AcDbEntity
  8
_U+30EC_U+30A4_U+30E4_U+30FC 1
 62
     7
420
 16777215
370
     9
  0
POLYLINE
  5
5B
330
1F
100
AcDbEntity
  8
_U+30EC_U+30A4_U+30E4_U+30FC 1
 62
     7
420
 16777215
370
     9
100
AcDb2dPolyline
 66
     1
 10
0.0
 20
0.0
 30
0.0
  0
VERTEX
  5
5C
330
5B
100
AcDbEntity
  8
_U+30EC_U+30A4_U+30E4_U+30FC 1
 62
     7
420
 16777215
370
     9
100
AcDbVertex
100
AcDb2dVertex
 10
90.86680434846136
 20
-133.0178949667456
 30
0.0
  0
VERTEX
  5
5D
330
5B
100
AcDbEntity
  8
_U+30EC_U+30A4_U+30E4_U+30FC 1
 62
     7
420
 16777215
370
     9
100
AcDbVertex
100
AcDb2dVertex
 10
90.86680434846136
 20
-136.4781510769918
 30
0.0
  0
SEQEND
  5
5E
330
5B
100
AcDbEntity
  8
_U+30EC_U+30A4_U+30E4_U+30FC 1
 62
     7
420
 16777215
370
     9
  0
POLYLINE
  5
5F
330
1F
100
AcDbEntity
  8
_U+30EC_U+30A4_U+30E4_U+30FC 1
 62
     7
420
 16777215
370
     9
100
AcDb2dPolyline
 66
     1
 10
0.0
 20
0.0
 30
0.0
  0
VERTEX
  5
60
330
5F
100
AcDbEntity
  8
_U+30EC_U+30A4_U+30E4_U+30FC 1
 62
     7
420
 16777215
370
     9
100
AcDbVertex
100
AcDb2dVertex
 10
94.86691619085444
 20
-132.4783919113249
 30
0.0
  0
VERTEX
  5
61
330
5F
100
AcDbEntity
  8
_U+30EC_U+30A4_U+30E4_U+30FC 1
 62
     7
420
 16777215
370
     9
100
AcDbVertex
100
AcDb2dVertex
 10
94.86691619085444
 20
-127.4780138570192
 30
0.0
  0
SEQEND
  5
62
330
5F
100
AcDbEntity
  8
_U+30EC_U+30A4_U+30E4_U+30FC 1
 62
     7
420
 16777215
370
     9
  0
POLYLINE
  5
63
330
1F
100
AcDbEntity
  8
_U+30EC_U+30A4_U+30E4_U+30FC 1
 62
     7
420
 16777215
370
     9
100
AcDb2dPolyline
 66
     1
 10
0.0
 20
0.0
 30
0.0
  0
VERTEX
  5
64
330
63
100
AcDbEntity
  8
_U+30EC_U+30A4_U+30E4_U+30FC 1
 62
     7
420
 16777215
370
     9
100
AcDbVertex
100
AcDb2dVertex
 10
92.40674986472963
 20
-131.477949411575
 30
0.0
  0
VERTEX
  5
65
330
63
100
AcDbEntity
  8
_U+30EC_U+30A4_U+30E4_U+30FC 1
 62
     7
420
 16777215
370
     9
100
AcDbVertex
100
AcDb2dVertex
 10
95.86665553158875
 20
-131.477949411575
 30
0.0
  0
SEQEND
  5
66
330
63
100
AcDbEntity
  8
_U+30EC_U+30A4_U+30E4_U+30FC 1
 62
     7
420
 16777215
370
     9
  0
INSERT
  5
68
330
1F
100
AcDbEntity
  8
_U+30EC_U+30A4_U+30E4_U+30FC 1
100
AcDbBlockReference
  2
block 2
 10
0.0
 20
0.0
 30
0.0
  0
INSERT
  5
70
330
1F
100
AcDbEntity
  8
_U+30EC_U+30A4_U+30E4_U+30FC 1
100
AcDbBlockReference
  2
block 3
 10
0.0
 20
0.0
 30
0.0
  0
INSERT
  5
77
330
1F
100
AcDbEntity
  8
_U+30EC_U+30A4_U+30E4_U+30FC 1
100
AcDbBlockReference
  2
block 4
 10
0.0
 20
0.0
 30
0.0
  0
INSERT
  5
7D
330
1F
100
AcDbEntity
  8
_U+30EC_U+30A4_U+30E4_U+30FC 1
100
AcDbBlockReference
  2
block 5
 10
0.0
 20
0.0
 30
0.0
  0
SPLINE
  5
8D
330
1F
100
AcDbEntity
  8
_U+30EC_U+30A4_U+30E4_U+30FC 1
 62
     7
420
 16777215
370
     9
100
AcDbSpline
210
0.0
220
0.0
230
1.0
 70
    11
 71
     3
 72
    17
 73
    13
 74
     0
 42
0.0000000001
 43
0.0000000001
 12
1.0
 22
0.0
 32
0.0
 13
1.0
 23
0.0
 33
0.0
 40
0.0
 40
0.0
 40
0.0
 40
0.0
 40
1.0
 40
1.0
 40
1.0
 40
2.0
 40
2.0
 40
2.0
 40
3.0
 40
3.0
 40
3.0
 40
4.0
 40
4.0
 40
4.0
 40
4.0
 10
104.3140578942822
 20
-128.8775891344472
 30
0.0
 10
104.2585659512535
 20
-128.8775891344472
 30
0.0
 10
104.2137984523956
 20
-128.9223566344358
 30
0.0
 10
104.2137984523956
 20
-128.9781660788668
 30
0.0
 10
104.2137984523956
 20
-129.0333052455193
 30
0.0
 10
104.2585659512535
 20
-129.0780727455085
 30
0.0
 10
104.3140578942822
 20
-129.0780727455085
 30
0.0
 10
104.3691617817653
 20
-129.0780727455085
 30
0.0
 10
104.4139645584001
 20
-129.0333052455193
 30
0.0
 10
104.4139645584001
 20
-128.9781660788668
 30
0.0
 10
104.4139645584001
 20
-128.9223566344358
 30
0.0
 10
104.3691617817653
 20
-128.8775891344472
 30
0.0
 10
104.3140578942822
 20
-128.8775891344472
 30
0.0
  0
SPLINE
  5
8E
330
1F
100
AcDbEntity
  8
_U+30EC_U+30A4_U+30E4_U+30FC 1
 62
     7
420
 16777215
370
     9
100
AcDbSpline
210
0.0
220
0.0
230
1.0
 70
    11
 71
     3
 72
    17
 73
    13
 74
     0
 42
0.0000000001
 43
0.0000000001
 12
1.0
 22
0.0
 32
0.0
 13
1.0
 23
0.0
 33
0.0
 40
0.0
 40
0.0
 40
0.0
 40
0.0
 40
1.0
 40
1.0
 40
1.0
 40
2.0
 40
2.0
 40
2.0
 40
3.0
 40
3.0
 40
3.0
 40
4.0
 40
4.0
 40
4.0
 40
4.0
 10
104.3140578942822
 20
-128.3781969123498
 30
0.0
 10
104.2585659512535
 20
-128.3781969123498
 30
0.0
 10
104.2137984523956
 20
-128.4229996901165
 30
0.0
 10
104.2137984523956
 20
-128.4781035789917
 30
0.0
 10
104.2137984523956
 20
-128.5332427456445
 30
0.0
 10
104.2585659512535
 20
-128.5780102456334
 30
0.0
 10
104.3140578942822
 20
-128.5780102456334
 30
0.0
 10
104.3691617817653
 20
-128.5780102456334
 30
0.0
 10
104.4139645584001
 20
-128.5332427456445
 30
0.0
 10
104.4139645584001
 20
-128.4781035789917
 30
0.0
 10
104.4139645584001
 20
-128.4229996901165
 30
0.0
 10
104.3691617817653
 20
-128.3781969123498
 30
0.0
 10
104.3140578942822
 20
-128.3781969123498
 30
0.0
  0
POLYLINE
  5
8F
330
1F
100
AcDbEntity
  8
_U+30EC_U+30A4_U+30E4_U+30FC 1
 62
     7
420
 16777215
370
     9
100
AcDb2dPolyline
 66
     1
 10
0.0
 20
0.0
 30
0.0
  0
VERTEX
  5
90
330
8F
100
AcDbEntity
  8
_U+30EC_U+30A4_U+30E4_U+30FC 1
 62
     7
420
 16777215
370
     9
100
AcDbVertex
100
AcDb2dVertex
 10
104.3140578942822
 20
-128.9781660788668
 30
0.0
  0
VERTEX
  5
91
330
8F
100
AcDbEntity
  8
_U+30EC_U+30A4_U+30E4_U+30FC 1
 62
     7
420
 16777215
370
     9
100
AcDbVertex
100
AcDb2dVertex
 10
104.3140578942822
 20
-124.2726749689319
 30
0.0
  0
SEQEND
  5
92
330
8F
100
AcDbEntity
  8
_U+30EC_U+30A4_U+30E4_U+30FC 1
 62
     7
420
 16777215
370
     9
  0
POLYLINE
  5
93
330
1F
100
AcDbEntity
  8
_U+30EC_U+30A4_U+30E4_U+30FC 1
 62
     7
420
 16777215
370
     9
100
AcDb2dPolyline
 66
     1
 10
0.0
 20
0.0
 30
0.0
  0
VERTEX
  5
94
330
93
100
AcDbEntity
  8
_U+30EC_U+30A4_U+30E4_U+30FC 1
 62
     7
420
 16777215
370
     9
100
AcDbVertex
100
AcDb2dVertex
 10
101.8538915681574
 20
-128.9781660788668
 30
0.0
  0
VERTEX
  5
95
330
93
100
AcDbEntity
  8
_U+30EC_U+30A4_U+30E4_U+30FC 1
 62
     7
420
 16777215
370
     9
100
AcDbVertex
100
AcDb2dVertex
 10
105.3137948132213
 20
-128.9781660788668
 30
0.0
  0
SEQEND
  5
96
330
93
100
AcDbEntity
  8
_U+30EC_U+30A4_U+30E4_U+30FC 1
 62
     7
420
 16777215
370
     9
  0
POLYLINE
  5
97
330
1F
100
AcDbEntity
  8
_U+30EC_U+30A4_U+30E4_U+30FC 1
 62
     7
420
 16777215
370
     9
100
AcDb2dPolyline
 66
     1
 10
0.0
 20
0.0
 30
0.0
  0
VERTEX
  5
98
330
97
100
AcDbEntity
  8
_U+30EC_U+30A4_U+30E4_U+30FC 1
 62
     7
420
 16777215
370
     9
100
AcDbVertex
100
AcDb2dVertex
 10
101.8538915681574
 20
-128.4781035789917
 30
0.0
  0
VERTEX
  5
99
330
97
100
AcDbEntity
  8
_U+30EC_U+30A4_U+30E4_U+30FC 1
 62
     7
420
 16777215
370
     9
100
AcDbVertex
100
AcDb2dVertex
 10
105.3137948132213
 20
-128.4781035789917
 30
0.0
  0
SEQEND
  5
9A
330
97
100
AcDbEntity
  8
_U+30EC_U+30A4_U+30E4_U+30FC 1
 62
     7
420
 16777215
370
     9
  0
SPLINE
  5
9B
330
1F
100
AcDbEntity
  8
_U+30EC_U+30A4_U+30E4_U+30FC 1
 62
     7
420
 16777215
370
    25
100
AcDbSpline
210
0.0
220
0.0
230
1.0
 70
    11
 71
     3
 72
    47
 73
    43
 74
     0
 42
0.0000000001
 43
0.0000000001
 12
1.0
 22
0.0
 32
0.0
 13
1.0
 23
0.0
 33
0.0
 40
0.0
 40
0.0
 40
0.0
 40
0.0
 40
1.0
 40
1.0
 40
1.0
 40
2.0
 40
2.0
 40
2.0
 40
3.0
 40
3.0
 40
3.0
 40
4.0
 40
4.0
 40
4.0
 40
5.0
 40
5.0
 40
5.0
 40
6.0
 40
6.0
 40
6.0
 40
7.0
 40
7.0
 40
7.0
 40
8.0
 40
8.0
 40
8.0
 40
9.0
 40
9.0
 40
9.0
 40
10.0
 40
10.0
 40
10.0
 40
11.0
 40
11.0
 40
11.0
 40
12.0
 40
12.0
 40
12.0
 40
13.0
 40
13.0
 40
13.0
 40
14.0
 40
14.0
 40
14.0
 40
14.0
 10
100.3535629953229
 20
-128.9781660788668
 30
0.0
 10
100.3535629953229
 20
-128.9781660788668
 30
0.0
 10
90.86680434846136
 20
-128.9781660788668
 30
0.0
 10
90.86680434846136
 20
-128.9781660788668
 30
0.0
 10
90.86680434846136
 20
-128.9781660788668
 30
0.0
 10
90.86680434846136
 20
-131.2781360782917
 30
0.0
 10
90.86680434846136
 20
-131.2781360782917
 30
0.0
 10
90.86680434846136
 20
-131.3883791338197
 30
0.0
 10
90.77688129519993
 20
-131.477949411575
 30
0.0
 10
90.6668146313413
 20
-131.477949411575
 30
0.0
 10
90.6668146313413
 20
-131.477949411575
 30
0.0
 10
85.06682032976461
 20
-131.477949411575
 30
0.0
 10
85.06682032976461
 20
-131.477949411575
 30
0.0
 10
84.95675366590598
 20
-131.477949411575
 30
0.0
 10
84.86683061264455
 20
-131.3883791338197
 30
0.0
 10
84.86683061264455
 20
-131.2781360782917
 30
0.0
 10
84.86683061264455
 20
-131.2781360782917
 30
0.0
 10
84.86683061264455
 20
-128.9781660788668
 30
0.0
 10
84.86683061264455
 20
-128.9781660788668
 30
0.0
 10
84.86683061264455
 20
-128.9781660788668
 30
0.0
 10
75.366807521677
 20
-128.9781660788668
 30
0.0
 10
75.366807521677
 20
-128.9781660788668
 30
0.0
 10
75.366807521677
 20
-128.9781660788668
 30
0.0
 10
75.366807521677
 20
-128.4781035789917
 30
0.0
 10
75.366807521677
 20
-128.4781035789917
 30
0.0
 10
75.366807521677
 20
-128.4781035789917
 30
0.0
 10
85.36671671100251
 20
-128.4781035789917
 30
0.0
 10
85.36671671100251
 20
-128.4781035789917
 30
0.0
 10
85.36671671100251
 20
-128.4781035789917
 30
0.0
 10
85.36671671100251
 20
-130.9783808005887
 30
0.0
 10
85.36671671100251
 20
-130.9783808005887
 30
0.0
 10
85.36671671100251
 20
-130.9783808005887
 30
0.0
 10
90.36674186121901
 20
-130.9783808005887
 30
0.0
 10
90.36674186121901
 20
-130.9783808005887
 30
0.0
 10
90.36674186121901
 20
-130.9783808005887
 30
0.0
 10
90.36674186121901
 20
-128.4781035789917
 30
0.0
 10
90.36674186121901
 20
-128.4781035789917
 30
0.0
 10
90.36674186121901
 20
-128.4781035789917
 30
0.0
 10
100.3535629953229
 20
-128.4781035789917
 30
0.0
 10
100.3535629953229
 20
-128.4781035789917
 30
0.0
 10
100.3535629953229
 20
-128.4781035789917
 30
0.0
 10
100.3535629953229
 20
-128.9781660788668
 30
0.0
 10
100.3535629953229
 20
-128.9781660788668
 30
0.0
  0
ENDSEC
  0
SECTION
  2
OBJECTS
  0
DICTIONARY
  5
C
330
0
100
AcDbDictionary
281
     1
  3
ACAD_GROUP
350
D
  3
ACAD_LAYOUT
350
1A
  3
ACAD_MATERIAL
350
3B
  3
ACAD_MLEADERSTYLE
350
9D
  3
ACAD_MLINESTYLE
350
17
  3
ACAD_PLOTSETTINGS
350
19
  3
ACAD_PLOTSTYLENAME
350
E
  3
ACAD_TABLESTYLE
350
9C
  3
ACAD_VISUALSTYLE
350
2A
  0
SUN
  5
3F
330
29
100
AcDbSun
 90
        1
290
     0
 63
     7
421
 16777215
 40
1.0
291
     1
 91
  2455826
 92
 54000000
292
     0
 70
     2
 71
   256
280
     1
  0
DICTIONARY
  5
D
102
{ACAD_REACTORS
330
C
102
}
330
C
100
AcDbDictionary
281
     1
  0
DICTIONARY
  5
1A
102
{ACAD_REACTORS
330
C
102
}
330
C
100
AcDbDictionary
281
     1
  3
Layout1
350
1E
  3
Layout2
350
26
  3
Model
350
22
  0
DICTIONARY
  5
3B
102
{ACAD_REACTORS
330
C
102
}
330
C
100
AcDbDictionary
281
     1
  3
ByBlock
350
3D
  3
ByLayer
350
3C
  3
Global
350
3E
  0
DICTIONARY
  5
9D
102
{ACAD_REACTORS
330
C
102
}
330
C
100
AcDbDictionary
281
     1
  0
DICTIONARY
  5
17
102
{ACAD_REACTORS
330
C
102
}
330
C
100
AcDbDictionary
281
     1
  3
Standard
350
18
  0
DICTIONARY
  5
19
102
{ACAD_REACTORS
330
C
102
}
330
C
100
AcDbDictionary
281
     1
  0
ACDBDICTIONARYWDFLT
  5
E
102
{ACAD_REACTORS
330
C
102
}
330
C
100
AcDbDictionary
281
     1
  3
Normal
350
F
100
AcDbDictionaryWithDefault
340
F
  0
DICTIONARY
  5
9C
102
{ACAD_REACTORS
330
C
102
}
330
C
100
AcDbDictionary
281
     1
  0
DICTIONARY
  5
2A
102
{ACAD_REACTORS
330
C
102
}
330
C
100
AcDbDictionary
281
     1
  3
2dWireframe
350
2F
  3
3D Hidden
350
31
  3
3dWireframe
350
30
  3
Basic
350
32
  3
Brighten
350
36
  3
ColorChange
350
3A
  3
Conceptual
350
34
  3
Dim
350
35
  3
Facepattern
350
39
  3
Flat
350
2B
  3
FlatWithEdges
350
2C
  3
Gouraud
350
2D
  3
GouraudWithEdges
350
2E
  3
Linepattern
350
38
  3
Realistic
350
33
  3
Thicken
350
37
  0
LAYOUT
  5
1E
102
{ACAD_REACTORS
330
1A
102
}
330
1A
100
AcDbPlotSettings
  1

  2
none_device
  4

  6

 40
0.0
 41
0.0
 42
0.0
 43
0.0
 44
0.0
 45
0.0
 46
0.0
 47
0.0
 48
0.0
 49
0.0
140
0.0
141
0.0
142
1.0
143
1.0
 70
   688
 72
     0
 73
     0
 74
     5
  7

 75
    16
 76
     0
 77
     2
 78
   300
147
1.0
148
0.0
149
0.0
100
AcDbLayout
  1
Layout1
 70
     1
 71
     1
 10
0.0
 20
0.0
 11
12.0
 21
9.0
 12
0.0
 22
0.0
 32
0.0
 14
1.000000000000000E+20
 24
1.000000000000000E+20
 34
1.000000000000000E+20
 15
-1.000000000000000E+20
 25
-1.000000000000000E+20
 35
-1.000000000000000E+20
146
0.0
 13
0.0
 23
0.0
 33
0.0
 16
1.0
 26
0.0
 36
0.0
 17
0.0
 27
1.0
 37
0.0
 76
     0
330
1B
  0
LAYOUT
  5
26
102
{ACAD_REACTORS
330
1A
102
}
330
1A
100
AcDbPlotSettings
  1

  2
none_device
  4

  6

 40
0.0
 41
0.0
 42
0.0
 43
0.0
 44
0.0
 45
0.0
 46
0.0
 47
0.0
 48
0.0
 49
0.0
140
0.0
141
0.0
142
1.0
143
1.0
 70
   688
 72
     0
 73
     0
 74
     5
  7

 75
    16
 76
     0
 77
     2
 78
   300
147
1.0
148
0.0
149
0.0
100
AcDbLayout
  1
Layout2
 70
     1
 71
     2
 10
0.0
 20
0.0
 11
0.0
 21
0.0
 12
0.0
 22
0.0
 32
0.0
 14
0.0
 24
0.0
 34
0.0
 15
0.0
 25
0.0
 35
0.0
146
0.0
 13
0.0
 23
0.0
 33
0.0
 16
1.0
 26
0.0
 36
0.0
 17
0.0
 27
1.0
 37
0.0
 76
     0
330
23
  0
LAYOUT
  5
22
102
{ACAD_REACTORS
330
1A
102
}
330
1A
100
AcDbPlotSettings
  1

  2
none_device
  4

  6

 40
0.0
 41
0.0
 42
0.0
 43
0.0
 44
0.0
 45
0.0
 46
0.0
 47
0.0
 48
0.0
 49
0.0
140
0.0
141
0.0
142
1.0
143
1.0
 70
  1712
 72
     0
 73
     0
 74
     0
  7

 75
     0
 76
     0
 77
     2
 78
   300
147
1.0
148
0.0
149
0.0
100
AcDbLayout
  1
Model
 70
     1
 71
     0
 10
0.0
 20
0.0
 11
12.0
 21
9.0
 12
0.0
 22
0.0
 32
0.0
 14
1.000000000000000E+20
 24
1.000000000000000E+20
 34
1.000000000000000E+20
 15
-1.000000000000000E+20
 25
-1.000000000000000E+20
 35
-1.000000000000000E+20
146
0.0
 13
0.0
 23
0.0
 33
0.0
 16
1.0
 26
0.0
 36
0.0
 17
0.0
 27
1.0
 37
0.0
 76
     0
330
1F
331
29
  0
MATERIAL
  5
3D
102
{ACAD_REACTORS
330
3B
102
}
330
3B
100
AcDbMaterial
  1
ByBlock
 72
     1
 94
      127
  0
MATERIAL
  5
3C
102
{ACAD_REACTORS
330
3B
102
}
330
3B
100
AcDbMaterial
  1
ByLayer
 72
     1
 94
      127
  0
MATERIAL
  5
3E
102
{ACAD_REACTORS
330
3B
102
}
330
3B
100
AcDbMaterial
  1
Global
 72
     1
 94
      127
  0
MLINESTYLE
  5
18
102
{ACAD_REACTORS
330
17
102
}
330
17
100
AcDbMlineStyle
  2
Standard
 70
     0
  3

 62
   256
 51
90.0
 52
90.0
 71
     2
 49
0.5
 62
   256
  6
BYLAYER
 49
-0.5
 62
   256
  6
BYLAYER
  0
ACDBPLACEHOLDER
  5
F
102
{ACAD_REACTORS
330
E
102
}
330
E
  0
VISUALSTYLE
  5
2F
102
{ACAD_REACTORS
330
2A
102
}
330
2A
100
AcDbVisualStyle
  2
2dWireframe
 70
     4
177
     2
291
     0
 71
     0
176
     1
 72
     2
176
     1
 73
     0
176
     1
 90
        0
176
     1
 40
-0.6
176
     1
 41
-30.0
176
     1
 62
     5
 63
     7
421
 16777215
176
     1
 74
     1
176
     1
 91
        4
176
     1
 64
     7
176
     1
 65
   257
176
     1
 75
     1
176
     1
175
     1
176
     1
 42
1.0
176
     1
 92
        0
176
     1
 66
   257
176
     1
 43
1.0
176
     1
 76
     1
176
     1
 77
     6
176
     1
 78
     2
176
     1
 67
     7
176
     1
 79
     5
176
     1
170
     0
176
     1
171
     0
176
     1
290
     0
176
     1
 93
        1
176
     1
 44
0.0
176
     1
173
     0
176
     1
  0
VISUALSTYLE
  5
31
102
{ACAD_REACTORS
330
2A
102
}
330
2A
100
AcDbVisualStyle
  2
3D Hidden
 70
     6
177
     2
291
     0
 71
     1
176
     1
 72
     2
176
     1
 73
     2
176
     1
 90
        0
176
     1
 40
-0.6
176
     1
 41
-30.0
176
     1
 62
     5
 63
     7
421
 16777215
176
     1
 74
     2
176
     1
 91
        2
176
     1
 64
     7
176
     1
 65
   257
176
     1
 75
     2
176
     1
175
     1
176
     1
 42
40.0
176
     1
 92
        0
176
     1
 66
   257
176
     1
 43
1.0
176
     1
 76
     1
176
     1
 77
     6
176
     1
 78
     2
176
     1
 67
     7
176
     1
 79
     3
176
     1
170
     0
176
     1
171
     0
176
     1
290
     0
176
     1
 93
        1
176
     1
 44
0.0
176
     1
173
     0
176
     1
  0
VISUALSTYLE
  5
30
102
{ACAD_REACTORS
330
2A
102
}
330
2A
100
AcDbVisualStyle
  2
3dWireframe
 70
     5
177
     2
291
     0
 71
     0
176
     1
 72
     2
176
     1
 73
     0
176
     1
 90
        0
176
     1
 40
-0.6
176
     1
 41
-30.0
176
     1
 62
     5
 63
     7
421
 16777215
176
     1
 74
     1
176
     1
 91
        4
176
     1
 64
     7
176
     1
 65
   257
176
     1
 75
     1
176
     1
175
     1
176
     1
 42
1.0
176
     1
 92
        0
176
     1
 66
   257
176
     1
 43
1.0
176
     1
 76
     1
176
     1
 77
     6
176
     1
 78
     2
176
     1
 67
     7
176
     1
 79
     5
176
     1
170
     0
176
     1
171
     0
176
     1
290
     0
176
     1
 93
        1
176
     1
 44
0.0
176
     1
173
     0
176
     1
  0
VISUALSTYLE
  5
32
102
{ACAD_REACTORS
330
2A
102
}
330
2A
100
AcDbVisualStyle
  2
Basic
 70
     7
177
     2
291
     1
 71
     1
176
     1
 72
     0
176
     1
 73
     1
176
     1
 90
        0
176
     1
 40
-0.6
176
     1
 41
-30.0
176
     1
 62
     5
 63
     7
421
 16777215
176
     1
 74
     0
176
     1
 91
        4
176
     1
 64
     7
176
     1
 65
   257
176
     1
 75
     1
176
     1
175
     1
176
     1
 42
1.0
176
     1
 92
        8
176
     1
 66
     7
176
     1
 43
1.0
176
     1
 76
     1
176
     1
 77
     6
176
     1
 78
     2
176
     1
 67
     7
176
     1
 79
     5
176
     1
170
     0
176
     1
171
     0
176
     1
290
     0
176
     1
 93
        1
176
     1
 44
0.0
176
     1
173
     0
176
     1
  0
VISUALSTYLE
  5
36
102
{ACAD_REACTORS
330
2A
102
}
330
2A
100
AcDbVisualStyle
  2
Brighten
 70
    12
177
     2
291
     1
 71
     2
176
     1
 72
     2
176
     1
 73
     0
176
     1
 90
        0
176
     1
 40
-0.6
176
     1
 41
-30.0
176
     1
 62
     5
 63
     7
421
 16777215
176
     1
 74
     1
176
     1
 91
        4
176
     1
 64
     7
176
     1
 65
   257
176
     1
 75
     1
176
     1
175
     1
176
     1
 42
1.0
176
     1
 92
        8
176
     1
 66
     7
176
     1
 43
1.0
176
     1
 76
     1
176
     1
 77
     6
176
     1
 78
     2
176
     1
 67
     7
176
     1
 79
     5
176
     1
170
     0
176
     1
171
     0
176
     1
290
     0
176
     1
 93
        1
176
     1
 44
50.0
176
     1
173
     0
176
     1
  0
VISUALSTYLE
  5
3A
102
{ACAD_REACTORS
330
2A
102
}
330
2A
100
AcDbVisualStyle
  2
ColorChange
 70
    16
177
     2
291
     1
 71
     2
176
     1
 72
     2
176
     1
 73
     3
176
     1
 90
        0
176
     1
 40
-0.6
176
     1
 41
-30.0
176
     1
 62
     5
 63
     8
421
  8421504
176
     1
 74
     1
176
     1
 91
        4
176
     1
 64
     7
176
     1
 65
   257
176
     1
 75
     1
176
     1
175
     1
176
     1
 42
1.0
176
     1
 92
        8
176
     1
 66
     8
424
  8421504
176
     1
 43
1.0
176
     1
 76
     1
176
     1
 77
     6
176
     1
 78
     2
176
     1
 67
     7
176
     1
 79
     5
176
     1
170
     0
176
     1
171
     0
176
     1
290
     0
176
     1
 93
        1
176
     1
 44
0.0
176
     1
173
     0
176
     1
  0
VISUALSTYLE
  5
34
102
{ACAD_REACTORS
330
2A
102
}
330
2A
100
AcDbVisualStyle
  2
Conceptual
 70
     9
177
     2
291
     0
 71
     3
176
     1
 72
     2
176
     1
 73
     0
176
     1
 90
        0
176
     1
 40
-0.6
176
     1
 41
-30.0
176
     1
 62
     5
 63
     7
421
 16777215
176
     1
 74
     2
176
     1
 91
        2
176
     1
 64
     7
176
     1
 65
   257
176
     1
 75
     1
176
     1
175
     1
176
     1
 42
40.0
176
     1
 92
        8
176
     1
 66
     7
176
     1
 43
1.0
176
     1
 76
     1
176
     1
 77
     6
176
     1
 78
     2
176
     1
 67
     7
176
     1
 79
     3
176
     1
170
     0
176
     1
171
     0
176
     1
290
     0
176
     1
 93
        1
176
     1
 44
0.0
176
     1
173
     0
176
     1
  0
VISUALSTYLE
  5
35
102
{ACAD_REACTORS
330
2A
102
}
330
2A
100
AcDbVisualStyle
  2
Dim
 70
    11
177
     2
291
     1
 71
     2
176
     1
 72
     2
176
     1
 73
     0
176
     1
 90
        0
176
     1
 40
-0.6
176
     1
 41
-30.0
176
     1
 62
     5
 63
     7
421
 16777215
176
     1
 74
     1
176
     1
 91
        4
176
     1
 64
     7
176
     1
 65
   257
176
     1
 75
     1
176
     1
175
     1
176
     1
 42
1.0
176
     1
 92
        8
176
     1
 66
     7
176
     1
 43
1.0
176
     1
 76
     1
176
     1
 77
     6
176
     1
 78
     2
176
     1
 67
     7
176
     1
 79
     5
176
     1
170
     0
176
     1
171
     0
176
     1
290
     0
176
     1
 93
        1
176
     1
 44
-50.0
176
     1
173
     0
176
     1
  0
VISUALSTYLE
  5
39
102
{ACAD_REACTORS
330
2A
102
}
330
2A
100
AcDbVisualStyle
  2
Facepattern
 70
    15
177
     2
291
     1
 71
     2
176
     1
 72
     2
176
     1
 73
     0
176
     1
 90
        0
176
     1
 40
-0.6
176
     1
 41
-30.0
176
     1
 62
     5
 63
     7
421
 16777215
176
     1
 74
     1
176
     1
 91
        4
176
     1
 64
     7
176
     1
 65
   257
176
     1
 75
     1
176
     1
175
     1
176
     1
 42
1.0
176
     1
 92
        8
176
     1
 66
     7
176
     1
 43
1.0
176
     1
 76
     1
176
     1
 77
     6
176
     1
 78
     2
176
     1
 67
     7
176
     1
 79
     5
176
     1
170
     0
176
     1
171
     0
176
     1
290
     0
176
     1
 93
        1
176
     1
 44
0.0
176
     1
173
     0
176
     1
  0
VISUALSTYLE
  5
2B
102
{ACAD_REACTORS
330
2A
102
}
330
2A
100
AcDbVisualStyle
  2
Flat
 70
     0
177
     2
291
     1
 71
     2
176
     1
 72
     1
176
     1
 73
     1
176
     1
 90
        2
176
     1
 40
-0.6
176
     1
 41
30.0
176
     1
 62
     5
 63
     7
421
 16777215
176
     1
 74
     0
176
     1
 91
        4
176
     1
 64
     7
176
     1
 65
   257
176
     1
 75
     1
176
     1
175
     1
176
     1
 42
1.0
176
     1
 92
        8
176
     1
 66
     7
176
     1
 43
1.0
176
     1
 76
     1
176
     1
 77
     6
176
     1
 78
     2
176
     1
 67
     7
176
     1
 79
     5
176
     1
170
     0
176
     1
171
     0
176
     1
290
     0
176
     1
 93
       13
176
     1
 44
0.0
176
     1
173
     0
176
     1
  0
VISUALSTYLE
  5
2C
102
{ACAD_REACTORS
330
2A
102
}
330
2A
100
AcDbVisualStyle
  2
FlatWithEdges
 70
     1
177
     2
291
     1
 71
     2
176
     1
 72
     1
176
     1
 73
     1
176
     1
 90
        2
176
     1
 40
-0.6
176
     1
 41
30.0
176
     1
 62
     5
 63
     7
421
 16777215
176
     1
 74
     1
176
     1
 91
        4
176
     1
 64
     7
176
     1
 65
   257
176
     1
 75
     1
176
     1
175
     1
176
     1
 42
1.0
176
     1
 92
        0
176
     1
 66
   257
176
     1
 43
1.0
176
     1
 76
     1
176
     1
 77
     6
176
     1
 78
     2
176
     1
 67
     7
176
     1
 79
     5
176
     1
170
     0
176
     1
171
     0
176
     1
290
     0
176
     1
 93
       13
176
     1
 44
0.0
176
     1
173
     0
176
     1
  0
VISUALSTYLE
  5
2D
102
{ACAD_REACTORS
330
2A
102
}
330
2A
100
AcDbVisualStyle
  2
Gouraud
 70
     2
177
     2
291
     1
 71
     2
176
     1
 72
     2
176
     1
 73
     1
176
     1
 90
        2
176
     1
 40
-0.6
176
     1
 41
30.0
176
     1
 62
     5
 63
     7
421
 16777215
176
     1
 74
     0
176
     1
 91
        4
176
     1
 64
     7
176
     1
 65
   257
176
     1
 75
     1
176
     1
175
     1
176
     1
 42
1.0
176
     1
 92
        0
176
     1
 66
     7
176
     1
 43
1.0
176
     1
 76
     1
176
     1
 77
     6
176
     1
 78
     2
176
     1
 67
     7
176
     1
 79
     5
176
     1
170
     0
176
     1
171
     0
176
     1
290
     0
176
     1
 93
       13
176
     1
 44
0.0
176
     1
173
     0
176
     1
  0
VISUALSTYLE
  5
2E
102
{ACAD_REACTORS
330
2A
102
}
330
2A
100
AcDbVisualStyle
  2
GouraudWithEdges
 70
     3
177
     2
291
     1
 71
     2
176
     1
 72
     2
176
     1
 73
     1
176
     1
 90
        2
176
     1
 40
-0.6
176
     1
 41
30.0
176
     1
 62
     5
 63
     7
421
 16777215
176
     1
 74
     1
176
     1
 91
        4
176
     1
 64
     7
176
     1
 65
   257
176
     1
 75
     1
176
     1
175
     1
176
     1
 42
1.0
176
     1
 92
        0
176
     1
 66
   257
176
     1
 43
1.0
176
     1
 76
     1
176
     1
 77
     6
176
     1
 78
     2
176
     1
 67
     7
176
     1
 79
     5
176
     1
170
     0
176
     1
171
     0
176
     1
290
     0
176
     1
 93
       13
176
     1
 44
0.0
176
     1
173
     0
176
     1
  0
VISUALSTYLE
  5
38
102
{ACAD_REACTORS
330
2A
102
}
330
2A
100
AcDbVisualStyle
  2
Linepattern
 70
    14
177
     2
291
     1
 71
     2
176
     1
 72
     2
176
     1
 73
     0
176
     1
 90
        0
176
     1
 40
-0.6
176
     1
 41
-30.0
176
     1
 62
     5
 63
     7
421
 16777215
176
     1
 74
     1
176
     1
 91
        4
176
     1
 64
     7
176
     1
 65
   257
176
     1
 75
     7
176
     1
175
     7
176
     1
 42
1.0
176
     1
 92
        8
176
     1
 66
     7
176
     1
 43
1.0
176
     1
 76
     1
176
     1
 77
     6
176
     1
 78
     2
176
     1
 67
     7
176
     1
 79
     5
176
     1
170
     0
176
     1
171
     0
176
     1
290
     0
176
     1
 93
        1
176
     1
 44
0.0
176
     1
173
     0
176
     1
  0
VISUALSTYLE
  5
33
102
{ACAD_REACTORS
330
2A
102
}
330
2A
100
AcDbVisualStyle
  2
Realistic
 70
     8
177
     2
291
     0
 71
     2
176
     1
 72
     2
176
     1
 73
     0
176
     1
 90
        0
176
     1
 40
-0.6
176
     1
 41
-30.0
176
     1
 62
     5
 63
     7
421
 16777215
176
     1
 74
     1
176
     1
 91
        0
176
     1
 64
     7
176
     1
 65
   257
176
     1
 75
     1
176
     1
175
     1
176
     1
 42
1.0
176
     1
 92
        8
176
     1
 66
     8
424
  7895160
176
     1
 43
1.0
176
     1
 76
     1
176
     1
 77
     6
176
     1
 78
     2
176
     1
 67
     7
176
     1
 79
     5
176
     1
170
     0
176
     1
171
     0
176
     1
290
     0
176
     1
 93
       13
176
     1
 44
0.0
176
     1
173
     0
176
     1
  0
VISUALSTYLE
  5
37
102
{ACAD_REACTORS
330
2A
102
}
330
2A
100
AcDbVisualStyle
  2
Thicken
 70
    13
177
     2
291
     1
 71
     2
176
     1
 72
     2
176
     1
 73
     0
176
     1
 90
        0
176
     1
 40
-0.6
176
     1
 41
-30.0
176
     1
 62
     5
 63
     7
421
 16777215
176
     1
 74
     1
176
     1
 91
        4
176
     1
 64
     7
176
     1
 65
   257
176
     1
 75
     1
176
     1
175
     1
176
     1
 42
1.0
176
     1
 92
       12
176
     1
 66
     7
176
     1
 43
1.0
176
     1
 76
     1
176
     1
 77
     6
176
     1
 78
     2
176
     1
 67
     7
176
     1
 79
     5
176
     1
170
     0
176
     1
171
     0
176
     1
290
     0
176
     1
 93
        1
176
     1
 44
0.0
176
     1
173
     0
176
     1
  0
ENDSEC
  0
EOF
