  0
SECTION
  2
HEADER
  9
$ACADVER
  1
AC1024
  9
$ACADMAINTVER
 70
   226
  9
$DWGCODEPAGE
  3
ANSI_932
  9
$INSBASE
 10
0.0
 20
0.0
 30
0.0
  9
$EXTMIN
 10
1.000000000000000E+20
 20
1.000000000000000E+20
 30
1.000000000000000E+20
  9
$EXTMAX
 10
-1.000000000000000E+20
 20
-1.000000000000000E+20
 30
-1.000000000000000E+20
  9
$LIMMIN
 10
0.0
 20
0.0
  9
$LIMMAX
 10
12.0
 20
9.0
  9
$ORTHOMODE
 70
     0
  9
$REGENMODE
 70
     1
  9
$FILLMODE
 70
     1
  9
$QTEXTMODE
 70
     0
  9
$MIRRTEXT
 70
     0
  9
$LTSCALE
 40
1.0
  9
$ATTMODE
 70
     1
  9
$TEXTSIZE
 40
0.2
  9
$TRACEWID
 40
0.05
  9
$TEXTSTYLE
  7
Standard
  9
$CLAYER
  8
0
  9
$CELTYPE
  6
ByLayer
  9
$CECOLOR
 62
   256
  9
$CELTSCALE
 40
1.0
  9
$DISPSILH
 70
     0
  9
$DIMSCALE
 40
1.0
  9
$DIMASZ
 40
0.18
  9
$DIMEXO
 40
0.0625
  9
$DIMDLI
 40
0.38
  9
$DIMRND
 40
0.0
  9
$DIMDLE
 40
0.0
  9
$DIMEXE
 40
0.18
  9
$DIMTP
 40
0.0
  9
$DIMTM
 40
0.0
  9
$DIMTXT
 40
0.18
  9
$DIMCEN
 40
0.09
  9
$DIMTSZ
 40
0.0
  9
$DIMTOL
 70
     0
  9
$DIMLIM
 70
     0
  9
$DIMTIH
 70
     1
  9
$DIMTOH
 70
     1
  9
$DIMSE1
 70
     0
  9
$DIMSE2
 70
     0
  9
$DIMTAD
 70
     0
  9
$DIMZIN
 70
     0
  9
$DIMBLK
  1

  9
$DIMASO
 70
     1
  9
$DIMSHO
 70
     1
  9
$DIMPOST
  1

  9
$DIMAPOST
  1

  9
$DIMALT
 70
     0
  9
$DIMALTD
 70
     2
  9
$DIMALTF
 40
25.4
  9
$DIMLFAC
 40
1.0
  9
$DIMTOFL
 70
     0
  9
$DIMTVP
 40
0.0
  9
$DIMTIX
 70
     0
  9
$DIMSOXD
 70
     0
  9
$DIMSAH
 70
     0
  9
$DIMBLK1
  1

  9
$DIMBLK2
  1

  9
$DIMSTYLE
  2
Standard
  9
$DIMCLRD
 70
     0
  9
$DIMCLRE
 70
     0
  9
$DIMCLRT
 70
     0
  9
$DIMTFAC
 40
1.0
  9
$DIMGAP
 40
0.09
  9
$DIMJUST
 70
     0
  9
$DIMSD1
 70
     0
  9
$DIMSD2
 70
     0
  9
$DIMTOLJ
 70
     1
  9
$DIMTZIN
 70
     0
  9
$DIMALTZ
 70
     0
  9
$DIMALTTZ
 70
     0
  9
$DIMUPT
 70
     0
  9
$DIMDEC
 70
     4
  9
$DIMTDEC
 70
     4
  9
$DIMALTU
 70
     2
  9
$DIMALTTD
 70
     2
  9
$DIMTXSTY
  7
Standard
  9
$DIMAUNIT
 70
     0
  9
$DIMADEC
 70
     0
  9
$DIMALTRND
 40
0.0
  9
$DIMAZIN
 70
     0
  9
$DIMDSEP
 70
    46
  9
$DIMATFIT
 70
     3
  9
$DIMFRAC
 70
     0
  9
$DIMLDRBLK
  1

  9
$DIMLUNIT
 70
     2
  9
$DIMLWD
 70
    -2
  9
$DIMLWE
 70
    -2
  9
$DIMTMOVE
 70
     0
  9
$DIMFXL
 40
1.0
  9
$DIMFXLON
 70
     0
  9
$DIMJOGANG
 40
0.7853981633974483
  9
$DIMTFILL
 70
     0
  9
$DIMTFILLCLR
 70
     0
  9
$DIMARCSYM
 70
     0
  9
$DIMLTYPE
  6

  9
$DIMLTEX1
  6

  9
$DIMLTEX2
  6

  9
$DIMTXTDIRECTION
 70
     0
  9
$LUNITS
 70
     2
  9
$LUPREC
 70
     4
  9
$SKETCHINC
 40
0.1
  9
$FILLETRAD
 40
0.0
  9
$AUNITS
 70
     0
  9
$AUPREC
 70
     0
  9
$MENU
  1
.
  9
$ELEVATION
 40
0.0
  9
$PELEVATION
 40
0.0
  9
$THICKNESS
 40
0.0
  9
$LIMCHECK
 70
     0
  9
$CHAMFERA
 40
0.0
  9
$CHAMFERB
 40
0.0
  9
$CHAMFERC
 40
0.0
  9
$CHAMFERD
 40
0.0
  9
$SKPOLY
 70
     0
  9
$TDCREATE
 40
2459569.503171296
  9
$TDUCREATE
 40
2459569.128171296
  9
$TDUPDATE
 40
2459569.503171296
  9
$TDUUPDATE
 40
2459569.128171296
  9
$TDINDWG
 40
0.0000000000
  9
$TDUSRTIMER
 40
0.0000000000
  9
$USRTIMER
 70
     1
  9
$ANGBASE
 50
0.0
  9
$ANGDIR
 70
     0
  9
$PDMODE
 70
     0
  9
$PDSIZE
 40
0.0
  9
$PLINEWID
 40
0.0
  9
$SPLFRAME
 70
     0
  9
$SPLINETYPE
 70
     6
  9
$SPLINESEGS
 70
     8
  9
$HANDSEED
  5
1AB
  9
$SURFTAB1
 70
     6
  9
$SURFTAB2
 70
     6
  9
$SURFTYPE
 70
     6
  9
$SURFU
 70
     6
  9
$SURFV
 70
     6
  9
$UCSBASE
  2

  9
$UCSNAME
  2

  9
$UCSORG
 10
0.0
 20
0.0
 30
0.0
  9
$UCSXDIR
 10
1.0
 20
0.0
 30
0.0
  9
$UCSYDIR
 10
0.0
 20
1.0
 30
0.0
  9
$UCSORTHOREF
  2

  9
$UCSORTHOVIEW
 70
     0
  9
$UCSORGTOP
 10
0.0
 20
0.0
 30
0.0
  9
$UCSORGBOTTOM
 10
0.0
 20
0.0
 30
0.0
  9
$UCSORGLEFT
 10
0.0
 20
0.0
 30
0.0
  9
$UCSORGRIGHT
 10
0.0
 20
0.0
 30
0.0
  9
$UCSORGFRONT
 10
0.0
 20
0.0
 30
0.0
  9
$UCSORGBACK
 10
0.0
 20
0.0
 30
0.0
  9
$PUCSBASE
  2

  9
$PUCSNAME
  2

  9
$PUCSORG
 10
0.0
 20
0.0
 30
0.0
  9
$PUCSXDIR
 10
1.0
 20
0.0
 30
0.0
  9
$PUCSYDIR
 10
0.0
 20
1.0
 30
0.0
  9
$PUCSORTHOREF
  2

  9
$PUCSORTHOVIEW
 70
     0
  9
$PUCSORGTOP
 10
0.0
 20
0.0
 30
0.0
  9
$PUCSORGBOTTOM
 10
0.0
 20
0.0
 30
0.0
  9
$PUCSORGLEFT
 10
0.0
 20
0.0
 30
0.0
  9
$PUCSORGRIGHT
 10
0.0
 20
0.0
 30
0.0
  9
$PUCSORGFRONT
 10
0.0
 20
0.0
 30
0.0
  9
$PUCSORGBACK
 10
0.0
 20
0.0
 30
0.0
  9
$USERI1
 70
     0
  9
$USERI2
 70
     0
  9
$USERI3
 70
     0
  9
$USERI4
 70
     0
  9
$USERI5
 70
     0
  9
$USERR1
 40
0.0
  9
$USERR2
 40
0.0
  9
$USERR3
 40
0.0
  9
$USERR4
 40
0.0
  9
$USERR5
 40
0.0
  9
$WORLDVIEW
 70
     1
  9
$SHADEDGE
 70
     3
  9
$SHADEDIF
 70
    70
  9
$TILEMODE
 70
     1
  9
$MAXACTVP
 70
    64
  9
$PINSBASE
 10
0.0
 20
0.0
 30
0.0
  9
$PLIMCHECK
 70
     0
  9
$PEXTMIN
 10
1.000000000000000E+20
 20
1.000000000000000E+20
 30
1.000000000000000E+20
  9
$PEXTMAX
 10
-1.000000000000000E+20
 20
-1.000000000000000E+20
 30
-1.000000000000000E+20
  9
$PLIMMIN
 10
0.0
 20
0.0
  9
$PLIMMAX
 10
12.0
 20
9.0
  9
$UNITMODE
 70
     0
  9
$VISRETAIN
 70
     1
  9
$PLINEGEN
 70
     0
  9
$PSLTSCALE
 70
     1
  9
$TREEDEPTH
 70
  3020
  9
$CMLSTYLE
  2
Standard
  9
$CMLJUST
 70
     0
  9
$CMLSCALE
 40
1.0
  9
$PROXYGRAPHICS
 70
     1
  9
$MEASUREMENT
 70
     0
  9
$CELWEIGHT
370
    -1
  9
$ENDCAPS
280
     0
  9
$JOINSTYLE
280
     0
  9
$LWDISPLAY
290
     1
  9
$INSUNITS
 70
     4
  9
$HYPERLINKBASE
  1

  9
$STYLESHEET
  1

  9
$XEDIT
290
     1
  9
$CEPSNTYPE
380
     0
  9
$PSTYLEMODE
290
     1
  9
$FINGERPRINTGUID
  2
{5ADA0A0B-1F6A-CC48-A4DC-9C22CBC2E925}
  9
$VERSIONGUID
  2
{E2D3CB2C-F851-D64A-BC38-6DB1D06E9BBC}
  9
$EXTNAMES
290
     1
  9
$PSVPSCALE
 40
0.0
  9
$OLESTARTUP
290
     0
  9
$SORTENTS
280
   127
  9
$INDEXCTL
280
     0
  9
$HIDETEXT
280
     1
  9
$XCLIPFRAME
280
     2
  9
$HALOGAP
280
     0
  9
$OBSCOLOR
 70
   257
  9
$OBSLTYPE
280
     0
  9
$INTERSECTIONDISPLAY
280
     0
  9
$INTERSECTIONCOLOR
 70
   257
  9
$DIMASSOC
280
     2
  9
$PROJECTNAME
  1

  9
$CAMERADISPLAY
290
     0
  9
$LENSLENGTH
 40
50.0
  9
$CAMERAHEIGHT
 40
0.0
  9
$STEPSPERSEC
 40
2.0
  9
$STEPSIZE
 40
6.0
  9
$3DDWFPREC
 40
2.0
  9
$PSOLWIDTH
 40
0.25
  9
$PSOLHEIGHT
 40
4.0
  9
$LOFTANG1
 40
1.570796326794896
  9
$LOFTANG2
 40
1.570796326794896
  9
$LOFTMAG1
 40
0.0
  9
$LOFTMAG2
 40
0.0
  9
$LOFTPARAM
 70
     7
  9
$LOFTNORMALS
280
     1
  9
$LATITUDE
 40
37.795
  9
$LONGITUDE
 40
-122.394
  9
$NORTHDIRECTION
 40
0.0
  9
$TIMEZONE
 70
 -8000
  9
$LIGHTGLYPHDISPLAY
280
     1
  9
$TILEMODELIGHTSYNCH
280
     1
  9
$CMATERIAL
347
11
  9
$SOLIDHIST
280
     0
  9
$SHOWHIST
280
     1
  9
$DWFFRAME
280
     2
  9
$DGNFRAME
280
     0
  9
$REALWORLDSCALE
290
     1
  9
$INTERFERECOLOR
 62
     1
  9
$INTERFEREOBJVS
345
33
  9
$INTERFEREVPVS
346
30
  9
$CSHADOW
280
     0
  9
$SHADOWPLANELOCATION
 40
0.0
  0
ENDSEC
  0
SECTION
  2
CLASSES
  0
CLASS
  1
ACDBDICTIONARYWDFLT
  2
AcDbDictionaryWithDefault
  3
ObjectDBX Classes
 90
        0
 91
        1
280
     0
281
     0
  0
CLASS
  1
MATERIAL
  2
AcDbMaterial
  3
ObjectDBX Classes
 90
     1153
 91
        3
280
     0
281
     0
  0
CLASS
  1
VISUALSTYLE
  2
AcDbVisualStyle
  3
ObjectDBX Classes
 90
     4095
 91
       24
280
     0
281
     0
  0
CLASS
  1
SCALE
  2
AcDbScale
  3
ObjectDBX Classes
 90
     1153
 91
       17
280
     0
281
     0
  0
CLASS
  1
TABLESTYLE
  2
AcDbTableStyle
  3
ObjectDBX Classes
 90
     4095
 91
        1
280
     0
281
     0
  0
CLASS
  1
MLEADERSTYLE
  2
AcDbMLeaderStyle
  3
ACDB_MLEADERSTYLE_CLASS
 90
     4095
 91
        1
280
     0
281
     0
  0
CLASS
  1
ACDBSECTIONVIEWSTYLE
  2
AcDbSectionViewStyle
  3
ObjectDBX Classes
 90
     1025
 91
        1
280
     0
281
     0
  0
CLASS
  1
ACDBDETAILVIEWSTYLE
  2
AcDbDetailViewStyle
  3
ObjectDBX Classes
 90
     1025
 91
        1
280
     0
281
     0
  0
CLASS
  1
DICTIONARYVAR
  2
AcDbDictionaryVar
  3
ObjectDBX Classes
 90
        0
 91
        5
280
     0
281
     0
  0
CLASS
  1
CELLSTYLEMAP
  2
AcDbCellStyleMap
  3
ObjectDBX Classes
 90
     1152
 91
        1
280
     0
281
     0
  0
ENDSEC
  0
SECTION
  2
TABLES
  0
TABLE
  2
VPORT
  5
8
330
0
100
AcDbSymbolTable
 70
     1
  0
VPORT
  5
57
330
8
100
AcDbSymbolTableRecord
100
AcDbViewportTableRecord
  2
*Active
 70
     0
 10
0.0
 20
0.0
 11
1.0
 21
1.0
 12
0.0
 22
0.0
 13
0.0
 23
0.0
 14
1.0
 24
1.0
 15
0.0
 25
0.0
 16
0.0
 26
0.0
 36
1.0
 17
104.9999999737534
 27
-148.4999999628701
 37
0.0
 40
302.939999924255
 41
0.7070707070707534
 42
50.0
 43
0.0
 44
0.0
 50
0.0
 51
0.0
 71
     0
 72
   100
 73
     1
 74
     0
 75
     1
 76
     0
 77
     0
 78
     0
281
     0
 65
     1
110
0.0
120
0.0
130
0.0
111
1.0
121
0.0
131
0.0
112
0.0
122
1.0
132
0.0
 79
     0
146
0.0
 60
     3
 61
     5
292
     1
282
     1
141
0.0
142
0.0
 63
   250
421
  3355443
  0
ENDTAB
  0
TABLE
  2
LTYPE
  5
5
330
0
100
AcDbSymbolTable
 70
     2
  0
LTYPE
  5
5B
330
5
100
AcDbSymbolTableRecord
100
AcDbLinetypeTableRecord
  2
ByBlock
 70
     0
  3

 72
    65
 73
     0
 40
0.0
  0
LTYPE
  5
5C
330
5
100
AcDbSymbolTableRecord
100
AcDbLinetypeTableRecord
  2
ByLayer
 70
     0
  3

 72
    65
 73
     0
 40
0.0
  0
LTYPE
  5
5D
330
5
100
AcDbSymbolTableRecord
100
AcDbLinetypeTableRecord
  2
Continuous
 70
     0
  3
Solid line
 72
    65
 73
     0
 40
0.0
  0
LTYPE
  5
A5
330
5
100
AcDbSymbolTableRecord
100
AcDbLinetypeTableRecord
  2
AI-Linetype-0
 70
     0
  3
Adobe Illustrator Linetype No. 0
 72
    65
 73
     2
 40
1.411111110758333
 49
0.7055555553791667
 74
     0
 49
-0.7055555553791667
 74
     0
  0
ENDTAB
  0
TABLE
  2
LAYER
  5
2
330
0
100
AcDbSymbolTable
 70
     2
  0
LAYER
  5
54
330
2
100
AcDbSymbolTableRecord
100
AcDbLayerTableRecord
  2
0
 70
     0
 62
     7
  6
Continuous
370
    -3
390
F
347
21
  0
LAYER
  5
78
330
2
100
AcDbSymbolTableRecord
100
AcDbLayerTableRecord
  2
レイヤー 1
 70
     0
 62
     7
  6
Continuous
370
     0
390
F
347
21
  0
ENDTAB
  0
TABLE
  2
STYLE
  5
3
330
0
100
AcDbSymbolTable
 70
     2
  0
STYLE
  5
55
330
3
100
AcDbSymbolTableRecord
100
AcDbTextStyleTableRecord
  2
Standard
 70
     0
 40
0.0
 41
1.0
 50
0.0
 71
     0
 42
0.2
  3
txt
  4

  0
STYLE
  5
5A
330
3
100
AcDbSymbolTableRecord
100
AcDbTextStyleTableRecord
  2
Annotative
 70
     0
 40
0.0
 41
1.0
 50
0.0
 71
     0
 42
0.2
  3
txt
  4

1001
AcadAnnotative
1000
AnnotativeData
1002
{
1070
     1
1070
     1
1002
}
  0
ENDTAB
  0
TABLE
  2
VIEW
  5
6
330
0
100
AcDbSymbolTable
 70
     0
  0
ENDTAB
  0
TABLE
  2
UCS
  5
7
330
0
100
AcDbSymbolTable
 70
     0
  0
ENDTAB
  0
TABLE
  2
APPID
  5
9
330
0
100
AcDbSymbolTable
 70
     2
  0
APPID
  5
56
330
9
100
AcDbSymbolTableRecord
100
AcDbRegAppTableRecord
  2
ACAD
 70
     0
  0
APPID
  5
5E
330
9
100
AcDbSymbolTableRecord
100
AcDbRegAppTableRecord
  2
AcadAnnotative
 70
     0
  0
ENDTAB
  0
TABLE
  2
DIMSTYLE
  5
A
330
0
100
AcDbSymbolTable
 70
     2
100
AcDbDimStyleTable
 71
     0
  0
DIMSTYLE
105
58
330
A
100
AcDbSymbolTableRecord
100
AcDbDimStyleTableRecord
  2
Standard
 70
     0
340
55
  0
DIMSTYLE
105
59
330
A
100
AcDbSymbolTableRecord
100
AcDbDimStyleTableRecord
  2
Annotative
 70
     0
340
55
1001
AcadAnnotative
1000
AnnotativeData
1002
{
1070
     1
1070
     1
1002
}
  0
ENDTAB
  0
TABLE
  2
BLOCK_RECORD
  5
1
330
0
100
AcDbSymbolTable
 70
    17
  0
BLOCK_RECORD
  5
70
330
1
100
AcDbSymbolTableRecord
100
AcDbBlockTableRecord
  2
*Model_Space
340
73
 70
     0
280
     1
281
     0
  0
BLOCK_RECORD
  5
6C
330
1
100
AcDbSymbolTableRecord
100
AcDbBlockTableRecord
  2
*Paper_Space
340
6F
 70
     0
280
     1
281
     0
  0
BLOCK_RECORD
  5
74
330
1
100
AcDbSymbolTableRecord
100
AcDbBlockTableRecord
  2
*Paper_Space0
340
77
 70
     0
280
     1
281
     0
  0
BLOCK_RECORD
  5
79
330
1
100
AcDbSymbolTableRecord
100
AcDbBlockTableRecord
  2
Block_0
340
0
102
{BLKREFS
331
7A
102
}
 70
     0
280
     1
281
     0
  0
BLOCK_RECORD
  5
7D
330
1
100
AcDbSymbolTableRecord
100
AcDbBlockTableRecord
  2
Block_1
340
0
102
{BLKREFS
331
7E
102
}
 70
     0
280
     1
281
     0
  0
BLOCK_RECORD
  5
81
330
1
100
AcDbSymbolTableRecord
100
AcDbBlockTableRecord
  2
Block_2
340
0
102
{BLKREFS
331
82
102
}
 70
     0
280
     1
281
     0
  0
BLOCK_RECORD
  5
A6
330
1
100
AcDbSymbolTableRecord
100
AcDbBlockTableRecord
  2
Block_3
340
0
102
{BLKREFS
331
A7
102
}
 70
     0
280
     1
281
     0
  0
BLOCK_RECORD
  5
111
330
1
100
AcDbSymbolTableRecord
100
AcDbBlockTableRecord
  2
Block_4
340
0
102
{BLKREFS
331
112
102
}
 70
     0
280
     1
281
     0
  0
BLOCK_RECORD
  5
115
330
1
100
AcDbSymbolTableRecord
100
AcDbBlockTableRecord
  2
Block_5
340
0
102
{BLKREFS
331
116
102
}
 70
     0
280
     1
281
     0
  0
BLOCK_RECORD
  5
122
330
1
100
AcDbSymbolTableRecord
100
AcDbBlockTableRecord
  2
Block_6
340
0
102
{BLKREFS
331
123
102
}
 70
     0
280
     1
281
     0
  0
BLOCK_RECORD
  5
126
330
1
100
AcDbSymbolTableRecord
100
AcDbBlockTableRecord
  2
Block_7
340
0
102
{BLKREFS
331
127
102
}
 70
     0
280
     1
281
     0
  0
BLOCK_RECORD
  5
130
330
1
100
AcDbSymbolTableRecord
100
AcDbBlockTableRecord
  2
Block_8
340
0
102
{BLKREFS
331
131
102
}
 70
     0
280
     1
281
     0
  0
BLOCK_RECORD
  5
138
330
1
100
AcDbSymbolTableRecord
100
AcDbBlockTableRecord
  2
Block_9
340
0
102
{BLKREFS
331
139
102
}
 70
     0
280
     1
281
     0
  0
BLOCK_RECORD
  5
13C
330
1
100
AcDbSymbolTableRecord
100
AcDbBlockTableRecord
  2
Block_10
340
0
102
{BLKREFS
331
13D
102
}
 70
     0
280
     1
281
     0
  0
BLOCK_RECORD
  5
147
330
1
100
AcDbSymbolTableRecord
100
AcDbBlockTableRecord
  2
Block_11
340
0
102
{BLKREFS
331
148
102
}
 70
     0
280
     1
281
     0
  0
BLOCK_RECORD
  5
14B
330
1
100
AcDbSymbolTableRecord
100
AcDbBlockTableRecord
  2
Block_12
340
0
102
{BLKREFS
331
14C
102
}
 70
     0
280
     1
281
     0
  0
BLOCK_RECORD
  5
159
330
1
100
AcDbSymbolTableRecord
100
AcDbBlockTableRecord
  2
Block_13
340
0
102
{BLKREFS
331
15A
102
}
 70
     0
280
     1
281
     0
  0
BLOCK_RECORD
  5
15D
330
1
100
AcDbSymbolTableRecord
100
AcDbBlockTableRecord
  2
Block_14
340
0
102
{BLKREFS
331
15E
102
}
 70
     0
280
     1
281
     0
  0
BLOCK_RECORD
  5
166
330
1
100
AcDbSymbolTableRecord
100
AcDbBlockTableRecord
  2
Block_15
340
0
102
{BLKREFS
331
167
102
}
 70
     0
280
     1
281
     0
  0
ENDTAB
  0
ENDSEC
  0
SECTION
  2
BLOCKS
  0
BLOCK
  5
71
330
70
100
AcDbEntity
  8
0
100
AcDbBlockBegin
  2
*Model_Space
 70
     0
 10
0.0
 20
0.0
 30
0.0
  3
*Model_Space
  1

  0
ENDBLK
  5
72
330
70
100
AcDbEntity
  8
0
100
AcDbBlockEnd
  0
BLOCK
  5
6D
330
6C
100
AcDbEntity
 67
     1
  8
0
100
AcDbBlockBegin
  2
*Paper_Space
 70
     0
 10
0.0
 20
0.0
 30
0.0
  3
*Paper_Space
  1

  0
ENDBLK
  5
6E
330
6C
100
AcDbEntity
 67
     1
  8
0
100
AcDbBlockEnd
  0
BLOCK
  5
75
330
74
100
AcDbEntity
 67
     1
  8
0
100
AcDbBlockBegin
  2
*Paper_Space0
 70
     0
 10
0.0
 20
0.0
 30
0.0
  3
*Paper_Space0
  1

  0
ENDBLK
  5
76
330
74
100
AcDbEntity
 67
     1
  8
0
100
AcDbBlockEnd
  0
BLOCK
  5
7B
330
79
100
AcDbEntity
  8
0
100
AcDbBlockBegin
  2
Block_0
 70
     0
 10
0.0
 20
0.0
 30
0.0
  3
Block_0
  1

  0
INSERT
  5
7E
330
79
100
AcDbEntity
  8
レイヤー 1
100
AcDbBlockReference
  2
Block_1
 10
0.0
 20
0.0
 30
0.0
  0
LWPOLYLINE
  5
A3
330
79
100
AcDbEntity
  8
レイヤー 1
 62
   250
420
  2299925
370
     9
100
AcDbPolyline
 90
        3
 70
     0
 43
0.0
 10
118.6317339175007
 20
-146.0698718244978
 10
124.8053448711099
 20
-154.183584322469
 10
135.447239044057
 20
-154.183584322469
  0
LWPOLYLINE
  5
A4
330
79
100
AcDbEntity
  8
レイヤー 1
  6
AI-Linetype-0
 62
   154
420
    23468
370
    25
100
AcDbPolyline
 90
        6
 70
     0
 43
0.0
 10
79.70852796606969
 20
-146.7754273798769
 10
101.3456232473947
 20
-145.7758315467936
 10
101.3456232473947
 20
-151.0674982121373
 10
110.2236285764538
 20
-151.0674982121373
 10
110.2236285764538
 20
-145.6583565468231
 10
131.8019863592774
 20
-146.6577759910176
  0
INSERT
  5
A7
330
79
100
AcDbEntity
  8
レイヤー 1
100
AcDbBlockReference
  2
Block_3
 10
0.0
 20
0.0
 30
0.0
  0
ENDBLK
  5
7C
330
79
100
AcDbEntity
  8
0
100
AcDbBlockEnd
  0
BLOCK
  5
7F
330
7D
100
AcDbEntity
  8
0
100
AcDbBlockBegin
  2
Block_1
 70
     0
 10
0.0
 20
0.0
 30
0.0
  3
Block_1
  1

  0
INSERT
  5
82
330
7D
100
AcDbEntity
  8
レイヤー 1
100
AcDbBlockReference
  2
Block_2
 10
0.0
 20
0.0
 30
0.0
  0
ENDBLK
  5
80
330
7D
100
AcDbEntity
  8
0
100
AcDbBlockEnd
  0
BLOCK
  5
83
330
81
100
AcDbEntity
  8
0
100
AcDbBlockBegin
  2
Block_2
 70
     0
 10
0.0
 20
0.0
 30
0.0
  3
Block_2
  1

  0
SPLINE
  5
85
330
81
100
AcDbEntity
  8
レイヤー 1
100
AcDbSpline
210
0.0
220
0.0
230
1.0
 70
     9
 71
     3
 72
    59
 73
    55
 74
     0
 42
0.0000000001
 43
0.0000000001
 40
0.0
 40
0.0
 40
0.0
 40
0.0
 40
1.0
 40
1.0
 40
1.0
 40
2.0
 40
2.0
 40
2.0
 40
3.0
 40
3.0
 40
3.0
 40
4.0
 40
4.0
 40
4.0
 40
5.0
 40
5.0
 40
5.0
 40
6.0
 40
6.0
 40
6.0
 40
7.0
 40
7.0
 40
7.0
 40
8.0
 40
8.0
 40
8.0
 40
9.0
 40
9.0
 40
9.0
 40
10.0
 40
10.0
 40
10.0
 40
11.0
 40
11.0
 40
11.0
 40
12.0
 40
12.0
 40
12.0
 40
13.0
 40
13.0
 40
13.0
 40
14.0
 40
14.0
 40
14.0
 40
15.0
 40
15.0
 40
15.0
 40
16.0
 40
16.0
 40
16.0
 40
17.0
 40
17.0
 40
17.0
 40
18.0
 40
18.0
 40
18.0
 40
18.0
 10
126.1649088226254
 20
-149.800675418279
 30
0.0
 10
126.0188367740508
 20
-150.2874674103448
 30
0.0
 10
125.800417720286
 20
-150.8097438859087
 30
0.0
 10
125.276074187431
 20
-151.1270371801002
 30
0.0
 10
125.276074187431
 20
-151.1270371801002
 30
0.0
 10
125.111398623236
 20
-150.9747639596521
 30
0.0
 10
125.111398623236
 20
-150.9747639596521
 30
0.0
 10
125.2523030285827
 20
-150.9051730308501
 30
0.0
 10
125.4669324773138
 20
-150.7949299753221
 30
0.0
 10
125.6874185883698
 20
-150.4648898278352
 30
0.0
 10
125.8948133365818
 20
-150.1520751577745
 30
0.0
 10
125.944767221118
 20
-149.8961045632204
 30
0.0
 10
125.9688828895147
 20
-149.7689805398147
 30
0.0
 10
125.9688828895147
 20
-149.7689805398147
 30
0.0
 10
125.4021646821911
 20
-149.7689805398147
 30
0.0
 10
125.4021646821911
 20
-149.7689805398147
 30
0.0
 10
125.311558670929
 20
-149.9298664989759
 30
0.0
 10
125.2057942395319
 20
-150.0969536300105
 30
0.0
 10
125.0373290703032
 20
-150.2681748756274
 30
0.0
 10
125.0373290703032
 20
-150.2681748756274
 30
0.0
 10
124.8854003594036
 20
-150.1455294763525
 30
0.0
 10
124.8854003594036
 20
-150.1455294763525
 30
0.0
 10
124.9374213012309
 20
-150.0990206873016
 30
0.0
 10
125.0669568914763
 20
-149.987055084031
 30
0.0
 10
125.2113063923083
 20
-149.7372856613504
 30
0.0
 10
125.2781412447221
 20
-149.6187743766578
 30
0.0
 10
125.3687472559842
 20
-149.449620188332
 30
0.0
 10
125.3911403766383
 20
-149.3269747890571
 30
0.0
 10
125.3911403766383
 20
-149.3269747890571
 30
0.0
 10
125.5930229720739
 20
-149.4282605963235
 30
0.0
 10
125.5930229720739
 20
-149.4282605963235
 30
0.0
 10
125.6057698253694
 20
-149.4348062777454
 30
0.0
 10
125.6188611882133
 20
-149.4430745069101
 30
0.0
 10
125.6188611882133
 20
-149.4578884174966
 30
0.0
 10
125.6188611882133
 20
-149.4792480095052
 30
0.0
 10
125.5964680675592
 20
-149.4919948628006
 30
0.0
 10
125.5892333670402
 20
-149.4940619200917
 30
0.0
 10
125.5651176986434
 20
-149.5023301492564
 30
0.0
 10
125.5578829981244
 20
-149.5002630919652
 30
0.0
 10
125.5354898774703
 20
-149.5257567985561
 30
0.0
 10
125.5130967568162
 20
-149.5512505051469
 30
0.0
 10
125.5151638141073
 20
-149.5595187343115
 30
0.0
 10
125.4872585406768
 20
-149.6125732047843
 30
0.0
 10
125.4872585406768
 20
-149.6125732047843
 30
0.0
 10
125.7797471473745
 20
-149.6125732047843
 30
0.0
 10
125.7797471473745
 20
-149.6125732047843
 30
0.0
 10
126.0040228634643
 20
-149.6125732047843
 30
0.0
 10
126.0319281368948
 20
-149.5998263514889
 30
0.0
 10
126.0818820214309
 20
-149.5701985303158
 30
0.0
 10
126.0818820214309
 20
-149.5701985303158
 30
0.0
 10
126.2186523121953
 20
-149.7352186040592
 30
0.0
 10
126.2186523121953
 20
-149.7352186040592
 30
0.0
 10
126.1890244910222
 20
-149.7710475971058
 30
0.0
 10
126.1873019432795
 20
-149.773114654397
 30
0.0
 10
126.1649088226254
 20
-149.800675418279
 30
0.0
  0
HATCH
  5
86
330
81
100
AcDbEntity
  8
レイヤー 1
 62
   250
420
  2299925
440
 33554687
100
AcDbHatch
 10
0.0
 20
0.0
 30
0.0
210
0.0
220
0.0
230
1.0
  2
SOLID
 70
     1
 71
     1
 91
        1
 92
        1
 93
        1
 72
     4
 94
        3
 73
     0
 74
     0
 95
       59
 96
       55
 40
0.0
 40
0.0
 40
0.0
 40
0.0
 40
1.0
 40
1.0
 40
1.0
 40
2.0
 40
2.0
 40
2.0
 40
3.0
 40
3.0
 40
3.0
 40
4.0
 40
4.0
 40
4.0
 40
5.0
 40
5.0
 40
5.0
 40
6.0
 40
6.0
 40
6.0
 40
7.0
 40
7.0
 40
7.0
 40
8.0
 40
8.0
 40
8.0
 40
9.0
 40
9.0
 40
9.0
 40
10.0
 40
10.0
 40
10.0
 40
11.0
 40
11.0
 40
11.0
 40
12.0
 40
12.0
 40
12.0
 40
13.0
 40
13.0
 40
13.0
 40
14.0
 40
14.0
 40
14.0
 40
15.0
 40
15.0
 40
15.0
 40
16.0
 40
16.0
 40
16.0
 40
17.0
 40
17.0
 40
17.0
 40
18.0
 40
18.0
 40
18.0
 40
18.0
 10
126.1649088226254
 20
-149.800675418279
 10
126.0188367740508
 20
-150.2874674103448
 10
125.800417720286
 20
-150.8097438859087
 10
125.276074187431
 20
-151.1270371801002
 10
125.276074187431
 20
-151.1270371801002
 10
125.111398623236
 20
-150.9747639596521
 10
125.111398623236
 20
-150.9747639596521
 10
125.2523030285827
 20
-150.9051730308501
 10
125.4669324773138
 20
-150.7949299753221
 10
125.6874185883698
 20
-150.4648898278352
 10
125.8948133365818
 20
-150.1520751577745
 10
125.944767221118
 20
-149.8961045632204
 10
125.9688828895147
 20
-149.7689805398147
 10
125.9688828895147
 20
-149.7689805398147
 10
125.4021646821911
 20
-149.7689805398147
 10
125.4021646821911
 20
-149.7689805398147
 10
125.311558670929
 20
-149.9298664989759
 10
125.2057942395319
 20
-150.0969536300105
 10
125.0373290703032
 20
-150.2681748756274
 10
125.0373290703032
 20
-150.2681748756274
 10
124.8854003594036
 20
-150.1455294763525
 10
124.8854003594036
 20
-150.1455294763525
 10
124.9374213012309
 20
-150.0990206873016
 10
125.0669568914763
 20
-149.987055084031
 10
125.2113063923083
 20
-149.7372856613504
 10
125.2781412447221
 20
-149.6187743766578
 10
125.3687472559842
 20
-149.449620188332
 10
125.3911403766383
 20
-149.3269747890571
 10
125.3911403766383
 20
-149.3269747890571
 10
125.5930229720739
 20
-149.4282605963235
 10
125.5930229720739
 20
-149.4282605963235
 10
125.6057698253694
 20
-149.4348062777454
 10
125.6188611882133
 20
-149.4430745069101
 10
125.6188611882133
 20
-149.4578884174966
 10
125.6188611882133
 20
-149.4792480095052
 10
125.5964680675592
 20
-149.4919948628006
 10
125.5892333670402
 20
-149.4940619200917
 10
125.5651176986434
 20
-149.5023301492564
 10
125.5578829981244
 20
-149.5002630919652
 10
125.5354898774703
 20
-149.5257567985561
 10
125.5130967568162
 20
-149.5512505051469
 10
125.5151638141073
 20
-149.5595187343115
 10
125.4872585406768
 20
-149.6125732047843
 10
125.4872585406768
 20
-149.6125732047843
 10
125.7797471473745
 20
-149.6125732047843
 10
125.7797471473745
 20
-149.6125732047843
 10
126.0040228634643
 20
-149.6125732047843
 10
126.0319281368948
 20
-149.5998263514889
 10
126.0818820214309
 20
-149.5701985303158
 10
126.0818820214309
 20
-149.5701985303158
 10
126.2186523121953
 20
-149.7352186040592
 10
126.2186523121953
 20
-149.7352186040592
 10
126.1890244910222
 20
-149.7710475971058
 10
126.1873019432795
 20
-149.773114654397
 10
126.1649088226254
 20
-149.800675418279
 97
        0
 97
        1
330
85
 75
     2
 76
     1
 98
        1
 10
0.0
 20
0.0
450
        0
451
        0
460
0.0
461
0.0
452
        0
462
0.0
453
        0
470

  0
SPLINE
  5
87
330
81
100
AcDbEntity
  8
レイヤー 1
100
AcDbSpline
210
0.0
220
0.0
230
1.0
 70
    11
 71
     3
 72
    17
 73
    13
 74
     0
 42
0.0000000001
 43
0.0000000001
 40
0.0
 40
0.0
 40
0.0
 40
0.0
 40
1.0
 40
1.0
 40
1.0
 40
2.0
 40
2.0
 40
2.0
 40
3.0
 40
3.0
 40
3.0
 40
4.0
 40
4.0
 40
4.0
 40
4.0
 10
127.6039252068143
 20
-149.7097248974684
 30
0.0
 10
127.6039252068143
 20
-149.7097248974684
 30
0.0
 10
126.6926974509657
 20
-149.7097248974684
 30
0.0
 10
126.6926974509657
 20
-149.7097248974684
 30
0.0
 10
126.6926974509657
 20
-149.7097248974684
 30
0.0
 10
126.6926974509657
 20
-150.5982150231143
 30
0.0
 10
126.6926974509657
 20
-150.5982150231143
 30
0.0
 10
126.6926974509657
 20
-150.5982150231143
 30
0.0
 10
127.6039252068143
 20
-150.5982150231143
 30
0.0
 10
127.6039252068143
 20
-150.5982150231143
 30
0.0
 10
127.6039252068143
 20
-150.5982150231143
 30
0.0
 10
127.6039252068143
 20
-149.7097248974684
 30
0.0
 10
127.6039252068143
 20
-149.7097248974684
 30
0.0
  0
SPLINE
  5
88
330
81
100
AcDbEntity
  8
レイヤー 1
100
AcDbSpline
210
0.0
220
0.0
230
1.0
 70
     9
 71
     3
 72
    53
 73
    49
 74
     0
 42
0.0000000001
 43
0.0000000001
 40
0.0
 40
0.0
 40
0.0
 40
0.0
 40
1.0
 40
1.0
 40
1.0
 40
2.0
 40
2.0
 40
2.0
 40
3.0
 40
3.0
 40
3.0
 40
4.0
 40
4.0
 40
4.0
 40
5.0
 40
5.0
 40
5.0
 40
6.0
 40
6.0
 40
6.0
 40
7.0
 40
7.0
 40
7.0
 40
8.0
 40
8.0
 40
8.0
 40
9.0
 40
9.0
 40
9.0
 40
10.0
 40
10.0
 40
10.0
 40
11.0
 40
11.0
 40
11.0
 40
12.0
 40
12.0
 40
12.0
 40
13.0
 40
13.0
 40
13.0
 40
14.0
 40
14.0
 40
14.0
 40
15.0
 40
15.0
 40
15.0
 40
16.0
 40
16.0
 40
16.0
 40
16.0
 10
127.5835991434513
 20
-150.9134412600147
 30
0.0
 10
127.5908338439703
 20
-150.868999528255
 30
0.0
 10
127.5908338439703
 20
-150.8607312990904
 30
0.0
 10
127.5963459967467
 20
-150.7866617461575
 30
0.0
 10
127.5963459967467
 20
-150.7866617461575
 30
0.0
 10
126.6947645082568
 20
-150.7866617461575
 30
0.0
 10
126.6947645082568
 20
-150.7866617461575
 30
0.0
 10
126.6947645082568
 20
-150.8183566246218
 30
0.0
 10
126.6947645082568
 20
-150.8734781523858
 30
0.0
 10
126.6982096037421
 20
-150.9093071454324
 30
0.0
 10
126.6982096037421
 20
-150.9093071454324
 30
0.0
 10
126.4873697600448
 20
-150.9093071454324
 30
0.0
 10
126.4873697600448
 20
-150.9093071454324
 30
0.0
 10
126.4928819128212
 20
-150.8541856176684
 30
0.0
 10
126.5021836706314
 20
-150.7632350968578
 30
0.0
 10
126.5021836706314
 20
-150.6343885257094
 30
0.0
 10
126.503906218374
 20
-150.4290608347885
 30
0.0
 10
126.503906218374
 20
-150.4056341854889
 30
0.0
 10
126.503906218374
 20
-150.3825520457377
 30
0.0
 10
126.503906218374
 20
-150.3825520457377
 30
0.0
 10
126.503906218374
 20
-149.9426133522713
 30
0.0
 10
126.503906218374
 20
-149.9426133522713
 30
0.0
 10
126.503906218374
 20
-149.876812028503
 30
0.0
 10
126.4983940655976
 20
-149.553317562438
 30
0.0
 10
126.4946044605638
 20
-149.498196034674
 30
0.0
 10
126.6038139874462
 20
-149.5109428879695
 30
0.0
 10
126.835324404055
 20
-149.5150770025518
 30
0.0
 10
126.9503905932624
 20
-149.5150770025518
 30
0.0
 10
126.9503905932624
 20
-149.5150770025518
 30
0.0
 10
127.3482991218087
 20
-149.5150770025518
 30
0.0
 10
127.3482991218087
 20
-149.5150770025518
 30
0.0
 10
127.4799017693453
 20
-149.5150770025518
 30
0.0
 10
127.675927702456
 20
-149.5130099452606
 30
0.0
 10
127.8037407449588
 20
-149.504741716096
 30
0.0
 10
127.7965060444397
 20
-149.6146402620755
 30
0.0
 10
127.792716439406
 20
-149.8640651752076
 30
0.0
 10
127.792716439406
 20
-149.9825764599002
 30
0.0
 10
127.792716439406
 20
-149.9825764599002
 30
0.0
 10
127.792716439406
 20
-150.4015000709065
 30
0.0
 10
127.792716439406
 20
-150.4015000709065
 30
0.0
 10
127.792716439406
 20
-150.4438747453751
 30
0.0
 10
127.7982285921824
 20
-150.6257757869963
 30
0.0
 10
127.7982285921824
 20
-150.6640163468826
 30
0.0
 10
127.8002956494735
 20
-150.8142225100395
 30
0.0
 10
127.8075303499925
 20
-150.8648654136726
 30
0.0
 10
127.8151095600601
 20
-150.9134412600147
 30
0.0
 10
127.8151095600601
 20
-150.9134412600147
 30
0.0
 10
127.5835991434513
 20
-150.9134412600147
 30
0.0
 10
127.5835991434513
 20
-150.9134412600147
 30
0.0
  0
HATCH
  5
89
330
81
100
AcDbEntity
  8
レイヤー 1
 62
   250
420
  2299925
440
 33554687
100
AcDbHatch
 10
0.0
 20
0.0
 30
0.0
210
0.0
220
0.0
230
1.0
  2
SOLID
 70
     1
 71
     1
 91
        2
 92
        1
 93
        1
 72
     4
 94
        3
 73
     0
 74
     0
 95
       17
 96
       13
 40
0.0
 40
0.0
 40
0.0
 40
0.0
 40
1.0
 40
1.0
 40
1.0
 40
2.0
 40
2.0
 40
2.0
 40
3.0
 40
3.0
 40
3.0
 40
4.0
 40
4.0
 40
4.0
 40
4.0
 10
127.6039252068143
 20
-149.7097248974684
 10
127.6039252068143
 20
-149.7097248974684
 10
126.6926974509657
 20
-149.7097248974684
 10
126.6926974509657
 20
-149.7097248974684
 10
126.6926974509657
 20
-149.7097248974684
 10
126.6926974509657
 20
-150.5982150231143
 10
126.6926974509657
 20
-150.5982150231143
 10
126.6926974509657
 20
-150.5982150231143
 10
127.6039252068143
 20
-150.5982150231143
 10
127.6039252068143
 20
-150.5982150231143
 10
127.6039252068143
 20
-150.5982150231143
 10
127.6039252068143
 20
-149.7097248974684
 10
127.6039252068143
 20
-149.7097248974684
 97
        0
 97
        1
330
87
 92
        1
 93
        1
 72
     4
 94
        3
 73
     0
 74
     0
 95
       53
 96
       49
 40
0.0
 40
0.0
 40
0.0
 40
0.0
 40
1.0
 40
1.0
 40
1.0
 40
2.0
 40
2.0
 40
2.0
 40
3.0
 40
3.0
 40
3.0
 40
4.0
 40
4.0
 40
4.0
 40
5.0
 40
5.0
 40
5.0
 40
6.0
 40
6.0
 40
6.0
 40
7.0
 40
7.0
 40
7.0
 40
8.0
 40
8.0
 40
8.0
 40
9.0
 40
9.0
 40
9.0
 40
10.0
 40
10.0
 40
10.0
 40
11.0
 40
11.0
 40
11.0
 40
12.0
 40
12.0
 40
12.0
 40
13.0
 40
13.0
 40
13.0
 40
14.0
 40
14.0
 40
14.0
 40
15.0
 40
15.0
 40
15.0
 40
16.0
 40
16.0
 40
16.0
 40
16.0
 10
127.5835991434513
 20
-150.9134412600147
 10
127.5908338439703
 20
-150.868999528255
 10
127.5908338439703
 20
-150.8607312990904
 10
127.5963459967467
 20
-150.7866617461575
 10
127.5963459967467
 20
-150.7866617461575
 10
126.6947645082568
 20
-150.7866617461575
 10
126.6947645082568
 20
-150.7866617461575
 10
126.6947645082568
 20
-150.8183566246218
 10
126.6947645082568
 20
-150.8734781523858
 10
126.6982096037421
 20
-150.9093071454324
 10
126.6982096037421
 20
-150.9093071454324
 10
126.4873697600448
 20
-150.9093071454324
 10
126.4873697600448
 20
-150.9093071454324
 10
126.4928819128212
 20
-150.8541856176684
 10
126.5021836706314
 20
-150.7632350968578
 10
126.5021836706314
 20
-150.6343885257094
 10
126.503906218374
 20
-150.4290608347885
 10
126.503906218374
 20
-150.4056341854889
 10
126.503906218374
 20
-150.3825520457377
 10
126.503906218374
 20
-150.3825520457377
 10
126.503906218374
 20
-149.9426133522713
 10
126.503906218374
 20
-149.9426133522713
 10
126.503906218374
 20
-149.876812028503
 10
126.4983940655976
 20
-149.553317562438
 10
126.4946044605638
 20
-149.498196034674
 10
126.6038139874462
 20
-149.5109428879695
 10
126.835324404055
 20
-149.5150770025518
 10
126.9503905932624
 20
-149.5150770025518
 10
126.9503905932624
 20
-149.5150770025518
 10
127.3482991218087
 20
-149.5150770025518
 10
127.3482991218087
 20
-149.5150770025518
 10
127.4799017693453
 20
-149.5150770025518
 10
127.675927702456
 20
-149.5130099452606
 10
127.8037407449588
 20
-149.504741716096
 10
127.7965060444397
 20
-149.6146402620755
 10
127.792716439406
 20
-149.8640651752076
 10
127.792716439406
 20
-149.9825764599002
 10
127.792716439406
 20
-149.9825764599002
 10
127.792716439406
 20
-150.4015000709065
 10
127.792716439406
 20
-150.4015000709065
 10
127.792716439406
 20
-150.4438747453751
 10
127.7982285921824
 20
-150.6257757869963
 10
127.7982285921824
 20
-150.6640163468826
 10
127.8002956494735
 20
-150.8142225100395
 10
127.8075303499925
 20
-150.8648654136726
 10
127.8151095600601
 20
-150.9134412600147
 10
127.8151095600601
 20
-150.9134412600147
 10
127.5835991434513
 20
-150.9134412600147
 10
127.5835991434513
 20
-150.9134412600147
 97
        0
 97
        1
330
88
 75
     2
 76
     1
 98
        1
 10
0.0
 20
0.0
450
        0
451
        0
460
0.0
461
0.0
452
        0
462
0.0
453
        0
470

  0
SPLINE
  5
8A
330
81
100
AcDbEntity
  8
レイヤー 1
100
AcDbSpline
210
0.0
220
0.0
230
1.0
 70
     9
 71
     3
 72
    56
 73
    52
 74
     0
 42
0.0000000001
 43
0.0000000001
 40
0.0
 40
0.0
 40
0.0
 40
0.0
 40
1.0
 40
1.0
 40
1.0
 40
2.0
 40
2.0
 40
2.0
 40
3.0
 40
3.0
 40
3.0
 40
4.0
 40
4.0
 40
4.0
 40
5.0
 40
5.0
 40
5.0
 40
6.0
 40
6.0
 40
6.0
 40
7.0
 40
7.0
 40
7.0
 40
8.0
 40
8.0
 40
8.0
 40
9.0
 40
9.0
 40
9.0
 40
10.0
 40
10.0
 40
10.0
 40
11.0
 40
11.0
 40
11.0
 40
12.0
 40
12.0
 40
12.0
 40
13.0
 40
13.0
 40
13.0
 40
14.0
 40
14.0
 40
14.0
 40
15.0
 40
15.0
 40
15.0
 40
16.0
 40
16.0
 40
16.0
 40
17.0
 40
17.0
 40
17.0
 40
17.0
 10
129.344731955511
 20
-150.9792425837829
 30
0.0
 10
129.1762667862823
 20
-150.670217518756
 30
0.0
 10
128.9506130319985
 20
-150.4648898278352
 30
0.0
 10
128.8706868167406
 20
-150.3994330136154
 30
0.0
 10
128.6133381839925
 20
-150.7380858998154
 30
0.0
 10
128.3597791562781
 20
-150.8903591202635
 30
0.0
 10
128.185801834273
 20
-150.9833766983653
 30
0.0
 10
128.185801834273
 20
-150.9833766983653
 30
0.0
 10
128.0466199766689
 20
-150.7949299753221
 30
0.0
 10
128.0466199766689
 20
-150.7949299753221
 30
0.0
 10
128.1375704974795
 20
-150.7591009822755
 30
0.0
 10
128.3246391823286
 20
-150.6829643720515
 30
0.0
 10
128.5282443255068
 20
-150.496929215848
 30
0.0
 10
128.7597547421156
 20
-150.2850558435051
 30
0.0
 10
128.9227077585679
 20
-149.9973903704868
 30
0.0
 10
129.0301947377077
 20
-149.6845757004261
 30
0.0
 10
129.0301947377077
 20
-149.6845757004261
 30
0.0
 10
128.7004990997693
 20
-149.6845757004261
 30
0.0
 10
128.7004990997693
 20
-149.6845757004261
 30
0.0
 10
128.5671739044901
 20
-149.6845757004261
 30
0.0
 10
128.3838948246748
 20
-149.6887098150084
 30
0.0
 10
128.2522921771383
 20
-149.7076578401772
 30
0.0
 10
128.2522921771383
 20
-149.7076578401772
 30
0.0
 10
128.2522921771383
 20
-149.4961289773829
 30
0.0
 10
128.2522921771383
 20
-149.4961289773829
 30
0.0
 10
128.3115478194846
 20
-149.5023301492564
 30
0.0
 10
128.5392686310596
 20
-149.5130099452606
 30
0.0
 10
128.6154052412836
 20
-149.5130099452606
 30
0.0
 10
128.6154052412836
 20
-149.5130099452606
 30
0.0
 10
128.8875677846184
 20
-149.5130099452606
 30
0.0
 10
128.8875677846184
 20
-149.5130099452606
 30
0.0
 10
129.069124316691
 20
-149.5130099452606
 30
0.0
 10
129.089450380054
 20
-149.5068087733872
 30
0.0
 10
129.109776443417
 20
-149.5023301492564
 30
0.0
 10
129.1487060224003
 20
-149.4961289773829
 30
0.0
 10
129.1817789390587
 20
-149.470635270792
 30
0.0
 10
129.2003824546791
 20
-149.4537543029143
 30
0.0
 10
129.2003824546791
 20
-149.4537543029143
 30
0.0
 10
129.337497254992
 20
-149.6273871153709
 30
0.0
 10
129.337497254992
 20
-149.6273871153709
 30
0.0
 10
129.3023572810424
 20
-149.6549478792529
 30
0.0
 10
129.2909884659411
 20
-149.6652831657087
 30
0.0
 10
129.2486137914725
 20
-149.7014566683038
 30
0.0
 10
129.1356146595564
 20
-149.9488145241447
 30
0.0
 10
129.0653347116572
 20
-150.0990206873016
 30
0.0
 10
128.9743841908467
 20
-150.2450927358762
 30
0.0
 10
129.2486137914725
 20
-150.462822770544
 30
0.0
 10
129.448429329617
 20
-150.7484211862712
 30
0.0
 10
129.4949381186679
 20
-150.8266248537864
 30
0.0
 10
129.4949381186679
 20
-150.8266248537864
 30
0.0
 10
129.344731955511
 20
-150.9792425837829
 30
0.0
 10
129.344731955511
 20
-150.9792425837829
 30
0.0
  0
HATCH
  5
8B
330
81
100
AcDbEntity
  8
レイヤー 1
 62
   250
420
  2299925
440
 33554687
100
AcDbHatch
 10
0.0
 20
0.0
 30
0.0
210
0.0
220
0.0
230
1.0
  2
SOLID
 70
     1
 71
     1
 91
        1
 92
        1
 93
        1
 72
     4
 94
        3
 73
     0
 74
     0
 95
       56
 96
       52
 40
0.0
 40
0.0
 40
0.0
 40
0.0
 40
1.0
 40
1.0
 40
1.0
 40
2.0
 40
2.0
 40
2.0
 40
3.0
 40
3.0
 40
3.0
 40
4.0
 40
4.0
 40
4.0
 40
5.0
 40
5.0
 40
5.0
 40
6.0
 40
6.0
 40
6.0
 40
7.0
 40
7.0
 40
7.0
 40
8.0
 40
8.0
 40
8.0
 40
9.0
 40
9.0
 40
9.0
 40
10.0
 40
10.0
 40
10.0
 40
11.0
 40
11.0
 40
11.0
 40
12.0
 40
12.0
 40
12.0
 40
13.0
 40
13.0
 40
13.0
 40
14.0
 40
14.0
 40
14.0
 40
15.0
 40
15.0
 40
15.0
 40
16.0
 40
16.0
 40
16.0
 40
17.0
 40
17.0
 40
17.0
 40
17.0
 10
129.344731955511
 20
-150.9792425837829
 10
129.1762667862823
 20
-150.670217518756
 10
128.9506130319985
 20
-150.4648898278352
 10
128.8706868167406
 20
-150.3994330136154
 10
128.6133381839925
 20
-150.7380858998154
 10
128.3597791562781
 20
-150.8903591202635
 10
128.185801834273
 20
-150.9833766983653
 10
128.185801834273
 20
-150.9833766983653
 10
128.0466199766689
 20
-150.7949299753221
 10
128.0466199766689
 20
-150.7949299753221
 10
128.1375704974795
 20
-150.7591009822755
 10
128.3246391823286
 20
-150.6829643720515
 10
128.5282443255068
 20
-150.496929215848
 10
128.7597547421156
 20
-150.2850558435051
 10
128.9227077585679
 20
-149.9973903704868
 10
129.0301947377077
 20
-149.6845757004261
 10
129.0301947377077
 20
-149.6845757004261
 10
128.7004990997693
 20
-149.6845757004261
 10
128.7004990997693
 20
-149.6845757004261
 10
128.5671739044901
 20
-149.6845757004261
 10
128.3838948246748
 20
-149.6887098150084
 10
128.2522921771383
 20
-149.7076578401772
 10
128.2522921771383
 20
-149.7076578401772
 10
128.2522921771383
 20
-149.4961289773829
 10
128.2522921771383
 20
-149.4961289773829
 10
128.3115478194846
 20
-149.5023301492564
 10
128.5392686310596
 20
-149.5130099452606
 10
128.6154052412836
 20
-149.5130099452606
 10
128.6154052412836
 20
-149.5130099452606
 10
128.8875677846184
 20
-149.5130099452606
 10
128.8875677846184
 20
-149.5130099452606
 10
129.069124316691
 20
-149.5130099452606
 10
129.089450380054
 20
-149.5068087733872
 10
129.109776443417
 20
-149.5023301492564
 10
129.1487060224003
 20
-149.4961289773829
 10
129.1817789390587
 20
-149.470635270792
 10
129.2003824546791
 20
-149.4537543029143
 10
129.2003824546791
 20
-149.4537543029143
 10
129.337497254992
 20
-149.6273871153709
 10
129.337497254992
 20
-149.6273871153709
 10
129.3023572810424
 20
-149.6549478792529
 10
129.2909884659411
 20
-149.6652831657087
 10
129.2486137914725
 20
-149.7014566683038
 10
129.1356146595564
 20
-149.9488145241447
 10
129.0653347116572
 20
-150.0990206873016
 10
128.9743841908467
 20
-150.2450927358762
 10
129.2486137914725
 20
-150.462822770544
 10
129.448429329617
 20
-150.7484211862712
 10
129.4949381186679
 20
-150.8266248537864
 10
129.4949381186679
 20
-150.8266248537864
 10
129.344731955511
 20
-150.9792425837829
 10
129.344731955511
 20
-150.9792425837829
 97
        0
 97
        1
330
8A
 75
     2
 76
     1
 98
        1
 10
0.0
 20
0.0
450
        0
451
        0
460
0.0
461
0.0
452
        0
462
0.0
453
        0
470

  0
SPLINE
  5
8C
330
81
100
AcDbEntity
  8
レイヤー 1
100
AcDbSpline
210
0.0
220
0.0
230
1.0
 70
    11
 71
     3
 72
    17
 73
    13
 74
     0
 42
0.0000000001
 43
0.0000000001
 40
0.0
 40
0.0
 40
0.0
 40
0.0
 40
1.0
 40
1.0
 40
1.0
 40
2.0
 40
2.0
 40
2.0
 40
3.0
 40
3.0
 40
3.0
 40
4.0
 40
4.0
 40
4.0
 40
4.0
 10
130.9932101452031
 20
-150.0018689946176
 30
0.0
 10
130.9932101452031
 20
-150.0018689946176
 30
0.0
 10
130.591512011623
 20
-150.0018689946176
 30
0.0
 10
130.591512011623
 20
-150.0018689946176
 30
0.0
 10
130.591512011623
 20
-150.0018689946176
 30
0.0
 10
130.591512011623
 20
-150.3105495500959
 30
0.0
 10
130.591512011623
 20
-150.3105495500959
 30
0.0
 10
130.591512011623
 20
-150.3105495500959
 30
0.0
 10
130.9932101452031
 20
-150.3105495500959
 30
0.0
 10
130.9932101452031
 20
-150.3105495500959
 30
0.0
 10
130.9932101452031
 20
-150.3105495500959
 30
0.0
 10
130.9932101452031
 20
-150.0018689946176
 30
0.0
 10
130.9932101452031
 20
-150.0018689946176
 30
0.0
  0
SPLINE
  5
8D
330
81
100
AcDbEntity
  8
レイヤー 1
100
AcDbSpline
210
0.0
220
0.0
230
1.0
 70
    11
 71
     3
 72
    17
 73
    13
 74
     0
 42
0.0000000001
 43
0.0000000001
 40
0.0
 40
0.0
 40
0.0
 40
0.0
 40
1.0
 40
1.0
 40
1.0
 40
2.0
 40
2.0
 40
2.0
 40
3.0
 40
3.0
 40
3.0
 40
4.0
 40
4.0
 40
4.0
 40
4.0
 10
130.9932101452031
 20
-149.5298909131383
 30
0.0
 10
130.9932101452031
 20
-149.5298909131383
 30
0.0
 10
130.591512011623
 20
-149.5298909131383
 30
0.0
 10
130.591512011623
 20
-149.5298909131383
 30
0.0
 10
130.591512011623
 20
-149.5298909131383
 30
0.0
 10
130.591512011623
 20
-149.8344373540344
 30
0.0
 10
130.591512011623
 20
-149.8344373540344
 30
0.0
 10
130.591512011623
 20
-149.8344373540344
 30
0.0
 10
130.9932101452031
 20
-149.8344373540344
 30
0.0
 10
130.9932101452031
 20
-149.8344373540344
 30
0.0
 10
130.9932101452031
 20
-149.8344373540344
 30
0.0
 10
130.9932101452031
 20
-149.5298909131383
 30
0.0
 10
130.9932101452031
 20
-149.5298909131383
 30
0.0
  0
SPLINE
  5
8E
330
81
100
AcDbEntity
  8
レイヤー 1
100
AcDbSpline
210
0.0
220
0.0
230
1.0
 70
    11
 71
     3
 72
    17
 73
    13
 74
     0
 42
0.0000000001
 43
0.0000000001
 40
0.0
 40
0.0
 40
0.0
 40
0.0
 40
1.0
 40
1.0
 40
1.0
 40
2.0
 40
2.0
 40
2.0
 40
3.0
 40
3.0
 40
3.0
 40
4.0
 40
4.0
 40
4.0
 40
4.0
 10
130.4247693901368
 20
-150.0018689946176
 30
0.0
 10
130.4247693901368
 20
-150.0018689946176
 30
0.0
 10
130.0413302626285
 20
-150.0018689946176
 30
0.0
 10
130.0413302626285
 20
-150.0018689946176
 30
0.0
 10
130.0413302626285
 20
-150.0018689946176
 30
0.0
 10
130.0413302626285
 20
-150.3105495500959
 30
0.0
 10
130.0413302626285
 20
-150.3105495500959
 30
0.0
 10
130.0413302626285
 20
-150.3105495500959
 30
0.0
 10
130.4247693901368
 20
-150.3105495500959
 30
0.0
 10
130.4247693901368
 20
-150.3105495500959
 30
0.0
 10
130.4247693901368
 20
-150.3105495500959
 30
0.0
 10
130.4247693901368
 20
-150.0018689946176
 30
0.0
 10
130.4247693901368
 20
-150.0018689946176
 30
0.0
  0
SPLINE
  5
8F
330
81
100
AcDbEntity
  8
レイヤー 1
100
AcDbSpline
210
0.0
220
0.0
230
1.0
 70
    11
 71
     3
 72
    17
 73
    13
 74
     0
 42
0.0000000001
 43
0.0000000001
 40
0.0
 40
0.0
 40
0.0
 40
0.0
 40
1.0
 40
1.0
 40
1.0
 40
2.0
 40
2.0
 40
2.0
 40
3.0
 40
3.0
 40
3.0
 40
4.0
 40
4.0
 40
4.0
 40
4.0
 10
130.4247693901368
 20
-149.5298909131383
 30
0.0
 10
130.4247693901368
 20
-149.5298909131383
 30
0.0
 10
130.0413302626285
 20
-149.5298909131383
 30
0.0
 10
130.0413302626285
 20
-149.5298909131383
 30
0.0
 10
130.0413302626285
 20
-149.5298909131383
 30
0.0
 10
130.0413302626285
 20
-149.8344373540344
 30
0.0
 10
130.0413302626285
 20
-149.8344373540344
 30
0.0
 10
130.0413302626285
 20
-149.8344373540344
 30
0.0
 10
130.4247693901368
 20
-149.8344373540344
 30
0.0
 10
130.4247693901368
 20
-149.8344373540344
 30
0.0
 10
130.4247693901368
 20
-149.8344373540344
 30
0.0
 10
130.4247693901368
 20
-149.5298909131383
 30
0.0
 10
130.4247693901368
 20
-149.5298909131383
 30
0.0
  0
SPLINE
  5
90
330
81
100
AcDbEntity
  8
レイヤー 1
100
AcDbSpline
210
0.0
220
0.0
230
1.0
 70
     9
 71
     3
 72
    77
 73
    73
 74
     0
 42
0.0000000001
 43
0.0000000001
 40
0.0
 40
0.0
 40
0.0
 40
0.0
 40
1.0
 40
1.0
 40
1.0
 40
2.0
 40
2.0
 40
2.0
 40
3.0
 40
3.0
 40
3.0
 40
4.0
 40
4.0
 40
4.0
 40
5.0
 40
5.0
 40
5.0
 40
6.0
 40
6.0
 40
6.0
 40
7.0
 40
7.0
 40
7.0
 40
8.0
 40
8.0
 40
8.0
 40
9.0
 40
9.0
 40
9.0
 40
10.0
 40
10.0
 40
10.0
 40
11.0
 40
11.0
 40
11.0
 40
12.0
 40
12.0
 40
12.0
 40
13.0
 40
13.0
 40
13.0
 40
14.0
 40
14.0
 40
14.0
 40
15.0
 40
15.0
 40
15.0
 40
16.0
 40
16.0
 40
16.0
 40
17.0
 40
17.0
 40
17.0
 40
18.0
 40
18.0
 40
18.0
 40
19.0
 40
19.0
 40
19.0
 40
20.0
 40
20.0
 40
20.0
 40
21.0
 40
21.0
 40
21.0
 40
22.0
 40
22.0
 40
22.0
 40
23.0
 40
23.0
 40
23.0
 40
24.0
 40
24.0
 40
24.0
 40
24.0
 10
131.1117214298957
 20
-151.1167018936444
 30
0.0
 10
131.0710693031697
 20
-151.1418510906868
 30
0.0
 10
130.9618597762873
 20
-151.1545979439822
 30
0.0
 10
130.8933023761308
 20
-151.1545979439822
 30
0.0
 10
130.8819335610295
 20
-151.1545979439822
 30
0.0
 10
130.8598849499239
 20
-151.1545979439822
 30
0.0
 10
130.8302571287508
 20
-151.1504638293999
 30
0.0
 10
130.8302571287508
 20
-151.1504638293999
 30
0.0
 10
130.7451632702651
 20
-150.924121056019
 30
0.0
 10
130.7451632702651
 20
-150.924121056019
 30
0.0
 10
130.7710014864045
 20
-150.9303222278924
 30
0.0
 10
130.8209553709406
 20
-150.9389349666055
 30
0.0
 10
130.922930197304
 20
-150.9389349666055
 30
0.0
 10
130.9914875974604
 20
-150.9389349666055
 30
0.0
 10
130.9932101452031
 20
-150.8965602921369
 30
0.0
 10
130.9932101452031
 20
-150.8393717070818
 30
0.0
 10
130.9932101452031
 20
-150.8393717070818
 30
0.0
 10
130.9932101452031
 20
-150.490383534426
 30
0.0
 10
130.9932101452031
 20
-150.490383534426
 30
0.0
 10
130.9932101452031
 20
-150.490383534426
 30
0.0
 10
130.591512011623
 20
-150.490383534426
 30
0.0
 10
130.591512011623
 20
-150.490383534426
 30
0.0
 10
130.5932345593656
 20
-150.6278428442875
 30
0.0
 10
130.5949571071082
 20
-150.8266248537864
 30
0.0
 10
130.6008137694331
 20
-150.9599500490656
 30
0.0
 10
130.6025363171757
 20
-150.9875108129475
 30
0.0
 10
130.6025363171757
 20
-151.0319525447073
 30
0.0
 10
130.6135606227285
 20
-151.0932752443447
 30
0.0
 10
130.6135606227285
 20
-151.0932752443447
 30
0.0
 10
130.4023762694827
 20
-151.0932752443447
 30
0.0
 10
130.4023762694827
 20
-151.0932752443447
 30
0.0
 10
130.4247693901368
 20
-150.9685627877787
 30
0.0
 10
130.4247693901368
 20
-150.6278428442875
 30
0.0
 10
130.4247693901368
 20
-150.490383534426
 30
0.0
 10
130.4247693901368
 20
-150.490383534426
 30
0.0
 10
130.0378851671433
 20
-150.490383534426
 30
0.0
 10
130.0378851671433
 20
-150.490383534426
 30
0.0
 10
130.0172145942318
 20
-150.697778282638
 30
0.0
 10
129.9600260091766
 20
-150.9664957304875
 30
0.0
 10
129.7877712349142
 20
-151.1504638293999
 30
0.0
 10
129.7877712349142
 20
-151.1504638293999
 30
0.0
 10
129.6230956707192
 20
-151.027818430125
 30
0.0
 10
129.6230956707192
 20
-151.027818430125
 30
0.0
 10
129.8449598199693
 20
-150.8076768286175
 30
0.0
 10
129.8728650933998
 20
-150.4755696238394
 30
0.0
 10
129.8728650933998
 20
-150.1434624190613
 30
0.0
 10
129.8728650933998
 20
-150.1434624190613
 30
0.0
 10
129.8728650933998
 20
-149.7076578401772
 30
0.0
 10
129.8728650933998
 20
-149.7076578401772
 30
0.0
 10
129.8728650933998
 20
-149.6718288471306
 30
0.0
 10
129.8711425456572
 20
-149.4389403923277
 30
0.0
 10
129.8635633355897
 20
-149.3373100755129
 30
0.0
 10
129.985864225316
 20
-149.3479898715172
 30
0.0
 10
130.1970485785618
 20
-149.3479898715172
 30
0.0
 10
130.3227945637734
 20
-149.3479898715172
 30
0.0
 10
130.3227945637734
 20
-149.3479898715172
 30
0.0
 10
130.7248372069021
 20
-149.3479898715172
 30
0.0
 10
130.7248372069021
 20
-149.3479898715172
 30
0.0
 10
130.7375840601975
 20
-149.3479898715172
 30
0.0
 10
131.0431640297392
 20
-149.3479898715172
 30
0.0
 10
131.1820013777948
 20
-149.3373100755129
 30
0.0
 10
131.1802788300521
 20
-149.3903645459857
 30
0.0
 10
131.1747666772757
 20
-149.5512505051469
 30
0.0
 10
131.1747666772757
 20
-149.6018934087801
 30
0.0
 10
131.1747666772757
 20
-149.6018934087801
 30
0.0
 10
131.1747666772757
 20
-150.2089192332811
 30
0.0
 10
131.1747666772757
 20
-150.2089192332811
 30
0.0
 10
131.1747666772757
 20
-150.2282117679985
 30
0.0
 10
131.1840684350859
 20
-150.7994085994529
 30
0.0
 10
131.1840684350859
 20
-150.9113742027235
 30
0.0
 10
131.1840684350859
 20
-150.9685627877787
 30
0.0
 10
131.1840684350859
 20
-151.0701931045935
 30
0.0
 10
131.1117214298957
 20
-151.1167018936444
 30
0.0
  0
HATCH
  5
91
330
81
100
AcDbEntity
  8
レイヤー 1
 62
   250
420
  2299925
440
 33554687
100
AcDbHatch
 10
0.0
 20
0.0
 30
0.0
210
0.0
220
0.0
230
1.0
  2
SOLID
 70
     1
 71
     1
 91
        5
 92
        1
 93
        1
 72
     4
 94
        3
 73
     0
 74
     0
 95
       17
 96
       13
 40
0.0
 40
0.0
 40
0.0
 40
0.0
 40
1.0
 40
1.0
 40
1.0
 40
2.0
 40
2.0
 40
2.0
 40
3.0
 40
3.0
 40
3.0
 40
4.0
 40
4.0
 40
4.0
 40
4.0
 10
130.9932101452031
 20
-150.0018689946176
 10
130.9932101452031
 20
-150.0018689946176
 10
130.591512011623
 20
-150.0018689946176
 10
130.591512011623
 20
-150.0018689946176
 10
130.591512011623
 20
-150.0018689946176
 10
130.591512011623
 20
-150.3105495500959
 10
130.591512011623
 20
-150.3105495500959
 10
130.591512011623
 20
-150.3105495500959
 10
130.9932101452031
 20
-150.3105495500959
 10
130.9932101452031
 20
-150.3105495500959
 10
130.9932101452031
 20
-150.3105495500959
 10
130.9932101452031
 20
-150.0018689946176
 10
130.9932101452031
 20
-150.0018689946176
 97
        0
 97
        1
330
8C
 92
        1
 93
        1
 72
     4
 94
        3
 73
     0
 74
     0
 95
       17
 96
       13
 40
0.0
 40
0.0
 40
0.0
 40
0.0
 40
1.0
 40
1.0
 40
1.0
 40
2.0
 40
2.0
 40
2.0
 40
3.0
 40
3.0
 40
3.0
 40
4.0
 40
4.0
 40
4.0
 40
4.0
 10
130.9932101452031
 20
-149.5298909131383
 10
130.9932101452031
 20
-149.5298909131383
 10
130.591512011623
 20
-149.5298909131383
 10
130.591512011623
 20
-149.5298909131383
 10
130.591512011623
 20
-149.5298909131383
 10
130.591512011623
 20
-149.8344373540344
 10
130.591512011623
 20
-149.8344373540344
 10
130.591512011623
 20
-149.8344373540344
 10
130.9932101452031
 20
-149.8344373540344
 10
130.9932101452031
 20
-149.8344373540344
 10
130.9932101452031
 20
-149.8344373540344
 10
130.9932101452031
 20
-149.5298909131383
 10
130.9932101452031
 20
-149.5298909131383
 97
        0
 97
        1
330
8D
 92
        1
 93
        1
 72
     4
 94
        3
 73
     0
 74
     0
 95
       17
 96
       13
 40
0.0
 40
0.0
 40
0.0
 40
0.0
 40
1.0
 40
1.0
 40
1.0
 40
2.0
 40
2.0
 40
2.0
 40
3.0
 40
3.0
 40
3.0
 40
4.0
 40
4.0
 40
4.0
 40
4.0
 10
130.4247693901368
 20
-150.0018689946176
 10
130.4247693901368
 20
-150.0018689946176
 10
130.0413302626285
 20
-150.0018689946176
 10
130.0413302626285
 20
-150.0018689946176
 10
130.0413302626285
 20
-150.0018689946176
 10
130.0413302626285
 20
-150.3105495500959
 10
130.0413302626285
 20
-150.3105495500959
 10
130.0413302626285
 20
-150.3105495500959
 10
130.4247693901368
 20
-150.3105495500959
 10
130.4247693901368
 20
-150.3105495500959
 10
130.4247693901368
 20
-150.3105495500959
 10
130.4247693901368
 20
-150.0018689946176
 10
130.4247693901368
 20
-150.0018689946176
 97
        0
 97
        1
330
8E
 92
        1
 93
        1
 72
     4
 94
        3
 73
     0
 74
     0
 95
       17
 96
       13
 40
0.0
 40
0.0
 40
0.0
 40
0.0
 40
1.0
 40
1.0
 40
1.0
 40
2.0
 40
2.0
 40
2.0
 40
3.0
 40
3.0
 40
3.0
 40
4.0
 40
4.0
 40
4.0
 40
4.0
 10
130.4247693901368
 20
-149.5298909131383
 10
130.4247693901368
 20
-149.5298909131383
 10
130.0413302626285
 20
-149.5298909131383
 10
130.0413302626285
 20
-149.5298909131383
 10
130.0413302626285
 20
-149.5298909131383
 10
130.0413302626285
 20
-149.8344373540344
 10
130.0413302626285
 20
-149.8344373540344
 10
130.0413302626285
 20
-149.8344373540344
 10
130.4247693901368
 20
-149.8344373540344
 10
130.4247693901368
 20
-149.8344373540344
 10
130.4247693901368
 20
-149.8344373540344
 10
130.4247693901368
 20
-149.5298909131383
 10
130.4247693901368
 20
-149.5298909131383
 97
        0
 97
        1
330
8F
 92
        1
 93
        1
 72
     4
 94
        3
 73
     0
 74
     0
 95
       77
 96
       73
 40
0.0
 40
0.0
 40
0.0
 40
0.0
 40
1.0
 40
1.0
 40
1.0
 40
2.0
 40
2.0
 40
2.0
 40
3.0
 40
3.0
 40
3.0
 40
4.0
 40
4.0
 40
4.0
 40
5.0
 40
5.0
 40
5.0
 40
6.0
 40
6.0
 40
6.0
 40
7.0
 40
7.0
 40
7.0
 40
8.0
 40
8.0
 40
8.0
 40
9.0
 40
9.0
 40
9.0
 40
10.0
 40
10.0
 40
10.0
 40
11.0
 40
11.0
 40
11.0
 40
12.0
 40
12.0
 40
12.0
 40
13.0
 40
13.0
 40
13.0
 40
14.0
 40
14.0
 40
14.0
 40
15.0
 40
15.0
 40
15.0
 40
16.0
 40
16.0
 40
16.0
 40
17.0
 40
17.0
 40
17.0
 40
18.0
 40
18.0
 40
18.0
 40
19.0
 40
19.0
 40
19.0
 40
20.0
 40
20.0
 40
20.0
 40
21.0
 40
21.0
 40
21.0
 40
22.0
 40
22.0
 40
22.0
 40
23.0
 40
23.0
 40
23.0
 40
24.0
 40
24.0
 40
24.0
 40
24.0
 10
131.1117214298957
 20
-151.1167018936444
 10
131.0710693031697
 20
-151.1418510906868
 10
130.9618597762873
 20
-151.1545979439822
 10
130.8933023761308
 20
-151.1545979439822
 10
130.8819335610295
 20
-151.1545979439822
 10
130.8598849499239
 20
-151.1545979439822
 10
130.8302571287508
 20
-151.1504638293999
 10
130.8302571287508
 20
-151.1504638293999
 10
130.7451632702651
 20
-150.924121056019
 10
130.7451632702651
 20
-150.924121056019
 10
130.7710014864045
 20
-150.9303222278924
 10
130.8209553709406
 20
-150.9389349666055
 10
130.922930197304
 20
-150.9389349666055
 10
130.9914875974604
 20
-150.9389349666055
 10
130.9932101452031
 20
-150.8965602921369
 10
130.9932101452031
 20
-150.8393717070818
 10
130.9932101452031
 20
-150.8393717070818
 10
130.9932101452031
 20
-150.490383534426
 10
130.9932101452031
 20
-150.490383534426
 10
130.9932101452031
 20
-150.490383534426
 10
130.591512011623
 20
-150.490383534426
 10
130.591512011623
 20
-150.490383534426
 10
130.5932345593656
 20
-150.6278428442875
 10
130.5949571071082
 20
-150.8266248537864
 10
130.6008137694331
 20
-150.9599500490656
 10
130.6025363171757
 20
-150.9875108129475
 10
130.6025363171757
 20
-151.0319525447073
 10
130.6135606227285
 20
-151.0932752443447
 10
130.6135606227285
 20
-151.0932752443447
 10
130.4023762694827
 20
-151.0932752443447
 10
130.4023762694827
 20
-151.0932752443447
 10
130.4247693901368
 20
-150.9685627877787
 10
130.4247693901368
 20
-150.6278428442875
 10
130.4247693901368
 20
-150.490383534426
 10
130.4247693901368
 20
-150.490383534426
 10
130.0378851671433
 20
-150.490383534426
 10
130.0378851671433
 20
-150.490383534426
 10
130.0172145942318
 20
-150.697778282638
 10
129.9600260091766
 20
-150.9664957304875
 10
129.7877712349142
 20
-151.1504638293999
 10
129.7877712349142
 20
-151.1504638293999
 10
129.6230956707192
 20
-151.027818430125
 10
129.6230956707192
 20
-151.027818430125
 10
129.8449598199693
 20
-150.8076768286175
 10
129.8728650933998
 20
-150.4755696238394
 10
129.8728650933998
 20
-150.1434624190613
 10
129.8728650933998
 20
-150.1434624190613
 10
129.8728650933998
 20
-149.7076578401772
 10
129.8728650933998
 20
-149.7076578401772
 10
129.8728650933998
 20
-149.6718288471306
 10
129.8711425456572
 20
-149.4389403923277
 10
129.8635633355897
 20
-149.3373100755129
 10
129.985864225316
 20
-149.3479898715172
 10
130.1970485785618
 20
-149.3479898715172
 10
130.3227945637734
 20
-149.3479898715172
 10
130.3227945637734
 20
-149.3479898715172
 10
130.7248372069021
 20
-149.3479898715172
 10
130.7248372069021
 20
-149.3479898715172
 10
130.7375840601975
 20
-149.3479898715172
 10
131.0431640297392
 20
-149.3479898715172
 10
131.1820013777948
 20
-149.3373100755129
 10
131.1802788300521
 20
-149.3903645459857
 10
131.1747666772757
 20
-149.5512505051469
 10
131.1747666772757
 20
-149.6018934087801
 10
131.1747666772757
 20
-149.6018934087801
 10
131.1747666772757
 20
-150.2089192332811
 10
131.1747666772757
 20
-150.2089192332811
 10
131.1747666772757
 20
-150.2282117679985
 10
131.1840684350859
 20
-150.7994085994529
 10
131.1840684350859
 20
-150.9113742027235
 10
131.1840684350859
 20
-150.9685627877787
 10
131.1840684350859
 20
-151.0701931045935
 10
131.1117214298957
 20
-151.1167018936444
 97
        0
 97
        1
330
90
 75
     2
 76
     1
 98
        1
 10
0.0
 20
0.0
450
        0
451
        0
460
0.0
461
0.0
452
        0
462
0.0
453
        0
470

  0
SPLINE
  5
92
330
81
100
AcDbEntity
  8
レイヤー 1
100
AcDbSpline
210
0.0
220
0.0
230
1.0
 70
     9
 71
     3
 72
    17
 73
    13
 74
     0
 42
0.0000000001
 43
0.0000000001
 40
0.0
 40
0.0
 40
0.0
 40
0.0
 40
1.0
 40
1.0
 40
1.0
 40
2.0
 40
2.0
 40
2.0
 40
3.0
 40
3.0
 40
3.0
 40
4.0
 40
4.0
 40
4.0
 40
4.0
 10
126.3337185014027
 20
-151.8773789767876
 30
0.0
 10
126.2854871646092
 20
-151.8773789767876
 30
0.0
 10
126.2465575856258
 20
-151.9218207085473
 30
0.0
 10
126.2465575856258
 20
-151.9769422363113
 30
0.0
 10
126.2465575856258
 20
-152.0341308213664
 30
0.0
 10
126.2854871646092
 20
-152.0827066677085
 30
0.0
 10
126.3375081064364
 20
-152.0827066677085
 30
0.0
 10
126.3891845387152
 20
-152.0827066677085
 30
0.0
 10
126.4243245126647
 20
-152.0320637640753
 30
0.0
 10
126.4243245126647
 20
-151.9790092936025
 30
0.0
 10
126.4243245126647
 20
-151.9218207085473
 30
0.0
 10
126.3836723859388
 20
-151.8773789767876
 30
0.0
 10
126.3337185014027
 20
-151.8773789767876
 30
0.0
  0
SPLINE
  5
93
330
81
100
AcDbEntity
  8
レイヤー 1
100
AcDbSpline
210
0.0
220
0.0
230
1.0
 70
     9
 71
     3
 72
    17
 73
    13
 74
     0
 42
0.0000000001
 43
0.0000000001
 40
0.0
 40
0.0
 40
0.0
 40
0.0
 40
1.0
 40
1.0
 40
1.0
 40
2.0
 40
2.0
 40
2.0
 40
3.0
 40
3.0
 40
3.0
 40
4.0
 40
4.0
 40
4.0
 40
4.0
 10
126.3354410491453
 20
-152.2074191242745
 30
0.0
 10
126.2245089745202
 20
-152.2074191242745
 30
0.0
 10
126.1356255110008
 20
-152.1061333170082
 30
0.0
 10
126.1356255110008
 20
-151.9790092936025
 30
0.0
 10
126.1356255110008
 20
-151.8522297797453
 30
0.0
 10
126.2245089745202
 20
-151.7485324056392
 30
0.0
 10
126.3354410491453
 20
-151.7485324056392
 30
0.0
 10
126.4467176333189
 20
-151.7485324056392
 30
0.0
 10
126.5373236445809
 20
-151.8522297797453
 30
0.0
 10
126.5373236445809
 20
-151.9790092936025
 30
0.0
 10
126.5373236445809
 20
-152.1061333170082
 30
0.0
 10
126.4467176333189
 20
-152.2074191242745
 30
0.0
 10
126.3354410491453
 20
-152.2074191242745
 30
0.0
  0
SPLINE
  5
94
330
81
100
AcDbEntity
  8
レイヤー 1
100
AcDbSpline
210
0.0
220
0.0
230
1.0
 70
     9
 71
     3
 72
    44
 73
    40
 74
     0
 42
0.0000000001
 43
0.0000000001
 40
0.0
 40
0.0
 40
0.0
 40
0.0
 40
1.0
 40
1.0
 40
1.0
 40
2.0
 40
2.0
 40
2.0
 40
3.0
 40
3.0
 40
3.0
 40
4.0
 40
4.0
 40
4.0
 40
5.0
 40
5.0
 40
5.0
 40
6.0
 40
6.0
 40
6.0
 40
7.0
 40
7.0
 40
7.0
 40
8.0
 40
8.0
 40
8.0
 40
9.0
 40
9.0
 40
9.0
 40
10.0
 40
10.0
 40
10.0
 40
11.0
 40
11.0
 40
11.0
 40
12.0
 40
12.0
 40
12.0
 40
13.0
 40
13.0
 40
13.0
 40
13.0
 10
126.15216196933
 20
-152.406545643322
 30
0.0
 10
126.0539767480004
 20
-152.7744818411466
 30
0.0
 10
126.0095350162407
 20
-152.9333007430166
 30
0.0
 10
125.8372802419782
 20
-153.1827256561487
 30
0.0
 10
125.676394282817
 20
-153.4135470536605
 30
0.0
 10
125.4689995346049
 20
-153.599582209864
 30
0.0
 10
125.2243977551522
 20
-153.6925997879657
 30
0.0
 10
125.2243977551522
 20
-153.6925997879657
 30
0.0
 10
125.0559325859235
 20
-153.5127658036357
 30
0.0
 10
125.0559325859235
 20
-153.5127658036357
 30
0.0
 10
125.6171386404707
 20
-153.3604925831876
 30
0.0
 10
125.9058376421346
 20
-152.8041096623198
 30
0.0
 10
125.9616481889957
 20
-152.3641709688534
 30
0.0
 10
125.9616481889957
 20
-152.3641709688534
 30
0.0
 10
125.2912326075661
 20
-152.3641709688534
 30
0.0
 10
125.2912326075661
 20
-152.3641709688534
 30
0.0
 10
125.2095838445656
 20
-152.3641709688534
 30
0.0
 10
125.0486978854045
 20
-152.3683050834357
 30
0.0
 10
124.9115830850915
 20
-152.3872531086046
 30
0.0
 10
124.9115830850915
 20
-152.3872531086046
 30
0.0
 10
124.9115830850915
 20
-152.1674560166456
 30
0.0
 10
124.9115830850915
 20
-152.1674560166456
 30
0.0
 10
124.987375185767
 20
-152.1884710991056
 30
0.0
 10
125.207861296823
 20
-152.1884710991056
 30
0.0
 10
125.2946777030513
 20
-152.1884710991056
 30
0.0
 10
125.2946777030513
 20
-152.1884710991056
 30
0.0
 10
125.6726046777832
 20
-152.1884710991056
 30
0.0
 10
125.6726046777832
 20
-152.1884710991056
 30
0.0
 10
125.7094671994754
 20
-152.1884710991056
 30
0.0
 10
125.9151393999448
 20
-152.1864040418145
 30
0.0
 10
125.9485568261517
 20
-152.180202869941
 30
0.0
 10
125.9854193478439
 20
-152.1736571885191
 30
0.0
 10
125.9874864051351
 20
-152.1715901312279
 30
0.0
 10
126.0412298947049
 20
-152.1312825140505
 30
0.0
 10
126.0412298947049
 20
-152.1312825140505
 30
0.0
 10
126.2059054588999
 20
-152.2859673013382
 30
0.0
 10
126.2059054588999
 20
-152.2859673013382
 30
0.0
 10
126.1800672427605
 20
-152.3155951225114
 30
0.0
 10
126.1669758799166
 20
-152.3472900009757
 30
0.0
 10
126.15216196933
 20
-152.406545643322
 30
0.0
  0
HATCH
  5
95
330
81
100
AcDbEntity
  8
レイヤー 1
 62
   250
420
  2299925
440
 33554687
100
AcDbHatch
 10
0.0
 20
0.0
 30
0.0
210
0.0
220
0.0
230
1.0
  2
SOLID
 70
     1
 71
     1
 91
        3
 92
        1
 93
        1
 72
     4
 94
        3
 73
     0
 74
     0
 95
       17
 96
       13
 40
0.0
 40
0.0
 40
0.0
 40
0.0
 40
1.0
 40
1.0
 40
1.0
 40
2.0
 40
2.0
 40
2.0
 40
3.0
 40
3.0
 40
3.0
 40
4.0
 40
4.0
 40
4.0
 40
4.0
 10
126.3337185014027
 20
-151.8773789767876
 10
126.2854871646092
 20
-151.8773789767876
 10
126.2465575856258
 20
-151.9218207085473
 10
126.2465575856258
 20
-151.9769422363113
 10
126.2465575856258
 20
-152.0341308213664
 10
126.2854871646092
 20
-152.0827066677085
 10
126.3375081064364
 20
-152.0827066677085
 10
126.3891845387152
 20
-152.0827066677085
 10
126.4243245126647
 20
-152.0320637640753
 10
126.4243245126647
 20
-151.9790092936025
 10
126.4243245126647
 20
-151.9218207085473
 10
126.3836723859388
 20
-151.8773789767876
 10
126.3337185014027
 20
-151.8773789767876
 97
        0
 97
        1
330
92
 92
        1
 93
        1
 72
     4
 94
        3
 73
     0
 74
     0
 95
       17
 96
       13
 40
0.0
 40
0.0
 40
0.0
 40
0.0
 40
1.0
 40
1.0
 40
1.0
 40
2.0
 40
2.0
 40
2.0
 40
3.0
 40
3.0
 40
3.0
 40
4.0
 40
4.0
 40
4.0
 40
4.0
 10
126.3354410491453
 20
-152.2074191242745
 10
126.2245089745202
 20
-152.2074191242745
 10
126.1356255110008
 20
-152.1061333170082
 10
126.1356255110008
 20
-151.9790092936025
 10
126.1356255110008
 20
-151.8522297797453
 10
126.2245089745202
 20
-151.7485324056392
 10
126.3354410491453
 20
-151.7485324056392
 10
126.4467176333189
 20
-151.7485324056392
 10
126.5373236445809
 20
-151.8522297797453
 10
126.5373236445809
 20
-151.9790092936025
 10
126.5373236445809
 20
-152.1061333170082
 10
126.4467176333189
 20
-152.2074191242745
 10
126.3354410491453
 20
-152.2074191242745
 97
        0
 97
        1
330
93
 92
        1
 93
        1
 72
     4
 94
        3
 73
     0
 74
     0
 95
       44
 96
       40
 40
0.0
 40
0.0
 40
0.0
 40
0.0
 40
1.0
 40
1.0
 40
1.0
 40
2.0
 40
2.0
 40
2.0
 40
3.0
 40
3.0
 40
3.0
 40
4.0
 40
4.0
 40
4.0
 40
5.0
 40
5.0
 40
5.0
 40
6.0
 40
6.0
 40
6.0
 40
7.0
 40
7.0
 40
7.0
 40
8.0
 40
8.0
 40
8.0
 40
9.0
 40
9.0
 40
9.0
 40
10.0
 40
10.0
 40
10.0
 40
11.0
 40
11.0
 40
11.0
 40
12.0
 40
12.0
 40
12.0
 40
13.0
 40
13.0
 40
13.0
 40
13.0
 10
126.15216196933
 20
-152.406545643322
 10
126.0539767480004
 20
-152.7744818411466
 10
126.0095350162407
 20
-152.9333007430166
 10
125.8372802419782
 20
-153.1827256561487
 10
125.676394282817
 20
-153.4135470536605
 10
125.4689995346049
 20
-153.599582209864
 10
125.2243977551522
 20
-153.6925997879657
 10
125.2243977551522
 20
-153.6925997879657
 10
125.0559325859235
 20
-153.5127658036357
 10
125.0559325859235
 20
-153.5127658036357
 10
125.6171386404707
 20
-153.3604925831876
 10
125.9058376421346
 20
-152.8041096623198
 10
125.9616481889957
 20
-152.3641709688534
 10
125.9616481889957
 20
-152.3641709688534
 10
125.2912326075661
 20
-152.3641709688534
 10
125.2912326075661
 20
-152.3641709688534
 10
125.2095838445656
 20
-152.3641709688534
 10
125.0486978854045
 20
-152.3683050834357
 10
124.9115830850915
 20
-152.3872531086046
 10
124.9115830850915
 20
-152.3872531086046
 10
124.9115830850915
 20
-152.1674560166456
 10
124.9115830850915
 20
-152.1674560166456
 10
124.987375185767
 20
-152.1884710991056
 10
125.207861296823
 20
-152.1884710991056
 10
125.2946777030513
 20
-152.1884710991056
 10
125.2946777030513
 20
-152.1884710991056
 10
125.6726046777832
 20
-152.1884710991056
 10
125.6726046777832
 20
-152.1884710991056
 10
125.7094671994754
 20
-152.1884710991056
 10
125.9151393999448
 20
-152.1864040418145
 10
125.9485568261517
 20
-152.180202869941
 10
125.9854193478439
 20
-152.1736571885191
 10
125.9874864051351
 20
-152.1715901312279
 10
126.0412298947049
 20
-152.1312825140505
 10
126.0412298947049
 20
-152.1312825140505
 10
126.2059054588999
 20
-152.2859673013382
 10
126.2059054588999
 20
-152.2859673013382
 10
126.1800672427605
 20
-152.3155951225114
 10
126.1669758799166
 20
-152.3472900009757
 10
126.15216196933
 20
-152.406545643322
 97
        0
 97
        1
330
94
 75
     2
 76
     1
 98
        1
 10
0.0
 20
0.0
450
        0
451
        0
460
0.0
461
0.0
452
        0
462
0.0
453
        0
470

  0
SPLINE
  5
96
330
81
100
AcDbEntity
  8
レイヤー 1
100
AcDbSpline
210
0.0
220
0.0
230
1.0
 70
     9
 71
     3
 72
    29
 73
    25
 74
     0
 42
0.0000000001
 43
0.0000000001
 40
0.0
 40
0.0
 40
0.0
 40
0.0
 40
1.0
 40
1.0
 40
1.0
 40
2.0
 40
2.0
 40
2.0
 40
3.0
 40
3.0
 40
3.0
 40
4.0
 40
4.0
 40
4.0
 40
5.0
 40
5.0
 40
5.0
 40
6.0
 40
6.0
 40
6.0
 40
7.0
 40
7.0
 40
7.0
 40
8.0
 40
8.0
 40
8.0
 40
8.0
 10
127.47645667386
 20
-152.0892523491305
 30
0.0
 10
127.47645667386
 20
-152.0892523491305
 30
0.0
 10
127.1784559143859
 20
-152.0892523491305
 30
0.0
 10
127.1784559143859
 20
-152.0892523491305
 30
0.0
 10
127.0785481453137
 20
-152.0892523491305
 30
0.0
 10
126.9765733189503
 20
-152.0933864637127
 30
0.0
 10
126.876665549878
 20
-152.1082003742993
 30
0.0
 10
126.876665549878
 20
-152.1082003742993
 30
0.0
 10
126.876665549878
 20
-151.8987385687961
 30
0.0
 10
126.876665549878
 20
-151.8987385687961
 30
0.0
 10
126.9803629239841
 20
-151.9135524793827
 30
0.0
 10
127.1322916348836
 20
-151.917686593965
 30
0.0
 10
127.1784559143859
 20
-151.917686593965
 30
0.0
 10
127.1784559143859
 20
-151.917686593965
 30
0.0
 10
127.47645667386
 20
-151.917686593965
 30
0.0
 10
127.47645667386
 20
-151.917686593965
 30
0.0
 10
127.5784315002234
 20
-151.917686593965
 30
0.0
 10
127.6800618170383
 20
-151.9135524793827
 30
0.0
 10
127.7820366434017
 20
-151.8987385687961
 30
0.0
 10
127.7820366434017
 20
-151.8987385687961
 30
0.0
 10
127.7820366434017
 20
-152.1082003742993
 30
0.0
 10
127.7820366434017
 20
-152.1082003742993
 30
0.0
 10
127.6504339958651
 20
-152.0892523491305
 30
0.0
 10
127.489548036704
 20
-152.0892523491305
 30
0.0
 10
127.47645667386
 20
-152.0892523491305
 30
0.0
  0
SPLINE
  5
97
330
81
100
AcDbEntity
  8
レイヤー 1
100
AcDbSpline
210
0.0
220
0.0
230
1.0
 70
     9
 71
     3
 72
    50
 73
    46
 74
     0
 42
0.0000000001
 43
0.0000000001
 40
0.0
 40
0.0
 40
0.0
 40
0.0
 40
1.0
 40
1.0
 40
1.0
 40
2.0
 40
2.0
 40
2.0
 40
3.0
 40
3.0
 40
3.0
 40
4.0
 40
4.0
 40
4.0
 40
5.0
 40
5.0
 40
5.0
 40
6.0
 40
6.0
 40
6.0
 40
7.0
 40
7.0
 40
7.0
 40
8.0
 40
8.0
 40
8.0
 40
9.0
 40
9.0
 40
9.0
 40
10.0
 40
10.0
 40
10.0
 40
11.0
 40
11.0
 40
11.0
 40
12.0
 40
12.0
 40
12.0
 40
13.0
 40
13.0
 40
13.0
 40
14.0
 40
14.0
 40
14.0
 40
15.0
 40
15.0
 40
15.0
 40
15.0
 10
127.9081271381618
 20
-152.7152261988003
 30
0.0
 10
127.8395697380054
 20
-152.8929931258393
 30
0.0
 10
127.7210584533128
 20
-153.1003878740513
 30
0.0
 10
127.600480111329
 20
-153.2399142412039
 30
0.0
 10
127.4523410054633
 20
-153.4111354868208
 30
0.0
 10
127.3100585619225
 20
-153.5000189503403
 30
0.0
 10
127.0303168085202
 20
-153.6419568843326
 30
0.0
 10
127.0303168085202
 20
-153.6419568843326
 30
0.0
 10
126.8821777026544
 20
-153.4535101612894
 30
0.0
 10
126.8821777026544
 20
-153.4535101612894
 30
0.0
 10
127.0451307191068
 20
-153.4304280215382
 30
0.0
 10
127.1949923727151
 20
-153.3436116153099
 30
0.0
 10
127.3283175679943
 20
-153.2378471839128
 30
0.0
 10
127.5581054368605
 20
-153.0559461422916
 30
0.0
 10
127.7248480583465
 20
-152.7427869626824
 30
0.0
 10
127.7672227328151
 20
-152.5608859210612
 30
0.0
 10
127.7672227328151
 20
-152.5608859210612
 30
0.0
 10
127.1801784621285
 20
-152.5608859210612
 30
0.0
 10
127.1801784621285
 20
-152.5608859210612
 30
0.0
 10
127.041341114073
 20
-152.5608859210612
 30
0.0
 10
126.7857150290674
 20
-152.5691541502258
 30
0.0
 10
126.6523898337883
 20
-152.586379627652
 30
0.0
 10
126.6523898337883
 20
-152.586379627652
 30
0.0
 10
126.6523898337883
 20
-152.3576252874314
 30
0.0
 10
126.6523898337883
 20
-152.3576252874314
 30
0.0
 10
126.6820176549614
 20
-152.3641709688534
 30
0.0
 10
126.7044107756156
 20
-152.3703721407268
 30
0.0
 10
126.7505750551179
 20
-152.3745062553091
 30
0.0
 10
126.8394585186373
 20
-152.3810519367311
 30
0.0
 10
127.0117132928998
 20
-152.3831189940223
 30
0.0
 10
127.0857828458327
 20
-152.3831189940223
 30
0.0
 10
127.0857828458327
 20
-152.3831189940223
 30
0.0
 10
127.5284776156873
 20
-152.3831189940223
 30
0.0
 10
127.5284776156873
 20
-152.3831189940223
 30
0.0
 10
127.5877332580336
 20
-152.3831189940223
 30
0.0
 10
127.7155463005364
 20
-152.3789848794399
 30
0.0
 10
127.7689452805577
 20
-152.372439198018
 30
0.0
 10
127.8319905279378
 20
-152.3641709688534
 30
0.0
 10
127.8561061963346
 20
-152.3493570582668
 30
0.0
 10
127.8857340175077
 20
-152.3259304089671
 30
0.0
 10
127.8857340175077
 20
-152.3259304089671
 30
0.0
 10
128.0300835183397
 20
-152.4930175400017
 30
0.0
 10
128.0300835183397
 20
-152.4930175400017
 30
0.0
 10
127.9691053282508
 20
-152.5608859210612
 30
0.0
 10
127.9284532015248
 20
-152.6645832951672
 30
0.0
 10
127.9081271381618
 20
-152.7152261988003
 30
0.0
  0
HATCH
  5
98
330
81
100
AcDbEntity
  8
レイヤー 1
 62
   250
420
  2299925
440
 33554687
100
AcDbHatch
 10
0.0
 20
0.0
 30
0.0
210
0.0
220
0.0
230
1.0
  2
SOLID
 70
     1
 71
     1
 91
        2
 92
        1
 93
        1
 72
     4
 94
        3
 73
     0
 74
     0
 95
       29
 96
       25
 40
0.0
 40
0.0
 40
0.0
 40
0.0
 40
1.0
 40
1.0
 40
1.0
 40
2.0
 40
2.0
 40
2.0
 40
3.0
 40
3.0
 40
3.0
 40
4.0
 40
4.0
 40
4.0
 40
5.0
 40
5.0
 40
5.0
 40
6.0
 40
6.0
 40
6.0
 40
7.0
 40
7.0
 40
7.0
 40
8.0
 40
8.0
 40
8.0
 40
8.0
 10
127.47645667386
 20
-152.0892523491305
 10
127.47645667386
 20
-152.0892523491305
 10
127.1784559143859
 20
-152.0892523491305
 10
127.1784559143859
 20
-152.0892523491305
 10
127.0785481453137
 20
-152.0892523491305
 10
126.9765733189503
 20
-152.0933864637127
 10
126.876665549878
 20
-152.1082003742993
 10
126.876665549878
 20
-152.1082003742993
 10
126.876665549878
 20
-151.8987385687961
 10
126.876665549878
 20
-151.8987385687961
 10
126.9803629239841
 20
-151.9135524793827
 10
127.1322916348836
 20
-151.917686593965
 10
127.1784559143859
 20
-151.917686593965
 10
127.1784559143859
 20
-151.917686593965
 10
127.47645667386
 20
-151.917686593965
 10
127.47645667386
 20
-151.917686593965
 10
127.5784315002234
 20
-151.917686593965
 10
127.6800618170383
 20
-151.9135524793827
 10
127.7820366434017
 20
-151.8987385687961
 10
127.7820366434017
 20
-151.8987385687961
 10
127.7820366434017
 20
-152.1082003742993
 10
127.7820366434017
 20
-152.1082003742993
 10
127.6504339958651
 20
-152.0892523491305
 10
127.489548036704
 20
-152.0892523491305
 10
127.47645667386
 20
-152.0892523491305
 97
        0
 97
        1
330
96
 92
        1
 93
        1
 72
     4
 94
        3
 73
     0
 74
     0
 95
       50
 96
       46
 40
0.0
 40
0.0
 40
0.0
 40
0.0
 40
1.0
 40
1.0
 40
1.0
 40
2.0
 40
2.0
 40
2.0
 40
3.0
 40
3.0
 40
3.0
 40
4.0
 40
4.0
 40
4.0
 40
5.0
 40
5.0
 40
5.0
 40
6.0
 40
6.0
 40
6.0
 40
7.0
 40
7.0
 40
7.0
 40
8.0
 40
8.0
 40
8.0
 40
9.0
 40
9.0
 40
9.0
 40
10.0
 40
10.0
 40
10.0
 40
11.0
 40
11.0
 40
11.0
 40
12.0
 40
12.0
 40
12.0
 40
13.0
 40
13.0
 40
13.0
 40
14.0
 40
14.0
 40
14.0
 40
15.0
 40
15.0
 40
15.0
 40
15.0
 10
127.9081271381618
 20
-152.7152261988003
 10
127.8395697380054
 20
-152.8929931258393
 10
127.7210584533128
 20
-153.1003878740513
 10
127.600480111329
 20
-153.2399142412039
 10
127.4523410054633
 20
-153.4111354868208
 10
127.3100585619225
 20
-153.5000189503403
 10
127.0303168085202
 20
-153.6419568843326
 10
127.0303168085202
 20
-153.6419568843326
 10
126.8821777026544
 20
-153.4535101612894
 10
126.8821777026544
 20
-153.4535101612894
 10
127.0451307191068
 20
-153.4304280215382
 10
127.1949923727151
 20
-153.3436116153099
 10
127.3283175679943
 20
-153.2378471839128
 10
127.5581054368605
 20
-153.0559461422916
 10
127.7248480583465
 20
-152.7427869626824
 10
127.7672227328151
 20
-152.5608859210612
 10
127.7672227328151
 20
-152.5608859210612
 10
127.1801784621285
 20
-152.5608859210612
 10
127.1801784621285
 20
-152.5608859210612
 10
127.041341114073
 20
-152.5608859210612
 10
126.7857150290674
 20
-152.5691541502258
 10
126.6523898337883
 20
-152.586379627652
 10
126.6523898337883
 20
-152.586379627652
 10
126.6523898337883
 20
-152.3576252874314
 10
126.6523898337883
 20
-152.3576252874314
 10
126.6820176549614
 20
-152.3641709688534
 10
126.7044107756156
 20
-152.3703721407268
 10
126.7505750551179
 20
-152.3745062553091
 10
126.8394585186373
 20
-152.3810519367311
 10
127.0117132928998
 20
-152.3831189940223
 10
127.0857828458327
 20
-152.3831189940223
 10
127.0857828458327
 20
-152.3831189940223
 10
127.5284776156873
 20
-152.3831189940223
 10
127.5284776156873
 20
-152.3831189940223
 10
127.5877332580336
 20
-152.3831189940223
 10
127.7155463005364
 20
-152.3789848794399
 10
127.7689452805577
 20
-152.372439198018
 10
127.8319905279378
 20
-152.3641709688534
 10
127.8561061963346
 20
-152.3493570582668
 10
127.8857340175077
 20
-152.3259304089671
 10
127.8857340175077
 20
-152.3259304089671
 10
128.0300835183397
 20
-152.4930175400017
 10
128.0300835183397
 20
-152.4930175400017
 10
127.9691053282508
 20
-152.5608859210612
 10
127.9284532015248
 20
-152.6645832951672
 10
127.9081271381618
 20
-152.7152261988003
 97
        0
 97
        1
330
97
 75
     2
 76
     1
 98
        1
 10
0.0
 20
0.0
450
        0
451
        0
460
0.0
461
0.0
452
        0
462
0.0
453
        0
470

  0
SPLINE
  5
99
330
81
100
AcDbEntity
  8
レイヤー 1
100
AcDbSpline
210
0.0
220
0.0
230
1.0
 70
     9
 71
     3
 72
    50
 73
    46
 74
     0
 42
0.0000000001
 43
0.0000000001
 40
0.0
 40
0.0
 40
0.0
 40
0.0
 40
1.0
 40
1.0
 40
1.0
 40
2.0
 40
2.0
 40
2.0
 40
3.0
 40
3.0
 40
3.0
 40
4.0
 40
4.0
 40
4.0
 40
5.0
 40
5.0
 40
5.0
 40
6.0
 40
6.0
 40
6.0
 40
7.0
 40
7.0
 40
7.0
 40
8.0
 40
8.0
 40
8.0
 40
9.0
 40
9.0
 40
9.0
 40
10.0
 40
10.0
 40
10.0
 40
11.0
 40
11.0
 40
11.0
 40
12.0
 40
12.0
 40
12.0
 40
13.0
 40
13.0
 40
13.0
 40
14.0
 40
14.0
 40
14.0
 40
15.0
 40
15.0
 40
15.0
 40
15.0
 10
129.4060546551485
 20
-152.0744384385439
 30
0.0
 10
129.2227755753332
 20
-152.2880343586294
 30
0.0
 10
129.1600748375016
 20
-152.3600368542711
 30
0.0
 10
129.0357068904841
 20
-152.4782036294152
 30
0.0
 10
129.0357068904841
 20
-152.4782036294152
 30
0.0
 10
129.0357068904841
 20
-153.0452663462873
 30
0.0
 10
129.0357068904841
 20
-153.0452663462873
 30
0.0
 10
129.0357068904841
 20
-153.1954725094442
 30
0.0
 10
129.041563552809
 20
-153.214420534613
 30
0.0
 10
129.0450086482943
 20
-153.3921874616519
 30
0.0
 10
129.0470757055854
 20
-153.52344559964
 30
0.0
 10
129.0525878583618
 20
-153.572021445982
 30
0.0
 10
129.0581000111382
 20
-153.6312770883283
 30
0.0
 10
129.0581000111382
 20
-153.6312770883283
 30
0.0
 10
128.8600070207364
 20
-153.6312770883283
 30
0.0
 10
128.8600070207364
 20
-153.6312770883283
 30
0.0
 10
128.8637966257701
 20
-153.5868353565686
 30
0.0
 10
128.8672417212554
 20
-153.5403265675177
 30
0.0
 10
128.8672417212554
 20
-153.5317138288046
 30
0.0
 10
128.8672417212554
 20
-153.4514431039982
 30
0.0
 10
128.8710313262892
 20
-153.1003878740513
 30
0.0
 10
128.8710313262892
 20
-153.0283853784096
 30
0.0
 10
128.8710313262892
 20
-153.0283853784096
 30
0.0
 10
128.8710313262892
 20
-152.6222086206986
 30
0.0
 10
128.8710313262892
 20
-152.6222086206986
 30
0.0
 10
128.7118679148706
 20
-152.7469210772646
 30
0.0
 10
128.5413356883507
 20
-152.8571641327926
 30
0.0
 10
128.3635687613118
 20
-152.9436360294724
 30
0.0
 10
128.3635687613118
 20
-152.9436360294724
 30
0.0
 10
128.185801834273
 20
-152.7806830130201
 30
0.0
 10
128.185801834273
 20
-152.7806830130201
 30
0.0
 10
128.2932888134128
 20
-152.7448540199735
 30
0.0
 10
128.517220019954
 20
-152.6707844670406
 30
0.0
 10
128.8190103844619
 20
-152.4148138724866
 30
0.0
 10
129.0081461266021
 20
-152.256339480165
 30
0.0
 10
129.1766112958308
 20
-152.0678927571219
 30
0.0
 10
129.30993649111
 20
-151.8477511556144
 30
0.0
 10
129.30993649111
 20
-151.8477511556144
 30
0.0
 10
129.4784016603387
 20
-151.9917561468979
 30
0.0
 10
129.4784016603387
 20
-151.9917561468979
 30
0.0
 10
129.4894259658915
 20
-152.0024359429021
 30
0.0
 10
129.4970051759591
 20
-152.0172498534887
 30
0.0
 10
129.4970051759591
 20
-152.0299967067842
 30
0.0
 10
129.4970051759591
 20
-152.069959814413
 30
0.0
 10
129.4635877497521
 20
-152.069959814413
 30
0.0
 10
129.4060546551485
 20
-152.0744384385439
 30
0.0
  0
HATCH
  5
9A
330
81
100
AcDbEntity
  8
レイヤー 1
 62
   250
420
  2299925
440
 33554687
100
AcDbHatch
 10
0.0
 20
0.0
 30
0.0
210
0.0
220
0.0
230
1.0
  2
SOLID
 70
     1
 71
     1
 91
        1
 92
        1
 93
        1
 72
     4
 94
        3
 73
     0
 74
     0
 95
       50
 96
       46
 40
0.0
 40
0.0
 40
0.0
 40
0.0
 40
1.0
 40
1.0
 40
1.0
 40
2.0
 40
2.0
 40
2.0
 40
3.0
 40
3.0
 40
3.0
 40
4.0
 40
4.0
 40
4.0
 40
5.0
 40
5.0
 40
5.0
 40
6.0
 40
6.0
 40
6.0
 40
7.0
 40
7.0
 40
7.0
 40
8.0
 40
8.0
 40
8.0
 40
9.0
 40
9.0
 40
9.0
 40
10.0
 40
10.0
 40
10.0
 40
11.0
 40
11.0
 40
11.0
 40
12.0
 40
12.0
 40
12.0
 40
13.0
 40
13.0
 40
13.0
 40
14.0
 40
14.0
 40
14.0
 40
15.0
 40
15.0
 40
15.0
 40
15.0
 10
129.4060546551485
 20
-152.0744384385439
 10
129.2227755753332
 20
-152.2880343586294
 10
129.1600748375016
 20
-152.3600368542711
 10
129.0357068904841
 20
-152.4782036294152
 10
129.0357068904841
 20
-152.4782036294152
 10
129.0357068904841
 20
-153.0452663462873
 10
129.0357068904841
 20
-153.0452663462873
 10
129.0357068904841
 20
-153.1954725094442
 10
129.041563552809
 20
-153.214420534613
 10
129.0450086482943
 20
-153.3921874616519
 10
129.0470757055854
 20
-153.52344559964
 10
129.0525878583618
 20
-153.572021445982
 10
129.0581000111382
 20
-153.6312770883283
 10
129.0581000111382
 20
-153.6312770883283
 10
128.8600070207364
 20
-153.6312770883283
 10
128.8600070207364
 20
-153.6312770883283
 10
128.8637966257701
 20
-153.5868353565686
 10
128.8672417212554
 20
-153.5403265675177
 10
128.8672417212554
 20
-153.5317138288046
 10
128.8672417212554
 20
-153.4514431039982
 10
128.8710313262892
 20
-153.1003878740513
 10
128.8710313262892
 20
-153.0283853784096
 10
128.8710313262892
 20
-153.0283853784096
 10
128.8710313262892
 20
-152.6222086206986
 10
128.8710313262892
 20
-152.6222086206986
 10
128.7118679148706
 20
-152.7469210772646
 10
128.5413356883507
 20
-152.8571641327926
 10
128.3635687613118
 20
-152.9436360294724
 10
128.3635687613118
 20
-152.9436360294724
 10
128.185801834273
 20
-152.7806830130201
 10
128.185801834273
 20
-152.7806830130201
 10
128.2932888134128
 20
-152.7448540199735
 10
128.517220019954
 20
-152.6707844670406
 10
128.8190103844619
 20
-152.4148138724866
 10
129.0081461266021
 20
-152.256339480165
 10
129.1766112958308
 20
-152.0678927571219
 10
129.30993649111
 20
-151.8477511556144
 10
129.30993649111
 20
-151.8477511556144
 10
129.4784016603387
 20
-151.9917561468979
 10
129.4784016603387
 20
-151.9917561468979
 10
129.4894259658915
 20
-152.0024359429021
 10
129.4970051759591
 20
-152.0172498534887
 10
129.4970051759591
 20
-152.0299967067842
 10
129.4970051759591
 20
-152.069959814413
 10
129.4635877497521
 20
-152.069959814413
 10
129.4060546551485
 20
-152.0744384385439
 97
        0
 97
        1
330
99
 75
     2
 76
     1
 98
        1
 10
0.0
 20
0.0
450
        0
451
        0
460
0.0
461
0.0
452
        0
462
0.0
453
        0
470

  0
SPLINE
  5
9B
330
81
100
AcDbEntity
  8
レイヤー 1
100
AcDbSpline
210
0.0
220
0.0
230
1.0
 70
     9
 71
     3
 72
    50
 73
    46
 74
     0
 42
0.0000000001
 43
0.0000000001
 40
0.0
 40
0.0
 40
0.0
 40
0.0
 40
1.0
 40
1.0
 40
1.0
 40
2.0
 40
2.0
 40
2.0
 40
3.0
 40
3.0
 40
3.0
 40
4.0
 40
4.0
 40
4.0
 40
5.0
 40
5.0
 40
5.0
 40
6.0
 40
6.0
 40
6.0
 40
7.0
 40
7.0
 40
7.0
 40
8.0
 40
8.0
 40
8.0
 40
9.0
 40
9.0
 40
9.0
 40
10.0
 40
10.0
 40
10.0
 40
11.0
 40
11.0
 40
11.0
 40
12.0
 40
12.0
 40
12.0
 40
13.0
 40
13.0
 40
13.0
 40
14.0
 40
14.0
 40
14.0
 40
15.0
 40
15.0
 40
15.0
 40
15.0
 10
130.9022596243925
 20
-152.6011935382386
 30
0.0
 10
130.8488606443711
 20
-152.6728515243318
 30
0.0
 10
130.6207953232476
 20
-152.9901448185233
 30
0.0
 10
130.5708414387114
 20
-153.0538790850004
 30
0.0
 10
130.6449109916443
 20
-153.1510307776845
 30
0.0
 10
130.689352723404
 20
-153.214420534613
 30
0.0
 10
130.7468858180077
 20
-153.3053710554237
 30
0.0
 10
130.7468858180077
 20
-153.3053710554237
 30
0.0
 10
130.585655349298
 20
-153.4431748748336
 30
0.0
 10
130.585655349298
 20
-153.4431748748336
 30
0.0
 10
130.4671440646054
 20
-153.2313015024908
 30
0.0
 10
130.3172824109971
 20
-153.0073702959495
 30
0.0
 10
130.0599337782489
 20
-152.8082437769021
 30
0.0
 10
130.0599337782489
 20
-152.8082437769021
 30
0.0
 10
130.1894693684943
 20
-152.6539034991629
 30
0.0
 10
130.1894693684943
 20
-152.6539034991629
 30
0.0
 10
130.2859320420813
 20
-152.7341742239692
 30
0.0
 10
130.3765380533434
 20
-152.8230576874887
 30
0.0
 10
130.461631911829
 20
-152.9184868324301
 30
0.0
 10
130.5208875541753
 20
-152.8423502222061
 30
0.0
 10
130.6986544812142
 20
-152.5987819713989
 30
0.0
 10
130.8154432181642
 20
-152.3703721407268
 30
0.0
 10
130.8154432181642
 20
-152.3703721407268
 30
0.0
 10
130.226676399735
 20
-152.3703721407268
 30
0.0
 10
130.226676399735
 20
-152.3703721407268
 30
0.0
 10
130.117122363304
 20
-152.3703721407268
 30
0.0
 10
129.8969807617966
 20
-152.3789848794399
 30
0.0
 10
129.7137016819813
 20
-152.3893201658957
 30
0.0
 10
129.7137016819813
 20
-152.3893201658957
 30
0.0
 10
129.7137016819813
 20
-152.1695230739368
 30
0.0
 10
129.7137016819813
 20
-152.1695230739368
 30
0.0
 10
129.8745876411425
 20
-152.1884710991056
 30
0.0
 10
130.0544216254725
 20
-152.1926052136879
 30
0.0
 10
130.2190971896674
 20
-152.1926052136879
 30
0.0
 10
130.2190971896674
 20
-152.1926052136879
 30
0.0
 10
130.6597249022309
 20
-152.1926052136879
 30
0.0
 10
130.6597249022309
 20
-152.1926052136879
 30
0.0
 10
130.9560031139624
 20
-152.1926052136879
 30
0.0
 10
130.9949326929457
 20
-152.1777913031014
 30
0.0
 10
131.0672796981359
 20
-152.1378281954725
 30
0.0
 10
131.0672796981359
 20
-152.1378281954725
 30
0.0
 10
131.2133517467105
 20
-152.296302587794
 30
0.0
 10
131.2133517467105
 20
-152.296302587794
 30
0.0
 10
131.0800265514314
 20
-152.3683050834357
 30
0.0
 10
130.9542805662198
 20
-152.531258099888
 30
0.0
 10
130.9022596243925
 20
-152.6011935382386
 30
0.0
  0
HATCH
  5
9C
330
81
100
AcDbEntity
  8
レイヤー 1
 62
   250
420
  2299925
440
 33554687
100
AcDbHatch
 10
0.0
 20
0.0
 30
0.0
210
0.0
220
0.0
230
1.0
  2
SOLID
 70
     1
 71
     1
 91
        1
 92
        1
 93
        1
 72
     4
 94
        3
 73
     0
 74
     0
 95
       50
 96
       46
 40
0.0
 40
0.0
 40
0.0
 40
0.0
 40
1.0
 40
1.0
 40
1.0
 40
2.0
 40
2.0
 40
2.0
 40
3.0
 40
3.0
 40
3.0
 40
4.0
 40
4.0
 40
4.0
 40
5.0
 40
5.0
 40
5.0
 40
6.0
 40
6.0
 40
6.0
 40
7.0
 40
7.0
 40
7.0
 40
8.0
 40
8.0
 40
8.0
 40
9.0
 40
9.0
 40
9.0
 40
10.0
 40
10.0
 40
10.0
 40
11.0
 40
11.0
 40
11.0
 40
12.0
 40
12.0
 40
12.0
 40
13.0
 40
13.0
 40
13.0
 40
14.0
 40
14.0
 40
14.0
 40
15.0
 40
15.0
 40
15.0
 40
15.0
 10
130.9022596243925
 20
-152.6011935382386
 10
130.8488606443711
 20
-152.6728515243318
 10
130.6207953232476
 20
-152.9901448185233
 10
130.5708414387114
 20
-153.0538790850004
 10
130.6449109916443
 20
-153.1510307776845
 10
130.689352723404
 20
-153.214420534613
 10
130.7468858180077
 20
-153.3053710554237
 10
130.7468858180077
 20
-153.3053710554237
 10
130.585655349298
 20
-153.4431748748336
 10
130.585655349298
 20
-153.4431748748336
 10
130.4671440646054
 20
-153.2313015024908
 10
130.3172824109971
 20
-153.0073702959495
 10
130.0599337782489
 20
-152.8082437769021
 10
130.0599337782489
 20
-152.8082437769021
 10
130.1894693684943
 20
-152.6539034991629
 10
130.1894693684943
 20
-152.6539034991629
 10
130.2859320420813
 20
-152.7341742239692
 10
130.3765380533434
 20
-152.8230576874887
 10
130.461631911829
 20
-152.9184868324301
 10
130.5208875541753
 20
-152.8423502222061
 10
130.6986544812142
 20
-152.5987819713989
 10
130.8154432181642
 20
-152.3703721407268
 10
130.8154432181642
 20
-152.3703721407268
 10
130.226676399735
 20
-152.3703721407268
 10
130.226676399735
 20
-152.3703721407268
 10
130.117122363304
 20
-152.3703721407268
 10
129.8969807617966
 20
-152.3789848794399
 10
129.7137016819813
 20
-152.3893201658957
 10
129.7137016819813
 20
-152.3893201658957
 10
129.7137016819813
 20
-152.1695230739368
 10
129.7137016819813
 20
-152.1695230739368
 10
129.8745876411425
 20
-152.1884710991056
 10
130.0544216254725
 20
-152.1926052136879
 10
130.2190971896674
 20
-152.1926052136879
 10
130.2190971896674
 20
-152.1926052136879
 10
130.6597249022309
 20
-152.1926052136879
 10
130.6597249022309
 20
-152.1926052136879
 10
130.9560031139624
 20
-152.1926052136879
 10
130.9949326929457
 20
-152.1777913031014
 10
131.0672796981359
 20
-152.1378281954725
 10
131.0672796981359
 20
-152.1378281954725
 10
131.2133517467105
 20
-152.296302587794
 10
131.2133517467105
 20
-152.296302587794
 10
131.0800265514314
 20
-152.3683050834357
 10
130.9542805662198
 20
-152.531258099888
 10
130.9022596243925
 20
-152.6011935382386
 97
        0
 97
        1
330
9B
 75
     2
 76
     1
 98
        1
 10
0.0
 20
0.0
450
        0
451
        0
460
0.0
461
0.0
452
        0
462
0.0
453
        0
470

  0
SPLINE
  5
9D
330
81
100
AcDbEntity
  8
レイヤー 1
100
AcDbSpline
210
0.0
220
0.0
230
1.0
 70
     9
 71
     3
 72
    29
 73
    25
 74
     0
 42
0.0000000001
 43
0.0000000001
 40
0.0
 40
0.0
 40
0.0
 40
0.0
 40
1.0
 40
1.0
 40
1.0
 40
2.0
 40
2.0
 40
2.0
 40
3.0
 40
3.0
 40
3.0
 40
4.0
 40
4.0
 40
4.0
 40
5.0
 40
5.0
 40
5.0
 40
6.0
 40
6.0
 40
6.0
 40
7.0
 40
7.0
 40
7.0
 40
8.0
 40
8.0
 40
8.0
 40
8.0
 10
132.3247395502521
 20
-152.8444172794972
 30
0.0
 10
132.3247395502521
 20
-152.8444172794972
 30
0.0
 10
131.9006482960179
 20
-152.8444172794972
 30
0.0
 10
131.9006482960179
 20
-152.8444172794972
 30
0.0
 10
131.8765326276211
 20
-152.8444172794972
 30
0.0
 10
131.5985134219615
 20
-152.8444172794972
 30
0.0
 10
131.4135117944035
 20
-152.8695664765395
 30
0.0
 10
131.4135117944035
 20
-152.8695664765395
 30
0.0
 10
131.4135117944035
 20
-152.6390895885763
 30
0.0
 10
131.4135117944035
 20
-152.6390895885763
 30
0.0
 10
131.5523491424591
 20
-152.662516237876
 30
0.0
 10
131.7190917639452
 20
-152.6645832951672
 30
0.0
 10
131.9006482960179
 20
-152.6645832951672
 30
0.0
 10
131.9006482960179
 20
-152.6645832951672
 30
0.0
 10
132.3247395502521
 20
-152.6645832951672
 30
0.0
 10
132.3247395502521
 20
-152.6645832951672
 30
0.0
 10
132.4873480571559
 20
-152.6645832951672
 30
0.0
 10
132.6506455831568
 20
-152.662516237876
 30
0.0
 10
132.8115315423179
 20
-152.6390895885763
 30
0.0
 10
132.8115315423179
 20
-152.6390895885763
 30
0.0
 10
132.8115315423179
 20
-152.8695664765395
 30
0.0
 10
132.8115315423179
 20
-152.8695664765395
 30
0.0
 10
132.6506455831568
 20
-152.8464843367884
 30
0.0
 10
132.4339490771345
 20
-152.8444172794972
 30
0.0
 10
132.3247395502521
 20
-152.8444172794972
 30
0.0
  0
HATCH
  5
9E
330
81
100
AcDbEntity
  8
レイヤー 1
 62
   250
420
  2299925
440
 33554687
100
AcDbHatch
 10
0.0
 20
0.0
 30
0.0
210
0.0
220
0.0
230
1.0
  2
SOLID
 70
     1
 71
     1
 91
        1
 92
        1
 93
        1
 72
     4
 94
        3
 73
     0
 74
     0
 95
       29
 96
       25
 40
0.0
 40
0.0
 40
0.0
 40
0.0
 40
1.0
 40
1.0
 40
1.0
 40
2.0
 40
2.0
 40
2.0
 40
3.0
 40
3.0
 40
3.0
 40
4.0
 40
4.0
 40
4.0
 40
5.0
 40
5.0
 40
5.0
 40
6.0
 40
6.0
 40
6.0
 40
7.0
 40
7.0
 40
7.0
 40
8.0
 40
8.0
 40
8.0
 40
8.0
 10
132.3247395502521
 20
-152.8444172794972
 10
132.3247395502521
 20
-152.8444172794972
 10
131.9006482960179
 20
-152.8444172794972
 10
131.9006482960179
 20
-152.8444172794972
 10
131.8765326276211
 20
-152.8444172794972
 10
131.5985134219615
 20
-152.8444172794972
 10
131.4135117944035
 20
-152.8695664765395
 10
131.4135117944035
 20
-152.8695664765395
 10
131.4135117944035
 20
-152.6390895885763
 10
131.4135117944035
 20
-152.6390895885763
 10
131.5523491424591
 20
-152.662516237876
 10
131.7190917639452
 20
-152.6645832951672
 10
131.9006482960179
 20
-152.6645832951672
 10
131.9006482960179
 20
-152.6645832951672
 10
132.3247395502521
 20
-152.6645832951672
 10
132.3247395502521
 20
-152.6645832951672
 10
132.4873480571559
 20
-152.6645832951672
 10
132.6506455831568
 20
-152.662516237876
 10
132.8115315423179
 20
-152.6390895885763
 10
132.8115315423179
 20
-152.6390895885763
 10
132.8115315423179
 20
-152.8695664765395
 10
132.8115315423179
 20
-152.8695664765395
 10
132.6506455831568
 20
-152.8464843367884
 10
132.4339490771345
 20
-152.8444172794972
 10
132.3247395502521
 20
-152.8444172794972
 97
        0
 97
        1
330
9D
 75
     2
 76
     1
 98
        1
 10
0.0
 20
0.0
450
        0
451
        0
460
0.0
461
0.0
452
        0
462
0.0
453
        0
470

  0
SPLINE
  5
9F
330
81
100
AcDbEntity
  8
レイヤー 1
100
AcDbSpline
210
0.0
220
0.0
230
1.0
 70
     9
 71
     3
 72
    20
 73
    16
 74
     0
 42
0.0000000001
 43
0.0000000001
 40
0.0
 40
0.0
 40
0.0
 40
0.0
 40
1.0
 40
1.0
 40
1.0
 40
2.0
 40
2.0
 40
2.0
 40
3.0
 40
3.0
 40
3.0
 40
4.0
 40
4.0
 40
4.0
 40
5.0
 40
5.0
 40
5.0
 40
5.0
 10
133.9005262252054
 20
-153.1954725094442
 30
0.0
 10
133.8598740984795
 20
-153.0177055824053
 30
0.0
 10
133.7747802399938
 20
-152.8761121579615
 30
0.0
 10
133.6524793502674
 20
-152.766213611982
 30
0.0
 10
133.6524793502674
 20
-152.766213611982
 30
0.0
 10
133.7933837556142
 20
-152.6518364418718
 30
0.0
 10
133.7933837556142
 20
-152.6518364418718
 30
0.0
 10
133.8467827356355
 20
-152.6942111163403
 30
0.0
 10
133.8822672191336
 20
-152.7279730520958
 30
0.0
 10
133.9487575619989
 20
-152.8358045407841
 30
0.0
 10
134.019037509898
 20
-152.9522487681856
 30
0.0
 10
134.0376410255184
 20
-153.0049587291099
 30
0.0
 10
134.0600341461725
 20
-153.0707600528781
 30
0.0
 10
134.0600341461725
 20
-153.0707600528781
 30
0.0
 10
133.9005262252054
 20
-153.1954725094442
 30
0.0
 10
133.9005262252054
 20
-153.1954725094442
 30
0.0
  0
SPLINE
  5
A0
330
81
100
AcDbEntity
  8
レイヤー 1
100
AcDbSpline
210
0.0
220
0.0
230
1.0
 70
     9
 71
     3
 72
    77
 73
    73
 74
     0
 42
0.0000000001
 43
0.0000000001
 40
0.0
 40
0.0
 40
0.0
 40
0.0
 40
1.0
 40
1.0
 40
1.0
 40
2.0
 40
2.0
 40
2.0
 40
3.0
 40
3.0
 40
3.0
 40
4.0
 40
4.0
 40
4.0
 40
5.0
 40
5.0
 40
5.0
 40
6.0
 40
6.0
 40
6.0
 40
7.0
 40
7.0
 40
7.0
 40
8.0
 40
8.0
 40
8.0
 40
9.0
 40
9.0
 40
9.0
 40
10.0
 40
10.0
 40
10.0
 40
11.0
 40
11.0
 40
11.0
 40
12.0
 40
12.0
 40
12.0
 40
13.0
 40
13.0
 40
13.0
 40
14.0
 40
14.0
 40
14.0
 40
15.0
 40
15.0
 40
15.0
 40
16.0
 40
16.0
 40
16.0
 40
17.0
 40
17.0
 40
17.0
 40
18.0
 40
18.0
 40
18.0
 40
19.0
 40
19.0
 40
19.0
 40
20.0
 40
20.0
 40
20.0
 40
21.0
 40
21.0
 40
21.0
 40
22.0
 40
22.0
 40
22.0
 40
23.0
 40
23.0
 40
23.0
 40
24.0
 40
24.0
 40
24.0
 40
24.0
 10
134.5747314116688
 20
-152.4699354002506
 30
0.0
 10
134.5137532215799
 20
-152.4658012856683
 30
0.0
 10
134.4544975792336
 20
-152.4658012856683
 30
0.0
 10
134.3952419368873
 20
-152.4658012856683
 30
0.0
 10
134.3952419368873
 20
-152.4658012856683
 30
0.0
 10
134.3952419368873
 20
-153.2399142412039
 30
0.0
 10
134.3952419368873
 20
-153.2399142412039
 30
0.0
 10
134.3952419368873
 20
-153.5044975744711
 30
0.0
 10
134.3931748795961
 20
-153.5341253956442
 30
0.0
 10
134.3876627268197
 20
-153.5637532168174
 30
0.0
 10
134.3580349056466
 20
-153.696733902548
 30
0.0
 10
134.2691514421271
 20
-153.7053466412612
 30
0.0
 10
134.115500183485
 20
-153.7053466412612
 30
0.0
 10
134.0803602095355
 20
-153.7053466412612
 30
0.0
 10
134.0655462989489
 20
-153.7053466412612
 30
0.0
 10
134.0304063249993
 20
-153.7012125266788
 30
0.0
 10
134.0304063249993
 20
-153.7012125266788
 30
0.0
 10
133.9211967981169
 20
-153.4600558427113
 30
0.0
 10
133.9211967981169
 20
-153.4600558427113
 30
0.0
 10
134.0228271149318
 20
-153.4917507211757
 30
0.0
 10
134.095174120122
 20
-153.4917507211757
 30
0.0
 10
134.115500183485
 20
-153.4917507211757
 30
0.0
 10
134.1764783735739
 20
-153.4917507211757
 30
0.0
 10
134.2061061947471
 20
-153.4748697532979
 30
0.0
 10
134.2098957997808
 20
-153.4176811682428
 30
0.0
 10
134.2098957997808
 20
-153.4049343149474
 30
0.0
 10
134.2116183475235
 20
-153.3077826222633
 30
0.0
 10
134.2116183475235
 20
-153.2505940372082
 30
0.0
 10
134.2116183475235
 20
-153.2505940372082
 30
0.0
 10
134.2116183475235
 20
-152.4633897188286
 30
0.0
 10
134.2116183475235
 20
-152.4633897188286
 30
0.0
 10
134.2116183475235
 20
-152.4633897188286
 30
0.0
 10
133.9542697147753
 20
-152.4633897188286
 30
0.0
 10
133.9542697147753
 20
-152.4633897188286
 30
0.0
 10
133.8264566722725
 20
-152.4633897188286
 30
0.0
 10
133.6986436297697
 20
-152.4699354002506
 30
0.0
 10
133.5728976445581
 20
-152.482682253546
 30
0.0
 10
133.5728976445581
 20
-152.482682253546
 30
0.0
 10
133.5728976445581
 20
-152.2752875053339
 30
0.0
 10
133.5728976445581
 20
-152.2752875053339
 30
0.0
 10
133.7045002920947
 20
-152.2880343586294
 30
0.0
 10
133.895014072429
 20
-152.2921684732117
 30
0.0
 10
133.9542697147753
 20
-152.2921684732117
 30
0.0
 10
133.9542697147753
 20
-152.2921684732117
 30
0.0
 10
134.2116183475235
 20
-152.2921684732117
 30
0.0
 10
134.2116183475235
 20
-152.2921684732117
 30
0.0
 10
134.2098957997808
 20
-152.0234510253622
 30
0.0
 10
134.2098957997808
 20
-151.9473144151382
 30
0.0
 10
134.2023165897133
 20
-151.7991753092724
 30
0.0
 10
134.2023165897133
 20
-151.7991753092724
 30
0.0
 10
134.4283148535457
 20
-151.8374158691587
 30
0.0
 10
134.4283148535457
 20
-151.8374158691587
 30
0.0
 10
134.4414062163896
 20
-151.8394829264498
 30
0.0
 10
134.4544975792336
 20
-151.8456840983233
 30
0.0
 10
134.4544975792336
 20
-151.8670436903318
 30
0.0
 10
134.4544975792336
 20
-151.8859917155007
 30
0.0
 10
134.4486409169087
 20
-151.8880587727919
 30
0.0
 10
134.3986870323725
 20
-151.9218207085473
 30
0.0
 10
134.3952419368873
 20
-152.000368885611
 30
0.0
 10
134.3952419368873
 20
-152.0151827961976
 30
0.0
 10
134.3952419368873
 20
-152.2921684732117
 30
0.0
 10
134.550615743272
 20
-152.2880343586294
 30
0.0
 10
134.5671522016012
 20
-152.2880343586294
 30
0.0
 10
134.5967800227744
 20
-152.2835557344985
 30
0.0
 10
134.6412217545341
 20
-152.2794216199162
 30
0.0
 10
134.6450113595679
 20
-152.2773545626251
 30
0.0
 10
134.6839409385512
 20
-152.2752875053339
 30
0.0
 10
134.6839409385512
 20
-152.2752875053339
 30
0.0
 10
134.6839409385512
 20
-152.482682253546
 30
0.0
 10
134.6839409385512
 20
-152.482682253546
 30
0.0
 10
134.6581027224118
 20
-152.4806151962548
 30
0.0
 10
134.6098713856183
 20
-152.4720024575417
 30
0.0
 10
134.5747314116688
 20
-152.4699354002506
 30
0.0
  0
SPLINE
  5
A1
330
81
100
AcDbEntity
  8
レイヤー 1
100
AcDbSpline
210
0.0
220
0.0
230
1.0
 70
     9
 71
     3
 72
    53
 73
    49
 74
     0
 42
0.0000000001
 43
0.0000000001
 40
0.0
 40
0.0
 40
0.0
 40
0.0
 40
1.0
 40
1.0
 40
1.0
 40
2.0
 40
2.0
 40
2.0
 40
3.0
 40
3.0
 40
3.0
 40
4.0
 40
4.0
 40
4.0
 40
5.0
 40
5.0
 40
5.0
 40
6.0
 40
6.0
 40
6.0
 40
7.0
 40
7.0
 40
7.0
 40
8.0
 40
8.0
 40
8.0
 40
9.0
 40
9.0
 40
9.0
 40
10.0
 40
10.0
 40
10.0
 40
11.0
 40
11.0
 40
11.0
 40
12.0
 40
12.0
 40
12.0
 40
13.0
 40
13.0
 40
13.0
 40
14.0
 40
14.0
 40
14.0
 40
15.0
 40
15.0
 40
15.0
 40
16.0
 40
16.0
 40
16.0
 40
16.0
 10
133.5673854917817
 20
-151.9707410644379
 30
0.0
 10
133.5081298494354
 20
-152.1230142848859
 30
0.0
 10
133.4709228181947
 20
-152.2012179524011
 30
0.0
 10
133.4378499015363
 20
-152.268741823912
 30
0.0
 10
133.4747124232285
 20
-152.2901014159205
 30
0.0
 10
133.4785020282623
 20
-152.2921684732117
 30
0.0
 10
133.4785020282623
 20
-152.3069823837982
 30
0.0
 10
133.4785020282623
 20
-152.3197292370937
 30
0.0
 10
133.4488742070891
 20
-152.3534911728491
 30
0.0
 10
133.439572449279
 20
-152.3621039115622
 30
0.0
 10
133.4378499015363
 20
-152.55881886377
 30
0.0
 10
133.4378499015363
 20
-152.57983394623
 30
0.0
 10
133.4378499015363
 20
-152.7131591415092
 30
0.0
 10
133.4357828442452
 20
-152.7259059948046
 30
0.0
 10
133.4357828442452
 20
-152.7407199053912
 30
0.0
 10
133.4357828442452
 20
-152.7555338159778
 30
0.0
 10
133.4357828442452
 20
-152.7555338159778
 30
0.0
 10
133.4357828442452
 20
-153.2905571448371
 30
0.0
 10
133.4357828442452
 20
-153.2905571448371
 30
0.0
 10
133.4357828442452
 20
-153.3625596404788
 30
0.0
 10
133.439572449279
 20
-153.5975151525728
 30
0.0
 10
133.4471516593465
 20
-153.7074136985523
 30
0.0
 10
133.4471516593465
 20
-153.7074136985523
 30
0.0
 10
133.2339002488096
 20
-153.7074136985523
 30
0.0
 10
133.2339002488096
 20
-153.7074136985523
 30
0.0
 10
133.2542263121725
 20
-153.5489393062308
 30
0.0
 10
133.2600829744975
 20
-153.3077826222633
 30
0.0
 10
133.2600829744975
 20
-153.2864230302548
 30
0.0
 10
133.2600829744975
 20
-153.2864230302548
 30
0.0
 10
133.2600829744975
 20
-152.5691541502258
 30
0.0
 10
133.2600829744975
 20
-152.5691541502258
 30
0.0
 10
133.1805012687882
 20
-152.6835313203361
 30
0.0
 10
133.1267577792183
 20
-152.7427869626824
 30
0.0
 10
133.0895507479776
 20
-152.7851616371509
 30
0.0
 10
133.0895507479776
 20
-152.7851616371509
 30
0.0
 10
132.9228081264915
 20
-152.6477023272894
 30
0.0
 10
132.9228081264915
 20
-152.6477023272894
 30
0.0
 10
133.1691324536869
 20
-152.4316948403643
 30
0.0
 10
133.3375976229156
 20
-152.1230142848859
 30
0.0
 10
133.4357828442452
 20
-151.786428455977
 30
0.0
 10
133.4357828442452
 20
-151.786428455977
 30
0.0
 10
133.6283636818707
 20
-151.9008056260873
 30
0.0
 10
133.6283636818707
 20
-151.9008056260873
 30
0.0
 10
133.6393879874235
 20
-151.9070067979607
 30
0.0
 10
133.646967197491
 20
-151.9114854220916
 30
0.0
 10
133.646967197491
 20
-151.9262993326781
 30
0.0
 10
133.646967197491
 20
-151.9514485297204
 30
0.0
 10
133.6321532869044
 20
-151.9559271538513
 30
0.0
 10
133.5673854917817
 20
-151.9707410644379
 30
0.0
  0
HATCH
  5
A2
330
81
100
AcDbEntity
  8
レイヤー 1
 62
   250
420
  2299925
440
 33554687
100
AcDbHatch
 10
0.0
 20
0.0
 30
0.0
210
0.0
220
0.0
230
1.0
  2
SOLID
 70
     1
 71
     1
 91
        3
 92
        1
 93
        1
 72
     4
 94
        3
 73
     0
 74
     0
 95
       20
 96
       16
 40
0.0
 40
0.0
 40
0.0
 40
0.0
 40
1.0
 40
1.0
 40
1.0
 40
2.0
 40
2.0
 40
2.0
 40
3.0
 40
3.0
 40
3.0
 40
4.0
 40
4.0
 40
4.0
 40
5.0
 40
5.0
 40
5.0
 40
5.0
 10
133.9005262252054
 20
-153.1954725094442
 10
133.8598740984795
 20
-153.0177055824053
 10
133.7747802399938
 20
-152.8761121579615
 10
133.6524793502674
 20
-152.766213611982
 10
133.6524793502674
 20
-152.766213611982
 10
133.7933837556142
 20
-152.6518364418718
 10
133.7933837556142
 20
-152.6518364418718
 10
133.8467827356355
 20
-152.6942111163403
 10
133.8822672191336
 20
-152.7279730520958
 10
133.9487575619989
 20
-152.8358045407841
 10
134.019037509898
 20
-152.9522487681856
 10
134.0376410255184
 20
-153.0049587291099
 10
134.0600341461725
 20
-153.0707600528781
 10
134.0600341461725
 20
-153.0707600528781
 10
133.9005262252054
 20
-153.1954725094442
 10
133.9005262252054
 20
-153.1954725094442
 97
        0
 97
        1
330
9F
 92
        1
 93
        1
 72
     4
 94
        3
 73
     0
 74
     0
 95
       77
 96
       73
 40
0.0
 40
0.0
 40
0.0
 40
0.0
 40
1.0
 40
1.0
 40
1.0
 40
2.0
 40
2.0
 40
2.0
 40
3.0
 40
3.0
 40
3.0
 40
4.0
 40
4.0
 40
4.0
 40
5.0
 40
5.0
 40
5.0
 40
6.0
 40
6.0
 40
6.0
 40
7.0
 40
7.0
 40
7.0
 40
8.0
 40
8.0
 40
8.0
 40
9.0
 40
9.0
 40
9.0
 40
10.0
 40
10.0
 40
10.0
 40
11.0
 40
11.0
 40
11.0
 40
12.0
 40
12.0
 40
12.0
 40
13.0
 40
13.0
 40
13.0
 40
14.0
 40
14.0
 40
14.0
 40
15.0
 40
15.0
 40
15.0
 40
16.0
 40
16.0
 40
16.0
 40
17.0
 40
17.0
 40
17.0
 40
18.0
 40
18.0
 40
18.0
 40
19.0
 40
19.0
 40
19.0
 40
20.0
 40
20.0
 40
20.0
 40
21.0
 40
21.0
 40
21.0
 40
22.0
 40
22.0
 40
22.0
 40
23.0
 40
23.0
 40
23.0
 40
24.0
 40
24.0
 40
24.0
 40
24.0
 10
134.5747314116688
 20
-152.4699354002506
 10
134.5137532215799
 20
-152.4658012856683
 10
134.4544975792336
 20
-152.4658012856683
 10
134.3952419368873
 20
-152.4658012856683
 10
134.3952419368873
 20
-152.4658012856683
 10
134.3952419368873
 20
-153.2399142412039
 10
134.3952419368873
 20
-153.2399142412039
 10
134.3952419368873
 20
-153.5044975744711
 10
134.3931748795961
 20
-153.5341253956442
 10
134.3876627268197
 20
-153.5637532168174
 10
134.3580349056466
 20
-153.696733902548
 10
134.2691514421271
 20
-153.7053466412612
 10
134.115500183485
 20
-153.7053466412612
 10
134.0803602095355
 20
-153.7053466412612
 10
134.0655462989489
 20
-153.7053466412612
 10
134.0304063249993
 20
-153.7012125266788
 10
134.0304063249993
 20
-153.7012125266788
 10
133.9211967981169
 20
-153.4600558427113
 10
133.9211967981169
 20
-153.4600558427113
 10
134.0228271149318
 20
-153.4917507211757
 10
134.095174120122
 20
-153.4917507211757
 10
134.115500183485
 20
-153.4917507211757
 10
134.1764783735739
 20
-153.4917507211757
 10
134.2061061947471
 20
-153.4748697532979
 10
134.2098957997808
 20
-153.4176811682428
 10
134.2098957997808
 20
-153.4049343149474
 10
134.2116183475235
 20
-153.3077826222633
 10
134.2116183475235
 20
-153.2505940372082
 10
134.2116183475235
 20
-153.2505940372082
 10
134.2116183475235
 20
-152.4633897188286
 10
134.2116183475235
 20
-152.4633897188286
 10
134.2116183475235
 20
-152.4633897188286
 10
133.9542697147753
 20
-152.4633897188286
 10
133.9542697147753
 20
-152.4633897188286
 10
133.8264566722725
 20
-152.4633897188286
 10
133.6986436297697
 20
-152.4699354002506
 10
133.5728976445581
 20
-152.482682253546
 10
133.5728976445581
 20
-152.482682253546
 10
133.5728976445581
 20
-152.2752875053339
 10
133.5728976445581
 20
-152.2752875053339
 10
133.7045002920947
 20
-152.2880343586294
 10
133.895014072429
 20
-152.2921684732117
 10
133.9542697147753
 20
-152.2921684732117
 10
133.9542697147753
 20
-152.2921684732117
 10
134.2116183475235
 20
-152.2921684732117
 10
134.2116183475235
 20
-152.2921684732117
 10
134.2098957997808
 20
-152.0234510253622
 10
134.2098957997808
 20
-151.9473144151382
 10
134.2023165897133
 20
-151.7991753092724
 10
134.2023165897133
 20
-151.7991753092724
 10
134.4283148535457
 20
-151.8374158691587
 10
134.4283148535457
 20
-151.8374158691587
 10
134.4414062163896
 20
-151.8394829264498
 10
134.4544975792336
 20
-151.8456840983233
 10
134.4544975792336
 20
-151.8670436903318
 10
134.4544975792336
 20
-151.8859917155007
 10
134.4486409169087
 20
-151.8880587727919
 10
134.3986870323725
 20
-151.9218207085473
 10
134.3952419368873
 20
-152.000368885611
 10
134.3952419368873
 20
-152.0151827961976
 10
134.3952419368873
 20
-152.2921684732117
 10
134.550615743272
 20
-152.2880343586294
 10
134.5671522016012
 20
-152.2880343586294
 10
134.5967800227744
 20
-152.2835557344985
 10
134.6412217545341
 20
-152.2794216199162
 10
134.6450113595679
 20
-152.2773545626251
 10
134.6839409385512
 20
-152.2752875053339
 10
134.6839409385512
 20
-152.2752875053339
 10
134.6839409385512
 20
-152.482682253546
 10
134.6839409385512
 20
-152.482682253546
 10
134.6581027224118
 20
-152.4806151962548
 10
134.6098713856183
 20
-152.4720024575417
 10
134.5747314116688
 20
-152.4699354002506
 97
        0
 97
        1
330
A0
 92
        1
 93
        1
 72
     4
 94
        3
 73
     0
 74
     0
 95
       53
 96
       49
 40
0.0
 40
0.0
 40
0.0
 40
0.0
 40
1.0
 40
1.0
 40
1.0
 40
2.0
 40
2.0
 40
2.0
 40
3.0
 40
3.0
 40
3.0
 40
4.0
 40
4.0
 40
4.0
 40
5.0
 40
5.0
 40
5.0
 40
6.0
 40
6.0
 40
6.0
 40
7.0
 40
7.0
 40
7.0
 40
8.0
 40
8.0
 40
8.0
 40
9.0
 40
9.0
 40
9.0
 40
10.0
 40
10.0
 40
10.0
 40
11.0
 40
11.0
 40
11.0
 40
12.0
 40
12.0
 40
12.0
 40
13.0
 40
13.0
 40
13.0
 40
14.0
 40
14.0
 40
14.0
 40
15.0
 40
15.0
 40
15.0
 40
16.0
 40
16.0
 40
16.0
 40
16.0
 10
133.5673854917817
 20
-151.9707410644379
 10
133.5081298494354
 20
-152.1230142848859
 10
133.4709228181947
 20
-152.2012179524011
 10
133.4378499015363
 20
-152.268741823912
 10
133.4747124232285
 20
-152.2901014159205
 10
133.4785020282623
 20
-152.2921684732117
 10
133.4785020282623
 20
-152.3069823837982
 10
133.4785020282623
 20
-152.3197292370937
 10
133.4488742070891
 20
-152.3534911728491
 10
133.439572449279
 20
-152.3621039115622
 10
133.4378499015363
 20
-152.55881886377
 10
133.4378499015363
 20
-152.57983394623
 10
133.4378499015363
 20
-152.7131591415092
 10
133.4357828442452
 20
-152.7259059948046
 10
133.4357828442452
 20
-152.7407199053912
 10
133.4357828442452
 20
-152.7555338159778
 10
133.4357828442452
 20
-152.7555338159778
 10
133.4357828442452
 20
-153.2905571448371
 10
133.4357828442452
 20
-153.2905571448371
 10
133.4357828442452
 20
-153.3625596404788
 10
133.439572449279
 20
-153.5975151525728
 10
133.4471516593465
 20
-153.7074136985523
 10
133.4471516593465
 20
-153.7074136985523
 10
133.2339002488096
 20
-153.7074136985523
 10
133.2339002488096
 20
-153.7074136985523
 10
133.2542263121725
 20
-153.5489393062308
 10
133.2600829744975
 20
-153.3077826222633
 10
133.2600829744975
 20
-153.2864230302548
 10
133.2600829744975
 20
-153.2864230302548
 10
133.2600829744975
 20
-152.5691541502258
 10
133.2600829744975
 20
-152.5691541502258
 10
133.1805012687882
 20
-152.6835313203361
 10
133.1267577792183
 20
-152.7427869626824
 10
133.0895507479776
 20
-152.7851616371509
 10
133.0895507479776
 20
-152.7851616371509
 10
132.9228081264915
 20
-152.6477023272894
 10
132.9228081264915
 20
-152.6477023272894
 10
133.1691324536869
 20
-152.4316948403643
 10
133.3375976229156
 20
-152.1230142848859
 10
133.4357828442452
 20
-151.786428455977
 10
133.4357828442452
 20
-151.786428455977
 10
133.6283636818707
 20
-151.9008056260873
 10
133.6283636818707
 20
-151.9008056260873
 10
133.6393879874235
 20
-151.9070067979607
 10
133.646967197491
 20
-151.9114854220916
 10
133.646967197491
 20
-151.9262993326781
 10
133.646967197491
 20
-151.9514485297204
 10
133.6321532869044
 20
-151.9559271538513
 10
133.5673854917817
 20
-151.9707410644379
 97
        0
 97
        1
330
A1
 75
     2
 76
     1
 98
        1
 10
0.0
 20
0.0
450
        0
451
        0
460
0.0
461
0.0
452
        0
462
0.0
453
        0
470

  0
ENDBLK
  5
84
330
81
100
AcDbEntity
  8
0
100
AcDbBlockEnd
  0
BLOCK
  5
A8
330
A6
100
AcDbEntity
  8
0
100
AcDbBlockBegin
  2
Block_3
 70
     0
 10
0.0
 20
0.0
 30
0.0
  3
Block_3
  1

  0
LINE
  5
AA
330
A6
100
AcDbEntity
  8
レイヤー 1
 62
   250
420
  2299925
370
    25
100
AcDbLine
 10
111.7432540932405
 20
-152.657573489518
 30
0.0
 11
99.74330662160658
 21
-152.657573489518
 31
0.0
  0
LINE
  5
AB
330
A6
100
AcDbEntity
  8
レイヤー 1
 62
   250
420
  2299925
370
    25
100
AcDbLine
 10
79.74264157631082
 20
-147.1574857131149
 30
0.0
 11
79.74264157631082
 21
-147.6576893241008
 31
0.0
  0
LINE
  5
AC
330
A6
100
AcDbEntity
  8
レイヤー 1
 62
   250
420
  2299925
370
    25
100
AcDbLine
 10
99.74330662160658
 20
-147.6576893241008
 30
0.0
 11
79.74264157631082
 21
-147.6576893241008
 31
0.0
  0
LINE
  5
AD
330
A6
100
AcDbEntity
  8
レイヤー 1
 62
   250
420
  2299925
370
    25
100
AcDbLine
 10
79.74264157631082
 20
-147.1574857131149
 30
0.0
 11
80.25663878541957
 21
-147.5395440463526
 31
0.0
  0
LINE
  5
AE
330
A6
100
AcDbEntity
  8
レイヤー 1
 62
   250
420
  2299925
370
    25
100
AcDbLine
 10
80.25663878541957
 20
-147.5395440463526
 30
0.0
 11
80.74170821748884
 21
-147.1219962686791
 31
0.0
  0
LINE
  5
AF
330
A6
100
AcDbEntity
  8
レイヤー 1
 62
   250
420
  2299925
370
    25
100
AcDbLine
 10
81.25570542659792
 20
-147.5040546019172
 30
0.0
 11
81.74148041420476
 21
-147.0861540464659
 31
0.0
  0
LINE
  5
B0
330
A6
100
AcDbEntity
  8
レイヤー 1
 62
   250
420
  2299925
370
    25
100
AcDbLine
 10
80.74170821748884
 20
-147.1219962686791
 30
0.0
 11
81.25570542659792
 21
-147.5040546019172
 31
0.0
  0
LINE
  5
B1
330
A6
100
AcDbEntity
  8
レイヤー 1
 62
   250
420
  2299925
370
    25
100
AcDbLine
 10
81.74148041420476
 20
-147.0861540464659
 30
0.0
 11
82.25547762331382
 21
-147.4682123797039
 31
0.0
  0
LINE
  5
B2
330
A6
100
AcDbEntity
  8
レイヤー 1
 62
   250
420
  2299925
370
    25
100
AcDbLine
 10
82.25547762331382
 20
-147.4682123797039
 30
0.0
 11
82.74054705538343
 21
-147.0506646020304
 31
0.0
  0
LINE
  5
B3
330
A6
100
AcDbEntity
  8
レイヤー 1
 62
   250
420
  2299925
370
    25
100
AcDbLine
 10
82.74054705538343
 20
-147.0506646020304
 30
0.0
 11
83.25454426449217
 21
-147.4324054352688
 31
0.0
  0
LINE
  5
B4
330
A6
100
AcDbEntity
  8
レイヤー 1
 62
   250
420
  2299925
370
    25
100
AcDbLine
 10
83.25454426449217
 20
-147.4324054352688
 30
0.0
 11
83.73961369656147
 21
-147.014857657595
 31
0.0
  0
LINE
  5
B5
330
A6
100
AcDbEntity
  8
レイヤー 1
 62
   250
420
  2299925
370
    25
100
AcDbLine
 10
83.73961369656147
 20
-147.014857657595
 30
0.0
 11
84.25364618344742
 21
-147.3965632130552
 31
0.0
  0
LINE
  5
B6
330
A6
100
AcDbEntity
  8
レイヤー 1
 62
   250
420
  2299925
370
    25
100
AcDbLine
 10
84.25364618344742
 20
-147.3965632130552
 30
0.0
 11
84.73938589327737
 21
-146.9790154353817
 31
0.0
  0
LINE
  5
B7
330
A6
100
AcDbEntity
  8
レイヤー 1
 62
   250
420
  2299925
370
    25
100
AcDbLine
 10
84.73938589327737
 20
-146.9790154353817
 30
0.0
 11
85.25338310238643
 21
-147.3610737686194
 31
0.0
  0
LINE
  5
B8
330
A6
100
AcDbEntity
  8
レイヤー 1
 62
   250
420
  2299925
370
    25
100
AcDbLine
 10
85.25338310238643
 20
-147.3610737686194
 30
0.0
 11
85.7384525344554
 21
-146.9435259909466
 31
0.0
  0
LINE
  5
B9
330
A6
100
AcDbEntity
  8
レイヤー 1
 62
   250
420
  2299925
370
    25
100
AcDbLine
 10
85.7384525344554
 20
-146.9435259909466
 30
0.0
 11
86.25248502134168
 21
-147.325584324184
 31
0.0
  0
LINE
  5
BA
330
A6
100
AcDbEntity
  8
レイヤー 1
 62
   250
420
  2299925
370
    25
100
AcDbLine
 10
86.25248502134168
 20
-147.325584324184
 30
0.0
 11
86.73822473117164
 21
-146.9077190465105
 31
0.0
  0
LINE
  5
BB
330
A6
100
AcDbEntity
  8
レイヤー 1
 62
   250
420
  2299925
370
    25
100
AcDbLine
 10
87.25225721805758
 20
-147.2897773797485
 30
0.0
 11
87.73732665012687
 21
-146.872229602075
 31
0.0
  0
LINE
  5
BC
330
A6
100
AcDbEntity
  8
レイヤー 1
 62
   250
420
  2299925
370
    25
100
AcDbLine
 10
86.73822473117164
 20
-146.9077190465105
 30
0.0
 11
87.25225721805758
 21
-147.2897773797485
 31
0.0
  0
LINE
  5
BD
330
A6
100
AcDbEntity
  8
レイヤー 1
 62
   250
420
  2299925
370
    25
100
AcDbLine
 10
87.73732665012687
 20
-146.872229602075
 30
0.0
 11
88.25132385923593
 21
-147.2539351575353
 31
0.0
  0
LINE
  5
BE
330
A6
100
AcDbEntity
  8
レイヤー 1
 62
   250
420
  2299925
370
    25
100
AcDbLine
 10
88.25132385923593
 20
-147.2539351575353
 30
0.0
 11
88.73706356906589
 21
-146.8363873798618
 31
0.0
  0
LINE
  5
BF
330
A6
100
AcDbEntity
  8
レイヤー 1
 62
   250
420
  2299925
370
    25
100
AcDbLine
 10
89.25039050041396
 20
-147.218092935322
 30
0.0
 11
89.73616548802146
 21
-146.8005804354264
 31
0.0
  0
LINE
  5
C0
330
A6
100
AcDbEntity
  8
レイヤー 1
 62
   250
420
  2299925
370
    25
100
AcDbLine
 10
88.73706356906589
 20
-146.8363873798618
 30
0.0
 11
89.25039050041396
 21
-147.218092935322
 31
0.0
  0
LINE
  5
C1
330
A6
100
AcDbEntity
  8
レイヤー 1
 62
   250
420
  2299925
370
    25
100
AcDbLine
 10
90.25016269713018
 20
-147.1826387686641
 30
0.0
 11
90.73505574031509
 21
-146.7650909909909
 31
0.0
  0
LINE
  5
C2
330
A6
100
AcDbEntity
  8
レイヤー 1
 62
   250
420
  2299925
370
    25
100
AcDbLine
 10
89.73616548802146
 20
-146.8005804354264
 30
0.0
 11
90.25016269713018
 21
-147.1826387686641
 31
0.0
  0
LINE
  5
C3
330
A6
100
AcDbEntity
  8
レイヤー 1
 62
   250
420
  2299925
370
    25
100
AcDbLine
 10
90.73505574031509
 20
-146.7650909909909
 30
0.0
 11
91.24908822720104
 21
-147.1471493242286
 31
0.0
  0
LINE
  5
C4
330
A6
100
AcDbEntity
  8
レイヤー 1
 62
   250
420
  2299925
370
    25
100
AcDbLine
 10
91.24908822720104
 20
-147.1471493242286
 30
0.0
 11
91.73482793703099
 21
-146.7292487687776
 31
0.0
  0
LINE
  5
C5
330
A6
100
AcDbEntity
  8
レイヤー 1
 62
   250
420
  2299925
370
    25
100
AcDbLine
 10
91.73482793703099
 20
-146.7292487687776
 30
0.0
 11
92.24882514614007
 21
-147.1113071020153
 31
0.0
  0
LINE
  5
C6
330
A6
100
AcDbEntity
  8
レイヤー 1
 62
   250
420
  2299925
370
    25
100
AcDbLine
 10
92.24882514614007
 20
-147.1113071020153
 30
0.0
 11
92.73389457820936
 21
-146.6937593243418
 31
0.0
  0
LINE
  5
C7
330
A6
100
AcDbEntity
  8
レイヤー 1
 62
   250
420
  2299925
370
    25
100
AcDbLine
 10
92.73389457820936
 20
-146.6937593243418
 30
0.0
 11
93.2479270650953
 21
-147.0755001575796
 31
0.0
  0
LINE
  5
C8
330
A6
100
AcDbEntity
  8
レイヤー 1
 62
   250
420
  2299925
370
    25
100
AcDbLine
 10
93.2479270650953
 20
-147.0755001575796
 30
0.0
 11
93.73366677492526
 21
-146.6579523799065
 31
0.0
  0
LINE
  5
C9
330
A6
100
AcDbEntity
  8
レイヤー 1
 62
   250
420
  2299925
370
    25
100
AcDbLine
 10
93.73366677492526
 20
-146.6579523799065
 30
0.0
 11
94.2476992618112
 21
-147.0396579353661
 31
0.0
  0
LINE
  5
CA
330
A6
100
AcDbEntity
  8
レイヤー 1
 62
   250
420
  2299925
370
    25
100
AcDbLine
 10
94.2476992618112
 20
-147.0396579353661
 30
0.0
 11
94.73276869388049
 21
-146.6221101576932
 31
0.0
  0
LINE
  5
CB
330
A6
100
AcDbEntity
  8
レイヤー 1
 62
   250
420
  2299925
370
    25
100
AcDbLine
 10
94.73276869388049
 20
-146.6221101576932
 30
0.0
 11
95.24676590298957
 21
-147.0041684909309
 31
0.0
  0
LINE
  5
CC
330
A6
100
AcDbEntity
  8
レイヤー 1
 62
   250
420
  2299925
370
    25
100
AcDbLine
 10
95.24676590298957
 20
-147.0041684909309
 30
0.0
 11
95.73183533505916
 21
-146.5866207132574
 31
0.0
  0
LINE
  5
CD
330
A6
100
AcDbEntity
  8
レイヤー 1
 62
   250
420
  2299925
370
    25
100
AcDbLine
 10
95.73183533505916
 20
-146.5866207132574
 30
0.0
 11
96.24583254416791
 21
-146.9686790464954
 31
0.0
  0
LINE
  5
CE
330
A6
100
AcDbEntity
  8
レイヤー 1
 62
   250
420
  2299925
370
    25
100
AcDbLine
 10
96.24583254416791
 20
-146.9686790464954
 30
0.0
 11
96.73160753177477
 21
-146.5507784910438
 31
0.0
  0
LINE
  5
CF
330
A6
100
AcDbEntity
  8
レイヤー 1
 62
   250
420
  2299925
370
    25
100
AcDbLine
 10
96.73160753177477
 20
-146.5507784910438
 30
0.0
 11
97.24560474088383
 21
-146.93287210206
 31
0.0
  0
LINE
  5
D0
330
A6
100
AcDbEntity
  8
レイヤー 1
 62
   250
420
  2299925
370
    25
100
AcDbLine
 10
97.24560474088383
 20
-146.93287210206
 30
0.0
 11
97.73067417295312
 21
-146.5153243243865
 31
0.0
  0
LINE
  5
D1
330
A6
100
AcDbEntity
  8
レイヤー 1
 62
   250
420
  2299925
370
    25
100
AcDbLine
 10
97.73067417295312
 20
-146.5153243243865
 30
0.0
 11
98.24467138206186
 21
-146.8970298798467
 31
0.0
  0
LINE
  5
D2
330
A6
100
AcDbEntity
  8
レイヤー 1
 62
   250
420
  2299925
370
    25
100
AcDbLine
 10
98.24467138206186
 20
-146.8970298798467
 30
0.0
 11
98.72974081413147
 21
-146.4794821021732
 31
0.0
  0
LINE
  5
D3
330
A6
100
AcDbEntity
  8
レイヤー 1
 62
   250
420
  2299925
370
    25
100
AcDbLine
 10
98.72974081413147
 20
-146.4794821021732
 30
0.0
 11
99.24377330101741
 21
-146.8611876576335
 31
0.0
  0
LINE
  5
D4
330
A6
100
AcDbEntity
  8
レイヤー 1
 62
   250
420
  2299925
370
    25
100
AcDbLine
 10
99.24377330101741
 20
-146.8611876576335
 30
0.0
 11
99.72951301084737
 21
-146.44363987996
 31
0.0
  0
LINE
  5
D5
330
A6
100
AcDbEntity
  8
レイヤー 1
 62
   250
420
  2299925
370
    25
100
AcDbLine
 10
99.80351022006537
 20
-146.3954151577498
 30
0.0
 11
100.7437490960835
 21
-146.3954151577498
 31
0.0
  0
LINE
  5
D6
330
A6
100
AcDbEntity
  8
レイヤー 1
 62
   250
420
  2299925
370
    25
100
AcDbLine
 10
100.7437490960835
 20
-146.3954151577498
 30
0.0
 11
100.7437490960835
 21
-151.6574484897677
 31
0.0
  0
LINE
  5
D7
330
A6
100
AcDbEntity
  8
レイヤー 1
 62
   250
420
  2299925
370
    25
100
AcDbLine
 10
99.74330662160658
 20
-147.6576893241008
 30
0.0
 11
99.74330662160658
 21
-152.657573489518
 31
0.0
  0
LINE
  5
D8
330
A6
100
AcDbEntity
  8
レイヤー 1
 62
   250
420
  2299925
370
    25
100
AcDbLine
 10
110.7434818965246
 20
-151.6574484897677
 30
0.0
 11
100.7437490960835
 21
-151.6574484897677
 31
0.0
  0
LINE
  5
D9
330
A6
100
AcDbEntity
  8
レイヤー 1
 62
   250
420
  2299925
370
    25
100
AcDbLine
 10
121.751241893471
 20
-146.8005804354264
 30
0.0
 11
121.2372446843619
 21
-147.1826387686641
 31
0.0
  0
LINE
  5
DA
330
A6
100
AcDbEntity
  8
レイヤー 1
 62
   250
420
  2299925
370
    25
100
AcDbLine
 10
126.7480214882148
 20
-146.9790154353817
 30
0.0
 11
126.2340242791057
 21
-147.3610737686194
 31
0.0
  0
LINE
  5
DB
330
A6
100
AcDbEntity
  8
レイヤー 1
 62
   250
420
  2299925
370
    25
100
AcDbLine
 10
122.2363113255403
 20
-147.218092935322
 30
0.0
 11
121.751241893471
 21
-146.8005804354264
 31
0.0
  0
LINE
  5
DC
330
A6
100
AcDbEntity
  8
レイヤー 1
 62
   250
420
  2299925
370
    25
100
AcDbLine
 10
123.2360835222562
 20
-147.2539351575353
 30
0.0
 11
122.7503438124262
 21
-146.8363873798618
 31
0.0
  0
LINE
  5
DD
330
A6
100
AcDbEntity
  8
レイヤー 1
 62
   250
420
  2299925
370
    25
100
AcDbLine
 10
121.2372446843619
 20
-147.1826387686641
 30
0.0
 11
120.751504974532
 21
-146.7650909909909
 31
0.0
  0
LINE
  5
DE
330
A6
100
AcDbEntity
  8
レイヤー 1
 62
   250
420
  2299925
370
    25
100
AcDbLine
 10
122.7503438124262
 20
-146.8363873798618
 30
0.0
 11
122.2363113255403
 21
-147.218092935322
 31
0.0
  0
LINE
  5
DF
330
A6
100
AcDbEntity
  8
レイヤー 1
 62
   250
420
  2299925
370
    25
100
AcDbLine
 10
130.7456991640033
 20
-147.1219962686791
 30
0.0
 11
130.2317019548942
 21
-147.5040546019172
 31
0.0
  0
LINE
  5
E0
330
A6
100
AcDbEntity
  8
レイヤー 1
 62
   250
420
  2299925
370
    25
100
AcDbLine
 10
123.7501160091422
 20
-146.872229602075
 30
0.0
 11
123.2360835222562
 21
-147.2539351575353
 31
0.0
  0
LINE
  5
E1
330
A6
100
AcDbEntity
  8
レイヤー 1
 62
   250
420
  2299925
370
    25
100
AcDbLine
 10
124.7491826503205
 20
-146.9077190465105
 30
0.0
 11
124.2351854412114
 21
-147.2897773797485
 31
0.0
  0
LINE
  5
E2
330
A6
100
AcDbEntity
  8
レイヤー 1
 62
   250
420
  2299925
370
    25
100
AcDbLine
 10
110.7434818965246
 20
-146.3954151577498
 30
0.0
 11
110.7434818965246
 21
-151.6574484897677
 31
0.0
  0
LINE
  5
E3
330
A6
100
AcDbEntity
  8
レイヤー 1
 62
   250
420
  2299925
370
    25
100
AcDbLine
 10
124.2351854412114
 20
-147.2897773797485
 30
0.0
 11
123.7501160091422
 21
-146.872229602075
 31
0.0
  0
LINE
  5
E4
330
A6
100
AcDbEntity
  8
レイヤー 1
 62
   250
420
  2299925
370
    25
100
AcDbLine
 10
125.2349223601505
 20
-147.325584324184
 30
0.0
 11
124.7491826503205
 21
-146.9077190465105
 31
0.0
  0
LINE
  5
E5
330
A6
100
AcDbEntity
  8
レイヤー 1
 62
   250
420
  2299925
370
    25
100
AcDbLine
 10
130.2317019548942
 20
-147.5040546019172
 30
0.0
 11
129.7459622450642
 21
-147.0861540464659
 31
0.0
  0
LINE
  5
E6
330
A6
100
AcDbEntity
  8
レイヤー 1
 62
   250
420
  2299925
370
    25
100
AcDbLine
 10
125.7482492914989
 20
-146.9435259909466
 30
0.0
 11
125.2349223601505
 21
-147.325584324184
 31
0.0
  0
LINE
  5
E7
330
A6
100
AcDbEntity
  8
レイヤー 1
 62
   250
420
  2299925
370
    25
100
AcDbLine
 10
126.2340242791057
 20
-147.3610737686194
 30
0.0
 11
125.7482492914989
 21
-146.9435259909466
 31
0.0
  0
LINE
  5
E8
330
A6
100
AcDbEntity
  8
レイヤー 1
 62
   250
420
  2299925
370
    25
100
AcDbLine
 10
131.2307685960726
 20
-147.5395440463526
 30
0.0
 11
130.7456991640033
 21
-147.1219962686791
 31
0.0
  0
LINE
  5
E9
330
A6
100
AcDbEntity
  8
レイヤー 1
 62
   250
420
  2299925
370
    25
100
AcDbLine
 10
127.7470881293931
 20
-147.014857657595
 30
0.0
 11
127.2330909202841
 21
-147.3965632130552
 31
0.0
  0
LINE
  5
EA
330
A6
100
AcDbEntity
  8
レイヤー 1
 62
   250
420
  2299925
370
    25
100
AcDbLine
 10
128.746860326109
 20
-147.0506646020304
 30
0.0
 11
128.232863117
 21
-147.4324054352688
 31
0.0
  0
LINE
  5
EB
330
A6
100
AcDbEntity
  8
レイヤー 1
 62
   250
420
  2299925
370
    25
100
AcDbLine
 10
128.232863117
 20
-147.4324054352688
 30
0.0
 11
127.7470881293931
 21
-147.014857657595
 31
0.0
  0
LINE
  5
EC
330
A6
100
AcDbEntity
  8
レイヤー 1
 62
   250
420
  2299925
370
    25
100
AcDbLine
 10
131.7448010829585
 20
-147.1574857131149
 30
0.0
 11
131.2307685960726
 21
-147.5395440463526
 31
0.0
  0
LINE
  5
ED
330
A6
100
AcDbEntity
  8
レイヤー 1
 62
   250
420
  2299925
370
    25
100
AcDbLine
 10
127.2330909202841
 20
-147.3965632130552
 30
0.0
 11
126.7480214882148
 21
-146.9790154353817
 31
0.0
  0
LINE
  5
EE
330
A6
100
AcDbEntity
  8
レイヤー 1
 62
   250
420
  2299925
370
    25
100
AcDbLine
 10
129.7459622450642
 20
-147.0861540464659
 30
0.0
 11
129.2319297581783
 21
-147.4682123797039
 31
0.0
  0
LINE
  5
EF
330
A6
100
AcDbEntity
  8
レイヤー 1
 62
   250
420
  2299925
370
    25
100
AcDbLine
 10
129.2319297581783
 20
-147.4682123797039
 30
0.0
 11
128.746860326109
 21
-147.0506646020304
 31
0.0
  0
LINE
  5
F0
330
A6
100
AcDbEntity
  8
レイヤー 1
 62
   250
420
  2299925
370
    25
100
AcDbLine
 10
131.7448010829585
 20
-147.1574857131149
 30
0.0
 11
131.7448010829585
 21
-147.6576893241008
 31
0.0
  0
LINE
  5
F1
330
A6
100
AcDbEntity
  8
レイヤー 1
 62
   250
420
  2299925
370
    25
100
AcDbLine
 10
111.7432540932405
 20
-147.6576893241008
 30
0.0
 11
131.7448010829585
 21
-147.6576893241008
 31
0.0
  0
LINE
  5
F2
330
A6
100
AcDbEntity
  8
レイヤー 1
 62
   250
420
  2299925
370
    25
100
AcDbLine
 10
120.751504974532
 20
-146.7650909909909
 30
0.0
 11
120.237472487646
 21
-147.1471493242286
 31
0.0
  0
LINE
  5
F3
330
A6
100
AcDbEntity
  8
レイヤー 1
 62
   250
420
  2299925
370
    25
100
AcDbLine
 10
120.237472487646
 20
-147.1471493242286
 30
0.0
 11
119.7524030555767
 21
-146.7292487687776
 31
0.0
  0
LINE
  5
F4
330
A6
100
AcDbEntity
  8
レイヤー 1
 62
   250
420
  2299925
370
    25
100
AcDbLine
 10
119.7524030555767
 20
-146.7292487687776
 30
0.0
 11
119.2384058464677
 21
-147.1113071020153
 31
0.0
  0
LINE
  5
F5
330
A6
100
AcDbEntity
  8
レイヤー 1
 62
   250
420
  2299925
370
    25
100
AcDbLine
 10
119.2384058464677
 20
-147.1113071020153
 30
0.0
 11
118.7533364143984
 21
-146.6937593243418
 31
0.0
  0
LINE
  5
F6
330
A6
100
AcDbEntity
  8
レイヤー 1
 62
   250
420
  2299925
370
    25
100
AcDbLine
 10
118.7533364143984
 20
-146.6937593243418
 30
0.0
 11
118.2393392052893
 21
-147.0755001575796
 31
0.0
  0
LINE
  5
F7
330
A6
100
AcDbEntity
  8
レイヤー 1
 62
   250
420
  2299925
370
    25
100
AcDbLine
 10
118.2393392052893
 20
-147.0755001575796
 30
0.0
 11
117.7535642176825
 21
-146.6579523799065
 31
0.0
  0
LINE
  5
F8
330
A6
100
AcDbEntity
  8
レイヤー 1
 62
   250
420
  2299925
370
    25
100
AcDbLine
 10
117.7535642176825
 20
-146.6579523799065
 30
0.0
 11
117.2395670085734
 21
-147.0396579353661
 31
0.0
  0
LINE
  5
F9
330
A6
100
AcDbEntity
  8
レイヤー 1
 62
   250
420
  2299925
370
    25
100
AcDbLine
 10
117.2395670085734
 20
-147.0396579353661
 30
0.0
 11
116.7544975765041
 21
-146.6221101576932
 31
0.0
  0
LINE
  5
FA
330
A6
100
AcDbEntity
  8
レイヤー 1
 62
   250
420
  2299925
370
    25
100
AcDbLine
 10
116.7544975765041
 20
-146.6221101576932
 30
0.0
 11
116.2404650896182
 21
-147.0041684909309
 31
0.0
  0
LINE
  5
FB
330
A6
100
AcDbEntity
  8
レイヤー 1
 62
   250
420
  2299925
370
    25
100
AcDbLine
 10
116.2404650896182
 20
-147.0041684909309
 30
0.0
 11
115.7547253797882
 21
-146.5866207132574
 31
0.0
  0
LINE
  5
FC
330
A6
100
AcDbEntity
  8
レイヤー 1
 62
   250
420
  2299925
370
    25
100
AcDbLine
 10
115.7547253797882
 20
-146.5866207132574
 30
0.0
 11
115.2407281706792
 21
-146.9686790464954
 31
0.0
  0
LINE
  5
FD
330
A6
100
AcDbEntity
  8
レイヤー 1
 62
   250
420
  2299925
370
    25
100
AcDbLine
 10
115.2407281706792
 20
-146.9686790464954
 30
0.0
 11
114.7556587386099
 21
-146.5507784910438
 31
0.0
  0
LINE
  5
FE
330
A6
100
AcDbEntity
  8
レイヤー 1
 62
   250
420
  2299925
370
    25
100
AcDbLine
 10
114.7556587386099
 20
-146.5507784910438
 30
0.0
 11
114.2416262517239
 21
-146.93287210206
 31
0.0
  0
LINE
  5
FF
330
A6
100
AcDbEntity
  8
レイヤー 1
 62
   250
420
  2299925
370
    25
100
AcDbLine
 10
114.2416262517239
 20
-146.93287210206
 30
0.0
 11
113.7565568196546
 21
-146.5153243243865
 31
0.0
  0
LINE
  5
100
330
A6
100
AcDbEntity
  8
レイヤー 1
 62
   250
420
  2299925
370
    25
100
AcDbLine
 10
113.7565568196546
 20
-146.5153243243865
 30
0.0
 11
113.2425596105456
 21
-146.8970298798467
 31
0.0
  0
LINE
  5
101
330
A6
100
AcDbEntity
  8
レイヤー 1
 62
   250
420
  2299925
370
    25
100
AcDbLine
 10
113.2425596105456
 20
-146.8970298798467
 30
0.0
 11
112.7567846229387
 21
-146.4794821021732
 31
0.0
  0
LINE
  5
102
330
A6
100
AcDbEntity
  8
レイヤー 1
 62
   250
420
  2299925
370
    25
100
AcDbLine
 10
112.7567846229387
 20
-146.4794821021732
 30
0.0
 11
112.2427874138297
 21
-146.8611876576335
 31
0.0
  0
LINE
  5
103
330
A6
100
AcDbEntity
  8
レイヤー 1
 62
   250
420
  2299925
370
    25
100
AcDbLine
 10
112.2427874138297
 20
-146.8611876576335
 30
0.0
 11
111.7577179817604
 21
-146.44363987996
 31
0.0
  0
LINE
  5
104
330
A6
100
AcDbEntity
  8
レイヤー 1
 62
   250
420
  2299925
370
    25
100
AcDbLine
 10
111.6837207725424
 20
-146.3954151577498
 30
0.0
 11
110.7434818965246
 21
-146.3954151577498
 31
0.0
  0
LINE
  5
105
330
A6
100
AcDbEntity
  8
レイヤー 1
 62
   250
420
  2299925
370
    25
100
AcDbLine
 10
111.7432540932405
 20
-147.6576893241008
 30
0.0
 11
111.7432540932405
 21
-152.657573489518
 31
0.0
  0
SPLINE
  5
106
330
A6
100
AcDbEntity
  8
レイヤー 1
 62
   250
420
  2299925
370
     9
100
AcDbSpline
210
0.0
220
0.0
230
1.0
 70
     9
 71
     3
 72
    17
 73
    13
 74
     0
 42
0.0000000001
 43
0.0000000001
 40
0.0
 40
0.0
 40
0.0
 40
0.0
 40
1.0
 40
1.0
 40
1.0
 40
2.0
 40
2.0
 40
2.0
 40
3.0
 40
3.0
 40
3.0
 40
4.0
 40
4.0
 40
4.0
 40
4.0
 10
79.84254824042834
 20
-142.3956559920832
 30
0.0
 10
79.84254824042834
 20
-142.3401993254303
 30
0.0
 10
79.79774546379357
 20
-142.2953965476632
 30
0.0
 10
79.74264157631082
 20
-142.2953965476632
 30
0.0
 10
79.68750241105087
 20
-142.2953965476632
 30
0.0
 10
79.64269963441579
 20
-142.3401993254303
 30
0.0
 10
79.64269963441579
 20
-142.3956559920832
 30
0.0
 10
79.64269963441579
 20
-142.450795158736
 30
0.0
 10
79.68750241105087
 20
-142.4955626587249
 30
0.0
 10
79.74264157631082
 20
-142.4955626587249
 30
0.0
 10
79.79774546379357
 20
-142.4955626587249
 30
0.0
 10
79.84254824042834
 20
-142.450795158736
 30
0.0
 10
79.84254824042834
 20
-142.3956559920832
 30
0.0
  0
CIRCLE
  5
107
330
A6
100
AcDbEntity
  8
レイヤー 1
 62
   250
420
  2299925
370
     9
100
AcDbCircle
 10
77.51294496652821
 20
-147.157485713115
 30
0.0
 40
0.0999066653794958
  0
CIRCLE
  5
108
330
A6
100
AcDbEntity
  8
レイヤー 1
 62
   250
420
  2299925
370
     9
100
AcDbCircle
 10
77.51294496652821
 20
-147.6576893241009
 30
0.0
 40
0.0999066653796563
  0
CIRCLE
  5
109
330
A6
100
AcDbEntity
  8
レイヤー 1
 62
   250
420
  2299925
370
     9
100
AcDbCircle
 10
77.51294496652821
 20
-152.6575734895177
 30
0.0
 40
0.0999066653797766
  0
SPLINE
  5
10A
330
A6
100
AcDbEntity
  8
レイヤー 1
 62
   250
420
  2299925
370
     9
100
AcDbSpline
210
0.0
220
0.0
230
1.0
 70
     9
 71
     3
 72
    17
 73
    13
 74
     0
 42
0.0000000001
 43
0.0000000001
 40
0.0
 40
0.0
 40
0.0
 40
0.0
 40
1.0
 40
1.0
 40
1.0
 40
2.0
 40
2.0
 40
2.0
 40
3.0
 40
3.0
 40
3.0
 40
4.0
 40
4.0
 40
4.0
 40
4.0
 10
100.8436586814467
 20
-142.3956559920832
 30
0.0
 10
100.8436586814467
 20
-142.3401993254303
 30
0.0
 10
100.7988882613431
 20
-142.2953965476632
 30
0.0
 10
100.7437490960835
 20
-142.2953965476632
 30
0.0
 10
100.6879396530625
 20
-142.2953965476632
 30
0.0
 10
100.6431721542046
 20
-142.3401993254303
 30
0.0
 10
100.6431721542046
 20
-142.3956559920832
 30
0.0
 10
100.6431721542046
 20
-142.450795158736
 30
0.0
 10
100.6879396530625
 20
-142.4955626587249
 30
0.0
 10
100.7437490960835
 20
-142.4955626587249
 30
0.0
 10
100.7988882613431
 20
-142.4955626587249
 30
0.0
 10
100.8436586814467
 20
-142.450795158736
 30
0.0
 10
100.8436586814467
 20
-142.3956559920832
 30
0.0
  0
SPLINE
  5
10B
330
A6
100
AcDbEntity
  8
レイヤー 1
 62
   250
420
  2299925
370
     9
100
AcDbSpline
210
0.0
220
0.0
230
1.0
 70
     9
 71
     3
 72
    17
 73
    13
 74
     0
 42
0.0000000001
 43
0.0000000001
 40
0.0
 40
0.0
 40
0.0
 40
0.0
 40
1.0
 40
1.0
 40
1.0
 40
2.0
 40
2.0
 40
2.0
 40
3.0
 40
3.0
 40
3.0
 40
4.0
 40
4.0
 40
4.0
 40
4.0
 10
131.844711451474
 20
-142.3956559920832
 30
0.0
 10
131.844711451474
 20
-142.3401993254303
 30
0.0
 10
131.7999086737073
 20
-142.2953965476632
 30
0.0
 10
131.7448010829585
 20
-142.2953965476632
 30
0.0
 10
131.6896619176986
 20
-142.2953965476632
 30
0.0
 10
131.6448944188407
 20
-142.3401993254303
 30
0.0
 10
131.6448944188407
 20
-142.3956559920832
 30
0.0
 10
131.6448944188407
 20
-142.450795158736
 30
0.0
 10
131.6896619176986
 20
-142.4955626587249
 30
0.0
 10
131.7448010829585
 20
-142.4955626587249
 30
0.0
 10
131.7999086737073
 20
-142.4955626587249
 30
0.0
 10
131.844711451474
 20
-142.450795158736
 30
0.0
 10
131.844711451474
 20
-142.3956559920832
 30
0.0
  0
SPLINE
  5
10C
330
A6
100
AcDbEntity
  8
レイヤー 1
 62
   250
420
  2299925
370
     9
100
AcDbSpline
210
0.0
220
0.0
230
1.0
 70
     9
 71
     3
 72
    17
 73
    13
 74
     0
 42
0.0000000001
 43
0.0000000001
 40
0.0
 40
0.0
 40
0.0
 40
0.0
 40
1.0
 40
1.0
 40
1.0
 40
2.0
 40
2.0
 40
2.0
 40
3.0
 40
3.0
 40
3.0
 40
4.0
 40
4.0
 40
4.0
 40
4.0
 10
110.8433885606424
 20
-142.3956559920832
 30
0.0
 10
110.8433885606424
 20
-142.3401993254303
 30
0.0
 10
110.7986210617845
 20
-142.2953965476632
 30
0.0
 10
110.7434818965246
 20
-142.2953965476632
 30
0.0
 10
110.6883780090415
 20
-142.2953965476632
 30
0.0
 10
110.6435752324067
 20
-142.3401993254303
 30
0.0
 10
110.6435752324067
 20
-142.3956559920832
 30
0.0
 10
110.6435752324067
 20
-142.450795158736
 30
0.0
 10
110.6883780090415
 20
-142.4955626587249
 30
0.0
 10
110.7434818965246
 20
-142.4955626587249
 30
0.0
 10
110.7986210617845
 20
-142.4955626587249
 30
0.0
 10
110.8433885606424
 20
-142.450795158736
 30
0.0
 10
110.8433885606424
 20
-142.3956559920832
 30
0.0
  0
LINE
  5
10D
330
A6
100
AcDbEntity
  8
レイヤー 1
 62
   250
420
  2299925
370
     9
100
AcDbLine
 10
77.51294496652814
 20
-147.1574857131149
 30
0.0
 11
77.51294496652814
 21
-141.8999326588738
 31
0.0
  0
LINE
  5
10E
330
A6
100
AcDbEntity
  8
レイヤー 1
 62
   250
420
  2299925
370
     9
100
AcDbLine
 10
77.51294496652814
 20
-147.1574857131149
 30
0.0
 11
77.51294496652814
 21
-147.6576893241008
 31
0.0
  0
LINE
  5
10F
330
A6
100
AcDbEntity
  8
レイヤー 1
 62
   250
420
  2299925
370
     9
100
AcDbLine
 10
78.97298631816827
 20
-147.1574857131149
 30
0.0
 11
76.5132080475891
 21
-147.1574857131149
 31
0.0
  0
LINE
  5
110
330
A6
100
AcDbEntity
  8
レイヤー 1
 62
   250
420
  2299925
370
     9
100
AcDbLine
 10
78.97298631816827
 20
-147.6576893241008
 30
0.0
 11
76.5132080475891
 21
-147.6576893241008
 31
0.0
  0
INSERT
  5
112
330
A6
100
AcDbEntity
  8
レイヤー 1
100
AcDbBlockReference
  2
Block_4
 10
0.0
 20
0.0
 30
0.0
  0
LINE
  5
120
330
A6
100
AcDbEntity
  8
レイヤー 1
 62
   250
420
  2299925
370
     9
100
AcDbLine
 10
79.74264157631082
 20
-142.3956559920832
 30
0.0
 11
100.7437490960835
 21
-142.3956559920832
 31
0.0
  0
LINE
  5
121
330
A6
100
AcDbEntity
  8
レイヤー 1
 62
   250
420
  2299925
370
     9
100
AcDbLine
 10
79.74264157631082
 20
-144.6177679359721
 30
0.0
 11
79.74264157631082
 21
-141.3955662701108
 31
0.0
  0
INSERT
  5
123
330
A6
100
AcDbEntity
  8
レイヤー 1
100
AcDbBlockReference
  2
Block_6
 10
0.0
 20
0.0
 30
0.0
  0
LINE
  5
12E
330
A6
100
AcDbEntity
  8
レイヤー 1
 62
   250
420
  2299925
370
     9
100
AcDbLine
 10
77.51294496652814
 20
-147.6576893241008
 30
0.0
 11
77.51294496652814
 21
-152.657573489518
 31
0.0
  0
LINE
  5
12F
330
A6
100
AcDbEntity
  8
レイヤー 1
 62
   250
420
  2299925
370
     9
100
AcDbLine
 10
98.97435691900192
 20
-152.657573489518
 30
0.0
 11
76.5132080475891
 21
-152.657573489518
 31
0.0
  0
INSERT
  5
131
330
A6
100
AcDbEntity
  8
レイヤー 1
100
AcDbBlockReference
  2
Block_8
 10
0.0
 20
0.0
 30
0.0
  0
LINE
  5
136
330
A6
100
AcDbEntity
  8
レイヤー 1
 62
   250
420
  2299925
370
     9
100
AcDbLine
 10
131.7448010829585
 20
-142.3956559920832
 30
0.0
 11
110.7434818965246
 21
-142.3956559920832
 31
0.0
  0
LINE
  5
137
330
A6
100
AcDbEntity
  8
レイヤー 1
 62
   250
420
  2299925
370
     9
100
AcDbLine
 10
131.7448010829585
 20
-144.6177679359721
 30
0.0
 11
131.7448010829585
 21
-141.3955662701108
 31
0.0
  0
INSERT
  5
139
330
A6
100
AcDbEntity
  8
レイヤー 1
100
AcDbBlockReference
  2
Block_9
 10
0.0
 20
0.0
 30
0.0
  0
LINE
  5
144
330
A6
100
AcDbEntity
  8
レイヤー 1
 62
   250
420
  2299925
370
     9
100
AcDbLine
 10
100.7437490960835
 20
-142.3956559920832
 30
0.0
 11
110.7434818965246
 21
-142.3956559920832
 31
0.0
  0
LINE
  5
145
330
A6
100
AcDbEntity
  8
レイヤー 1
 62
   250
420
  2299925
370
     9
100
AcDbLine
 10
100.7437490960835
 20
-143.855697380607
 30
0.0
 11
100.7437490960835
 21
-141.3955662701108
 31
0.0
  0
LINE
  5
146
330
A6
100
AcDbEntity
  8
レイヤー 1
 62
   250
420
  2299925
370
     9
100
AcDbLine
 10
110.7434818965246
 20
-143.855697380607
 30
0.0
 11
110.7434818965246
 21
-141.3955662701108
 31
0.0
  0
INSERT
  5
148
330
A6
100
AcDbEntity
  8
レイヤー 1
100
AcDbBlockReference
  2
Block_11
 10
0.0
 20
0.0
 30
0.0
  0
SPLINE
  5
154
330
A6
100
AcDbEntity
  8
レイヤー 1
 62
   250
420
  2299925
370
     9
100
AcDbSpline
210
0.0
220
0.0
230
1.0
 70
     9
 71
     3
 72
    17
 73
    13
 74
     0
 42
0.0000000001
 43
0.0000000001
 40
0.0
 40
0.0
 40
0.0
 40
0.0
 40
1.0
 40
1.0
 40
1.0
 40
2.0
 40
2.0
 40
2.0
 40
3.0
 40
3.0
 40
3.0
 40
4.0
 40
4.0
 40
4.0
 40
4.0
 10
100.0567849469427
 20
-156.7710329329336
 30
0.0
 10
100.0567849469427
 20
-156.7158937662811
 30
0.0
 10
99.97342356018025
 20
-156.6710909885144
 30
0.0
 10
99.87076522946596
 20
-156.6710909885144
 30
0.0
 10
99.76948273204989
 20
-156.6710909885144
 30
0.0
 10
99.68612134528772
 20
-156.7158937662811
 30
0.0
 10
99.68612134528772
 20
-156.7710329329336
 30
0.0
 10
99.68612134528772
 20
-156.8261368218091
 30
0.0
 10
99.76948273204989
 20
-156.8709395995758
 30
0.0
 10
99.87076522946596
 20
-156.8709395995758
 30
0.0
 10
99.97342356018025
 20
-156.8709395995758
 30
0.0
 10
100.0567849469427
 20
-156.8261368218091
 30
0.0
 10
100.0567849469427
 20
-156.7710329329336
 30
0.0
  0
SPLINE
  5
155
330
A6
100
AcDbEntity
  8
レイヤー 1
 62
   250
420
  2299925
370
     9
100
AcDbSpline
210
0.0
220
0.0
230
1.0
 70
     9
 71
     3
 72
    17
 73
    13
 74
     0
 42
0.0000000001
 43
0.0000000001
 40
0.0
 40
0.0
 40
0.0
 40
0.0
 40
1.0
 40
1.0
 40
1.0
 40
2.0
 40
2.0
 40
2.0
 40
3.0
 40
3.0
 40
3.0
 40
4.0
 40
4.0
 40
4.0
 40
4.0
 10
112.0994890841522
 20
-156.7710329329336
 30
0.0
 10
112.0994890841522
 20
-156.7158937662811
 30
0.0
 10
112.0167979751507
 20
-156.6710909885144
 30
0.0
 10
111.9148099221971
 20
-156.6710909885144
 30
0.0
 10
111.8114813137221
 20
-156.6710909885144
 30
0.0
 10
111.7287902047206
 20
-156.7158937662811
 30
0.0
 10
111.7287902047206
 20
-156.7710329329336
 30
0.0
 10
111.7287902047206
 20
-156.8261368218091
 30
0.0
 10
111.8114813137221
 20
-156.8709395995758
 30
0.0
 10
111.9148099221971
 20
-156.8709395995758
 30
0.0
 10
112.0167979751507
 20
-156.8709395995758
 30
0.0
 10
112.0994890841522
 20
-156.8261368218091
 30
0.0
 10
112.0994890841522
 20
-156.7710329329336
 30
0.0
  0
LINE
  5
156
330
A6
100
AcDbEntity
  8
レイヤー 1
 62
   250
420
  2299925
370
     9
100
AcDbLine
 10
111.9148099221971
 20
-156.7710329329336
 30
0.0
 11
99.87076522946596
 21
-156.7710329329336
 31
0.0
  0
LINE
  5
157
330
A6
100
AcDbEntity
  8
レイヤー 1
 62
   250
420
  2299925
370
     9
100
AcDbLine
 10
111.9148099221971
 20
-155.3109915444098
 30
0.0
 11
111.9148099221971
 21
-157.7711226549063
 31
0.0
  0
LINE
  5
158
330
A6
100
AcDbEntity
  8
レイヤー 1
 62
   250
420
  2299925
370
     9
100
AcDbLine
 10
99.87076522946596
 20
-155.3109915444098
 30
0.0
 11
99.87076522946596
 21
-157.7711226549063
 31
0.0
  0
INSERT
  5
15A
330
A6
100
AcDbEntity
  8
レイヤー 1
100
AcDbBlockReference
  2
Block_13
 10
0.0
 20
0.0
 30
0.0
  0
LINE
  5
165
330
A6
100
AcDbEntity
  8
レイヤー 1
 62
   250
420
  2299925
370
     9
100
AcDbLine
 10
108.7198427814852
 20
-150.6856162677882
 30
0.0
 11
116.7200311884945
 21
-150.6856162677882
 31
0.0
  0
INSERT
  5
167
330
A6
100
AcDbEntity
  8
レイヤー 1
100
AcDbBlockReference
  2
Block_15
 10
0.0
 20
0.0
 30
0.0
  0
ENDBLK
  5
A9
330
A6
100
AcDbEntity
  8
0
100
AcDbBlockEnd
  0
BLOCK
  5
113
330
111
100
AcDbEntity
  8
0
100
AcDbBlockBegin
  2
Block_4
 70
     0
 10
0.0
 20
0.0
 30
0.0
  3
Block_4
  1

  0
INSERT
  5
116
330
111
100
AcDbEntity
  8
レイヤー 1
100
AcDbBlockReference
  2
Block_5
 10
0.0
 20
0.0
 30
0.0
  0
ENDBLK
  5
114
330
111
100
AcDbEntity
  8
0
100
AcDbBlockEnd
  0
BLOCK
  5
117
330
115
100
AcDbEntity
  8
0
100
AcDbBlockBegin
  2
Block_5
 70
     0
 10
0.0
 20
0.0
 30
0.0
  3
Block_5
  1

  0
SPLINE
  5
119
330
115
100
AcDbEntity
  8
レイヤー 1
100
AcDbSpline
210
0.0
220
0.0
230
1.0
 70
     9
 71
     3
 72
    17
 73
    13
 74
     0
 42
0.0000000001
 43
0.0000000001
 40
0.0
 40
0.0
 40
0.0
 40
0.0
 40
1.0
 40
1.0
 40
1.0
 40
2.0
 40
2.0
 40
2.0
 40
3.0
 40
3.0
 40
3.0
 40
4.0
 40
4.0
 40
4.0
 40
4.0
 10
74.66865503775645
 20
-148.312394168651
 30
0.0
 10
74.66865503775645
 20
-148.5621635913316
 30
0.0
 10
74.95201414141824
 20
-148.6086723803825
 30
0.0
 10
75.29686819949175
 20
-148.6086723803825
 30
0.0
 10
75.61640080574868
 20
-148.6086723803825
 30
0.0
 10
75.92525361600133
 20
-148.5724988777874
 30
0.0
 10
75.92525361600133
 20
-148.312394168651
 30
0.0
 10
75.92525361600133
 20
-148.0646918032616
 30
0.0
 10
75.64378931485641
 20
-148.0161159569195
 30
0.0
 10
75.29686819949175
 20
-148.0161159569195
 30
0.0
 10
74.9775078480091
 20
-148.0161159569195
 30
0.0
 10
74.66865503775645
 20
-148.0543565168058
 30
0.0
 10
74.66865503775645
 20
-148.312394168651
 30
0.0
  0
SPLINE
  5
11A
330
115
100
AcDbEntity
  8
レイヤー 1
100
AcDbSpline
210
0.0
220
0.0
230
1.0
 70
     9
 71
     3
 72
    29
 73
    25
 74
     0
 42
0.0000000001
 43
0.0000000001
 40
0.0
 40
0.0
 40
0.0
 40
0.0
 40
1.0
 40
1.0
 40
1.0
 40
2.0
 40
2.0
 40
2.0
 40
3.0
 40
3.0
 40
3.0
 40
4.0
 40
4.0
 40
4.0
 40
5.0
 40
5.0
 40
5.0
 40
6.0
 40
6.0
 40
6.0
 40
7.0
 40
7.0
 40
7.0
 40
8.0
 40
8.0
 40
8.0
 40
8.0
 10
75.89131942547162
 20
-147.9144856401047
 30
0.0
 10
76.1007812309748
 20
-148.0226616383415
 30
0.0
 10
76.11990151091794
 20
-148.1959499412496
 30
0.0
 10
76.11990151091794
 20
-148.312394168651
 30
0.0
 10
76.11990151091794
 20
-148.4732801278122
 30
0.0
 10
76.07339272186706
 20
-148.614873552256
 30
0.0
 10
75.89131942547162
 20
-148.7099581876489
 30
0.0
 10
75.69684378532926
 20
-148.8136555617549
 30
0.0
 10
75.45982121594407
 20
-148.8329480964723
 30
0.0
 10
75.29686819949175
 20
-148.8329480964723
 30
0.0
 10
75.15303546298257
 20
-148.8329480964723
 30
0.0
 10
74.90137123778507
 20
-148.8157226190461
 30
0.0
 10
74.7024169735119
 20
-148.7099581876489
 30
0.0
 10
74.49932859465642
 20
-148.6021266989606
 30
0.0
 10
74.47607420013098
 20
-148.4412407397994
 30
0.0
 10
74.47607420013098
 20
-148.312394168651
 30
0.0
 10
74.47607420013098
 20
-148.153575266781
 30
0.0
 10
74.52051593189072
 20
-148.0099147850461
 30
0.0
 10
74.7024169735119
 20
-147.9144856401047
 30
0.0
 10
74.89499781113735
 20
-147.8152668901295
 30
0.0
 10
75.12340764180944
 20
-147.7918402408298
 30
0.0
 10
75.29686819949175
 20
-147.7918402408298
 30
0.0
 10
75.46826169988294
 20
-147.7918402408298
 30
0.0
 10
75.69891084262042
 20
-147.8131998328383
 30
0.0
 10
75.89131942547162
 20
-147.9144856401047
 30
0.0
  0
HATCH
  5
11B
330
115
100
AcDbEntity
  8
レイヤー 1
 62
   250
420
  2299925
440
 33554687
100
AcDbHatch
 10
0.0
 20
0.0
 30
0.0
210
0.0
220
0.0
230
1.0
  2
SOLID
 70
     1
 71
     1
 91
        2
 92
        1
 93
        1
 72
     4
 94
        3
 73
     0
 74
     0
 95
       17
 96
       13
 40
0.0
 40
0.0
 40
0.0
 40
0.0
 40
1.0
 40
1.0
 40
1.0
 40
2.0
 40
2.0
 40
2.0
 40
3.0
 40
3.0
 40
3.0
 40
4.0
 40
4.0
 40
4.0
 40
4.0
 10
74.66865503775645
 20
-148.312394168651
 10
74.66865503775645
 20
-148.5621635913316
 10
74.95201414141824
 20
-148.6086723803825
 10
75.29686819949175
 20
-148.6086723803825
 10
75.61640080574868
 20
-148.6086723803825
 10
75.92525361600133
 20
-148.5724988777874
 10
75.92525361600133
 20
-148.312394168651
 10
75.92525361600133
 20
-148.0646918032616
 10
75.64378931485641
 20
-148.0161159569195
 10
75.29686819949175
 20
-148.0161159569195
 10
74.9775078480091
 20
-148.0161159569195
 10
74.66865503775645
 20
-148.0543565168058
 10
74.66865503775645
 20
-148.312394168651
 97
        0
 97
        1
330
119
 92
        1
 93
        1
 72
     4
 94
        3
 73
     0
 74
     0
 95
       29
 96
       25
 40
0.0
 40
0.0
 40
0.0
 40
0.0
 40
1.0
 40
1.0
 40
1.0
 40
2.0
 40
2.0
 40
2.0
 40
3.0
 40
3.0
 40
3.0
 40
4.0
 40
4.0
 40
4.0
 40
5.0
 40
5.0
 40
5.0
 40
6.0
 40
6.0
 40
6.0
 40
7.0
 40
7.0
 40
7.0
 40
8.0
 40
8.0
 40
8.0
 40
8.0
 10
75.89131942547162
 20
-147.9144856401047
 10
76.1007812309748
 20
-148.0226616383415
 10
76.11990151091794
 20
-148.1959499412496
 10
76.11990151091794
 20
-148.312394168651
 10
76.11990151091794
 20
-148.4732801278122
 10
76.07339272186706
 20
-148.614873552256
 10
75.89131942547162
 20
-148.7099581876489
 10
75.69684378532926
 20
-148.8136555617549
 10
75.45982121594407
 20
-148.8329480964723
 10
75.29686819949175
 20
-148.8329480964723
 10
75.15303546298257
 20
-148.8329480964723
 10
74.90137123778507
 20
-148.8157226190461
 10
74.7024169735119
 20
-148.7099581876489
 10
74.49932859465642
 20
-148.6021266989606
 10
74.47607420013098
 20
-148.4412407397994
 10
74.47607420013098
 20
-148.312394168651
 10
74.47607420013098
 20
-148.153575266781
 10
74.52051593189072
 20
-148.0099147850461
 10
74.7024169735119
 20
-147.9144856401047
 10
74.89499781113735
 20
-147.8152668901295
 10
75.12340764180944
 20
-147.7918402408298
 10
75.29686819949175
 20
-147.7918402408298
 10
75.46826169988294
 20
-147.7918402408298
 10
75.69891084262042
 20
-147.8131998328383
 10
75.89131942547162
 20
-147.9144856401047
 97
        0
 97
        1
330
11A
 75
     2
 76
     1
 98
        1
 10
0.0
 20
0.0
450
        0
451
        0
460
0.0
461
0.0
452
        0
462
0.0
453
        0
470

  0
SPLINE
  5
11C
330
115
100
AcDbEntity
  8
レイヤー 1
100
AcDbSpline
210
0.0
220
0.0
230
1.0
 70
    11
 71
     3
 72
    17
 73
    13
 74
     0
 42
0.0000000001
 43
0.0000000001
 40
0.0
 40
0.0
 40
0.0
 40
0.0
 40
1.0
 40
1.0
 40
1.0
 40
2.0
 40
2.0
 40
2.0
 40
3.0
 40
3.0
 40
3.0
 40
4.0
 40
4.0
 40
4.0
 40
4.0
 10
76.06908635251051
 20
-147.5754882443561
 30
0.0
 10
76.06908635251051
 20
-147.5754882443561
 30
0.0
 10
75.81742212731301
 20
-147.5754882443561
 30
0.0
 10
75.81742212731301
 20
-147.5754882443561
 30
0.0
 10
75.81742212731301
 20
-147.5754882443561
 30
0.0
 10
75.81742212731301
 20
-147.3236517643844
 30
0.0
 10
75.81742212731301
 20
-147.3236517643844
 30
0.0
 10
75.81742212731301
 20
-147.3236517643844
 30
0.0
 10
76.06908635251051
 20
-147.3236517643844
 30
0.0
 10
76.06908635251051
 20
-147.3236517643844
 30
0.0
 10
76.06908635251051
 20
-147.3236517643844
 30
0.0
 10
76.06908635251051
 20
-147.5754882443561
 30
0.0
 10
76.06908635251051
 20
-147.5754882443561
 30
0.0
  0
HATCH
  5
11D
330
115
100
AcDbEntity
  8
レイヤー 1
 62
   250
420
  2299925
440
 33554687
100
AcDbHatch
 10
0.0
 20
0.0
 30
0.0
210
0.0
220
0.0
230
1.0
  2
SOLID
 70
     1
 71
     1
 91
        1
 92
        1
 93
        1
 72
     4
 94
        3
 73
     0
 74
     0
 95
       17
 96
       13
 40
0.0
 40
0.0
 40
0.0
 40
0.0
 40
1.0
 40
1.0
 40
1.0
 40
2.0
 40
2.0
 40
2.0
 40
3.0
 40
3.0
 40
3.0
 40
4.0
 40
4.0
 40
4.0
 40
4.0
 10
76.06908635251051
 20
-147.5754882443561
 10
76.06908635251051
 20
-147.5754882443561
 10
75.81742212731301
 20
-147.5754882443561
 10
75.81742212731301
 20
-147.5754882443561
 10
75.81742212731301
 20
-147.5754882443561
 10
75.81742212731301
 20
-147.3236517643844
 10
75.81742212731301
 20
-147.3236517643844
 10
75.81742212731301
 20
-147.3236517643844
 10
76.06908635251051
 20
-147.3236517643844
 10
76.06908635251051
 20
-147.3236517643844
 10
76.06908635251051
 20
-147.3236517643844
 10
76.06908635251051
 20
-147.5754882443561
 10
76.06908635251051
 20
-147.5754882443561
 97
        0
 97
        1
330
11C
 75
     2
 76
     1
 98
        1
 10
0.0
 20
0.0
450
        0
451
        0
460
0.0
461
0.0
452
        0
462
0.0
453
        0
470

  0
SPLINE
  5
11E
330
115
100
AcDbEntity
  8
レイヤー 1
100
AcDbSpline
210
0.0
220
0.0
230
1.0
 70
     9
 71
     3
 72
    53
 73
    49
 74
     0
 42
0.0000000001
 43
0.0000000001
 40
0.0
 40
0.0
 40
0.0
 40
0.0
 40
1.0
 40
1.0
 40
1.0
 40
2.0
 40
2.0
 40
2.0
 40
3.0
 40
3.0
 40
3.0
 40
4.0
 40
4.0
 40
4.0
 40
5.0
 40
5.0
 40
5.0
 40
6.0
 40
6.0
 40
6.0
 40
7.0
 40
7.0
 40
7.0
 40
8.0
 40
8.0
 40
8.0
 40
9.0
 40
9.0
 40
9.0
 40
10.0
 40
10.0
 40
10.0
 40
11.0
 40
11.0
 40
11.0
 40
12.0
 40
12.0
 40
12.0
 40
13.0
 40
13.0
 40
13.0
 40
14.0
 40
14.0
 40
14.0
 40
15.0
 40
15.0
 40
15.0
 40
16.0
 40
16.0
 40
16.0
 40
16.0
 10
76.11990151091794
 20
-146.6063828843553
 30
0.0
 10
76.11990151091794
 20
-146.6845865518705
 30
0.0
 10
76.10302054304021
 20
-146.7862168686854
 30
0.0
 10
76.03945853133736
 20
-146.8878471855003
 30
0.0
 10
75.92938773058363
 20
-147.0611354884083
 30
0.0
 10
75.79830184736987
 20
-147.0824950804169
 30
0.0
 10
75.69047035868155
 20
-147.1014431055857
 30
0.0
 10
75.69047035868155
 20
-147.1014431055857
 30
0.0
 10
75.69047035868155
 20
-146.8792344467871
 30
0.0
 10
75.69047035868155
 20
-146.8792344467871
 30
0.0
 10
75.88925236818046
 20
-146.8244574285716
 30
0.0
 10
75.91888018935361
 20
-146.6973334051659
 30
0.0
 10
75.91888018935361
 20
-146.6043158270642
 30
0.0
 10
75.91888018935361
 20
-146.4647894599116
 30
0.0
 10
75.81948918460416
 20
-146.3125162394635
 30
0.0
 10
75.58677298457553
 20
-146.3125162394635
 30
0.0
 10
75.33080239002147
 20
-146.3125162394635
 30
0.0
 10
75.26103920644516
 20
-146.4923502237936
 30
0.0
 10
75.26103920644516
 20
-146.6129285657773
 30
0.0
 10
75.26103920644516
 20
-146.6446234442416
 30
0.0
 10
75.26103920644516
 20
-146.7862168686854
 30
0.0
 10
75.39005803236776
 20
-146.8751003322048
 30
0.0
 10
75.39005803236776
 20
-146.8751003322048
 30
0.0
 10
75.37093775242462
 20
-147.0508002019526
 30
0.0
 10
75.37093775242462
 20
-147.0508002019526
 30
0.0
 10
75.37093775242462
 20
-147.0508002019526
 30
0.0
 10
74.52482230124727
 20
-146.9302218599688
 30
0.0
 10
74.52482230124727
 20
-146.9302218599688
 30
0.0
 10
74.52482230124727
 20
-146.9302218599688
 30
0.0
 10
74.52482230124727
 20
-146.1516302803024
 30
0.0
 10
74.52482230124727
 20
-146.1516302803024
 30
0.0
 10
74.52482230124727
 20
-146.1516302803024
 30
0.0
 10
74.71947019616388
 20
-146.1516302803024
 30
0.0
 10
74.71947019616388
 20
-146.1516302803024
 30
0.0
 10
74.71947019616388
 20
-146.1516302803024
 30
0.0
 10
74.71947019616388
 20
-146.7672688435165
 30
0.0
 10
74.71947019616388
 20
-146.7672688435165
 30
0.0
 10
74.71947019616388
 20
-146.7672688435165
 30
0.0
 10
75.14252792175255
 20
-146.8327256577362
 30
0.0
 10
75.14252792175255
 20
-146.8327256577362
 30
0.0
 10
75.10859373122285
 20
-146.7714029580988
 30
0.0
 10
75.06845836881969
 20
-146.6890651760013
 30
0.0
 10
75.06845836881969
 20
-146.5705538913087
 30
0.0
 10
75.06845836881969
 20
-146.3166503540458
 30
0.0
 10
75.25466577979745
 20
-146.0796277846606
 30
0.0
 10
75.56765270463239
 20
-146.0796277846606
 30
0.0
 10
75.88511825359816
 20
-146.0796277846606
 30
0.0
 10
76.11990151091794
 20
-146.3039035007504
 30
0.0
 10
76.11990151091794
 20
-146.6063828843553
 30
0.0
  0
HATCH
  5
11F
330
115
100
AcDbEntity
  8
レイヤー 1
 62
   250
420
  2299925
440
 33554687
100
AcDbHatch
 10
0.0
 20
0.0
 30
0.0
210
0.0
220
0.0
230
1.0
  2
SOLID
 70
     1
 71
     1
 91
        1
 92
        1
 93
        1
 72
     4
 94
        3
 73
     0
 74
     0
 95
       53
 96
       49
 40
0.0
 40
0.0
 40
0.0
 40
0.0
 40
1.0
 40
1.0
 40
1.0
 40
2.0
 40
2.0
 40
2.0
 40
3.0
 40
3.0
 40
3.0
 40
4.0
 40
4.0
 40
4.0
 40
5.0
 40
5.0
 40
5.0
 40
6.0
 40
6.0
 40
6.0
 40
7.0
 40
7.0
 40
7.0
 40
8.0
 40
8.0
 40
8.0
 40
9.0
 40
9.0
 40
9.0
 40
10.0
 40
10.0
 40
10.0
 40
11.0
 40
11.0
 40
11.0
 40
12.0
 40
12.0
 40
12.0
 40
13.0
 40
13.0
 40
13.0
 40
14.0
 40
14.0
 40
14.0
 40
15.0
 40
15.0
 40
15.0
 40
16.0
 40
16.0
 40
16.0
 40
16.0
 10
76.11990151091794
 20
-146.6063828843553
 10
76.11990151091794
 20
-146.6845865518705
 10
76.10302054304021
 20
-146.7862168686854
 10
76.03945853133736
 20
-146.8878471855003
 10
75.92938773058363
 20
-147.0611354884083
 10
75.79830184736987
 20
-147.0824950804169
 10
75.69047035868155
 20
-147.1014431055857
 10
75.69047035868155
 20
-147.1014431055857
 10
75.69047035868155
 20
-146.8792344467871
 10
75.69047035868155
 20
-146.8792344467871
 10
75.88925236818046
 20
-146.8244574285716
 10
75.91888018935361
 20
-146.6973334051659
 10
75.91888018935361
 20
-146.6043158270642
 10
75.91888018935361
 20
-146.4647894599116
 10
75.81948918460416
 20
-146.3125162394635
 10
75.58677298457553
 20
-146.3125162394635
 10
75.33080239002147
 20
-146.3125162394635
 10
75.26103920644516
 20
-146.4923502237936
 10
75.26103920644516
 20
-146.6129285657773
 10
75.26103920644516
 20
-146.6446234442416
 10
75.26103920644516
 20
-146.7862168686854
 10
75.39005803236776
 20
-146.8751003322048
 10
75.39005803236776
 20
-146.8751003322048
 10
75.37093775242462
 20
-147.0508002019526
 10
75.37093775242462
 20
-147.0508002019526
 10
75.37093775242462
 20
-147.0508002019526
 10
74.52482230124727
 20
-146.9302218599688
 10
74.52482230124727
 20
-146.9302218599688
 10
74.52482230124727
 20
-146.9302218599688
 10
74.52482230124727
 20
-146.1516302803024
 10
74.52482230124727
 20
-146.1516302803024
 10
74.52482230124727
 20
-146.1516302803024
 10
74.71947019616388
 20
-146.1516302803024
 10
74.71947019616388
 20
-146.1516302803024
 10
74.71947019616388
 20
-146.1516302803024
 10
74.71947019616388
 20
-146.7672688435165
 10
74.71947019616388
 20
-146.7672688435165
 10
74.71947019616388
 20
-146.7672688435165
 10
75.14252792175255
 20
-146.8327256577362
 10
75.14252792175255
 20
-146.8327256577362
 10
75.10859373122285
 20
-146.7714029580988
 10
75.06845836881969
 20
-146.6890651760013
 10
75.06845836881969
 20
-146.5705538913087
 10
75.06845836881969
 20
-146.3166503540458
 10
75.25466577979745
 20
-146.0796277846606
 10
75.56765270463239
 20
-146.0796277846606
 10
75.88511825359816
 20
-146.0796277846606
 10
76.11990151091794
 20
-146.3039035007504
 10
76.11990151091794
 20
-146.6063828843553
 97
        0
 97
        1
330
11E
 75
     2
 76
     1
 98
        1
 10
0.0
 20
0.0
450
        0
451
        0
460
0.0
461
0.0
452
        0
462
0.0
453
        0
470

  0
ENDBLK
  5
118
330
115
100
AcDbEntity
  8
0
100
AcDbBlockEnd
  0
BLOCK
  5
124
330
122
100
AcDbEntity
  8
0
100
AcDbBlockBegin
  2
Block_6
 70
     0
 10
0.0
 20
0.0
 30
0.0
  3
Block_6
  1

  0
INSERT
  5
127
330
122
100
AcDbEntity
  8
レイヤー 1
100
AcDbBlockReference
  2
Block_7
 10
0.0
 20
0.0
 30
0.0
  0
ENDBLK
  5
125
330
122
100
AcDbEntity
  8
0
100
AcDbBlockEnd
  0
BLOCK
  5
128
330
126
100
AcDbEntity
  8
0
100
AcDbBlockBegin
  2
Block_7
 70
     0
 10
0.0
 20
0.0
 30
0.0
  3
Block_7
  1

  0
SPLINE
  5
12A
330
126
100
AcDbEntity
  8
レイヤー 1
100
AcDbSpline
210
0.0
220
0.0
230
1.0
 70
     9
 71
     3
 72
    44
 73
    40
 74
     0
 42
0.0000000001
 43
0.0000000001
 40
0.0
 40
0.0
 40
0.0
 40
0.0
 40
1.0
 40
1.0
 40
1.0
 40
2.0
 40
2.0
 40
2.0
 40
3.0
 40
3.0
 40
3.0
 40
4.0
 40
4.0
 40
4.0
 40
5.0
 40
5.0
 40
5.0
 40
6.0
 40
6.0
 40
6.0
 40
7.0
 40
7.0
 40
7.0
 40
8.0
 40
8.0
 40
8.0
 40
9.0
 40
9.0
 40
9.0
 40
10.0
 40
10.0
 40
10.0
 40
11.0
 40
11.0
 40
11.0
 40
12.0
 40
12.0
 40
12.0
 40
13.0
 40
13.0
 40
13.0
 40
13.0
 10
89.67187362124523
 20
-141.1000867702805
 30
0.0
 10
89.45397133180318
 20
-141.2587334173763
 30
0.0
 10
89.36078149892717
 20
-141.3328029703091
 30
0.0
 10
89.31220565258515
 20
-141.4766357068183
 30
0.0
 10
89.31220565258515
 20
-141.4766357068183
 30
0.0
 10
90.09062497747734
 20
-141.4766357068183
 30
0.0
 10
90.09062497747734
 20
-141.4766357068183
 30
0.0
 10
90.09062497747734
 20
-141.4766357068183
 30
0.0
 10
90.09062497747734
 20
-141.6817911429649
 30
0.0
 10
90.09062497747734
 20
-141.6817911429649
 30
0.0
 10
90.09062497747734
 20
-141.6817911429649
 30
0.0
 10
89.06260848467878
 20
-141.6817911429649
 30
0.0
 10
89.06260848467878
 20
-141.6817911429649
 30
0.0
 10
89.0943033631431
 20
-141.324190231596
 30
0.0
 10
89.1599324321371
 20
-141.2459865640808
 30
0.0
 10
89.54492185261377
 20
-140.9476412950582
 30
0.0
 10
89.80089244716785
 20
-140.7488592855593
 30
0.0
 10
89.86634926138759
 20
-140.6811631592741
 30
0.0
 10
89.86634926138759
 20
-140.5437038494127
 30
0.0
 10
89.86634926138759
 20
-140.4251925647201
 30
0.0
 10
89.79451902052012
 20
-140.2939344267321
 30
0.0
 10
89.59780406831235
 20
-140.2939344267321
 30
0.0
 10
89.33752710440172
 20
-140.2939344267321
 30
0.0
 10
89.32908662046287
 20
-140.5245835694695
 30
0.0
 10
89.32478025110631
 20
-140.641027796871
 30
0.0
 10
89.32478025110631
 20
-140.641027796871
 30
0.0
 10
89.1006767897908
 20
-140.641027796871
 30
0.0
 10
89.1006767897908
 20
-140.641027796871
 30
0.0
 10
89.10911727372967
 20
-140.5140760282395
 30
0.0
 10
89.11962481495967
 20
-140.4019381701946
 30
0.0
 10
89.20006779454025
 20
-140.283426885502
 30
0.0
 10
89.30996634051973
 20
-140.1227131811151
 30
0.0
 10
89.49617375149749
 20
-140.0887789905854
 30
0.0
 10
89.61261797889894
 20
-140.0887789905854
 30
0.0
 10
89.88977591068728
 20
-140.0887789905854
 30
0.0
 10
90.09699840412507
 20
-140.272919344272
 30
0.0
 10
90.09699840412507
 20
-140.5457709067038
 30
0.0
 10
90.09699840412507
 20
-140.7741807373759
 30
0.0
 10
89.98072643149788
 20
-140.8737439968996
 30
0.0
 10
89.67187362124523
 20
-141.1000867702805
 30
0.0
  0
HATCH
  5
12B
330
126
100
AcDbEntity
  8
レイヤー 1
 62
   250
420
  2299925
440
 33554687
100
AcDbHatch
 10
0.0
 20
0.0
 30
0.0
210
0.0
220
0.0
230
1.0
  2
SOLID
 70
     1
 71
     1
 91
        1
 92
        1
 93
        1
 72
     4
 94
        3
 73
     0
 74
     0
 95
       44
 96
       40
 40
0.0
 40
0.0
 40
0.0
 40
0.0
 40
1.0
 40
1.0
 40
1.0
 40
2.0
 40
2.0
 40
2.0
 40
3.0
 40
3.0
 40
3.0
 40
4.0
 40
4.0
 40
4.0
 40
5.0
 40
5.0
 40
5.0
 40
6.0
 40
6.0
 40
6.0
 40
7.0
 40
7.0
 40
7.0
 40
8.0
 40
8.0
 40
8.0
 40
9.0
 40
9.0
 40
9.0
 40
10.0
 40
10.0
 40
10.0
 40
11.0
 40
11.0
 40
11.0
 40
12.0
 40
12.0
 40
12.0
 40
13.0
 40
13.0
 40
13.0
 40
13.0
 10
89.67187362124523
 20
-141.1000867702805
 10
89.45397133180318
 20
-141.2587334173763
 10
89.36078149892717
 20
-141.3328029703091
 10
89.31220565258515
 20
-141.4766357068183
 10
89.31220565258515
 20
-141.4766357068183
 10
90.09062497747734
 20
-141.4766357068183
 10
90.09062497747734
 20
-141.4766357068183
 10
90.09062497747734
 20
-141.4766357068183
 10
90.09062497747734
 20
-141.6817911429649
 10
90.09062497747734
 20
-141.6817911429649
 10
90.09062497747734
 20
-141.6817911429649
 10
89.06260848467878
 20
-141.6817911429649
 10
89.06260848467878
 20
-141.6817911429649
 10
89.0943033631431
 20
-141.324190231596
 10
89.1599324321371
 20
-141.2459865640808
 10
89.54492185261377
 20
-140.9476412950582
 10
89.80089244716785
 20
-140.7488592855593
 10
89.86634926138759
 20
-140.6811631592741
 10
89.86634926138759
 20
-140.5437038494127
 10
89.86634926138759
 20
-140.4251925647201
 10
89.79451902052012
 20
-140.2939344267321
 10
89.59780406831235
 20
-140.2939344267321
 10
89.33752710440172
 20
-140.2939344267321
 10
89.32908662046287
 20
-140.5245835694695
 10
89.32478025110631
 20
-140.641027796871
 10
89.32478025110631
 20
-140.641027796871
 10
89.1006767897908
 20
-140.641027796871
 10
89.1006767897908
 20
-140.641027796871
 10
89.10911727372967
 20
-140.5140760282395
 10
89.11962481495967
 20
-140.4019381701946
 10
89.20006779454025
 20
-140.283426885502
 10
89.30996634051973
 20
-140.1227131811151
 10
89.49617375149749
 20
-140.0887789905854
 10
89.61261797889894
 20
-140.0887789905854
 10
89.88977591068728
 20
-140.0887789905854
 10
90.09699840412507
 20
-140.272919344272
 10
90.09699840412507
 20
-140.5457709067038
 10
90.09699840412507
 20
-140.7741807373759
 10
89.98072643149788
 20
-140.8737439968996
 10
89.67187362124523
 20
-141.1000867702805
 97
        0
 97
        1
330
12A
 75
     2
 76
     1
 98
        1
 10
0.0
 20
0.0
450
        0
451
        0
460
0.0
461
0.0
452
        0
462
0.0
453
        0
470

  0
SPLINE
  5
12C
330
126
100
AcDbEntity
  8
レイヤー 1
100
AcDbSpline
210
0.0
220
0.0
230
1.0
 70
    11
 71
     3
 72
    26
 73
    22
 74
     0
 42
0.0000000001
 43
0.0000000001
 40
0.0
 40
0.0
 40
0.0
 40
0.0
 40
1.0
 40
1.0
 40
1.0
 40
2.0
 40
2.0
 40
2.0
 40
3.0
 40
3.0
 40
3.0
 40
4.0
 40
4.0
 40
4.0
 40
5.0
 40
5.0
 40
5.0
 40
6.0
 40
6.0
 40
6.0
 40
7.0
 40
7.0
 40
7.0
 40
7.0
 10
90.70695255978854
 20
-141.6817911429649
 30
0.0
 10
90.70695255978854
 20
-141.6817911429649
 30
0.0
 10
90.70695255978854
 20
-140.5774657851681
 30
0.0
 10
90.70695255978854
 20
-140.5774657851681
 30
0.0
 10
90.70695255978854
 20
-140.5774657851681
 30
0.0
 10
90.37691241230161
 20
-140.5774657851681
 30
0.0
 10
90.37691241230161
 20
-140.5774657851681
 30
0.0
 10
90.37691241230161
 20
-140.5774657851681
 30
0.0
 10
90.37691241230161
 20
-140.4293266793024
 30
0.0
 10
90.37691241230161
 20
-140.4293266793024
 30
0.0
 10
90.70901961707969
 20
-140.4146850234901
 30
0.0
 10
90.75552840613056
 20
-140.2517320070377
 30
0.0
 10
90.78515622730371
 20
-140.1375270917017
 30
0.0
 10
90.78515622730371
 20
-140.1375270917017
 30
0.0
 10
90.93122827587832
 20
-140.1375270917017
 30
0.0
 10
90.93122827587832
 20
-140.1375270917017
 30
0.0
 10
90.93122827587832
 20
-140.1375270917017
 30
0.0
 10
90.93122827587832
 20
-141.6817911429649
 30
0.0
 10
90.93122827587832
 20
-141.6817911429649
 30
0.0
 10
90.93122827587832
 20
-141.6817911429649
 30
0.0
 10
90.70695255978854
 20
-141.6817911429649
 30
0.0
 10
90.70695255978854
 20
-141.6817911429649
 30
0.0
  0
HATCH
  5
12D
330
126
100
AcDbEntity
  8
レイヤー 1
 62
   250
420
  2299925
440
 33554687
100
AcDbHatch
 10
0.0
 20
0.0
 30
0.0
210
0.0
220
0.0
230
1.0
  2
SOLID
 70
     1
 71
     1
 91
        1
 92
        1
 93
        1
 72
     4
 94
        3
 73
     0
 74
     0
 95
       26
 96
       22
 40
0.0
 40
0.0
 40
0.0
 40
0.0
 40
1.0
 40
1.0
 40
1.0
 40
2.0
 40
2.0
 40
2.0
 40
3.0
 40
3.0
 40
3.0
 40
4.0
 40
4.0
 40
4.0
 40
5.0
 40
5.0
 40
5.0
 40
6.0
 40
6.0
 40
6.0
 40
7.0
 40
7.0
 40
7.0
 40
7.0
 10
90.70695255978854
 20
-141.6817911429649
 10
90.70695255978854
 20
-141.6817911429649
 10
90.70695255978854
 20
-140.5774657851681
 10
90.70695255978854
 20
-140.5774657851681
 10
90.70695255978854
 20
-140.5774657851681
 10
90.37691241230161
 20
-140.5774657851681
 10
90.37691241230161
 20
-140.5774657851681
 10
90.37691241230161
 20
-140.5774657851681
 10
90.37691241230161
 20
-140.4293266793024
 10
90.37691241230161
 20
-140.4293266793024
 10
90.70901961707969
 20
-140.4146850234901
 10
90.75552840613056
 20
-140.2517320070377
 10
90.78515622730371
 20
-140.1375270917017
 10
90.78515622730371
 20
-140.1375270917017
 10
90.93122827587832
 20
-140.1375270917017
 10
90.93122827587832
 20
-140.1375270917017
 10
90.93122827587832
 20
-140.1375270917017
 10
90.93122827587832
 20
-141.6817911429649
 10
90.93122827587832
 20
-141.6817911429649
 10
90.93122827587832
 20
-141.6817911429649
 10
90.70695255978854
 20
-141.6817911429649
 10
90.70695255978854
 20
-141.6817911429649
 97
        0
 97
        1
330
12C
 75
     2
 76
     1
 98
        1
 10
0.0
 20
0.0
450
        0
451
        0
460
0.0
461
0.0
452
        0
462
0.0
453
        0
470

  0
ENDBLK
  5
129
330
126
100
AcDbEntity
  8
0
100
AcDbBlockEnd
  0
BLOCK
  5
132
330
130
100
AcDbEntity
  8
0
100
AcDbBlockBegin
  2
Block_8
 70
     0
 10
0.0
 20
0.0
 30
0.0
  3
Block_8
  1

  0
SPLINE
  5
134
330
130
100
AcDbEntity
  8
レイヤー 1
100
AcDbSpline
210
0.0
220
0.0
230
1.0
 70
     9
 71
     3
 72
    53
 73
    49
 74
     0
 42
0.0000000001
 43
0.0000000001
 40
0.0
 40
0.0
 40
0.0
 40
0.0
 40
1.0
 40
1.0
 40
1.0
 40
2.0
 40
2.0
 40
2.0
 40
3.0
 40
3.0
 40
3.0
 40
4.0
 40
4.0
 40
4.0
 40
5.0
 40
5.0
 40
5.0
 40
6.0
 40
6.0
 40
6.0
 40
7.0
 40
7.0
 40
7.0
 40
8.0
 40
8.0
 40
8.0
 40
9.0
 40
9.0
 40
9.0
 40
10.0
 40
10.0
 40
10.0
 40
11.0
 40
11.0
 40
11.0
 40
12.0
 40
12.0
 40
12.0
 40
13.0
 40
13.0
 40
13.0
 40
14.0
 40
14.0
 40
14.0
 40
15.0
 40
15.0
 40
15.0
 40
16.0
 40
16.0
 40
16.0
 40
16.0
 10
76.85095077288796
 20
-151.0271294110279
 30
0.0
 10
76.85095077288796
 20
-151.1053330785431
 30
0.0
 10
76.83389755023597
 20
-151.206963395358
 30
0.0
 10
76.77050779330738
 20
-151.3085937121728
 30
0.0
 10
76.66043699255364
 20
-151.4818820150809
 30
0.0
 10
76.52935110933988
 20
-151.5032416070894
 30
0.0
 10
76.42151962065156
 20
-151.5221896322583
 30
0.0
 10
76.42151962065156
 20
-151.5221896322583
 30
0.0
 10
76.42151962065156
 20
-151.2999809734597
 30
0.0
 10
76.42151962065156
 20
-151.2999809734597
 30
0.0
 10
76.62030163015048
 20
-151.2452039552442
 30
0.0
 10
76.64992945132363
 20
-151.1180799318385
 30
0.0
 10
76.64992945132363
 20
-151.0250623537368
 30
0.0
 10
76.64992945132363
 20
-150.8855359865842
 30
0.0
 10
76.55053844657418
 20
-150.7332627661361
 30
0.0
 10
76.31782224654554
 20
-150.7332627661361
 30
0.0
 10
76.06185165199149
 20
-150.7332627661361
 30
0.0
 10
75.99208846841517
 20
-150.9130967504662
 30
0.0
 10
75.99208846841517
 20
-151.0336750924499
 30
0.0
 10
75.99208846841517
 20
-151.0653699709142
 30
0.0
 10
75.99208846841517
 20
-151.206963395358
 30
0.0
 10
76.12110729433777
 20
-151.2958468588774
 30
0.0
 10
76.12110729433777
 20
-151.2958468588774
 30
0.0
 10
76.10198701439465
 20
-151.4715467286252
 30
0.0
 10
76.10198701439465
 20
-151.4715467286252
 30
0.0
 10
76.10198701439465
 20
-151.4715467286252
 30
0.0
 10
75.25587156321728
 20
-151.3509683866414
 30
0.0
 10
75.25587156321728
 20
-151.3509683866414
 30
0.0
 10
75.25587156321728
 20
-151.3509683866414
 30
0.0
 10
75.25587156321728
 20
-150.5723768069749
 30
0.0
 10
75.25587156321728
 20
-150.5723768069749
 30
0.0
 10
75.25587156321728
 20
-150.5723768069749
 30
0.0
 10
75.4505194581339
 20
-150.5723768069749
 30
0.0
 10
75.4505194581339
 20
-150.5723768069749
 30
0.0
 10
75.4505194581339
 20
-150.5723768069749
 30
0.0
 10
75.4505194581339
 20
-151.1880153701891
 30
0.0
 10
75.4505194581339
 20
-151.1880153701891
 30
0.0
 10
75.4505194581339
 20
-151.1880153701891
 30
0.0
 10
75.87357718372259
 20
-151.2534721844088
 30
0.0
 10
75.87357718372259
 20
-151.2534721844088
 30
0.0
 10
75.83964299319287
 20
-151.1921494847714
 30
0.0
 10
75.7995076307897
 20
-151.1098117026739
 30
0.0
 10
75.7995076307897
 20
-150.9913004179813
 30
0.0
 10
75.7995076307897
 20
-150.7373968807184
 30
0.0
 10
75.98571504176746
 20
-150.5003743113332
 30
0.0
 10
76.29870196660241
 20
-150.5003743113332
 30
0.0
 10
76.61616751556818
 20
-150.5003743113332
 30
0.0
 10
76.85095077288796
 20
-150.724650027423
 30
0.0
 10
76.85095077288796
 20
-151.0271294110279
 30
0.0
  0
HATCH
  5
135
330
130
100
AcDbEntity
  8
レイヤー 1
 62
   250
420
  2299925
440
 33554687
100
AcDbHatch
 10
0.0
 20
0.0
 30
0.0
210
0.0
220
0.0
230
1.0
  2
SOLID
 70
     1
 71
     1
 91
        1
 92
        1
 93
        1
 72
     4
 94
        3
 73
     0
 74
     0
 95
       53
 96
       49
 40
0.0
 40
0.0
 40
0.0
 40
0.0
 40
1.0
 40
1.0
 40
1.0
 40
2.0
 40
2.0
 40
2.0
 40
3.0
 40
3.0
 40
3.0
 40
4.0
 40
4.0
 40
4.0
 40
5.0
 40
5.0
 40
5.0
 40
6.0
 40
6.0
 40
6.0
 40
7.0
 40
7.0
 40
7.0
 40
8.0
 40
8.0
 40
8.0
 40
9.0
 40
9.0
 40
9.0
 40
10.0
 40
10.0
 40
10.0
 40
11.0
 40
11.0
 40
11.0
 40
12.0
 40
12.0
 40
12.0
 40
13.0
 40
13.0
 40
13.0
 40
14.0
 40
14.0
 40
14.0
 40
15.0
 40
15.0
 40
15.0
 40
16.0
 40
16.0
 40
16.0
 40
16.0
 10
76.85095077288796
 20
-151.0271294110279
 10
76.85095077288796
 20
-151.1053330785431
 10
76.83389755023597
 20
-151.206963395358
 10
76.77050779330738
 20
-151.3085937121728
 10
76.66043699255364
 20
-151.4818820150809
 10
76.52935110933988
 20
-151.5032416070894
 10
76.42151962065156
 20
-151.5221896322583
 10
76.42151962065156
 20
-151.5221896322583
 10
76.42151962065156
 20
-151.2999809734597
 10
76.42151962065156
 20
-151.2999809734597
 10
76.62030163015048
 20
-151.2452039552442
 10
76.64992945132363
 20
-151.1180799318385
 10
76.64992945132363
 20
-151.0250623537368
 10
76.64992945132363
 20
-150.8855359865842
 10
76.55053844657418
 20
-150.7332627661361
 10
76.31782224654554
 20
-150.7332627661361
 10
76.06185165199149
 20
-150.7332627661361
 10
75.99208846841517
 20
-150.9130967504662
 10
75.99208846841517
 20
-151.0336750924499
 10
75.99208846841517
 20
-151.0653699709142
 10
75.99208846841517
 20
-151.206963395358
 10
76.12110729433777
 20
-151.2958468588774
 10
76.12110729433777
 20
-151.2958468588774
 10
76.10198701439465
 20
-151.4715467286252
 10
76.10198701439465
 20
-151.4715467286252
 10
76.10198701439465
 20
-151.4715467286252
 10
75.25587156321728
 20
-151.3509683866414
 10
75.25587156321728
 20
-151.3509683866414
 10
75.25587156321728
 20
-151.3509683866414
 10
75.25587156321728
 20
-150.5723768069749
 10
75.25587156321728
 20
-150.5723768069749
 10
75.25587156321728
 20
-150.5723768069749
 10
75.4505194581339
 20
-150.5723768069749
 10
75.4505194581339
 20
-150.5723768069749
 10
75.4505194581339
 20
-150.5723768069749
 10
75.4505194581339
 20
-151.1880153701891
 10
75.4505194581339
 20
-151.1880153701891
 10
75.4505194581339
 20
-151.1880153701891
 10
75.87357718372259
 20
-151.2534721844088
 10
75.87357718372259
 20
-151.2534721844088
 10
75.83964299319287
 20
-151.1921494847714
 10
75.7995076307897
 20
-151.1098117026739
 10
75.7995076307897
 20
-150.9913004179813
 10
75.7995076307897
 20
-150.7373968807184
 10
75.98571504176746
 20
-150.5003743113332
 10
76.29870196660241
 20
-150.5003743113332
 10
76.61616751556818
 20
-150.5003743113332
 10
76.85095077288796
 20
-150.724650027423
 10
76.85095077288796
 20
-151.0271294110279
 97
        0
 97
        1
330
134
 75
     2
 76
     1
 98
        1
 10
0.0
 20
0.0
450
        0
451
        0
460
0.0
461
0.0
452
        0
462
0.0
453
        0
470

  0
ENDBLK
  5
133
330
130
100
AcDbEntity
  8
0
100
AcDbBlockEnd
  0
BLOCK
  5
13A
330
138
100
AcDbEntity
  8
0
100
AcDbBlockBegin
  2
Block_9
 70
     0
 10
0.0
 20
0.0
 30
0.0
  3
Block_9
  1

  0
INSERT
  5
13D
330
138
100
AcDbEntity
  8
レイヤー 1
100
AcDbBlockReference
  2
Block_10
 10
0.0
 20
0.0
 30
0.0
  0
ENDBLK
  5
13B
330
138
100
AcDbEntity
  8
0
100
AcDbBlockEnd
  0
BLOCK
  5
13E
330
13C
100
AcDbEntity
  8
0
100
AcDbBlockBegin
  2
Block_10
 70
     0
 10
0.0
 20
0.0
 30
0.0
  3
Block_10
  1

  0
SPLINE
  5
140
330
13C
100
AcDbEntity
  8
レイヤー 1
100
AcDbSpline
210
0.0
220
0.0
230
1.0
 70
     9
 71
     3
 72
    44
 73
    40
 74
     0
 42
0.0000000001
 43
0.0000000001
 40
0.0
 40
0.0
 40
0.0
 40
0.0
 40
1.0
 40
1.0
 40
1.0
 40
2.0
 40
2.0
 40
2.0
 40
3.0
 40
3.0
 40
3.0
 40
4.0
 40
4.0
 40
4.0
 40
5.0
 40
5.0
 40
5.0
 40
6.0
 40
6.0
 40
6.0
 40
7.0
 40
7.0
 40
7.0
 40
8.0
 40
8.0
 40
8.0
 40
9.0
 40
9.0
 40
9.0
 40
10.0
 40
10.0
 40
10.0
 40
11.0
 40
11.0
 40
11.0
 40
12.0
 40
12.0
 40
12.0
 40
13.0
 40
13.0
 40
13.0
 40
13.0
 10
120.6730821095886
 20
-141.1000867702805
 30
0.0
 10
120.4553520749209
 20
-141.2587334173763
 30
0.0
 10
120.3623344968191
 20
-141.3328029703091
 30
0.0
 10
120.3134141409286
 20
-141.4766357068183
 30
0.0
 10
120.3134141409286
 20
-141.4766357068183
 30
0.0
 10
121.092005720595
 20
-141.4766357068183
 30
0.0
 10
121.092005720595
 20
-141.4766357068183
 30
0.0
 10
121.092005720595
 20
-141.4766357068183
 30
0.0
 10
121.092005720595
 20
-141.6817911429649
 30
0.0
 10
121.092005720595
 20
-141.6817911429649
 30
0.0
 10
121.092005720595
 20
-141.6817911429649
 30
0.0
 10
120.0639892277965
 20
-141.6817911429649
 30
0.0
 10
120.0639892277965
 20
-141.6817911429649
 30
0.0
 10
120.0956841062608
 20
-141.324190231596
 30
0.0
 10
120.1611409204805
 20
-141.2459865640808
 30
0.0
 10
120.5463025957315
 20
-140.9476412950582
 30
0.0
 10
120.8022731902855
 20
-140.7488592855593
 30
0.0
 10
120.8677300045053
 20
-140.6811631592741
 30
0.0
 10
120.8677300045053
 20
-140.5437038494127
 30
0.0
 10
120.8677300045053
 20
-140.4251925647201
 30
0.0
 10
120.7957275088636
 20
-140.2939344267321
 30
0.0
 10
120.5990125566558
 20
-140.2939344267321
 30
0.0
 10
120.3389078475194
 20
-140.2939344267321
 30
0.0
 10
120.3306396183548
 20
-140.5245835694695
 30
0.0
 10
120.326160994224
 20
-140.641027796871
 30
0.0
 10
120.326160994224
 20
-140.641027796871
 30
0.0
 10
120.1018852781342
 20
-140.641027796871
 30
0.0
 10
120.1018852781342
 20
-140.641027796871
 30
0.0
 10
120.1104980168474
 20
-140.5140760282395
 30
0.0
 10
120.1211778128516
 20
-140.4019381701946
 30
0.0
 10
120.2014485376579
 20
-140.283426885502
 30
0.0
 10
120.3113470836374
 20
-140.1227131811151
 30
0.0
 10
120.4977267493894
 20
-140.0887789905854
 30
0.0
 10
120.6138264672423
 20
-140.0887789905854
 30
0.0
 10
120.891156653805
 20
-140.0887789905854
 30
0.0
 10
121.098551402017
 20
-140.272919344272
 30
0.0
 10
121.098551402017
 20
-140.5457709067038
 30
0.0
 10
121.098551402017
 20
-140.7741807373759
 30
0.0
 10
120.9821071746156
 20
-140.8737439968996
 30
0.0
 10
120.6730821095886
 20
-141.1000867702805
 30
0.0
  0
HATCH
  5
141
330
13C
100
AcDbEntity
  8
レイヤー 1
 62
   250
420
  2299925
440
 33554687
100
AcDbHatch
 10
0.0
 20
0.0
 30
0.0
210
0.0
220
0.0
230
1.0
  2
SOLID
 70
     1
 71
     1
 91
        1
 92
        1
 93
        1
 72
     4
 94
        3
 73
     0
 74
     0
 95
       44
 96
       40
 40
0.0
 40
0.0
 40
0.0
 40
0.0
 40
1.0
 40
1.0
 40
1.0
 40
2.0
 40
2.0
 40
2.0
 40
3.0
 40
3.0
 40
3.0
 40
4.0
 40
4.0
 40
4.0
 40
5.0
 40
5.0
 40
5.0
 40
6.0
 40
6.0
 40
6.0
 40
7.0
 40
7.0
 40
7.0
 40
8.0
 40
8.0
 40
8.0
 40
9.0
 40
9.0
 40
9.0
 40
10.0
 40
10.0
 40
10.0
 40
11.0
 40
11.0
 40
11.0
 40
12.0
 40
12.0
 40
12.0
 40
13.0
 40
13.0
 40
13.0
 40
13.0
 10
120.6730821095886
 20
-141.1000867702805
 10
120.4553520749209
 20
-141.2587334173763
 10
120.3623344968191
 20
-141.3328029703091
 10
120.3134141409286
 20
-141.4766357068183
 10
120.3134141409286
 20
-141.4766357068183
 10
121.092005720595
 20
-141.4766357068183
 10
121.092005720595
 20
-141.4766357068183
 10
121.092005720595
 20
-141.4766357068183
 10
121.092005720595
 20
-141.6817911429649
 10
121.092005720595
 20
-141.6817911429649
 10
121.092005720595
 20
-141.6817911429649
 10
120.0639892277965
 20
-141.6817911429649
 10
120.0639892277965
 20
-141.6817911429649
 10
120.0956841062608
 20
-141.324190231596
 10
120.1611409204805
 20
-141.2459865640808
 10
120.5463025957315
 20
-140.9476412950582
 10
120.8022731902855
 20
-140.7488592855593
 10
120.8677300045053
 20
-140.6811631592741
 10
120.8677300045053
 20
-140.5437038494127
 10
120.8677300045053
 20
-140.4251925647201
 10
120.7957275088636
 20
-140.2939344267321
 10
120.5990125566558
 20
-140.2939344267321
 10
120.3389078475194
 20
-140.2939344267321
 10
120.3306396183548
 20
-140.5245835694695
 10
120.326160994224
 20
-140.641027796871
 10
120.326160994224
 20
-140.641027796871
 10
120.1018852781342
 20
-140.641027796871
 10
120.1018852781342
 20
-140.641027796871
 10
120.1104980168474
 20
-140.5140760282395
 10
120.1211778128516
 20
-140.4019381701946
 10
120.2014485376579
 20
-140.283426885502
 10
120.3113470836374
 20
-140.1227131811151
 10
120.4977267493894
 20
-140.0887789905854
 10
120.6138264672423
 20
-140.0887789905854
 10
120.891156653805
 20
-140.0887789905854
 10
121.098551402017
 20
-140.272919344272
 10
121.098551402017
 20
-140.5457709067038
 10
121.098551402017
 20
-140.7741807373759
 10
120.9821071746156
 20
-140.8737439968996
 10
120.6730821095886
 20
-141.1000867702805
 97
        0
 97
        1
330
140
 75
     2
 76
     1
 98
        1
 10
0.0
 20
0.0
450
        0
451
        0
460
0.0
461
0.0
452
        0
462
0.0
453
        0
470

  0
SPLINE
  5
142
330
13C
100
AcDbEntity
  8
レイヤー 1
100
AcDbSpline
210
0.0
220
0.0
230
1.0
 70
    11
 71
     3
 72
    26
 73
    22
 74
     0
 42
0.0000000001
 43
0.0000000001
 40
0.0
 40
0.0
 40
0.0
 40
0.0
 40
1.0
 40
1.0
 40
1.0
 40
2.0
 40
2.0
 40
2.0
 40
3.0
 40
3.0
 40
3.0
 40
4.0
 40
4.0
 40
4.0
 40
5.0
 40
5.0
 40
5.0
 40
6.0
 40
6.0
 40
6.0
 40
7.0
 40
7.0
 40
7.0
 40
7.0
 10
121.7083333029062
 20
-141.6817911429649
 30
0.0
 10
121.7083333029062
 20
-141.6817911429649
 30
0.0
 10
121.7083333029062
 20
-140.5774657851681
 30
0.0
 10
121.7083333029062
 20
-140.5774657851681
 30
0.0
 10
121.7083333029062
 20
-140.5774657851681
 30
0.0
 10
121.3782931554193
 20
-140.5774657851681
 30
0.0
 10
121.3782931554193
 20
-140.5774657851681
 30
0.0
 10
121.3782931554193
 20
-140.5774657851681
 30
0.0
 10
121.3782931554193
 20
-140.4293266793024
 30
0.0
 10
121.3782931554193
 20
-140.4293266793024
 30
0.0
 10
121.7104003601974
 20
-140.4146850234901
 30
0.0
 10
121.7569091492483
 20
-140.2517320070377
 30
0.0
 10
121.7865369704214
 20
-140.1375270917017
 30
0.0
 10
121.7865369704214
 20
-140.1375270917017
 30
0.0
 10
121.932609018996
 20
-140.1375270917017
 30
0.0
 10
121.932609018996
 20
-140.1375270917017
 30
0.0
 10
121.932609018996
 20
-140.1375270917017
 30
0.0
 10
121.932609018996
 20
-141.6817911429649
 30
0.0
 10
121.932609018996
 20
-141.6817911429649
 30
0.0
 10
121.932609018996
 20
-141.6817911429649
 30
0.0
 10
121.7083333029062
 20
-141.6817911429649
 30
0.0
 10
121.7083333029062
 20
-141.6817911429649
 30
0.0
  0
HATCH
  5
143
330
13C
100
AcDbEntity
  8
レイヤー 1
 62
   250
420
  2299925
440
 33554687
100
AcDbHatch
 10
0.0
 20
0.0
 30
0.0
210
0.0
220
0.0
230
1.0
  2
SOLID
 70
     1
 71
     1
 91
        1
 92
        1
 93
        1
 72
     4
 94
        3
 73
     0
 74
     0
 95
       26
 96
       22
 40
0.0
 40
0.0
 40
0.0
 40
0.0
 40
1.0
 40
1.0
 40
1.0
 40
2.0
 40
2.0
 40
2.0
 40
3.0
 40
3.0
 40
3.0
 40
4.0
 40
4.0
 40
4.0
 40
5.0
 40
5.0
 40
5.0
 40
6.0
 40
6.0
 40
6.0
 40
7.0
 40
7.0
 40
7.0
 40
7.0
 10
121.7083333029062
 20
-141.6817911429649
 10
121.7083333029062
 20
-141.6817911429649
 10
121.7083333029062
 20
-140.5774657851681
 10
121.7083333029062
 20
-140.5774657851681
 10
121.7083333029062
 20
-140.5774657851681
 10
121.3782931554193
 20
-140.5774657851681
 10
121.3782931554193
 20
-140.5774657851681
 10
121.3782931554193
 20
-140.5774657851681
 10
121.3782931554193
 20
-140.4293266793024
 10
121.3782931554193
 20
-140.4293266793024
 10
121.7104003601974
 20
-140.4146850234901
 10
121.7569091492483
 20
-140.2517320070377
 10
121.7865369704214
 20
-140.1375270917017
 10
121.7865369704214
 20
-140.1375270917017
 10
121.932609018996
 20
-140.1375270917017
 10
121.932609018996
 20
-140.1375270917017
 10
121.932609018996
 20
-140.1375270917017
 10
121.932609018996
 20
-141.6817911429649
 10
121.932609018996
 20
-141.6817911429649
 10
121.932609018996
 20
-141.6817911429649
 10
121.7083333029062
 20
-141.6817911429649
 10
121.7083333029062
 20
-141.6817911429649
 97
        0
 97
        1
330
142
 75
     2
 76
     1
 98
        1
 10
0.0
 20
0.0
450
        0
451
        0
460
0.0
461
0.0
452
        0
462
0.0
453
        0
470

  0
ENDBLK
  5
13F
330
13C
100
AcDbEntity
  8
0
100
AcDbBlockEnd
  0
BLOCK
  5
149
330
147
100
AcDbEntity
  8
0
100
AcDbBlockBegin
  2
Block_11
 70
     0
 10
0.0
 20
0.0
 30
0.0
  3
Block_11
  1

  0
INSERT
  5
14C
330
147
100
AcDbEntity
  8
レイヤー 1
100
AcDbBlockReference
  2
Block_12
 10
0.0
 20
0.0
 30
0.0
  0
ENDBLK
  5
14A
330
147
100
AcDbEntity
  8
0
100
AcDbBlockEnd
  0
BLOCK
  5
14D
330
14B
100
AcDbEntity
  8
0
100
AcDbBlockBegin
  2
Block_12
 70
     0
 10
0.0
 20
0.0
 30
0.0
  3
Block_12
  1

  0
SPLINE
  5
14F
330
14B
100
AcDbEntity
  8
レイヤー 1
100
AcDbSpline
210
0.0
220
0.0
230
1.0
 70
    11
 71
     3
 72
    26
 73
    22
 74
     0
 42
0.0000000001
 43
0.0000000001
 40
0.0
 40
0.0
 40
0.0
 40
0.0
 40
1.0
 40
1.0
 40
1.0
 40
2.0
 40
2.0
 40
2.0
 40
3.0
 40
3.0
 40
3.0
 40
4.0
 40
4.0
 40
4.0
 40
5.0
 40
5.0
 40
5.0
 40
6.0
 40
6.0
 40
6.0
 40
7.0
 40
7.0
 40
7.0
 40
7.0
 10
105.030798313586
 20
-141.6817911429649
 30
0.0
 10
105.030798313586
 20
-141.6817911429649
 30
0.0
 10
105.030798313586
 20
-140.5774657851681
 30
0.0
 10
105.030798313586
 20
-140.5774657851681
 30
0.0
 10
105.030798313586
 20
-140.5774657851681
 30
0.0
 10
104.7007581660991
 20
-140.5774657851681
 30
0.0
 10
104.7007581660991
 20
-140.5774657851681
 30
0.0
 10
104.7007581660991
 20
-140.5774657851681
 30
0.0
 10
104.7007581660991
 20
-140.4293266793024
 30
0.0
 10
104.7007581660991
 20
-140.4293266793024
 30
0.0
 10
105.0328653708772
 20
-140.4146850234901
 30
0.0
 10
105.079374159928
 20
-140.2517320070377
 30
0.0
 10
105.1090019811012
 20
-140.1375270917017
 30
0.0
 10
105.1090019811012
 20
-140.1375270917017
 30
0.0
 10
105.2550740296758
 20
-140.1375270917017
 30
0.0
 10
105.2550740296758
 20
-140.1375270917017
 30
0.0
 10
105.2550740296758
 20
-140.1375270917017
 30
0.0
 10
105.2550740296758
 20
-141.6817911429649
 30
0.0
 10
105.2550740296758
 20
-141.6817911429649
 30
0.0
 10
105.2550740296758
 20
-141.6817911429649
 30
0.0
 10
105.030798313586
 20
-141.6817911429649
 30
0.0
 10
105.030798313586
 20
-141.6817911429649
 30
0.0
  0
HATCH
  5
150
330
14B
100
AcDbEntity
  8
レイヤー 1
 62
   250
420
  2299925
440
 33554687
100
AcDbHatch
 10
0.0
 20
0.0
 30
0.0
210
0.0
220
0.0
230
1.0
  2
SOLID
 70
     1
 71
     1
 91
        1
 92
        1
 93
        1
 72
     4
 94
        3
 73
     0
 74
     0
 95
       26
 96
       22
 40
0.0
 40
0.0
 40
0.0
 40
0.0
 40
1.0
 40
1.0
 40
1.0
 40
2.0
 40
2.0
 40
2.0
 40
3.0
 40
3.0
 40
3.0
 40
4.0
 40
4.0
 40
4.0
 40
5.0
 40
5.0
 40
5.0
 40
6.0
 40
6.0
 40
6.0
 40
7.0
 40
7.0
 40
7.0
 40
7.0
 10
105.030798313586
 20
-141.6817911429649
 10
105.030798313586
 20
-141.6817911429649
 10
105.030798313586
 20
-140.5774657851681
 10
105.030798313586
 20
-140.5774657851681
 10
105.030798313586
 20
-140.5774657851681
 10
104.7007581660991
 20
-140.5774657851681
 10
104.7007581660991
 20
-140.5774657851681
 10
104.7007581660991
 20
-140.5774657851681
 10
104.7007581660991
 20
-140.4293266793024
 10
104.7007581660991
 20
-140.4293266793024
 10
105.0328653708772
 20
-140.4146850234901
 10
105.079374159928
 20
-140.2517320070377
 10
105.1090019811012
 20
-140.1375270917017
 10
105.1090019811012
 20
-140.1375270917017
 10
105.2550740296758
 20
-140.1375270917017
 10
105.2550740296758
 20
-140.1375270917017
 10
105.2550740296758
 20
-140.1375270917017
 10
105.2550740296758
 20
-141.6817911429649
 10
105.2550740296758
 20
-141.6817911429649
 10
105.2550740296758
 20
-141.6817911429649
 10
105.030798313586
 20
-141.6817911429649
 10
105.030798313586
 20
-141.6817911429649
 97
        0
 97
        1
330
14F
 75
     2
 76
     1
 98
        1
 10
0.0
 20
0.0
450
        0
451
        0
460
0.0
461
0.0
452
        0
462
0.0
453
        0
470

  0
SPLINE
  5
151
330
14B
100
AcDbEntity
  8
レイヤー 1
100
AcDbSpline
210
0.0
220
0.0
230
1.0
 70
     9
 71
     3
 72
    17
 73
    13
 74
     0
 42
0.0000000001
 43
0.0000000001
 40
0.0
 40
0.0
 40
0.0
 40
0.0
 40
1.0
 40
1.0
 40
1.0
 40
2.0
 40
2.0
 40
2.0
 40
3.0
 40
3.0
 40
3.0
 40
4.0
 40
4.0
 40
4.0
 40
4.0
 10
106.2563910324637
 20
-140.2813598282109
 30
0.0
 10
106.006621609783
 20
-140.2813598282109
 30
0.0
 10
105.9601128207322
 20
-140.5647189318727
 30
0.0
 10
105.9601128207322
 20
-140.9095729899462
 30
0.0
 10
105.9601128207322
 20
-141.2291055962031
 30
0.0
 10
105.9962863233273
 20
-141.5379584064558
 30
0.0
 10
106.2563910324637
 20
-141.5379584064558
 30
0.0
 10
106.5040933978531
 20
-141.5379584064558
 30
0.0
 10
106.5526692441951
 20
-141.2564941053108
 30
0.0
 10
106.5526692441951
 20
-140.9095729899462
 30
0.0
 10
106.5526692441951
 20
-140.5902126384635
 30
0.0
 10
106.5144286843089
 20
-140.2813598282109
 30
0.0
 10
106.2563910324637
 20
-140.2813598282109
 30
0.0
  0
SPLINE
  5
152
330
14B
100
AcDbEntity
  8
レイヤー 1
100
AcDbSpline
210
0.0
220
0.0
230
1.0
 70
     9
 71
     3
 72
    29
 73
    25
 74
     0
 42
0.0000000001
 43
0.0000000001
 40
0.0
 40
0.0
 40
0.0
 40
0.0
 40
1.0
 40
1.0
 40
1.0
 40
2.0
 40
2.0
 40
2.0
 40
3.0
 40
3.0
 40
3.0
 40
4.0
 40
4.0
 40
4.0
 40
5.0
 40
5.0
 40
5.0
 40
6.0
 40
6.0
 40
6.0
 40
7.0
 40
7.0
 40
7.0
 40
8.0
 40
8.0
 40
8.0
 40
8.0
 10
106.65429956101
 20
-141.504024215926
 30
0.0
 10
106.5461235627732
 20
-141.7134860214293
 30
0.0
 10
106.3728352598651
 20
-141.7326063013724
 30
0.0
 10
106.2563910324637
 20
-141.7326063013724
 30
0.0
 10
106.0955050733025
 20
-141.7326063013724
 30
0.0
 10
105.9539116488587
 20
-141.6860975123215
 30
0.0
 10
105.8588270134658
 20
-141.504024215926
 30
0.0
 10
105.7551296393598
 20
-141.3095485757837
 30
0.0
 10
105.7358371046424
 20
-141.0725260063985
 30
0.0
 10
105.7358371046424
 20
-140.9095729899462
 30
0.0
 10
105.7358371046424
 20
-140.765740253437
 30
0.0
 10
105.7530625820687
 20
-140.5140760282395
 30
0.0
 10
105.8588270134658
 20
-140.3151217639663
 30
0.0
 10
105.9666585021542
 20
-140.1120333851109
 30
0.0
 10
106.1275444613153
 20
-140.0887789905854
 30
0.0
 10
106.2563910324637
 20
-140.0887789905854
 30
0.0
 10
106.4152099343337
 20
-140.0887789905854
 30
0.0
 10
106.5588704160686
 20
-140.1332207223452
 30
0.0
 10
106.65429956101
 20
-140.3151217639663
 30
0.0
 10
106.7535183109852
 20
-140.5077026015918
 30
0.0
 10
106.7769449602849
 20
-140.7361124322639
 30
0.0
 10
106.7769449602849
 20
-140.9095729899462
 30
0.0
 10
106.7769449602849
 20
-141.0809664903374
 30
0.0
 10
106.7555853682764
 20
-141.3116156330749
 30
0.0
 10
106.65429956101
 20
-141.504024215926
 30
0.0
  0
HATCH
  5
153
330
14B
100
AcDbEntity
  8
レイヤー 1
 62
   250
420
  2299925
440
 33554687
100
AcDbHatch
 10
0.0
 20
0.0
 30
0.0
210
0.0
220
0.0
230
1.0
  2
SOLID
 70
     1
 71
     1
 91
        2
 92
        1
 93
        1
 72
     4
 94
        3
 73
     0
 74
     0
 95
       17
 96
       13
 40
0.0
 40
0.0
 40
0.0
 40
0.0
 40
1.0
 40
1.0
 40
1.0
 40
2.0
 40
2.0
 40
2.0
 40
3.0
 40
3.0
 40
3.0
 40
4.0
 40
4.0
 40
4.0
 40
4.0
 10
106.2563910324637
 20
-140.2813598282109
 10
106.006621609783
 20
-140.2813598282109
 10
105.9601128207322
 20
-140.5647189318727
 10
105.9601128207322
 20
-140.9095729899462
 10
105.9601128207322
 20
-141.2291055962031
 10
105.9962863233273
 20
-141.5379584064558
 10
106.2563910324637
 20
-141.5379584064558
 10
106.5040933978531
 20
-141.5379584064558
 10
106.5526692441951
 20
-141.2564941053108
 10
106.5526692441951
 20
-140.9095729899462
 10
106.5526692441951
 20
-140.5902126384635
 10
106.5144286843089
 20
-140.2813598282109
 10
106.2563910324637
 20
-140.2813598282109
 97
        0
 97
        1
330
151
 92
        1
 93
        1
 72
     4
 94
        3
 73
     0
 74
     0
 95
       29
 96
       25
 40
0.0
 40
0.0
 40
0.0
 40
0.0
 40
1.0
 40
1.0
 40
1.0
 40
2.0
 40
2.0
 40
2.0
 40
3.0
 40
3.0
 40
3.0
 40
4.0
 40
4.0
 40
4.0
 40
5.0
 40
5.0
 40
5.0
 40
6.0
 40
6.0
 40
6.0
 40
7.0
 40
7.0
 40
7.0
 40
8.0
 40
8.0
 40
8.0
 40
8.0
 10
106.65429956101
 20
-141.504024215926
 10
106.5461235627732
 20
-141.7134860214293
 10
106.3728352598651
 20
-141.7326063013724
 10
106.2563910324637
 20
-141.7326063013724
 10
106.0955050733025
 20
-141.7326063013724
 10
105.9539116488587
 20
-141.6860975123215
 10
105.8588270134658
 20
-141.504024215926
 10
105.7551296393598
 20
-141.3095485757837
 10
105.7358371046424
 20
-141.0725260063985
 10
105.7358371046424
 20
-140.9095729899462
 10
105.7358371046424
 20
-140.765740253437
 10
105.7530625820687
 20
-140.5140760282395
 10
105.8588270134658
 20
-140.3151217639663
 10
105.9666585021542
 20
-140.1120333851109
 10
106.1275444613153
 20
-140.0887789905854
 10
106.2563910324637
 20
-140.0887789905854
 10
106.4152099343337
 20
-140.0887789905854
 10
106.5588704160686
 20
-140.1332207223452
 10
106.65429956101
 20
-140.3151217639663
 10
106.7535183109852
 20
-140.5077026015918
 10
106.7769449602849
 20
-140.7361124322639
 10
106.7769449602849
 20
-140.9095729899462
 10
106.7769449602849
 20
-141.0809664903374
 10
106.7555853682764
 20
-141.3116156330749
 10
106.65429956101
 20
-141.504024215926
 97
        0
 97
        1
330
152
 75
     2
 76
     1
 98
        1
 10
0.0
 20
0.0
450
        0
451
        0
460
0.0
461
0.0
452
        0
462
0.0
453
        0
470

  0
ENDBLK
  5
14E
330
14B
100
AcDbEntity
  8
0
100
AcDbBlockEnd
  0
BLOCK
  5
15B
330
159
100
AcDbEntity
  8
0
100
AcDbBlockBegin
  2
Block_13
 70
     0
 10
0.0
 20
0.0
 30
0.0
  3
Block_13
  1

  0
INSERT
  5
15E
330
159
100
AcDbEntity
  8
レイヤー 1
100
AcDbBlockReference
  2
Block_14
 10
0.0
 20
0.0
 30
0.0
  0
ENDBLK
  5
15C
330
159
100
AcDbEntity
  8
0
100
AcDbBlockEnd
  0
BLOCK
  5
15F
330
15D
100
AcDbEntity
  8
0
100
AcDbBlockBegin
  2
Block_14
 70
     0
 10
0.0
 20
0.0
 30
0.0
  3
Block_14
  1

  0
SPLINE
  5
161
330
15D
100
AcDbEntity
  8
レイヤー 1
100
AcDbSpline
210
0.0
220
0.0
230
1.0
 70
    11
 71
     3
 72
    26
 73
    22
 74
     0
 42
0.0000000001
 43
0.0000000001
 40
0.0
 40
0.0
 40
0.0
 40
0.0
 40
1.0
 40
1.0
 40
1.0
 40
2.0
 40
2.0
 40
2.0
 40
3.0
 40
3.0
 40
3.0
 40
4.0
 40
4.0
 40
4.0
 40
5.0
 40
5.0
 40
5.0
 40
6.0
 40
6.0
 40
6.0
 40
7.0
 40
7.0
 40
7.0
 40
7.0
 10
105.347747098229
 20
-156.0573133290412
 30
0.0
 10
105.347747098229
 20
-156.0573133290412
 30
0.0
 10
105.347747098229
 20
-154.9531602260186
 30
0.0
 10
105.347747098229
 20
-154.9531602260186
 30
0.0
 10
105.347747098229
 20
-154.9531602260186
 30
0.0
 10
105.0177069507421
 20
-154.9531602260186
 30
0.0
 10
105.0177069507421
 20
-154.9531602260186
 30
0.0
 10
105.0177069507421
 20
-154.9531602260186
 30
0.0
 10
105.0177069507421
 20
-154.8050211201529
 30
0.0
 10
105.0177069507421
 20
-154.8050211201529
 30
0.0
 10
105.3498141555202
 20
-154.7902072095663
 30
0.0
 10
105.396322944571
 20
-154.627254193114
 30
0.0
 10
105.4259507657442
 20
-154.5128770230037
 30
0.0
 10
105.4259507657442
 20
-154.5128770230037
 30
0.0
 10
105.572195069093
 20
-154.5128770230037
 30
0.0
 10
105.572195069093
 20
-154.5128770230037
 30
0.0
 10
105.572195069093
 20
-154.5128770230037
 30
0.0
 10
105.572195069093
 20
-156.0573133290412
 30
0.0
 10
105.572195069093
 20
-156.0573133290412
 30
0.0
 10
105.572195069093
 20
-156.0573133290412
 30
0.0
 10
105.347747098229
 20
-156.0573133290412
 30
0.0
 10
105.347747098229
 20
-156.0573133290412
 30
0.0
  0
HATCH
  5
162
330
15D
100
AcDbEntity
  8
レイヤー 1
 62
   250
420
  2299925
440
 33554687
100
AcDbHatch
 10
0.0
 20
0.0
 30
0.0
210
0.0
220
0.0
230
1.0
  2
SOLID
 70
     1
 71
     1
 91
        1
 92
        1
 93
        1
 72
     4
 94
        3
 73
     0
 74
     0
 95
       26
 96
       22
 40
0.0
 40
0.0
 40
0.0
 40
0.0
 40
1.0
 40
1.0
 40
1.0
 40
2.0
 40
2.0
 40
2.0
 40
3.0
 40
3.0
 40
3.0
 40
4.0
 40
4.0
 40
4.0
 40
5.0
 40
5.0
 40
5.0
 40
6.0
 40
6.0
 40
6.0
 40
7.0
 40
7.0
 40
7.0
 40
7.0
 10
105.347747098229
 20
-156.0573133290412
 10
105.347747098229
 20
-156.0573133290412
 10
105.347747098229
 20
-154.9531602260186
 10
105.347747098229
 20
-154.9531602260186
 10
105.347747098229
 20
-154.9531602260186
 10
105.0177069507421
 20
-154.9531602260186
 10
105.0177069507421
 20
-154.9531602260186
 10
105.0177069507421
 20
-154.9531602260186
 10
105.0177069507421
 20
-154.8050211201529
 10
105.0177069507421
 20
-154.8050211201529
 10
105.3498141555202
 20
-154.7902072095663
 10
105.396322944571
 20
-154.627254193114
 10
105.4259507657442
 20
-154.5128770230037
 10
105.4259507657442
 20
-154.5128770230037
 10
105.572195069093
 20
-154.5128770230037
 10
105.572195069093
 20
-154.5128770230037
 10
105.572195069093
 20
-154.5128770230037
 10
105.572195069093
 20
-156.0573133290412
 10
105.572195069093
 20
-156.0573133290412
 10
105.572195069093
 20
-156.0573133290412
 10
105.347747098229
 20
-156.0573133290412
 10
105.347747098229
 20
-156.0573133290412
 97
        0
 97
        1
330
161
 75
     2
 76
     1
 98
        1
 10
0.0
 20
0.0
450
        0
451
        0
460
0.0
461
0.0
452
        0
462
0.0
453
        0
470

  0
SPLINE
  5
163
330
15D
100
AcDbEntity
  8
レイヤー 1
100
AcDbSpline
210
0.0
220
0.0
230
1.0
 70
     9
 71
     3
 72
    44
 73
    40
 74
     0
 42
0.0000000001
 43
0.0000000001
 40
0.0
 40
0.0
 40
0.0
 40
0.0
 40
1.0
 40
1.0
 40
1.0
 40
2.0
 40
2.0
 40
2.0
 40
3.0
 40
3.0
 40
3.0
 40
4.0
 40
4.0
 40
4.0
 40
5.0
 40
5.0
 40
5.0
 40
6.0
 40
6.0
 40
6.0
 40
7.0
 40
7.0
 40
7.0
 40
8.0
 40
8.0
 40
8.0
 40
9.0
 40
9.0
 40
9.0
 40
10.0
 40
10.0
 40
10.0
 40
11.0
 40
11.0
 40
11.0
 40
12.0
 40
12.0
 40
12.0
 40
13.0
 40
13.0
 40
13.0
 40
13.0
 10
106.6663573952084
 20
-155.4754367015825
 30
0.0
 10
106.4486273605406
 20
-155.6342556034525
 30
0.0
 10
106.3556097824388
 20
-155.7083251563854
 30
0.0
 10
106.3066894265483
 20
-155.8519856381203
 30
0.0
 10
106.3066894265483
 20
-155.8519856381203
 30
0.0
 10
107.0852810062148
 20
-155.8519856381203
 30
0.0
 10
107.0852810062148
 20
-155.8519856381203
 30
0.0
 10
107.0852810062148
 20
-155.8519856381203
 30
0.0
 10
107.0852810062148
 20
-156.0573133290412
 30
0.0
 10
107.0852810062148
 20
-156.0573133290412
 30
0.0
 10
107.0852810062148
 20
-156.0573133290412
 30
0.0
 10
106.0572645134162
 20
-156.0573133290412
 30
0.0
 10
106.0572645134162
 20
-156.0573133290412
 30
0.0
 10
106.0889593918805
 20
-155.6997124176723
 30
0.0
 10
106.1544162061003
 20
-155.6215087501571
 30
0.0
 10
106.5395778813512
 20
-155.3231634811345
 30
0.0
 10
106.7955484759053
 20
-155.1243814716356
 30
0.0
 10
106.861005290125
 20
-155.0565130905761
 30
0.0
 10
106.861005290125
 20
-154.9190537807147
 30
0.0
 10
106.861005290125
 20
-154.8005424960221
 30
0.0
 10
106.7890027944833
 20
-154.6696288675826
 30
0.0
 10
106.5922878422755
 20
-154.6696288675826
 30
0.0
 10
106.3321831331392
 20
-154.6696288675826
 30
0.0
 10
106.323570394426
 20
-154.9001057555458
 30
0.0
 10
106.3194362798437
 20
-155.0165499829472
 30
0.0
 10
106.3194362798437
 20
-155.0165499829472
 30
0.0
 10
106.095160563754
 20
-155.0165499829472
 30
0.0
 10
106.095160563754
 20
-155.0165499829472
 30
0.0
 10
106.1037733024671
 20
-154.8894259595415
 30
0.0
 10
106.1144530984714
 20
-154.7774603562709
 30
0.0
 10
106.1947238232777
 20
-154.6589490715783
 30
0.0
 10
106.3046223692572
 20
-154.4980631124171
 30
0.0
 10
106.4910020350092
 20
-154.4643011766617
 30
0.0
 10
106.6071017528621
 20
-154.4643011766617
 30
0.0
 10
106.8844319394247
 20
-154.4643011766617
 30
0.0
 10
107.0918266876367
 20
-154.648269275574
 30
0.0
 10
107.0918266876367
 20
-154.9211208380058
 30
0.0
 10
107.0918266876367
 20
-155.1498751782264
 30
0.0
 10
106.9753824602353
 20
-155.2490939282016
 30
0.0
 10
106.6663573952084
 20
-155.4754367015825
 30
0.0
  0
HATCH
  5
164
330
15D
100
AcDbEntity
  8
レイヤー 1
 62
   250
420
  2299925
440
 33554687
100
AcDbHatch
 10
0.0
 20
0.0
 30
0.0
210
0.0
220
0.0
230
1.0
  2
SOLID
 70
     1
 71
     1
 91
        1
 92
        1
 93
        1
 72
     4
 94
        3
 73
     0
 74
     0
 95
       44
 96
       40
 40
0.0
 40
0.0
 40
0.0
 40
0.0
 40
1.0
 40
1.0
 40
1.0
 40
2.0
 40
2.0
 40
2.0
 40
3.0
 40
3.0
 40
3.0
 40
4.0
 40
4.0
 40
4.0
 40
5.0
 40
5.0
 40
5.0
 40
6.0
 40
6.0
 40
6.0
 40
7.0
 40
7.0
 40
7.0
 40
8.0
 40
8.0
 40
8.0
 40
9.0
 40
9.0
 40
9.0
 40
10.0
 40
10.0
 40
10.0
 40
11.0
 40
11.0
 40
11.0
 40
12.0
 40
12.0
 40
12.0
 40
13.0
 40
13.0
 40
13.0
 40
13.0
 10
106.6663573952084
 20
-155.4754367015825
 10
106.4486273605406
 20
-155.6342556034525
 10
106.3556097824388
 20
-155.7083251563854
 10
106.3066894265483
 20
-155.8519856381203
 10
106.3066894265483
 20
-155.8519856381203
 10
107.0852810062148
 20
-155.8519856381203
 10
107.0852810062148
 20
-155.8519856381203
 10
107.0852810062148
 20
-155.8519856381203
 10
107.0852810062148
 20
-156.0573133290412
 10
107.0852810062148
 20
-156.0573133290412
 10
107.0852810062148
 20
-156.0573133290412
 10
106.0572645134162
 20
-156.0573133290412
 10
106.0572645134162
 20
-156.0573133290412
 10
106.0889593918805
 20
-155.6997124176723
 10
106.1544162061003
 20
-155.6215087501571
 10
106.5395778813512
 20
-155.3231634811345
 10
106.7955484759053
 20
-155.1243814716356
 10
106.861005290125
 20
-155.0565130905761
 10
106.861005290125
 20
-154.9190537807147
 10
106.861005290125
 20
-154.8005424960221
 10
106.7890027944833
 20
-154.6696288675826
 10
106.5922878422755
 20
-154.6696288675826
 10
106.3321831331392
 20
-154.6696288675826
 10
106.323570394426
 20
-154.9001057555458
 10
106.3194362798437
 20
-155.0165499829472
 10
106.3194362798437
 20
-155.0165499829472
 10
106.095160563754
 20
-155.0165499829472
 10
106.095160563754
 20
-155.0165499829472
 10
106.1037733024671
 20
-154.8894259595415
 10
106.1144530984714
 20
-154.7774603562709
 10
106.1947238232777
 20
-154.6589490715783
 10
106.3046223692572
 20
-154.4980631124171
 10
106.4910020350092
 20
-154.4643011766617
 10
106.6071017528621
 20
-154.4643011766617
 10
106.8844319394247
 20
-154.4643011766617
 10
107.0918266876367
 20
-154.648269275574
 10
107.0918266876367
 20
-154.9211208380058
 10
107.0918266876367
 20
-155.1498751782264
 10
106.9753824602353
 20
-155.2490939282016
 10
106.6663573952084
 20
-155.4754367015825
 97
        0
 97
        1
330
163
 75
     2
 76
     1
 98
        1
 10
0.0
 20
0.0
450
        0
451
        0
460
0.0
461
0.0
452
        0
462
0.0
453
        0
470

  0
ENDBLK
  5
160
330
15D
100
AcDbEntity
  8
0
100
AcDbBlockEnd
  0
BLOCK
  5
168
330
166
100
AcDbEntity
  8
0
100
AcDbBlockBegin
  2
Block_15
 70
     0
 10
0.0
 20
0.0
 30
0.0
  3
Block_15
  1

  0
SPLINE
  5
16A
330
166
100
AcDbEntity
  8
レイヤー 1
100
AcDbSpline
210
0.0
220
0.0
230
1.0
 70
    11
 71
     3
 72
    26
 73
    22
 74
     0
 42
0.0000000001
 43
0.0000000001
 40
0.0
 40
0.0
 40
0.0
 40
0.0
 40
1.0
 40
1.0
 40
1.0
 40
2.0
 40
2.0
 40
2.0
 40
3.0
 40
3.0
 40
3.0
 40
4.0
 40
4.0
 40
4.0
 40
5.0
 40
5.0
 40
5.0
 40
6.0
 40
6.0
 40
6.0
 40
7.0
 40
7.0
 40
7.0
 40
7.0
 10
113.67988278408
 20
-149.9171196456804
 30
0.0
 10
113.67988278408
 20
-149.9171196456804
 30
0.0
 10
113.67988278408
 20
-148.8126220331093
 30
0.0
 10
113.67988278408
 20
-148.8126220331093
 30
0.0
 10
113.67988278408
 20
-148.8126220331093
 30
0.0
 10
113.3498426365931
 20
-148.8126220331093
 30
0.0
 10
113.3498426365931
 20
-148.8126220331093
 30
0.0
 10
113.3498426365931
 20
-148.8126220331093
 30
0.0
 10
113.3498426365931
 20
-148.6644829272436
 30
0.0
 10
113.3498426365931
 20
-148.6644829272436
 30
0.0
 10
113.6819498413712
 20
-148.6498412714313
 30
0.0
 10
113.728458630422
 20
-148.486888254979
 30
0.0
 10
113.7580864515952
 20
-148.3726833396429
 30
0.0
 10
113.7580864515952
 20
-148.3726833396429
 30
0.0
 10
113.9041585001698
 20
-148.3726833396429
 30
0.0
 10
113.9041585001698
 20
-148.3726833396429
 30
0.0
 10
113.9041585001698
 20
-148.3726833396429
 30
0.0
 10
113.9041585001698
 20
-149.9171196456804
 30
0.0
 10
113.9041585001698
 20
-149.9171196456804
 30
0.0
 10
113.9041585001698
 20
-149.9171196456804
 30
0.0
 10
113.67988278408
 20
-149.9171196456804
 30
0.0
 10
113.67988278408
 20
-149.9171196456804
 30
0.0
  0
HATCH
  5
16B
330
166
100
AcDbEntity
  8
レイヤー 1
 62
   250
420
  2299925
440
 33554687
100
AcDbHatch
 10
0.0
 20
0.0
 30
0.0
210
0.0
220
0.0
230
1.0
  2
SOLID
 70
     1
 71
     1
 91
        1
 92
        1
 93
        1
 72
     4
 94
        3
 73
     0
 74
     0
 95
       26
 96
       22
 40
0.0
 40
0.0
 40
0.0
 40
0.0
 40
1.0
 40
1.0
 40
1.0
 40
2.0
 40
2.0
 40
2.0
 40
3.0
 40
3.0
 40
3.0
 40
4.0
 40
4.0
 40
4.0
 40
5.0
 40
5.0
 40
5.0
 40
6.0
 40
6.0
 40
6.0
 40
7.0
 40
7.0
 40
7.0
 40
7.0
 10
113.67988278408
 20
-149.9171196456804
 10
113.67988278408
 20
-149.9171196456804
 10
113.67988278408
 20
-148.8126220331093
 10
113.67988278408
 20
-148.8126220331093
 10
113.67988278408
 20
-148.8126220331093
 10
113.3498426365931
 20
-148.8126220331093
 10
113.3498426365931
 20
-148.8126220331093
 10
113.3498426365931
 20
-148.8126220331093
 10
113.3498426365931
 20
-148.6644829272436
 10
113.3498426365931
 20
-148.6644829272436
 10
113.6819498413712
 20
-148.6498412714313
 10
113.728458630422
 20
-148.486888254979
 10
113.7580864515952
 20
-148.3726833396429
 10
113.7580864515952
 20
-148.3726833396429
 10
113.9041585001698
 20
-148.3726833396429
 10
113.9041585001698
 20
-148.3726833396429
 10
113.9041585001698
 20
-148.3726833396429
 10
113.9041585001698
 20
-149.9171196456804
 10
113.9041585001698
 20
-149.9171196456804
 10
113.9041585001698
 20
-149.9171196456804
 10
113.67988278408
 20
-149.9171196456804
 10
113.67988278408
 20
-149.9171196456804
 97
        0
 97
        1
330
16A
 75
     2
 76
     1
 98
        1
 10
0.0
 20
0.0
450
        0
451
        0
460
0.0
461
0.0
452
        0
462
0.0
453
        0
470

  0
ENDBLK
  5
169
330
166
100
AcDbEntity
  8
0
100
AcDbBlockEnd
  0
ENDSEC
  0
SECTION
  2
ENTITIES
  0
INSERT
  5
7A
330
70
100
AcDbEntity
  8
レイヤー 1
100
AcDbBlockReference
  2
Block_0
 10
0.0
 20
0.0
 30
0.0
  0
ENDSEC
  0
SECTION
  2
OBJECTS
  0
DICTIONARY
  5
C
330
0
100
AcDbDictionary
281
     1
  3
ACAD_COLOR
350
63
  3
ACAD_DETAILVIEWSTYLE
350
6A
  3
ACAD_GROUP
350
D
  3
ACAD_LAYOUT
350
62
  3
ACAD_MATERIAL
350
10
  3
ACAD_MLEADERSTYLE
350
66
  3
ACAD_MLINESTYLE
350
5F
  3
ACAD_PLOTSETTINGS
350
61
  3
ACAD_PLOTSTYLENAME
350
E
  3
ACAD_SCALELIST
350
42
  3
ACAD_SECTIONVIEWSTYLE
350
68
  3
ACAD_TABLESTYLE
350
64
  3
ACAD_VISUALSTYLE
350
29
  3
ACDB_RECOMPOSE_DATA
350
174
  3
AcDbVariableDictionary
350
16C
  0
DICTIONARY
  5
63
102
{ACAD_REACTORS
330
C
102
}
330
C
100
AcDbDictionary
281
     1
  0
DICTIONARY
  5
6A
102
{ACAD_REACTORS
330
C
102
}
330
C
100
AcDbDictionary
281
     1
  3
Imperial24
350
6B
  0
DICTIONARY
  5
D
102
{ACAD_REACTORS
330
C
102
}
330
C
100
AcDbDictionary
281
     1
  0
DICTIONARY
  5
62
102
{ACAD_REACTORS
330
C
102
}
330
C
100
AcDbDictionary
281
     1
  3
Layout1
350
6F
  3
Layout2
350
77
  3
Model
350
73
  0
DICTIONARY
  5
10
102
{ACAD_REACTORS
330
C
102
}
330
C
100
AcDbDictionary
281
     1
  3
ByBlock
350
19
  3
ByLayer
350
11
  3
Global
350
21
  0
DICTIONARY
  5
66
102
{ACAD_REACTORS
330
C
102
}
330
C
100
AcDbDictionary
281
     1
  3
Standard
350
67
  0
DICTIONARY
  5
5F
102
{ACAD_REACTORS
330
C
102
}
330
C
100
AcDbDictionary
281
     1
  3
Standard
350
60
  0
DICTIONARY
  5
61
102
{ACAD_REACTORS
330
C
102
}
330
C
100
AcDbDictionary
281
     1
  0
ACDBDICTIONARYWDFLT
  5
E
102
{ACAD_REACTORS
330
C
102
}
330
C
100
AcDbDictionary
281
     1
  3
Normal
350
F
100
AcDbDictionaryWithDefault
340
F
  0
DICTIONARY
  5
42
102
{ACAD_REACTORS
330
C
102
}
330
C
100
AcDbDictionary
281
     1
  3
A0
350
43
  3
A1
350
44
  3
A2
350
45
  3
A3
350
46
  3
A4
350
47
  3
A5
350
48
  3
A6
350
49
  3
A7
350
4A
  3
A8
350
4B
  3
A9
350
4C
  3
B0
350
4D
  3
B1
350
4E
  3
B2
350
4F
  3
B3
350
50
  3
B4
350
51
  3
B5
350
52
  3
B6
350
53
  0
DICTIONARY
  5
68
102
{ACAD_REACTORS
330
C
102
}
330
C
100
AcDbDictionary
281
     1
  3
Imperial24
350
69
  0
DICTIONARY
  5
64
102
{ACAD_REACTORS
330
C
102
}
330
C
100
AcDbDictionary
281
     1
  3
Standard
350
65
  0
DICTIONARY
  5
29
102
{ACAD_REACTORS
330
C
102
}
330
C
100
AcDbDictionary
281
     1
  3
2dWireframe
350
2F
  3
Basic
350
2E
  3
Brighten
350
35
  3
ColorChange
350
39
  3
Conceptual
350
32
  3
Dim
350
34
  3
EdgeColorOff
350
41
  3
Facepattern
350
38
  3
Flat
350
2A
  3
FlatWithEdges
350
2B
  3
Gouraud
350
2C
  3
GouraudWithEdges
350
2D
  3
Hidden
350
31
  3
JitterOff
350
3F
  3
Linepattern
350
37
  3
OverhangOff
350
40
  3
Realistic
350
33
  3
Shaded
350
3E
  3
Shaded with edges
350
3D
  3
Shades of Gray
350
3A
  3
Sketchy
350
3B
  3
Thicken
350
36
  3
Wireframe
350
30
  3
X-Ray
350
3C
  0
XRECORD
  5
174
102
{ACAD_REACTORS
330
C
102
}
330
C
100
AcDbXrecord
280
     1
 90
        1
330
65
  0
DICTIONARY
  5
16C
102
{ACAD_REACTORS
330
C
102
}
330
C
100
AcDbDictionary
281
     1
  3
CANNOSCALE
350
171
  3
CMLEADERSTYLE
350
16E
  3
CTABLESTYLE
350
16D
  3
CVIEWDETAILSTYLE
350
16F
  3
CVIEWSECTIONSTYLE
350
170
  0
ACDBDETAILVIEWSTYLE
  5
6B
102
{ACAD_XDICTIONARY
360
1A9
102
}
102
{ACAD_REACTORS
330
6A
102
}
330
6A
100
AcDbModelDocViewStyle
 70
     0
  3
Imperial24
290
     0
100
AcDbDetailViewStyle
 70
     0
 71
     0
 90
        3
 71
     1
340
55
 62
   256
 40
0.24
340
0
 62
   256
 40
0.24
300

 40
0.36
280
     3
 71
     2
340
5D
 90
       25
 62
   256
 71
     3
340
55
 62
   256
 40
0.24
 90
        1
 40
0.75
 90
        1
300
%<\AcVar ViewType \f "%tc1">% %<\AcVar ViewDetailId>%\PSCALE %<\AcVar ViewScale \f "%sn">%
 71
     4
340
5D
 90
       25
 62
   256
340
5D
 90
       25
 62
   256
280
     0
  0
LAYOUT
  5
6F
102
{ACAD_REACTORS
330
62
102
}
330
62
100
AcDbPlotSettings
  1

  2

  4

  6

 40
0.0
 41
0.0
 42
0.0
 43
0.0
 44
0.0
 45
0.0
 46
0.0
 47
0.0
 48
0.0
 49
0.0
140
0.0
141
0.0
142
1.0
143
1.0
 70
   688
 72
     0
 73
     0
 74
     5
  7

 75
    16
147
1.0
 76
     0
 77
     2
 78
   300
148
0.0
149
0.0
100
AcDbLayout
  1
Layout1
 70
     1
 71
     1
 10
0.0
 20
0.0
 11
12.0
 21
9.0
 12
0.0
 22
0.0
 32
0.0
 14
0.0
 24
0.0
 34
0.0
 15
0.0
 25
0.0
 35
0.0
146
0.0
 13
0.0
 23
0.0
 33
0.0
 16
1.0
 26
0.0
 36
0.0
 17
0.0
 27
1.0
 37
0.0
 76
     0
330
6C
  0
LAYOUT
  5
77
102
{ACAD_REACTORS
330
62
102
}
330
62
100
AcDbPlotSettings
  1

  2

  4

  6

 40
0.0
 41
0.0
 42
0.0
 43
0.0
 44
0.0
 45
0.0
 46
0.0
 47
0.0
 48
0.0
 49
0.0
140
0.0
141
0.0
142
1.0
143
1.0
 70
   688
 72
     0
 73
     0
 74
     5
  7

 75
    16
147
1.0
 76
     0
 77
     2
 78
   300
148
0.0
149
0.0
100
AcDbLayout
  1
Layout2
 70
     1
 71
     2
 10
0.0
 20
0.0
 11
12.0
 21
9.0
 12
0.0
 22
0.0
 32
0.0
 14
0.0
 24
0.0
 34
0.0
 15
0.0
 25
0.0
 35
0.0
146
0.0
 13
0.0
 23
0.0
 33
0.0
 16
1.0
 26
0.0
 36
0.0
 17
0.0
 27
1.0
 37
0.0
 76
     0
330
74
  0
LAYOUT
  5
73
102
{ACAD_REACTORS
330
62
102
}
330
62
100
AcDbPlotSettings
  1

  2

  4

  6

 40
0.0
 41
0.0
 42
0.0
 43
0.0
 44
0.0
 45
0.0
 46
0.0
 47
0.0
 48
0.0
 49
0.0
140
0.0
141
0.0
142
1.0
143
1.0
 70
  1712
 72
     0
 73
     0
 74
     0
  7

 75
     0
147
1.0
 76
     0
 77
     2
 78
   300
148
0.0
149
0.0
100
AcDbLayout
  1
Model
 70
     1
 71
     0
 10
0.0
 20
0.0
 11
12.0
 21
9.0
 12
0.0
 22
0.0
 32
0.0
 14
0.0
 24
0.0
 34
0.0
 15
0.0
 25
0.0
 35
0.0
146
0.0
 13
0.0
 23
0.0
 33
0.0
 16
1.0
 26
0.0
 36
0.0
 17
0.0
 27
1.0
 37
0.0
 76
     0
330
70
  0
MATERIAL
  5
19
102
{ACAD_XDICTIONARY
360
1A
102
}
102
{ACAD_REACTORS
330
10
102
}
330
10
100
AcDbMaterial
  1
ByBlock
 72
     0
 43
0.0208333333333333
 43
0.0
 43
0.0
 43
0.0
 43
0.0
 43
0.0208333333333333
 43
0.0
 43
0.0
 43
0.0
 43
0.0
 43
1.0
 43
0.0
 43
0.0
 43
0.0
 43
0.0
 43
1.0
 77
     0
 47
0.0208333333333333
 47
0.0
 47
0.0
 47
0.0
 47
0.0
 47
0.0208333333333333
 47
0.0
 47
0.0
 47
0.0
 47
0.0
 47
1.0
 47
0.0
 47
0.0
 47
0.0
 47
0.0
 47
1.0
171
     0
 49
0.0208333333333333
 49
0.0
 49
0.0
 49
0.0
 49
0.0
 49
0.0208333333333333
 49
0.0
 49
0.0
 49
0.0
 49
0.0
 49
1.0
 49
0.0
 49
0.0
 49
0.0
 49
0.0
 49
1.0
175
     0
142
0.0208333333333333
142
0.0
142
0.0
142
0.0
142
0.0
142
0.0208333333333333
142
0.0
142
0.0
142
0.0
142
0.0
142
1.0
142
0.0
142
0.0
142
0.0
142
0.0
142
1.0
179
     0
144
0.0208333333333333
144
0.0
144
0.0
144
0.0
144
0.0
144
0.0208333333333333
144
0.0
144
0.0
144
0.0
144
0.0
144
1.0
144
0.0
144
0.0
144
0.0
144
0.0
144
1.0
147
0.0208333333333333
147
0.0
147
0.0
147
0.0
147
0.0
147
0.0208333333333333
147
0.0
147
0.0
147
0.0
147
0.0
147
1.0
147
0.0
147
0.0
147
0.0
147
0.0
147
1.0
  0
MATERIAL
  5
11
102
{ACAD_XDICTIONARY
360
12
102
}
102
{ACAD_REACTORS
330
10
102
}
330
10
100
AcDbMaterial
  1
ByLayer
 72
     0
 43
0.0208333333333333
 43
0.0
 43
0.0
 43
0.0
 43
0.0
 43
0.0208333333333333
 43
0.0
 43
0.0
 43
0.0
 43
0.0
 43
1.0
 43
0.0
 43
0.0
 43
0.0
 43
0.0
 43
1.0
 77
     0
 47
0.0208333333333333
 47
0.0
 47
0.0
 47
0.0
 47
0.0
 47
0.0208333333333333
 47
0.0
 47
0.0
 47
0.0
 47
0.0
 47
1.0
 47
0.0
 47
0.0
 47
0.0
 47
0.0
 47
1.0
171
     0
 49
0.0208333333333333
 49
0.0
 49
0.0
 49
0.0
 49
0.0
 49
0.0208333333333333
 49
0.0
 49
0.0
 49
0.0
 49
0.0
 49
1.0
 49
0.0
 49
0.0
 49
0.0
 49
0.0
 49
1.0
175
     0
142
0.0208333333333333
142
0.0
142
0.0
142
0.0
142
0.0
142
0.0208333333333333
142
0.0
142
0.0
142
0.0
142
0.0
142
1.0
142
0.0
142
0.0
142
0.0
142
0.0
142
1.0
179
     0
144
0.0208333333333333
144
0.0
144
0.0
144
0.0
144
0.0
144
0.0208333333333333
144
0.0
144
0.0
144
0.0
144
0.0
144
1.0
144
0.0
144
0.0
144
0.0
144
0.0
144
1.0
147
0.0208333333333333
147
0.0
147
0.0
147
0.0
147
0.0
147
0.0208333333333333
147
0.0
147
0.0
147
0.0
147
0.0
147
1.0
147
0.0
147
0.0
147
0.0
147
0.0
147
1.0
  0
MATERIAL
  5
21
102
{ACAD_XDICTIONARY
360
22
102
}
102
{ACAD_REACTORS
330
10
102
}
330
10
100
AcDbMaterial
  1
Global
 72
     0
 43
0.0208333333333333
 43
0.0
 43
0.0
 43
0.0
 43
0.0
 43
0.0208333333333333
 43
0.0
 43
0.0
 43
0.0
 43
0.0
 43
1.0
 43
0.0
 43
0.0
 43
0.0
 43
0.0
 43
1.0
 77
     0
 47
0.0208333333333333
 47
0.0
 47
0.0
 47
0.0
 47
0.0
 47
0.0208333333333333
 47
0.0
 47
0.0
 47
0.0
 47
0.0
 47
1.0
 47
0.0
 47
0.0
 47
0.0
 47
0.0
 47
1.0
171
     0
 49
0.0208333333333333
 49
0.0
 49
0.0
 49
0.0
 49
0.0
 49
0.0208333333333333
 49
0.0
 49
0.0
 49
0.0
 49
0.0
 49
1.0
 49
0.0
 49
0.0
 49
0.0
 49
0.0
 49
1.0
175
     0
142
0.0208333333333333
142
0.0
142
0.0
142
0.0
142
0.0
142
0.0208333333333333
142
0.0
142
0.0
142
0.0
142
0.0
142
1.0
142
0.0
142
0.0
142
0.0
142
0.0
142
1.0
179
     0
144
0.0208333333333333
144
0.0
144
0.0
144
0.0
144
0.0
144
0.0208333333333333
144
0.0
144
0.0
144
0.0
144
0.0
144
1.0
144
0.0
144
0.0
144
0.0
144
0.0
144
1.0
147
0.0208333333333333
147
0.0
147
0.0
147
0.0
147
0.0
147
0.0208333333333333
147
0.0
147
0.0
147
0.0
147
0.0
147
1.0
147
0.0
147
0.0
147
0.0
147
0.0
147
1.0
  0
MLEADERSTYLE
  5
67
102
{ACAD_XDICTIONARY
360
1A5
102
}
102
{ACAD_REACTORS
330
66
102
}
330
66
100
AcDbMLeaderStyle
179
     2
170
     2
171
     1
172
     0
 90
        2
 40
0.0
 41
0.0
173
     1
 91
-1056964608
340
5B
 92
       -2
290
     1
 42
0.09
291
     1
 43
0.36
  3
Standard
 44
0.18
300

342
55
174
     1
178
     6
175
     1
176
     0
 93
-1056964608
 45
0.18
292
     0
297
     0
 46
0.18
 94
-1056964608
 47
1.0
 49
1.0
140
1.0
293
     1
141
0.0
294
     1
177
     0
142
1.0
295
     0
296
     0
143
0.125
271
     0
272
     9
273
     9
  0
MLINESTYLE
  5
60
102
{ACAD_REACTORS
330
5F
102
}
330
5F
100
AcDbMlineStyle
  2
STANDARD
 70
     0
  3

 62
   256
 51
90.0
 52
90.0
 71
     2
 49
0.5
 62
   256
  6
BYLAYER
 49
-0.5
 62
   256
  6
BYLAYER
  0
ACDBPLACEHOLDER
  5
F
102
{ACAD_REACTORS
330
E
102
}
330
E
  0
SCALE
  5
43
102
{ACAD_REACTORS
330
42
102
}
330
42
100
AcDbScale
 70
     0
300
1:1
140
1.0
141
1.0
290
     1
  0
SCALE
  5
44
102
{ACAD_REACTORS
330
42
102
}
330
42
100
AcDbScale
 70
     0
300
1/128" = 1'-0"
140
0.0078125
141
12.0
290
     0
  0
SCALE
  5
45
102
{ACAD_REACTORS
330
42
102
}
330
42
100
AcDbScale
 70
     0
300
1/64" = 1'-0"
140
0.015625
141
12.0
290
     0
  0
SCALE
  5
46
102
{ACAD_REACTORS
330
42
102
}
330
42
100
AcDbScale
 70
     0
300
1/32" = 1'-0"
140
0.03125
141
12.0
290
     0
  0
SCALE
  5
47
102
{ACAD_REACTORS
330
42
102
}
330
42
100
AcDbScale
 70
     0
300
1/16" = 1'-0"
140
0.0625
141
12.0
290
     0
  0
SCALE
  5
48
102
{ACAD_REACTORS
330
42
102
}
330
42
100
AcDbScale
 70
     0
300
3/32" = 1'-0"
140
0.09375
141
12.0
290
     0
  0
SCALE
  5
49
102
{ACAD_REACTORS
330
42
102
}
330
42
100
AcDbScale
 70
     0
300
1/8" = 1'-0"
140
0.125
141
12.0
290
     0
  0
SCALE
  5
4A
102
{ACAD_REACTORS
330
42
102
}
330
42
100
AcDbScale
 70
     0
300
3/16" = 1'-0"
140
0.1875
141
12.0
290
     0
  0
SCALE
  5
4B
102
{ACAD_REACTORS
330
42
102
}
330
42
100
AcDbScale
 70
     0
300
1/4" = 1'-0"
140
0.25
141
12.0
290
     0
  0
SCALE
  5
4C
102
{ACAD_REACTORS
330
42
102
}
330
42
100
AcDbScale
 70
     0
300
3/8" = 1'-0"
140
0.375
141
12.0
290
     0
  0
SCALE
  5
4D
102
{ACAD_REACTORS
330
42
102
}
330
42
100
AcDbScale
 70
     0
300
1/2" = 1'-0"
140
0.5
141
12.0
290
     0
  0
SCALE
  5
4E
102
{ACAD_REACTORS
330
42
102
}
330
42
100
AcDbScale
 70
     0
300
3/4" = 1'-0"
140
0.75
141
12.0
290
     0
  0
SCALE
  5
4F
102
{ACAD_REACTORS
330
42
102
}
330
42
100
AcDbScale
 70
     0
300
1" = 1'-0"
140
1.0
141
12.0
290
     0
  0
SCALE
  5
50
102
{ACAD_REACTORS
330
42
102
}
330
42
100
AcDbScale
 70
     0
300
1-1/2" = 1'-0"
140
1.5
141
12.0
290
     0
  0
SCALE
  5
51
102
{ACAD_REACTORS
330
42
102
}
330
42
100
AcDbScale
 70
     0
300
3" = 1'-0"
140
3.0
141
12.0
290
     0
  0
SCALE
  5
52
102
{ACAD_REACTORS
330
42
102
}
330
42
100
AcDbScale
 70
     0
300
6" = 1'-0"
140
6.0
141
12.0
290
     0
  0
SCALE
  5
53
102
{ACAD_REACTORS
330
42
102
}
330
42
100
AcDbScale
 70
     0
300
1'-0" = 1'-0"
140
12.0
141
12.0
290
     0
  0
ACDBSECTIONVIEWSTYLE
  5
69
102
{ACAD_XDICTIONARY
360
1A7
102
}
102
{ACAD_REACTORS
330
68
102
}
330
68
100
AcDbModelDocViewStyle
 70
     0
  3
Imperial24
290
     0
100
AcDbSectionViewStyle
 70
     0
 71
     0
 90
       78
 71
     1
340
55
 62
   256
 40
0.24
340
0
340
0
 62
   256
 40
0.24
300
I, O, Q, S, X, Z
 40
0.48
 90
        3
 40
0.18
 90
        1
 71
     2
340
5D
 90
       25
 62
   256
340
5D
 90
       50
 62
   256
 40
0.24
 40
0.0
 40
0.24
 71
     3
340
55
 62
   256
 40
0.24
 90
        1
 40
0.75
 90
        1
300
%<\AcVar ViewType \f "%tc1">% %<\AcVar ViewSectionStartId>%-%<\AcVar ViewSectionEndId>%\PSCALE %<\AcVar ViewScale \f "%sn">%
 71
     4
 62
   256
 62
   257
300
ANSI31
 40
1.0
 90
        0
290
     0
290
     0
 90
        6
 40
0.0
 40
1.570796326794896
 40
0.2617993877991494
 40
1.308996938995747
 40
-0.2617993877991494
 40
1.832595714594046
  0
TABLESTYLE
  5
65
102
{ACAD_XDICTIONARY
360
172
102
}
102
{ACAD_REACTORS
330
64
102
}
330
64
100
AcDbTableStyle
280
     0
  3
Standard
 70
     0
 71
     0
 40
0.06
 41
0.06
280
     0
281
     0
  7
Standard
140
0.18
170
     2
 62
     0
 63
     7
283
     0
 90
      512
 91
        0
  1

274
    -2
284
     1
 64
     0
275
    -2
285
     1
 65
     0
276
    -2
286
     1
 66
     0
277
    -2
287
     1
 67
     0
278
    -2
288
     1
 68
     0
279
    -2
289
     1
 69
     0
  7
Standard
140
0.25
170
     5
 62
     0
 63
     7
283
     0
 90
      512
 91
        0
  1

274
    -2
284
     1
 64
     0
275
    -2
285
     1
 65
     0
276
    -2
286
     1
 66
     0
277
    -2
287
     1
 67
     0
278
    -2
288
     1
 68
     0
279
    -2
289
     1
 69
     0
  7
Standard
140
0.18
170
     5
 62
     0
 63
     7
283
     0
 90
      512
 91
        0
  1

274
    -2
284
     1
 64
     0
275
    -2
285
     1
 65
     0
276
    -2
286
     1
 66
     0
277
    -2
287
     1
 67
     0
278
    -2
288
     1
 68
     0
279
    -2
289
     1
 69
     0
  0
VISUALSTYLE
  5
2F
102
{ACAD_XDICTIONARY
360
17F
102
}
102
{ACAD_REACTORS
330
29
102
}
330
29
100
AcDbVisualStyle
  2
2dWireframe
 70
     4
177
     2
291
     0
 71
     0
176
     1
 72
     2
176
     1
 73
     0
176
     1
 90
        0
176
     1
 40
0.6
176
     1
 41
30.0
176
     1
 63
     7
421
 16777215
176
     1
 74
     1
176
     1
 91
        4
176
     1
 64
     7
176
     1
 65
   257
176
     1
 75
     1
176
     1
175
     1
176
     1
 42
1.0
176
     1
 92
        0
176
     1
 66
   257
176
     1
 43
1.0
176
     1
 76
     1
176
     1
 77
     6
176
     1
 78
     2
176
     1
 67
     7
176
     1
 79
     5
176
     1
170
     0
176
     1
171
     0
176
     1
290
     0
176
     1
 93
        1
176
     1
 44
0.0
176
     1
173
     0
176
     1
1001
ACAD
1000
AcDbSavedByObjectVersion
1070
     0
  0
VISUALSTYLE
  5
2E
102
{ACAD_XDICTIONARY
360
17D
102
}
102
{ACAD_REACTORS
330
29
102
}
330
29
100
AcDbVisualStyle
  2
Basic
 70
     7
177
     2
291
     1
 71
     1
176
     1
 72
     0
176
     1
 73
     1
176
     1
 90
        0
176
     1
 40
0.6
176
     1
 41
30.0
176
     1
 63
     7
421
 16777215
176
     1
 74
     0
176
     1
 91
        4
176
     1
 64
     7
176
     1
 65
   257
176
     1
 75
     1
176
     1
175
     1
176
     1
 42
1.0
176
     1
 92
        8
176
     1
 66
     7
176
     1
 43
1.0
176
     1
 76
     1
176
     1
 77
     6
176
     1
 78
     2
176
     1
 67
     7
176
     1
 79
     5
176
     1
170
     0
176
     1
171
     0
176
     1
290
     0
176
     1
 93
        1
176
     1
 44
0.0
176
     1
173
     0
176
     1
1001
ACAD
1000
AcDbSavedByObjectVersion
1070
     0
  0
VISUALSTYLE
  5
35
102
{ACAD_XDICTIONARY
360
18B
102
}
102
{ACAD_REACTORS
330
29
102
}
330
29
100
AcDbVisualStyle
  2
Brighten
 70
    12
177
     2
291
     1
 71
     2
176
     1
 72
     2
176
     1
 73
     0
176
     1
 90
        0
176
     1
 40
0.6
176
     1
 41
30.0
176
     1
 63
     7
421
 16777215
176
     1
 74
     1
176
     1
 91
        4
176
     1
 64
     7
176
     1
 65
   257
176
     1
 75
     1
176
     1
175
     1
176
     1
 42
1.0
176
     1
 92
        8
176
     1
 66
     7
176
     1
 43
1.0
176
     1
 76
     1
176
     1
 77
     6
176
     1
 78
     2
176
     1
 67
     7
176
     1
 79
     5
176
     1
170
     0
176
     1
171
     0
176
     1
290
     0
176
     1
 93
        1
176
     1
 44
50.0
176
     1
173
     0
176
     1
1001
ACAD
1000
AcDbSavedByObjectVersion
1070
     0
  0
VISUALSTYLE
  5
39
102
{ACAD_XDICTIONARY
360
193
102
}
102
{ACAD_REACTORS
330
29
102
}
330
29
100
AcDbVisualStyle
  2
ColorChange
 70
    16
177
     2
291
     1
 71
     2
176
     1
 72
     2
176
     1
 73
     3
176
     1
 90
        0
176
     1
 40
0.6
176
     1
 41
30.0
176
     1
 63
     8
421
  8421504
176
     1
 74
     1
176
     1
 91
        4
176
     1
 64
     7
176
     1
 65
   257
176
     1
 75
     1
176
     1
175
     1
176
     1
 42
1.0
176
     1
 92
        8
176
     1
 66
     8
424
  8421504
176
     1
 43
1.0
176
     1
 76
     1
176
     1
 77
     6
176
     1
 78
     2
176
     1
 67
     7
176
     1
 79
     5
176
     1
170
     0
176
     1
171
     0
176
     1
290
     0
176
     1
 93
        1
176
     1
 44
0.0
176
     1
173
     0
176
     1
1001
ACAD
1000
AcDbSavedByObjectVersion
1070
     0
  0
VISUALSTYLE
  5
32
102
{ACAD_XDICTIONARY
360
185
102
}
102
{ACAD_REACTORS
330
29
102
}
330
29
100
AcDbVisualStyle
  2
Conceptual
 70
     9
177
     2
291
     0
 71
     3
176
     1
 72
     2
176
     1
 73
     0
176
     1
 90
        0
176
     1
 40
0.6
176
     1
 41
30.0
176
     1
 63
     7
421
 16777215
176
     1
 74
     2
176
     1
 91
        2
176
     1
 64
     7
176
     1
 65
   257
176
     1
 75
     1
176
     1
175
     1
176
     1
 42
179.0
176
     1
 92
        8
176
     1
 66
     7
176
     1
 43
1.0
176
     1
 76
     1
176
     1
 77
     6
176
     1
 78
     2
176
     1
 67
     7
176
     1
 79
     3
176
     1
170
     0
176
     1
171
     0
176
     1
290
     0
176
     1
 93
        1
176
     1
 44
0.0
176
     1
173
     0
176
     1
1001
ACAD
1000
AcDbSavedByObjectVersion
1070
     0
  0
VISUALSTYLE
  5
34
102
{ACAD_XDICTIONARY
360
189
102
}
102
{ACAD_REACTORS
330
29
102
}
330
29
100
AcDbVisualStyle
  2
Dim
 70
    11
177
     2
291
     1
 71
     2
176
     1
 72
     2
176
     1
 73
     0
176
     1
 90
        0
176
     1
 40
0.6
176
     1
 41
30.0
176
     1
 63
     7
421
 16777215
176
     1
 74
     1
176
     1
 91
        4
176
     1
 64
     7
176
     1
 65
   257
176
     1
 75
     1
176
     1
175
     1
176
     1
 42
1.0
176
     1
 92
        8
176
     1
 66
     7
176
     1
 43
1.0
176
     1
 76
     1
176
     1
 77
     6
176
     1
 78
     2
176
     1
 67
     7
176
     1
 79
     5
176
     1
170
     0
176
     1
171
     0
176
     1
290
     0
176
     1
 93
        1
176
     1
 44
-50.0
176
     1
173
     0
176
     1
1001
ACAD
1000
AcDbSavedByObjectVersion
1070
     0
  0
VISUALSTYLE
  5
41
102
{ACAD_XDICTIONARY
360
1A3
102
}
102
{ACAD_REACTORS
330
29
102
}
330
29
100
AcDbVisualStyle
  2
EdgeColorOff
 70
    22
177
     2
291
     1
 71
     2
176
     0
 72
     2
176
     0
 73
     0
176
     0
 90
        0
176
     0
 40
0.6
176
     0
 41
30.0
176
     0
 63
     7
421
 16777215
176
     0
 74
     1
176
     0
 91
        4
176
     0
 64
     7
176
     0
 65
   257
176
     0
 75
     1
176
     0
175
     1
176
     0
 42
1.0
176
     0
 92
        8
176
     2
 66
     7
176
     0
 43
1.0
176
     0
 76
     1
176
     0
 77
     6
176
     0
 78
     2
176
     0
 67
     7
176
     0
 79
     5
176
     0
170
     0
176
     0
171
     0
176
     0
290
     0
176
     0
 93
        1
176
     0
 44
0.0
176
     0
173
     0
176
     0
1001
ACAD
1000
AcDbSavedByObjectVersion
1070
     0
  0
VISUALSTYLE
  5
38
102
{ACAD_XDICTIONARY
360
191
102
}
102
{ACAD_REACTORS
330
29
102
}
330
29
100
AcDbVisualStyle
  2
Facepattern
 70
    15
177
     2
291
     1
 71
     2
176
     1
 72
     2
176
     1
 73
     0
176
     1
 90
        0
176
     1
 40
0.6
176
     1
 41
30.0
176
     1
 63
     7
421
 16777215
176
     1
 74
     1
176
     1
 91
        4
176
     1
 64
     7
176
     1
 65
   257
176
     1
 75
     1
176
     1
175
     1
176
     1
 42
1.0
176
     1
 92
        8
176
     1
 66
     7
176
     1
 43
1.0
176
     1
 76
     1
176
     1
 77
     6
176
     1
 78
     2
176
     1
 67
     7
176
     1
 79
     5
176
     1
170
     0
176
     1
171
     0
176
     1
290
     0
176
     1
 93
        1
176
     1
 44
0.0
176
     1
173
     0
176
     1
1001
ACAD
1000
AcDbSavedByObjectVersion
1070
     0
  0
VISUALSTYLE
  5
2A
102
{ACAD_XDICTIONARY
360
175
102
}
102
{ACAD_REACTORS
330
29
102
}
330
29
100
AcDbVisualStyle
  2
Flat
 70
     0
177
     2
291
     1
 71
     2
176
     1
 72
     1
176
     1
 73
     1
176
     1
 90
        2
176
     1
 40
0.6
176
     1
 41
30.0
176
     1
 63
     7
421
 16777215
176
     1
 74
     0
176
     1
 91
        0
176
     1
 64
     7
176
     1
 65
   257
176
     1
 75
     1
176
     1
175
     1
176
     1
 42
1.0
176
     1
 92
        8
176
     1
 66
     7
176
     1
 43
1.0
176
     1
 76
     1
176
     1
 77
     6
176
     1
 78
     2
176
     1
 67
     7
176
     1
 79
     5
176
     1
170
     0
176
     1
171
     0
176
     1
290
     0
176
     1
 93
       13
176
     1
 44
0.0
176
     1
173
     0
176
     1
1001
ACAD
1000
AcDbSavedByObjectVersion
1070
     0
  0
VISUALSTYLE
  5
2B
102
{ACAD_XDICTIONARY
360
177
102
}
102
{ACAD_REACTORS
330
29
102
}
330
29
100
AcDbVisualStyle
  2
FlatWithEdges
 70
     1
177
     2
291
     1
 71
     2
176
     1
 72
     1
176
     1
 73
     1
176
     1
 90
        2
176
     1
 40
0.6
176
     1
 41
30.0
176
     1
 63
     7
421
 16777215
176
     1
 74
     1
176
     1
 91
        0
176
     1
 64
     7
176
     1
 65
   257
176
     1
 75
     1
176
     1
175
     1
176
     1
 42
1.0
176
     1
 92
        0
176
     1
 66
   257
176
     1
 43
1.0
176
     1
 76
     1
176
     1
 77
     6
176
     1
 78
     2
176
     1
 67
     7
176
     1
 79
     5
176
     1
170
     0
176
     1
171
     0
176
     1
290
     0
176
     1
 93
       13
176
     1
 44
0.0
176
     1
173
     0
176
     1
1001
ACAD
1000
AcDbSavedByObjectVersion
1070
     0
  0
VISUALSTYLE
  5
2C
102
{ACAD_XDICTIONARY
360
179
102
}
102
{ACAD_REACTORS
330
29
102
}
330
29
100
AcDbVisualStyle
  2
Gouraud
 70
     2
177
     2
291
     1
 71
     2
176
     1
 72
     2
176
     1
 73
     1
176
     1
 90
        2
176
     1
 40
0.6
176
     1
 41
30.0
176
     1
 63
     7
421
 16777215
176
     1
 74
     0
176
     1
 91
        0
176
     1
 64
     7
176
     1
 65
   257
176
     1
 75
     1
176
     1
175
     1
176
     1
 42
1.0
176
     1
 92
        0
176
     1
 66
     7
176
     1
 43
1.0
176
     1
 76
     1
176
     1
 77
     6
176
     1
 78
     2
176
     1
 67
     7
176
     1
 79
     5
176
     1
170
     0
176
     1
171
     0
176
     1
290
     0
176
     1
 93
       13
176
     1
 44
0.0
176
     1
173
     0
176
     1
1001
ACAD
1000
AcDbSavedByObjectVersion
1070
     0
  0
VISUALSTYLE
  5
2D
102
{ACAD_XDICTIONARY
360
17B
102
}
102
{ACAD_REACTORS
330
29
102
}
330
29
100
AcDbVisualStyle
  2
GouraudWithEdges
 70
     3
177
     2
291
     1
 71
     2
176
     1
 72
     2
176
     1
 73
     1
176
     1
 90
        2
176
     1
 40
0.6
176
     1
 41
30.0
176
     1
 63
     7
421
 16777215
176
     1
 74
     1
176
     1
 91
        0
176
     1
 64
     7
176
     1
 65
   257
176
     1
 75
     1
176
     1
175
     1
176
     1
 42
1.0
176
     1
 92
        0
176
     1
 66
   257
176
     1
 43
1.0
176
     1
 76
     1
176
     1
 77
     6
176
     1
 78
     2
176
     1
 67
     7
176
     1
 79
     5
176
     1
170
     0
176
     1
171
     0
176
     1
290
     0
176
     1
 93
       13
176
     1
 44
0.0
176
     1
173
     0
176
     1
1001
ACAD
1000
AcDbSavedByObjectVersion
1070
     0
  0
VISUALSTYLE
  5
31
102
{ACAD_XDICTIONARY
360
183
102
}
102
{ACAD_REACTORS
330
29
102
}
330
29
100
AcDbVisualStyle
  2
Hidden
 70
     6
177
     2
291
     0
 71
     1
176
     1
 72
     2
176
     1
 73
     2
176
     1
 90
        0
176
     1
 40
0.6
176
     1
 41
30.0
176
     1
 63
     7
421
 16777215
176
     1
 74
     2
176
     1
 91
        2
176
     1
 64
     7
176
     1
 65
   257
176
     1
 75
     2
176
     1
175
     1
176
     1
 42
40.0
176
     1
 92
        0
176
     1
 66
   257
176
     1
 43
1.0
176
     1
 76
     1
176
     1
 77
     6
176
     1
 78
     2
176
     1
 67
     7
176
     1
 79
     3
176
     1
170
     0
176
     1
171
     0
176
     1
290
     0
176
     1
 93
        1
176
     1
 44
0.0
176
     1
173
     0
176
     1
1001
ACAD
1000
AcDbSavedByObjectVersion
1070
     0
  0
VISUALSTYLE
  5
3F
102
{ACAD_XDICTIONARY
360
19F
102
}
102
{ACAD_REACTORS
330
29
102
}
330
29
100
AcDbVisualStyle
  2
JitterOff
 70
    20
177
     2
291
     1
 71
     2
176
     0
 72
     2
176
     0
 73
     0
176
     0
 90
        0
176
     0
 40
0.6
176
     0
 41
30.0
176
     0
 63
     7
421
 16777215
176
     0
 74
     1
176
     0
 91
        4
176
     0
 64
     7
176
     0
 65
   257
176
     0
 75
     1
176
     0
175
     1
176
     0
 42
1.0
176
     0
 92
       10
176
     2
 66
     7
176
     0
 43
1.0
176
     0
 76
     1
176
     0
 77
     6
176
     0
 78
     2
176
     0
 67
     7
176
     0
 79
     5
176
     0
170
     0
176
     0
171
     0
176
     0
290
     0
176
     0
 93
        1
176
     0
 44
0.0
176
     0
173
     0
176
     0
1001
ACAD
1000
AcDbSavedByObjectVersion
1070
     0
  0
VISUALSTYLE
  5
37
102
{ACAD_XDICTIONARY
360
18F
102
}
102
{ACAD_REACTORS
330
29
102
}
330
29
100
AcDbVisualStyle
  2
Linepattern
 70
    14
177
     2
291
     1
 71
     2
176
     1
 72
     2
176
     1
 73
     0
176
     1
 90
        0
176
     1
 40
0.6
176
     1
 41
30.0
176
     1
 63
     7
421
 16777215
176
     1
 74
     1
176
     1
 91
        4
176
     1
 64
     7
176
     1
 65
   257
176
     1
 75
     7
176
     1
175
     7
176
     1
 42
1.0
176
     1
 92
        8
176
     1
 66
     7
176
     1
 43
1.0
176
     1
 76
     1
176
     1
 77
     6
176
     1
 78
     2
176
     1
 67
     7
176
     1
 79
     5
176
     1
170
     0
176
     1
171
     0
176
     1
290
     0
176
     1
 93
        1
176
     1
 44
0.0
176
     1
173
     0
176
     1
1001
ACAD
1000
AcDbSavedByObjectVersion
1070
     0
  0
VISUALSTYLE
  5
40
102
{ACAD_XDICTIONARY
360
1A1
102
}
102
{ACAD_REACTORS
330
29
102
}
330
29
100
AcDbVisualStyle
  2
OverhangOff
 70
    21
177
     2
291
     1
 71
     2
176
     0
 72
     2
176
     0
 73
     0
176
     0
 90
        0
176
     0
 40
0.6
176
     0
 41
30.0
176
     0
 63
     7
421
 16777215
176
     0
 74
     1
176
     0
 91
        4
176
     0
 64
     7
176
     0
 65
   257
176
     0
 75
     1
176
     0
175
     1
176
     0
 42
1.0
176
     0
 92
        9
176
     2
 66
     7
176
     0
 43
1.0
176
     0
 76
     1
176
     0
 77
     6
176
     0
 78
     2
176
     0
 67
     7
176
     0
 79
     5
176
     0
170
     0
176
     0
171
     0
176
     0
290
     0
176
     0
 93
        1
176
     0
 44
0.0
176
     0
173
     0
176
     0
1001
ACAD
1000
AcDbSavedByObjectVersion
1070
     0
  0
VISUALSTYLE
  5
33
102
{ACAD_XDICTIONARY
360
187
102
}
102
{ACAD_REACTORS
330
29
102
}
330
29
100
AcDbVisualStyle
  2
Realistic
 70
     8
177
     2
291
     0
 71
     2
176
     1
 72
     3
176
     1
 73
     0
176
     1
 90
        2
176
     1
 40
0.6
176
     1
 41
30.0
176
     1
 63
     7
421
 16777215
176
     1
 74
     0
176
     1
 91
        0
176
     1
 64
     7
176
     1
 65
   257
176
     1
 75
     1
176
     1
175
     1
176
     1
 42
1.0
176
     1
 92
        8
176
     1
 66
   257
176
     1
 43
1.0
176
     1
 76
     1
176
     1
 77
     6
176
     1
 78
     2
176
     1
 67
     7
176
     1
 79
     3
176
     1
170
     0
176
     1
171
     0
176
     1
290
     0
176
     1
 93
       13
176
     1
 44
0.0
176
     1
173
     0
176
     1
1001
ACAD
1000
AcDbSavedByObjectVersion
1070
     0
  0
VISUALSTYLE
  5
3E
102
{ACAD_XDICTIONARY
360
19D
102
}
102
{ACAD_REACTORS
330
29
102
}
330
29
100
AcDbVisualStyle
  2
Shaded
 70
    27
177
     2
291
     0
 71
     2
176
     1
 72
     2
176
     1
 73
     1
176
     1
 90
        2
176
     1
 40
0.6
176
     1
 41
30.0
176
     1
 63
     7
421
 16777215
176
     1
 74
     0
176
     1
 91
        4
176
     1
 64
     7
176
     1
 65
   257
176
     1
 75
     1
176
     1
175
     1
176
     1
 42
1.0
176
     1
 92
        8
176
     1
 66
   257
176
     1
 43
1.0
176
     1
 76
     1
176
     1
 77
     6
176
     1
 78
     2
176
     1
 67
     8
425
  7895160
176
     1
 79
     3
176
     1
170
     0
176
     1
171
     0
176
     1
290
     0
176
     1
 93
        5
176
     1
 44
0.0
176
     1
173
     0
176
     1
1001
ACAD
1000
AcDbSavedByObjectVersion
1070
     0
  0
VISUALSTYLE
  5
3D
102
{ACAD_XDICTIONARY
360
19B
102
}
102
{ACAD_REACTORS
330
29
102
}
330
29
100
AcDbVisualStyle
  2
Shaded with edges
 70
    26
177
     2
291
     0
 71
     2
176
     1
 72
     2
176
     1
 73
     1
176
     1
 90
        2
176
     1
 40
0.6
176
     1
 41
30.0
176
     1
 63
     7
421
 16777215
176
     1
 74
     1
176
     1
 91
        2
176
     1
 64
     7
176
     1
 65
   257
176
     1
 75
     2
176
     1
175
     1
176
     1
 42
1.0
176
     1
 92
        8
176
     1
 66
   257
176
     1
 43
1.0
176
     1
 76
     1
176
     1
 77
     6
176
     1
 78
     2
176
     1
 67
     7
176
     1
 79
     3
176
     1
170
     0
176
     1
171
     0
176
     1
290
     0
176
     1
 93
        5
176
     1
 44
0.0
176
     1
173
     0
176
     1
1001
ACAD
1000
AcDbSavedByObjectVersion
1070
     0
  0
VISUALSTYLE
  5
3A
102
{ACAD_XDICTIONARY
360
195
102
}
102
{ACAD_REACTORS
330
29
102
}
330
29
100
AcDbVisualStyle
  2
Shades of Gray
 70
    23
177
     2
291
     0
 71
     2
176
     1
 72
     2
176
     1
 73
     3
176
     1
 90
        0
176
     1
 40
0.6
176
     1
 41
30.0
176
     1
 63
     7
421
 16777215
176
     1
 74
     2
176
     1
 91
        2
176
     1
 64
     7
176
     1
 65
     7
176
     1
 75
     1
176
     1
175
     1
176
     1
 42
40.0
176
     1
 92
        8
176
     1
 66
     7
176
     1
 43
1.0
176
     1
 76
     1
176
     1
 77
     6
176
     1
 78
     2
176
     1
 67
     7
176
     1
 79
     3
176
     1
170
     0
176
     1
171
     0
176
     1
290
     0
176
     1
 93
        1
176
     1
 44
0.0
176
     1
173
     0
176
     1
1001
ACAD
1000
AcDbSavedByObjectVersion
1070
     0
  0
VISUALSTYLE
  5
3B
102
{ACAD_XDICTIONARY
360
197
102
}
102
{ACAD_REACTORS
330
29
102
}
330
29
100
AcDbVisualStyle
  2
Sketchy
 70
    24
177
     2
291
     0
 71
     1
176
     1
 72
     2
176
     1
 73
     2
176
     1
 90
        0
176
     1
 40
0.6
176
     1
 41
30.0
176
     1
 63
     7
421
 16777215
176
     1
 74
     2
176
     1
 91
        2
176
     1
 64
     7
176
     1
 65
     7
176
     1
 75
     1
176
     1
175
     1
176
     1
 42
40.0
176
     1
 92
       11
176
     1
 66
     7
176
     1
 43
1.0
176
     1
 76
     1
176
     1
 77
     6
176
     1
 78
     2
176
     1
 67
     7
176
     1
 79
     6
176
     1
170
     0
176
     1
171
     0
176
     1
290
     0
176
     1
 93
        1
176
     1
 44
0.0
176
     1
173
     0
176
     1
1001
ACAD
1000
AcDbSavedByObjectVersion
1070
     0
  0
VISUALSTYLE
  5
36
102
{ACAD_XDICTIONARY
360
18D
102
}
102
{ACAD_REACTORS
330
29
102
}
330
29
100
AcDbVisualStyle
  2
Thicken
 70
    13
177
     2
291
     1
 71
     2
176
     1
 72
     2
176
     1
 73
     0
176
     1
 90
        0
176
     1
 40
0.6
176
     1
 41
30.0
176
     1
 63
     7
421
 16777215
176
     1
 74
     1
176
     1
 91
        4
176
     1
 64
     7
176
     1
 65
   257
176
     1
 75
     1
176
     1
175
     1
176
     1
 42
1.0
176
     1
 92
       12
176
     1
 66
     7
176
     1
 43
1.0
176
     1
 76
     1
176
     1
 77
     6
176
     1
 78
     2
176
     1
 67
     7
176
     1
 79
     5
176
     1
170
     0
176
     1
171
     0
176
     1
290
     0
176
     1
 93
        1
176
     1
 44
0.0
176
     1
173
     0
176
     1
1001
ACAD
1000
AcDbSavedByObjectVersion
1070
     0
  0
VISUALSTYLE
  5
30
102
{ACAD_XDICTIONARY
360
181
102
}
102
{ACAD_REACTORS
330
29
102
}
330
29
100
AcDbVisualStyle
  2
Wireframe
 70
     5
177
     2
291
     0
 71
     0
176
     1
 72
     2
176
     1
 73
     0
176
     1
 90
        0
176
     1
 40
0.6
176
     1
 41
30.0
176
     1
 63
     7
421
 16777215
176
     1
 74
     1
176
     1
 91
        4
176
     1
 64
     7
176
     1
 65
   257
176
     1
 75
     1
176
     1
175
     1
176
     1
 42
1.0
176
     1
 92
        0
176
     1
 66
   257
176
     1
 43
1.0
176
     1
 76
     1
176
     1
 77
     6
176
     1
 78
     2
176
     1
 67
     7
176
     1
 79
     3
176
     1
170
     0
176
     1
171
     0
176
     1
290
     0
176
     1
 93
        1
176
     1
 44
0.0
176
     1
173
     0
176
     1
1001
ACAD
1000
AcDbSavedByObjectVersion
1070
     0
  0
VISUALSTYLE
  5
3C
102
{ACAD_XDICTIONARY
360
199
102
}
102
{ACAD_REACTORS
330
29
102
}
330
29
100
AcDbVisualStyle
  2
X-Ray
 70
    25
177
     2
291
     0
 71
     2
176
     1
 72
     2
176
     1
 73
     1
176
     1
 90
        1
176
     1
 40
0.5
176
     1
 41
30.0
176
     1
 63
     7
421
 16777215
176
     1
 74
     1
176
     1
 91
        0
176
     1
 64
     7
176
     1
 65
   257
176
     1
 75
     1
176
     1
175
     1
176
     1
 42
1.0
176
     1
 92
        8
176
     1
 66
     7
176
     1
 43
1.0
176
     1
 76
     1
176
     1
 77
     6
176
     1
 78
     2
176
     1
 67
     7
176
     1
 79
     3
176
     1
170
     0
176
     1
171
     0
176
     1
290
     0
176
     1
 93
       13
176
     1
 44
0.0
176
     1
173
     0
176
     1
1001
ACAD
1000
AcDbSavedByObjectVersion
1070
     0
  0
DICTIONARYVAR
  5
171
102
{ACAD_REACTORS
330
16C
102
}
330
16C
100
DictionaryVariables
280
     0
  1
1:1
  0
DICTIONARYVAR
  5
16E
102
{ACAD_REACTORS
330
16C
102
}
330
16C
100
DictionaryVariables
280
     0
  1
STANDARD
  0
DICTIONARYVAR
  5
16D
102
{ACAD_REACTORS
330
16C
102
}
330
16C
100
DictionaryVariables
280
     0
  1
STANDARD
  0
DICTIONARYVAR
  5
16F
102
{ACAD_REACTORS
330
16C
102
}
330
16C
100
DictionaryVariables
280
     0
  1
Imperial24
  0
DICTIONARYVAR
  5
170
102
{ACAD_REACTORS
330
16C
102
}
330
16C
100
DictionaryVariables
280
     0
  1
Imperial24
  0
DICTIONARY
  5
1A9
330
6B
100
AcDbDictionary
280
     1
281
     1
  3
ACAD_XREC_ROUNDTRIP
360
1AA
  0
DICTIONARY
  5
1A
330
19
100
AcDbDictionary
280
     1
281
     1
  3
BUMPTILE
360
1C
  3
DIFFUSETILE
360
1B
  3
OPACITYTILE
360
1F
  3
REFLECTIONTILE
360
1E
  3
REFRACTIONTILE
360
20
  3
SPECULARTILE
360
1D
  0
DICTIONARY
  5
12
330
11
100
AcDbDictionary
280
     1
281
     1
  3
BUMPTILE
360
14
  3
DIFFUSETILE
360
13
  3
OPACITYTILE
360
17
  3
REFLECTIONTILE
360
16
  3
REFRACTIONTILE
360
18
  3
SPECULARTILE
360
15
  0
DICTIONARY
  5
22
330
21
100
AcDbDictionary
280
     1
281
     1
  3
BUMPTILE
360
24
  3
DIFFUSETILE
360
23
  3
OPACITYTILE
360
27
  3
REFLECTIONTILE
360
26
  3
REFRACTIONTILE
360
28
  3
SPECULARTILE
360
25
  0
DICTIONARY
  5
1A5
330
67
100
AcDbDictionary
280
     1
281
     1
  3
ACAD_XREC_ROUNDTRIP
360
1A6
  0
DICTIONARY
  5
1A7
330
69
100
AcDbDictionary
280
     1
281
     1
  3
ACAD_XREC_ROUNDTRIP
360
1A8
  0
DICTIONARY
  5
172
330
65
100
AcDbDictionary
280
     1
281
     1
  3
ACAD_ROUNDTRIP_2008_TABLESTYLE_CELLSTYLEMAP
360
173
  0
DICTIONARY
  5
17F
330
2F
100
AcDbDictionary
280
     1
281
     1
  3
ACAD_XREC_ROUNDTRIP
360
180
  0
DICTIONARY
  5
17D
330
2E
100
AcDbDictionary
280
     1
281
     1
  3
ACAD_XREC_ROUNDTRIP
360
17E
  0
DICTIONARY
  5
18B
330
35
100
AcDbDictionary
280
     1
281
     1
  3
ACAD_XREC_ROUNDTRIP
360
18C
  0
DICTIONARY
  5
193
330
39
100
AcDbDictionary
280
     1
281
     1
  3
ACAD_XREC_ROUNDTRIP
360
194
  0
DICTIONARY
  5
185
330
32
100
AcDbDictionary
280
     1
281
     1
  3
ACAD_XREC_ROUNDTRIP
360
186
  0
DICTIONARY
  5
189
330
34
100
AcDbDictionary
280
     1
281
     1
  3
ACAD_XREC_ROUNDTRIP
360
18A
  0
DICTIONARY
  5
1A3
330
41
100
AcDbDictionary
280
     1
281
     1
  3
ACAD_XREC_ROUNDTRIP
360
1A4
  0
DICTIONARY
  5
191
330
38
100
AcDbDictionary
280
     1
281
     1
  3
ACAD_XREC_ROUNDTRIP
360
192
  0
DICTIONARY
  5
175
330
2A
100
AcDbDictionary
280
     1
281
     1
  3
ACAD_XREC_ROUNDTRIP
360
176
  0
DICTIONARY
  5
177
330
2B
100
AcDbDictionary
280
     1
281
     1
  3
ACAD_XREC_ROUNDTRIP
360
178
  0
DICTIONARY
  5
179
330
2C
100
AcDbDictionary
280
     1
281
     1
  3
ACAD_XREC_ROUNDTRIP
360
17A
  0
DICTIONARY
  5
17B
330
2D
100
AcDbDictionary
280
     1
281
     1
  3
ACAD_XREC_ROUNDTRIP
360
17C
  0
DICTIONARY
  5
183
330
31
100
AcDbDictionary
280
     1
281
     1
  3
ACAD_XREC_ROUNDTRIP
360
184
  0
DICTIONARY
  5
19F
330
3F
100
AcDbDictionary
280
     1
281
     1
  3
ACAD_XREC_ROUNDTRIP
360
1A0
  0
DICTIONARY
  5
18F
330
37
100
AcDbDictionary
280
     1
281
     1
  3
ACAD_XREC_ROUNDTRIP
360
190
  0
DICTIONARY
  5
1A1
330
40
100
AcDbDictionary
280
     1
281
     1
  3
ACAD_XREC_ROUNDTRIP
360
1A2
  0
DICTIONARY
  5
187
330
33
100
AcDbDictionary
280
     1
281
     1
  3
ACAD_XREC_ROUNDTRIP
360
188
  0
DICTIONARY
  5
19D
330
3E
100
AcDbDictionary
280
     1
281
     1
  3
ACAD_XREC_ROUNDTRIP
360
19E
  0
DICTIONARY
  5
19B
330
3D
100
AcDbDictionary
280
     1
281
     1
  3
ACAD_XREC_ROUNDTRIP
360
19C
  0
DICTIONARY
  5
195
330
3A
100
AcDbDictionary
280
     1
281
     1
  3
ACAD_XREC_ROUNDTRIP
360
196
  0
DICTIONARY
  5
197
330
3B
100
AcDbDictionary
280
     1
281
     1
  3
ACAD_XREC_ROUNDTRIP
360
198
  0
DICTIONARY
  5
18D
330
36
100
AcDbDictionary
280
     1
281
     1
  3
ACAD_XREC_ROUNDTRIP
360
18E
  0
DICTIONARY
  5
181
330
30
100
AcDbDictionary
280
     1
281
     1
  3
ACAD_XREC_ROUNDTRIP
360
182
  0
DICTIONARY
  5
199
330
3C
100
AcDbDictionary
280
     1
281
     1
  3
ACAD_XREC_ROUNDTRIP
360
19A
  0
XRECORD
  5
1AA
102
{ACAD_REACTORS
330
1A9
102
}
330
1A9
100
AcDbXrecord
280
     1
102
DISPLAYNAME
  1
Imperial24
102
FLAGS
 90
        0
  0
XRECORD
  5
1C
102
{ACAD_REACTORS
330
1A
102
}
330
1A
100
AcDbXrecord
280
     1
270
     1
271
     1
  0
XRECORD
  5
1B
102
{ACAD_REACTORS
330
1A
102
}
330
1A
100
AcDbXrecord
280
     1
270
     1
271
     1
  0
XRECORD
  5
1F
102
{ACAD_REACTORS
330
1A
102
}
330
1A
100
AcDbXrecord
280
     1
270
     1
271
     1
  0
XRECORD
  5
1E
102
{ACAD_REACTORS
330
1A
102
}
330
1A
100
AcDbXrecord
280
     1
270
     1
271
     1
  0
XRECORD
  5
20
102
{ACAD_REACTORS
330
1A
102
}
330
1A
100
AcDbXrecord
280
     1
270
     1
271
     1
  0
XRECORD
  5
1D
102
{ACAD_REACTORS
330
1A
102
}
330
1A
100
AcDbXrecord
280
     1
270
     1
271
     1
  0
XRECORD
  5
14
102
{ACAD_REACTORS
330
12
102
}
330
12
100
AcDbXrecord
280
     1
270
     1
271
     1
  0
XRECORD
  5
13
102
{ACAD_REACTORS
330
12
102
}
330
12
100
AcDbXrecord
280
     1
270
     1
271
     1
  0
XRECORD
  5
17
102
{ACAD_REACTORS
330
12
102
}
330
12
100
AcDbXrecord
280
     1
270
     1
271
     1
  0
XRECORD
  5
16
102
{ACAD_REACTORS
330
12
102
}
330
12
100
AcDbXrecord
280
     1
270
     1
271
     1
  0
XRECORD
  5
18
102
{ACAD_REACTORS
330
12
102
}
330
12
100
AcDbXrecord
280
     1
270
     1
271
     1
  0
XRECORD
  5
15
102
{ACAD_REACTORS
330
12
102
}
330
12
100
AcDbXrecord
280
     1
270
     1
271
     1
  0
XRECORD
  5
24
102
{ACAD_REACTORS
330
22
102
}
330
22
100
AcDbXrecord
280
     1
270
     1
271
     1
  0
XRECORD
  5
23
102
{ACAD_REACTORS
330
22
102
}
330
22
100
AcDbXrecord
280
     1
270
     1
271
     1
  0
XRECORD
  5
27
102
{ACAD_REACTORS
330
22
102
}
330
22
100
AcDbXrecord
280
     1
270
     1
271
     1
  0
XRECORD
  5
26
102
{ACAD_REACTORS
330
22
102
}
330
22
100
AcDbXrecord
280
     1
270
     1
271
     1
  0
XRECORD
  5
28
102
{ACAD_REACTORS
330
22
102
}
330
22
100
AcDbXrecord
280
     1
270
     1
271
     1
  0
XRECORD
  5
25
102
{ACAD_REACTORS
330
22
102
}
330
22
100
AcDbXrecord
280
     1
270
     1
271
     1
  0
XRECORD
  5
1A6
102
{ACAD_REACTORS
330
1A5
102
}
330
1A5
100
AcDbXrecord
280
     1
102
ACAD_ROUNDTRIP_2012_MLEADER_STYLE
298
     1
  0
XRECORD
  5
1A8
102
{ACAD_REACTORS
330
1A7
102
}
330
1A7
100
AcDbXrecord
280
     1
102
DISPLAYNAME
  1
Imperial24
102
FLAGS
 90
        0
  0
CELLSTYLEMAP
  5
173
102
{ACAD_REACTORS
330
172
102
}
330
172
100
AcDbCellStyleMap
 90
        3
300
CELLSTYLE
  1
TABLEFORMAT_BEGIN
 90
        5
170
     1
 91
        0
 92
    32768
 62
   257
 93
        1
300
CONTENTFORMAT
  1
CONTENTFORMAT_BEGIN
 90
        0
 91
        0
 92
      512
 93
        0
300

 40
0.0
140
1.0
 94
        5
 62
     0
340
55
144
0.25
309
CONTENTFORMAT_END
171
     0
 94
        0
309
TABLEFORMAT_END
  1
CELLSTYLE_BEGIN
 90
        1
 91
        1
300
_TITLE
309
CELLSTYLE_END
300
CELLSTYLE
  1
TABLEFORMAT_BEGIN
 90
        5
170
     1
 91
        0
 92
        0
 62
   257
 93
        1
300
CONTENTFORMAT
  1
CONTENTFORMAT_BEGIN
 90
        0
 91
        0
 92
      512
 93
        0
300

 40
0.0
140
1.0
 94
        5
 62
     0
340
55
144
0.18
309
CONTENTFORMAT_END
171
     0
 94
        0
309
TABLEFORMAT_END
  1
CELLSTYLE_BEGIN
 90
        2
 91
        1
300
_HEADER
309
CELLSTYLE_END
300
CELLSTYLE
  1
TABLEFORMAT_BEGIN
 90
        5
170
     1
 91
        0
 92
        0
 62
   257
 93
        1
300
CONTENTFORMAT
  1
CONTENTFORMAT_BEGIN
 90
        0
 91
        0
 92
      512
 93
        0
300

 40
0.0
140
1.0
 94
        2
 62
     0
340
55
144
0.18
309
CONTENTFORMAT_END
171
     0
 94
        0
309
TABLEFORMAT_END
  1
CELLSTYLE_BEGIN
 90
        3
 91
        2
300
_DATA
309
CELLSTYLE_END
  0
XRECORD
  5
180
102
{ACAD_REACTORS
330
17F
102
}
330
17F
100
AcDbXrecord
280
     1
102
RTVSPost2010Prop28
280
     1
102
RTVSPost2010PropOp28
 70
     1
102
RTVSPost2010Prop29
280
     1
102
RTVSPost2010PropOp29
 70
     1
102
RTVSPost2010Prop30
280
     0
102
RTVSPost2010PropOp30
 70
     1
102
RTVSPost2010Prop31
280
     0
102
RTVSPost2010PropOp31
 70
     1
102
RTVSPost2010Prop32
280
     0
102
RTVSPost2010PropOp32
 70
     1
102
RTVSPost2010Prop33
280
     0
102
RTVSPost2010PropOp33
 70
     1
102
RTVSPost2010Prop34
280
     0
102
RTVSPost2010PropOp34
 70
     1
102
RTVSPost2010Prop35
280
     0
102
RTVSPost2010PropOp35
 70
     1
102
RTVSPost2010Prop36
280
     0
102
RTVSPost2010PropOp36
 70
     1
102
RTVSPost2010Prop37
 90
       50
102
RTVSPost2010PropOp37
 70
     1
102
RTVSPost2010Prop38
140
0.0
102
RTVSPost2010PropOp38
 70
     1
102
RTVSPost2010Prop39
140
1.0
102
RTVSPost2010PropOp39
 70
     1
102
RTVSPost2010Prop40
 90
        0
102
RTVSPost2010PropOp40
 70
     1
102
RTVSPost2010Prop41ColorIndex
 90
       18
102
RTVSPost2010Prop41ColorRGB
 90
        0
102
RTVSPost2010PropOp41
 70
     1
102
RTVSPost2010Prop42
 90
       50
102
RTVSPost2010PropOp42
 70
     1
102
RTVSPost2010Prop43
 90
        3
102
RTVSPost2010PropOp43
 70
     1
102
RTVSPost2010Prop44ColorIndex
 90
        5
102
RTVSPost2010Prop44ColorRGB
 90
      255
102
RTVSPost2010PropOp44
 70
     1
102
RTVSPost2010Prop45
280
     0
102
RTVSPost2010PropOp45
 70
     1
102
RTVSPost2010Prop46
 90
       50
102
RTVSPost2010PropOp46
 70
     1
102
RTVSPost2010Prop47
 90
       50
102
RTVSPost2010PropOp47
 70
     1
102
RTVSPost2010Prop48
 90
       50
102
RTVSPost2010PropOp48
 70
     1
102
RTVSPost2010Prop49
280
     0
102
RTVSPost2010PropOp49
 70
     1
102
RTVSPost2010Prop50
 90
       50
102
RTVSPost2010PropOp50
 70
     1
102
RTVSPost2010Prop51ColorIndex
 90
      256
102
RTVSPost2010Prop51ColorRGB
 90
-16777216
102
RTVSPost2010PropOp51
 70
     0
102
RTVSPost2010Prop52
140
1.0
102
RTVSPost2010PropOp52
 70
     0
102
RTVSPost2010Prop53
 90
        2
102
RTVSPost2010PropOp53
 70
     1
102
RTVSPost2010Prop54
  1
strokes_ogs.tif
102
RTVSPost2010PropOp54
 70
     1
102
RTVSPost2010Prop55
280
     0
102
RTVSPost2010PropOp55
 70
     1
102
RTVSPost2010Prop56
140
1.0
102
RTVSPost2010PropOp56
 70
     1
102
RTVSPost2010Prop57
140
1.0
102
RTVSPost2010PropOp57
 70
     1
  0
XRECORD
  5
17E
102
{ACAD_REACTORS
330
17D
102
}
330
17D
100
AcDbXrecord
280
     1
102
RTVSPost2010Prop28
280
     0
102
RTVSPost2010PropOp28
 70
     1
102
RTVSPost2010Prop29
280
     1
102
RTVSPost2010PropOp29
 70
     1
102
RTVSPost2010Prop30
280
     1
102
RTVSPost2010PropOp30
 70
     1
102
RTVSPost2010Prop31
280
     0
102
RTVSPost2010PropOp31
 70
     1
102
RTVSPost2010Prop32
280
     0
102
RTVSPost2010PropOp32
 70
     1
102
RTVSPost2010Prop33
280
     0
102
RTVSPost2010PropOp33
 70
     1
102
RTVSPost2010Prop34
280
     0
102
RTVSPost2010PropOp34
 70
     1
102
RTVSPost2010Prop35
280
     0
102
RTVSPost2010PropOp35
 70
     1
102
RTVSPost2010Prop36
280
     0
102
RTVSPost2010PropOp36
 70
     1
102
RTVSPost2010Prop37
 90
       50
102
RTVSPost2010PropOp37
 70
     1
102
RTVSPost2010Prop38
140
0.0
102
RTVSPost2010PropOp38
 70
     1
102
RTVSPost2010Prop39
140
1.0
102
RTVSPost2010PropOp39
 70
     1
102
RTVSPost2010Prop40
 90
        0
102
RTVSPost2010PropOp40
 70
     1
102
RTVSPost2010Prop41ColorIndex
 90
       18
102
RTVSPost2010Prop41ColorRGB
 90
        0
102
RTVSPost2010PropOp41
 70
     1
102
RTVSPost2010Prop42
 90
       50
102
RTVSPost2010PropOp42
 70
     1
102
RTVSPost2010Prop43
 90
        3
102
RTVSPost2010PropOp43
 70
     1
102
RTVSPost2010Prop44ColorIndex
 90
        5
102
RTVSPost2010Prop44ColorRGB
 90
      255
102
RTVSPost2010PropOp44
 70
     1
102
RTVSPost2010Prop45
280
     0
102
RTVSPost2010PropOp45
 70
     1
102
RTVSPost2010Prop46
 90
       50
102
RTVSPost2010PropOp46
 70
     1
102
RTVSPost2010Prop47
 90
       50
102
RTVSPost2010PropOp47
 70
     1
102
RTVSPost2010Prop48
 90
       50
102
RTVSPost2010PropOp48
 70
     1
102
RTVSPost2010Prop49
280
     0
102
RTVSPost2010PropOp49
 70
     1
102
RTVSPost2010Prop50
 90
       50
102
RTVSPost2010PropOp50
 70
     1
102
RTVSPost2010Prop51ColorIndex
 90
      256
102
RTVSPost2010Prop51ColorRGB
 90
-16777216
102
RTVSPost2010PropOp51
 70
     0
102
RTVSPost2010Prop52
140
1.0
102
RTVSPost2010PropOp52
 70
     0
102
RTVSPost2010Prop53
 90
        2
102
RTVSPost2010PropOp53
 70
     1
102
RTVSPost2010Prop54
  1
strokes_ogs.tif
102
RTVSPost2010PropOp54
 70
     1
102
RTVSPost2010Prop55
280
     0
102
RTVSPost2010PropOp55
 70
     1
102
RTVSPost2010Prop56
140
1.0
102
RTVSPost2010PropOp56
 70
     1
102
RTVSPost2010Prop57
140
1.0
102
RTVSPost2010PropOp57
 70
     1
  0
XRECORD
  5
18C
102
{ACAD_REACTORS
330
18B
102
}
330
18B
100
AcDbXrecord
280
     1
102
RTVSPost2010Prop28
280
     0
102
RTVSPost2010PropOp28
 70
     1
102
RTVSPost2010Prop29
280
     1
102
RTVSPost2010PropOp29
 70
     1
102
RTVSPost2010Prop30
280
     1
102
RTVSPost2010PropOp30
 70
     1
102
RTVSPost2010Prop31
280
     0
102
RTVSPost2010PropOp31
 70
     1
102
RTVSPost2010Prop32
280
     0
102
RTVSPost2010PropOp32
 70
     1
102
RTVSPost2010Prop33
280
     0
102
RTVSPost2010PropOp33
 70
     1
102
RTVSPost2010Prop34
280
     0
102
RTVSPost2010PropOp34
 70
     1
102
RTVSPost2010Prop35
280
     0
102
RTVSPost2010PropOp35
 70
     1
102
RTVSPost2010Prop36
280
     0
102
RTVSPost2010PropOp36
 70
     1
102
RTVSPost2010Prop37
 90
       50
102
RTVSPost2010PropOp37
 70
     1
102
RTVSPost2010Prop38
140
0.0
102
RTVSPost2010PropOp38
 70
     1
102
RTVSPost2010Prop39
140
1.0
102
RTVSPost2010PropOp39
 70
     1
102
RTVSPost2010Prop40
 90
        0
102
RTVSPost2010PropOp40
 70
     1
102
RTVSPost2010Prop41ColorIndex
 90
       18
102
RTVSPost2010Prop41ColorRGB
 90
        0
102
RTVSPost2010PropOp41
 70
     1
102
RTVSPost2010Prop42
 90
       50
102
RTVSPost2010PropOp42
 70
     1
102
RTVSPost2010Prop43
 90
        3
102
RTVSPost2010PropOp43
 70
     1
102
RTVSPost2010Prop44ColorIndex
 90
        5
102
RTVSPost2010Prop44ColorRGB
 90
      255
102
RTVSPost2010PropOp44
 70
     1
102
RTVSPost2010Prop45
280
     0
102
RTVSPost2010PropOp45
 70
     1
102
RTVSPost2010Prop46
 90
       50
102
RTVSPost2010PropOp46
 70
     1
102
RTVSPost2010Prop47
 90
       50
102
RTVSPost2010PropOp47
 70
     1
102
RTVSPost2010Prop48
 90
       50
102
RTVSPost2010PropOp48
 70
     1
102
RTVSPost2010Prop49
280
     0
102
RTVSPost2010PropOp49
 70
     1
102
RTVSPost2010Prop50
 90
       50
102
RTVSPost2010PropOp50
 70
     1
102
RTVSPost2010Prop51ColorIndex
 90
      256
102
RTVSPost2010Prop51ColorRGB
 90
-16777216
102
RTVSPost2010PropOp51
 70
     0
102
RTVSPost2010Prop52
140
1.0
102
RTVSPost2010PropOp52
 70
     0
102
RTVSPost2010Prop53
 90
        2
102
RTVSPost2010PropOp53
 70
     1
102
RTVSPost2010Prop54
  1
strokes_ogs.tif
102
RTVSPost2010PropOp54
 70
     1
102
RTVSPost2010Prop55
280
     0
102
RTVSPost2010PropOp55
 70
     1
102
RTVSPost2010Prop56
140
1.0
102
RTVSPost2010PropOp56
 70
     1
102
RTVSPost2010Prop57
140
1.0
102
RTVSPost2010PropOp57
 70
     1
  0
XRECORD
  5
194
102
{ACAD_REACTORS
330
193
102
}
330
193
100
AcDbXrecord
280
     1
102
RTVSPost2010Prop28
280
     0
102
RTVSPost2010PropOp28
 70
     1
102
RTVSPost2010Prop29
280
     1
102
RTVSPost2010PropOp29
 70
     1
102
RTVSPost2010Prop30
280
     1
102
RTVSPost2010PropOp30
 70
     1
102
RTVSPost2010Prop31
280
     0
102
RTVSPost2010PropOp31
 70
     1
102
RTVSPost2010Prop32
280
     0
102
RTVSPost2010PropOp32
 70
     1
102
RTVSPost2010Prop33
280
     0
102
RTVSPost2010PropOp33
 70
     1
102
RTVSPost2010Prop34
280
     0
102
RTVSPost2010PropOp34
 70
     1
102
RTVSPost2010Prop35
280
     0
102
RTVSPost2010PropOp35
 70
     1
102
RTVSPost2010Prop36
280
     0
102
RTVSPost2010PropOp36
 70
     1
102
RTVSPost2010Prop37
 90
       50
102
RTVSPost2010PropOp37
 70
     1
102
RTVSPost2010Prop38
140
0.0
102
RTVSPost2010PropOp38
 70
     1
102
RTVSPost2010Prop39
140
1.0
102
RTVSPost2010PropOp39
 70
     1
102
RTVSPost2010Prop40
 90
        0
102
RTVSPost2010PropOp40
 70
     1
102
RTVSPost2010Prop41ColorIndex
 90
       18
102
RTVSPost2010Prop41ColorRGB
 90
        0
102
RTVSPost2010PropOp41
 70
     1
102
RTVSPost2010Prop42
 90
       50
102
RTVSPost2010PropOp42
 70
     1
102
RTVSPost2010Prop43
 90
        3
102
RTVSPost2010PropOp43
 70
     1
102
RTVSPost2010Prop44ColorIndex
 90
        5
102
RTVSPost2010Prop44ColorRGB
 90
      255
102
RTVSPost2010PropOp44
 70
     1
102
RTVSPost2010Prop45
280
     0
102
RTVSPost2010PropOp45
 70
     1
102
RTVSPost2010Prop46
 90
       50
102
RTVSPost2010PropOp46
 70
     1
102
RTVSPost2010Prop47
 90
       50
102
RTVSPost2010PropOp47
 70
     1
102
RTVSPost2010Prop48
 90
       50
102
RTVSPost2010PropOp48
 70
     1
102
RTVSPost2010Prop49
280
     0
102
RTVSPost2010PropOp49
 70
     1
102
RTVSPost2010Prop50
 90
       50
102
RTVSPost2010PropOp50
 70
     1
102
RTVSPost2010Prop51ColorIndex
 90
      256
102
RTVSPost2010Prop51ColorRGB
 90
-16777216
102
RTVSPost2010PropOp51
 70
     0
102
RTVSPost2010Prop52
140
1.0
102
RTVSPost2010PropOp52
 70
     0
102
RTVSPost2010Prop53
 90
        2
102
RTVSPost2010PropOp53
 70
     1
102
RTVSPost2010Prop54
  1
strokes_ogs.tif
102
RTVSPost2010PropOp54
 70
     1
102
RTVSPost2010Prop55
280
     0
102
RTVSPost2010PropOp55
 70
     1
102
RTVSPost2010Prop56
140
1.0
102
RTVSPost2010PropOp56
 70
     1
102
RTVSPost2010Prop57
140
1.0
102
RTVSPost2010PropOp57
 70
     1
  0
XRECORD
  5
186
102
{ACAD_REACTORS
330
185
102
}
330
185
100
AcDbXrecord
280
     1
102
RTVSPost2010Prop28
280
     0
102
RTVSPost2010PropOp28
 70
     1
102
RTVSPost2010Prop29
280
     1
102
RTVSPost2010PropOp29
 70
     1
102
RTVSPost2010Prop30
280
     1
102
RTVSPost2010PropOp30
 70
     1
102
RTVSPost2010Prop31
280
     0
102
RTVSPost2010PropOp31
 70
     1
102
RTVSPost2010Prop32
280
     0
102
RTVSPost2010PropOp32
 70
     1
102
RTVSPost2010Prop33
280
     0
102
RTVSPost2010PropOp33
 70
     1
102
RTVSPost2010Prop34
280
     0
102
RTVSPost2010PropOp34
 70
     1
102
RTVSPost2010Prop35
280
     0
102
RTVSPost2010PropOp35
 70
     1
102
RTVSPost2010Prop36
280
     0
102
RTVSPost2010PropOp36
 70
     1
102
RTVSPost2010Prop37
 90
       50
102
RTVSPost2010PropOp37
 70
     1
102
RTVSPost2010Prop38
140
0.0
102
RTVSPost2010PropOp38
 70
     1
102
RTVSPost2010Prop39
140
1.0
102
RTVSPost2010PropOp39
 70
     1
102
RTVSPost2010Prop40
 90
        0
102
RTVSPost2010PropOp40
 70
     1
102
RTVSPost2010Prop41ColorIndex
 90
       18
102
RTVSPost2010Prop41ColorRGB
 90
        0
102
RTVSPost2010PropOp41
 70
     1
102
RTVSPost2010Prop42
 90
       50
102
RTVSPost2010PropOp42
 70
     1
102
RTVSPost2010Prop43
 90
        3
102
RTVSPost2010PropOp43
 70
     1
102
RTVSPost2010Prop44ColorIndex
 90
        5
102
RTVSPost2010Prop44ColorRGB
 90
      255
102
RTVSPost2010PropOp44
 70
     1
102
RTVSPost2010Prop45
280
     0
102
RTVSPost2010PropOp45
 70
     1
102
RTVSPost2010Prop46
 90
       50
102
RTVSPost2010PropOp46
 70
     1
102
RTVSPost2010Prop47
 90
       50
102
RTVSPost2010PropOp47
 70
     1
102
RTVSPost2010Prop48
 90
       50
102
RTVSPost2010PropOp48
 70
     1
102
RTVSPost2010Prop49
280
     0
102
RTVSPost2010PropOp49
 70
     1
102
RTVSPost2010Prop50
 90
       50
102
RTVSPost2010PropOp50
 70
     1
102
RTVSPost2010Prop51ColorIndex
 90
      256
102
RTVSPost2010Prop51ColorRGB
 90
-16777216
102
RTVSPost2010PropOp51
 70
     0
102
RTVSPost2010Prop52
140
1.0
102
RTVSPost2010PropOp52
 70
     0
102
RTVSPost2010Prop53
 90
        2
102
RTVSPost2010PropOp53
 70
     1
102
RTVSPost2010Prop54
  1
strokes_ogs.tif
102
RTVSPost2010PropOp54
 70
     1
102
RTVSPost2010Prop55
280
     0
102
RTVSPost2010PropOp55
 70
     1
102
RTVSPost2010Prop56
140
1.0
102
RTVSPost2010PropOp56
 70
     1
102
RTVSPost2010Prop57
140
1.0
102
RTVSPost2010PropOp57
 70
     1
  0
XRECORD
  5
18A
102
{ACAD_REACTORS
330
189
102
}
330
189
100
AcDbXrecord
280
     1
102
RTVSPost2010Prop28
280
     0
102
RTVSPost2010PropOp28
 70
     1
102
RTVSPost2010Prop29
280
     1
102
RTVSPost2010PropOp29
 70
     1
102
RTVSPost2010Prop30
280
     1
102
RTVSPost2010PropOp30
 70
     1
102
RTVSPost2010Prop31
280
     0
102
RTVSPost2010PropOp31
 70
     1
102
RTVSPost2010Prop32
280
     0
102
RTVSPost2010PropOp32
 70
     1
102
RTVSPost2010Prop33
280
     0
102
RTVSPost2010PropOp33
 70
     1
102
RTVSPost2010Prop34
280
     0
102
RTVSPost2010PropOp34
 70
     1
102
RTVSPost2010Prop35
280
     0
102
RTVSPost2010PropOp35
 70
     1
102
RTVSPost2010Prop36
280
     0
102
RTVSPost2010PropOp36
 70
     1
102
RTVSPost2010Prop37
 90
       50
102
RTVSPost2010PropOp37
 70
     1
102
RTVSPost2010Prop38
140
0.0
102
RTVSPost2010PropOp38
 70
     1
102
RTVSPost2010Prop39
140
1.0
102
RTVSPost2010PropOp39
 70
     1
102
RTVSPost2010Prop40
 90
        0
102
RTVSPost2010PropOp40
 70
     1
102
RTVSPost2010Prop41ColorIndex
 90
       18
102
RTVSPost2010Prop41ColorRGB
 90
        0
102
RTVSPost2010PropOp41
 70
     1
102
RTVSPost2010Prop42
 90
       50
102
RTVSPost2010PropOp42
 70
     1
102
RTVSPost2010Prop43
 90
        3
102
RTVSPost2010PropOp43
 70
     1
102
RTVSPost2010Prop44ColorIndex
 90
        5
102
RTVSPost2010Prop44ColorRGB
 90
      255
102
RTVSPost2010PropOp44
 70
     1
102
RTVSPost2010Prop45
280
     0
102
RTVSPost2010PropOp45
 70
     1
102
RTVSPost2010Prop46
 90
       50
102
RTVSPost2010PropOp46
 70
     1
102
RTVSPost2010Prop47
 90
       50
102
RTVSPost2010PropOp47
 70
     1
102
RTVSPost2010Prop48
 90
       50
102
RTVSPost2010PropOp48
 70
     1
102
RTVSPost2010Prop49
280
     0
102
RTVSPost2010PropOp49
 70
     1
102
RTVSPost2010Prop50
 90
       50
102
RTVSPost2010PropOp50
 70
     1
102
RTVSPost2010Prop51ColorIndex
 90
      256
102
RTVSPost2010Prop51ColorRGB
 90
-16777216
102
RTVSPost2010PropOp51
 70
     0
102
RTVSPost2010Prop52
140
1.0
102
RTVSPost2010PropOp52
 70
     0
102
RTVSPost2010Prop53
 90
        2
102
RTVSPost2010PropOp53
 70
     1
102
RTVSPost2010Prop54
  1
strokes_ogs.tif
102
RTVSPost2010PropOp54
 70
     1
102
RTVSPost2010Prop55
280
     0
102
RTVSPost2010PropOp55
 70
     1
102
RTVSPost2010Prop56
140
1.0
102
RTVSPost2010PropOp56
 70
     1
102
RTVSPost2010Prop57
140
1.0
102
RTVSPost2010PropOp57
 70
     1
  0
XRECORD
  5
1A4
102
{ACAD_REACTORS
330
1A3
102
}
330
1A3
100
AcDbXrecord
280
     1
102
RTVSPost2010Prop28
280
     0
102
RTVSPost2010PropOp28
 70
     0
102
RTVSPost2010Prop29
280
     1
102
RTVSPost2010PropOp29
 70
     0
102
RTVSPost2010Prop30
280
     1
102
RTVSPost2010PropOp30
 70
     0
102
RTVSPost2010Prop31
280
     0
102
RTVSPost2010PropOp31
 70
     0
102
RTVSPost2010Prop32
280
     0
102
RTVSPost2010PropOp32
 70
     0
102
RTVSPost2010Prop33
280
     0
102
RTVSPost2010PropOp33
 70
     0
102
RTVSPost2010Prop34
280
     0
102
RTVSPost2010PropOp34
 70
     0
102
RTVSPost2010Prop35
280
     0
102
RTVSPost2010PropOp35
 70
     0
102
RTVSPost2010Prop36
280
     0
102
RTVSPost2010PropOp36
 70
     0
102
RTVSPost2010Prop37
 90
       50
102
RTVSPost2010PropOp37
 70
     0
102
RTVSPost2010Prop38
140
0.0
102
RTVSPost2010PropOp38
 70
     0
102
RTVSPost2010Prop39
140
1.0
102
RTVSPost2010PropOp39
 70
     0
102
RTVSPost2010Prop40
 90
        0
102
RTVSPost2010PropOp40
 70
     0
102
RTVSPost2010Prop41ColorIndex
 90
       18
102
RTVSPost2010Prop41ColorRGB
 90
        0
102
RTVSPost2010PropOp41
 70
     0
102
RTVSPost2010Prop42
 90
       50
102
RTVSPost2010PropOp42
 70
     0
102
RTVSPost2010Prop43
 90
        3
102
RTVSPost2010PropOp43
 70
     0
102
RTVSPost2010Prop44ColorIndex
 90
        5
102
RTVSPost2010Prop44ColorRGB
 90
      255
102
RTVSPost2010PropOp44
 70
     0
102
RTVSPost2010Prop45
280
     0
102
RTVSPost2010PropOp45
 70
     0
102
RTVSPost2010Prop46
 90
       50
102
RTVSPost2010PropOp46
 70
     0
102
RTVSPost2010Prop47
 90
       50
102
RTVSPost2010PropOp47
 70
     0
102
RTVSPost2010Prop48
 90
       50
102
RTVSPost2010PropOp48
 70
     0
102
RTVSPost2010Prop49
280
     0
102
RTVSPost2010PropOp49
 70
     0
102
RTVSPost2010Prop50
 90
       50
102
RTVSPost2010PropOp50
 70
     0
102
RTVSPost2010Prop51ColorIndex
 90
      256
102
RTVSPost2010Prop51ColorRGB
 90
-16777216
102
RTVSPost2010PropOp51
 70
     0
102
RTVSPost2010Prop52
140
1.0
102
RTVSPost2010PropOp52
 70
     0
102
RTVSPost2010Prop53
 90
        2
102
RTVSPost2010PropOp53
 70
     0
102
RTVSPost2010Prop54
  1
strokes_ogs.tif
102
RTVSPost2010PropOp54
 70
     0
102
RTVSPost2010Prop55
280
     0
102
RTVSPost2010PropOp55
 70
     0
102
RTVSPost2010Prop56
140
1.0
102
RTVSPost2010PropOp56
 70
     0
102
RTVSPost2010Prop57
140
1.0
102
RTVSPost2010PropOp57
 70
     0
  0
XRECORD
  5
192
102
{ACAD_REACTORS
330
191
102
}
330
191
100
AcDbXrecord
280
     1
102
RTVSPost2010Prop28
280
     0
102
RTVSPost2010PropOp28
 70
     1
102
RTVSPost2010Prop29
280
     1
102
RTVSPost2010PropOp29
 70
     1
102
RTVSPost2010Prop30
280
     1
102
RTVSPost2010PropOp30
 70
     1
102
RTVSPost2010Prop31
280
     0
102
RTVSPost2010PropOp31
 70
     1
102
RTVSPost2010Prop32
280
     0
102
RTVSPost2010PropOp32
 70
     1
102
RTVSPost2010Prop33
280
     0
102
RTVSPost2010PropOp33
 70
     1
102
RTVSPost2010Prop34
280
     0
102
RTVSPost2010PropOp34
 70
     1
102
RTVSPost2010Prop35
280
     0
102
RTVSPost2010PropOp35
 70
     1
102
RTVSPost2010Prop36
280
     0
102
RTVSPost2010PropOp36
 70
     1
102
RTVSPost2010Prop37
 90
       50
102
RTVSPost2010PropOp37
 70
     1
102
RTVSPost2010Prop38
140
0.0
102
RTVSPost2010PropOp38
 70
     1
102
RTVSPost2010Prop39
140
1.0
102
RTVSPost2010PropOp39
 70
     1
102
RTVSPost2010Prop40
 90
        0
102
RTVSPost2010PropOp40
 70
     1
102
RTVSPost2010Prop41ColorIndex
 90
       18
102
RTVSPost2010Prop41ColorRGB
 90
        0
102
RTVSPost2010PropOp41
 70
     1
102
RTVSPost2010Prop42
 90
       50
102
RTVSPost2010PropOp42
 70
     1
102
RTVSPost2010Prop43
 90
        3
102
RTVSPost2010PropOp43
 70
     1
102
RTVSPost2010Prop44ColorIndex
 90
        5
102
RTVSPost2010Prop44ColorRGB
 90
      255
102
RTVSPost2010PropOp44
 70
     1
102
RTVSPost2010Prop45
280
     0
102
RTVSPost2010PropOp45
 70
     1
102
RTVSPost2010Prop46
 90
       50
102
RTVSPost2010PropOp46
 70
     1
102
RTVSPost2010Prop47
 90
       50
102
RTVSPost2010PropOp47
 70
     1
102
RTVSPost2010Prop48
 90
       50
102
RTVSPost2010PropOp48
 70
     1
102
RTVSPost2010Prop49
280
     0
102
RTVSPost2010PropOp49
 70
     1
102
RTVSPost2010Prop50
 90
       50
102
RTVSPost2010PropOp50
 70
     1
102
RTVSPost2010Prop51ColorIndex
 90
      256
102
RTVSPost2010Prop51ColorRGB
 90
-16777216
102
RTVSPost2010PropOp51
 70
     0
102
RTVSPost2010Prop52
140
1.0
102
RTVSPost2010PropOp52
 70
     0
102
RTVSPost2010Prop53
 90
        2
102
RTVSPost2010PropOp53
 70
     1
102
RTVSPost2010Prop54
  1
strokes_ogs.tif
102
RTVSPost2010PropOp54
 70
     1
102
RTVSPost2010Prop55
280
     0
102
RTVSPost2010PropOp55
 70
     1
102
RTVSPost2010Prop56
140
1.0
102
RTVSPost2010PropOp56
 70
     1
102
RTVSPost2010Prop57
140
1.0
102
RTVSPost2010PropOp57
 70
     1
  0
XRECORD
  5
176
102
{ACAD_REACTORS
330
175
102
}
330
175
100
AcDbXrecord
280
     1
102
RTVSPost2010Prop28
280
     0
102
RTVSPost2010PropOp28
 70
     1
102
RTVSPost2010Prop29
280
     1
102
RTVSPost2010PropOp29
 70
     1
102
RTVSPost2010Prop30
280
     1
102
RTVSPost2010PropOp30
 70
     1
102
RTVSPost2010Prop31
280
     0
102
RTVSPost2010PropOp31
 70
     1
102
RTVSPost2010Prop32
280
     0
102
RTVSPost2010PropOp32
 70
     1
102
RTVSPost2010Prop33
280
     0
102
RTVSPost2010PropOp33
 70
     1
102
RTVSPost2010Prop34
280
     0
102
RTVSPost2010PropOp34
 70
     1
102
RTVSPost2010Prop35
280
     0
102
RTVSPost2010PropOp35
 70
     1
102
RTVSPost2010Prop36
280
     0
102
RTVSPost2010PropOp36
 70
     1
102
RTVSPost2010Prop37
 90
       50
102
RTVSPost2010PropOp37
 70
     1
102
RTVSPost2010Prop38
140
0.0
102
RTVSPost2010PropOp38
 70
     1
102
RTVSPost2010Prop39
140
1.0
102
RTVSPost2010PropOp39
 70
     1
102
RTVSPost2010Prop40
 90
        0
102
RTVSPost2010PropOp40
 70
     1
102
RTVSPost2010Prop41ColorIndex
 90
       18
102
RTVSPost2010Prop41ColorRGB
 90
        0
102
RTVSPost2010PropOp41
 70
     1
102
RTVSPost2010Prop42
 90
       50
102
RTVSPost2010PropOp42
 70
     1
102
RTVSPost2010Prop43
 90
        3
102
RTVSPost2010PropOp43
 70
     1
102
RTVSPost2010Prop44ColorIndex
 90
        5
102
RTVSPost2010Prop44ColorRGB
 90
      255
102
RTVSPost2010PropOp44
 70
     1
102
RTVSPost2010Prop45
280
     0
102
RTVSPost2010PropOp45
 70
     1
102
RTVSPost2010Prop46
 90
       50
102
RTVSPost2010PropOp46
 70
     1
102
RTVSPost2010Prop47
 90
       50
102
RTVSPost2010PropOp47
 70
     1
102
RTVSPost2010Prop48
 90
       50
102
RTVSPost2010PropOp48
 70
     1
102
RTVSPost2010Prop49
280
     0
102
RTVSPost2010PropOp49
 70
     1
102
RTVSPost2010Prop50
 90
       50
102
RTVSPost2010PropOp50
 70
     1
102
RTVSPost2010Prop51ColorIndex
 90
      256
102
RTVSPost2010Prop51ColorRGB
 90
-16777216
102
RTVSPost2010PropOp51
 70
     0
102
RTVSPost2010Prop52
140
1.0
102
RTVSPost2010PropOp52
 70
     0
102
RTVSPost2010Prop53
 90
        2
102
RTVSPost2010PropOp53
 70
     1
102
RTVSPost2010Prop54
  1
strokes_ogs.tif
102
RTVSPost2010PropOp54
 70
     1
102
RTVSPost2010Prop55
280
     0
102
RTVSPost2010PropOp55
 70
     1
102
RTVSPost2010Prop56
140
1.0
102
RTVSPost2010PropOp56
 70
     1
102
RTVSPost2010Prop57
140
1.0
102
RTVSPost2010PropOp57
 70
     1
  0
XRECORD
  5
178
102
{ACAD_REACTORS
330
177
102
}
330
177
100
AcDbXrecord
280
     1
102
RTVSPost2010Prop28
280
     0
102
RTVSPost2010PropOp28
 70
     1
102
RTVSPost2010Prop29
280
     1
102
RTVSPost2010PropOp29
 70
     1
102
RTVSPost2010Prop30
280
     1
102
RTVSPost2010PropOp30
 70
     1
102
RTVSPost2010Prop31
280
     0
102
RTVSPost2010PropOp31
 70
     1
102
RTVSPost2010Prop32
280
     0
102
RTVSPost2010PropOp32
 70
     1
102
RTVSPost2010Prop33
280
     0
102
RTVSPost2010PropOp33
 70
     1
102
RTVSPost2010Prop34
280
     0
102
RTVSPost2010PropOp34
 70
     1
102
RTVSPost2010Prop35
280
     0
102
RTVSPost2010PropOp35
 70
     1
102
RTVSPost2010Prop36
280
     0
102
RTVSPost2010PropOp36
 70
     1
102
RTVSPost2010Prop37
 90
       50
102
RTVSPost2010PropOp37
 70
     1
102
RTVSPost2010Prop38
140
0.0
102
RTVSPost2010PropOp38
 70
     1
102
RTVSPost2010Prop39
140
1.0
102
RTVSPost2010PropOp39
 70
     1
102
RTVSPost2010Prop40
 90
        0
102
RTVSPost2010PropOp40
 70
     1
102
RTVSPost2010Prop41ColorIndex
 90
       18
102
RTVSPost2010Prop41ColorRGB
 90
        0
102
RTVSPost2010PropOp41
 70
     1
102
RTVSPost2010Prop42
 90
       50
102
RTVSPost2010PropOp42
 70
     1
102
RTVSPost2010Prop43
 90
        3
102
RTVSPost2010PropOp43
 70
     1
102
RTVSPost2010Prop44ColorIndex
 90
        5
102
RTVSPost2010Prop44ColorRGB
 90
      255
102
RTVSPost2010PropOp44
 70
     1
102
RTVSPost2010Prop45
280
     0
102
RTVSPost2010PropOp45
 70
     1
102
RTVSPost2010Prop46
 90
       50
102
RTVSPost2010PropOp46
 70
     1
102
RTVSPost2010Prop47
 90
       50
102
RTVSPost2010PropOp47
 70
     1
102
RTVSPost2010Prop48
 90
       50
102
RTVSPost2010PropOp48
 70
     1
102
RTVSPost2010Prop49
280
     0
102
RTVSPost2010PropOp49
 70
     1
102
RTVSPost2010Prop50
 90
       50
102
RTVSPost2010PropOp50
 70
     1
102
RTVSPost2010Prop51ColorIndex
 90
      256
102
RTVSPost2010Prop51ColorRGB
 90
-16777216
102
RTVSPost2010PropOp51
 70
     0
102
RTVSPost2010Prop52
140
1.0
102
RTVSPost2010PropOp52
 70
     0
102
RTVSPost2010Prop53
 90
        2
102
RTVSPost2010PropOp53
 70
     1
102
RTVSPost2010Prop54
  1
strokes_ogs.tif
102
RTVSPost2010PropOp54
 70
     1
102
RTVSPost2010Prop55
280
     0
102
RTVSPost2010PropOp55
 70
     1
102
RTVSPost2010Prop56
140
1.0
102
RTVSPost2010PropOp56
 70
     1
102
RTVSPost2010Prop57
140
1.0
102
RTVSPost2010PropOp57
 70
     1
  0
XRECORD
  5
17A
102
{ACAD_REACTORS
330
179
102
}
330
179
100
AcDbXrecord
280
     1
102
RTVSPost2010Prop28
280
     0
102
RTVSPost2010PropOp28
 70
     1
102
RTVSPost2010Prop29
280
     1
102
RTVSPost2010PropOp29
 70
     1
102
RTVSPost2010Prop30
280
     1
102
RTVSPost2010PropOp30
 70
     1
102
RTVSPost2010Prop31
280
     0
102
RTVSPost2010PropOp31
 70
     1
102
RTVSPost2010Prop32
280
     0
102
RTVSPost2010PropOp32
 70
     1
102
RTVSPost2010Prop33
280
     0
102
RTVSPost2010PropOp33
 70
     1
102
RTVSPost2010Prop34
280
     0
102
RTVSPost2010PropOp34
 70
     1
102
RTVSPost2010Prop35
280
     0
102
RTVSPost2010PropOp35
 70
     1
102
RTVSPost2010Prop36
280
     0
102
RTVSPost2010PropOp36
 70
     1
102
RTVSPost2010Prop37
 90
       50
102
RTVSPost2010PropOp37
 70
     1
102
RTVSPost2010Prop38
140
0.0
102
RTVSPost2010PropOp38
 70
     1
102
RTVSPost2010Prop39
140
1.0
102
RTVSPost2010PropOp39
 70
     1
102
RTVSPost2010Prop40
 90
        0
102
RTVSPost2010PropOp40
 70
     1
102
RTVSPost2010Prop41ColorIndex
 90
       18
102
RTVSPost2010Prop41ColorRGB
 90
        0
102
RTVSPost2010PropOp41
 70
     1
102
RTVSPost2010Prop42
 90
       50
102
RTVSPost2010PropOp42
 70
     1
102
RTVSPost2010Prop43
 90
        3
102
RTVSPost2010PropOp43
 70
     1
102
RTVSPost2010Prop44ColorIndex
 90
        5
102
RTVSPost2010Prop44ColorRGB
 90
      255
102
RTVSPost2010PropOp44
 70
     1
102
RTVSPost2010Prop45
280
     0
102
RTVSPost2010PropOp45
 70
     1
102
RTVSPost2010Prop46
 90
       50
102
RTVSPost2010PropOp46
 70
     1
102
RTVSPost2010Prop47
 90
       50
102
RTVSPost2010PropOp47
 70
     1
102
RTVSPost2010Prop48
 90
       50
102
RTVSPost2010PropOp48
 70
     1
102
RTVSPost2010Prop49
280
     0
102
RTVSPost2010PropOp49
 70
     1
102
RTVSPost2010Prop50
 90
       50
102
RTVSPost2010PropOp50
 70
     1
102
RTVSPost2010Prop51ColorIndex
 90
      256
102
RTVSPost2010Prop51ColorRGB
 90
-16777216
102
RTVSPost2010PropOp51
 70
     0
102
RTVSPost2010Prop52
140
1.0
102
RTVSPost2010PropOp52
 70
     0
102
RTVSPost2010Prop53
 90
        2
102
RTVSPost2010PropOp53
 70
     1
102
RTVSPost2010Prop54
  1
strokes_ogs.tif
102
RTVSPost2010PropOp54
 70
     1
102
RTVSPost2010Prop55
280
     0
102
RTVSPost2010PropOp55
 70
     1
102
RTVSPost2010Prop56
140
1.0
102
RTVSPost2010PropOp56
 70
     1
102
RTVSPost2010Prop57
140
1.0
102
RTVSPost2010PropOp57
 70
     1
  0
XRECORD
  5
17C
102
{ACAD_REACTORS
330
17B
102
}
330
17B
100
AcDbXrecord
280
     1
102
RTVSPost2010Prop28
280
     0
102
RTVSPost2010PropOp28
 70
     1
102
RTVSPost2010Prop29
280
     1
102
RTVSPost2010PropOp29
 70
     1
102
RTVSPost2010Prop30
280
     1
102
RTVSPost2010PropOp30
 70
     1
102
RTVSPost2010Prop31
280
     0
102
RTVSPost2010PropOp31
 70
     1
102
RTVSPost2010Prop32
280
     0
102
RTVSPost2010PropOp32
 70
     1
102
RTVSPost2010Prop33
280
     0
102
RTVSPost2010PropOp33
 70
     1
102
RTVSPost2010Prop34
280
     0
102
RTVSPost2010PropOp34
 70
     1
102
RTVSPost2010Prop35
280
     0
102
RTVSPost2010PropOp35
 70
     1
102
RTVSPost2010Prop36
280
     0
102
RTVSPost2010PropOp36
 70
     1
102
RTVSPost2010Prop37
 90
       50
102
RTVSPost2010PropOp37
 70
     1
102
RTVSPost2010Prop38
140
0.0
102
RTVSPost2010PropOp38
 70
     1
102
RTVSPost2010Prop39
140
1.0
102
RTVSPost2010PropOp39
 70
     1
102
RTVSPost2010Prop40
 90
        0
102
RTVSPost2010PropOp40
 70
     1
102
RTVSPost2010Prop41ColorIndex
 90
       18
102
RTVSPost2010Prop41ColorRGB
 90
        0
102
RTVSPost2010PropOp41
 70
     1
102
RTVSPost2010Prop42
 90
       50
102
RTVSPost2010PropOp42
 70
     1
102
RTVSPost2010Prop43
 90
        3
102
RTVSPost2010PropOp43
 70
     1
102
RTVSPost2010Prop44ColorIndex
 90
        5
102
RTVSPost2010Prop44ColorRGB
 90
      255
102
RTVSPost2010PropOp44
 70
     1
102
RTVSPost2010Prop45
280
     0
102
RTVSPost2010PropOp45
 70
     1
102
RTVSPost2010Prop46
 90
       50
102
RTVSPost2010PropOp46
 70
     1
102
RTVSPost2010Prop47
 90
       50
102
RTVSPost2010PropOp47
 70
     1
102
RTVSPost2010Prop48
 90
       50
102
RTVSPost2010PropOp48
 70
     1
102
RTVSPost2010Prop49
280
     0
102
RTVSPost2010PropOp49
 70
     1
102
RTVSPost2010Prop50
 90
       50
102
RTVSPost2010PropOp50
 70
     1
102
RTVSPost2010Prop51ColorIndex
 90
      256
102
RTVSPost2010Prop51ColorRGB
 90
-16777216
102
RTVSPost2010PropOp51
 70
     0
102
RTVSPost2010Prop52
140
1.0
102
RTVSPost2010PropOp52
 70
     0
102
RTVSPost2010Prop53
 90
        2
102
RTVSPost2010PropOp53
 70
     1
102
RTVSPost2010Prop54
  1
strokes_ogs.tif
102
RTVSPost2010PropOp54
 70
     1
102
RTVSPost2010Prop55
280
     0
102
RTVSPost2010PropOp55
 70
     1
102
RTVSPost2010Prop56
140
1.0
102
RTVSPost2010PropOp56
 70
     1
102
RTVSPost2010Prop57
140
1.0
102
RTVSPost2010PropOp57
 70
     1
  0
XRECORD
  5
184
102
{ACAD_REACTORS
330
183
102
}
330
183
100
AcDbXrecord
280
     1
102
RTVSPost2010Prop28
280
     0
102
RTVSPost2010PropOp28
 70
     1
102
RTVSPost2010Prop29
280
     1
102
RTVSPost2010PropOp29
 70
     1
102
RTVSPost2010Prop30
280
     1
102
RTVSPost2010PropOp30
 70
     1
102
RTVSPost2010Prop31
280
     0
102
RTVSPost2010PropOp31
 70
     1
102
RTVSPost2010Prop32
280
     0
102
RTVSPost2010PropOp32
 70
     1
102
RTVSPost2010Prop33
280
     0
102
RTVSPost2010PropOp33
 70
     1
102
RTVSPost2010Prop34
280
     0
102
RTVSPost2010PropOp34
 70
     1
102
RTVSPost2010Prop35
280
     0
102
RTVSPost2010PropOp35
 70
     1
102
RTVSPost2010Prop36
280
     0
102
RTVSPost2010PropOp36
 70
     1
102
RTVSPost2010Prop37
 90
       50
102
RTVSPost2010PropOp37
 70
     1
102
RTVSPost2010Prop38
140
0.0
102
RTVSPost2010PropOp38
 70
     1
102
RTVSPost2010Prop39
140
1.0
102
RTVSPost2010PropOp39
 70
     1
102
RTVSPost2010Prop40
 90
        0
102
RTVSPost2010PropOp40
 70
     1
102
RTVSPost2010Prop41ColorIndex
 90
       18
102
RTVSPost2010Prop41ColorRGB
 90
        0
102
RTVSPost2010PropOp41
 70
     1
102
RTVSPost2010Prop42
 90
       50
102
RTVSPost2010PropOp42
 70
     1
102
RTVSPost2010Prop43
 90
        3
102
RTVSPost2010PropOp43
 70
     1
102
RTVSPost2010Prop44ColorIndex
 90
        5
102
RTVSPost2010Prop44ColorRGB
 90
      255
102
RTVSPost2010PropOp44
 70
     1
102
RTVSPost2010Prop45
280
     0
102
RTVSPost2010PropOp45
 70
     1
102
RTVSPost2010Prop46
 90
       50
102
RTVSPost2010PropOp46
 70
     1
102
RTVSPost2010Prop47
 90
       50
102
RTVSPost2010PropOp47
 70
     1
102
RTVSPost2010Prop48
 90
       50
102
RTVSPost2010PropOp48
 70
     1
102
RTVSPost2010Prop49
280
     0
102
RTVSPost2010PropOp49
 70
     1
102
RTVSPost2010Prop50
 90
       50
102
RTVSPost2010PropOp50
 70
     1
102
RTVSPost2010Prop51ColorIndex
 90
      256
102
RTVSPost2010Prop51ColorRGB
 90
-16777216
102
RTVSPost2010PropOp51
 70
     0
102
RTVSPost2010Prop52
140
1.0
102
RTVSPost2010PropOp52
 70
     0
102
RTVSPost2010Prop53
 90
        2
102
RTVSPost2010PropOp53
 70
     1
102
RTVSPost2010Prop54
  1
strokes_ogs.tif
102
RTVSPost2010PropOp54
 70
     1
102
RTVSPost2010Prop55
280
     0
102
RTVSPost2010PropOp55
 70
     1
102
RTVSPost2010Prop56
140
1.0
102
RTVSPost2010PropOp56
 70
     1
102
RTVSPost2010Prop57
140
1.0
102
RTVSPost2010PropOp57
 70
     1
  0
XRECORD
  5
1A0
102
{ACAD_REACTORS
330
19F
102
}
330
19F
100
AcDbXrecord
280
     1
102
RTVSPost2010Prop28
280
     0
102
RTVSPost2010PropOp28
 70
     0
102
RTVSPost2010Prop29
280
     1
102
RTVSPost2010PropOp29
 70
     0
102
RTVSPost2010Prop30
280
     1
102
RTVSPost2010PropOp30
 70
     0
102
RTVSPost2010Prop31
280
     0
102
RTVSPost2010PropOp31
 70
     0
102
RTVSPost2010Prop32
280
     0
102
RTVSPost2010PropOp32
 70
     0
102
RTVSPost2010Prop33
280
     0
102
RTVSPost2010PropOp33
 70
     0
102
RTVSPost2010Prop34
280
     0
102
RTVSPost2010PropOp34
 70
     0
102
RTVSPost2010Prop35
280
     0
102
RTVSPost2010PropOp35
 70
     0
102
RTVSPost2010Prop36
280
     0
102
RTVSPost2010PropOp36
 70
     0
102
RTVSPost2010Prop37
 90
       50
102
RTVSPost2010PropOp37
 70
     0
102
RTVSPost2010Prop38
140
0.0
102
RTVSPost2010PropOp38
 70
     0
102
RTVSPost2010Prop39
140
1.0
102
RTVSPost2010PropOp39
 70
     0
102
RTVSPost2010Prop40
 90
        0
102
RTVSPost2010PropOp40
 70
     0
102
RTVSPost2010Prop41ColorIndex
 90
       18
102
RTVSPost2010Prop41ColorRGB
 90
        0
102
RTVSPost2010PropOp41
 70
     0
102
RTVSPost2010Prop42
 90
       50
102
RTVSPost2010PropOp42
 70
     0
102
RTVSPost2010Prop43
 90
        3
102
RTVSPost2010PropOp43
 70
     0
102
RTVSPost2010Prop44ColorIndex
 90
        5
102
RTVSPost2010Prop44ColorRGB
 90
      255
102
RTVSPost2010PropOp44
 70
     0
102
RTVSPost2010Prop45
280
     0
102
RTVSPost2010PropOp45
 70
     0
102
RTVSPost2010Prop46
 90
       50
102
RTVSPost2010PropOp46
 70
     0
102
RTVSPost2010Prop47
 90
       50
102
RTVSPost2010PropOp47
 70
     0
102
RTVSPost2010Prop48
 90
       50
102
RTVSPost2010PropOp48
 70
     0
102
RTVSPost2010Prop49
280
     0
102
RTVSPost2010PropOp49
 70
     0
102
RTVSPost2010Prop50
 90
       50
102
RTVSPost2010PropOp50
 70
     0
102
RTVSPost2010Prop51ColorIndex
 90
      256
102
RTVSPost2010Prop51ColorRGB
 90
-16777216
102
RTVSPost2010PropOp51
 70
     0
102
RTVSPost2010Prop52
140
1.0
102
RTVSPost2010PropOp52
 70
     0
102
RTVSPost2010Prop53
 90
        2
102
RTVSPost2010PropOp53
 70
     0
102
RTVSPost2010Prop54
  1
strokes_ogs.tif
102
RTVSPost2010PropOp54
 70
     0
102
RTVSPost2010Prop55
280
     0
102
RTVSPost2010PropOp55
 70
     0
102
RTVSPost2010Prop56
140
1.0
102
RTVSPost2010PropOp56
 70
     0
102
RTVSPost2010Prop57
140
1.0
102
RTVSPost2010PropOp57
 70
     0
  0
XRECORD
  5
190
102
{ACAD_REACTORS
330
18F
102
}
330
18F
100
AcDbXrecord
280
     1
102
RTVSPost2010Prop28
280
     0
102
RTVSPost2010PropOp28
 70
     1
102
RTVSPost2010Prop29
280
     1
102
RTVSPost2010PropOp29
 70
     1
102
RTVSPost2010Prop30
280
     1
102
RTVSPost2010PropOp30
 70
     1
102
RTVSPost2010Prop31
280
     0
102
RTVSPost2010PropOp31
 70
     1
102
RTVSPost2010Prop32
280
     0
102
RTVSPost2010PropOp32
 70
     1
102
RTVSPost2010Prop33
280
     0
102
RTVSPost2010PropOp33
 70
     1
102
RTVSPost2010Prop34
280
     0
102
RTVSPost2010PropOp34
 70
     1
102
RTVSPost2010Prop35
280
     0
102
RTVSPost2010PropOp35
 70
     1
102
RTVSPost2010Prop36
280
     0
102
RTVSPost2010PropOp36
 70
     1
102
RTVSPost2010Prop37
 90
       50
102
RTVSPost2010PropOp37
 70
     1
102
RTVSPost2010Prop38
140
0.0
102
RTVSPost2010PropOp38
 70
     1
102
RTVSPost2010Prop39
140
1.0
102
RTVSPost2010PropOp39
 70
     1
102
RTVSPost2010Prop40
 90
        0
102
RTVSPost2010PropOp40
 70
     1
102
RTVSPost2010Prop41ColorIndex
 90
       18
102
RTVSPost2010Prop41ColorRGB
 90
        0
102
RTVSPost2010PropOp41
 70
     1
102
RTVSPost2010Prop42
 90
       50
102
RTVSPost2010PropOp42
 70
     1
102
RTVSPost2010Prop43
 90
        3
102
RTVSPost2010PropOp43
 70
     1
102
RTVSPost2010Prop44ColorIndex
 90
        5
102
RTVSPost2010Prop44ColorRGB
 90
      255
102
RTVSPost2010PropOp44
 70
     1
102
RTVSPost2010Prop45
280
     0
102
RTVSPost2010PropOp45
 70
     1
102
RTVSPost2010Prop46
 90
       50
102
RTVSPost2010PropOp46
 70
     1
102
RTVSPost2010Prop47
 90
       50
102
RTVSPost2010PropOp47
 70
     1
102
RTVSPost2010Prop48
 90
       50
102
RTVSPost2010PropOp48
 70
     1
102
RTVSPost2010Prop49
280
     0
102
RTVSPost2010PropOp49
 70
     1
102
RTVSPost2010Prop50
 90
       50
102
RTVSPost2010PropOp50
 70
     1
102
RTVSPost2010Prop51ColorIndex
 90
      256
102
RTVSPost2010Prop51ColorRGB
 90
-16777216
102
RTVSPost2010PropOp51
 70
     0
102
RTVSPost2010Prop52
140
1.0
102
RTVSPost2010PropOp52
 70
     0
102
RTVSPost2010Prop53
 90
        2
102
RTVSPost2010PropOp53
 70
     1
102
RTVSPost2010Prop54
  1
strokes_ogs.tif
102
RTVSPost2010PropOp54
 70
     1
102
RTVSPost2010Prop55
280
     0
102
RTVSPost2010PropOp55
 70
     1
102
RTVSPost2010Prop56
140
1.0
102
RTVSPost2010PropOp56
 70
     1
102
RTVSPost2010Prop57
140
1.0
102
RTVSPost2010PropOp57
 70
     1
  0
XRECORD
  5
1A2
102
{ACAD_REACTORS
330
1A1
102
}
330
1A1
100
AcDbXrecord
280
     1
102
RTVSPost2010Prop28
280
     0
102
RTVSPost2010PropOp28
 70
     0
102
RTVSPost2010Prop29
280
     1
102
RTVSPost2010PropOp29
 70
     0
102
RTVSPost2010Prop30
280
     1
102
RTVSPost2010PropOp30
 70
     0
102
RTVSPost2010Prop31
280
     0
102
RTVSPost2010PropOp31
 70
     0
102
RTVSPost2010Prop32
280
     0
102
RTVSPost2010PropOp32
 70
     0
102
RTVSPost2010Prop33
280
     0
102
RTVSPost2010PropOp33
 70
     0
102
RTVSPost2010Prop34
280
     0
102
RTVSPost2010PropOp34
 70
     0
102
RTVSPost2010Prop35
280
     0
102
RTVSPost2010PropOp35
 70
     0
102
RTVSPost2010Prop36
280
     0
102
RTVSPost2010PropOp36
 70
     0
102
RTVSPost2010Prop37
 90
       50
102
RTVSPost2010PropOp37
 70
     0
102
RTVSPost2010Prop38
140
0.0
102
RTVSPost2010PropOp38
 70
     0
102
RTVSPost2010Prop39
140
1.0
102
RTVSPost2010PropOp39
 70
     0
102
RTVSPost2010Prop40
 90
        0
102
RTVSPost2010PropOp40
 70
     0
102
RTVSPost2010Prop41ColorIndex
 90
       18
102
RTVSPost2010Prop41ColorRGB
 90
        0
102
RTVSPost2010PropOp41
 70
     0
102
RTVSPost2010Prop42
 90
       50
102
RTVSPost2010PropOp42
 70
     0
102
RTVSPost2010Prop43
 90
        3
102
RTVSPost2010PropOp43
 70
     0
102
RTVSPost2010Prop44ColorIndex
 90
        5
102
RTVSPost2010Prop44ColorRGB
 90
      255
102
RTVSPost2010PropOp44
 70
     0
102
RTVSPost2010Prop45
280
     0
102
RTVSPost2010PropOp45
 70
     0
102
RTVSPost2010Prop46
 90
       50
102
RTVSPost2010PropOp46
 70
     0
102
RTVSPost2010Prop47
 90
       50
102
RTVSPost2010PropOp47
 70
     0
102
RTVSPost2010Prop48
 90
       50
102
RTVSPost2010PropOp48
 70
     0
102
RTVSPost2010Prop49
280
     0
102
RTVSPost2010PropOp49
 70
     0
102
RTVSPost2010Prop50
 90
       50
102
RTVSPost2010PropOp50
 70
     0
102
RTVSPost2010Prop51ColorIndex
 90
      256
102
RTVSPost2010Prop51ColorRGB
 90
-16777216
102
RTVSPost2010PropOp51
 70
     0
102
RTVSPost2010Prop52
140
1.0
102
RTVSPost2010PropOp52
 70
     0
102
RTVSPost2010Prop53
 90
        2
102
RTVSPost2010PropOp53
 70
     0
102
RTVSPost2010Prop54
  1
strokes_ogs.tif
102
RTVSPost2010PropOp54
 70
     0
102
RTVSPost2010Prop55
280
     0
102
RTVSPost2010PropOp55
 70
     0
102
RTVSPost2010Prop56
140
1.0
102
RTVSPost2010PropOp56
 70
     0
102
RTVSPost2010Prop57
140
1.0
102
RTVSPost2010PropOp57
 70
     0
  0
XRECORD
  5
188
102
{ACAD_REACTORS
330
187
102
}
330
187
100
AcDbXrecord
280
     1
102
RTVSPost2010Prop28
280
     0
102
RTVSPost2010PropOp28
 70
     1
102
RTVSPost2010Prop29
280
     1
102
RTVSPost2010PropOp29
 70
     1
102
RTVSPost2010Prop30
280
     1
102
RTVSPost2010PropOp30
 70
     1
102
RTVSPost2010Prop31
280
     0
102
RTVSPost2010PropOp31
 70
     1
102
RTVSPost2010Prop32
280
     0
102
RTVSPost2010PropOp32
 70
     1
102
RTVSPost2010Prop33
280
     0
102
RTVSPost2010PropOp33
 70
     1
102
RTVSPost2010Prop34
280
     0
102
RTVSPost2010PropOp34
 70
     1
102
RTVSPost2010Prop35
280
     0
102
RTVSPost2010PropOp35
 70
     1
102
RTVSPost2010Prop36
280
     0
102
RTVSPost2010PropOp36
 70
     1
102
RTVSPost2010Prop37
 90
       50
102
RTVSPost2010PropOp37
 70
     1
102
RTVSPost2010Prop38
140
0.0
102
RTVSPost2010PropOp38
 70
     1
102
RTVSPost2010Prop39
140
1.0
102
RTVSPost2010PropOp39
 70
     1
102
RTVSPost2010Prop40
 90
        0
102
RTVSPost2010PropOp40
 70
     1
102
RTVSPost2010Prop41ColorIndex
 90
       18
102
RTVSPost2010Prop41ColorRGB
 90
        0
102
RTVSPost2010PropOp41
 70
     1
102
RTVSPost2010Prop42
 90
       50
102
RTVSPost2010PropOp42
 70
     1
102
RTVSPost2010Prop43
 90
        3
102
RTVSPost2010PropOp43
 70
     1
102
RTVSPost2010Prop44ColorIndex
 90
        5
102
RTVSPost2010Prop44ColorRGB
 90
      255
102
RTVSPost2010PropOp44
 70
     1
102
RTVSPost2010Prop45
280
     0
102
RTVSPost2010PropOp45
 70
     1
102
RTVSPost2010Prop46
 90
       50
102
RTVSPost2010PropOp46
 70
     1
102
RTVSPost2010Prop47
 90
       50
102
RTVSPost2010PropOp47
 70
     1
102
RTVSPost2010Prop48
 90
       50
102
RTVSPost2010PropOp48
 70
     1
102
RTVSPost2010Prop49
280
     0
102
RTVSPost2010PropOp49
 70
     1
102
RTVSPost2010Prop50
 90
       50
102
RTVSPost2010PropOp50
 70
     1
102
RTVSPost2010Prop51ColorIndex
 90
      256
102
RTVSPost2010Prop51ColorRGB
 90
-16777216
102
RTVSPost2010PropOp51
 70
     0
102
RTVSPost2010Prop52
140
1.0
102
RTVSPost2010PropOp52
 70
     0
102
RTVSPost2010Prop53
 90
        2
102
RTVSPost2010PropOp53
 70
     1
102
RTVSPost2010Prop54
  1
strokes_ogs.tif
102
RTVSPost2010PropOp54
 70
     1
102
RTVSPost2010Prop55
280
     0
102
RTVSPost2010PropOp55
 70
     1
102
RTVSPost2010Prop56
140
1.0
102
RTVSPost2010PropOp56
 70
     1
102
RTVSPost2010Prop57
140
1.0
102
RTVSPost2010PropOp57
 70
     1
  0
XRECORD
  5
19E
102
{ACAD_REACTORS
330
19D
102
}
330
19D
100
AcDbXrecord
280
     1
102
RTVSPost2010Prop28
280
     0
102
RTVSPost2010PropOp28
 70
     1
102
RTVSPost2010Prop29
280
     1
102
RTVSPost2010PropOp29
 70
     1
102
RTVSPost2010Prop30
280
     1
102
RTVSPost2010PropOp30
 70
     1
102
RTVSPost2010Prop31
280
     0
102
RTVSPost2010PropOp31
 70
     1
102
RTVSPost2010Prop32
280
     0
102
RTVSPost2010PropOp32
 70
     1
102
RTVSPost2010Prop33
280
     0
102
RTVSPost2010PropOp33
 70
     1
102
RTVSPost2010Prop34
280
     0
102
RTVSPost2010PropOp34
 70
     1
102
RTVSPost2010Prop35
280
     0
102
RTVSPost2010PropOp35
 70
     1
102
RTVSPost2010Prop36
280
     0
102
RTVSPost2010PropOp36
 70
     1
102
RTVSPost2010Prop37
 90
       50
102
RTVSPost2010PropOp37
 70
     1
102
RTVSPost2010Prop38
140
0.0
102
RTVSPost2010PropOp38
 70
     1
102
RTVSPost2010Prop39
140
1.0
102
RTVSPost2010PropOp39
 70
     1
102
RTVSPost2010Prop40
 90
        0
102
RTVSPost2010PropOp40
 70
     1
102
RTVSPost2010Prop41ColorIndex
 90
       18
102
RTVSPost2010Prop41ColorRGB
 90
        0
102
RTVSPost2010PropOp41
 70
     1
102
RTVSPost2010Prop42
 90
       50
102
RTVSPost2010PropOp42
 70
     1
102
RTVSPost2010Prop43
 90
        3
102
RTVSPost2010PropOp43
 70
     1
102
RTVSPost2010Prop44ColorIndex
 90
        5
102
RTVSPost2010Prop44ColorRGB
 90
      255
102
RTVSPost2010PropOp44
 70
     1
102
RTVSPost2010Prop45
280
     0
102
RTVSPost2010PropOp45
 70
     1
102
RTVSPost2010Prop46
 90
       50
102
RTVSPost2010PropOp46
 70
     1
102
RTVSPost2010Prop47
 90
       50
102
RTVSPost2010PropOp47
 70
     1
102
RTVSPost2010Prop48
 90
       50
102
RTVSPost2010PropOp48
 70
     1
102
RTVSPost2010Prop49
280
     0
102
RTVSPost2010PropOp49
 70
     1
102
RTVSPost2010Prop50
 90
       50
102
RTVSPost2010PropOp50
 70
     1
102
RTVSPost2010Prop51ColorIndex
 90
      256
102
RTVSPost2010Prop51ColorRGB
 90
-16777216
102
RTVSPost2010PropOp51
 70
     0
102
RTVSPost2010Prop52
140
1.0
102
RTVSPost2010PropOp52
 70
     0
102
RTVSPost2010Prop53
 90
        2
102
RTVSPost2010PropOp53
 70
     1
102
RTVSPost2010Prop54
  1
strokes_ogs.tif
102
RTVSPost2010PropOp54
 70
     1
102
RTVSPost2010Prop55
280
     0
102
RTVSPost2010PropOp55
 70
     1
102
RTVSPost2010Prop56
140
1.0
102
RTVSPost2010PropOp56
 70
     1
102
RTVSPost2010Prop57
140
1.0
102
RTVSPost2010PropOp57
 70
     1
  0
XRECORD
  5
19C
102
{ACAD_REACTORS
330
19B
102
}
330
19B
100
AcDbXrecord
280
     1
102
RTVSPost2010Prop28
280
     0
102
RTVSPost2010PropOp28
 70
     1
102
RTVSPost2010Prop29
280
     1
102
RTVSPost2010PropOp29
 70
     1
102
RTVSPost2010Prop30
280
     1
102
RTVSPost2010PropOp30
 70
     1
102
RTVSPost2010Prop31
280
     0
102
RTVSPost2010PropOp31
 70
     1
102
RTVSPost2010Prop32
280
     0
102
RTVSPost2010PropOp32
 70
     1
102
RTVSPost2010Prop33
280
     0
102
RTVSPost2010PropOp33
 70
     1
102
RTVSPost2010Prop34
280
     0
102
RTVSPost2010PropOp34
 70
     1
102
RTVSPost2010Prop35
280
     0
102
RTVSPost2010PropOp35
 70
     1
102
RTVSPost2010Prop36
280
     0
102
RTVSPost2010PropOp36
 70
     1
102
RTVSPost2010Prop37
 90
       50
102
RTVSPost2010PropOp37
 70
     1
102
RTVSPost2010Prop38
140
0.0
102
RTVSPost2010PropOp38
 70
     1
102
RTVSPost2010Prop39
140
1.0
102
RTVSPost2010PropOp39
 70
     1
102
RTVSPost2010Prop40
 90
        0
102
RTVSPost2010PropOp40
 70
     1
102
RTVSPost2010Prop41ColorIndex
 90
       18
102
RTVSPost2010Prop41ColorRGB
 90
        0
102
RTVSPost2010PropOp41
 70
     1
102
RTVSPost2010Prop42
 90
       50
102
RTVSPost2010PropOp42
 70
     1
102
RTVSPost2010Prop43
 90
        3
102
RTVSPost2010PropOp43
 70
     1
102
RTVSPost2010Prop44ColorIndex
 90
        5
102
RTVSPost2010Prop44ColorRGB
 90
      255
102
RTVSPost2010PropOp44
 70
     1
102
RTVSPost2010Prop45
280
     0
102
RTVSPost2010PropOp45
 70
     1
102
RTVSPost2010Prop46
 90
       50
102
RTVSPost2010PropOp46
 70
     1
102
RTVSPost2010Prop47
 90
       50
102
RTVSPost2010PropOp47
 70
     1
102
RTVSPost2010Prop48
 90
       50
102
RTVSPost2010PropOp48
 70
     1
102
RTVSPost2010Prop49
280
     0
102
RTVSPost2010PropOp49
 70
     1
102
RTVSPost2010Prop50
 90
       50
102
RTVSPost2010PropOp50
 70
     1
102
RTVSPost2010Prop51ColorIndex
 90
      256
102
RTVSPost2010Prop51ColorRGB
 90
-16777216
102
RTVSPost2010PropOp51
 70
     0
102
RTVSPost2010Prop52
140
1.0
102
RTVSPost2010PropOp52
 70
     0
102
RTVSPost2010Prop53
 90
        2
102
RTVSPost2010PropOp53
 70
     1
102
RTVSPost2010Prop54
  1
strokes_ogs.tif
102
RTVSPost2010PropOp54
 70
     1
102
RTVSPost2010Prop55
280
     0
102
RTVSPost2010PropOp55
 70
     1
102
RTVSPost2010Prop56
140
1.0
102
RTVSPost2010PropOp56
 70
     1
102
RTVSPost2010Prop57
140
1.0
102
RTVSPost2010PropOp57
 70
     1
  0
XRECORD
  5
196
102
{ACAD_REACTORS
330
195
102
}
330
195
100
AcDbXrecord
280
     1
102
RTVSPost2010Prop28
280
     0
102
RTVSPost2010PropOp28
 70
     1
102
RTVSPost2010Prop29
280
     1
102
RTVSPost2010PropOp29
 70
     1
102
RTVSPost2010Prop30
280
     1
102
RTVSPost2010PropOp30
 70
     1
102
RTVSPost2010Prop31
280
     0
102
RTVSPost2010PropOp31
 70
     1
102
RTVSPost2010Prop32
280
     0
102
RTVSPost2010PropOp32
 70
     1
102
RTVSPost2010Prop33
280
     0
102
RTVSPost2010PropOp33
 70
     1
102
RTVSPost2010Prop34
280
     0
102
RTVSPost2010PropOp34
 70
     1
102
RTVSPost2010Prop35
280
     0
102
RTVSPost2010PropOp35
 70
     1
102
RTVSPost2010Prop36
280
     0
102
RTVSPost2010PropOp36
 70
     1
102
RTVSPost2010Prop37
 90
       50
102
RTVSPost2010PropOp37
 70
     1
102
RTVSPost2010Prop38
140
0.0
102
RTVSPost2010PropOp38
 70
     1
102
RTVSPost2010Prop39
140
1.0
102
RTVSPost2010PropOp39
 70
     1
102
RTVSPost2010Prop40
 90
        0
102
RTVSPost2010PropOp40
 70
     1
102
RTVSPost2010Prop41ColorIndex
 90
       18
102
RTVSPost2010Prop41ColorRGB
 90
        0
102
RTVSPost2010PropOp41
 70
     1
102
RTVSPost2010Prop42
 90
       50
102
RTVSPost2010PropOp42
 70
     1
102
RTVSPost2010Prop43
 90
        3
102
RTVSPost2010PropOp43
 70
     1
102
RTVSPost2010Prop44ColorIndex
 90
        5
102
RTVSPost2010Prop44ColorRGB
 90
      255
102
RTVSPost2010PropOp44
 70
     1
102
RTVSPost2010Prop45
280
     0
102
RTVSPost2010PropOp45
 70
     1
102
RTVSPost2010Prop46
 90
       50
102
RTVSPost2010PropOp46
 70
     1
102
RTVSPost2010Prop47
 90
       50
102
RTVSPost2010PropOp47
 70
     1
102
RTVSPost2010Prop48
 90
       50
102
RTVSPost2010PropOp48
 70
     1
102
RTVSPost2010Prop49
280
     0
102
RTVSPost2010PropOp49
 70
     1
102
RTVSPost2010Prop50
 90
       50
102
RTVSPost2010PropOp50
 70
     1
102
RTVSPost2010Prop51ColorIndex
 90
      256
102
RTVSPost2010Prop51ColorRGB
 90
-16777216
102
RTVSPost2010PropOp51
 70
     0
102
RTVSPost2010Prop52
140
1.0
102
RTVSPost2010PropOp52
 70
     0
102
RTVSPost2010Prop53
 90
        2
102
RTVSPost2010PropOp53
 70
     1
102
RTVSPost2010Prop54
  1
strokes_ogs.tif
102
RTVSPost2010PropOp54
 70
     1
102
RTVSPost2010Prop55
280
     0
102
RTVSPost2010PropOp55
 70
     1
102
RTVSPost2010Prop56
140
1.0
102
RTVSPost2010PropOp56
 70
     1
102
RTVSPost2010Prop57
140
1.0
102
RTVSPost2010PropOp57
 70
     1
  0
XRECORD
  5
198
102
{ACAD_REACTORS
330
197
102
}
330
197
100
AcDbXrecord
280
     1
102
RTVSPost2010Prop28
280
     0
102
RTVSPost2010PropOp28
 70
     1
102
RTVSPost2010Prop29
280
     1
102
RTVSPost2010PropOp29
 70
     1
102
RTVSPost2010Prop30
280
     1
102
RTVSPost2010PropOp30
 70
     1
102
RTVSPost2010Prop31
280
     0
102
RTVSPost2010PropOp31
 70
     1
102
RTVSPost2010Prop32
280
     0
102
RTVSPost2010PropOp32
 70
     1
102
RTVSPost2010Prop33
280
     0
102
RTVSPost2010PropOp33
 70
     1
102
RTVSPost2010Prop34
280
     0
102
RTVSPost2010PropOp34
 70
     1
102
RTVSPost2010Prop35
280
     0
102
RTVSPost2010PropOp35
 70
     1
102
RTVSPost2010Prop36
280
     0
102
RTVSPost2010PropOp36
 70
     1
102
RTVSPost2010Prop37
 90
       50
102
RTVSPost2010PropOp37
 70
     1
102
RTVSPost2010Prop38
140
0.0
102
RTVSPost2010PropOp38
 70
     1
102
RTVSPost2010Prop39
140
1.0
102
RTVSPost2010PropOp39
 70
     1
102
RTVSPost2010Prop40
 90
        0
102
RTVSPost2010PropOp40
 70
     1
102
RTVSPost2010Prop41ColorIndex
 90
       18
102
RTVSPost2010Prop41ColorRGB
 90
        0
102
RTVSPost2010PropOp41
 70
     1
102
RTVSPost2010Prop42
 90
       50
102
RTVSPost2010PropOp42
 70
     1
102
RTVSPost2010Prop43
 90
        3
102
RTVSPost2010PropOp43
 70
     1
102
RTVSPost2010Prop44ColorIndex
 90
        5
102
RTVSPost2010Prop44ColorRGB
 90
      255
102
RTVSPost2010PropOp44
 70
     1
102
RTVSPost2010Prop45
280
     0
102
RTVSPost2010PropOp45
 70
     1
102
RTVSPost2010Prop46
 90
       50
102
RTVSPost2010PropOp46
 70
     1
102
RTVSPost2010Prop47
 90
       50
102
RTVSPost2010PropOp47
 70
     1
102
RTVSPost2010Prop48
 90
       50
102
RTVSPost2010PropOp48
 70
     1
102
RTVSPost2010Prop49
280
     0
102
RTVSPost2010PropOp49
 70
     1
102
RTVSPost2010Prop50
 90
       50
102
RTVSPost2010PropOp50
 70
     1
102
RTVSPost2010Prop51ColorIndex
 90
      256
102
RTVSPost2010Prop51ColorRGB
 90
-16777216
102
RTVSPost2010PropOp51
 70
     0
102
RTVSPost2010Prop52
140
1.0
102
RTVSPost2010PropOp52
 70
     0
102
RTVSPost2010Prop53
 90
        2
102
RTVSPost2010PropOp53
 70
     1
102
RTVSPost2010Prop54
  1
strokes_ogs.tif
102
RTVSPost2010PropOp54
 70
     1
102
RTVSPost2010Prop55
280
     0
102
RTVSPost2010PropOp55
 70
     1
102
RTVSPost2010Prop56
140
1.0
102
RTVSPost2010PropOp56
 70
     1
102
RTVSPost2010Prop57
140
1.0
102
RTVSPost2010PropOp57
 70
     1
  0
XRECORD
  5
18E
102
{ACAD_REACTORS
330
18D
102
}
330
18D
100
AcDbXrecord
280
     1
102
RTVSPost2010Prop28
280
     0
102
RTVSPost2010PropOp28
 70
     1
102
RTVSPost2010Prop29
280
     1
102
RTVSPost2010PropOp29
 70
     1
102
RTVSPost2010Prop30
280
     1
102
RTVSPost2010PropOp30
 70
     1
102
RTVSPost2010Prop31
280
     0
102
RTVSPost2010PropOp31
 70
     1
102
RTVSPost2010Prop32
280
     0
102
RTVSPost2010PropOp32
 70
     1
102
RTVSPost2010Prop33
280
     0
102
RTVSPost2010PropOp33
 70
     1
102
RTVSPost2010Prop34
280
     0
102
RTVSPost2010PropOp34
 70
     1
102
RTVSPost2010Prop35
280
     0
102
RTVSPost2010PropOp35
 70
     1
102
RTVSPost2010Prop36
280
     0
102
RTVSPost2010PropOp36
 70
     1
102
RTVSPost2010Prop37
 90
       50
102
RTVSPost2010PropOp37
 70
     1
102
RTVSPost2010Prop38
140
0.0
102
RTVSPost2010PropOp38
 70
     1
102
RTVSPost2010Prop39
140
1.0
102
RTVSPost2010PropOp39
 70
     1
102
RTVSPost2010Prop40
 90
        0
102
RTVSPost2010PropOp40
 70
     1
102
RTVSPost2010Prop41ColorIndex
 90
       18
102
RTVSPost2010Prop41ColorRGB
 90
        0
102
RTVSPost2010PropOp41
 70
     1
102
RTVSPost2010Prop42
 90
       50
102
RTVSPost2010PropOp42
 70
     1
102
RTVSPost2010Prop43
 90
        3
102
RTVSPost2010PropOp43
 70
     1
102
RTVSPost2010Prop44ColorIndex
 90
        5
102
RTVSPost2010Prop44ColorRGB
 90
      255
102
RTVSPost2010PropOp44
 70
     1
102
RTVSPost2010Prop45
280
     0
102
RTVSPost2010PropOp45
 70
     1
102
RTVSPost2010Prop46
 90
       50
102
RTVSPost2010PropOp46
 70
     1
102
RTVSPost2010Prop47
 90
       50
102
RTVSPost2010PropOp47
 70
     1
102
RTVSPost2010Prop48
 90
       50
102
RTVSPost2010PropOp48
 70
     1
102
RTVSPost2010Prop49
280
     0
102
RTVSPost2010PropOp49
 70
     1
102
RTVSPost2010Prop50
 90
       50
102
RTVSPost2010PropOp50
 70
     1
102
RTVSPost2010Prop51ColorIndex
 90
      256
102
RTVSPost2010Prop51ColorRGB
 90
-16777216
102
RTVSPost2010PropOp51
 70
     0
102
RTVSPost2010Prop52
140
1.0
102
RTVSPost2010PropOp52
 70
     0
102
RTVSPost2010Prop53
 90
        2
102
RTVSPost2010PropOp53
 70
     1
102
RTVSPost2010Prop54
  1
strokes_ogs.tif
102
RTVSPost2010PropOp54
 70
     1
102
RTVSPost2010Prop55
280
     0
102
RTVSPost2010PropOp55
 70
     1
102
RTVSPost2010Prop56
140
1.0
102
RTVSPost2010PropOp56
 70
     1
102
RTVSPost2010Prop57
140
1.0
102
RTVSPost2010PropOp57
 70
     1
  0
XRECORD
  5
182
102
{ACAD_REACTORS
330
181
102
}
330
181
100
AcDbXrecord
280
     1
102
RTVSPost2010Prop28
280
     0
102
RTVSPost2010PropOp28
 70
     1
102
RTVSPost2010Prop29
280
     1
102
RTVSPost2010PropOp29
 70
     1
102
RTVSPost2010Prop30
280
     1
102
RTVSPost2010PropOp30
 70
     1
102
RTVSPost2010Prop31
280
     0
102
RTVSPost2010PropOp31
 70
     1
102
RTVSPost2010Prop32
280
     0
102
RTVSPost2010PropOp32
 70
     1
102
RTVSPost2010Prop33
280
     0
102
RTVSPost2010PropOp33
 70
     1
102
RTVSPost2010Prop34
280
     0
102
RTVSPost2010PropOp34
 70
     1
102
RTVSPost2010Prop35
280
     0
102
RTVSPost2010PropOp35
 70
     1
102
RTVSPost2010Prop36
280
     0
102
RTVSPost2010PropOp36
 70
     1
102
RTVSPost2010Prop37
 90
       50
102
RTVSPost2010PropOp37
 70
     1
102
RTVSPost2010Prop38
140
0.0
102
RTVSPost2010PropOp38
 70
     1
102
RTVSPost2010Prop39
140
1.0
102
RTVSPost2010PropOp39
 70
     1
102
RTVSPost2010Prop40
 90
        0
102
RTVSPost2010PropOp40
 70
     1
102
RTVSPost2010Prop41ColorIndex
 90
       18
102
RTVSPost2010Prop41ColorRGB
 90
        0
102
RTVSPost2010PropOp41
 70
     1
102
RTVSPost2010Prop42
 90
       50
102
RTVSPost2010PropOp42
 70
     1
102
RTVSPost2010Prop43
 90
        3
102
RTVSPost2010PropOp43
 70
     1
102
RTVSPost2010Prop44ColorIndex
 90
        5
102
RTVSPost2010Prop44ColorRGB
 90
      255
102
RTVSPost2010PropOp44
 70
     1
102
RTVSPost2010Prop45
280
     0
102
RTVSPost2010PropOp45
 70
     1
102
RTVSPost2010Prop46
 90
       50
102
RTVSPost2010PropOp46
 70
     1
102
RTVSPost2010Prop47
 90
       50
102
RTVSPost2010PropOp47
 70
     1
102
RTVSPost2010Prop48
 90
       50
102
RTVSPost2010PropOp48
 70
     1
102
RTVSPost2010Prop49
280
     0
102
RTVSPost2010PropOp49
 70
     1
102
RTVSPost2010Prop50
 90
       50
102
RTVSPost2010PropOp50
 70
     1
102
RTVSPost2010Prop51ColorIndex
 90
      256
102
RTVSPost2010Prop51ColorRGB
 90
-16777216
102
RTVSPost2010PropOp51
 70
     0
102
RTVSPost2010Prop52
140
1.0
102
RTVSPost2010PropOp52
 70
     0
102
RTVSPost2010Prop53
 90
        2
102
RTVSPost2010PropOp53
 70
     1
102
RTVSPost2010Prop54
  1
strokes_ogs.tif
102
RTVSPost2010PropOp54
 70
     1
102
RTVSPost2010Prop55
280
     0
102
RTVSPost2010PropOp55
 70
     1
102
RTVSPost2010Prop56
140
1.0
102
RTVSPost2010PropOp56
 70
     1
102
RTVSPost2010Prop57
140
1.0
102
RTVSPost2010PropOp57
 70
     1
  0
XRECORD
  5
19A
102
{ACAD_REACTORS
330
199
102
}
330
199
100
AcDbXrecord
280
     1
102
RTVSPost2010Prop28
280
     0
102
RTVSPost2010PropOp28
 70
     1
102
RTVSPost2010Prop29
280
     1
102
RTVSPost2010PropOp29
 70
     1
102
RTVSPost2010Prop30
280
     1
102
RTVSPost2010PropOp30
 70
     1
102
RTVSPost2010Prop31
280
     0
102
RTVSPost2010PropOp31
 70
     1
102
RTVSPost2010Prop32
280
     0
102
RTVSPost2010PropOp32
 70
     1
102
RTVSPost2010Prop33
280
     0
102
RTVSPost2010PropOp33
 70
     1
102
RTVSPost2010Prop34
280
     0
102
RTVSPost2010PropOp34
 70
     1
102
RTVSPost2010Prop35
280
     0
102
RTVSPost2010PropOp35
 70
     1
102
RTVSPost2010Prop36
280
     0
102
RTVSPost2010PropOp36
 70
     1
102
RTVSPost2010Prop37
 90
       50
102
RTVSPost2010PropOp37
 70
     1
102
RTVSPost2010Prop38
140
0.0
102
RTVSPost2010PropOp38
 70
     1
102
RTVSPost2010Prop39
140
1.0
102
RTVSPost2010PropOp39
 70
     1
102
RTVSPost2010Prop40
 90
        0
102
RTVSPost2010PropOp40
 70
     1
102
RTVSPost2010Prop41ColorIndex
 90
       18
102
RTVSPost2010Prop41ColorRGB
 90
        0
102
RTVSPost2010PropOp41
 70
     1
102
RTVSPost2010Prop42
 90
       50
102
RTVSPost2010PropOp42
 70
     1
102
RTVSPost2010Prop43
 90
        3
102
RTVSPost2010PropOp43
 70
     1
102
RTVSPost2010Prop44ColorIndex
 90
        5
102
RTVSPost2010Prop44ColorRGB
 90
      255
102
RTVSPost2010PropOp44
 70
     1
102
RTVSPost2010Prop45
280
     0
102
RTVSPost2010PropOp45
 70
     1
102
RTVSPost2010Prop46
 90
       50
102
RTVSPost2010PropOp46
 70
     1
102
RTVSPost2010Prop47
 90
       50
102
RTVSPost2010PropOp47
 70
     1
102
RTVSPost2010Prop48
 90
       50
102
RTVSPost2010PropOp48
 70
     1
102
RTVSPost2010Prop49
280
     0
102
RTVSPost2010PropOp49
 70
     1
102
RTVSPost2010Prop50
 90
       50
102
RTVSPost2010PropOp50
 70
     1
102
RTVSPost2010Prop51ColorIndex
 90
      256
102
RTVSPost2010Prop51ColorRGB
 90
-16777216
102
RTVSPost2010PropOp51
 70
     0
102
RTVSPost2010Prop52
140
1.0
102
RTVSPost2010PropOp52
 70
     0
102
RTVSPost2010Prop53
 90
        2
102
RTVSPost2010PropOp53
 70
     1
102
RTVSPost2010Prop54
  1
strokes_ogs.tif
102
RTVSPost2010PropOp54
 70
     1
102
RTVSPost2010Prop55
280
     0
102
RTVSPost2010PropOp55
 70
     1
102
RTVSPost2010Prop56
140
1.0
102
RTVSPost2010PropOp56
 70
     1
102
RTVSPost2010Prop57
140
1.0
102
RTVSPost2010PropOp57
 70
     1
  0
ENDSEC
  0
EOF
