  0
SECTION
  2
HEADER
  9
$ACADVER
  1
AC1024
  9
$ACADMAINTVER
 70
   226
  9
$DWGCODEPAGE
  3
ANSI_932
  9
$INSBASE
 10
0.0
 20
0.0
 30
0.0
  9
$EXTMIN
 10
1.000000000000000E+20
 20
1.000000000000000E+20
 30
1.000000000000000E+20
  9
$EXTMAX
 10
-1.000000000000000E+20
 20
-1.000000000000000E+20
 30
-1.000000000000000E+20
  9
$LIMMIN
 10
0.0
 20
0.0
  9
$LIMMAX
 10
12.0
 20
9.0
  9
$ORTHOMODE
 70
     0
  9
$REGENMODE
 70
     1
  9
$FILLMODE
 70
     1
  9
$QTEXTMODE
 70
     0
  9
$MIRRTEXT
 70
     0
  9
$LTSCALE
 40
1.0
  9
$ATTMODE
 70
     1
  9
$TEXTSIZE
 40
0.2
  9
$TRACEWID
 40
0.05
  9
$TEXTSTYLE
  7
Standard
  9
$CLAYER
  8
0
  9
$CELTYPE
  6
ByLayer
  9
$CECOLOR
 62
   256
  9
$CELTSCALE
 40
1.0
  9
$DISPSILH
 70
     0
  9
$DIMSCALE
 40
1.0
  9
$DIMASZ
 40
0.18
  9
$DIMEXO
 40
0.0625
  9
$DIMDLI
 40
0.38
  9
$DIMRND
 40
0.0
  9
$DIMDLE
 40
0.0
  9
$DIMEXE
 40
0.18
  9
$DIMTP
 40
0.0
  9
$DIMTM
 40
0.0
  9
$DIMTXT
 40
0.18
  9
$DIMCEN
 40
0.09
  9
$DIMTSZ
 40
0.0
  9
$DIMTOL
 70
     0
  9
$DIMLIM
 70
     0
  9
$DIMTIH
 70
     1
  9
$DIMTOH
 70
     1
  9
$DIMSE1
 70
     0
  9
$DIMSE2
 70
     0
  9
$DIMTAD
 70
     0
  9
$DIMZIN
 70
     0
  9
$DIMBLK
  1

  9
$DIMASO
 70
     1
  9
$DIMSHO
 70
     1
  9
$DIMPOST
  1

  9
$DIMAPOST
  1

  9
$DIMALT
 70
     0
  9
$DIMALTD
 70
     2
  9
$DIMALTF
 40
25.4
  9
$DIMLFAC
 40
1.0
  9
$DIMTOFL
 70
     0
  9
$DIMTVP
 40
0.0
  9
$DIMTIX
 70
     0
  9
$DIMSOXD
 70
     0
  9
$DIMSAH
 70
     0
  9
$DIMBLK1
  1

  9
$DIMBLK2
  1

  9
$DIMSTYLE
  2
Standard
  9
$DIMCLRD
 70
     0
  9
$DIMCLRE
 70
     0
  9
$DIMCLRT
 70
     0
  9
$DIMTFAC
 40
1.0
  9
$DIMGAP
 40
0.09
  9
$DIMJUST
 70
     0
  9
$DIMSD1
 70
     0
  9
$DIMSD2
 70
     0
  9
$DIMTOLJ
 70
     1
  9
$DIMTZIN
 70
     0
  9
$DIMALTZ
 70
     0
  9
$DIMALTTZ
 70
     0
  9
$DIMUPT
 70
     0
  9
$DIMDEC
 70
     4
  9
$DIMTDEC
 70
     4
  9
$DIMALTU
 70
     2
  9
$DIMALTTD
 70
     2
  9
$DIMTXSTY
  7
Standard
  9
$DIMAUNIT
 70
     0
  9
$DIMADEC
 70
     0
  9
$DIMALTRND
 40
0.0
  9
$DIMAZIN
 70
     0
  9
$DIMDSEP
 70
    46
  9
$DIMATFIT
 70
     3
  9
$DIMFRAC
 70
     0
  9
$DIMLDRBLK
  1

  9
$DIMLUNIT
 70
     2
  9
$DIMLWD
 70
    -2
  9
$DIMLWE
 70
    -2
  9
$DIMTMOVE
 70
     0
  9
$DIMFXL
 40
1.0
  9
$DIMFXLON
 70
     0
  9
$DIMJOGANG
 40
0.7853981633974483
  9
$DIMTFILL
 70
     0
  9
$DIMTFILLCLR
 70
     0
  9
$DIMARCSYM
 70
     0
  9
$DIMLTYPE
  6

  9
$DIMLTEX1
  6

  9
$DIMLTEX2
  6

  9
$DIMTXTDIRECTION
 70
     0
  9
$LUNITS
 70
     2
  9
$LUPREC
 70
     4
  9
$SKETCHINC
 40
0.1
  9
$FILLETRAD
 40
0.0
  9
$AUNITS
 70
     0
  9
$AUPREC
 70
     0
  9
$MENU
  1
.
  9
$ELEVATION
 40
0.0
  9
$PELEVATION
 40
0.0
  9
$THICKNESS
 40
0.0
  9
$LIMCHECK
 70
     0
  9
$CHAMFERA
 40
0.0
  9
$CHAMFERB
 40
0.0
  9
$CHAMFERC
 40
0.0
  9
$CHAMFERD
 40
0.0
  9
$SKPOLY
 70
     0
  9
$TDCREATE
 40
2459569.503136574
  9
$TDUCREATE
 40
2459569.128136575
  9
$TDUPDATE
 40
2459569.503136574
  9
$TDUUPDATE
 40
2459569.128136575
  9
$TDINDWG
 40
0.0000000000
  9
$TDUSRTIMER
 40
0.0000000000
  9
$USRTIMER
 70
     1
  9
$ANGBASE
 50
0.0
  9
$ANGDIR
 70
     0
  9
$PDMODE
 70
     0
  9
$PDSIZE
 40
0.0
  9
$PLINEWID
 40
0.0
  9
$SPLFRAME
 70
     0
  9
$SPLINETYPE
 70
     6
  9
$SPLINESEGS
 70
     8
  9
$HANDSEED
  5
1A7
  9
$SURFTAB1
 70
     6
  9
$SURFTAB2
 70
     6
  9
$SURFTYPE
 70
     6
  9
$SURFU
 70
     6
  9
$SURFV
 70
     6
  9
$UCSBASE
  2

  9
$UCSNAME
  2

  9
$UCSORG
 10
0.0
 20
0.0
 30
0.0
  9
$UCSXDIR
 10
1.0
 20
0.0
 30
0.0
  9
$UCSYDIR
 10
0.0
 20
1.0
 30
0.0
  9
$UCSORTHOREF
  2

  9
$UCSORTHOVIEW
 70
     0
  9
$UCSORGTOP
 10
0.0
 20
0.0
 30
0.0
  9
$UCSORGBOTTOM
 10
0.0
 20
0.0
 30
0.0
  9
$UCSORGLEFT
 10
0.0
 20
0.0
 30
0.0
  9
$UCSORGRIGHT
 10
0.0
 20
0.0
 30
0.0
  9
$UCSORGFRONT
 10
0.0
 20
0.0
 30
0.0
  9
$UCSORGBACK
 10
0.0
 20
0.0
 30
0.0
  9
$PUCSBASE
  2

  9
$PUCSNAME
  2

  9
$PUCSORG
 10
0.0
 20
0.0
 30
0.0
  9
$PUCSXDIR
 10
1.0
 20
0.0
 30
0.0
  9
$PUCSYDIR
 10
0.0
 20
1.0
 30
0.0
  9
$PUCSORTHOREF
  2

  9
$PUCSORTHOVIEW
 70
     0
  9
$PUCSORGTOP
 10
0.0
 20
0.0
 30
0.0
  9
$PUCSORGBOTTOM
 10
0.0
 20
0.0
 30
0.0
  9
$PUCSORGLEFT
 10
0.0
 20
0.0
 30
0.0
  9
$PUCSORGRIGHT
 10
0.0
 20
0.0
 30
0.0
  9
$PUCSORGFRONT
 10
0.0
 20
0.0
 30
0.0
  9
$PUCSORGBACK
 10
0.0
 20
0.0
 30
0.0
  9
$USERI1
 70
     0
  9
$USERI2
 70
     0
  9
$USERI3
 70
     0
  9
$USERI4
 70
     0
  9
$USERI5
 70
     0
  9
$USERR1
 40
0.0
  9
$USERR2
 40
0.0
  9
$USERR3
 40
0.0
  9
$USERR4
 40
0.0
  9
$USERR5
 40
0.0
  9
$WORLDVIEW
 70
     1
  9
$SHADEDGE
 70
     3
  9
$SHADEDIF
 70
    70
  9
$TILEMODE
 70
     1
  9
$MAXACTVP
 70
    64
  9
$PINSBASE
 10
0.0
 20
0.0
 30
0.0
  9
$PLIMCHECK
 70
     0
  9
$PEXTMIN
 10
1.000000000000000E+20
 20
1.000000000000000E+20
 30
1.000000000000000E+20
  9
$PEXTMAX
 10
-1.000000000000000E+20
 20
-1.000000000000000E+20
 30
-1.000000000000000E+20
  9
$PLIMMIN
 10
0.0
 20
0.0
  9
$PLIMMAX
 10
12.0
 20
9.0
  9
$UNITMODE
 70
     0
  9
$VISRETAIN
 70
     1
  9
$PLINEGEN
 70
     0
  9
$PSLTSCALE
 70
     1
  9
$TREEDEPTH
 70
  3020
  9
$CMLSTYLE
  2
Standard
  9
$CMLJUST
 70
     0
  9
$CMLSCALE
 40
1.0
  9
$PROXYGRAPHICS
 70
     1
  9
$MEASUREMENT
 70
     0
  9
$CELWEIGHT
370
    -1
  9
$ENDCAPS
280
     0
  9
$JOINSTYLE
280
     0
  9
$LWDISPLAY
290
     1
  9
$INSUNITS
 70
     4
  9
$HYPERLINKBASE
  1

  9
$STYLESHEET
  1

  9
$XEDIT
290
     1
  9
$CEPSNTYPE
380
     0
  9
$PSTYLEMODE
290
     1
  9
$FINGERPRINTGUID
  2
{F04BBE28-2092-6945-97C4-509856992C15}
  9
$VERSIONGUID
  2
{7DEBC58C-8460-A144-A98A-EDCEB61B0003}
  9
$EXTNAMES
290
     1
  9
$PSVPSCALE
 40
0.0
  9
$OLESTARTUP
290
     0
  9
$SORTENTS
280
   127
  9
$INDEXCTL
280
     0
  9
$HIDETEXT
280
     1
  9
$XCLIPFRAME
280
     2
  9
$HALOGAP
280
     0
  9
$OBSCOLOR
 70
   257
  9
$OBSLTYPE
280
     0
  9
$INTERSECTIONDISPLAY
280
     0
  9
$INTERSECTIONCOLOR
 70
   257
  9
$DIMASSOC
280
     2
  9
$PROJECTNAME
  1

  9
$CAMERADISPLAY
290
     0
  9
$LENSLENGTH
 40
50.0
  9
$CAMERAHEIGHT
 40
0.0
  9
$STEPSPERSEC
 40
2.0
  9
$STEPSIZE
 40
6.0
  9
$3DDWFPREC
 40
2.0
  9
$PSOLWIDTH
 40
0.25
  9
$PSOLHEIGHT
 40
4.0
  9
$LOFTANG1
 40
1.570796326794896
  9
$LOFTANG2
 40
1.570796326794896
  9
$LOFTMAG1
 40
0.0
  9
$LOFTMAG2
 40
0.0
  9
$LOFTPARAM
 70
     7
  9
$LOFTNORMALS
280
     1
  9
$LATITUDE
 40
37.795
  9
$LONGITUDE
 40
-122.394
  9
$NORTHDIRECTION
 40
0.0
  9
$TIMEZONE
 70
 -8000
  9
$LIGHTGLYPHDISPLAY
280
     1
  9
$TILEMODELIGHTSYNCH
280
     1
  9
$CMATERIAL
347
11
  9
$SOLIDHIST
280
     0
  9
$SHOWHIST
280
     1
  9
$DWFFRAME
280
     2
  9
$DGNFRAME
280
     0
  9
$REALWORLDSCALE
290
     1
  9
$INTERFERECOLOR
 62
     1
  9
$INTERFEREOBJVS
345
33
  9
$INTERFEREVPVS
346
30
  9
$CSHADOW
280
     0
  9
$SHADOWPLANELOCATION
 40
0.0
  0
ENDSEC
  0
SECTION
  2
CLASSES
  0
CLASS
  1
ACDBDICTIONARYWDFLT
  2
AcDbDictionaryWithDefault
  3
ObjectDBX Classes
 90
        0
 91
        1
280
     0
281
     0
  0
CLASS
  1
MATERIAL
  2
AcDbMaterial
  3
ObjectDBX Classes
 90
     1153
 91
        3
280
     0
281
     0
  0
CLASS
  1
VISUALSTYLE
  2
AcDbVisualStyle
  3
ObjectDBX Classes
 90
     4095
 91
       24
280
     0
281
     0
  0
CLASS
  1
SCALE
  2
AcDbScale
  3
ObjectDBX Classes
 90
     1153
 91
       17
280
     0
281
     0
  0
CLASS
  1
TABLESTYLE
  2
AcDbTableStyle
  3
ObjectDBX Classes
 90
     4095
 91
        1
280
     0
281
     0
  0
CLASS
  1
MLEADERSTYLE
  2
AcDbMLeaderStyle
  3
ACDB_MLEADERSTYLE_CLASS
 90
     4095
 91
        1
280
     0
281
     0
  0
CLASS
  1
ACDBSECTIONVIEWSTYLE
  2
AcDbSectionViewStyle
  3
ObjectDBX Classes
 90
     1025
 91
        1
280
     0
281
     0
  0
CLASS
  1
ACDBDETAILVIEWSTYLE
  2
AcDbDetailViewStyle
  3
ObjectDBX Classes
 90
     1025
 91
        1
280
     0
281
     0
  0
CLASS
  1
DICTIONARYVAR
  2
AcDbDictionaryVar
  3
ObjectDBX Classes
 90
        0
 91
        5
280
     0
281
     0
  0
CLASS
  1
CELLSTYLEMAP
  2
AcDbCellStyleMap
  3
ObjectDBX Classes
 90
     1152
 91
        1
280
     0
281
     0
  0
ENDSEC
  0
SECTION
  2
TABLES
  0
TABLE
  2
VPORT
  5
8
330
0
100
AcDbSymbolTable
 70
     1
  0
VPORT
  5
57
330
8
100
AcDbSymbolTableRecord
100
AcDbViewportTableRecord
  2
*Active
 70
     0
 10
0.0
 20
0.0
 11
1.0
 21
1.0
 12
0.0
 22
0.0
 13
0.0
 23
0.0
 14
1.0
 24
1.0
 15
0.0
 25
0.0
 16
0.0
 26
0.0
 36
1.0
 17
104.9999999737534
 27
-148.4999999628701
 37
0.0
 40
302.939999924255
 41
0.7070707070707534
 42
50.0
 43
0.0
 44
0.0
 50
0.0
 51
0.0
 71
     0
 72
   100
 73
     1
 74
     0
 75
     1
 76
     0
 77
     0
 78
     0
281
     0
 65
     1
110
0.0
120
0.0
130
0.0
111
1.0
121
0.0
131
0.0
112
0.0
122
1.0
132
0.0
 79
     0
146
0.0
 60
     3
 61
     5
292
     1
282
     1
141
0.0
142
0.0
 63
   250
421
  3355443
  0
ENDTAB
  0
TABLE
  2
LTYPE
  5
5
330
0
100
AcDbSymbolTable
 70
     2
  0
LTYPE
  5
5B
330
5
100
AcDbSymbolTableRecord
100
AcDbLinetypeTableRecord
  2
ByBlock
 70
     0
  3

 72
    65
 73
     0
 40
0.0
  0
LTYPE
  5
5C
330
5
100
AcDbSymbolTableRecord
100
AcDbLinetypeTableRecord
  2
ByLayer
 70
     0
  3

 72
    65
 73
     0
 40
0.0
  0
LTYPE
  5
5D
330
5
100
AcDbSymbolTableRecord
100
AcDbLinetypeTableRecord
  2
Continuous
 70
     0
  3
Solid line
 72
    65
 73
     0
 40
0.0
  0
LTYPE
  5
A5
330
5
100
AcDbSymbolTableRecord
100
AcDbLinetypeTableRecord
  2
AI-Linetype-0
 70
     0
  3
Adobe Illustrator Linetype No. 0
 72
    65
 73
     2
 40
1.411111110758333
 49
0.7055555553791667
 74
     0
 49
-0.7055555553791667
 74
     0
  0
ENDTAB
  0
TABLE
  2
LAYER
  5
2
330
0
100
AcDbSymbolTable
 70
     2
  0
LAYER
  5
54
330
2
100
AcDbSymbolTableRecord
100
AcDbLayerTableRecord
  2
0
 70
     0
 62
     7
  6
Continuous
370
    -3
390
F
347
21
  0
LAYER
  5
78
330
2
100
AcDbSymbolTableRecord
100
AcDbLayerTableRecord
  2
レイヤー 1
 70
     0
 62
     7
  6
Continuous
370
     0
390
F
347
21
  0
ENDTAB
  0
TABLE
  2
STYLE
  5
3
330
0
100
AcDbSymbolTable
 70
     2
  0
STYLE
  5
55
330
3
100
AcDbSymbolTableRecord
100
AcDbTextStyleTableRecord
  2
Standard
 70
     0
 40
0.0
 41
1.0
 50
0.0
 71
     0
 42
0.2
  3
txt
  4

  0
STYLE
  5
5A
330
3
100
AcDbSymbolTableRecord
100
AcDbTextStyleTableRecord
  2
Annotative
 70
     0
 40
0.0
 41
1.0
 50
0.0
 71
     0
 42
0.2
  3
txt
  4

1001
AcadAnnotative
1000
AnnotativeData
1002
{
1070
     1
1070
     1
1002
}
  0
ENDTAB
  0
TABLE
  2
VIEW
  5
6
330
0
100
AcDbSymbolTable
 70
     0
  0
ENDTAB
  0
TABLE
  2
UCS
  5
7
330
0
100
AcDbSymbolTable
 70
     0
  0
ENDTAB
  0
TABLE
  2
APPID
  5
9
330
0
100
AcDbSymbolTable
 70
     2
  0
APPID
  5
56
330
9
100
AcDbSymbolTableRecord
100
AcDbRegAppTableRecord
  2
ACAD
 70
     0
  0
APPID
  5
5E
330
9
100
AcDbSymbolTableRecord
100
AcDbRegAppTableRecord
  2
AcadAnnotative
 70
     0
  0
ENDTAB
  0
TABLE
  2
DIMSTYLE
  5
A
330
0
100
AcDbSymbolTable
 70
     2
100
AcDbDimStyleTable
 71
     0
  0
DIMSTYLE
105
58
330
A
100
AcDbSymbolTableRecord
100
AcDbDimStyleTableRecord
  2
Standard
 70
     0
340
55
  0
DIMSTYLE
105
59
330
A
100
AcDbSymbolTableRecord
100
AcDbDimStyleTableRecord
  2
Annotative
 70
     0
340
55
1001
AcadAnnotative
1000
AnnotativeData
1002
{
1070
     1
1070
     1
1002
}
  0
ENDTAB
  0
TABLE
  2
BLOCK_RECORD
  5
1
330
0
100
AcDbSymbolTable
 70
    16
  0
BLOCK_RECORD
  5
70
330
1
100
AcDbSymbolTableRecord
100
AcDbBlockTableRecord
  2
*Model_Space
340
73
 70
     0
280
     1
281
     0
  0
BLOCK_RECORD
  5
6C
330
1
100
AcDbSymbolTableRecord
100
AcDbBlockTableRecord
  2
*Paper_Space
340
6F
 70
     0
280
     1
281
     0
  0
BLOCK_RECORD
  5
74
330
1
100
AcDbSymbolTableRecord
100
AcDbBlockTableRecord
  2
*Paper_Space0
340
77
 70
     0
280
     1
281
     0
  0
BLOCK_RECORD
  5
79
330
1
100
AcDbSymbolTableRecord
100
AcDbBlockTableRecord
  2
Block_0
340
0
102
{BLKREFS
331
7A
102
}
 70
     0
280
     1
281
     0
  0
BLOCK_RECORD
  5
7D
330
1
100
AcDbSymbolTableRecord
100
AcDbBlockTableRecord
  2
Block_1
340
0
102
{BLKREFS
331
7E
102
}
 70
     0
280
     1
281
     0
  0
BLOCK_RECORD
  5
81
330
1
100
AcDbSymbolTableRecord
100
AcDbBlockTableRecord
  2
Block_2
340
0
102
{BLKREFS
331
82
102
}
 70
     0
280
     1
281
     0
  0
BLOCK_RECORD
  5
A6
330
1
100
AcDbSymbolTableRecord
100
AcDbBlockTableRecord
  2
Block_3
340
0
102
{BLKREFS
331
A7
102
}
 70
     0
280
     1
281
     0
  0
BLOCK_RECORD
  5
111
330
1
100
AcDbSymbolTableRecord
100
AcDbBlockTableRecord
  2
Block_4
340
0
102
{BLKREFS
331
112
102
}
 70
     0
280
     1
281
     0
  0
BLOCK_RECORD
  5
115
330
1
100
AcDbSymbolTableRecord
100
AcDbBlockTableRecord
  2
Block_5
340
0
102
{BLKREFS
331
116
102
}
 70
     0
280
     1
281
     0
  0
BLOCK_RECORD
  5
122
330
1
100
AcDbSymbolTableRecord
100
AcDbBlockTableRecord
  2
Block_6
340
0
102
{BLKREFS
331
123
102
}
 70
     0
280
     1
281
     0
  0
BLOCK_RECORD
  5
126
330
1
100
AcDbSymbolTableRecord
100
AcDbBlockTableRecord
  2
Block_7
340
0
102
{BLKREFS
331
127
102
}
 70
     0
280
     1
281
     0
  0
BLOCK_RECORD
  5
130
330
1
100
AcDbSymbolTableRecord
100
AcDbBlockTableRecord
  2
Block_8
340
0
102
{BLKREFS
331
131
102
}
 70
     0
280
     1
281
     0
  0
BLOCK_RECORD
  5
138
330
1
100
AcDbSymbolTableRecord
100
AcDbBlockTableRecord
  2
Block_9
340
0
102
{BLKREFS
331
139
102
}
 70
     0
280
     1
281
     0
  0
BLOCK_RECORD
  5
13C
330
1
100
AcDbSymbolTableRecord
100
AcDbBlockTableRecord
  2
Block_10
340
0
102
{BLKREFS
331
13D
102
}
 70
     0
280
     1
281
     0
  0
BLOCK_RECORD
  5
147
330
1
100
AcDbSymbolTableRecord
100
AcDbBlockTableRecord
  2
Block_11
340
0
102
{BLKREFS
331
148
102
}
 70
     0
280
     1
281
     0
  0
BLOCK_RECORD
  5
150
330
1
100
AcDbSymbolTableRecord
100
AcDbBlockTableRecord
  2
Block_12
340
0
102
{BLKREFS
331
151
102
}
 70
     0
280
     1
281
     0
  0
BLOCK_RECORD
  5
15B
330
1
100
AcDbSymbolTableRecord
100
AcDbBlockTableRecord
  2
Block_13
340
0
102
{BLKREFS
331
15C
102
}
 70
     0
280
     1
281
     0
  0
BLOCK_RECORD
  5
15F
330
1
100
AcDbSymbolTableRecord
100
AcDbBlockTableRecord
  2
Block_14
340
0
102
{BLKREFS
331
160
102
}
 70
     0
280
     1
281
     0
  0
ENDTAB
  0
ENDSEC
  0
SECTION
  2
BLOCKS
  0
BLOCK
  5
71
330
70
100
AcDbEntity
  8
0
100
AcDbBlockBegin
  2
*Model_Space
 70
     0
 10
0.0
 20
0.0
 30
0.0
  3
*Model_Space
  1

  0
ENDBLK
  5
72
330
70
100
AcDbEntity
  8
0
100
AcDbBlockEnd
  0
BLOCK
  5
6D
330
6C
100
AcDbEntity
 67
     1
  8
0
100
AcDbBlockBegin
  2
*Paper_Space
 70
     0
 10
0.0
 20
0.0
 30
0.0
  3
*Paper_Space
  1

  0
ENDBLK
  5
6E
330
6C
100
AcDbEntity
 67
     1
  8
0
100
AcDbBlockEnd
  0
BLOCK
  5
75
330
74
100
AcDbEntity
 67
     1
  8
0
100
AcDbBlockBegin
  2
*Paper_Space0
 70
     0
 10
0.0
 20
0.0
 30
0.0
  3
*Paper_Space0
  1

  0
ENDBLK
  5
76
330
74
100
AcDbEntity
 67
     1
  8
0
100
AcDbBlockEnd
  0
BLOCK
  5
7B
330
79
100
AcDbEntity
  8
0
100
AcDbBlockBegin
  2
Block_0
 70
     0
 10
0.0
 20
0.0
 30
0.0
  3
Block_0
  1

  0
INSERT
  5
7E
330
79
100
AcDbEntity
  8
レイヤー 1
100
AcDbBlockReference
  2
Block_1
 10
0.0
 20
0.0
 30
0.0
  0
LWPOLYLINE
  5
A3
330
79
100
AcDbEntity
  8
レイヤー 1
 62
   250
420
  2299925
370
     9
100
AcDbPolyline
 90
        3
 70
     0
 43
0.0
 10
118.5611908354728
 20
-146.0124883848422
 10
124.7348017890819
 20
-154.1262008828137
 10
135.3774015175666
 20
-154.1262008828137
  0
LWPOLYLINE
  5
A4
330
79
100
AcDbEntity
  8
レイヤー 1
  6
AI-Linetype-0
 62
   154
420
    23468
370
    25
100
AcDbPolyline
 90
        6
 70
     0
 43
0.0
 10
79.22731628340828
 20
-146.4827411625023
 10
100.7466190677384
 20
-145.5420592182929
 10
100.7466190677384
 20
-150.8924633836217
 10
107.9785633276803
 20
-150.8924633836217
 10
107.9785633276803
 20
-145.4244078294335
 10
129.439410835724
 20
-146.4240036625169
  0
INSERT
  5
A7
330
79
100
AcDbEntity
  8
レイヤー 1
100
AcDbBlockReference
  2
Block_3
 10
0.0
 20
0.0
 30
0.0
  0
ENDBLK
  5
7C
330
79
100
AcDbEntity
  8
0
100
AcDbBlockEnd
  0
BLOCK
  5
7F
330
7D
100
AcDbEntity
  8
0
100
AcDbBlockBegin
  2
Block_1
 70
     0
 10
0.0
 20
0.0
 30
0.0
  3
Block_1
  1

  0
INSERT
  5
82
330
7D
100
AcDbEntity
  8
レイヤー 1
100
AcDbBlockReference
  2
Block_2
 10
0.0
 20
0.0
 30
0.0
  0
ENDBLK
  5
80
330
7D
100
AcDbEntity
  8
0
100
AcDbBlockEnd
  0
BLOCK
  5
83
330
81
100
AcDbEntity
  8
0
100
AcDbBlockBegin
  2
Block_2
 70
     0
 10
0.0
 20
0.0
 30
0.0
  3
Block_2
  1

  0
SPLINE
  5
85
330
81
100
AcDbEntity
  8
レイヤー 1
100
AcDbSpline
210
0.0
220
0.0
230
1.0
 70
     9
 71
     3
 72
    59
 73
    55
 74
     0
 42
0.0000000001
 43
0.0000000001
 40
0.0
 40
0.0
 40
0.0
 40
0.0
 40
1.0
 40
1.0
 40
1.0
 40
2.0
 40
2.0
 40
2.0
 40
3.0
 40
3.0
 40
3.0
 40
4.0
 40
4.0
 40
4.0
 40
5.0
 40
5.0
 40
5.0
 40
6.0
 40
6.0
 40
6.0
 40
7.0
 40
7.0
 40
7.0
 40
8.0
 40
8.0
 40
8.0
 40
9.0
 40
9.0
 40
9.0
 40
10.0
 40
10.0
 40
10.0
 40
11.0
 40
11.0
 40
11.0
 40
12.0
 40
12.0
 40
12.0
 40
13.0
 40
13.0
 40
13.0
 40
14.0
 40
14.0
 40
14.0
 40
15.0
 40
15.0
 40
15.0
 40
16.0
 40
16.0
 40
16.0
 40
17.0
 40
17.0
 40
17.0
 40
18.0
 40
18.0
 40
18.0
 40
18.0
 10
126.0946288747263
 20
-149.7424533045782
 30
0.0
 10
125.9485568261517
 20
-150.229245296644
 30
0.0
 10
125.7301377723869
 20
-150.7515217722079
 30
0.0
 10
125.2057942395319
 20
-151.0688150663995
 30
0.0
 10
125.2057942395319
 20
-151.0688150663995
 30
0.0
 10
125.0411186753369
 20
-150.9165418459514
 30
0.0
 10
125.0411186753369
 20
-150.9165418459514
 30
0.0
 10
125.1820230806836
 20
-150.8469509171493
 30
0.0
 10
125.3966525294147
 20
-150.7367078616214
 30
0.0
 10
125.6171386404707
 20
-150.4066677141344
 30
0.0
 10
125.8245333886828
 20
-150.0938530440737
 30
0.0
 10
125.8744872732189
 20
-149.8378824495197
 30
0.0
 10
125.8986029416156
 20
-149.710758426114
 30
0.0
 10
125.8986029416156
 20
-149.710758426114
 30
0.0
 10
125.331884734292
 20
-149.710758426114
 30
0.0
 10
125.331884734292
 20
-149.710758426114
 30
0.0
 10
125.2412787230299
 20
-149.8716443852751
 30
0.0
 10
125.1355142916328
 20
-150.0387315163098
 30
0.0
 10
124.9670491224041
 20
-150.2099527619266
 30
0.0
 10
124.9670491224041
 20
-150.2099527619266
 30
0.0
 10
124.8151204115045
 20
-150.0873073626518
 30
0.0
 10
124.8151204115045
 20
-150.0873073626518
 30
0.0
 10
124.8671413533318
 20
-150.0407985736009
 30
0.0
 10
124.9966769435772
 20
-149.9288329703303
 30
0.0
 10
125.1410264444092
 20
-149.6790635476497
 30
0.0
 10
125.207861296823
 20
-149.5605522629571
 30
0.0
 10
125.2984673080851
 20
-149.3913980746313
 30
0.0
 10
125.3208604287392
 20
-149.2687526753564
 30
0.0
 10
125.3208604287392
 20
-149.2687526753564
 30
0.0
 10
125.5227430241748
 20
-149.3700384826228
 30
0.0
 10
125.5227430241748
 20
-149.3700384826228
 30
0.0
 10
125.5354898774703
 20
-149.3765841640447
 30
0.0
 10
125.5485812403142
 20
-149.3848523932093
 30
0.0
 10
125.5485812403142
 20
-149.3996663037959
 30
0.0
 10
125.5485812403142
 20
-149.4210258958044
 30
0.0
 10
125.5261881196601
 20
-149.4337727490998
 30
0.0
 10
125.5189534191411
 20
-149.435839806391
 30
0.0
 10
125.4948377507443
 20
-149.4441080355556
 30
0.0
 10
125.4876030502253
 20
-149.4420409782645
 30
0.0
 10
125.4652099295712
 20
-149.4675346848553
 30
0.0
 10
125.442816808917
 20
-149.4930283914461
 30
0.0
 10
125.4448838662082
 20
-149.5012966206108
 30
0.0
 10
125.4169785927777
 20
-149.5543510910836
 30
0.0
 10
125.4169785927777
 20
-149.5543510910836
 30
0.0
 10
125.7094671994754
 20
-149.5543510910836
 30
0.0
 10
125.7094671994754
 20
-149.5543510910836
 30
0.0
 10
125.9337429155652
 20
-149.5543510910836
 30
0.0
 10
125.9616481889957
 20
-149.5416042377882
 30
0.0
 10
126.0116020735318
 20
-149.511976416615
 30
0.0
 10
126.0116020735318
 20
-149.511976416615
 30
0.0
 10
126.1483723642962
 20
-149.6769964903585
 30
0.0
 10
126.1483723642962
 20
-149.6769964903585
 30
0.0
 10
126.1187445431231
 20
-149.7128254834051
 30
0.0
 10
126.1170219953804
 20
-149.7148925406963
 30
0.0
 10
126.0946288747263
 20
-149.7424533045782
 30
0.0
  0
HATCH
  5
86
330
81
100
AcDbEntity
  8
レイヤー 1
 62
   250
420
  2299925
440
 33554687
100
AcDbHatch
 10
0.0
 20
0.0
 30
0.0
210
0.0
220
0.0
230
1.0
  2
SOLID
 70
     1
 71
     1
 91
        1
 92
        1
 93
        1
 72
     4
 94
        3
 73
     0
 74
     0
 95
       59
 96
       55
 40
0.0
 40
0.0
 40
0.0
 40
0.0
 40
1.0
 40
1.0
 40
1.0
 40
2.0
 40
2.0
 40
2.0
 40
3.0
 40
3.0
 40
3.0
 40
4.0
 40
4.0
 40
4.0
 40
5.0
 40
5.0
 40
5.0
 40
6.0
 40
6.0
 40
6.0
 40
7.0
 40
7.0
 40
7.0
 40
8.0
 40
8.0
 40
8.0
 40
9.0
 40
9.0
 40
9.0
 40
10.0
 40
10.0
 40
10.0
 40
11.0
 40
11.0
 40
11.0
 40
12.0
 40
12.0
 40
12.0
 40
13.0
 40
13.0
 40
13.0
 40
14.0
 40
14.0
 40
14.0
 40
15.0
 40
15.0
 40
15.0
 40
16.0
 40
16.0
 40
16.0
 40
17.0
 40
17.0
 40
17.0
 40
18.0
 40
18.0
 40
18.0
 40
18.0
 10
126.0946288747263
 20
-149.7424533045782
 10
125.9485568261517
 20
-150.229245296644
 10
125.7301377723869
 20
-150.7515217722079
 10
125.2057942395319
 20
-151.0688150663995
 10
125.2057942395319
 20
-151.0688150663995
 10
125.0411186753369
 20
-150.9165418459514
 10
125.0411186753369
 20
-150.9165418459514
 10
125.1820230806836
 20
-150.8469509171493
 10
125.3966525294147
 20
-150.7367078616214
 10
125.6171386404707
 20
-150.4066677141344
 10
125.8245333886828
 20
-150.0938530440737
 10
125.8744872732189
 20
-149.8378824495197
 10
125.8986029416156
 20
-149.710758426114
 10
125.8986029416156
 20
-149.710758426114
 10
125.331884734292
 20
-149.710758426114
 10
125.331884734292
 20
-149.710758426114
 10
125.2412787230299
 20
-149.8716443852751
 10
125.1355142916328
 20
-150.0387315163098
 10
124.9670491224041
 20
-150.2099527619266
 10
124.9670491224041
 20
-150.2099527619266
 10
124.8151204115045
 20
-150.0873073626518
 10
124.8151204115045
 20
-150.0873073626518
 10
124.8671413533318
 20
-150.0407985736009
 10
124.9966769435772
 20
-149.9288329703303
 10
125.1410264444092
 20
-149.6790635476497
 10
125.207861296823
 20
-149.5605522629571
 10
125.2984673080851
 20
-149.3913980746313
 10
125.3208604287392
 20
-149.2687526753564
 10
125.3208604287392
 20
-149.2687526753564
 10
125.5227430241748
 20
-149.3700384826228
 10
125.5227430241748
 20
-149.3700384826228
 10
125.5354898774703
 20
-149.3765841640447
 10
125.5485812403142
 20
-149.3848523932093
 10
125.5485812403142
 20
-149.3996663037959
 10
125.5485812403142
 20
-149.4210258958044
 10
125.5261881196601
 20
-149.4337727490998
 10
125.5189534191411
 20
-149.435839806391
 10
125.4948377507443
 20
-149.4441080355556
 10
125.4876030502253
 20
-149.4420409782645
 10
125.4652099295712
 20
-149.4675346848553
 10
125.442816808917
 20
-149.4930283914461
 10
125.4448838662082
 20
-149.5012966206108
 10
125.4169785927777
 20
-149.5543510910836
 10
125.4169785927777
 20
-149.5543510910836
 10
125.7094671994754
 20
-149.5543510910836
 10
125.7094671994754
 20
-149.5543510910836
 10
125.9337429155652
 20
-149.5543510910836
 10
125.9616481889957
 20
-149.5416042377882
 10
126.0116020735318
 20
-149.511976416615
 10
126.0116020735318
 20
-149.511976416615
 10
126.1483723642962
 20
-149.6769964903585
 10
126.1483723642962
 20
-149.6769964903585
 10
126.1187445431231
 20
-149.7128254834051
 10
126.1170219953804
 20
-149.7148925406963
 10
126.0946288747263
 20
-149.7424533045782
 97
        0
 97
        1
330
85
 75
     2
 76
     1
 98
        1
 10
0.0
 20
0.0
450
        0
451
        0
460
0.0
461
0.0
452
        0
462
0.0
453
        0
470

  0
SPLINE
  5
87
330
81
100
AcDbEntity
  8
レイヤー 1
100
AcDbSpline
210
0.0
220
0.0
230
1.0
 70
    11
 71
     3
 72
    17
 73
    13
 74
     0
 42
0.0000000001
 43
0.0000000001
 40
0.0
 40
0.0
 40
0.0
 40
0.0
 40
1.0
 40
1.0
 40
1.0
 40
2.0
 40
2.0
 40
2.0
 40
3.0
 40
3.0
 40
3.0
 40
4.0
 40
4.0
 40
4.0
 40
4.0
 10
127.5336452589152
 20
-149.6515027837677
 30
0.0
 10
127.5336452589152
 20
-149.6515027837677
 30
0.0
 10
126.6224175030666
 20
-149.6515027837677
 30
0.0
 10
126.6224175030666
 20
-149.6515027837677
 30
0.0
 10
126.6224175030666
 20
-149.6515027837677
 30
0.0
 10
126.6224175030666
 20
-150.5399929094136
 30
0.0
 10
126.6224175030666
 20
-150.5399929094136
 30
0.0
 10
126.6224175030666
 20
-150.5399929094136
 30
0.0
 10
127.5336452589152
 20
-150.5399929094136
 30
0.0
 10
127.5336452589152
 20
-150.5399929094136
 30
0.0
 10
127.5336452589152
 20
-150.5399929094136
 30
0.0
 10
127.5336452589152
 20
-149.6515027837677
 30
0.0
 10
127.5336452589152
 20
-149.6515027837677
 30
0.0
  0
SPLINE
  5
88
330
81
100
AcDbEntity
  8
レイヤー 1
100
AcDbSpline
210
0.0
220
0.0
230
1.0
 70
     9
 71
     3
 72
    53
 73
    49
 74
     0
 42
0.0000000001
 43
0.0000000001
 40
0.0
 40
0.0
 40
0.0
 40
0.0
 40
1.0
 40
1.0
 40
1.0
 40
2.0
 40
2.0
 40
2.0
 40
3.0
 40
3.0
 40
3.0
 40
4.0
 40
4.0
 40
4.0
 40
5.0
 40
5.0
 40
5.0
 40
6.0
 40
6.0
 40
6.0
 40
7.0
 40
7.0
 40
7.0
 40
8.0
 40
8.0
 40
8.0
 40
9.0
 40
9.0
 40
9.0
 40
10.0
 40
10.0
 40
10.0
 40
11.0
 40
11.0
 40
11.0
 40
12.0
 40
12.0
 40
12.0
 40
13.0
 40
13.0
 40
13.0
 40
14.0
 40
14.0
 40
14.0
 40
15.0
 40
15.0
 40
15.0
 40
16.0
 40
16.0
 40
16.0
 40
16.0
 10
127.5133191955522
 20
-150.8552191463139
 30
0.0
 10
127.5205538960712
 20
-150.8107774145542
 30
0.0
 10
127.5205538960712
 20
-150.8025091853896
 30
0.0
 10
127.5260660488476
 20
-150.7284396324568
 30
0.0
 10
127.5260660488476
 20
-150.7284396324568
 30
0.0
 10
126.6244845603577
 20
-150.7284396324568
 30
0.0
 10
126.6244845603577
 20
-150.7284396324568
 30
0.0
 10
126.6244845603577
 20
-150.7601345109211
 30
0.0
 10
126.6244845603577
 20
-150.8152560386851
 30
0.0
 10
126.627929655843
 20
-150.8510850317317
 30
0.0
 10
126.627929655843
 20
-150.8510850317317
 30
0.0
 10
126.4170898121457
 20
-150.8510850317317
 30
0.0
 10
126.4170898121457
 20
-150.8510850317317
 30
0.0
 10
126.4226019649221
 20
-150.7959635039676
 30
0.0
 10
126.4319037227323
 20
-150.7050129831571
 30
0.0
 10
126.4319037227323
 20
-150.5761664120087
 30
0.0
 10
126.4336262704749
 20
-150.3708387210878
 30
0.0
 10
126.4336262704749
 20
-150.3474120717881
 30
0.0
 10
126.4336262704749
 20
-150.324329932037
 30
0.0
 10
126.4336262704749
 20
-150.324329932037
 30
0.0
 10
126.4336262704749
 20
-149.8843912385706
 30
0.0
 10
126.4336262704749
 20
-149.8843912385706
 30
0.0
 10
126.4336262704749
 20
-149.8185899148023
 30
0.0
 10
126.4281141176985
 20
-149.4950954487373
 30
0.0
 10
126.4243245126647
 20
-149.4399739209733
 30
0.0
 10
126.5335340395472
 20
-149.4527207742688
 30
0.0
 10
126.7650444561559
 20
-149.456854888851
 30
0.0
 10
126.8801106453633
 20
-149.456854888851
 30
0.0
 10
126.8801106453633
 20
-149.456854888851
 30
0.0
 10
127.2780191739096
 20
-149.456854888851
 30
0.0
 10
127.2780191739096
 20
-149.456854888851
 30
0.0
 10
127.4096218214462
 20
-149.456854888851
 30
0.0
 10
127.6056477545569
 20
-149.4547878315599
 30
0.0
 10
127.7334607970597
 20
-149.4465196023953
 30
0.0
 10
127.7262260965406
 20
-149.5564181483748
 30
0.0
 10
127.7224364915069
 20
-149.8058430615069
 30
0.0
 10
127.7224364915069
 20
-149.9243543461994
 30
0.0
 10
127.7224364915069
 20
-149.9243543461994
 30
0.0
 10
127.7224364915069
 20
-150.3432779572058
 30
0.0
 10
127.7224364915069
 20
-150.3432779572058
 30
0.0
 10
127.7224364915069
 20
-150.3856526316744
 30
0.0
 10
127.7279486442833
 20
-150.5675536732956
 30
0.0
 10
127.7279486442833
 20
-150.6057942331818
 30
0.0
 10
127.7300157015744
 20
-150.7560003963388
 30
0.0
 10
127.7372504020934
 20
-150.8066432999719
 30
0.0
 10
127.744829612161
 20
-150.8552191463139
 30
0.0
 10
127.744829612161
 20
-150.8552191463139
 30
0.0
 10
127.5133191955522
 20
-150.8552191463139
 30
0.0
 10
127.5133191955522
 20
-150.8552191463139
 30
0.0
  0
HATCH
  5
89
330
81
100
AcDbEntity
  8
レイヤー 1
 62
   250
420
  2299925
440
 33554687
100
AcDbHatch
 10
0.0
 20
0.0
 30
0.0
210
0.0
220
0.0
230
1.0
  2
SOLID
 70
     1
 71
     1
 91
        2
 92
        1
 93
        1
 72
     4
 94
        3
 73
     0
 74
     0
 95
       17
 96
       13
 40
0.0
 40
0.0
 40
0.0
 40
0.0
 40
1.0
 40
1.0
 40
1.0
 40
2.0
 40
2.0
 40
2.0
 40
3.0
 40
3.0
 40
3.0
 40
4.0
 40
4.0
 40
4.0
 40
4.0
 10
127.5336452589152
 20
-149.6515027837677
 10
127.5336452589152
 20
-149.6515027837677
 10
126.6224175030666
 20
-149.6515027837677
 10
126.6224175030666
 20
-149.6515027837677
 10
126.6224175030666
 20
-149.6515027837677
 10
126.6224175030666
 20
-150.5399929094136
 10
126.6224175030666
 20
-150.5399929094136
 10
126.6224175030666
 20
-150.5399929094136
 10
127.5336452589152
 20
-150.5399929094136
 10
127.5336452589152
 20
-150.5399929094136
 10
127.5336452589152
 20
-150.5399929094136
 10
127.5336452589152
 20
-149.6515027837677
 10
127.5336452589152
 20
-149.6515027837677
 97
        0
 97
        1
330
87
 92
        1
 93
        1
 72
     4
 94
        3
 73
     0
 74
     0
 95
       53
 96
       49
 40
0.0
 40
0.0
 40
0.0
 40
0.0
 40
1.0
 40
1.0
 40
1.0
 40
2.0
 40
2.0
 40
2.0
 40
3.0
 40
3.0
 40
3.0
 40
4.0
 40
4.0
 40
4.0
 40
5.0
 40
5.0
 40
5.0
 40
6.0
 40
6.0
 40
6.0
 40
7.0
 40
7.0
 40
7.0
 40
8.0
 40
8.0
 40
8.0
 40
9.0
 40
9.0
 40
9.0
 40
10.0
 40
10.0
 40
10.0
 40
11.0
 40
11.0
 40
11.0
 40
12.0
 40
12.0
 40
12.0
 40
13.0
 40
13.0
 40
13.0
 40
14.0
 40
14.0
 40
14.0
 40
15.0
 40
15.0
 40
15.0
 40
16.0
 40
16.0
 40
16.0
 40
16.0
 10
127.5133191955522
 20
-150.8552191463139
 10
127.5205538960712
 20
-150.8107774145542
 10
127.5205538960712
 20
-150.8025091853896
 10
127.5260660488476
 20
-150.7284396324568
 10
127.5260660488476
 20
-150.7284396324568
 10
126.6244845603577
 20
-150.7284396324568
 10
126.6244845603577
 20
-150.7284396324568
 10
126.6244845603577
 20
-150.7601345109211
 10
126.6244845603577
 20
-150.8152560386851
 10
126.627929655843
 20
-150.8510850317317
 10
126.627929655843
 20
-150.8510850317317
 10
126.4170898121457
 20
-150.8510850317317
 10
126.4170898121457
 20
-150.8510850317317
 10
126.4226019649221
 20
-150.7959635039676
 10
126.4319037227323
 20
-150.7050129831571
 10
126.4319037227323
 20
-150.5761664120087
 10
126.4336262704749
 20
-150.3708387210878
 10
126.4336262704749
 20
-150.3474120717881
 10
126.4336262704749
 20
-150.324329932037
 10
126.4336262704749
 20
-150.324329932037
 10
126.4336262704749
 20
-149.8843912385706
 10
126.4336262704749
 20
-149.8843912385706
 10
126.4336262704749
 20
-149.8185899148023
 10
126.4281141176985
 20
-149.4950954487373
 10
126.4243245126647
 20
-149.4399739209733
 10
126.5335340395472
 20
-149.4527207742688
 10
126.7650444561559
 20
-149.456854888851
 10
126.8801106453633
 20
-149.456854888851
 10
126.8801106453633
 20
-149.456854888851
 10
127.2780191739096
 20
-149.456854888851
 10
127.2780191739096
 20
-149.456854888851
 10
127.4096218214462
 20
-149.456854888851
 10
127.6056477545569
 20
-149.4547878315599
 10
127.7334607970597
 20
-149.4465196023953
 10
127.7262260965406
 20
-149.5564181483748
 10
127.7224364915069
 20
-149.8058430615069
 10
127.7224364915069
 20
-149.9243543461994
 10
127.7224364915069
 20
-149.9243543461994
 10
127.7224364915069
 20
-150.3432779572058
 10
127.7224364915069
 20
-150.3432779572058
 10
127.7224364915069
 20
-150.3856526316744
 10
127.7279486442833
 20
-150.5675536732956
 10
127.7279486442833
 20
-150.6057942331818
 10
127.7300157015744
 20
-150.7560003963388
 10
127.7372504020934
 20
-150.8066432999719
 10
127.744829612161
 20
-150.8552191463139
 10
127.744829612161
 20
-150.8552191463139
 10
127.5133191955522
 20
-150.8552191463139
 10
127.5133191955522
 20
-150.8552191463139
 97
        0
 97
        1
330
88
 75
     2
 76
     1
 98
        1
 10
0.0
 20
0.0
450
        0
451
        0
460
0.0
461
0.0
452
        0
462
0.0
453
        0
470

  0
SPLINE
  5
8A
330
81
100
AcDbEntity
  8
レイヤー 1
100
AcDbSpline
210
0.0
220
0.0
230
1.0
 70
     9
 71
     3
 72
    56
 73
    52
 74
     0
 42
0.0000000001
 43
0.0000000001
 40
0.0
 40
0.0
 40
0.0
 40
0.0
 40
1.0
 40
1.0
 40
1.0
 40
2.0
 40
2.0
 40
2.0
 40
3.0
 40
3.0
 40
3.0
 40
4.0
 40
4.0
 40
4.0
 40
5.0
 40
5.0
 40
5.0
 40
6.0
 40
6.0
 40
6.0
 40
7.0
 40
7.0
 40
7.0
 40
8.0
 40
8.0
 40
8.0
 40
9.0
 40
9.0
 40
9.0
 40
10.0
 40
10.0
 40
10.0
 40
11.0
 40
11.0
 40
11.0
 40
12.0
 40
12.0
 40
12.0
 40
13.0
 40
13.0
 40
13.0
 40
14.0
 40
14.0
 40
14.0
 40
15.0
 40
15.0
 40
15.0
 40
16.0
 40
16.0
 40
16.0
 40
17.0
 40
17.0
 40
17.0
 40
17.0
 10
129.2744520076119
 20
-150.9210204700822
 30
0.0
 10
129.1059868383832
 20
-150.6119954050553
 30
0.0
 10
128.8803330840993
 20
-150.4066677141344
 30
0.0
 10
128.8004068688415
 20
-150.3412108999147
 30
0.0
 10
128.5430582360934
 20
-150.6798637861147
 30
0.0
 10
128.289499208379
 20
-150.8321370065628
 30
0.0
 10
128.1155218863739
 20
-150.9251545846645
 30
0.0
 10
128.1155218863739
 20
-150.9251545846645
 30
0.0
 10
127.9763400287698
 20
-150.7367078616214
 30
0.0
 10
127.9763400287698
 20
-150.7367078616214
 30
0.0
 10
128.0672905495804
 20
-150.7008788685748
 30
0.0
 10
128.2543592344294
 20
-150.6247422583508
 30
0.0
 10
128.4579643776077
 20
-150.4387071021473
 30
0.0
 10
128.6894747942165
 20
-150.2268337298044
 30
0.0
 10
128.8524278106688
 20
-149.939168256786
 30
0.0
 10
128.9599147898086
 20
-149.6263535867254
 30
0.0
 10
128.9599147898086
 20
-149.6263535867254
 30
0.0
 10
128.6302191518702
 20
-149.6263535867254
 30
0.0
 10
128.6302191518702
 20
-149.6263535867254
 30
0.0
 10
128.496893956591
 20
-149.6263535867254
 30
0.0
 10
128.3136148767757
 20
-149.6304877013076
 30
0.0
 10
128.1820122292392
 20
-149.6494357264765
 30
0.0
 10
128.1820122292392
 20
-149.6494357264765
 30
0.0
 10
128.1820122292392
 20
-149.4379068636822
 30
0.0
 10
128.1820122292392
 20
-149.4379068636822
 30
0.0
 10
128.2412678715855
 20
-149.4441080355556
 30
0.0
 10
128.4689886831605
 20
-149.4547878315599
 30
0.0
 10
128.5451252933845
 20
-149.4547878315599
 30
0.0
 10
128.5451252933845
 20
-149.4547878315599
 30
0.0
 10
128.8172878367193
 20
-149.4547878315599
 30
0.0
 10
128.8172878367193
 20
-149.4547878315599
 30
0.0
 10
128.9988443687919
 20
-149.4547878315599
 30
0.0
 10
129.0191704321549
 20
-149.4485866596864
 30
0.0
 10
129.0394964955179
 20
-149.4441080355556
 30
0.0
 10
129.0784260745012
 20
-149.4379068636822
 30
0.0
 10
129.1114989911596
 20
-149.4124131570913
 30
0.0
 10
129.13010250678
 20
-149.3955321892136
 30
0.0
 10
129.13010250678
 20
-149.3955321892136
 30
0.0
 10
129.2672173070929
 20
-149.5691650016702
 30
0.0
 10
129.2672173070929
 20
-149.5691650016702
 30
0.0
 10
129.2320773331433
 20
-149.5967257655522
 30
0.0
 10
129.220708518042
 20
-149.6070610520079
 30
0.0
 10
129.1783338435735
 20
-149.6432345546031
 30
0.0
 10
129.0653347116572
 20
-149.890592410444
 30
0.0
 10
128.9950547637582
 20
-150.0407985736009
 30
0.0
 10
128.9041042429476
 20
-150.1868706221755
 30
0.0
 10
129.1783338435735
 20
-150.4046006568433
 30
0.0
 10
129.378149381718
 20
-150.6901990725705
 30
0.0
 10
129.4246581707688
 20
-150.7684027400857
 30
0.0
 10
129.4246581707688
 20
-150.7684027400857
 30
0.0
 10
129.2744520076119
 20
-150.9210204700822
 30
0.0
 10
129.2744520076119
 20
-150.9210204700822
 30
0.0
  0
HATCH
  5
8B
330
81
100
AcDbEntity
  8
レイヤー 1
 62
   250
420
  2299925
440
 33554687
100
AcDbHatch
 10
0.0
 20
0.0
 30
0.0
210
0.0
220
0.0
230
1.0
  2
SOLID
 70
     1
 71
     1
 91
        1
 92
        1
 93
        1
 72
     4
 94
        3
 73
     0
 74
     0
 95
       56
 96
       52
 40
0.0
 40
0.0
 40
0.0
 40
0.0
 40
1.0
 40
1.0
 40
1.0
 40
2.0
 40
2.0
 40
2.0
 40
3.0
 40
3.0
 40
3.0
 40
4.0
 40
4.0
 40
4.0
 40
5.0
 40
5.0
 40
5.0
 40
6.0
 40
6.0
 40
6.0
 40
7.0
 40
7.0
 40
7.0
 40
8.0
 40
8.0
 40
8.0
 40
9.0
 40
9.0
 40
9.0
 40
10.0
 40
10.0
 40
10.0
 40
11.0
 40
11.0
 40
11.0
 40
12.0
 40
12.0
 40
12.0
 40
13.0
 40
13.0
 40
13.0
 40
14.0
 40
14.0
 40
14.0
 40
15.0
 40
15.0
 40
15.0
 40
16.0
 40
16.0
 40
16.0
 40
17.0
 40
17.0
 40
17.0
 40
17.0
 10
129.2744520076119
 20
-150.9210204700822
 10
129.1059868383832
 20
-150.6119954050553
 10
128.8803330840993
 20
-150.4066677141344
 10
128.8004068688415
 20
-150.3412108999147
 10
128.5430582360934
 20
-150.6798637861147
 10
128.289499208379
 20
-150.8321370065628
 10
128.1155218863739
 20
-150.9251545846645
 10
128.1155218863739
 20
-150.9251545846645
 10
127.9763400287698
 20
-150.7367078616214
 10
127.9763400287698
 20
-150.7367078616214
 10
128.0672905495804
 20
-150.7008788685748
 10
128.2543592344294
 20
-150.6247422583508
 10
128.4579643776077
 20
-150.4387071021473
 10
128.6894747942165
 20
-150.2268337298044
 10
128.8524278106688
 20
-149.939168256786
 10
128.9599147898086
 20
-149.6263535867254
 10
128.9599147898086
 20
-149.6263535867254
 10
128.6302191518702
 20
-149.6263535867254
 10
128.6302191518702
 20
-149.6263535867254
 10
128.496893956591
 20
-149.6263535867254
 10
128.3136148767757
 20
-149.6304877013076
 10
128.1820122292392
 20
-149.6494357264765
 10
128.1820122292392
 20
-149.6494357264765
 10
128.1820122292392
 20
-149.4379068636822
 10
128.1820122292392
 20
-149.4379068636822
 10
128.2412678715855
 20
-149.4441080355556
 10
128.4689886831605
 20
-149.4547878315599
 10
128.5451252933845
 20
-149.4547878315599
 10
128.5451252933845
 20
-149.4547878315599
 10
128.8172878367193
 20
-149.4547878315599
 10
128.8172878367193
 20
-149.4547878315599
 10
128.9988443687919
 20
-149.4547878315599
 10
129.0191704321549
 20
-149.4485866596864
 10
129.0394964955179
 20
-149.4441080355556
 10
129.0784260745012
 20
-149.4379068636822
 10
129.1114989911596
 20
-149.4124131570913
 10
129.13010250678
 20
-149.3955321892136
 10
129.13010250678
 20
-149.3955321892136
 10
129.2672173070929
 20
-149.5691650016702
 10
129.2672173070929
 20
-149.5691650016702
 10
129.2320773331433
 20
-149.5967257655522
 10
129.220708518042
 20
-149.6070610520079
 10
129.1783338435735
 20
-149.6432345546031
 10
129.0653347116572
 20
-149.890592410444
 10
128.9950547637582
 20
-150.0407985736009
 10
128.9041042429476
 20
-150.1868706221755
 10
129.1783338435735
 20
-150.4046006568433
 10
129.378149381718
 20
-150.6901990725705
 10
129.4246581707688
 20
-150.7684027400857
 10
129.4246581707688
 20
-150.7684027400857
 10
129.2744520076119
 20
-150.9210204700822
 10
129.2744520076119
 20
-150.9210204700822
 97
        0
 97
        1
330
8A
 75
     2
 76
     1
 98
        1
 10
0.0
 20
0.0
450
        0
451
        0
460
0.0
461
0.0
452
        0
462
0.0
453
        0
470

  0
SPLINE
  5
8C
330
81
100
AcDbEntity
  8
レイヤー 1
100
AcDbSpline
210
0.0
220
0.0
230
1.0
 70
    11
 71
     3
 72
    17
 73
    13
 74
     0
 42
0.0000000001
 43
0.0000000001
 40
0.0
 40
0.0
 40
0.0
 40
0.0
 40
1.0
 40
1.0
 40
1.0
 40
2.0
 40
2.0
 40
2.0
 40
3.0
 40
3.0
 40
3.0
 40
4.0
 40
4.0
 40
4.0
 40
4.0
 10
130.922930197304
 20
-149.9436468809169
 30
0.0
 10
130.922930197304
 20
-149.9436468809169
 30
0.0
 10
130.5212320637238
 20
-149.9436468809169
 30
0.0
 10
130.5212320637238
 20
-149.9436468809169
 30
0.0
 10
130.5212320637238
 20
-149.9436468809169
 30
0.0
 10
130.5212320637238
 20
-150.2523274363952
 30
0.0
 10
130.5212320637238
 20
-150.2523274363952
 30
0.0
 10
130.5212320637238
 20
-150.2523274363952
 30
0.0
 10
130.922930197304
 20
-150.2523274363952
 30
0.0
 10
130.922930197304
 20
-150.2523274363952
 30
0.0
 10
130.922930197304
 20
-150.2523274363952
 30
0.0
 10
130.922930197304
 20
-149.9436468809169
 30
0.0
 10
130.922930197304
 20
-149.9436468809169
 30
0.0
  0
SPLINE
  5
8D
330
81
100
AcDbEntity
  8
レイヤー 1
100
AcDbSpline
210
0.0
220
0.0
230
1.0
 70
    11
 71
     3
 72
    17
 73
    13
 74
     0
 42
0.0000000001
 43
0.0000000001
 40
0.0
 40
0.0
 40
0.0
 40
0.0
 40
1.0
 40
1.0
 40
1.0
 40
2.0
 40
2.0
 40
2.0
 40
3.0
 40
3.0
 40
3.0
 40
4.0
 40
4.0
 40
4.0
 40
4.0
 10
130.922930197304
 20
-149.4716687994376
 30
0.0
 10
130.922930197304
 20
-149.4716687994376
 30
0.0
 10
130.5212320637238
 20
-149.4716687994376
 30
0.0
 10
130.5212320637238
 20
-149.4716687994376
 30
0.0
 10
130.5212320637238
 20
-149.4716687994376
 30
0.0
 10
130.5212320637238
 20
-149.7762152403337
 30
0.0
 10
130.5212320637238
 20
-149.7762152403337
 30
0.0
 10
130.5212320637238
 20
-149.7762152403337
 30
0.0
 10
130.922930197304
 20
-149.7762152403337
 30
0.0
 10
130.922930197304
 20
-149.7762152403337
 30
0.0
 10
130.922930197304
 20
-149.7762152403337
 30
0.0
 10
130.922930197304
 20
-149.4716687994376
 30
0.0
 10
130.922930197304
 20
-149.4716687994376
 30
0.0
  0
SPLINE
  5
8E
330
81
100
AcDbEntity
  8
レイヤー 1
100
AcDbSpline
210
0.0
220
0.0
230
1.0
 70
    11
 71
     3
 72
    17
 73
    13
 74
     0
 42
0.0000000001
 43
0.0000000001
 40
0.0
 40
0.0
 40
0.0
 40
0.0
 40
1.0
 40
1.0
 40
1.0
 40
2.0
 40
2.0
 40
2.0
 40
3.0
 40
3.0
 40
3.0
 40
4.0
 40
4.0
 40
4.0
 40
4.0
 10
130.3544894422377
 20
-149.9436468809169
 30
0.0
 10
130.3544894422377
 20
-149.9436468809169
 30
0.0
 10
129.9710503147294
 20
-149.9436468809169
 30
0.0
 10
129.9710503147294
 20
-149.9436468809169
 30
0.0
 10
129.9710503147294
 20
-149.9436468809169
 30
0.0
 10
129.9710503147294
 20
-150.2523274363952
 30
0.0
 10
129.9710503147294
 20
-150.2523274363952
 30
0.0
 10
129.9710503147294
 20
-150.2523274363952
 30
0.0
 10
130.3544894422377
 20
-150.2523274363952
 30
0.0
 10
130.3544894422377
 20
-150.2523274363952
 30
0.0
 10
130.3544894422377
 20
-150.2523274363952
 30
0.0
 10
130.3544894422377
 20
-149.9436468809169
 30
0.0
 10
130.3544894422377
 20
-149.9436468809169
 30
0.0
  0
SPLINE
  5
8F
330
81
100
AcDbEntity
  8
レイヤー 1
100
AcDbSpline
210
0.0
220
0.0
230
1.0
 70
    11
 71
     3
 72
    17
 73
    13
 74
     0
 42
0.0000000001
 43
0.0000000001
 40
0.0
 40
0.0
 40
0.0
 40
0.0
 40
1.0
 40
1.0
 40
1.0
 40
2.0
 40
2.0
 40
2.0
 40
3.0
 40
3.0
 40
3.0
 40
4.0
 40
4.0
 40
4.0
 40
4.0
 10
130.3544894422377
 20
-149.4716687994376
 30
0.0
 10
130.3544894422377
 20
-149.4716687994376
 30
0.0
 10
129.9710503147294
 20
-149.4716687994376
 30
0.0
 10
129.9710503147294
 20
-149.4716687994376
 30
0.0
 10
129.9710503147294
 20
-149.4716687994376
 30
0.0
 10
129.9710503147294
 20
-149.7762152403337
 30
0.0
 10
129.9710503147294
 20
-149.7762152403337
 30
0.0
 10
129.9710503147294
 20
-149.7762152403337
 30
0.0
 10
130.3544894422377
 20
-149.7762152403337
 30
0.0
 10
130.3544894422377
 20
-149.7762152403337
 30
0.0
 10
130.3544894422377
 20
-149.7762152403337
 30
0.0
 10
130.3544894422377
 20
-149.4716687994376
 30
0.0
 10
130.3544894422377
 20
-149.4716687994376
 30
0.0
  0
SPLINE
  5
90
330
81
100
AcDbEntity
  8
レイヤー 1
100
AcDbSpline
210
0.0
220
0.0
230
1.0
 70
     9
 71
     3
 72
    77
 73
    73
 74
     0
 42
0.0000000001
 43
0.0000000001
 40
0.0
 40
0.0
 40
0.0
 40
0.0
 40
1.0
 40
1.0
 40
1.0
 40
2.0
 40
2.0
 40
2.0
 40
3.0
 40
3.0
 40
3.0
 40
4.0
 40
4.0
 40
4.0
 40
5.0
 40
5.0
 40
5.0
 40
6.0
 40
6.0
 40
6.0
 40
7.0
 40
7.0
 40
7.0
 40
8.0
 40
8.0
 40
8.0
 40
9.0
 40
9.0
 40
9.0
 40
10.0
 40
10.0
 40
10.0
 40
11.0
 40
11.0
 40
11.0
 40
12.0
 40
12.0
 40
12.0
 40
13.0
 40
13.0
 40
13.0
 40
14.0
 40
14.0
 40
14.0
 40
15.0
 40
15.0
 40
15.0
 40
16.0
 40
16.0
 40
16.0
 40
17.0
 40
17.0
 40
17.0
 40
18.0
 40
18.0
 40
18.0
 40
19.0
 40
19.0
 40
19.0
 40
20.0
 40
20.0
 40
20.0
 40
21.0
 40
21.0
 40
21.0
 40
22.0
 40
22.0
 40
22.0
 40
23.0
 40
23.0
 40
23.0
 40
24.0
 40
24.0
 40
24.0
 40
24.0
 10
131.0414414819966
 20
-151.0584797799437
 30
0.0
 10
131.0007893552706
 20
-151.083628976986
 30
0.0
 10
130.8915798283882
 20
-151.0963758302814
 30
0.0
 10
130.8230224282317
 20
-151.0963758302814
 30
0.0
 10
130.8116536131304
 20
-151.0963758302814
 30
0.0
 10
130.7896050020248
 20
-151.0963758302814
 30
0.0
 10
130.7599771808517
 20
-151.0922417156991
 30
0.0
 10
130.7599771808517
 20
-151.0922417156991
 30
0.0
 10
130.674883322366
 20
-150.8658989423182
 30
0.0
 10
130.674883322366
 20
-150.8658989423182
 30
0.0
 10
130.7007215385054
 20
-150.8721001141917
 30
0.0
 10
130.7506754230415
 20
-150.8807128529048
 30
0.0
 10
130.8526502494049
 20
-150.8807128529048
 30
0.0
 10
130.9212076495614
 20
-150.8807128529048
 30
0.0
 10
130.922930197304
 20
-150.8383381784362
 30
0.0
 10
130.922930197304
 20
-150.7811495933811
 30
0.0
 10
130.922930197304
 20
-150.7811495933811
 30
0.0
 10
130.922930197304
 20
-150.4321614207253
 30
0.0
 10
130.922930197304
 20
-150.4321614207253
 30
0.0
 10
130.922930197304
 20
-150.4321614207253
 30
0.0
 10
130.5212320637238
 20
-150.4321614207253
 30
0.0
 10
130.5212320637238
 20
-150.4321614207253
 30
0.0
 10
130.5229546114665
 20
-150.5696207305867
 30
0.0
 10
130.5246771592091
 20
-150.7684027400857
 30
0.0
 10
130.530533821534
 20
-150.9017279353648
 30
0.0
 10
130.5322563692767
 20
-150.9292886992468
 30
0.0
 10
130.5322563692767
 20
-150.9737304310065
 30
0.0
 10
130.5432806748294
 20
-151.035053130644
 30
0.0
 10
130.5432806748294
 20
-151.035053130644
 30
0.0
 10
130.3320963215836
 20
-151.035053130644
 30
0.0
 10
130.3320963215836
 20
-151.035053130644
 30
0.0
 10
130.3544894422377
 20
-150.910340674078
 30
0.0
 10
130.3544894422377
 20
-150.5696207305867
 30
0.0
 10
130.3544894422377
 20
-150.4321614207253
 30
0.0
 10
130.3544894422377
 20
-150.4321614207253
 30
0.0
 10
129.9676052192442
 20
-150.4321614207253
 30
0.0
 10
129.9676052192442
 20
-150.4321614207253
 30
0.0
 10
129.9469346463327
 20
-150.6395561689373
 30
0.0
 10
129.8897460612776
 20
-150.9082736167868
 30
0.0
 10
129.717491287015
 20
-151.0922417156991
 30
0.0
 10
129.717491287015
 20
-151.0922417156991
 30
0.0
 10
129.5528157228201
 20
-150.9695963164243
 30
0.0
 10
129.5528157228201
 20
-150.9695963164243
 30
0.0
 10
129.7746798720702
 20
-150.7494547149168
 30
0.0
 10
129.8025851455007
 20
-150.4173475101387
 30
0.0
 10
129.8025851455007
 20
-150.0852403053606
 30
0.0
 10
129.8025851455007
 20
-150.0852403053606
 30
0.0
 10
129.8025851455007
 20
-149.6494357264765
 30
0.0
 10
129.8025851455007
 20
-149.6494357264765
 30
0.0
 10
129.8025851455007
 20
-149.6136067334299
 30
0.0
 10
129.8008625977581
 20
-149.380718278627
 30
0.0
 10
129.7932833876905
 20
-149.2790879618121
 30
0.0
 10
129.9155842774169
 20
-149.2897677578164
 30
0.0
 10
130.1267686306627
 20
-149.2897677578164
 30
0.0
 10
130.2525146158744
 20
-149.2897677578164
 30
0.0
 10
130.2525146158744
 20
-149.2897677578164
 30
0.0
 10
130.654557259003
 20
-149.2897677578164
 30
0.0
 10
130.654557259003
 20
-149.2897677578164
 30
0.0
 10
130.6673041122984
 20
-149.2897677578164
 30
0.0
 10
130.9728840818401
 20
-149.2897677578164
 30
0.0
 10
131.1117214298957
 20
-149.2790879618121
 30
0.0
 10
131.109998882153
 20
-149.332142432285
 30
0.0
 10
131.1044867293766
 20
-149.4930283914461
 30
0.0
 10
131.1044867293766
 20
-149.5436712950793
 30
0.0
 10
131.1044867293766
 20
-149.5436712950793
 30
0.0
 10
131.1044867293766
 20
-150.1506971195804
 30
0.0
 10
131.1044867293766
 20
-150.1506971195804
 30
0.0
 10
131.1044867293766
 20
-150.1699896542977
 30
0.0
 10
131.1137884871868
 20
-150.7411864857522
 30
0.0
 10
131.1137884871868
 20
-150.8531520890228
 30
0.0
 10
131.1137884871868
 20
-150.910340674078
 30
0.0
 10
131.1137884871868
 20
-151.0119709908928
 30
0.0
 10
131.0414414819966
 20
-151.0584797799437
 30
0.0
  0
HATCH
  5
91
330
81
100
AcDbEntity
  8
レイヤー 1
 62
   250
420
  2299925
440
 33554687
100
AcDbHatch
 10
0.0
 20
0.0
 30
0.0
210
0.0
220
0.0
230
1.0
  2
SOLID
 70
     1
 71
     1
 91
        5
 92
        1
 93
        1
 72
     4
 94
        3
 73
     0
 74
     0
 95
       17
 96
       13
 40
0.0
 40
0.0
 40
0.0
 40
0.0
 40
1.0
 40
1.0
 40
1.0
 40
2.0
 40
2.0
 40
2.0
 40
3.0
 40
3.0
 40
3.0
 40
4.0
 40
4.0
 40
4.0
 40
4.0
 10
130.922930197304
 20
-149.9436468809169
 10
130.922930197304
 20
-149.9436468809169
 10
130.5212320637238
 20
-149.9436468809169
 10
130.5212320637238
 20
-149.9436468809169
 10
130.5212320637238
 20
-149.9436468809169
 10
130.5212320637238
 20
-150.2523274363952
 10
130.5212320637238
 20
-150.2523274363952
 10
130.5212320637238
 20
-150.2523274363952
 10
130.922930197304
 20
-150.2523274363952
 10
130.922930197304
 20
-150.2523274363952
 10
130.922930197304
 20
-150.2523274363952
 10
130.922930197304
 20
-149.9436468809169
 10
130.922930197304
 20
-149.9436468809169
 97
        0
 97
        1
330
8C
 92
        1
 93
        1
 72
     4
 94
        3
 73
     0
 74
     0
 95
       17
 96
       13
 40
0.0
 40
0.0
 40
0.0
 40
0.0
 40
1.0
 40
1.0
 40
1.0
 40
2.0
 40
2.0
 40
2.0
 40
3.0
 40
3.0
 40
3.0
 40
4.0
 40
4.0
 40
4.0
 40
4.0
 10
130.922930197304
 20
-149.4716687994376
 10
130.922930197304
 20
-149.4716687994376
 10
130.5212320637238
 20
-149.4716687994376
 10
130.5212320637238
 20
-149.4716687994376
 10
130.5212320637238
 20
-149.4716687994376
 10
130.5212320637238
 20
-149.7762152403337
 10
130.5212320637238
 20
-149.7762152403337
 10
130.5212320637238
 20
-149.7762152403337
 10
130.922930197304
 20
-149.7762152403337
 10
130.922930197304
 20
-149.7762152403337
 10
130.922930197304
 20
-149.7762152403337
 10
130.922930197304
 20
-149.4716687994376
 10
130.922930197304
 20
-149.4716687994376
 97
        0
 97
        1
330
8D
 92
        1
 93
        1
 72
     4
 94
        3
 73
     0
 74
     0
 95
       17
 96
       13
 40
0.0
 40
0.0
 40
0.0
 40
0.0
 40
1.0
 40
1.0
 40
1.0
 40
2.0
 40
2.0
 40
2.0
 40
3.0
 40
3.0
 40
3.0
 40
4.0
 40
4.0
 40
4.0
 40
4.0
 10
130.3544894422377
 20
-149.9436468809169
 10
130.3544894422377
 20
-149.9436468809169
 10
129.9710503147294
 20
-149.9436468809169
 10
129.9710503147294
 20
-149.9436468809169
 10
129.9710503147294
 20
-149.9436468809169
 10
129.9710503147294
 20
-150.2523274363952
 10
129.9710503147294
 20
-150.2523274363952
 10
129.9710503147294
 20
-150.2523274363952
 10
130.3544894422377
 20
-150.2523274363952
 10
130.3544894422377
 20
-150.2523274363952
 10
130.3544894422377
 20
-150.2523274363952
 10
130.3544894422377
 20
-149.9436468809169
 10
130.3544894422377
 20
-149.9436468809169
 97
        0
 97
        1
330
8E
 92
        1
 93
        1
 72
     4
 94
        3
 73
     0
 74
     0
 95
       17
 96
       13
 40
0.0
 40
0.0
 40
0.0
 40
0.0
 40
1.0
 40
1.0
 40
1.0
 40
2.0
 40
2.0
 40
2.0
 40
3.0
 40
3.0
 40
3.0
 40
4.0
 40
4.0
 40
4.0
 40
4.0
 10
130.3544894422377
 20
-149.4716687994376
 10
130.3544894422377
 20
-149.4716687994376
 10
129.9710503147294
 20
-149.4716687994376
 10
129.9710503147294
 20
-149.4716687994376
 10
129.9710503147294
 20
-149.4716687994376
 10
129.9710503147294
 20
-149.7762152403337
 10
129.9710503147294
 20
-149.7762152403337
 10
129.9710503147294
 20
-149.7762152403337
 10
130.3544894422377
 20
-149.7762152403337
 10
130.3544894422377
 20
-149.7762152403337
 10
130.3544894422377
 20
-149.7762152403337
 10
130.3544894422377
 20
-149.4716687994376
 10
130.3544894422377
 20
-149.4716687994376
 97
        0
 97
        1
330
8F
 92
        1
 93
        1
 72
     4
 94
        3
 73
     0
 74
     0
 95
       77
 96
       73
 40
0.0
 40
0.0
 40
0.0
 40
0.0
 40
1.0
 40
1.0
 40
1.0
 40
2.0
 40
2.0
 40
2.0
 40
3.0
 40
3.0
 40
3.0
 40
4.0
 40
4.0
 40
4.0
 40
5.0
 40
5.0
 40
5.0
 40
6.0
 40
6.0
 40
6.0
 40
7.0
 40
7.0
 40
7.0
 40
8.0
 40
8.0
 40
8.0
 40
9.0
 40
9.0
 40
9.0
 40
10.0
 40
10.0
 40
10.0
 40
11.0
 40
11.0
 40
11.0
 40
12.0
 40
12.0
 40
12.0
 40
13.0
 40
13.0
 40
13.0
 40
14.0
 40
14.0
 40
14.0
 40
15.0
 40
15.0
 40
15.0
 40
16.0
 40
16.0
 40
16.0
 40
17.0
 40
17.0
 40
17.0
 40
18.0
 40
18.0
 40
18.0
 40
19.0
 40
19.0
 40
19.0
 40
20.0
 40
20.0
 40
20.0
 40
21.0
 40
21.0
 40
21.0
 40
22.0
 40
22.0
 40
22.0
 40
23.0
 40
23.0
 40
23.0
 40
24.0
 40
24.0
 40
24.0
 40
24.0
 10
131.0414414819966
 20
-151.0584797799437
 10
131.0007893552706
 20
-151.083628976986
 10
130.8915798283882
 20
-151.0963758302814
 10
130.8230224282317
 20
-151.0963758302814
 10
130.8116536131304
 20
-151.0963758302814
 10
130.7896050020248
 20
-151.0963758302814
 10
130.7599771808517
 20
-151.0922417156991
 10
130.7599771808517
 20
-151.0922417156991
 10
130.674883322366
 20
-150.8658989423182
 10
130.674883322366
 20
-150.8658989423182
 10
130.7007215385054
 20
-150.8721001141917
 10
130.7506754230415
 20
-150.8807128529048
 10
130.8526502494049
 20
-150.8807128529048
 10
130.9212076495614
 20
-150.8807128529048
 10
130.922930197304
 20
-150.8383381784362
 10
130.922930197304
 20
-150.7811495933811
 10
130.922930197304
 20
-150.7811495933811
 10
130.922930197304
 20
-150.4321614207253
 10
130.922930197304
 20
-150.4321614207253
 10
130.922930197304
 20
-150.4321614207253
 10
130.5212320637238
 20
-150.4321614207253
 10
130.5212320637238
 20
-150.4321614207253
 10
130.5229546114665
 20
-150.5696207305867
 10
130.5246771592091
 20
-150.7684027400857
 10
130.530533821534
 20
-150.9017279353648
 10
130.5322563692767
 20
-150.9292886992468
 10
130.5322563692767
 20
-150.9737304310065
 10
130.5432806748294
 20
-151.035053130644
 10
130.5432806748294
 20
-151.035053130644
 10
130.3320963215836
 20
-151.035053130644
 10
130.3320963215836
 20
-151.035053130644
 10
130.3544894422377
 20
-150.910340674078
 10
130.3544894422377
 20
-150.5696207305867
 10
130.3544894422377
 20
-150.4321614207253
 10
130.3544894422377
 20
-150.4321614207253
 10
129.9676052192442
 20
-150.4321614207253
 10
129.9676052192442
 20
-150.4321614207253
 10
129.9469346463327
 20
-150.6395561689373
 10
129.8897460612776
 20
-150.9082736167868
 10
129.717491287015
 20
-151.0922417156991
 10
129.717491287015
 20
-151.0922417156991
 10
129.5528157228201
 20
-150.9695963164243
 10
129.5528157228201
 20
-150.9695963164243
 10
129.7746798720702
 20
-150.7494547149168
 10
129.8025851455007
 20
-150.4173475101387
 10
129.8025851455007
 20
-150.0852403053606
 10
129.8025851455007
 20
-150.0852403053606
 10
129.8025851455007
 20
-149.6494357264765
 10
129.8025851455007
 20
-149.6494357264765
 10
129.8025851455007
 20
-149.6136067334299
 10
129.8008625977581
 20
-149.380718278627
 10
129.7932833876905
 20
-149.2790879618121
 10
129.9155842774169
 20
-149.2897677578164
 10
130.1267686306627
 20
-149.2897677578164
 10
130.2525146158744
 20
-149.2897677578164
 10
130.2525146158744
 20
-149.2897677578164
 10
130.654557259003
 20
-149.2897677578164
 10
130.654557259003
 20
-149.2897677578164
 10
130.6673041122984
 20
-149.2897677578164
 10
130.9728840818401
 20
-149.2897677578164
 10
131.1117214298957
 20
-149.2790879618121
 10
131.109998882153
 20
-149.332142432285
 10
131.1044867293766
 20
-149.4930283914461
 10
131.1044867293766
 20
-149.5436712950793
 10
131.1044867293766
 20
-149.5436712950793
 10
131.1044867293766
 20
-150.1506971195804
 10
131.1044867293766
 20
-150.1506971195804
 10
131.1044867293766
 20
-150.1699896542977
 10
131.1137884871868
 20
-150.7411864857522
 10
131.1137884871868
 20
-150.8531520890228
 10
131.1137884871868
 20
-150.910340674078
 10
131.1137884871868
 20
-151.0119709908928
 10
131.0414414819966
 20
-151.0584797799437
 97
        0
 97
        1
330
90
 75
     2
 76
     1
 98
        1
 10
0.0
 20
0.0
450
        0
451
        0
460
0.0
461
0.0
452
        0
462
0.0
453
        0
470

  0
SPLINE
  5
92
330
81
100
AcDbEntity
  8
レイヤー 1
100
AcDbSpline
210
0.0
220
0.0
230
1.0
 70
     9
 71
     3
 72
    17
 73
    13
 74
     0
 42
0.0000000001
 43
0.0000000001
 40
0.0
 40
0.0
 40
0.0
 40
0.0
 40
1.0
 40
1.0
 40
1.0
 40
2.0
 40
2.0
 40
2.0
 40
3.0
 40
3.0
 40
3.0
 40
4.0
 40
4.0
 40
4.0
 40
4.0
 10
126.2634385535036
 20
-151.8191568630868
 30
0.0
 10
126.2152072167101
 20
-151.8191568630868
 30
0.0
 10
126.1762776377267
 20
-151.8635985948466
 30
0.0
 10
126.1762776377267
 20
-151.9187201226106
 30
0.0
 10
126.1762776377267
 20
-151.9759087076657
 30
0.0
 10
126.2152072167101
 20
-152.0244845540078
 30
0.0
 10
126.2672281585373
 20
-152.0244845540078
 30
0.0
 10
126.3189045908161
 20
-152.0244845540078
 30
0.0
 10
126.3540445647656
 20
-151.9738416503746
 30
0.0
 10
126.3540445647656
 20
-151.9207871799017
 30
0.0
 10
126.3540445647656
 20
-151.8635985948466
 30
0.0
 10
126.3133924380397
 20
-151.8191568630868
 30
0.0
 10
126.2634385535036
 20
-151.8191568630868
 30
0.0
  0
SPLINE
  5
93
330
81
100
AcDbEntity
  8
レイヤー 1
100
AcDbSpline
210
0.0
220
0.0
230
1.0
 70
     9
 71
     3
 72
    17
 73
    13
 74
     0
 42
0.0000000001
 43
0.0000000001
 40
0.0
 40
0.0
 40
0.0
 40
0.0
 40
1.0
 40
1.0
 40
1.0
 40
2.0
 40
2.0
 40
2.0
 40
3.0
 40
3.0
 40
3.0
 40
4.0
 40
4.0
 40
4.0
 40
4.0
 10
126.2651611012462
 20
-152.1491970105738
 30
0.0
 10
126.1542290266211
 20
-152.1491970105738
 30
0.0
 10
126.0653455631017
 20
-152.0479112033074
 30
0.0
 10
126.0653455631017
 20
-151.9207871799017
 30
0.0
 10
126.0653455631017
 20
-151.7940076660445
 30
0.0
 10
126.1542290266211
 20
-151.6903102919385
 30
0.0
 10
126.2651611012462
 20
-151.6903102919385
 30
0.0
 10
126.3764376854198
 20
-151.6903102919385
 30
0.0
 10
126.4670436966818
 20
-151.7940076660445
 30
0.0
 10
126.4670436966818
 20
-151.9207871799017
 30
0.0
 10
126.4670436966818
 20
-152.0479112033074
 30
0.0
 10
126.3764376854198
 20
-152.1491970105738
 30
0.0
 10
126.2651611012462
 20
-152.1491970105738
 30
0.0
  0
SPLINE
  5
94
330
81
100
AcDbEntity
  8
レイヤー 1
100
AcDbSpline
210
0.0
220
0.0
230
1.0
 70
     9
 71
     3
 72
    44
 73
    40
 74
     0
 42
0.0000000001
 43
0.0000000001
 40
0.0
 40
0.0
 40
0.0
 40
0.0
 40
1.0
 40
1.0
 40
1.0
 40
2.0
 40
2.0
 40
2.0
 40
3.0
 40
3.0
 40
3.0
 40
4.0
 40
4.0
 40
4.0
 40
5.0
 40
5.0
 40
5.0
 40
6.0
 40
6.0
 40
6.0
 40
7.0
 40
7.0
 40
7.0
 40
8.0
 40
8.0
 40
8.0
 40
9.0
 40
9.0
 40
9.0
 40
10.0
 40
10.0
 40
10.0
 40
11.0
 40
11.0
 40
11.0
 40
12.0
 40
12.0
 40
12.0
 40
13.0
 40
13.0
 40
13.0
 40
13.0
 10
126.0818820214309
 20
-152.3483235296212
 30
0.0
 10
125.9836968001013
 20
-152.7162597274459
 30
0.0
 10
125.9392550683416
 20
-152.8750786293159
 30
0.0
 10
125.7670002940791
 20
-153.124503542448
 30
0.0
 10
125.6061143349179
 20
-153.3553249399598
 30
0.0
 10
125.3987195867058
 20
-153.5413600961633
 30
0.0
 10
125.1541178072531
 20
-153.634377674265
 30
0.0
 10
125.1541178072531
 20
-153.634377674265
 30
0.0
 10
124.9856526380244
 20
-153.454543689935
 30
0.0
 10
124.9856526380244
 20
-153.454543689935
 30
0.0
 10
125.5468586925716
 20
-153.3022704694869
 30
0.0
 10
125.8355576942355
 20
-152.7458875486191
 30
0.0
 10
125.8913682410966
 20
-152.3059488551526
 30
0.0
 10
125.8913682410966
 20
-152.3059488551526
 30
0.0
 10
125.220952659667
 20
-152.3059488551526
 30
0.0
 10
125.220952659667
 20
-152.3059488551526
 30
0.0
 10
125.1393038966666
 20
-152.3059488551526
 30
0.0
 10
124.9784179375054
 20
-152.310082969735
 30
0.0
 10
124.8413031371924
 20
-152.3290309949038
 30
0.0
 10
124.8413031371924
 20
-152.3290309949038
 30
0.0
 10
124.8413031371924
 20
-152.1092339029449
 30
0.0
 10
124.8413031371924
 20
-152.1092339029449
 30
0.0
 10
124.9170952378679
 20
-152.1302489854049
 30
0.0
 10
125.1375813489239
 20
-152.1302489854049
 30
0.0
 10
125.2243977551522
 20
-152.1302489854049
 30
0.0
 10
125.2243977551522
 20
-152.1302489854049
 30
0.0
 10
125.6023247298841
 20
-152.1302489854049
 30
0.0
 10
125.6023247298841
 20
-152.1302489854049
 30
0.0
 10
125.6391872515763
 20
-152.1302489854049
 30
0.0
 10
125.8448594520457
 20
-152.1281819281138
 30
0.0
 10
125.8782768782526
 20
-152.1219807562403
 30
0.0
 10
125.9151393999448
 20
-152.1154350748183
 30
0.0
 10
125.917206457236
 20
-152.1133680175272
 30
0.0
 10
125.9709499468058
 20
-152.0730604003498
 30
0.0
 10
125.9709499468058
 20
-152.0730604003498
 30
0.0
 10
126.1356255110008
 20
-152.2277451876375
 30
0.0
 10
126.1356255110008
 20
-152.2277451876375
 30
0.0
 10
126.1097872948614
 20
-152.2573730088106
 30
0.0
 10
126.0966959320175
 20
-152.2890678872749
 30
0.0
 10
126.0818820214309
 20
-152.3483235296212
 30
0.0
  0
HATCH
  5
95
330
81
100
AcDbEntity
  8
レイヤー 1
 62
   250
420
  2299925
440
 33554687
100
AcDbHatch
 10
0.0
 20
0.0
 30
0.0
210
0.0
220
0.0
230
1.0
  2
SOLID
 70
     1
 71
     1
 91
        3
 92
        1
 93
        1
 72
     4
 94
        3
 73
     0
 74
     0
 95
       17
 96
       13
 40
0.0
 40
0.0
 40
0.0
 40
0.0
 40
1.0
 40
1.0
 40
1.0
 40
2.0
 40
2.0
 40
2.0
 40
3.0
 40
3.0
 40
3.0
 40
4.0
 40
4.0
 40
4.0
 40
4.0
 10
126.2634385535036
 20
-151.8191568630868
 10
126.2152072167101
 20
-151.8191568630868
 10
126.1762776377267
 20
-151.8635985948466
 10
126.1762776377267
 20
-151.9187201226106
 10
126.1762776377267
 20
-151.9759087076657
 10
126.2152072167101
 20
-152.0244845540078
 10
126.2672281585373
 20
-152.0244845540078
 10
126.3189045908161
 20
-152.0244845540078
 10
126.3540445647656
 20
-151.9738416503746
 10
126.3540445647656
 20
-151.9207871799017
 10
126.3540445647656
 20
-151.8635985948466
 10
126.3133924380397
 20
-151.8191568630868
 10
126.2634385535036
 20
-151.8191568630868
 97
        0
 97
        1
330
92
 92
        1
 93
        1
 72
     4
 94
        3
 73
     0
 74
     0
 95
       17
 96
       13
 40
0.0
 40
0.0
 40
0.0
 40
0.0
 40
1.0
 40
1.0
 40
1.0
 40
2.0
 40
2.0
 40
2.0
 40
3.0
 40
3.0
 40
3.0
 40
4.0
 40
4.0
 40
4.0
 40
4.0
 10
126.2651611012462
 20
-152.1491970105738
 10
126.1542290266211
 20
-152.1491970105738
 10
126.0653455631017
 20
-152.0479112033074
 10
126.0653455631017
 20
-151.9207871799017
 10
126.0653455631017
 20
-151.7940076660445
 10
126.1542290266211
 20
-151.6903102919385
 10
126.2651611012462
 20
-151.6903102919385
 10
126.3764376854198
 20
-151.6903102919385
 10
126.4670436966818
 20
-151.7940076660445
 10
126.4670436966818
 20
-151.9207871799017
 10
126.4670436966818
 20
-152.0479112033074
 10
126.3764376854198
 20
-152.1491970105738
 10
126.2651611012462
 20
-152.1491970105738
 97
        0
 97
        1
330
93
 92
        1
 93
        1
 72
     4
 94
        3
 73
     0
 74
     0
 95
       44
 96
       40
 40
0.0
 40
0.0
 40
0.0
 40
0.0
 40
1.0
 40
1.0
 40
1.0
 40
2.0
 40
2.0
 40
2.0
 40
3.0
 40
3.0
 40
3.0
 40
4.0
 40
4.0
 40
4.0
 40
5.0
 40
5.0
 40
5.0
 40
6.0
 40
6.0
 40
6.0
 40
7.0
 40
7.0
 40
7.0
 40
8.0
 40
8.0
 40
8.0
 40
9.0
 40
9.0
 40
9.0
 40
10.0
 40
10.0
 40
10.0
 40
11.0
 40
11.0
 40
11.0
 40
12.0
 40
12.0
 40
12.0
 40
13.0
 40
13.0
 40
13.0
 40
13.0
 10
126.0818820214309
 20
-152.3483235296212
 10
125.9836968001013
 20
-152.7162597274459
 10
125.9392550683416
 20
-152.8750786293159
 10
125.7670002940791
 20
-153.124503542448
 10
125.6061143349179
 20
-153.3553249399598
 10
125.3987195867058
 20
-153.5413600961633
 10
125.1541178072531
 20
-153.634377674265
 10
125.1541178072531
 20
-153.634377674265
 10
124.9856526380244
 20
-153.454543689935
 10
124.9856526380244
 20
-153.454543689935
 10
125.5468586925716
 20
-153.3022704694869
 10
125.8355576942355
 20
-152.7458875486191
 10
125.8913682410966
 20
-152.3059488551526
 10
125.8913682410966
 20
-152.3059488551526
 10
125.220952659667
 20
-152.3059488551526
 10
125.220952659667
 20
-152.3059488551526
 10
125.1393038966666
 20
-152.3059488551526
 10
124.9784179375054
 20
-152.310082969735
 10
124.8413031371924
 20
-152.3290309949038
 10
124.8413031371924
 20
-152.3290309949038
 10
124.8413031371924
 20
-152.1092339029449
 10
124.8413031371924
 20
-152.1092339029449
 10
124.9170952378679
 20
-152.1302489854049
 10
125.1375813489239
 20
-152.1302489854049
 10
125.2243977551522
 20
-152.1302489854049
 10
125.2243977551522
 20
-152.1302489854049
 10
125.6023247298841
 20
-152.1302489854049
 10
125.6023247298841
 20
-152.1302489854049
 10
125.6391872515763
 20
-152.1302489854049
 10
125.8448594520457
 20
-152.1281819281138
 10
125.8782768782526
 20
-152.1219807562403
 10
125.9151393999448
 20
-152.1154350748183
 10
125.917206457236
 20
-152.1133680175272
 10
125.9709499468058
 20
-152.0730604003498
 10
125.9709499468058
 20
-152.0730604003498
 10
126.1356255110008
 20
-152.2277451876375
 10
126.1356255110008
 20
-152.2277451876375
 10
126.1097872948614
 20
-152.2573730088106
 10
126.0966959320175
 20
-152.2890678872749
 10
126.0818820214309
 20
-152.3483235296212
 97
        0
 97
        1
330
94
 75
     2
 76
     1
 98
        1
 10
0.0
 20
0.0
450
        0
451
        0
460
0.0
461
0.0
452
        0
462
0.0
453
        0
470

  0
SPLINE
  5
96
330
81
100
AcDbEntity
  8
レイヤー 1
100
AcDbSpline
210
0.0
220
0.0
230
1.0
 70
     9
 71
     3
 72
    29
 73
    25
 74
     0
 42
0.0000000001
 43
0.0000000001
 40
0.0
 40
0.0
 40
0.0
 40
0.0
 40
1.0
 40
1.0
 40
1.0
 40
2.0
 40
2.0
 40
2.0
 40
3.0
 40
3.0
 40
3.0
 40
4.0
 40
4.0
 40
4.0
 40
5.0
 40
5.0
 40
5.0
 40
6.0
 40
6.0
 40
6.0
 40
7.0
 40
7.0
 40
7.0
 40
8.0
 40
8.0
 40
8.0
 40
8.0
 10
127.4061767259609
 20
-152.0310302354297
 30
0.0
 10
127.4061767259609
 20
-152.0310302354297
 30
0.0
 10
127.1081759664868
 20
-152.0310302354297
 30
0.0
 10
127.1081759664868
 20
-152.0310302354297
 30
0.0
 10
127.0082681974146
 20
-152.0310302354297
 30
0.0
 10
126.9062933710512
 20
-152.035164350012
 30
0.0
 10
126.8063856019789
 20
-152.0499782605986
 30
0.0
 10
126.8063856019789
 20
-152.0499782605986
 30
0.0
 10
126.8063856019789
 20
-151.8405164550954
 30
0.0
 10
126.8063856019789
 20
-151.8405164550954
 30
0.0
 10
126.910082976085
 20
-151.855330365682
 30
0.0
 10
127.0620116869845
 20
-151.8594644802643
 30
0.0
 10
127.1081759664868
 20
-151.8594644802643
 30
0.0
 10
127.1081759664868
 20
-151.8594644802643
 30
0.0
 10
127.4061767259609
 20
-151.8594644802643
 30
0.0
 10
127.4061767259609
 20
-151.8594644802643
 30
0.0
 10
127.5081515523243
 20
-151.8594644802643
 30
0.0
 10
127.6097818691392
 20
-151.855330365682
 30
0.0
 10
127.7117566955026
 20
-151.8405164550954
 30
0.0
 10
127.7117566955026
 20
-151.8405164550954
 30
0.0
 10
127.7117566955026
 20
-152.0499782605986
 30
0.0
 10
127.7117566955026
 20
-152.0499782605986
 30
0.0
 10
127.580154047966
 20
-152.0310302354297
 30
0.0
 10
127.4192680888049
 20
-152.0310302354297
 30
0.0
 10
127.4061767259609
 20
-152.0310302354297
 30
0.0
  0
SPLINE
  5
97
330
81
100
AcDbEntity
  8
レイヤー 1
100
AcDbSpline
210
0.0
220
0.0
230
1.0
 70
     9
 71
     3
 72
    50
 73
    46
 74
     0
 42
0.0000000001
 43
0.0000000001
 40
0.0
 40
0.0
 40
0.0
 40
0.0
 40
1.0
 40
1.0
 40
1.0
 40
2.0
 40
2.0
 40
2.0
 40
3.0
 40
3.0
 40
3.0
 40
4.0
 40
4.0
 40
4.0
 40
5.0
 40
5.0
 40
5.0
 40
6.0
 40
6.0
 40
6.0
 40
7.0
 40
7.0
 40
7.0
 40
8.0
 40
8.0
 40
8.0
 40
9.0
 40
9.0
 40
9.0
 40
10.0
 40
10.0
 40
10.0
 40
11.0
 40
11.0
 40
11.0
 40
12.0
 40
12.0
 40
12.0
 40
13.0
 40
13.0
 40
13.0
 40
14.0
 40
14.0
 40
14.0
 40
15.0
 40
15.0
 40
15.0
 40
15.0
 10
127.8378471902627
 20
-152.6570040850996
 30
0.0
 10
127.7692897901063
 20
-152.8347710121385
 30
0.0
 10
127.6507785054137
 20
-153.0421657603505
 30
0.0
 10
127.5302001634299
 20
-153.1816921275032
 30
0.0
 10
127.3820610575642
 20
-153.3529133731201
 30
0.0
 10
127.2397786140234
 20
-153.4417968366395
 30
0.0
 10
126.9600368606211
 20
-153.5837347706318
 30
0.0
 10
126.9600368606211
 20
-153.5837347706318
 30
0.0
 10
126.8118977547553
 20
-153.3952880475887
 30
0.0
 10
126.8118977547553
 20
-153.3952880475887
 30
0.0
 10
126.9748507712077
 20
-153.3722059078375
 30
0.0
 10
127.124712424816
 20
-153.2853895016092
 30
0.0
 10
127.2580376200952
 20
-153.179625070212
 30
0.0
 10
127.4878254889614
 20
-152.9977240285908
 30
0.0
 10
127.6545681104474
 20
-152.6845648489816
 30
0.0
 10
127.696942784916
 20
-152.5026638073604
 30
0.0
 10
127.696942784916
 20
-152.5026638073604
 30
0.0
 10
127.1098985142294
 20
-152.5026638073604
 30
0.0
 10
127.1098985142294
 20
-152.5026638073604
 30
0.0
 10
126.9710611661739
 20
-152.5026638073604
 30
0.0
 10
126.7154350811683
 20
-152.510932036525
 30
0.0
 10
126.5821098858892
 20
-152.5281575139513
 30
0.0
 10
126.5821098858892
 20
-152.5281575139513
 30
0.0
 10
126.5821098858892
 20
-152.2994031737307
 30
0.0
 10
126.5821098858892
 20
-152.2994031737307
 30
0.0
 10
126.6117377070623
 20
-152.3059488551526
 30
0.0
 10
126.6341308277165
 20
-152.3121500270261
 30
0.0
 10
126.6802951072188
 20
-152.3162841416084
 30
0.0
 10
126.7691785707382
 20
-152.3228298230304
 30
0.0
 10
126.9414333450007
 20
-152.3248968803216
 30
0.0
 10
127.0155028979336
 20
-152.3248968803216
 30
0.0
 10
127.0155028979336
 20
-152.3248968803216
 30
0.0
 10
127.4581976677882
 20
-152.3248968803216
 30
0.0
 10
127.4581976677882
 20
-152.3248968803216
 30
0.0
 10
127.5174533101345
 20
-152.3248968803216
 30
0.0
 10
127.6452663526373
 20
-152.3207627657392
 30
0.0
 10
127.6986653326587
 20
-152.3142170843172
 30
0.0
 10
127.7617105800387
 20
-152.3059488551526
 30
0.0
 10
127.7858262484355
 20
-152.2911349445661
 30
0.0
 10
127.8154540696086
 20
-152.2677082952664
 30
0.0
 10
127.8154540696086
 20
-152.2677082952664
 30
0.0
 10
127.9598035704406
 20
-152.434795426301
 30
0.0
 10
127.9598035704406
 20
-152.434795426301
 30
0.0
 10
127.8988253803517
 20
-152.5026638073604
 30
0.0
 10
127.8581732536257
 20
-152.6063611814664
 30
0.0
 10
127.8378471902627
 20
-152.6570040850996
 30
0.0
  0
HATCH
  5
98
330
81
100
AcDbEntity
  8
レイヤー 1
 62
   250
420
  2299925
440
 33554687
100
AcDbHatch
 10
0.0
 20
0.0
 30
0.0
210
0.0
220
0.0
230
1.0
  2
SOLID
 70
     1
 71
     1
 91
        2
 92
        1
 93
        1
 72
     4
 94
        3
 73
     0
 74
     0
 95
       29
 96
       25
 40
0.0
 40
0.0
 40
0.0
 40
0.0
 40
1.0
 40
1.0
 40
1.0
 40
2.0
 40
2.0
 40
2.0
 40
3.0
 40
3.0
 40
3.0
 40
4.0
 40
4.0
 40
4.0
 40
5.0
 40
5.0
 40
5.0
 40
6.0
 40
6.0
 40
6.0
 40
7.0
 40
7.0
 40
7.0
 40
8.0
 40
8.0
 40
8.0
 40
8.0
 10
127.4061767259609
 20
-152.0310302354297
 10
127.4061767259609
 20
-152.0310302354297
 10
127.1081759664868
 20
-152.0310302354297
 10
127.1081759664868
 20
-152.0310302354297
 10
127.0082681974146
 20
-152.0310302354297
 10
126.9062933710512
 20
-152.035164350012
 10
126.8063856019789
 20
-152.0499782605986
 10
126.8063856019789
 20
-152.0499782605986
 10
126.8063856019789
 20
-151.8405164550954
 10
126.8063856019789
 20
-151.8405164550954
 10
126.910082976085
 20
-151.855330365682
 10
127.0620116869845
 20
-151.8594644802643
 10
127.1081759664868
 20
-151.8594644802643
 10
127.1081759664868
 20
-151.8594644802643
 10
127.4061767259609
 20
-151.8594644802643
 10
127.4061767259609
 20
-151.8594644802643
 10
127.5081515523243
 20
-151.8594644802643
 10
127.6097818691392
 20
-151.855330365682
 10
127.7117566955026
 20
-151.8405164550954
 10
127.7117566955026
 20
-151.8405164550954
 10
127.7117566955026
 20
-152.0499782605986
 10
127.7117566955026
 20
-152.0499782605986
 10
127.580154047966
 20
-152.0310302354297
 10
127.4192680888049
 20
-152.0310302354297
 10
127.4061767259609
 20
-152.0310302354297
 97
        0
 97
        1
330
96
 92
        1
 93
        1
 72
     4
 94
        3
 73
     0
 74
     0
 95
       50
 96
       46
 40
0.0
 40
0.0
 40
0.0
 40
0.0
 40
1.0
 40
1.0
 40
1.0
 40
2.0
 40
2.0
 40
2.0
 40
3.0
 40
3.0
 40
3.0
 40
4.0
 40
4.0
 40
4.0
 40
5.0
 40
5.0
 40
5.0
 40
6.0
 40
6.0
 40
6.0
 40
7.0
 40
7.0
 40
7.0
 40
8.0
 40
8.0
 40
8.0
 40
9.0
 40
9.0
 40
9.0
 40
10.0
 40
10.0
 40
10.0
 40
11.0
 40
11.0
 40
11.0
 40
12.0
 40
12.0
 40
12.0
 40
13.0
 40
13.0
 40
13.0
 40
14.0
 40
14.0
 40
14.0
 40
15.0
 40
15.0
 40
15.0
 40
15.0
 10
127.8378471902627
 20
-152.6570040850996
 10
127.7692897901063
 20
-152.8347710121385
 10
127.6507785054137
 20
-153.0421657603505
 10
127.5302001634299
 20
-153.1816921275032
 10
127.3820610575642
 20
-153.3529133731201
 10
127.2397786140234
 20
-153.4417968366395
 10
126.9600368606211
 20
-153.5837347706318
 10
126.9600368606211
 20
-153.5837347706318
 10
126.8118977547553
 20
-153.3952880475887
 10
126.8118977547553
 20
-153.3952880475887
 10
126.9748507712077
 20
-153.3722059078375
 10
127.124712424816
 20
-153.2853895016092
 10
127.2580376200952
 20
-153.179625070212
 10
127.4878254889614
 20
-152.9977240285908
 10
127.6545681104474
 20
-152.6845648489816
 10
127.696942784916
 20
-152.5026638073604
 10
127.696942784916
 20
-152.5026638073604
 10
127.1098985142294
 20
-152.5026638073604
 10
127.1098985142294
 20
-152.5026638073604
 10
126.9710611661739
 20
-152.5026638073604
 10
126.7154350811683
 20
-152.510932036525
 10
126.5821098858892
 20
-152.5281575139513
 10
126.5821098858892
 20
-152.5281575139513
 10
126.5821098858892
 20
-152.2994031737307
 10
126.5821098858892
 20
-152.2994031737307
 10
126.6117377070623
 20
-152.3059488551526
 10
126.6341308277165
 20
-152.3121500270261
 10
126.6802951072188
 20
-152.3162841416084
 10
126.7691785707382
 20
-152.3228298230304
 10
126.9414333450007
 20
-152.3248968803216
 10
127.0155028979336
 20
-152.3248968803216
 10
127.0155028979336
 20
-152.3248968803216
 10
127.4581976677882
 20
-152.3248968803216
 10
127.4581976677882
 20
-152.3248968803216
 10
127.5174533101345
 20
-152.3248968803216
 10
127.6452663526373
 20
-152.3207627657392
 10
127.6986653326587
 20
-152.3142170843172
 10
127.7617105800387
 20
-152.3059488551526
 10
127.7858262484355
 20
-152.2911349445661
 10
127.8154540696086
 20
-152.2677082952664
 10
127.8154540696086
 20
-152.2677082952664
 10
127.9598035704406
 20
-152.434795426301
 10
127.9598035704406
 20
-152.434795426301
 10
127.8988253803517
 20
-152.5026638073604
 10
127.8581732536257
 20
-152.6063611814664
 10
127.8378471902627
 20
-152.6570040850996
 97
        0
 97
        1
330
97
 75
     2
 76
     1
 98
        1
 10
0.0
 20
0.0
450
        0
451
        0
460
0.0
461
0.0
452
        0
462
0.0
453
        0
470

  0
SPLINE
  5
99
330
81
100
AcDbEntity
  8
レイヤー 1
100
AcDbSpline
210
0.0
220
0.0
230
1.0
 70
     9
 71
     3
 72
    50
 73
    46
 74
     0
 42
0.0000000001
 43
0.0000000001
 40
0.0
 40
0.0
 40
0.0
 40
0.0
 40
1.0
 40
1.0
 40
1.0
 40
2.0
 40
2.0
 40
2.0
 40
3.0
 40
3.0
 40
3.0
 40
4.0
 40
4.0
 40
4.0
 40
5.0
 40
5.0
 40
5.0
 40
6.0
 40
6.0
 40
6.0
 40
7.0
 40
7.0
 40
7.0
 40
8.0
 40
8.0
 40
8.0
 40
9.0
 40
9.0
 40
9.0
 40
10.0
 40
10.0
 40
10.0
 40
11.0
 40
11.0
 40
11.0
 40
12.0
 40
12.0
 40
12.0
 40
13.0
 40
13.0
 40
13.0
 40
14.0
 40
14.0
 40
14.0
 40
15.0
 40
15.0
 40
15.0
 40
15.0
 10
129.3357747072494
 20
-152.0162163248432
 30
0.0
 10
129.1524956274341
 20
-152.2298122449286
 30
0.0
 10
129.0897948896025
 20
-152.3018147405704
 30
0.0
 10
128.965426942585
 20
-152.4199815157144
 30
0.0
 10
128.965426942585
 20
-152.4199815157144
 30
0.0
 10
128.965426942585
 20
-152.9870442325865
 30
0.0
 10
128.965426942585
 20
-152.9870442325865
 30
0.0
 10
128.965426942585
 20
-153.1372503957435
 30
0.0
 10
128.9712836049099
 20
-153.1561984209123
 30
0.0
 10
128.9747287003952
 20
-153.3339653479512
 30
0.0
 10
128.9767957576863
 20
-153.4652234859392
 30
0.0
 10
128.9823079104627
 20
-153.5137993322813
 30
0.0
 10
128.9878200632391
 20
-153.5730549746276
 30
0.0
 10
128.9878200632391
 20
-153.5730549746276
 30
0.0
 10
128.7897270728373
 20
-153.5730549746276
 30
0.0
 10
128.7897270728373
 20
-153.5730549746276
 30
0.0
 10
128.7935166778711
 20
-153.5286132428678
 30
0.0
 10
128.7969617733563
 20
-153.482104453817
 30
0.0
 10
128.7969617733563
 20
-153.4734917151038
 30
0.0
 10
128.7969617733563
 20
-153.3932209902975
 30
0.0
 10
128.8007513783901
 20
-153.0421657603505
 30
0.0
 10
128.8007513783901
 20
-152.9701632647088
 30
0.0
 10
128.8007513783901
 20
-152.9701632647088
 30
0.0
 10
128.8007513783901
 20
-152.5639865069979
 30
0.0
 10
128.8007513783901
 20
-152.5639865069979
 30
0.0
 10
128.6415879669715
 20
-152.6886989635639
 30
0.0
 10
128.4710557404516
 20
-152.7989420190919
 30
0.0
 10
128.2932888134128
 20
-152.8854139157717
 30
0.0
 10
128.2932888134128
 20
-152.8854139157717
 30
0.0
 10
128.1155218863739
 20
-152.7224608993194
 30
0.0
 10
128.1155218863739
 20
-152.7224608993194
 30
0.0
 10
128.2230088655137
 20
-152.6866319062728
 30
0.0
 10
128.4469400720549
 20
-152.6125623533399
 30
0.0
 10
128.7487304365628
 20
-152.3565917587858
 30
0.0
 10
128.937866178703
 20
-152.1981173664643
 30
0.0
 10
129.1063313479317
 20
-152.0096706434212
 30
0.0
 10
129.2396565432109
 20
-151.7895290419137
 30
0.0
 10
129.2396565432109
 20
-151.7895290419137
 30
0.0
 10
129.4081217124396
 20
-151.9335340331972
 30
0.0
 10
129.4081217124396
 20
-151.9335340331972
 30
0.0
 10
129.4191460179924
 20
-151.9442138292014
 30
0.0
 10
129.42672522806
 20
-151.959027739788
 30
0.0
 10
129.42672522806
 20
-151.9717745930834
 30
0.0
 10
129.42672522806
 20
-152.0117377007123
 30
0.0
 10
129.393307801853
 20
-152.0117377007123
 30
0.0
 10
129.3357747072494
 20
-152.0162163248432
 30
0.0
  0
HATCH
  5
9A
330
81
100
AcDbEntity
  8
レイヤー 1
 62
   250
420
  2299925
440
 33554687
100
AcDbHatch
 10
0.0
 20
0.0
 30
0.0
210
0.0
220
0.0
230
1.0
  2
SOLID
 70
     1
 71
     1
 91
        1
 92
        1
 93
        1
 72
     4
 94
        3
 73
     0
 74
     0
 95
       50
 96
       46
 40
0.0
 40
0.0
 40
0.0
 40
0.0
 40
1.0
 40
1.0
 40
1.0
 40
2.0
 40
2.0
 40
2.0
 40
3.0
 40
3.0
 40
3.0
 40
4.0
 40
4.0
 40
4.0
 40
5.0
 40
5.0
 40
5.0
 40
6.0
 40
6.0
 40
6.0
 40
7.0
 40
7.0
 40
7.0
 40
8.0
 40
8.0
 40
8.0
 40
9.0
 40
9.0
 40
9.0
 40
10.0
 40
10.0
 40
10.0
 40
11.0
 40
11.0
 40
11.0
 40
12.0
 40
12.0
 40
12.0
 40
13.0
 40
13.0
 40
13.0
 40
14.0
 40
14.0
 40
14.0
 40
15.0
 40
15.0
 40
15.0
 40
15.0
 10
129.3357747072494
 20
-152.0162163248432
 10
129.1524956274341
 20
-152.2298122449286
 10
129.0897948896025
 20
-152.3018147405704
 10
128.965426942585
 20
-152.4199815157144
 10
128.965426942585
 20
-152.4199815157144
 10
128.965426942585
 20
-152.9870442325865
 10
128.965426942585
 20
-152.9870442325865
 10
128.965426942585
 20
-153.1372503957435
 10
128.9712836049099
 20
-153.1561984209123
 10
128.9747287003952
 20
-153.3339653479512
 10
128.9767957576863
 20
-153.4652234859392
 10
128.9823079104627
 20
-153.5137993322813
 10
128.9878200632391
 20
-153.5730549746276
 10
128.9878200632391
 20
-153.5730549746276
 10
128.7897270728373
 20
-153.5730549746276
 10
128.7897270728373
 20
-153.5730549746276
 10
128.7935166778711
 20
-153.5286132428678
 10
128.7969617733563
 20
-153.482104453817
 10
128.7969617733563
 20
-153.4734917151038
 10
128.7969617733563
 20
-153.3932209902975
 10
128.8007513783901
 20
-153.0421657603505
 10
128.8007513783901
 20
-152.9701632647088
 10
128.8007513783901
 20
-152.9701632647088
 10
128.8007513783901
 20
-152.5639865069979
 10
128.8007513783901
 20
-152.5639865069979
 10
128.6415879669715
 20
-152.6886989635639
 10
128.4710557404516
 20
-152.7989420190919
 10
128.2932888134128
 20
-152.8854139157717
 10
128.2932888134128
 20
-152.8854139157717
 10
128.1155218863739
 20
-152.7224608993194
 10
128.1155218863739
 20
-152.7224608993194
 10
128.2230088655137
 20
-152.6866319062728
 10
128.4469400720549
 20
-152.6125623533399
 10
128.7487304365628
 20
-152.3565917587858
 10
128.937866178703
 20
-152.1981173664643
 10
129.1063313479317
 20
-152.0096706434212
 10
129.2396565432109
 20
-151.7895290419137
 10
129.2396565432109
 20
-151.7895290419137
 10
129.4081217124396
 20
-151.9335340331972
 10
129.4081217124396
 20
-151.9335340331972
 10
129.4191460179924
 20
-151.9442138292014
 10
129.42672522806
 20
-151.959027739788
 10
129.42672522806
 20
-151.9717745930834
 10
129.42672522806
 20
-152.0117377007123
 10
129.393307801853
 20
-152.0117377007123
 10
129.3357747072494
 20
-152.0162163248432
 97
        0
 97
        1
330
99
 75
     2
 76
     1
 98
        1
 10
0.0
 20
0.0
450
        0
451
        0
460
0.0
461
0.0
452
        0
462
0.0
453
        0
470

  0
SPLINE
  5
9B
330
81
100
AcDbEntity
  8
レイヤー 1
100
AcDbSpline
210
0.0
220
0.0
230
1.0
 70
     9
 71
     3
 72
    50
 73
    46
 74
     0
 42
0.0000000001
 43
0.0000000001
 40
0.0
 40
0.0
 40
0.0
 40
0.0
 40
1.0
 40
1.0
 40
1.0
 40
2.0
 40
2.0
 40
2.0
 40
3.0
 40
3.0
 40
3.0
 40
4.0
 40
4.0
 40
4.0
 40
5.0
 40
5.0
 40
5.0
 40
6.0
 40
6.0
 40
6.0
 40
7.0
 40
7.0
 40
7.0
 40
8.0
 40
8.0
 40
8.0
 40
9.0
 40
9.0
 40
9.0
 40
10.0
 40
10.0
 40
10.0
 40
11.0
 40
11.0
 40
11.0
 40
12.0
 40
12.0
 40
12.0
 40
13.0
 40
13.0
 40
13.0
 40
14.0
 40
14.0
 40
14.0
 40
15.0
 40
15.0
 40
15.0
 40
15.0
 10
130.8319796764934
 20
-152.5429714245379
 30
0.0
 10
130.778580696472
 20
-152.614629410631
 30
0.0
 10
130.5505153753484
 20
-152.9319227048225
 30
0.0
 10
130.5005614908123
 20
-152.9956569712997
 30
0.0
 10
130.5746310437452
 20
-153.0928086639837
 30
0.0
 10
130.6190727755049
 20
-153.1561984209123
 30
0.0
 10
130.6766058701086
 20
-153.2471489417229
 30
0.0
 10
130.6766058701086
 20
-153.2471489417229
 30
0.0
 10
130.5153754013989
 20
-153.3849527611329
 30
0.0
 10
130.5153754013989
 20
-153.3849527611329
 30
0.0
 10
130.3968641167063
 20
-153.17307938879
 30
0.0
 10
130.2470024630979
 20
-152.9491481822488
 30
0.0
 10
129.9896538303498
 20
-152.7500216632013
 30
0.0
 10
129.9896538303498
 20
-152.7500216632013
 30
0.0
 10
130.1191894205952
 20
-152.5956813854622
 30
0.0
 10
130.1191894205952
 20
-152.5956813854622
 30
0.0
 10
130.2156520941822
 20
-152.6759521102685
 30
0.0
 10
130.3062581054442
 20
-152.7648355737879
 30
0.0
 10
130.3913519639299
 20
-152.8602647187294
 30
0.0
 10
130.4506076062762
 20
-152.7841281085053
 30
0.0
 10
130.6283745333151
 20
-152.5405598576982
 30
0.0
 10
130.7451632702651
 20
-152.3121500270261
 30
0.0
 10
130.7451632702651
 20
-152.3121500270261
 30
0.0
 10
130.1563964518359
 20
-152.3121500270261
 30
0.0
 10
130.1563964518359
 20
-152.3121500270261
 30
0.0
 10
130.0468424154049
 20
-152.3121500270261
 30
0.0
 10
129.8267008138975
 20
-152.3207627657392
 30
0.0
 10
129.6434217340822
 20
-152.331098052195
 30
0.0
 10
129.6434217340822
 20
-152.331098052195
 30
0.0
 10
129.6434217340822
 20
-152.111300960236
 30
0.0
 10
129.6434217340822
 20
-152.111300960236
 30
0.0
 10
129.8043076932434
 20
-152.1302489854049
 30
0.0
 10
129.9841416775734
 20
-152.1343830999872
 30
0.0
 10
130.1488172417683
 20
-152.1343830999872
 30
0.0
 10
130.1488172417683
 20
-152.1343830999872
 30
0.0
 10
130.5894449543318
 20
-152.1343830999872
 30
0.0
 10
130.5894449543318
 20
-152.1343830999872
 30
0.0
 10
130.8857231660633
 20
-152.1343830999872
 30
0.0
 10
130.9246527450466
 20
-152.1195691894006
 30
0.0
 10
130.9969997502369
 20
-152.0796060817717
 30
0.0
 10
130.9969997502369
 20
-152.0796060817717
 30
0.0
 10
131.1430717988114
 20
-152.2380804740932
 30
0.0
 10
131.1430717988114
 20
-152.2380804740932
 30
0.0
 10
131.0097466035323
 20
-152.310082969735
 30
0.0
 10
130.8840006183206
 20
-152.4730359861873
 30
0.0
 10
130.8319796764934
 20
-152.5429714245379
 30
0.0
  0
HATCH
  5
9C
330
81
100
AcDbEntity
  8
レイヤー 1
 62
   250
420
  2299925
440
 33554687
100
AcDbHatch
 10
0.0
 20
0.0
 30
0.0
210
0.0
220
0.0
230
1.0
  2
SOLID
 70
     1
 71
     1
 91
        1
 92
        1
 93
        1
 72
     4
 94
        3
 73
     0
 74
     0
 95
       50
 96
       46
 40
0.0
 40
0.0
 40
0.0
 40
0.0
 40
1.0
 40
1.0
 40
1.0
 40
2.0
 40
2.0
 40
2.0
 40
3.0
 40
3.0
 40
3.0
 40
4.0
 40
4.0
 40
4.0
 40
5.0
 40
5.0
 40
5.0
 40
6.0
 40
6.0
 40
6.0
 40
7.0
 40
7.0
 40
7.0
 40
8.0
 40
8.0
 40
8.0
 40
9.0
 40
9.0
 40
9.0
 40
10.0
 40
10.0
 40
10.0
 40
11.0
 40
11.0
 40
11.0
 40
12.0
 40
12.0
 40
12.0
 40
13.0
 40
13.0
 40
13.0
 40
14.0
 40
14.0
 40
14.0
 40
15.0
 40
15.0
 40
15.0
 40
15.0
 10
130.8319796764934
 20
-152.5429714245379
 10
130.778580696472
 20
-152.614629410631
 10
130.5505153753484
 20
-152.9319227048225
 10
130.5005614908123
 20
-152.9956569712997
 10
130.5746310437452
 20
-153.0928086639837
 10
130.6190727755049
 20
-153.1561984209123
 10
130.6766058701086
 20
-153.2471489417229
 10
130.6766058701086
 20
-153.2471489417229
 10
130.5153754013989
 20
-153.3849527611329
 10
130.5153754013989
 20
-153.3849527611329
 10
130.3968641167063
 20
-153.17307938879
 10
130.2470024630979
 20
-152.9491481822488
 10
129.9896538303498
 20
-152.7500216632013
 10
129.9896538303498
 20
-152.7500216632013
 10
130.1191894205952
 20
-152.5956813854622
 10
130.1191894205952
 20
-152.5956813854622
 10
130.2156520941822
 20
-152.6759521102685
 10
130.3062581054442
 20
-152.7648355737879
 10
130.3913519639299
 20
-152.8602647187294
 10
130.4506076062762
 20
-152.7841281085053
 10
130.6283745333151
 20
-152.5405598576982
 10
130.7451632702651
 20
-152.3121500270261
 10
130.7451632702651
 20
-152.3121500270261
 10
130.1563964518359
 20
-152.3121500270261
 10
130.1563964518359
 20
-152.3121500270261
 10
130.0468424154049
 20
-152.3121500270261
 10
129.8267008138975
 20
-152.3207627657392
 10
129.6434217340822
 20
-152.331098052195
 10
129.6434217340822
 20
-152.331098052195
 10
129.6434217340822
 20
-152.111300960236
 10
129.6434217340822
 20
-152.111300960236
 10
129.8043076932434
 20
-152.1302489854049
 10
129.9841416775734
 20
-152.1343830999872
 10
130.1488172417683
 20
-152.1343830999872
 10
130.1488172417683
 20
-152.1343830999872
 10
130.5894449543318
 20
-152.1343830999872
 10
130.5894449543318
 20
-152.1343830999872
 10
130.8857231660633
 20
-152.1343830999872
 10
130.9246527450466
 20
-152.1195691894006
 10
130.9969997502369
 20
-152.0796060817717
 10
130.9969997502369
 20
-152.0796060817717
 10
131.1430717988114
 20
-152.2380804740932
 10
131.1430717988114
 20
-152.2380804740932
 10
131.0097466035323
 20
-152.310082969735
 10
130.8840006183206
 20
-152.4730359861873
 10
130.8319796764934
 20
-152.5429714245379
 97
        0
 97
        1
330
9B
 75
     2
 76
     1
 98
        1
 10
0.0
 20
0.0
450
        0
451
        0
460
0.0
461
0.0
452
        0
462
0.0
453
        0
470

  0
SPLINE
  5
9D
330
81
100
AcDbEntity
  8
レイヤー 1
100
AcDbSpline
210
0.0
220
0.0
230
1.0
 70
     9
 71
     3
 72
    29
 73
    25
 74
     0
 42
0.0000000001
 43
0.0000000001
 40
0.0
 40
0.0
 40
0.0
 40
0.0
 40
1.0
 40
1.0
 40
1.0
 40
2.0
 40
2.0
 40
2.0
 40
3.0
 40
3.0
 40
3.0
 40
4.0
 40
4.0
 40
4.0
 40
5.0
 40
5.0
 40
5.0
 40
6.0
 40
6.0
 40
6.0
 40
7.0
 40
7.0
 40
7.0
 40
8.0
 40
8.0
 40
8.0
 40
8.0
 10
132.254459602353
 20
-152.7861951657965
 30
0.0
 10
132.254459602353
 20
-152.7861951657965
 30
0.0
 10
131.8303683481188
 20
-152.7861951657965
 30
0.0
 10
131.8303683481188
 20
-152.7861951657965
 30
0.0
 10
131.806252679722
 20
-152.7861951657965
 30
0.0
 10
131.5282334740624
 20
-152.7861951657965
 30
0.0
 10
131.3432318465044
 20
-152.8113443628388
 30
0.0
 10
131.3432318465044
 20
-152.8113443628388
 30
0.0
 10
131.3432318465044
 20
-152.5808674748756
 30
0.0
 10
131.3432318465044
 20
-152.5808674748756
 30
0.0
 10
131.48206919456
 20
-152.6042941241753
 30
0.0
 10
131.6488118160461
 20
-152.6063611814664
 30
0.0
 10
131.8303683481188
 20
-152.6063611814664
 30
0.0
 10
131.8303683481188
 20
-152.6063611814664
 30
0.0
 10
132.254459602353
 20
-152.6063611814664
 30
0.0
 10
132.254459602353
 20
-152.6063611814664
 30
0.0
 10
132.4170681092568
 20
-152.6063611814664
 30
0.0
 10
132.5803656352577
 20
-152.6042941241753
 30
0.0
 10
132.7412515944188
 20
-152.5808674748756
 30
0.0
 10
132.7412515944188
 20
-152.5808674748756
 30
0.0
 10
132.7412515944188
 20
-152.8113443628388
 30
0.0
 10
132.7412515944188
 20
-152.8113443628388
 30
0.0
 10
132.5803656352577
 20
-152.7882622230876
 30
0.0
 10
132.3636691292355
 20
-152.7861951657965
 30
0.0
 10
132.254459602353
 20
-152.7861951657965
 30
0.0
  0
HATCH
  5
9E
330
81
100
AcDbEntity
  8
レイヤー 1
 62
   250
420
  2299925
440
 33554687
100
AcDbHatch
 10
0.0
 20
0.0
 30
0.0
210
0.0
220
0.0
230
1.0
  2
SOLID
 70
     1
 71
     1
 91
        1
 92
        1
 93
        1
 72
     4
 94
        3
 73
     0
 74
     0
 95
       29
 96
       25
 40
0.0
 40
0.0
 40
0.0
 40
0.0
 40
1.0
 40
1.0
 40
1.0
 40
2.0
 40
2.0
 40
2.0
 40
3.0
 40
3.0
 40
3.0
 40
4.0
 40
4.0
 40
4.0
 40
5.0
 40
5.0
 40
5.0
 40
6.0
 40
6.0
 40
6.0
 40
7.0
 40
7.0
 40
7.0
 40
8.0
 40
8.0
 40
8.0
 40
8.0
 10
132.254459602353
 20
-152.7861951657965
 10
132.254459602353
 20
-152.7861951657965
 10
131.8303683481188
 20
-152.7861951657965
 10
131.8303683481188
 20
-152.7861951657965
 10
131.806252679722
 20
-152.7861951657965
 10
131.5282334740624
 20
-152.7861951657965
 10
131.3432318465044
 20
-152.8113443628388
 10
131.3432318465044
 20
-152.8113443628388
 10
131.3432318465044
 20
-152.5808674748756
 10
131.3432318465044
 20
-152.5808674748756
 10
131.48206919456
 20
-152.6042941241753
 10
131.6488118160461
 20
-152.6063611814664
 10
131.8303683481188
 20
-152.6063611814664
 10
131.8303683481188
 20
-152.6063611814664
 10
132.254459602353
 20
-152.6063611814664
 10
132.254459602353
 20
-152.6063611814664
 10
132.4170681092568
 20
-152.6063611814664
 10
132.5803656352577
 20
-152.6042941241753
 10
132.7412515944188
 20
-152.5808674748756
 10
132.7412515944188
 20
-152.5808674748756
 10
132.7412515944188
 20
-152.8113443628388
 10
132.7412515944188
 20
-152.8113443628388
 10
132.5803656352577
 20
-152.7882622230876
 10
132.3636691292355
 20
-152.7861951657965
 10
132.254459602353
 20
-152.7861951657965
 97
        0
 97
        1
330
9D
 75
     2
 76
     1
 98
        1
 10
0.0
 20
0.0
450
        0
451
        0
460
0.0
461
0.0
452
        0
462
0.0
453
        0
470

  0
SPLINE
  5
9F
330
81
100
AcDbEntity
  8
レイヤー 1
100
AcDbSpline
210
0.0
220
0.0
230
1.0
 70
     9
 71
     3
 72
    20
 73
    16
 74
     0
 42
0.0000000001
 43
0.0000000001
 40
0.0
 40
0.0
 40
0.0
 40
0.0
 40
1.0
 40
1.0
 40
1.0
 40
2.0
 40
2.0
 40
2.0
 40
3.0
 40
3.0
 40
3.0
 40
4.0
 40
4.0
 40
4.0
 40
5.0
 40
5.0
 40
5.0
 40
5.0
 10
133.8302462773063
 20
-153.1372503957435
 30
0.0
 10
133.7895941505804
 20
-152.9594834687046
 30
0.0
 10
133.7045002920947
 20
-152.8178900442608
 30
0.0
 10
133.5821994023683
 20
-152.7079914982813
 30
0.0
 10
133.5821994023683
 20
-152.7079914982813
 30
0.0
 10
133.723103807715
 20
-152.593614328171
 30
0.0
 10
133.723103807715
 20
-152.593614328171
 30
0.0
 10
133.7765027877364
 20
-152.6359890026396
 30
0.0
 10
133.8119872712345
 20
-152.669750938395
 30
0.0
 10
133.8784776140998
 20
-152.7775824270834
 30
0.0
 10
133.9487575619989
 20
-152.8940266544848
 30
0.0
 10
133.9673610776193
 20
-152.9467366154091
 30
0.0
 10
133.9897541982734
 20
-153.0125379391774
 30
0.0
 10
133.9897541982734
 20
-153.0125379391774
 30
0.0
 10
133.8302462773063
 20
-153.1372503957435
 30
0.0
 10
133.8302462773063
 20
-153.1372503957435
 30
0.0
  0
SPLINE
  5
A0
330
81
100
AcDbEntity
  8
レイヤー 1
100
AcDbSpline
210
0.0
220
0.0
230
1.0
 70
     9
 71
     3
 72
    77
 73
    73
 74
     0
 42
0.0000000001
 43
0.0000000001
 40
0.0
 40
0.0
 40
0.0
 40
0.0
 40
1.0
 40
1.0
 40
1.0
 40
2.0
 40
2.0
 40
2.0
 40
3.0
 40
3.0
 40
3.0
 40
4.0
 40
4.0
 40
4.0
 40
5.0
 40
5.0
 40
5.0
 40
6.0
 40
6.0
 40
6.0
 40
7.0
 40
7.0
 40
7.0
 40
8.0
 40
8.0
 40
8.0
 40
9.0
 40
9.0
 40
9.0
 40
10.0
 40
10.0
 40
10.0
 40
11.0
 40
11.0
 40
11.0
 40
12.0
 40
12.0
 40
12.0
 40
13.0
 40
13.0
 40
13.0
 40
14.0
 40
14.0
 40
14.0
 40
15.0
 40
15.0
 40
15.0
 40
16.0
 40
16.0
 40
16.0
 40
17.0
 40
17.0
 40
17.0
 40
18.0
 40
18.0
 40
18.0
 40
19.0
 40
19.0
 40
19.0
 40
20.0
 40
20.0
 40
20.0
 40
21.0
 40
21.0
 40
21.0
 40
22.0
 40
22.0
 40
22.0
 40
23.0
 40
23.0
 40
23.0
 40
24.0
 40
24.0
 40
24.0
 40
24.0
 10
134.5044514637697
 20
-152.4117132865498
 30
0.0
 10
134.4434732736808
 20
-152.4075791719675
 30
0.0
 10
134.3842176313345
 20
-152.4075791719675
 30
0.0
 10
134.3249619889882
 20
-152.4075791719675
 30
0.0
 10
134.3249619889882
 20
-152.4075791719675
 30
0.0
 10
134.3249619889882
 20
-153.1816921275032
 30
0.0
 10
134.3249619889882
 20
-153.1816921275032
 30
0.0
 10
134.3249619889882
 20
-153.4462754607704
 30
0.0
 10
134.322894931697
 20
-153.4759032819435
 30
0.0
 10
134.3173827789206
 20
-153.5055311031167
 30
0.0
 10
134.2877549577475
 20
-153.6385117888473
 30
0.0
 10
134.198871494228
 20
-153.6471245275604
 30
0.0
 10
134.0452202355859
 20
-153.6471245275604
 30
0.0
 10
134.0100802616364
 20
-153.6471245275604
 30
0.0
 10
133.9952663510498
 20
-153.6471245275604
 30
0.0
 10
133.9601263771002
 20
-153.6429904129781
 30
0.0
 10
133.9601263771002
 20
-153.6429904129781
 30
0.0
 10
133.8509168502178
 20
-153.4018337290106
 30
0.0
 10
133.8509168502178
 20
-153.4018337290106
 30
0.0
 10
133.9525471670327
 20
-153.4335286074749
 30
0.0
 10
134.0248941722229
 20
-153.4335286074749
 30
0.0
 10
134.0452202355859
 20
-153.4335286074749
 30
0.0
 10
134.1061984256748
 20
-153.4335286074749
 30
0.0
 10
134.135826246848
 20
-153.4166476395972
 30
0.0
 10
134.1396158518817
 20
-153.3594590545421
 30
0.0
 10
134.1396158518817
 20
-153.3467122012466
 30
0.0
 10
134.1413383996244
 20
-153.2495605085626
 30
0.0
 10
134.1413383996244
 20
-153.1923719235074
 30
0.0
 10
134.1413383996244
 20
-153.1923719235074
 30
0.0
 10
134.1413383996244
 20
-152.4051676051279
 30
0.0
 10
134.1413383996244
 20
-152.4051676051279
 30
0.0
 10
134.1413383996244
 20
-152.4051676051279
 30
0.0
 10
133.8839897668762
 20
-152.4051676051279
 30
0.0
 10
133.8839897668762
 20
-152.4051676051279
 30
0.0
 10
133.7561767243734
 20
-152.4051676051279
 30
0.0
 10
133.6283636818707
 20
-152.4117132865498
 30
0.0
 10
133.5026176966591
 20
-152.4244601398453
 30
0.0
 10
133.5026176966591
 20
-152.4244601398453
 30
0.0
 10
133.5026176966591
 20
-152.2170653916332
 30
0.0
 10
133.5026176966591
 20
-152.2170653916332
 30
0.0
 10
133.6342203441956
 20
-152.2298122449286
 30
0.0
 10
133.8247341245299
 20
-152.2339463595109
 30
0.0
 10
133.8839897668762
 20
-152.2339463595109
 30
0.0
 10
133.8839897668762
 20
-152.2339463595109
 30
0.0
 10
134.1413383996244
 20
-152.2339463595109
 30
0.0
 10
134.1413383996244
 20
-152.2339463595109
 30
0.0
 10
134.1396158518817
 20
-151.9652289116615
 30
0.0
 10
134.1396158518817
 20
-151.8890923014374
 30
0.0
 10
134.1320366418142
 20
-151.7409531955717
 30
0.0
 10
134.1320366418142
 20
-151.7409531955717
 30
0.0
 10
134.3580349056466
 20
-151.779193755458
 30
0.0
 10
134.3580349056466
 20
-151.779193755458
 30
0.0
 10
134.3711262684905
 20
-151.7812608127491
 30
0.0
 10
134.3842176313345
 20
-151.7874619846226
 30
0.0
 10
134.3842176313345
 20
-151.8088215766311
 30
0.0
 10
134.3842176313345
 20
-151.8277696018
 30
0.0
 10
134.3783609690095
 20
-151.8298366590911
 30
0.0
 10
134.3284070844734
 20
-151.8635985948466
 30
0.0
 10
134.3249619889882
 20
-151.9421467719103
 30
0.0
 10
134.3249619889882
 20
-151.9569606824969
 30
0.0
 10
134.3249619889882
 20
-152.2339463595109
 30
0.0
 10
134.4803357953729
 20
-152.2298122449286
 30
0.0
 10
134.4968722537021
 20
-152.2298122449286
 30
0.0
 10
134.5265000748753
 20
-152.2253336207978
 30
0.0
 10
134.570941806635
 20
-152.2211995062155
 30
0.0
 10
134.5747314116688
 20
-152.2191324489244
 30
0.0
 10
134.6136609906521
 20
-152.2170653916332
 30
0.0
 10
134.6136609906521
 20
-152.2170653916332
 30
0.0
 10
134.6136609906521
 20
-152.4244601398453
 30
0.0
 10
134.6136609906521
 20
-152.4244601398453
 30
0.0
 10
134.5878227745127
 20
-152.4223930825541
 30
0.0
 10
134.5395914377192
 20
-152.413780343841
 30
0.0
 10
134.5044514637697
 20
-152.4117132865498
 30
0.0
  0
SPLINE
  5
A1
330
81
100
AcDbEntity
  8
レイヤー 1
100
AcDbSpline
210
0.0
220
0.0
230
1.0
 70
     9
 71
     3
 72
    53
 73
    49
 74
     0
 42
0.0000000001
 43
0.0000000001
 40
0.0
 40
0.0
 40
0.0
 40
0.0
 40
1.0
 40
1.0
 40
1.0
 40
2.0
 40
2.0
 40
2.0
 40
3.0
 40
3.0
 40
3.0
 40
4.0
 40
4.0
 40
4.0
 40
5.0
 40
5.0
 40
5.0
 40
6.0
 40
6.0
 40
6.0
 40
7.0
 40
7.0
 40
7.0
 40
8.0
 40
8.0
 40
8.0
 40
9.0
 40
9.0
 40
9.0
 40
10.0
 40
10.0
 40
10.0
 40
11.0
 40
11.0
 40
11.0
 40
12.0
 40
12.0
 40
12.0
 40
13.0
 40
13.0
 40
13.0
 40
14.0
 40
14.0
 40
14.0
 40
15.0
 40
15.0
 40
15.0
 40
16.0
 40
16.0
 40
16.0
 40
16.0
 10
133.4971055438826
 20
-151.9125189507371
 30
0.0
 10
133.4378499015363
 20
-152.0647921711852
 30
0.0
 10
133.4006428702957
 20
-152.1429958387003
 30
0.0
 10
133.3675699536373
 20
-152.2105197102112
 30
0.0
 10
133.4044324753294
 20
-152.2318793022198
 30
0.0
 10
133.4082220803632
 20
-152.2339463595109
 30
0.0
 10
133.4082220803632
 20
-152.2487602700975
 30
0.0
 10
133.4082220803632
 20
-152.2615071233929
 30
0.0
 10
133.37859425919
 20
-152.2952690591484
 30
0.0
 10
133.3692925013799
 20
-152.3038817978615
 30
0.0
 10
133.3675699536373
 20
-152.5005967500693
 30
0.0
 10
133.3675699536373
 20
-152.5216118325293
 30
0.0
 10
133.3675699536373
 20
-152.6549370278085
 30
0.0
 10
133.3655028963461
 20
-152.6676838811039
 30
0.0
 10
133.3655028963461
 20
-152.6824977916905
 30
0.0
 10
133.3655028963461
 20
-152.697311702277
 30
0.0
 10
133.3655028963461
 20
-152.697311702277
 30
0.0
 10
133.3655028963461
 20
-153.2323350311363
 30
0.0
 10
133.3655028963461
 20
-153.2323350311363
 30
0.0
 10
133.3655028963461
 20
-153.3043375267781
 30
0.0
 10
133.3692925013799
 20
-153.5392930388721
 30
0.0
 10
133.3768717114474
 20
-153.6491915848516
 30
0.0
 10
133.3768717114474
 20
-153.6491915848516
 30
0.0
 10
133.1636203009105
 20
-153.6491915848516
 30
0.0
 10
133.1636203009105
 20
-153.6491915848516
 30
0.0
 10
133.1839463642734
 20
-153.4907171925301
 30
0.0
 10
133.1898030265984
 20
-153.2495605085626
 30
0.0
 10
133.1898030265984
 20
-153.228200916554
 30
0.0
 10
133.1898030265984
 20
-153.228200916554
 30
0.0
 10
133.1898030265984
 20
-152.510932036525
 30
0.0
 10
133.1898030265984
 20
-152.510932036525
 30
0.0
 10
133.1102213208891
 20
-152.6253092066353
 30
0.0
 10
133.0564778313192
 20
-152.6845648489816
 30
0.0
 10
133.0192708000785
 20
-152.7269395234502
 30
0.0
 10
133.0192708000785
 20
-152.7269395234502
 30
0.0
 10
132.8525281785924
 20
-152.5894802135887
 30
0.0
 10
132.8525281785924
 20
-152.5894802135887
 30
0.0
 10
133.0988525057878
 20
-152.3734727266635
 30
0.0
 10
133.2673176750165
 20
-152.0647921711852
 30
0.0
 10
133.3655028963461
 20
-151.7282063422763
 30
0.0
 10
133.3655028963461
 20
-151.7282063422763
 30
0.0
 10
133.5580837339715
 20
-151.8425835123866
 30
0.0
 10
133.5580837339715
 20
-151.8425835123866
 30
0.0
 10
133.5691080395244
 20
-151.84878468426
 30
0.0
 10
133.5766872495919
 20
-151.8532633083908
 30
0.0
 10
133.5766872495919
 20
-151.8680772189774
 30
0.0
 10
133.5766872495919
 20
-151.8932264160197
 30
0.0
 10
133.5618733390053
 20
-151.8977050401506
 30
0.0
 10
133.4971055438826
 20
-151.9125189507371
 30
0.0
  0
HATCH
  5
A2
330
81
100
AcDbEntity
  8
レイヤー 1
 62
   250
420
  2299925
440
 33554687
100
AcDbHatch
 10
0.0
 20
0.0
 30
0.0
210
0.0
220
0.0
230
1.0
  2
SOLID
 70
     1
 71
     1
 91
        3
 92
        1
 93
        1
 72
     4
 94
        3
 73
     0
 74
     0
 95
       20
 96
       16
 40
0.0
 40
0.0
 40
0.0
 40
0.0
 40
1.0
 40
1.0
 40
1.0
 40
2.0
 40
2.0
 40
2.0
 40
3.0
 40
3.0
 40
3.0
 40
4.0
 40
4.0
 40
4.0
 40
5.0
 40
5.0
 40
5.0
 40
5.0
 10
133.8302462773063
 20
-153.1372503957435
 10
133.7895941505804
 20
-152.9594834687046
 10
133.7045002920947
 20
-152.8178900442608
 10
133.5821994023683
 20
-152.7079914982813
 10
133.5821994023683
 20
-152.7079914982813
 10
133.723103807715
 20
-152.593614328171
 10
133.723103807715
 20
-152.593614328171
 10
133.7765027877364
 20
-152.6359890026396
 10
133.8119872712345
 20
-152.669750938395
 10
133.8784776140998
 20
-152.7775824270834
 10
133.9487575619989
 20
-152.8940266544848
 10
133.9673610776193
 20
-152.9467366154091
 10
133.9897541982734
 20
-153.0125379391774
 10
133.9897541982734
 20
-153.0125379391774
 10
133.8302462773063
 20
-153.1372503957435
 10
133.8302462773063
 20
-153.1372503957435
 97
        0
 97
        1
330
9F
 92
        1
 93
        1
 72
     4
 94
        3
 73
     0
 74
     0
 95
       77
 96
       73
 40
0.0
 40
0.0
 40
0.0
 40
0.0
 40
1.0
 40
1.0
 40
1.0
 40
2.0
 40
2.0
 40
2.0
 40
3.0
 40
3.0
 40
3.0
 40
4.0
 40
4.0
 40
4.0
 40
5.0
 40
5.0
 40
5.0
 40
6.0
 40
6.0
 40
6.0
 40
7.0
 40
7.0
 40
7.0
 40
8.0
 40
8.0
 40
8.0
 40
9.0
 40
9.0
 40
9.0
 40
10.0
 40
10.0
 40
10.0
 40
11.0
 40
11.0
 40
11.0
 40
12.0
 40
12.0
 40
12.0
 40
13.0
 40
13.0
 40
13.0
 40
14.0
 40
14.0
 40
14.0
 40
15.0
 40
15.0
 40
15.0
 40
16.0
 40
16.0
 40
16.0
 40
17.0
 40
17.0
 40
17.0
 40
18.0
 40
18.0
 40
18.0
 40
19.0
 40
19.0
 40
19.0
 40
20.0
 40
20.0
 40
20.0
 40
21.0
 40
21.0
 40
21.0
 40
22.0
 40
22.0
 40
22.0
 40
23.0
 40
23.0
 40
23.0
 40
24.0
 40
24.0
 40
24.0
 40
24.0
 10
134.5044514637697
 20
-152.4117132865498
 10
134.4434732736808
 20
-152.4075791719675
 10
134.3842176313345
 20
-152.4075791719675
 10
134.3249619889882
 20
-152.4075791719675
 10
134.3249619889882
 20
-152.4075791719675
 10
134.3249619889882
 20
-153.1816921275032
 10
134.3249619889882
 20
-153.1816921275032
 10
134.3249619889882
 20
-153.4462754607704
 10
134.322894931697
 20
-153.4759032819435
 10
134.3173827789206
 20
-153.5055311031167
 10
134.2877549577475
 20
-153.6385117888473
 10
134.198871494228
 20
-153.6471245275604
 10
134.0452202355859
 20
-153.6471245275604
 10
134.0100802616364
 20
-153.6471245275604
 10
133.9952663510498
 20
-153.6471245275604
 10
133.9601263771002
 20
-153.6429904129781
 10
133.9601263771002
 20
-153.6429904129781
 10
133.8509168502178
 20
-153.4018337290106
 10
133.8509168502178
 20
-153.4018337290106
 10
133.9525471670327
 20
-153.4335286074749
 10
134.0248941722229
 20
-153.4335286074749
 10
134.0452202355859
 20
-153.4335286074749
 10
134.1061984256748
 20
-153.4335286074749
 10
134.135826246848
 20
-153.4166476395972
 10
134.1396158518817
 20
-153.3594590545421
 10
134.1396158518817
 20
-153.3467122012466
 10
134.1413383996244
 20
-153.2495605085626
 10
134.1413383996244
 20
-153.1923719235074
 10
134.1413383996244
 20
-153.1923719235074
 10
134.1413383996244
 20
-152.4051676051279
 10
134.1413383996244
 20
-152.4051676051279
 10
134.1413383996244
 20
-152.4051676051279
 10
133.8839897668762
 20
-152.4051676051279
 10
133.8839897668762
 20
-152.4051676051279
 10
133.7561767243734
 20
-152.4051676051279
 10
133.6283636818707
 20
-152.4117132865498
 10
133.5026176966591
 20
-152.4244601398453
 10
133.5026176966591
 20
-152.4244601398453
 10
133.5026176966591
 20
-152.2170653916332
 10
133.5026176966591
 20
-152.2170653916332
 10
133.6342203441956
 20
-152.2298122449286
 10
133.8247341245299
 20
-152.2339463595109
 10
133.8839897668762
 20
-152.2339463595109
 10
133.8839897668762
 20
-152.2339463595109
 10
134.1413383996244
 20
-152.2339463595109
 10
134.1413383996244
 20
-152.2339463595109
 10
134.1396158518817
 20
-151.9652289116615
 10
134.1396158518817
 20
-151.8890923014374
 10
134.1320366418142
 20
-151.7409531955717
 10
134.1320366418142
 20
-151.7409531955717
 10
134.3580349056466
 20
-151.779193755458
 10
134.3580349056466
 20
-151.779193755458
 10
134.3711262684905
 20
-151.7812608127491
 10
134.3842176313345
 20
-151.7874619846226
 10
134.3842176313345
 20
-151.8088215766311
 10
134.3842176313345
 20
-151.8277696018
 10
134.3783609690095
 20
-151.8298366590911
 10
134.3284070844734
 20
-151.8635985948466
 10
134.3249619889882
 20
-151.9421467719103
 10
134.3249619889882
 20
-151.9569606824969
 10
134.3249619889882
 20
-152.2339463595109
 10
134.4803357953729
 20
-152.2298122449286
 10
134.4968722537021
 20
-152.2298122449286
 10
134.5265000748753
 20
-152.2253336207978
 10
134.570941806635
 20
-152.2211995062155
 10
134.5747314116688
 20
-152.2191324489244
 10
134.6136609906521
 20
-152.2170653916332
 10
134.6136609906521
 20
-152.2170653916332
 10
134.6136609906521
 20
-152.4244601398453
 10
134.6136609906521
 20
-152.4244601398453
 10
134.5878227745127
 20
-152.4223930825541
 10
134.5395914377192
 20
-152.413780343841
 10
134.5044514637697
 20
-152.4117132865498
 97
        0
 97
        1
330
A0
 92
        1
 93
        1
 72
     4
 94
        3
 73
     0
 74
     0
 95
       53
 96
       49
 40
0.0
 40
0.0
 40
0.0
 40
0.0
 40
1.0
 40
1.0
 40
1.0
 40
2.0
 40
2.0
 40
2.0
 40
3.0
 40
3.0
 40
3.0
 40
4.0
 40
4.0
 40
4.0
 40
5.0
 40
5.0
 40
5.0
 40
6.0
 40
6.0
 40
6.0
 40
7.0
 40
7.0
 40
7.0
 40
8.0
 40
8.0
 40
8.0
 40
9.0
 40
9.0
 40
9.0
 40
10.0
 40
10.0
 40
10.0
 40
11.0
 40
11.0
 40
11.0
 40
12.0
 40
12.0
 40
12.0
 40
13.0
 40
13.0
 40
13.0
 40
14.0
 40
14.0
 40
14.0
 40
15.0
 40
15.0
 40
15.0
 40
16.0
 40
16.0
 40
16.0
 40
16.0
 10
133.4971055438826
 20
-151.9125189507371
 10
133.4378499015363
 20
-152.0647921711852
 10
133.4006428702957
 20
-152.1429958387003
 10
133.3675699536373
 20
-152.2105197102112
 10
133.4044324753294
 20
-152.2318793022198
 10
133.4082220803632
 20
-152.2339463595109
 10
133.4082220803632
 20
-152.2487602700975
 10
133.4082220803632
 20
-152.2615071233929
 10
133.37859425919
 20
-152.2952690591484
 10
133.3692925013799
 20
-152.3038817978615
 10
133.3675699536373
 20
-152.5005967500693
 10
133.3675699536373
 20
-152.5216118325293
 10
133.3675699536373
 20
-152.6549370278085
 10
133.3655028963461
 20
-152.6676838811039
 10
133.3655028963461
 20
-152.6824977916905
 10
133.3655028963461
 20
-152.697311702277
 10
133.3655028963461
 20
-152.697311702277
 10
133.3655028963461
 20
-153.2323350311363
 10
133.3655028963461
 20
-153.2323350311363
 10
133.3655028963461
 20
-153.3043375267781
 10
133.3692925013799
 20
-153.5392930388721
 10
133.3768717114474
 20
-153.6491915848516
 10
133.3768717114474
 20
-153.6491915848516
 10
133.1636203009105
 20
-153.6491915848516
 10
133.1636203009105
 20
-153.6491915848516
 10
133.1839463642734
 20
-153.4907171925301
 10
133.1898030265984
 20
-153.2495605085626
 10
133.1898030265984
 20
-153.228200916554
 10
133.1898030265984
 20
-153.228200916554
 10
133.1898030265984
 20
-152.510932036525
 10
133.1898030265984
 20
-152.510932036525
 10
133.1102213208891
 20
-152.6253092066353
 10
133.0564778313192
 20
-152.6845648489816
 10
133.0192708000785
 20
-152.7269395234502
 10
133.0192708000785
 20
-152.7269395234502
 10
132.8525281785924
 20
-152.5894802135887
 10
132.8525281785924
 20
-152.5894802135887
 10
133.0988525057878
 20
-152.3734727266635
 10
133.2673176750165
 20
-152.0647921711852
 10
133.3655028963461
 20
-151.7282063422763
 10
133.3655028963461
 20
-151.7282063422763
 10
133.5580837339715
 20
-151.8425835123866
 10
133.5580837339715
 20
-151.8425835123866
 10
133.5691080395244
 20
-151.84878468426
 10
133.5766872495919
 20
-151.8532633083908
 10
133.5766872495919
 20
-151.8680772189774
 10
133.5766872495919
 20
-151.8932264160197
 10
133.5618733390053
 20
-151.8977050401506
 10
133.4971055438826
 20
-151.9125189507371
 97
        0
 97
        1
330
A1
 75
     2
 76
     1
 98
        1
 10
0.0
 20
0.0
450
        0
451
        0
460
0.0
461
0.0
452
        0
462
0.0
453
        0
470

  0
ENDBLK
  5
84
330
81
100
AcDbEntity
  8
0
100
AcDbBlockEnd
  0
BLOCK
  5
A8
330
A6
100
AcDbEntity
  8
0
100
AcDbBlockBegin
  2
Block_3
 70
     0
 10
0.0
 20
0.0
 30
0.0
  3
Block_3
  1

  0
LINE
  5
AA
330
A6
100
AcDbEntity
  8
レイヤー 1
 62
    18
420
        0
370
    25
100
AcDbLine
 10
109.3448716261562
 20
-152.4808453276699
 30
0.0
 11
99.34513882571543
 21
-152.4808453276699
 31
0.0
  0
LINE
  5
AB
330
A6
100
AcDbEntity
  8
レイヤー 1
 62
    18
420
        0
370
    25
100
AcDbLine
 10
79.34447378041935
 20
-146.9807575512665
 30
0.0
 11
79.34447378041935
 21
-147.4809611622527
 31
0.0
  0
LINE
  5
AC
330
A6
100
AcDbEntity
  8
レイヤー 1
 62
    18
420
        0
370
    25
100
AcDbLine
 10
99.34513882571543
 20
-147.4809611622527
 30
0.0
 11
79.34447378041935
 21
-147.4809611622527
 31
0.0
  0
LINE
  5
AD
330
A6
100
AcDbEntity
  8
レイヤー 1
 62
    18
420
        0
370
    25
100
AcDbLine
 10
79.34447378041935
 20
-146.9807575512665
 30
0.0
 11
79.85780071176773
 21
-147.3628158845045
 31
0.0
  0
LINE
  5
AE
330
A6
100
AcDbEntity
  8
レイヤー 1
 62
    18
420
        0
370
    25
100
AcDbLine
 10
79.85780071176773
 20
-147.3628158845045
 30
0.0
 11
80.34354042159771
 21
-146.945268106831
 31
0.0
  0
LINE
  5
AF
330
A6
100
AcDbEntity
  8
レイヤー 1
 62
    18
420
        0
370
    25
100
AcDbLine
 10
80.85753763070677
 20
-147.327326440069
 30
0.0
 11
81.34260706277606
 21
-146.9094258846178
 31
0.0
  0
LINE
  5
B0
330
A6
100
AcDbEntity
  8
レイヤー 1
 62
    18
420
        0
370
    25
100
AcDbLine
 10
80.34354042159771
 20
-146.945268106831
 30
0.0
 11
80.85753763070677
 21
-147.327326440069
 31
0.0
  0
LINE
  5
B1
330
A6
100
AcDbEntity
  8
レイヤー 1
 62
    18
420
        0
370
    25
100
AcDbLine
 10
81.34260706277606
 20
-146.9094258846178
 30
0.0
 11
81.856639549662
 21
-147.2914842178552
 31
0.0
  0
LINE
  5
B2
330
A6
100
AcDbEntity
  8
レイヤー 1
 62
    18
420
        0
370
    25
100
AcDbLine
 10
81.856639549662
 20
-147.2914842178552
 30
0.0
 11
82.34237925949196
 21
-146.8739364401823
 31
0.0
  0
LINE
  5
B3
330
A6
100
AcDbEntity
  8
レイヤー 1
 62
    18
420
        0
370
    25
100
AcDbLine
 10
82.34237925949196
 20
-146.8739364401823
 30
0.0
 11
82.8564117463779
 21
-147.2556419956426
 31
0.0
  0
LINE
  5
B4
330
A6
100
AcDbEntity
  8
レイヤー 1
 62
    18
420
        0
370
    25
100
AcDbLine
 10
82.8564117463779
 20
-147.2556419956426
 30
0.0
 11
83.34148117844719
 21
-146.8381294957469
 31
0.0
  0
LINE
  5
B5
330
A6
100
AcDbEntity
  8
レイヤー 1
 62
    18
420
        0
370
    25
100
AcDbLine
 10
83.34148117844719
 20
-146.8381294957469
 30
0.0
 11
83.85547838755625
 21
-147.2198350512068
 31
0.0
  0
LINE
  5
B6
330
A6
100
AcDbEntity
  8
レイヤー 1
 62
    18
420
        0
370
    25
100
AcDbLine
 10
83.85547838755625
 20
-147.2198350512068
 30
0.0
 11
84.34121809738654
 21
-146.8022872735337
 31
0.0
  0
LINE
  5
B7
330
A6
100
AcDbEntity
  8
レイヤー 1
 62
    18
420
        0
370
    25
100
AcDbLine
 10
84.34121809738654
 20
-146.8022872735337
 30
0.0
 11
84.85525058427249
 21
-147.1843456067713
 31
0.0
  0
LINE
  5
B8
330
A6
100
AcDbEntity
  8
レイヤー 1
 62
    18
420
        0
370
    25
100
AcDbLine
 10
84.85525058427249
 20
-147.1843456067713
 30
0.0
 11
85.34032001634146
 21
-146.7667978290978
 31
0.0
  0
LINE
  5
B9
330
A6
100
AcDbEntity
  8
レイヤー 1
 62
    18
420
        0
370
    25
100
AcDbLine
 10
85.34032001634146
 20
-146.7667978290978
 30
0.0
 11
85.85431722545052
 21
-147.1488561623359
 31
0.0
  0
LINE
  5
BA
330
A6
100
AcDbEntity
  8
レイヤー 1
 62
    18
420
        0
370
    25
100
AcDbLine
 10
85.85431722545052
 20
-147.1488561623359
 30
0.0
 11
86.33938665751982
 21
-146.7309556068846
 31
0.0
  0
LINE
  5
BB
330
A6
100
AcDbEntity
  8
レイヤー 1
 62
    18
420
        0
370
    25
100
AcDbLine
 10
86.85338386662888
 20
-147.1130492179001
 30
0.0
 11
87.3391588542354
 21
-146.695501440227
 31
0.0
  0
LINE
  5
BC
330
A6
100
AcDbEntity
  8
レイヤー 1
 62
    18
420
        0
370
    25
100
AcDbLine
 10
86.33938665751982
 20
-146.7309556068846
 30
0.0
 11
86.85338386662888
 21
-147.1130492179001
 31
0.0
  0
LINE
  5
BD
330
A6
100
AcDbEntity
  8
レイヤー 1
 62
    18
420
        0
370
    25
100
AcDbLine
 10
87.3391588542354
 20
-146.695501440227
 30
0.0
 11
87.85315606334512
 21
-147.0772069956869
 31
0.0
  0
LINE
  5
BE
330
A6
100
AcDbEntity
  8
レイヤー 1
 62
    18
420
        0
370
    25
100
AcDbLine
 10
87.85315606334512
 20
-147.0772069956869
 30
0.0
 11
88.33822549541407
 21
-146.6596592180137
 31
0.0
  0
LINE
  5
BF
330
A6
100
AcDbEntity
  8
レイヤー 1
 62
    18
420
        0
370
    25
100
AcDbLine
 10
88.85225798230001
 20
-147.0413647734736
 30
0.0
 11
89.33799769212999
 21
-146.6238169958005
 31
0.0
  0
LINE
  5
C0
330
A6
100
AcDbEntity
  8
レイヤー 1
 62
    18
420
        0
370
    25
100
AcDbLine
 10
88.33822549541407
 20
-146.6596592180137
 30
0.0
 11
88.85225798230001
 21
-147.0413647734736
 31
0.0
  0
LINE
  5
C1
330
A6
100
AcDbEntity
  8
レイヤー 1
 62
    18
420
        0
370
    25
100
AcDbLine
 10
89.85199490123905
 20
-147.0058753290381
 30
0.0
 11
90.33706433330833
 21
-146.5883275513647
 31
0.0
  0
LINE
  5
C2
330
A6
100
AcDbEntity
  8
レイヤー 1
 62
    18
420
        0
370
    25
100
AcDbLine
 10
89.33799769212999
 20
-146.6238169958005
 30
0.0
 11
89.85199490123905
 21
-147.0058753290381
 31
0.0
  0
LINE
  5
C3
330
A6
100
AcDbEntity
  8
レイヤー 1
 62
    18
420
        0
370
    25
100
AcDbLine
 10
90.33706433330833
 20
-146.5883275513647
 30
0.0
 11
90.85092043130989
 21
-146.9704211623805
 31
0.0
  0
LINE
  5
C4
330
A6
100
AcDbEntity
  8
レイヤー 1
 62
    18
420
        0
370
    25
100
AcDbLine
 10
90.85092043130989
 20
-146.9704211623805
 30
0.0
 11
91.33666282992749
 21
-146.5525206069292
 31
0.0
  0
LINE
  5
C5
330
A6
100
AcDbEntity
  8
レイヤー 1
 62
    18
420
        0
370
    25
100
AcDbLine
 10
91.33666282992749
 20
-146.5525206069292
 30
0.0
 11
91.84998707248825
 21
-146.9345789401673
 31
0.0
  0
LINE
  5
C6
330
A6
100
AcDbEntity
  8
レイヤー 1
 62
    18
420
        0
370
    25
100
AcDbLine
 10
91.84998707248825
 20
-146.9345789401673
 30
0.0
 11
92.33576206009509
 21
-146.5170311624938
 31
0.0
  0
LINE
  5
C7
330
A6
100
AcDbEntity
  8
レイヤー 1
 62
    18
420
        0
370
    25
100
AcDbLine
 10
92.33576206009509
 20
-146.5170311624938
 30
0.0
 11
92.84975926920415
 21
-146.8987367179543
 31
0.0
  0
LINE
  5
C8
330
A6
100
AcDbEntity
  8
レイヤー 1
 62
    18
420
        0
370
    25
100
AcDbLine
 10
92.84975926920415
 20
-146.8987367179543
 30
0.0
 11
93.33482870127312
 21
-146.4811889402805
 31
0.0
  0
LINE
  5
C9
330
A6
100
AcDbEntity
  8
レイヤー 1
 62
    18
420
        0
370
    25
100
AcDbLine
 10
93.33482870127312
 20
-146.4811889402805
 30
0.0
 11
93.84882591038282
 21
-146.8629297735183
 31
0.0
  0
LINE
  5
CA
330
A6
100
AcDbEntity
  8
レイヤー 1
 62
    18
420
        0
370
    25
100
AcDbLine
 10
93.84882591038282
 20
-146.8629297735183
 30
0.0
 11
94.33460089798934
 21
-146.4453819958451
 31
0.0
  0
LINE
  5
CB
330
A6
100
AcDbEntity
  8
レイヤー 1
 62
    18
420
        0
370
    25
100
AcDbLine
 10
94.33460089798934
 20
-146.4453819958451
 30
0.0
 11
94.8485981070984
 21
-146.8274403290828
 31
0.0
  0
LINE
  5
CC
330
A6
100
AcDbEntity
  8
レイヤー 1
 62
    18
420
        0
370
    25
100
AcDbLine
 10
94.8485981070984
 20
-146.8274403290828
 30
0.0
 11
95.33366753916771
 21
-146.4098925514093
 31
0.0
  0
LINE
  5
CD
330
A6
100
AcDbEntity
  8
レイヤー 1
 62
    18
420
        0
370
    25
100
AcDbLine
 10
95.33366753916771
 20
-146.4098925514093
 30
0.0
 11
95.84766474827677
 21
-146.7919508846473
 31
0.0
  0
LINE
  5
CE
330
A6
100
AcDbEntity
  8
レイヤー 1
 62
    18
420
        0
370
    25
100
AcDbLine
 10
95.84766474827677
 20
-146.7919508846473
 30
0.0
 11
96.33343973588361
 21
-146.3740503291961
 31
0.0
  0
LINE
  5
CF
330
A6
100
AcDbEntity
  8
レイヤー 1
 62
    18
420
        0
370
    25
100
AcDbLine
 10
96.33343973588361
 20
-146.3740503291961
 30
0.0
 11
96.84743694499299
 21
-146.7561086624341
 31
0.0
  0
LINE
  5
D0
330
A6
100
AcDbEntity
  8
レイヤー 1
 62
    18
420
        0
370
    25
100
AcDbLine
 10
96.84743694499299
 20
-146.7561086624341
 30
0.0
 11
97.33250637706197
 21
-146.3385608847605
 31
0.0
  0
LINE
  5
D1
330
A6
100
AcDbEntity
  8
レイヤー 1
 62
    18
420
        0
370
    25
100
AcDbLine
 10
97.33250637706197
 20
-146.3385608847605
 30
0.0
 11
97.8465388639479
 21
-146.7203017179986
 31
0.0
  0
LINE
  5
D2
330
A6
100
AcDbEntity
  8
レイヤー 1
 62
    18
420
        0
370
    25
100
AcDbLine
 10
97.8465388639479
 20
-146.7203017179986
 30
0.0
 11
98.3316082960172
 21
-146.3027539403251
 31
0.0
  0
LINE
  5
D3
330
A6
100
AcDbEntity
  8
レイヤー 1
 62
    18
420
        0
370
    25
100
AcDbLine
 10
98.3316082960172
 20
-146.3027539403251
 30
0.0
 11
98.84560550512626
 21
-146.6844594957851
 31
0.0
  0
LINE
  5
D4
330
A6
100
AcDbEntity
  8
レイヤー 1
 62
    18
420
        0
370
    25
100
AcDbLine
 10
98.84560550512626
 20
-146.6844594957851
 30
0.0
 11
99.33134521495624
 21
-146.2669117181119
 31
0.0
  0
LINE
  5
D5
330
A6
100
AcDbEntity
  8
レイヤー 1
 62
    18
420
        0
370
    25
100
AcDbLine
 10
99.39957243543783
 20
-146.2186869959017
 30
0.0
 11
100.345581300192
 21
-146.2186869959017
 31
0.0
  0
LINE
  5
D6
330
A6
100
AcDbEntity
  8
レイヤー 1
 62
    18
420
        0
370
    25
100
AcDbLine
 10
100.345581300192
 20
-146.2186869959017
 30
0.0
 11
100.345581300192
 21
-151.480720327919
 31
0.0
  0
LINE
  5
D7
330
A6
100
AcDbEntity
  8
レイヤー 1
 62
    18
420
        0
370
    25
100
AcDbLine
 10
99.34513882571543
 20
-147.4809611622527
 30
0.0
 11
99.34513882571543
 21
-152.4808453276699
 31
0.0
  0
LINE
  5
D8
330
A6
100
AcDbEntity
  8
レイヤー 1
 62
    18
420
        0
370
    25
100
AcDbLine
 10
108.3450994294403
 20
-151.480720327919
 30
0.0
 11
100.345581300192
 21
-151.480720327919
 31
0.0
  0
LINE
  5
D9
330
A6
100
AcDbEntity
  8
レイヤー 1
 62
    18
420
        0
370
    25
100
AcDbLine
 10
119.4059172028109
 20
-146.6238169958005
 30
0.0
 11
118.8919199937018
 21
-147.0058753290381
 31
0.0
  0
LINE
  5
DA
330
A6
100
AcDbEntity
  8
レイヤー 1
 62
    18
420
        0
370
    25
100
AcDbLine
 10
124.4026967975546
 20
-146.8022872735337
 30
0.0
 11
123.8886995884456
 21
-147.1843456067713
 31
0.0
  0
LINE
  5
DB
330
A6
100
AcDbEntity
  8
レイヤー 1
 62
    18
420
        0
370
    25
100
AcDbLine
 10
119.8909866348802
 20
-147.0413647734736
 30
0.0
 11
119.4059172028109
 21
-146.6238169958005
 31
0.0
  0
LINE
  5
DC
330
A6
100
AcDbEntity
  8
レイヤー 1
 62
    18
420
        0
370
    25
100
AcDbLine
 10
120.8907588315961
 20
-147.0772069956869
 30
0.0
 11
120.4050191217661
 21
-146.6596592180137
 31
0.0
  0
LINE
  5
DD
330
A6
100
AcDbEntity
  8
レイヤー 1
 62
    18
420
        0
370
    25
100
AcDbLine
 10
118.8919199937018
 20
-147.0058753290381
 30
0.0
 11
118.4061802838719
 21
-146.5883275513647
 31
0.0
  0
LINE
  5
DE
330
A6
100
AcDbEntity
  8
レイヤー 1
 62
    18
420
        0
370
    25
100
AcDbLine
 10
120.4050191217661
 20
-146.6596592180137
 30
0.0
 11
119.8909866348802
 21
-147.0413647734736
 31
0.0
  0
LINE
  5
DF
330
A6
100
AcDbEntity
  8
レイヤー 1
 62
    18
420
        0
370
    25
100
AcDbLine
 10
128.4003744733432
 20
-146.945268106831
 30
0.0
 11
127.8863772642341
 21
-147.327326440069
 31
0.0
  0
LINE
  5
E0
330
A6
100
AcDbEntity
  8
レイヤー 1
 62
    18
420
        0
370
    25
100
AcDbLine
 10
121.404791318482
 20
-146.695501440227
 30
0.0
 11
120.8907588315961
 21
-147.0772069956869
 31
0.0
  0
LINE
  5
E1
330
A6
100
AcDbEntity
  8
レイヤー 1
 62
    18
420
        0
370
    25
100
AcDbLine
 10
122.4038579596604
 20
-146.7309556068846
 30
0.0
 11
121.8898607505513
 21
-147.1130492179001
 31
0.0
  0
LINE
  5
E2
330
A6
100
AcDbEntity
  8
レイヤー 1
 62
    18
420
        0
370
    25
100
AcDbLine
 10
108.3981572058644
 20
-146.2186869959017
 30
0.0
 11
108.3981572058644
 21
-151.480720327919
 31
0.0
  0
LINE
  5
E3
330
A6
100
AcDbEntity
  8
レイヤー 1
 62
    18
420
        0
370
    25
100
AcDbLine
 10
121.8898607505513
 20
-147.1130492179001
 30
0.0
 11
121.404791318482
 21
-146.695501440227
 31
0.0
  0
LINE
  5
E4
330
A6
100
AcDbEntity
  8
レイヤー 1
 62
    18
420
        0
370
    25
100
AcDbLine
 10
122.8895976694903
 20
-147.1488561623359
 30
0.0
 11
122.4038579596604
 21
-146.7309556068846
 31
0.0
  0
LINE
  5
E5
330
A6
100
AcDbEntity
  8
レイヤー 1
 62
    18
420
        0
370
    25
100
AcDbLine
 10
127.8863772642341
 20
-147.327326440069
 30
0.0
 11
127.4006022766273
 21
-146.9094258846178
 31
0.0
  0
LINE
  5
E6
330
A6
100
AcDbEntity
  8
レイヤー 1
 62
    18
420
        0
370
    25
100
AcDbLine
 10
123.4029246008387
 20
-146.7667978290978
 30
0.0
 11
122.8895976694903
 21
-147.1488561623359
 31
0.0
  0
LINE
  5
E7
330
A6
100
AcDbEntity
  8
レイヤー 1
 62
    18
420
        0
370
    25
100
AcDbLine
 10
123.8886995884456
 20
-147.1843456067713
 30
0.0
 11
123.4029246008387
 21
-146.7667978290978
 31
0.0
  0
LINE
  5
E8
330
A6
100
AcDbEntity
  8
レイヤー 1
 62
    18
420
        0
370
    25
100
AcDbLine
 10
128.8854439054125
 20
-147.3628158845045
 30
0.0
 11
128.4003744733432
 21
-146.945268106831
 31
0.0
  0
LINE
  5
E9
330
A6
100
AcDbEntity
  8
レイヤー 1
 62
    18
420
        0
370
    25
100
AcDbLine
 10
125.401763438733
 20
-146.8381294957469
 30
0.0
 11
124.8877662296239
 21
-147.2198350512068
 31
0.0
  0
LINE
  5
EA
330
A6
100
AcDbEntity
  8
レイヤー 1
 62
    18
420
        0
370
    25
100
AcDbLine
 10
126.4015356354489
 20
-146.8739364401823
 30
0.0
 11
125.8875384263398
 21
-147.2556419956426
 31
0.0
  0
LINE
  5
EB
330
A6
100
AcDbEntity
  8
レイヤー 1
 62
    18
420
        0
370
    25
100
AcDbLine
 10
125.8875384263398
 20
-147.2556419956426
 30
0.0
 11
125.401763438733
 21
-146.8381294957469
 31
0.0
  0
LINE
  5
EC
330
A6
100
AcDbEntity
  8
レイヤー 1
 62
    18
420
        0
370
    25
100
AcDbLine
 10
129.3994763922984
 20
-146.9807575512665
 30
0.0
 11
128.8854439054125
 21
-147.3628158845045
 31
0.0
  0
LINE
  5
ED
330
A6
100
AcDbEntity
  8
レイヤー 1
 62
    18
420
        0
370
    25
100
AcDbLine
 10
124.8877662296239
 20
-147.2198350512068
 30
0.0
 11
124.4026967975546
 21
-146.8022872735337
 31
0.0
  0
LINE
  5
EE
330
A6
100
AcDbEntity
  8
レイヤー 1
 62
    18
420
        0
370
    25
100
AcDbLine
 10
127.4006022766273
 20
-146.9094258846178
 30
0.0
 11
126.8866050675182
 21
-147.2914842178552
 31
0.0
  0
LINE
  5
EF
330
A6
100
AcDbEntity
  8
レイヤー 1
 62
    18
420
        0
370
    25
100
AcDbLine
 10
126.8866050675182
 20
-147.2914842178552
 30
0.0
 11
126.4015356354489
 21
-146.8739364401823
 31
0.0
  0
LINE
  5
F0
330
A6
100
AcDbEntity
  8
レイヤー 1
 62
    18
420
        0
370
    25
100
AcDbLine
 10
129.3994763922984
 20
-146.9807575512665
 30
0.0
 11
129.3994763922984
 21
-147.4809611622527
 31
0.0
  0
LINE
  5
F1
330
A6
100
AcDbEntity
  8
レイヤー 1
 62
    18
420
        0
370
    25
100
AcDbLine
 10
109.3979294025804
 20
-147.4809611622527
 30
0.0
 11
129.3994763922984
 21
-147.4809611622527
 31
0.0
  0
LINE
  5
F2
330
A6
100
AcDbEntity
  8
レイヤー 1
 62
    18
420
        0
370
    25
100
AcDbLine
 10
118.4061802838719
 20
-146.5883275513647
 30
0.0
 11
117.8921477969859
 21
-146.9704211623805
 31
0.0
  0
LINE
  5
F3
330
A6
100
AcDbEntity
  8
レイヤー 1
 62
    18
420
        0
370
    25
100
AcDbLine
 10
117.8921477969859
 20
-146.9704211623805
 30
0.0
 11
117.4070783649166
 21
-146.5525206069292
 31
0.0
  0
LINE
  5
F4
330
A6
100
AcDbEntity
  8
レイヤー 1
 62
    18
420
        0
370
    25
100
AcDbLine
 10
117.4070783649166
 20
-146.5525206069292
 30
0.0
 11
116.8930811558076
 21
-146.9345789401673
 31
0.0
  0
LINE
  5
F5
330
A6
100
AcDbEntity
  8
レイヤー 1
 62
    18
420
        0
370
    25
100
AcDbLine
 10
116.8930811558076
 20
-146.9345789401673
 30
0.0
 11
116.4080117237383
 21
-146.5170311624938
 31
0.0
  0
LINE
  5
F6
330
A6
100
AcDbEntity
  8
レイヤー 1
 62
    18
420
        0
370
    25
100
AcDbLine
 10
116.4080117237383
 20
-146.5170311624938
 30
0.0
 11
115.8940145146292
 21
-146.8987367179543
 31
0.0
  0
LINE
  5
F7
330
A6
100
AcDbEntity
  8
レイヤー 1
 62
    18
420
        0
370
    25
100
AcDbLine
 10
115.8940145146292
 20
-146.8987367179543
 30
0.0
 11
115.4082395270224
 21
-146.4811889402805
 31
0.0
  0
LINE
  5
F8
330
A6
100
AcDbEntity
  8
レイヤー 1
 62
    18
420
        0
370
    25
100
AcDbLine
 10
115.4082395270224
 20
-146.4811889402805
 30
0.0
 11
114.8942423179133
 21
-146.8629297735183
 31
0.0
  0
LINE
  5
F9
330
A6
100
AcDbEntity
  8
レイヤー 1
 62
    18
420
        0
370
    25
100
AcDbLine
 10
114.8942423179133
 20
-146.8629297735183
 30
0.0
 11
114.409172885844
 21
-146.4453819958451
 31
0.0
  0
LINE
  5
FA
330
A6
100
AcDbEntity
  8
レイヤー 1
 62
    18
420
        0
370
    25
100
AcDbLine
 10
114.409172885844
 20
-146.4453819958451
 30
0.0
 11
113.8951403989581
 21
-146.8274403290828
 31
0.0
  0
LINE
  5
FB
330
A6
100
AcDbEntity
  8
レイヤー 1
 62
    18
420
        0
370
    25
100
AcDbLine
 10
113.8951403989581
 20
-146.8274403290828
 30
0.0
 11
113.4094006891281
 21
-146.4098925514093
 31
0.0
  0
LINE
  5
FC
330
A6
100
AcDbEntity
  8
レイヤー 1
 62
    18
420
        0
370
    25
100
AcDbLine
 10
113.4094006891281
 20
-146.4098925514093
 30
0.0
 11
112.895403480019
 21
-146.7919508846473
 31
0.0
  0
LINE
  5
FD
330
A6
100
AcDbEntity
  8
レイヤー 1
 62
    18
420
        0
370
    25
100
AcDbLine
 10
112.895403480019
 20
-146.7919508846473
 30
0.0
 11
112.4103340479498
 21
-146.3740503291961
 31
0.0
  0
LINE
  5
FE
330
A6
100
AcDbEntity
  8
レイヤー 1
 62
    18
420
        0
370
    25
100
AcDbLine
 10
112.4103340479498
 20
-146.3740503291961
 30
0.0
 11
111.8963015610638
 21
-146.7561086624341
 31
0.0
  0
LINE
  5
FF
330
A6
100
AcDbEntity
  8
レイヤー 1
 62
    18
420
        0
370
    25
100
AcDbLine
 10
111.8963015610638
 20
-146.7561086624341
 30
0.0
 11
111.4112321289945
 21
-146.3385608847605
 31
0.0
  0
LINE
  5
100
330
A6
100
AcDbEntity
  8
レイヤー 1
 62
    18
420
        0
370
    25
100
AcDbLine
 10
111.4112321289945
 20
-146.3385608847605
 30
0.0
 11
110.8972349198855
 21
-146.7203017179986
 31
0.0
  0
LINE
  5
101
330
A6
100
AcDbEntity
  8
レイヤー 1
 62
    18
420
        0
370
    25
100
AcDbLine
 10
110.8972349198855
 20
-146.7203017179986
 30
0.0
 11
110.4114599322786
 21
-146.3027539403251
 31
0.0
  0
LINE
  5
102
330
A6
100
AcDbEntity
  8
レイヤー 1
 62
    18
420
        0
370
    25
100
AcDbLine
 10
110.4114599322786
 20
-146.3027539403251
 30
0.0
 11
109.8974627231696
 21
-146.6844594957851
 31
0.0
  0
LINE
  5
103
330
A6
100
AcDbEntity
  8
レイヤー 1
 62
    18
420
        0
370
    25
100
AcDbLine
 10
109.8974627231696
 20
-146.6844594957851
 30
0.0
 11
109.4123932911003
 21
-146.2669117181119
 31
0.0
  0
LINE
  5
104
330
A6
100
AcDbEntity
  8
レイヤー 1
 62
    18
420
        0
370
    25
100
AcDbLine
 10
109.3545232420892
 20
-146.2186869959017
 30
0.0
 11
108.3981572058644
 21
-146.2186869959017
 31
0.0
  0
LINE
  5
105
330
A6
100
AcDbEntity
  8
レイヤー 1
 62
    18
420
        0
370
    25
100
AcDbLine
 10
109.3979294025804
 20
-147.4809611622527
 30
0.0
 11
109.3979294025804
 21
-152.4808453276699
 31
0.0
  0
SPLINE
  5
106
330
A6
100
AcDbEntity
  8
レイヤー 1
 62
    18
420
        0
370
     9
100
AcDbSpline
210
0.0
220
0.0
230
1.0
 70
     9
 71
     3
 72
    17
 73
    13
 74
     0
 42
0.0000000001
 43
0.0000000001
 40
0.0
 40
0.0
 40
0.0
 40
0.0
 40
1.0
 40
1.0
 40
1.0
 40
2.0
 40
2.0
 40
2.0
 40
3.0
 40
3.0
 40
3.0
 40
4.0
 40
4.0
 40
4.0
 40
4.0
 10
79.44438044453718
 20
-142.2189278302348
 30
0.0
 10
79.44438044453718
 20
-142.1634711635822
 30
0.0
 10
79.39957766790242
 20
-142.1186683858155
 30
0.0
 10
79.34447378041935
 20
-142.1186683858155
 30
0.0
 10
79.28866433739873
 20
-142.1186683858155
 30
0.0
 10
79.24386156076396
 20
-142.1634711635822
 30
0.0
 10
79.24386156076396
 20
-142.2189278302348
 30
0.0
 10
79.24386156076396
 20
-142.2740669968879
 30
0.0
 10
79.28866433739873
 20
-142.3188344968765
 30
0.0
 10
79.34447378041935
 20
-142.3188344968765
 30
0.0
 10
79.39957766790242
 20
-142.3188344968765
 30
0.0
 10
79.44438044453718
 20
-142.2740669968879
 30
0.0
 10
79.44438044453718
 20
-142.2189278302348
 30
0.0
  0
SPLINE
  5
107
330
A6
100
AcDbEntity
  8
レイヤー 1
 62
    18
420
        0
370
     9
100
AcDbSpline
210
0.0
220
0.0
230
1.0
 70
     9
 71
     3
 72
    17
 73
    13
 74
     0
 42
0.0000000001
 43
0.0000000001
 40
0.0
 40
0.0
 40
0.0
 40
0.0
 40
1.0
 40
1.0
 40
1.0
 40
2.0
 40
2.0
 40
2.0
 40
3.0
 40
3.0
 40
3.0
 40
4.0
 40
4.0
 40
4.0
 40
4.0
 10
77.30771133238149
 20
-146.9807575512665
 30
0.0
 10
77.30771133238149
 20
-146.9256183846138
 30
0.0
 10
77.26294616677917
 20
-146.8808156068474
 30
0.0
 10
77.20780466826366
 20
-146.8808156068474
 30
0.0
 10
77.15270078078059
 20
-146.8808156068474
 30
0.0
 10
77.10789800414582
 20
-146.9256183846138
 30
0.0
 10
77.10789800414582
 20
-146.9807575512665
 30
0.0
 10
77.10789800414582
 20
-147.0358614401417
 30
0.0
 10
77.15270078078059
 20
-147.0806642179085
 30
0.0
 10
77.20780466826366
 20
-147.0806642179085
 30
0.0
 10
77.26294616677917
 20
-147.0806642179085
 30
0.0
 10
77.30771133238149
 20
-147.0358614401417
 30
0.0
 10
77.30771133238149
 20
-146.9807575512665
 30
0.0
  0
CIRCLE
  5
108
330
A6
100
AcDbEntity
  8
レイヤー 1
 62
    18
420
        0
370
     9
100
AcDbCircle
 10
77.20780466826366
 20
-147.4809611622527
 30
0.0
 40
0.0999066653797365
  0
CIRCLE
  5
109
330
A6
100
AcDbEntity
  8
レイヤー 1
 62
    18
420
        0
370
     9
100
AcDbCircle
 10
77.20780466826366
 20
-152.4808453276696
 30
0.0
 40
0.0999066653798969
  0
SPLINE
  5
10A
330
A6
100
AcDbEntity
  8
レイヤー 1
 62
    18
420
        0
370
     9
100
AcDbSpline
210
0.0
220
0.0
230
1.0
 70
     9
 71
     3
 72
    17
 73
    13
 74
     0
 42
0.0000000001
 43
0.0000000001
 40
0.0
 40
0.0
 40
0.0
 40
0.0
 40
1.0
 40
1.0
 40
1.0
 40
2.0
 40
2.0
 40
2.0
 40
3.0
 40
3.0
 40
3.0
 40
4.0
 40
4.0
 40
4.0
 40
4.0
 10
100.4454879643098
 20
-142.2189278302348
 30
0.0
 10
100.4454879643098
 20
-142.1634711635822
 30
0.0
 10
100.4007204654519
 20
-142.1186683858155
 30
0.0
 10
100.345581300192
 20
-142.1186683858155
 30
0.0
 10
100.2897718571714
 20
-142.1186683858155
 30
0.0
 10
100.245007272145
 20
-142.1634711635822
 30
0.0
 10
100.245007272145
 20
-142.2189278302348
 30
0.0
 10
100.245007272145
 20
-142.2740669968879
 30
0.0
 10
100.2897718571714
 20
-142.3188344968765
 30
0.0
 10
100.345581300192
 20
-142.3188344968765
 30
0.0
 10
100.4007204654519
 20
-142.3188344968765
 30
0.0
 10
100.4454879643098
 20
-142.2740669968879
 30
0.0
 10
100.4454879643098
 20
-142.2189278302348
 30
0.0
  0
SPLINE
  5
10B
330
A6
100
AcDbEntity
  8
レイヤー 1
 62
    18
420
        0
370
     9
100
AcDbSpline
210
0.0
220
0.0
230
1.0
 70
     9
 71
     3
 72
    17
 73
    13
 74
     0
 42
0.0000000001
 43
0.0000000001
 40
0.0
 40
0.0
 40
0.0
 40
0.0
 40
1.0
 40
1.0
 40
1.0
 40
2.0
 40
2.0
 40
2.0
 40
3.0
 40
3.0
 40
3.0
 40
4.0
 40
4.0
 40
4.0
 40
4.0
 10
129.4566616686172
 20
-142.2189278302348
 30
0.0
 10
129.4566616686172
 20
-142.1634711635822
 30
0.0
 10
129.4118588919825
 20
-142.1186683858155
 30
0.0
 10
129.3567550044994
 20
-142.1186683858155
 30
0.0
 10
129.3016158392395
 20
-142.1186683858155
 30
0.0
 10
129.2568483403816
 20
-142.1634711635822
 30
0.0
 10
129.2568483403816
 20
-142.2189278302348
 30
0.0
 10
129.2568483403816
 20
-142.2740669968879
 30
0.0
 10
129.3016158392395
 20
-142.3188344968765
 30
0.0
 10
129.3567550044994
 20
-142.3188344968765
 30
0.0
 10
129.4118588919825
 20
-142.3188344968765
 30
0.0
 10
129.4566616686172
 20
-142.2740669968879
 30
0.0
 10
129.4566616686172
 20
-142.2189278302348
 30
0.0
  0
SPLINE
  5
10C
330
A6
100
AcDbEntity
  8
レイヤー 1
 62
    18
420
        0
370
     9
100
AcDbSpline
210
0.0
220
0.0
230
1.0
 70
     9
 71
     3
 72
    17
 73
    13
 74
     0
 42
0.0000000001
 43
0.0000000001
 40
0.0
 40
0.0
 40
0.0
 40
0.0
 40
1.0
 40
1.0
 40
1.0
 40
2.0
 40
2.0
 40
2.0
 40
3.0
 40
3.0
 40
3.0
 40
4.0
 40
4.0
 40
4.0
 40
4.0
 10
108.3450994294403
 20
-142.2189278302348
 30
0.0
 10
108.3450994294403
 20
-142.1634711635822
 30
0.0
 10
108.3003350479089
 20
-142.1186683858155
 30
0.0
 10
108.2451927653225
 20
-142.1186683858155
 30
0.0
 10
108.1900888778394
 20
-142.1186683858155
 30
0.0
 10
108.1452861012046
 20
-142.1634711635822
 30
0.0
 10
108.1452861012046
 20
-142.2189278302348
 30
0.0
 10
108.1452861012046
 20
-142.2740669968879
 30
0.0
 10
108.1900888778394
 20
-142.3188344968765
 30
0.0
 10
108.2451927653225
 20
-142.3188344968765
 30
0.0
 10
108.3003350479089
 20
-142.3188344968765
 30
0.0
 10
108.3450994294403
 20
-142.2740669968879
 30
0.0
 10
108.3450994294403
 20
-142.2189278302348
 30
0.0
  0
LINE
  5
10D
330
A6
100
AcDbEntity
  8
レイヤー 1
 62
    18
420
        0
370
     9
100
AcDbLine
 10
77.20780466826366
 20
-146.9807575512665
 30
0.0
 11
77.20780466826366
 21
-141.7231692192479
 31
0.0
  0
LINE
  5
10E
330
A6
100
AcDbEntity
  8
レイヤー 1
 62
    18
420
        0
370
     9
100
AcDbLine
 10
77.20780466826366
 20
-146.9807575512665
 30
0.0
 11
77.20780466826366
 21
-147.4809611622527
 31
0.0
  0
LINE
  5
10F
330
A6
100
AcDbEntity
  8
レイヤー 1
 62
    18
420
        0
370
     9
100
AcDbLine
 10
78.66784601990379
 20
-146.9807575512665
 30
0.0
 11
76.20806774932463
 21
-146.9807575512665
 31
0.0
  0
LINE
  5
110
330
A6
100
AcDbEntity
  8
レイヤー 1
 62
    18
420
        0
370
     9
100
AcDbLine
 10
78.66784601990379
 20
-147.4809611622527
 30
0.0
 11
76.20806774932463
 21
-147.4809611622527
 31
0.0
  0
INSERT
  5
112
330
A6
100
AcDbEntity
  8
レイヤー 1
100
AcDbBlockReference
  2
Block_4
 10
0.0
 20
0.0
 30
0.0
  0
LINE
  5
120
330
A6
100
AcDbEntity
  8
レイヤー 1
 62
    18
420
        0
370
     9
100
AcDbLine
 10
79.34447378041935
 20
-142.2189278302348
 30
0.0
 11
100.345581300192
 21
-142.2189278302348
 31
0.0
  0
LINE
  5
121
330
A6
100
AcDbEntity
  8
レイヤー 1
 62
    18
420
        0
370
     9
100
AcDbLine
 10
79.34447378041935
 20
-144.4410044963461
 30
0.0
 11
79.34447378041935
 21
-141.2188028304849
 31
0.0
  0
INSERT
  5
123
330
A6
100
AcDbEntity
  8
レイヤー 1
100
AcDbBlockReference
  2
Block_6
 10
0.0
 20
0.0
 30
0.0
  0
LINE
  5
12E
330
A6
100
AcDbEntity
  8
レイヤー 1
 62
    18
420
        0
370
     9
100
AcDbLine
 10
77.20780466826366
 20
-147.4809611622527
 30
0.0
 11
77.20780466826366
 21
-152.4808453276699
 31
0.0
  0
LINE
  5
12F
330
A6
100
AcDbEntity
  8
レイヤー 1
 62
    18
420
        0
370
     9
100
AcDbLine
 10
98.66921662073742
 20
-152.4808453276699
 30
0.0
 11
76.20806774932463
 21
-152.4808453276699
 31
0.0
  0
INSERT
  5
131
330
A6
100
AcDbEntity
  8
レイヤー 1
100
AcDbBlockReference
  2
Block_8
 10
0.0
 20
0.0
 30
0.0
  0
LINE
  5
136
330
A6
100
AcDbEntity
  8
レイヤー 1
 62
    18
420
        0
370
     9
100
AcDbLine
 10
129.3567550044994
 20
-142.2189278302348
 30
0.0
 11
108.3554358180655
 21
-142.2189278302348
 31
0.0
  0
LINE
  5
137
330
A6
100
AcDbEntity
  8
レイヤー 1
 62
    18
420
        0
370
     9
100
AcDbLine
 10
129.3567550044994
 20
-144.4410044963461
 30
0.0
 11
129.3567550044994
 21
-141.2188028304849
 31
0.0
  0
INSERT
  5
139
330
A6
100
AcDbEntity
  8
レイヤー 1
100
AcDbBlockReference
  2
Block_9
 10
0.0
 20
0.0
 30
0.0
  0
LINE
  5
144
330
A6
100
AcDbEntity
  8
レイヤー 1
 62
    18
420
        0
370
     9
100
AcDbLine
 10
100.345581300192
 20
-142.2189278302348
 30
0.0
 11
108.3450994294403
 21
-142.2189278302348
 31
0.0
  0
LINE
  5
145
330
A6
100
AcDbEntity
  8
レイヤー 1
 62
    18
420
        0
370
     9
100
AcDbLine
 10
100.345581300192
 20
-143.6789692187589
 30
0.0
 11
100.345581300192
 21
-141.2188028304849
 31
0.0
  0
LINE
  5
146
330
A6
100
AcDbEntity
  8
レイヤー 1
 62
    18
420
        0
370
     9
100
AcDbLine
 10
108.2451927653225
 20
-143.6789692187589
 30
0.0
 11
108.2451927653225
 21
-141.2188028304849
 31
0.0
  0
INSERT
  5
148
330
A6
100
AcDbEntity
  8
レイヤー 1
100
AcDbBlockReference
  2
Block_11
 10
0.0
 20
0.0
 30
0.0
  0
LINE
  5
14F
330
A6
100
AcDbEntity
  8
レイヤー 1
 62
    18
420
        0
370
     9
100
AcDbLine
 10
106.9691250200999
 20
-150.435475050403
 30
0.0
 11
114.9686431493485
 21
-150.435475050403
 31
0.0
  0
INSERT
  5
151
330
A6
100
AcDbEntity
  8
レイヤー 1
100
AcDbBlockReference
  2
Block_12
 10
0.0
 20
0.0
 30
0.0
  0
SPLINE
  5
156
330
A6
100
AcDbEntity
  8
レイヤー 1
 62
    18
420
        0
370
     9
100
AcDbSpline
210
0.0
220
0.0
230
1.0
 70
     9
 71
     3
 72
    17
 73
    13
 74
     0
 42
0.0000000001
 43
0.0000000001
 40
0.0
 40
0.0
 40
0.0
 40
0.0
 40
1.0
 40
1.0
 40
1.0
 40
2.0
 40
2.0
 40
2.0
 40
3.0
 40
3.0
 40
3.0
 40
4.0
 40
4.0
 40
4.0
 40
4.0
 10
99.65865242882815
 20
-156.9484231043304
 30
0.0
 10
99.65865242882815
 20
-156.8933192154555
 30
0.0
 10
99.57525576428912
 20
-156.8485164376888
 30
0.0
 10
99.47259743357481
 20
-156.8485164376888
 30
0.0
 10
99.37064465839807
 20
-156.8485164376888
 30
0.0
 10
99.28795354939659
 20
-156.8933192154555
 30
0.0
 10
99.28795354939659
 20
-156.9484231043304
 30
0.0
 10
99.28795354939659
 20
-157.0035622709835
 30
0.0
 10
99.37064465839807
 20
-157.048329770972
 30
0.0
 10
99.47259743357481
 20
-157.048329770972
 30
0.0
 10
99.57525576428912
 20
-157.048329770972
 30
0.0
 10
99.65865242882815
 20
-157.0035622709835
 30
0.0
 10
99.65865242882815
 20
-156.9484231043304
 30
0.0
  0
SPLINE
  5
157
330
A6
100
AcDbEntity
  8
レイヤー 1
 62
    18
420
        0
370
     9
100
AcDbSpline
210
0.0
220
0.0
230
1.0
 70
     9
 71
     3
 72
    17
 73
    13
 74
     0
 42
0.0000000001
 43
0.0000000001
 40
0.0
 40
0.0
 40
0.0
 40
0.0
 40
1.0
 40
1.0
 40
1.0
 40
2.0
 40
2.0
 40
2.0
 40
3.0
 40
3.0
 40
3.0
 40
4.0
 40
4.0
 40
4.0
 40
4.0
 10
109.6170396747682
 20
-156.9484231043304
 30
0.0
 10
109.6170396747682
 20
-156.8933192154555
 30
0.0
 10
109.5343517142669
 20
-156.8485164376888
 30
0.0
 10
109.4323989365143
 20
-156.8485164376888
 30
0.0
 10
109.3290350476521
 20
-156.8485164376888
 30
0.0
 10
109.2463407953366
 20
-156.8933192154555
 30
0.0
 10
109.2463407953366
 20
-156.9484231043304
 30
0.0
 10
109.2463407953366
 20
-157.0035622709835
 30
0.0
 10
109.3290350476521
 20
-157.048329770972
 30
0.0
 10
109.4323989365143
 20
-157.048329770972
 30
0.0
 10
109.5343517142669
 20
-157.048329770972
 30
0.0
 10
109.6170396747682
 20
-157.0035622709835
 30
0.0
 10
109.6170396747682
 20
-156.9484231043304
 30
0.0
  0
LINE
  5
158
330
A6
100
AcDbEntity
  8
レイヤー 1
 62
    18
420
        0
370
     9
100
AcDbLine
 10
109.4723302340156
 20
-156.9484231043304
 30
0.0
 11
99.47259743357481
 21
-156.9484231043304
 31
0.0
  0
LINE
  5
159
330
A6
100
AcDbEntity
  8
レイヤー 1
 62
    18
420
        0
370
     9
100
AcDbLine
 10
109.4323989365143
 20
-155.4884169935842
 30
0.0
 11
109.4323989365143
 21
-157.9485481040807
 31
0.0
  0
LINE
  5
15A
330
A6
100
AcDbEntity
  8
レイヤー 1
 62
    18
420
        0
370
     9
100
AcDbLine
 10
99.47259743357481
 20
-155.4884169935842
 30
0.0
 11
99.47259743357481
 21
-157.9485481040807
 31
0.0
  0
INSERT
  5
15C
330
A6
100
AcDbEntity
  8
レイヤー 1
100
AcDbBlockReference
  2
Block_13
 10
0.0
 20
0.0
 30
0.0
  0
ENDBLK
  5
A9
330
A6
100
AcDbEntity
  8
0
100
AcDbBlockEnd
  0
BLOCK
  5
113
330
111
100
AcDbEntity
  8
0
100
AcDbBlockBegin
  2
Block_4
 70
     0
 10
0.0
 20
0.0
 30
0.0
  3
Block_4
  1

  0
INSERT
  5
116
330
111
100
AcDbEntity
  8
レイヤー 1
100
AcDbBlockReference
  2
Block_5
 10
0.0
 20
0.0
 30
0.0
  0
ENDBLK
  5
114
330
111
100
AcDbEntity
  8
0
100
AcDbBlockEnd
  0
BLOCK
  5
117
330
115
100
AcDbEntity
  8
0
100
AcDbBlockBegin
  2
Block_5
 70
     0
 10
0.0
 20
0.0
 30
0.0
  3
Block_5
  1

  0
SPLINE
  5
119
330
115
100
AcDbEntity
  8
レイヤー 1
100
AcDbSpline
210
0.0
220
0.0
230
1.0
 70
     9
 71
     3
 72
    17
 73
    13
 74
     0
 42
0.0000000001
 43
0.0000000001
 40
0.0
 40
0.0
 40
0.0
 40
0.0
 40
1.0
 40
1.0
 40
1.0
 40
2.0
 40
2.0
 40
2.0
 40
3.0
 40
3.0
 40
3.0
 40
4.0
 40
4.0
 40
4.0
 40
4.0
 10
74.36359183253758
 20
-148.1349717511607
 30
0.0
 10
74.36359183253758
 20
-148.3847411738413
 30
0.0
 10
74.64695093619937
 20
-148.4312499628922
 30
0.0
 10
74.99180499427288
 20
-148.4312499628922
 30
0.0
 10
75.31133760052981
 20
-148.4312499628922
 30
0.0
 10
75.62019041078245
 20
-148.3950764602971
 30
0.0
 10
75.62019041078245
 20
-148.1349717511607
 30
0.0
 10
75.62019041078245
 20
-147.8872693857712
 30
0.0
 10
75.33872610963754
 20
-147.8386935394292
 30
0.0
 10
74.99180499427288
 20
-147.8386935394292
 30
0.0
 10
74.67244464279023
 20
-147.8386935394292
 30
0.0
 10
74.36359183253758
 20
-147.8769340993155
 30
0.0
 10
74.36359183253758
 20
-148.1349717511607
 30
0.0
  0
SPLINE
  5
11A
330
115
100
AcDbEntity
  8
レイヤー 1
100
AcDbSpline
210
0.0
220
0.0
230
1.0
 70
     9
 71
     3
 72
    29
 73
    25
 74
     0
 42
0.0000000001
 43
0.0000000001
 40
0.0
 40
0.0
 40
0.0
 40
0.0
 40
1.0
 40
1.0
 40
1.0
 40
2.0
 40
2.0
 40
2.0
 40
3.0
 40
3.0
 40
3.0
 40
4.0
 40
4.0
 40
4.0
 40
5.0
 40
5.0
 40
5.0
 40
6.0
 40
6.0
 40
6.0
 40
7.0
 40
7.0
 40
7.0
 40
8.0
 40
8.0
 40
8.0
 40
8.0
 10
75.58625622025274
 20
-147.7370632226143
 30
0.0
 10
75.79571802575593
 20
-147.8452392208512
 30
0.0
 10
75.81483830569907
 20
-148.0185275237593
 30
0.0
 10
75.81483830569907
 20
-148.1349717511607
 30
0.0
 10
75.81483830569907
 20
-148.2958577103218
 30
0.0
 10
75.76832951664819
 20
-148.4374511347656
 30
0.0
 10
75.58625622025274
 20
-148.5325357701585
 30
0.0
 10
75.39178058011039
 20
-148.6362331442645
 30
0.0
 10
75.1547580107252
 20
-148.6555256789819
 30
0.0
 10
74.99180499427288
 20
-148.6555256789819
 30
0.0
 10
74.8479722577637
 20
-148.6555256789819
 30
0.0
 10
74.5963080325662
 20
-148.6383002015557
 30
0.0
 10
74.39735376829303
 20
-148.5325357701585
 30
0.0
 10
74.19426538943755
 20
-148.4247042814702
 30
0.0
 10
74.17101099491211
 20
-148.263818322309
 30
0.0
 10
74.17101099491211
 20
-148.1349717511607
 30
0.0
 10
74.17101099491211
 20
-147.9761528492907
 30
0.0
 10
74.21545272667183
 20
-147.8324923675558
 30
0.0
 10
74.39735376829303
 20
-147.7370632226143
 30
0.0
 10
74.58993460591848
 20
-147.6378444726391
 30
0.0
 10
74.81834443659055
 20
-147.6144178233394
 30
0.0
 10
74.99180499427288
 20
-147.6144178233394
 30
0.0
 10
75.16319849466405
 20
-147.6144178233394
 30
0.0
 10
75.39384763740153
 20
-147.635777415348
 30
0.0
 10
75.58625622025274
 20
-147.7370632226143
 30
0.0
  0
HATCH
  5
11B
330
115
100
AcDbEntity
  8
レイヤー 1
 62
   250
420
  2299925
440
 33554687
100
AcDbHatch
 10
0.0
 20
0.0
 30
0.0
210
0.0
220
0.0
230
1.0
  2
SOLID
 70
     1
 71
     1
 91
        2
 92
        1
 93
        1
 72
     4
 94
        3
 73
     0
 74
     0
 95
       17
 96
       13
 40
0.0
 40
0.0
 40
0.0
 40
0.0
 40
1.0
 40
1.0
 40
1.0
 40
2.0
 40
2.0
 40
2.0
 40
3.0
 40
3.0
 40
3.0
 40
4.0
 40
4.0
 40
4.0
 40
4.0
 10
74.36359183253758
 20
-148.1349717511607
 10
74.36359183253758
 20
-148.3847411738413
 10
74.64695093619937
 20
-148.4312499628922
 10
74.99180499427288
 20
-148.4312499628922
 10
75.31133760052981
 20
-148.4312499628922
 10
75.62019041078245
 20
-148.3950764602971
 10
75.62019041078245
 20
-148.1349717511607
 10
75.62019041078245
 20
-147.8872693857712
 10
75.33872610963754
 20
-147.8386935394292
 10
74.99180499427288
 20
-147.8386935394292
 10
74.67244464279023
 20
-147.8386935394292
 10
74.36359183253758
 20
-147.8769340993155
 10
74.36359183253758
 20
-148.1349717511607
 97
        0
 97
        1
330
119
 92
        1
 93
        1
 72
     4
 94
        3
 73
     0
 74
     0
 95
       29
 96
       25
 40
0.0
 40
0.0
 40
0.0
 40
0.0
 40
1.0
 40
1.0
 40
1.0
 40
2.0
 40
2.0
 40
2.0
 40
3.0
 40
3.0
 40
3.0
 40
4.0
 40
4.0
 40
4.0
 40
5.0
 40
5.0
 40
5.0
 40
6.0
 40
6.0
 40
6.0
 40
7.0
 40
7.0
 40
7.0
 40
8.0
 40
8.0
 40
8.0
 40
8.0
 10
75.58625622025274
 20
-147.7370632226143
 10
75.79571802575593
 20
-147.8452392208512
 10
75.81483830569907
 20
-148.0185275237593
 10
75.81483830569907
 20
-148.1349717511607
 10
75.81483830569907
 20
-148.2958577103218
 10
75.76832951664819
 20
-148.4374511347656
 10
75.58625622025274
 20
-148.5325357701585
 10
75.39178058011039
 20
-148.6362331442645
 10
75.1547580107252
 20
-148.6555256789819
 10
74.99180499427288
 20
-148.6555256789819
 10
74.8479722577637
 20
-148.6555256789819
 10
74.5963080325662
 20
-148.6383002015557
 10
74.39735376829303
 20
-148.5325357701585
 10
74.19426538943755
 20
-148.4247042814702
 10
74.17101099491211
 20
-148.263818322309
 10
74.17101099491211
 20
-148.1349717511607
 10
74.17101099491211
 20
-147.9761528492907
 10
74.21545272667183
 20
-147.8324923675558
 10
74.39735376829303
 20
-147.7370632226143
 10
74.58993460591848
 20
-147.6378444726391
 10
74.81834443659055
 20
-147.6144178233394
 10
74.99180499427288
 20
-147.6144178233394
 10
75.16319849466405
 20
-147.6144178233394
 10
75.39384763740153
 20
-147.635777415348
 10
75.58625622025274
 20
-147.7370632226143
 97
        0
 97
        1
330
11A
 75
     2
 76
     1
 98
        1
 10
0.0
 20
0.0
450
        0
451
        0
460
0.0
461
0.0
452
        0
462
0.0
453
        0
470

  0
SPLINE
  5
11C
330
115
100
AcDbEntity
  8
レイヤー 1
100
AcDbSpline
210
0.0
220
0.0
230
1.0
 70
    11
 71
     3
 72
    17
 73
    13
 74
     0
 42
0.0000000001
 43
0.0000000001
 40
0.0
 40
0.0
 40
0.0
 40
0.0
 40
1.0
 40
1.0
 40
1.0
 40
2.0
 40
2.0
 40
2.0
 40
3.0
 40
3.0
 40
3.0
 40
4.0
 40
4.0
 40
4.0
 40
4.0
 10
75.76402314729164
 20
-147.3980658268658
 30
0.0
 10
75.76402314729164
 20
-147.3980658268658
 30
0.0
 10
75.51235892209414
 20
-147.3980658268658
 30
0.0
 10
75.51235892209414
 20
-147.3980658268658
 30
0.0
 10
75.51235892209414
 20
-147.3980658268658
 30
0.0
 10
75.51235892209414
 20
-147.146229346894
 30
0.0
 10
75.51235892209414
 20
-147.146229346894
 30
0.0
 10
75.51235892209414
 20
-147.146229346894
 30
0.0
 10
75.76402314729164
 20
-147.146229346894
 30
0.0
 10
75.76402314729164
 20
-147.146229346894
 30
0.0
 10
75.76402314729164
 20
-147.146229346894
 30
0.0
 10
75.76402314729164
 20
-147.3980658268658
 30
0.0
 10
75.76402314729164
 20
-147.3980658268658
 30
0.0
  0
HATCH
  5
11D
330
115
100
AcDbEntity
  8
レイヤー 1
 62
   250
420
  2299925
440
 33554687
100
AcDbHatch
 10
0.0
 20
0.0
 30
0.0
210
0.0
220
0.0
230
1.0
  2
SOLID
 70
     1
 71
     1
 91
        1
 92
        1
 93
        1
 72
     4
 94
        3
 73
     0
 74
     0
 95
       17
 96
       13
 40
0.0
 40
0.0
 40
0.0
 40
0.0
 40
1.0
 40
1.0
 40
1.0
 40
2.0
 40
2.0
 40
2.0
 40
3.0
 40
3.0
 40
3.0
 40
4.0
 40
4.0
 40
4.0
 40
4.0
 10
75.76402314729164
 20
-147.3980658268658
 10
75.76402314729164
 20
-147.3980658268658
 10
75.51235892209414
 20
-147.3980658268658
 10
75.51235892209414
 20
-147.3980658268658
 10
75.51235892209414
 20
-147.3980658268658
 10
75.51235892209414
 20
-147.146229346894
 10
75.51235892209414
 20
-147.146229346894
 10
75.51235892209414
 20
-147.146229346894
 10
75.76402314729164
 20
-147.146229346894
 10
75.76402314729164
 20
-147.146229346894
 10
75.76402314729164
 20
-147.146229346894
 10
75.76402314729164
 20
-147.3980658268658
 10
75.76402314729164
 20
-147.3980658268658
 97
        0
 97
        1
330
11C
 75
     2
 76
     1
 98
        1
 10
0.0
 20
0.0
450
        0
451
        0
460
0.0
461
0.0
452
        0
462
0.0
453
        0
470

  0
SPLINE
  5
11E
330
115
100
AcDbEntity
  8
レイヤー 1
100
AcDbSpline
210
0.0
220
0.0
230
1.0
 70
     9
 71
     3
 72
    53
 73
    49
 74
     0
 42
0.0000000001
 43
0.0000000001
 40
0.0
 40
0.0
 40
0.0
 40
0.0
 40
1.0
 40
1.0
 40
1.0
 40
2.0
 40
2.0
 40
2.0
 40
3.0
 40
3.0
 40
3.0
 40
4.0
 40
4.0
 40
4.0
 40
5.0
 40
5.0
 40
5.0
 40
6.0
 40
6.0
 40
6.0
 40
7.0
 40
7.0
 40
7.0
 40
8.0
 40
8.0
 40
8.0
 40
9.0
 40
9.0
 40
9.0
 40
10.0
 40
10.0
 40
10.0
 40
11.0
 40
11.0
 40
11.0
 40
12.0
 40
12.0
 40
12.0
 40
13.0
 40
13.0
 40
13.0
 40
14.0
 40
14.0
 40
14.0
 40
15.0
 40
15.0
 40
15.0
 40
16.0
 40
16.0
 40
16.0
 40
16.0
 10
75.81483830569907
 20
-146.428960466865
 30
0.0
 10
75.81483830569907
 20
-146.5071641343801
 30
0.0
 10
75.79795733782134
 20
-146.608794451195
 30
0.0
 10
75.73439532611849
 20
-146.7104247680099
 30
0.0
 10
75.62432452536476
 20
-146.8837130709179
 30
0.0
 10
75.493238642151
 20
-146.9050726629265
 30
0.0
 10
75.38540715346268
 20
-146.9240206880954
 30
0.0
 10
75.38540715346268
 20
-146.9240206880954
 30
0.0
 10
75.38540715346268
 20
-146.7018120292967
 30
0.0
 10
75.38540715346268
 20
-146.7018120292967
 30
0.0
 10
75.58418916296159
 20
-146.6470350110813
 30
0.0
 10
75.61381698413474
 20
-146.5199109876756
 30
0.0
 10
75.61381698413474
 20
-146.4268934095738
 30
0.0
 10
75.61381698413474
 20
-146.2873670424212
 30
0.0
 10
75.51442597938528
 20
-146.1350938219732
 30
0.0
 10
75.28170977935666
 20
-146.1350938219732
 30
0.0
 10
75.0257391848026
 20
-146.1350938219732
 30
0.0
 10
74.95597600122628
 20
-146.3149278063032
 30
0.0
 10
74.95597600122628
 20
-146.4355061482869
 30
0.0
 10
74.95597600122628
 20
-146.4672010267513
 30
0.0
 10
74.95597600122628
 20
-146.608794451195
 30
0.0
 10
75.08499482714888
 20
-146.6976779147145
 30
0.0
 10
75.08499482714888
 20
-146.6976779147145
 30
0.0
 10
75.06587454720575
 20
-146.8733777844622
 30
0.0
 10
75.06587454720575
 20
-146.8733777844622
 30
0.0
 10
75.06587454720575
 20
-146.8733777844622
 30
0.0
 10
74.21975909602839
 20
-146.7527994424784
 30
0.0
 10
74.21975909602839
 20
-146.7527994424784
 30
0.0
 10
74.21975909602839
 20
-146.7527994424784
 30
0.0
 10
74.21975909602839
 20
-145.974207862812
 30
0.0
 10
74.21975909602839
 20
-145.974207862812
 30
0.0
 10
74.21975909602839
 20
-145.974207862812
 30
0.0
 10
74.41440699094501
 20
-145.974207862812
 30
0.0
 10
74.41440699094501
 20
-145.974207862812
 30
0.0
 10
74.41440699094501
 20
-145.974207862812
 30
0.0
 10
74.41440699094501
 20
-146.5898464260261
 30
0.0
 10
74.41440699094501
 20
-146.5898464260261
 30
0.0
 10
74.41440699094501
 20
-146.5898464260261
 30
0.0
 10
74.83746471653368
 20
-146.6553032402459
 30
0.0
 10
74.83746471653368
 20
-146.6553032402459
 30
0.0
 10
74.80353052600398
 20
-146.5939805406085
 30
0.0
 10
74.76339516360082
 20
-146.511642758511
 30
0.0
 10
74.76339516360082
 20
-146.3931314738184
 30
0.0
 10
74.76339516360082
 20
-146.1392279365554
 30
0.0
 10
74.94960257457858
 20
-145.9022053671703
 30
0.0
 10
75.26258949941352
 20
-145.9022053671703
 30
0.0
 10
75.58005504837929
 20
-145.9022053671703
 30
0.0
 10
75.81483830569907
 20
-146.12648108326
 30
0.0
 10
75.81483830569907
 20
-146.428960466865
 30
0.0
  0
HATCH
  5
11F
330
115
100
AcDbEntity
  8
レイヤー 1
 62
   250
420
  2299925
440
 33554687
100
AcDbHatch
 10
0.0
 20
0.0
 30
0.0
210
0.0
220
0.0
230
1.0
  2
SOLID
 70
     1
 71
     1
 91
        1
 92
        1
 93
        1
 72
     4
 94
        3
 73
     0
 74
     0
 95
       53
 96
       49
 40
0.0
 40
0.0
 40
0.0
 40
0.0
 40
1.0
 40
1.0
 40
1.0
 40
2.0
 40
2.0
 40
2.0
 40
3.0
 40
3.0
 40
3.0
 40
4.0
 40
4.0
 40
4.0
 40
5.0
 40
5.0
 40
5.0
 40
6.0
 40
6.0
 40
6.0
 40
7.0
 40
7.0
 40
7.0
 40
8.0
 40
8.0
 40
8.0
 40
9.0
 40
9.0
 40
9.0
 40
10.0
 40
10.0
 40
10.0
 40
11.0
 40
11.0
 40
11.0
 40
12.0
 40
12.0
 40
12.0
 40
13.0
 40
13.0
 40
13.0
 40
14.0
 40
14.0
 40
14.0
 40
15.0
 40
15.0
 40
15.0
 40
16.0
 40
16.0
 40
16.0
 40
16.0
 10
75.81483830569907
 20
-146.428960466865
 10
75.81483830569907
 20
-146.5071641343801
 10
75.79795733782134
 20
-146.608794451195
 10
75.73439532611849
 20
-146.7104247680099
 10
75.62432452536476
 20
-146.8837130709179
 10
75.493238642151
 20
-146.9050726629265
 10
75.38540715346268
 20
-146.9240206880954
 10
75.38540715346268
 20
-146.9240206880954
 10
75.38540715346268
 20
-146.7018120292967
 10
75.38540715346268
 20
-146.7018120292967
 10
75.58418916296159
 20
-146.6470350110813
 10
75.61381698413474
 20
-146.5199109876756
 10
75.61381698413474
 20
-146.4268934095738
 10
75.61381698413474
 20
-146.2873670424212
 10
75.51442597938528
 20
-146.1350938219732
 10
75.28170977935666
 20
-146.1350938219732
 10
75.0257391848026
 20
-146.1350938219732
 10
74.95597600122628
 20
-146.3149278063032
 10
74.95597600122628
 20
-146.4355061482869
 10
74.95597600122628
 20
-146.4672010267513
 10
74.95597600122628
 20
-146.608794451195
 10
75.08499482714888
 20
-146.6976779147145
 10
75.08499482714888
 20
-146.6976779147145
 10
75.06587454720575
 20
-146.8733777844622
 10
75.06587454720575
 20
-146.8733777844622
 10
75.06587454720575
 20
-146.8733777844622
 10
74.21975909602839
 20
-146.7527994424784
 10
74.21975909602839
 20
-146.7527994424784
 10
74.21975909602839
 20
-146.7527994424784
 10
74.21975909602839
 20
-145.974207862812
 10
74.21975909602839
 20
-145.974207862812
 10
74.21975909602839
 20
-145.974207862812
 10
74.41440699094501
 20
-145.974207862812
 10
74.41440699094501
 20
-145.974207862812
 10
74.41440699094501
 20
-145.974207862812
 10
74.41440699094501
 20
-146.5898464260261
 10
74.41440699094501
 20
-146.5898464260261
 10
74.41440699094501
 20
-146.5898464260261
 10
74.83746471653368
 20
-146.6553032402459
 10
74.83746471653368
 20
-146.6553032402459
 10
74.80353052600398
 20
-146.5939805406085
 10
74.76339516360082
 20
-146.511642758511
 10
74.76339516360082
 20
-146.3931314738184
 10
74.76339516360082
 20
-146.1392279365554
 10
74.94960257457858
 20
-145.9022053671703
 10
75.26258949941352
 20
-145.9022053671703
 10
75.58005504837929
 20
-145.9022053671703
 10
75.81483830569907
 20
-146.12648108326
 10
75.81483830569907
 20
-146.428960466865
 97
        0
 97
        1
330
11E
 75
     2
 76
     1
 98
        1
 10
0.0
 20
0.0
450
        0
451
        0
460
0.0
461
0.0
452
        0
462
0.0
453
        0
470

  0
ENDBLK
  5
118
330
115
100
AcDbEntity
  8
0
100
AcDbBlockEnd
  0
BLOCK
  5
124
330
122
100
AcDbEntity
  8
0
100
AcDbBlockBegin
  2
Block_6
 70
     0
 10
0.0
 20
0.0
 30
0.0
  3
Block_6
  1

  0
INSERT
  5
127
330
122
100
AcDbEntity
  8
レイヤー 1
100
AcDbBlockReference
  2
Block_7
 10
0.0
 20
0.0
 30
0.0
  0
ENDBLK
  5
125
330
122
100
AcDbEntity
  8
0
100
AcDbBlockEnd
  0
BLOCK
  5
128
330
126
100
AcDbEntity
  8
0
100
AcDbBlockBegin
  2
Block_7
 70
     0
 10
0.0
 20
0.0
 30
0.0
  3
Block_7
  1

  0
SPLINE
  5
12A
330
126
100
AcDbEntity
  8
レイヤー 1
100
AcDbSpline
210
0.0
220
0.0
230
1.0
 70
     9
 71
     3
 72
    44
 73
    40
 74
     0
 42
0.0000000001
 43
0.0000000001
 40
0.0
 40
0.0
 40
0.0
 40
0.0
 40
1.0
 40
1.0
 40
1.0
 40
2.0
 40
2.0
 40
2.0
 40
3.0
 40
3.0
 40
3.0
 40
4.0
 40
4.0
 40
4.0
 40
5.0
 40
5.0
 40
5.0
 40
6.0
 40
6.0
 40
6.0
 40
7.0
 40
7.0
 40
7.0
 40
8.0
 40
8.0
 40
8.0
 40
9.0
 40
9.0
 40
9.0
 40
10.0
 40
10.0
 40
10.0
 40
11.0
 40
11.0
 40
11.0
 40
12.0
 40
12.0
 40
12.0
 40
13.0
 40
13.0
 40
13.0
 40
13.0
 10
89.2734483283761
 20
-140.9226643527901
 30
0.0
 10
89.05554603893405
 20
-141.0813109998859
 30
0.0
 10
88.96235620605803
 20
-141.1553805528188
 30
0.0
 10
88.913780359716
 20
-141.2992132893279
 30
0.0
 10
88.913780359716
 20
-141.2992132893279
 30
0.0
 10
89.69219968460819
 20
-141.2992132893279
 30
0.0
 10
89.69219968460819
 20
-141.2992132893279
 30
0.0
 10
89.69219968460819
 20
-141.2992132893279
 30
0.0
 10
89.69219968460819
 20
-141.5043687254746
 30
0.0
 10
89.69219968460819
 20
-141.5043687254746
 30
0.0
 10
89.69219968460819
 20
-141.5043687254746
 30
0.0
 10
88.66418319180965
 20
-141.5043687254746
 30
0.0
 10
88.66418319180965
 20
-141.5043687254746
 30
0.0
 10
88.69587807027395
 20
-141.1467678141057
 30
0.0
 10
88.76150713926795
 20
-141.0685641465905
 30
0.0
 10
89.14649655974463
 20
-140.7702188775678
 30
0.0
 10
89.4024671542987
 20
-140.5714368680689
 30
0.0
 10
89.46792396851844
 20
-140.5037407417838
 30
0.0
 10
89.46792396851844
 20
-140.3662814319223
 30
0.0
 10
89.46792396851844
 20
-140.2477701472297
 30
0.0
 10
89.39609372765097
 20
-140.1165120092417
 30
0.0
 10
89.19937877544322
 20
-140.1165120092417
 30
0.0
 10
88.93910181153259
 20
-140.1165120092417
 30
0.0
 10
88.93066132759372
 20
-140.3471611519792
 30
0.0
 10
88.92635495823716
 20
-140.4636053793806
 30
0.0
 10
88.92635495823716
 20
-140.4636053793806
 30
0.0
 10
88.70225149692165
 20
-140.4636053793806
 30
0.0
 10
88.70225149692165
 20
-140.4636053793806
 30
0.0
 10
88.71069198086052
 20
-140.3366536107492
 30
0.0
 10
88.72119952209054
 20
-140.2245157527043
 30
0.0
 10
88.80164250167112
 20
-140.1060044680117
 30
0.0
 10
88.91154104765059
 20
-139.9452907636248
 30
0.0
 10
89.09774845862834
 20
-139.9113565730951
 30
0.0
 10
89.2141926860298
 20
-139.9113565730951
 30
0.0
 10
89.49135061781815
 20
-139.9113565730951
 30
0.0
 10
89.69857311125592
 20
-140.0954969267817
 30
0.0
 10
89.69857311125592
 20
-140.3683484892134
 30
0.0
 10
89.69857311125592
 20
-140.5967583198855
 30
0.0
 10
89.58230113862873
 20
-140.6963215794093
 30
0.0
 10
89.2734483283761
 20
-140.9226643527901
 30
0.0
  0
HATCH
  5
12B
330
126
100
AcDbEntity
  8
レイヤー 1
 62
   250
420
  2299925
440
 33554687
100
AcDbHatch
 10
0.0
 20
0.0
 30
0.0
210
0.0
220
0.0
230
1.0
  2
SOLID
 70
     1
 71
     1
 91
        1
 92
        1
 93
        1
 72
     4
 94
        3
 73
     0
 74
     0
 95
       44
 96
       40
 40
0.0
 40
0.0
 40
0.0
 40
0.0
 40
1.0
 40
1.0
 40
1.0
 40
2.0
 40
2.0
 40
2.0
 40
3.0
 40
3.0
 40
3.0
 40
4.0
 40
4.0
 40
4.0
 40
5.0
 40
5.0
 40
5.0
 40
6.0
 40
6.0
 40
6.0
 40
7.0
 40
7.0
 40
7.0
 40
8.0
 40
8.0
 40
8.0
 40
9.0
 40
9.0
 40
9.0
 40
10.0
 40
10.0
 40
10.0
 40
11.0
 40
11.0
 40
11.0
 40
12.0
 40
12.0
 40
12.0
 40
13.0
 40
13.0
 40
13.0
 40
13.0
 10
89.2734483283761
 20
-140.9226643527901
 10
89.05554603893405
 20
-141.0813109998859
 10
88.96235620605803
 20
-141.1553805528188
 10
88.913780359716
 20
-141.2992132893279
 10
88.913780359716
 20
-141.2992132893279
 10
89.69219968460819
 20
-141.2992132893279
 10
89.69219968460819
 20
-141.2992132893279
 10
89.69219968460819
 20
-141.2992132893279
 10
89.69219968460819
 20
-141.5043687254746
 10
89.69219968460819
 20
-141.5043687254746
 10
89.69219968460819
 20
-141.5043687254746
 10
88.66418319180965
 20
-141.5043687254746
 10
88.66418319180965
 20
-141.5043687254746
 10
88.69587807027395
 20
-141.1467678141057
 10
88.76150713926795
 20
-141.0685641465905
 10
89.14649655974463
 20
-140.7702188775678
 10
89.4024671542987
 20
-140.5714368680689
 10
89.46792396851844
 20
-140.5037407417838
 10
89.46792396851844
 20
-140.3662814319223
 10
89.46792396851844
 20
-140.2477701472297
 10
89.39609372765097
 20
-140.1165120092417
 10
89.19937877544322
 20
-140.1165120092417
 10
88.93910181153259
 20
-140.1165120092417
 10
88.93066132759372
 20
-140.3471611519792
 10
88.92635495823716
 20
-140.4636053793806
 10
88.92635495823716
 20
-140.4636053793806
 10
88.70225149692165
 20
-140.4636053793806
 10
88.70225149692165
 20
-140.4636053793806
 10
88.71069198086052
 20
-140.3366536107492
 10
88.72119952209054
 20
-140.2245157527043
 10
88.80164250167112
 20
-140.1060044680117
 10
88.91154104765059
 20
-139.9452907636248
 10
89.09774845862834
 20
-139.9113565730951
 10
89.2141926860298
 20
-139.9113565730951
 10
89.49135061781815
 20
-139.9113565730951
 10
89.69857311125592
 20
-140.0954969267817
 10
89.69857311125592
 20
-140.3683484892134
 10
89.69857311125592
 20
-140.5967583198855
 10
89.58230113862873
 20
-140.6963215794093
 10
89.2734483283761
 20
-140.9226643527901
 97
        0
 97
        1
330
12A
 75
     2
 76
     1
 98
        1
 10
0.0
 20
0.0
450
        0
451
        0
460
0.0
461
0.0
452
        0
462
0.0
453
        0
470

  0
SPLINE
  5
12C
330
126
100
AcDbEntity
  8
レイヤー 1
100
AcDbSpline
210
0.0
220
0.0
230
1.0
 70
    11
 71
     3
 72
    26
 73
    22
 74
     0
 42
0.0000000001
 43
0.0000000001
 40
0.0
 40
0.0
 40
0.0
 40
0.0
 40
1.0
 40
1.0
 40
1.0
 40
2.0
 40
2.0
 40
2.0
 40
3.0
 40
3.0
 40
3.0
 40
4.0
 40
4.0
 40
4.0
 40
5.0
 40
5.0
 40
5.0
 40
6.0
 40
6.0
 40
6.0
 40
7.0
 40
7.0
 40
7.0
 40
7.0
 10
90.30852726691939
 20
-141.5043687254746
 30
0.0
 10
90.30852726691939
 20
-141.5043687254746
 30
0.0
 10
90.30852726691939
 20
-140.4000433676777
 30
0.0
 10
90.30852726691939
 20
-140.4000433676777
 30
0.0
 10
90.30852726691939
 20
-140.4000433676777
 30
0.0
 10
89.97848711943246
 20
-140.4000433676777
 30
0.0
 10
89.97848711943246
 20
-140.4000433676777
 30
0.0
 10
89.97848711943246
 20
-140.4000433676777
 30
0.0
 10
89.97848711943246
 20
-140.251904261812
 30
0.0
 10
89.97848711943246
 20
-140.251904261812
 30
0.0
 10
90.31059432421056
 20
-140.2372626059997
 30
0.0
 10
90.35710311326141
 20
-140.0743095895474
 30
0.0
 10
90.38673093443456
 20
-139.9601046742114
 30
0.0
 10
90.38673093443456
 20
-139.9601046742114
 30
0.0
 10
90.53280298300917
 20
-139.9601046742114
 30
0.0
 10
90.53280298300917
 20
-139.9601046742114
 30
0.0
 10
90.53280298300917
 20
-139.9601046742114
 30
0.0
 10
90.53280298300917
 20
-141.5043687254746
 30
0.0
 10
90.53280298300917
 20
-141.5043687254746
 30
0.0
 10
90.53280298300917
 20
-141.5043687254746
 30
0.0
 10
90.30852726691939
 20
-141.5043687254746
 30
0.0
 10
90.30852726691939
 20
-141.5043687254746
 30
0.0
  0
HATCH
  5
12D
330
126
100
AcDbEntity
  8
レイヤー 1
 62
   250
420
  2299925
440
 33554687
100
AcDbHatch
 10
0.0
 20
0.0
 30
0.0
210
0.0
220
0.0
230
1.0
  2
SOLID
 70
     1
 71
     1
 91
        1
 92
        1
 93
        1
 72
     4
 94
        3
 73
     0
 74
     0
 95
       26
 96
       22
 40
0.0
 40
0.0
 40
0.0
 40
0.0
 40
1.0
 40
1.0
 40
1.0
 40
2.0
 40
2.0
 40
2.0
 40
3.0
 40
3.0
 40
3.0
 40
4.0
 40
4.0
 40
4.0
 40
5.0
 40
5.0
 40
5.0
 40
6.0
 40
6.0
 40
6.0
 40
7.0
 40
7.0
 40
7.0
 40
7.0
 10
90.30852726691939
 20
-141.5043687254746
 10
90.30852726691939
 20
-141.5043687254746
 10
90.30852726691939
 20
-140.4000433676777
 10
90.30852726691939
 20
-140.4000433676777
 10
90.30852726691939
 20
-140.4000433676777
 10
89.97848711943246
 20
-140.4000433676777
 10
89.97848711943246
 20
-140.4000433676777
 10
89.97848711943246
 20
-140.4000433676777
 10
89.97848711943246
 20
-140.251904261812
 10
89.97848711943246
 20
-140.251904261812
 10
90.31059432421056
 20
-140.2372626059997
 10
90.35710311326141
 20
-140.0743095895474
 10
90.38673093443456
 20
-139.9601046742114
 10
90.38673093443456
 20
-139.9601046742114
 10
90.53280298300917
 20
-139.9601046742114
 10
90.53280298300917
 20
-139.9601046742114
 10
90.53280298300917
 20
-139.9601046742114
 10
90.53280298300917
 20
-141.5043687254746
 10
90.53280298300917
 20
-141.5043687254746
 10
90.53280298300917
 20
-141.5043687254746
 10
90.30852726691939
 20
-141.5043687254746
 10
90.30852726691939
 20
-141.5043687254746
 97
        0
 97
        1
330
12C
 75
     2
 76
     1
 98
        1
 10
0.0
 20
0.0
450
        0
451
        0
460
0.0
461
0.0
452
        0
462
0.0
453
        0
470

  0
ENDBLK
  5
129
330
126
100
AcDbEntity
  8
0
100
AcDbBlockEnd
  0
BLOCK
  5
132
330
130
100
AcDbEntity
  8
0
100
AcDbBlockBegin
  2
Block_8
 70
     0
 10
0.0
 20
0.0
 30
0.0
  3
Block_8
  1

  0
SPLINE
  5
134
330
130
100
AcDbEntity
  8
レイヤー 1
100
AcDbSpline
210
0.0
220
0.0
230
1.0
 70
     9
 71
     3
 72
    53
 73
    49
 74
     0
 42
0.0000000001
 43
0.0000000001
 40
0.0
 40
0.0
 40
0.0
 40
0.0
 40
1.0
 40
1.0
 40
1.0
 40
2.0
 40
2.0
 40
2.0
 40
3.0
 40
3.0
 40
3.0
 40
4.0
 40
4.0
 40
4.0
 40
5.0
 40
5.0
 40
5.0
 40
6.0
 40
6.0
 40
6.0
 40
7.0
 40
7.0
 40
7.0
 40
8.0
 40
8.0
 40
8.0
 40
9.0
 40
9.0
 40
9.0
 40
10.0
 40
10.0
 40
10.0
 40
11.0
 40
11.0
 40
11.0
 40
12.0
 40
12.0
 40
12.0
 40
13.0
 40
13.0
 40
13.0
 40
14.0
 40
14.0
 40
14.0
 40
15.0
 40
15.0
 40
15.0
 40
16.0
 40
16.0
 40
16.0
 40
16.0
 10
76.54554305812055
 20
-150.7914848798368
 30
0.0
 10
76.54554305812055
 20
-150.869688547352
 30
0.0
 10
76.52866209024283
 20
-150.9713188641669
 30
0.0
 10
76.46510007853997
 20
-151.0729491809818
 30
0.0
 10
76.35502927778624
 20
-151.2462374838898
 30
0.0
 10
76.22394339457248
 20
-151.2675970758984
 30
0.0
 10
76.11611190588416
 20
-151.2865451010672
 30
0.0
 10
76.11611190588416
 20
-151.2865451010672
 30
0.0
 10
76.11611190588416
 20
-151.0643364422686
 30
0.0
 10
76.11611190588416
 20
-151.0643364422686
 30
0.0
 10
76.31489391538308
 20
-151.0095594240532
 30
0.0
 10
76.34452173655623
 20
-150.8824354006474
 30
0.0
 10
76.34452173655623
 20
-150.7894178225457
 30
0.0
 10
76.34452173655623
 20
-150.6498914553931
 30
0.0
 10
76.24513073180678
 20
-150.497618234945
 30
0.0
 10
76.01241453177815
 20
-150.497618234945
 30
0.0
 10
75.75644393722409
 20
-150.497618234945
 30
0.0
 10
75.68668075364778
 20
-150.6774522192751
 30
0.0
 10
75.68668075364778
 20
-150.7980305612588
 30
0.0
 10
75.68668075364778
 20
-150.8297254397231
 30
0.0
 10
75.68668075364778
 20
-150.9713188641669
 30
0.0
 10
75.81569957957038
 20
-151.0602023276863
 30
0.0
 10
75.81569957957038
 20
-151.0602023276863
 30
0.0
 10
75.79657929962725
 20
-151.2359021974341
 30
0.0
 10
75.79657929962725
 20
-151.2359021974341
 30
0.0
 10
75.79657929962725
 20
-151.2359021974341
 30
0.0
 10
74.95046384844989
 20
-151.1153238554503
 30
0.0
 10
74.95046384844989
 20
-151.1153238554503
 30
0.0
 10
74.95046384844989
 20
-151.1153238554503
 30
0.0
 10
74.95046384844989
 20
-150.3367322757839
 30
0.0
 10
74.95046384844989
 20
-150.3367322757839
 30
0.0
 10
74.95046384844989
 20
-150.3367322757839
 30
0.0
 10
75.1451117433665
 20
-150.3367322757839
 30
0.0
 10
75.1451117433665
 20
-150.3367322757839
 30
0.0
 10
75.1451117433665
 20
-150.3367322757839
 30
0.0
 10
75.1451117433665
 20
-150.952370838998
 30
0.0
 10
75.1451117433665
 20
-150.952370838998
 30
0.0
 10
75.1451117433665
 20
-150.952370838998
 30
0.0
 10
75.56816946895519
 20
-151.0178276532178
 30
0.0
 10
75.56816946895519
 20
-151.0178276532178
 30
0.0
 10
75.53423527842547
 20
-150.9565049535803
 30
0.0
 10
75.49409991602231
 20
-150.8741671714829
 30
0.0
 10
75.49409991602231
 20
-150.7556558867903
 30
0.0
 10
75.49409991602231
 20
-150.5017523495273
 30
0.0
 10
75.68030732700006
 20
-150.2647297801421
 30
0.0
 10
75.99329425183501
 20
-150.2647297801421
 30
0.0
 10
76.31075980080078
 20
-150.2647297801421
 30
0.0
 10
76.54554305812055
 20
-150.4890054962319
 30
0.0
 10
76.54554305812055
 20
-150.7914848798368
 30
0.0
  0
HATCH
  5
135
330
130
100
AcDbEntity
  8
レイヤー 1
 62
   250
420
  2299925
440
 33554687
100
AcDbHatch
 10
0.0
 20
0.0
 30
0.0
210
0.0
220
0.0
230
1.0
  2
SOLID
 70
     1
 71
     1
 91
        1
 92
        1
 93
        1
 72
     4
 94
        3
 73
     0
 74
     0
 95
       53
 96
       49
 40
0.0
 40
0.0
 40
0.0
 40
0.0
 40
1.0
 40
1.0
 40
1.0
 40
2.0
 40
2.0
 40
2.0
 40
3.0
 40
3.0
 40
3.0
 40
4.0
 40
4.0
 40
4.0
 40
5.0
 40
5.0
 40
5.0
 40
6.0
 40
6.0
 40
6.0
 40
7.0
 40
7.0
 40
7.0
 40
8.0
 40
8.0
 40
8.0
 40
9.0
 40
9.0
 40
9.0
 40
10.0
 40
10.0
 40
10.0
 40
11.0
 40
11.0
 40
11.0
 40
12.0
 40
12.0
 40
12.0
 40
13.0
 40
13.0
 40
13.0
 40
14.0
 40
14.0
 40
14.0
 40
15.0
 40
15.0
 40
15.0
 40
16.0
 40
16.0
 40
16.0
 40
16.0
 10
76.54554305812055
 20
-150.7914848798368
 10
76.54554305812055
 20
-150.869688547352
 10
76.52866209024283
 20
-150.9713188641669
 10
76.46510007853997
 20
-151.0729491809818
 10
76.35502927778624
 20
-151.2462374838898
 10
76.22394339457248
 20
-151.2675970758984
 10
76.11611190588416
 20
-151.2865451010672
 10
76.11611190588416
 20
-151.2865451010672
 10
76.11611190588416
 20
-151.0643364422686
 10
76.11611190588416
 20
-151.0643364422686
 10
76.31489391538308
 20
-151.0095594240532
 10
76.34452173655623
 20
-150.8824354006474
 10
76.34452173655623
 20
-150.7894178225457
 10
76.34452173655623
 20
-150.6498914553931
 10
76.24513073180678
 20
-150.497618234945
 10
76.01241453177815
 20
-150.497618234945
 10
75.75644393722409
 20
-150.497618234945
 10
75.68668075364778
 20
-150.6774522192751
 10
75.68668075364778
 20
-150.7980305612588
 10
75.68668075364778
 20
-150.8297254397231
 10
75.68668075364778
 20
-150.9713188641669
 10
75.81569957957038
 20
-151.0602023276863
 10
75.81569957957038
 20
-151.0602023276863
 10
75.79657929962725
 20
-151.2359021974341
 10
75.79657929962725
 20
-151.2359021974341
 10
75.79657929962725
 20
-151.2359021974341
 10
74.95046384844989
 20
-151.1153238554503
 10
74.95046384844989
 20
-151.1153238554503
 10
74.95046384844989
 20
-151.1153238554503
 10
74.95046384844989
 20
-150.3367322757839
 10
74.95046384844989
 20
-150.3367322757839
 10
74.95046384844989
 20
-150.3367322757839
 10
75.1451117433665
 20
-150.3367322757839
 10
75.1451117433665
 20
-150.3367322757839
 10
75.1451117433665
 20
-150.3367322757839
 10
75.1451117433665
 20
-150.952370838998
 10
75.1451117433665
 20
-150.952370838998
 10
75.1451117433665
 20
-150.952370838998
 10
75.56816946895519
 20
-151.0178276532178
 10
75.56816946895519
 20
-151.0178276532178
 10
75.53423527842547
 20
-150.9565049535803
 10
75.49409991602231
 20
-150.8741671714829
 10
75.49409991602231
 20
-150.7556558867903
 10
75.49409991602231
 20
-150.5017523495273
 10
75.68030732700006
 20
-150.2647297801421
 10
75.99329425183501
 20
-150.2647297801421
 10
76.31075980080078
 20
-150.2647297801421
 10
76.54554305812055
 20
-150.4890054962319
 10
76.54554305812055
 20
-150.7914848798368
 97
        0
 97
        1
330
134
 75
     2
 76
     1
 98
        1
 10
0.0
 20
0.0
450
        0
451
        0
460
0.0
461
0.0
452
        0
462
0.0
453
        0
470

  0
ENDBLK
  5
133
330
130
100
AcDbEntity
  8
0
100
AcDbBlockEnd
  0
BLOCK
  5
13A
330
138
100
AcDbEntity
  8
0
100
AcDbBlockBegin
  2
Block_9
 70
     0
 10
0.0
 20
0.0
 30
0.0
  3
Block_9
  1

  0
INSERT
  5
13D
330
138
100
AcDbEntity
  8
レイヤー 1
100
AcDbBlockReference
  2
Block_10
 10
0.0
 20
0.0
 30
0.0
  0
ENDBLK
  5
13B
330
138
100
AcDbEntity
  8
0
100
AcDbBlockEnd
  0
BLOCK
  5
13E
330
13C
100
AcDbEntity
  8
0
100
AcDbBlockBegin
  2
Block_10
 70
     0
 10
0.0
 20
0.0
 30
0.0
  3
Block_10
  1

  0
SPLINE
  5
140
330
13C
100
AcDbEntity
  8
レイヤー 1
100
AcDbSpline
210
0.0
220
0.0
230
1.0
 70
     9
 71
     3
 72
    44
 73
    40
 74
     0
 42
0.0000000001
 43
0.0000000001
 40
0.0
 40
0.0
 40
0.0
 40
0.0
 40
1.0
 40
1.0
 40
1.0
 40
2.0
 40
2.0
 40
2.0
 40
3.0
 40
3.0
 40
3.0
 40
4.0
 40
4.0
 40
4.0
 40
5.0
 40
5.0
 40
5.0
 40
6.0
 40
6.0
 40
6.0
 40
7.0
 40
7.0
 40
7.0
 40
8.0
 40
8.0
 40
8.0
 40
9.0
 40
9.0
 40
9.0
 40
10.0
 40
10.0
 40
10.0
 40
11.0
 40
11.0
 40
11.0
 40
12.0
 40
12.0
 40
12.0
 40
13.0
 40
13.0
 40
13.0
 40
13.0
 10
120.2744845619452
 20
-140.9226643527901
 30
0.0
 10
120.0567545272775
 20
-141.0813109998859
 30
0.0
 10
119.9637369491757
 20
-141.1553805528188
 30
0.0
 10
119.9148165932852
 20
-141.2992132893279
 30
0.0
 10
119.9148165932852
 20
-141.2992132893279
 30
0.0
 10
120.6934081729516
 20
-141.2992132893279
 30
0.0
 10
120.6934081729516
 20
-141.2992132893279
 30
0.0
 10
120.6934081729516
 20
-141.2992132893279
 30
0.0
 10
120.6934081729516
 20
-141.5043687254746
 30
0.0
 10
120.6934081729516
 20
-141.5043687254746
 30
0.0
 10
120.6934081729516
 20
-141.5043687254746
 30
0.0
 10
119.6653916801531
 20
-141.5043687254746
 30
0.0
 10
119.6653916801531
 20
-141.5043687254746
 30
0.0
 10
119.6970865586174
 20
-141.1467678141057
 30
0.0
 10
119.7625433728371
 20
-141.0685641465905
 30
0.0
 10
120.1477050480881
 20
-140.7702188775678
 30
0.0
 10
120.4036756426421
 20
-140.5714368680689
 30
0.0
 10
120.4691324568619
 20
-140.5037407417838
 30
0.0
 10
120.4691324568619
 20
-140.3662814319223
 30
0.0
 10
120.4691324568619
 20
-140.2477701472297
 30
0.0
 10
120.3971299612202
 20
-140.1165120092417
 30
0.0
 10
120.2004150090124
 20
-140.1165120092417
 30
0.0
 10
119.940310299876
 20
-140.1165120092417
 30
0.0
 10
119.9320420707114
 20
-140.3471611519792
 30
0.0
 10
119.9275634465806
 20
-140.4636053793806
 30
0.0
 10
119.9275634465806
 20
-140.4636053793806
 30
0.0
 10
119.7032877304908
 20
-140.4636053793806
 30
0.0
 10
119.7032877304908
 20
-140.4636053793806
 30
0.0
 10
119.7119004692039
 20
-140.3366536107492
 30
0.0
 10
119.7225802652082
 20
-140.2245157527043
 30
0.0
 10
119.8028509900145
 20
-140.1060044680117
 30
0.0
 10
119.912749535994
 20
-139.9452907636248
 30
0.0
 10
120.099129201746
 20
-139.9113565730951
 30
0.0
 10
120.2152289195989
 20
-139.9113565730951
 30
0.0
 10
120.4925591061616
 20
-139.9113565730951
 30
0.0
 10
120.6999538543736
 20
-140.0954969267817
 30
0.0
 10
120.6999538543736
 20
-140.3683484892134
 30
0.0
 10
120.6999538543736
 20
-140.5967583198855
 30
0.0
 10
120.5835096269722
 20
-140.6963215794093
 30
0.0
 10
120.2744845619452
 20
-140.9226643527901
 30
0.0
  0
HATCH
  5
141
330
13C
100
AcDbEntity
  8
レイヤー 1
 62
   250
420
  2299925
440
 33554687
100
AcDbHatch
 10
0.0
 20
0.0
 30
0.0
210
0.0
220
0.0
230
1.0
  2
SOLID
 70
     1
 71
     1
 91
        1
 92
        1
 93
        1
 72
     4
 94
        3
 73
     0
 74
     0
 95
       44
 96
       40
 40
0.0
 40
0.0
 40
0.0
 40
0.0
 40
1.0
 40
1.0
 40
1.0
 40
2.0
 40
2.0
 40
2.0
 40
3.0
 40
3.0
 40
3.0
 40
4.0
 40
4.0
 40
4.0
 40
5.0
 40
5.0
 40
5.0
 40
6.0
 40
6.0
 40
6.0
 40
7.0
 40
7.0
 40
7.0
 40
8.0
 40
8.0
 40
8.0
 40
9.0
 40
9.0
 40
9.0
 40
10.0
 40
10.0
 40
10.0
 40
11.0
 40
11.0
 40
11.0
 40
12.0
 40
12.0
 40
12.0
 40
13.0
 40
13.0
 40
13.0
 40
13.0
 10
120.2744845619452
 20
-140.9226643527901
 10
120.0567545272775
 20
-141.0813109998859
 10
119.9637369491757
 20
-141.1553805528188
 10
119.9148165932852
 20
-141.2992132893279
 10
119.9148165932852
 20
-141.2992132893279
 10
120.6934081729516
 20
-141.2992132893279
 10
120.6934081729516
 20
-141.2992132893279
 10
120.6934081729516
 20
-141.2992132893279
 10
120.6934081729516
 20
-141.5043687254746
 10
120.6934081729516
 20
-141.5043687254746
 10
120.6934081729516
 20
-141.5043687254746
 10
119.6653916801531
 20
-141.5043687254746
 10
119.6653916801531
 20
-141.5043687254746
 10
119.6970865586174
 20
-141.1467678141057
 10
119.7625433728371
 20
-141.0685641465905
 10
120.1477050480881
 20
-140.7702188775678
 10
120.4036756426421
 20
-140.5714368680689
 10
120.4691324568619
 20
-140.5037407417838
 10
120.4691324568619
 20
-140.3662814319223
 10
120.4691324568619
 20
-140.2477701472297
 10
120.3971299612202
 20
-140.1165120092417
 10
120.2004150090124
 20
-140.1165120092417
 10
119.940310299876
 20
-140.1165120092417
 10
119.9320420707114
 20
-140.3471611519792
 10
119.9275634465806
 20
-140.4636053793806
 10
119.9275634465806
 20
-140.4636053793806
 10
119.7032877304908
 20
-140.4636053793806
 10
119.7032877304908
 20
-140.4636053793806
 10
119.7119004692039
 20
-140.3366536107492
 10
119.7225802652082
 20
-140.2245157527043
 10
119.8028509900145
 20
-140.1060044680117
 10
119.912749535994
 20
-139.9452907636248
 10
120.099129201746
 20
-139.9113565730951
 10
120.2152289195989
 20
-139.9113565730951
 10
120.4925591061616
 20
-139.9113565730951
 10
120.6999538543736
 20
-140.0954969267817
 10
120.6999538543736
 20
-140.3683484892134
 10
120.6999538543736
 20
-140.5967583198855
 10
120.5835096269722
 20
-140.6963215794093
 10
120.2744845619452
 20
-140.9226643527901
 97
        0
 97
        1
330
140
 75
     2
 76
     1
 98
        1
 10
0.0
 20
0.0
450
        0
451
        0
460
0.0
461
0.0
452
        0
462
0.0
453
        0
470

  0
SPLINE
  5
142
330
13C
100
AcDbEntity
  8
レイヤー 1
100
AcDbSpline
210
0.0
220
0.0
230
1.0
 70
    11
 71
     3
 72
    26
 73
    22
 74
     0
 42
0.0000000001
 43
0.0000000001
 40
0.0
 40
0.0
 40
0.0
 40
0.0
 40
1.0
 40
1.0
 40
1.0
 40
2.0
 40
2.0
 40
2.0
 40
3.0
 40
3.0
 40
3.0
 40
4.0
 40
4.0
 40
4.0
 40
5.0
 40
5.0
 40
5.0
 40
6.0
 40
6.0
 40
6.0
 40
7.0
 40
7.0
 40
7.0
 40
7.0
 10
121.3097357552628
 20
-141.5043687254746
 30
0.0
 10
121.3097357552628
 20
-141.5043687254746
 30
0.0
 10
121.3097357552628
 20
-140.4000433676777
 30
0.0
 10
121.3097357552628
 20
-140.4000433676777
 30
0.0
 10
121.3097357552628
 20
-140.4000433676777
 30
0.0
 10
120.9796956077759
 20
-140.4000433676777
 30
0.0
 10
120.9796956077759
 20
-140.4000433676777
 30
0.0
 10
120.9796956077759
 20
-140.4000433676777
 30
0.0
 10
120.9796956077759
 20
-140.251904261812
 30
0.0
 10
120.9796956077759
 20
-140.251904261812
 30
0.0
 10
121.311802812554
 20
-140.2372626059997
 30
0.0
 10
121.3583116016048
 20
-140.0743095895474
 30
0.0
 10
121.387939422778
 20
-139.9601046742114
 30
0.0
 10
121.387939422778
 20
-139.9601046742114
 30
0.0
 10
121.5340114713526
 20
-139.9601046742114
 30
0.0
 10
121.5340114713526
 20
-139.9601046742114
 30
0.0
 10
121.5340114713526
 20
-139.9601046742114
 30
0.0
 10
121.5340114713526
 20
-141.5043687254746
 30
0.0
 10
121.5340114713526
 20
-141.5043687254746
 30
0.0
 10
121.5340114713526
 20
-141.5043687254746
 30
0.0
 10
121.3097357552628
 20
-141.5043687254746
 30
0.0
 10
121.3097357552628
 20
-141.5043687254746
 30
0.0
  0
HATCH
  5
143
330
13C
100
AcDbEntity
  8
レイヤー 1
 62
   250
420
  2299925
440
 33554687
100
AcDbHatch
 10
0.0
 20
0.0
 30
0.0
210
0.0
220
0.0
230
1.0
  2
SOLID
 70
     1
 71
     1
 91
        1
 92
        1
 93
        1
 72
     4
 94
        3
 73
     0
 74
     0
 95
       26
 96
       22
 40
0.0
 40
0.0
 40
0.0
 40
0.0
 40
1.0
 40
1.0
 40
1.0
 40
2.0
 40
2.0
 40
2.0
 40
3.0
 40
3.0
 40
3.0
 40
4.0
 40
4.0
 40
4.0
 40
5.0
 40
5.0
 40
5.0
 40
6.0
 40
6.0
 40
6.0
 40
7.0
 40
7.0
 40
7.0
 40
7.0
 10
121.3097357552628
 20
-141.5043687254746
 10
121.3097357552628
 20
-141.5043687254746
 10
121.3097357552628
 20
-140.4000433676777
 10
121.3097357552628
 20
-140.4000433676777
 10
121.3097357552628
 20
-140.4000433676777
 10
120.9796956077759
 20
-140.4000433676777
 10
120.9796956077759
 20
-140.4000433676777
 10
120.9796956077759
 20
-140.4000433676777
 10
120.9796956077759
 20
-140.251904261812
 10
120.9796956077759
 20
-140.251904261812
 10
121.311802812554
 20
-140.2372626059997
 10
121.3583116016048
 20
-140.0743095895474
 10
121.387939422778
 20
-139.9601046742114
 10
121.387939422778
 20
-139.9601046742114
 10
121.5340114713526
 20
-139.9601046742114
 10
121.5340114713526
 20
-139.9601046742114
 10
121.5340114713526
 20
-139.9601046742114
 10
121.5340114713526
 20
-141.5043687254746
 10
121.5340114713526
 20
-141.5043687254746
 10
121.5340114713526
 20
-141.5043687254746
 10
121.3097357552628
 20
-141.5043687254746
 10
121.3097357552628
 20
-141.5043687254746
 97
        0
 97
        1
330
142
 75
     2
 76
     1
 98
        1
 10
0.0
 20
0.0
450
        0
451
        0
460
0.0
461
0.0
452
        0
462
0.0
453
        0
470

  0
ENDBLK
  5
13F
330
13C
100
AcDbEntity
  8
0
100
AcDbBlockEnd
  0
BLOCK
  5
149
330
147
100
AcDbEntity
  8
0
100
AcDbBlockBegin
  2
Block_11
 70
     0
 10
0.0
 20
0.0
 30
0.0
  3
Block_11
  1

  0
SPLINE
  5
14B
330
147
100
AcDbEntity
  8
レイヤー 1
100
AcDbSpline
210
0.0
220
0.0
230
1.0
 70
     9
 71
     3
 72
    17
 73
    13
 74
     0
 42
0.0000000001
 43
0.0000000001
 40
0.0
 40
0.0
 40
0.0
 40
0.0
 40
1.0
 40
1.0
 40
1.0
 40
2.0
 40
2.0
 40
2.0
 40
3.0
 40
3.0
 40
3.0
 40
4.0
 40
4.0
 40
4.0
 40
4.0
 10
104.2186170529384
 20
-140.1039374107205
 30
0.0
 10
104.0535969791949
 20
-140.1039374107205
 30
0.0
 10
103.9688476302578
 20
-140.1990220461134
 30
0.0
 10
103.9688476302578
 20
-140.3344142986837
 30
0.0
 10
103.9688476302578
 20
-140.4572319527329
 30
0.0
 10
104.0408501258995
 20
-140.5757432374255
 30
0.0
 10
104.2186170529384
 20
-140.5757432374255
 30
0.0
 10
104.3963839799773
 20
-140.5757432374255
 30
0.0
 10
104.468386475619
 20
-140.4572319527329
 30
0.0
 10
104.468386475619
 20
-140.3344142986837
 30
0.0
 10
104.468386475619
 20
-140.1990220461134
 30
0.0
 10
104.3815700693907
 20
-140.1039374107205
 30
0.0
 10
104.2186170529384
 20
-140.1039374107205
 30
0.0
  0
SPLINE
  5
14C
330
147
100
AcDbEntity
  8
レイヤー 1
100
AcDbSpline
210
0.0
220
0.0
230
1.0
 70
     9
 71
     3
 72
    17
 73
    13
 74
     0
 42
0.0000000001
 43
0.0000000001
 40
0.0
 40
0.0
 40
0.0
 40
0.0
 40
1.0
 40
1.0
 40
1.0
 40
2.0
 40
2.0
 40
2.0
 40
3.0
 40
3.0
 40
3.0
 40
4.0
 40
4.0
 40
4.0
 40
4.0
 10
104.2186170529384
 20
-140.7640177056944
 30
0.0
 10
104.0749565712035
 20
-140.7640177056944
 30
0.0
 10
103.9223388412069
 20
-140.8506618571484
 30
0.0
 10
103.9223388412069
 20
-141.0537502360039
 30
0.0
 10
103.9223388412069
 20
-141.2589056721505
 30
0.0
 10
104.0494628646126
 20
-141.3605359889654
 30
0.0
 10
104.2186170529384
 20
-141.3605359889654
 30
0.0
 10
104.4046522091419
 20
-141.3605359889654
 30
0.0
 10
104.5148952646699
 20
-141.2378905896905
 30
0.0
 10
104.5148952646699
 20
-141.0601236626516
 30
0.0
 10
104.5148952646699
 20
-140.837915003853
 30
0.0
 10
104.3519422482175
 20
-140.7640177056944
 30
0.0
 10
104.2186170529384
 20
-140.7640177056944
 30
0.0
  0
SPLINE
  5
14D
330
147
100
AcDbEntity
  8
レイヤー 1
100
AcDbSpline
210
0.0
220
0.0
230
1.0
 70
     9
 71
     3
 72
    29
 73
    25
 74
     0
 42
0.0000000001
 43
0.0000000001
 40
0.0
 40
0.0
 40
0.0
 40
0.0
 40
1.0
 40
1.0
 40
1.0
 40
2.0
 40
2.0
 40
2.0
 40
3.0
 40
3.0
 40
3.0
 40
4.0
 40
4.0
 40
4.0
 40
5.0
 40
5.0
 40
5.0
 40
6.0
 40
6.0
 40
6.0
 40
7.0
 40
7.0
 40
7.0
 40
8.0
 40
8.0
 40
8.0
 40
8.0
 10
104.2186170529384
 20
-141.555183883882
 30
0.0
 10
103.95196666238
 20
-141.555183883882
 30
0.0
 10
103.6980631251171
 20
-141.4175523192463
 30
0.0
 10
103.6980631251171
 20
-141.0685641465905
 30
0.0
 10
103.6980631251171
 20
-140.8125935520364
 30
0.0
 10
103.8400010591094
 20
-140.7173366618693
 30
0.0
 10
103.9457654905066
 20
-140.6560139622318
 30
0.0
 10
103.8210530339406
 20
-140.5967583198855
 30
0.0
 10
103.7449164237165
 20
-140.4825534045495
 30
0.0
 10
103.7449164237165
 20
-140.3218397001626
 30
0.0
 10
103.7449164237165
 20
-140.0467488256654
 30
0.0
 10
103.9436984332154
 20
-139.9113565730951
 30
0.0
 10
104.2186170529384
 20
-139.9113565730951
 30
0.0
 10
104.5021484113744
 20
-139.9113565730951
 30
0.0
 10
104.6926621917088
 20
-140.0551893096042
 30
0.0
 10
104.6926621917088
 20
-140.3218397001626
 30
0.0
 10
104.6926621917088
 20
-140.4825534045495
 30
0.0
 10
104.6141140146451
 20
-140.5967583198855
 30
0.0
 10
104.489401558079
 20
-140.6560139622318
 30
0.0
 10
104.5782850215985
 20
-140.7068291206392
 30
0.0
 10
104.7371039234685
 20
-140.8020860108064
 30
0.0
 10
104.7371039234685
 20
-141.0642577772339
 30
0.0
 10
104.7371039234685
 20
-141.4387396564806
 30
0.0
 10
104.4577066796147
 20
-141.555183883882
 30
0.0
 10
104.2186170529384
 20
-141.555183883882
 30
0.0
  0
HATCH
  5
14E
330
147
100
AcDbEntity
  8
レイヤー 1
 62
   250
420
  2299925
440
 33554687
100
AcDbHatch
 10
0.0
 20
0.0
 30
0.0
210
0.0
220
0.0
230
1.0
  2
SOLID
 70
     1
 71
     1
 91
        3
 92
        1
 93
        1
 72
     4
 94
        3
 73
     0
 74
     0
 95
       17
 96
       13
 40
0.0
 40
0.0
 40
0.0
 40
0.0
 40
1.0
 40
1.0
 40
1.0
 40
2.0
 40
2.0
 40
2.0
 40
3.0
 40
3.0
 40
3.0
 40
4.0
 40
4.0
 40
4.0
 40
4.0
 10
104.2186170529384
 20
-140.1039374107205
 10
104.0535969791949
 20
-140.1039374107205
 10
103.9688476302578
 20
-140.1990220461134
 10
103.9688476302578
 20
-140.3344142986837
 10
103.9688476302578
 20
-140.4572319527329
 10
104.0408501258995
 20
-140.5757432374255
 10
104.2186170529384
 20
-140.5757432374255
 10
104.3963839799773
 20
-140.5757432374255
 10
104.468386475619
 20
-140.4572319527329
 10
104.468386475619
 20
-140.3344142986837
 10
104.468386475619
 20
-140.1990220461134
 10
104.3815700693907
 20
-140.1039374107205
 10
104.2186170529384
 20
-140.1039374107205
 97
        0
 97
        1
330
14B
 92
        1
 93
        1
 72
     4
 94
        3
 73
     0
 74
     0
 95
       17
 96
       13
 40
0.0
 40
0.0
 40
0.0
 40
0.0
 40
1.0
 40
1.0
 40
1.0
 40
2.0
 40
2.0
 40
2.0
 40
3.0
 40
3.0
 40
3.0
 40
4.0
 40
4.0
 40
4.0
 40
4.0
 10
104.2186170529384
 20
-140.7640177056944
 10
104.0749565712035
 20
-140.7640177056944
 10
103.9223388412069
 20
-140.8506618571484
 10
103.9223388412069
 20
-141.0537502360039
 10
103.9223388412069
 20
-141.2589056721505
 10
104.0494628646126
 20
-141.3605359889654
 10
104.2186170529384
 20
-141.3605359889654
 10
104.4046522091419
 20
-141.3605359889654
 10
104.5148952646699
 20
-141.2378905896905
 10
104.5148952646699
 20
-141.0601236626516
 10
104.5148952646699
 20
-140.837915003853
 10
104.3519422482175
 20
-140.7640177056944
 10
104.2186170529384
 20
-140.7640177056944
 97
        0
 97
        1
330
14C
 92
        1
 93
        1
 72
     4
 94
        3
 73
     0
 74
     0
 95
       29
 96
       25
 40
0.0
 40
0.0
 40
0.0
 40
0.0
 40
1.0
 40
1.0
 40
1.0
 40
2.0
 40
2.0
 40
2.0
 40
3.0
 40
3.0
 40
3.0
 40
4.0
 40
4.0
 40
4.0
 40
5.0
 40
5.0
 40
5.0
 40
6.0
 40
6.0
 40
6.0
 40
7.0
 40
7.0
 40
7.0
 40
8.0
 40
8.0
 40
8.0
 40
8.0
 10
104.2186170529384
 20
-141.555183883882
 10
103.95196666238
 20
-141.555183883882
 10
103.6980631251171
 20
-141.4175523192463
 10
103.6980631251171
 20
-141.0685641465905
 10
103.6980631251171
 20
-140.8125935520364
 10
103.8400010591094
 20
-140.7173366618693
 10
103.9457654905066
 20
-140.6560139622318
 10
103.8210530339406
 20
-140.5967583198855
 10
103.7449164237165
 20
-140.4825534045495
 10
103.7449164237165
 20
-140.3218397001626
 10
103.7449164237165
 20
-140.0467488256654
 10
103.9436984332154
 20
-139.9113565730951
 10
104.2186170529384
 20
-139.9113565730951
 10
104.5021484113744
 20
-139.9113565730951
 10
104.6926621917088
 20
-140.0551893096042
 10
104.6926621917088
 20
-140.3218397001626
 10
104.6926621917088
 20
-140.4825534045495
 10
104.6141140146451
 20
-140.5967583198855
 10
104.489401558079
 20
-140.6560139622318
 10
104.5782850215985
 20
-140.7068291206392
 10
104.7371039234685
 20
-140.8020860108064
 10
104.7371039234685
 20
-141.0642577772339
 10
104.7371039234685
 20
-141.4387396564806
 10
104.4577066796147
 20
-141.555183883882
 10
104.2186170529384
 20
-141.555183883882
 97
        0
 97
        1
330
14D
 75
     2
 76
     1
 98
        1
 10
0.0
 20
0.0
450
        0
451
        0
460
0.0
461
0.0
452
        0
462
0.0
453
        0
470

  0
ENDBLK
  5
14A
330
147
100
AcDbEntity
  8
0
100
AcDbBlockEnd
  0
BLOCK
  5
152
330
150
100
AcDbEntity
  8
0
100
AcDbBlockBegin
  2
Block_12
 70
     0
 10
0.0
 20
0.0
 30
0.0
  3
Block_12
  1

  0
SPLINE
  5
154
330
150
100
AcDbEntity
  8
レイヤー 1
100
AcDbSpline
210
0.0
220
0.0
230
1.0
 70
    11
 71
     3
 72
    26
 73
    22
 74
     0
 42
0.0000000001
 43
0.0000000001
 40
0.0
 40
0.0
 40
0.0
 40
0.0
 40
1.0
 40
1.0
 40
1.0
 40
2.0
 40
2.0
 40
2.0
 40
3.0
 40
3.0
 40
3.0
 40
4.0
 40
4.0
 40
4.0
 40
5.0
 40
5.0
 40
5.0
 40
6.0
 40
6.0
 40
6.0
 40
7.0
 40
7.0
 40
7.0
 40
7.0
 10
111.929085258476
 20
-149.6673502229998
 30
0.0
 10
111.929085258476
 20
-149.6673502229998
 30
0.0
 10
111.929085258476
 20
-148.5628526104287
 30
0.0
 10
111.929085258476
 20
-148.5628526104287
 30
0.0
 10
111.929085258476
 20
-148.5628526104287
 30
0.0
 10
111.5990451109891
 20
-148.5628526104287
 30
0.0
 10
111.5990451109891
 20
-148.5628526104287
 30
0.0
 10
111.5990451109891
 20
-148.5628526104287
 30
0.0
 10
111.5990451109891
 20
-148.414713504563
 30
0.0
 10
111.5990451109891
 20
-148.414713504563
 30
0.0
 10
111.9311523157672
 20
-148.4000718487506
 30
0.0
 10
111.9776611048181
 20
-148.2371188322983
 30
0.0
 10
112.0072889259912
 20
-148.1229139169623
 30
0.0
 10
112.0072889259912
 20
-148.1229139169623
 30
0.0
 10
112.1533609745658
 20
-148.1229139169623
 30
0.0
 10
112.1533609745658
 20
-148.1229139169623
 30
0.0
 10
112.1533609745658
 20
-148.1229139169623
 30
0.0
 10
112.1533609745658
 20
-149.6673502229998
 30
0.0
 10
112.1533609745658
 20
-149.6673502229998
 30
0.0
 10
112.1533609745658
 20
-149.6673502229998
 30
0.0
 10
111.929085258476
 20
-149.6673502229998
 30
0.0
 10
111.929085258476
 20
-149.6673502229998
 30
0.0
  0
HATCH
  5
155
330
150
100
AcDbEntity
  8
レイヤー 1
 62
   250
420
  2299925
440
 33554687
100
AcDbHatch
 10
0.0
 20
0.0
 30
0.0
210
0.0
220
0.0
230
1.0
  2
SOLID
 70
     1
 71
     1
 91
        1
 92
        1
 93
        1
 72
     4
 94
        3
 73
     0
 74
     0
 95
       26
 96
       22
 40
0.0
 40
0.0
 40
0.0
 40
0.0
 40
1.0
 40
1.0
 40
1.0
 40
2.0
 40
2.0
 40
2.0
 40
3.0
 40
3.0
 40
3.0
 40
4.0
 40
4.0
 40
4.0
 40
5.0
 40
5.0
 40
5.0
 40
6.0
 40
6.0
 40
6.0
 40
7.0
 40
7.0
 40
7.0
 40
7.0
 10
111.929085258476
 20
-149.6673502229998
 10
111.929085258476
 20
-149.6673502229998
 10
111.929085258476
 20
-148.5628526104287
 10
111.929085258476
 20
-148.5628526104287
 10
111.929085258476
 20
-148.5628526104287
 10
111.5990451109891
 20
-148.5628526104287
 10
111.5990451109891
 20
-148.5628526104287
 10
111.5990451109891
 20
-148.5628526104287
 10
111.5990451109891
 20
-148.414713504563
 10
111.5990451109891
 20
-148.414713504563
 10
111.9311523157672
 20
-148.4000718487506
 10
111.9776611048181
 20
-148.2371188322983
 10
112.0072889259912
 20
-148.1229139169623
 10
112.0072889259912
 20
-148.1229139169623
 10
112.1533609745658
 20
-148.1229139169623
 10
112.1533609745658
 20
-148.1229139169623
 10
112.1533609745658
 20
-148.1229139169623
 10
112.1533609745658
 20
-149.6673502229998
 10
112.1533609745658
 20
-149.6673502229998
 10
112.1533609745658
 20
-149.6673502229998
 10
111.929085258476
 20
-149.6673502229998
 10
111.929085258476
 20
-149.6673502229998
 97
        0
 97
        1
330
154
 75
     2
 76
     1
 98
        1
 10
0.0
 20
0.0
450
        0
451
        0
460
0.0
461
0.0
452
        0
462
0.0
453
        0
470

  0
ENDBLK
  5
153
330
150
100
AcDbEntity
  8
0
100
AcDbBlockEnd
  0
BLOCK
  5
15D
330
15B
100
AcDbEntity
  8
0
100
AcDbBlockBegin
  2
Block_13
 70
     0
 10
0.0
 20
0.0
 30
0.0
  3
Block_13
  1

  0
INSERT
  5
160
330
15B
100
AcDbEntity
  8
レイヤー 1
100
AcDbBlockReference
  2
Block_14
 10
0.0
 20
0.0
 30
0.0
  0
ENDBLK
  5
15E
330
15B
100
AcDbEntity
  8
0
100
AcDbBlockEnd
  0
BLOCK
  5
161
330
15F
100
AcDbEntity
  8
0
100
AcDbBlockBegin
  2
Block_14
 70
     0
 10
0.0
 20
0.0
 30
0.0
  3
Block_14
  1

  0
SPLINE
  5
163
330
15F
100
AcDbEntity
  8
レイヤー 1
100
AcDbSpline
210
0.0
220
0.0
230
1.0
 70
    11
 71
     3
 72
    26
 73
    22
 74
     0
 42
0.0000000001
 43
0.0000000001
 40
0.0
 40
0.0
 40
0.0
 40
0.0
 40
1.0
 40
1.0
 40
1.0
 40
2.0
 40
2.0
 40
2.0
 40
3.0
 40
3.0
 40
3.0
 40
4.0
 40
4.0
 40
4.0
 40
5.0
 40
5.0
 40
5.0
 40
6.0
 40
6.0
 40
6.0
 40
7.0
 40
7.0
 40
7.0
 40
7.0
 10
103.7597303343031
 20
-156.233702217886
 30
0.0
 10
103.7597303343031
 20
-156.233702217886
 30
0.0
 10
103.7597303343031
 20
-155.1295491148635
 30
0.0
 10
103.7597303343031
 20
-155.1295491148635
 30
0.0
 10
103.7597303343031
 20
-155.1295491148635
 30
0.0
 10
103.4296901868162
 20
-155.1295491148635
 30
0.0
 10
103.4296901868162
 20
-155.1295491148635
 30
0.0
 10
103.4296901868162
 20
-155.1295491148635
 30
0.0
 10
103.4296901868162
 20
-154.9814100089977
 30
0.0
 10
103.4296901868162
 20
-154.9814100089977
 30
0.0
 10
103.7617973915943
 20
-154.9665960984111
 30
0.0
 10
103.8083061806451
 20
-154.8036430819588
 30
0.0
 10
103.8379340018183
 20
-154.6892659118485
 30
0.0
 10
103.8379340018183
 20
-154.6892659118485
 30
0.0
 10
103.9840060503929
 20
-154.6892659118485
 30
0.0
 10
103.9840060503929
 20
-154.6892659118485
 30
0.0
 10
103.9840060503929
 20
-154.6892659118485
 30
0.0
 10
103.9840060503929
 20
-156.233702217886
 30
0.0
 10
103.9840060503929
 20
-156.233702217886
 30
0.0
 10
103.9840060503929
 20
-156.233702217886
 30
0.0
 10
103.7597303343031
 20
-156.233702217886
 30
0.0
 10
103.7597303343031
 20
-156.233702217886
 30
0.0
  0
HATCH
  5
164
330
15F
100
AcDbEntity
  8
レイヤー 1
 62
   250
420
  2299925
440
 33554687
100
AcDbHatch
 10
0.0
 20
0.0
 30
0.0
210
0.0
220
0.0
230
1.0
  2
SOLID
 70
     1
 71
     1
 91
        1
 92
        1
 93
        1
 72
     4
 94
        3
 73
     0
 74
     0
 95
       26
 96
       22
 40
0.0
 40
0.0
 40
0.0
 40
0.0
 40
1.0
 40
1.0
 40
1.0
 40
2.0
 40
2.0
 40
2.0
 40
3.0
 40
3.0
 40
3.0
 40
4.0
 40
4.0
 40
4.0
 40
5.0
 40
5.0
 40
5.0
 40
6.0
 40
6.0
 40
6.0
 40
7.0
 40
7.0
 40
7.0
 40
7.0
 10
103.7597303343031
 20
-156.233702217886
 10
103.7597303343031
 20
-156.233702217886
 10
103.7597303343031
 20
-155.1295491148635
 10
103.7597303343031
 20
-155.1295491148635
 10
103.7597303343031
 20
-155.1295491148635
 10
103.4296901868162
 20
-155.1295491148635
 10
103.4296901868162
 20
-155.1295491148635
 10
103.4296901868162
 20
-155.1295491148635
 10
103.4296901868162
 20
-154.9814100089977
 10
103.4296901868162
 20
-154.9814100089977
 10
103.7617973915943
 20
-154.9665960984111
 10
103.8083061806451
 20
-154.8036430819588
 10
103.8379340018183
 20
-154.6892659118485
 10
103.8379340018183
 20
-154.6892659118485
 10
103.9840060503929
 20
-154.6892659118485
 10
103.9840060503929
 20
-154.6892659118485
 10
103.9840060503929
 20
-154.6892659118485
 10
103.9840060503929
 20
-156.233702217886
 10
103.9840060503929
 20
-156.233702217886
 10
103.9840060503929
 20
-156.233702217886
 10
103.7597303343031
 20
-156.233702217886
 10
103.7597303343031
 20
-156.233702217886
 97
        0
 97
        1
330
163
 75
     2
 76
     1
 98
        1
 10
0.0
 20
0.0
450
        0
451
        0
460
0.0
461
0.0
452
        0
462
0.0
453
        0
470

  0
SPLINE
  5
165
330
15F
100
AcDbEntity
  8
レイヤー 1
100
AcDbSpline
210
0.0
220
0.0
230
1.0
 70
     9
 71
     3
 72
    17
 73
    13
 74
     0
 42
0.0000000001
 43
0.0000000001
 40
0.0
 40
0.0
 40
0.0
 40
0.0
 40
1.0
 40
1.0
 40
1.0
 40
2.0
 40
2.0
 40
2.0
 40
3.0
 40
3.0
 40
3.0
 40
4.0
 40
4.0
 40
4.0
 40
4.0
 10
104.9851507984065
 20
-154.8332709031319
 30
0.0
 10
104.7353813757259
 20
-154.8332709031319
 30
0.0
 10
104.688872586675
 20
-155.116802261568
 30
0.0
 10
104.688872586675
 20
-155.4616563196415
 30
0.0
 10
104.688872586675
 20
-155.7810166711242
 30
0.0
 10
104.7250460892701
 20
-156.0896972266026
 30
0.0
 10
104.9851507984065
 20
-156.0896972266026
 30
0.0
 10
105.2328531637959
 20
-156.0896972266026
 30
0.0
 10
105.281429010138
 20
-155.8085774350062
 30
0.0
 10
105.281429010138
 20
-155.4616563196415
 30
0.0
 10
105.281429010138
 20
-155.1419514586103
 30
0.0
 10
105.2431884502517
 20
-154.8332709031319
 30
0.0
 10
104.9851507984065
 20
-154.8332709031319
 30
0.0
  0
SPLINE
  5
166
330
15F
100
AcDbEntity
  8
レイヤー 1
100
AcDbSpline
210
0.0
220
0.0
230
1.0
 70
     9
 71
     3
 72
    29
 73
    25
 74
     0
 42
0.0000000001
 43
0.0000000001
 40
0.0
 40
0.0
 40
0.0
 40
0.0
 40
1.0
 40
1.0
 40
1.0
 40
2.0
 40
2.0
 40
2.0
 40
3.0
 40
3.0
 40
3.0
 40
4.0
 40
4.0
 40
4.0
 40
5.0
 40
5.0
 40
5.0
 40
6.0
 40
6.0
 40
6.0
 40
7.0
 40
7.0
 40
7.0
 40
8.0
 40
8.0
 40
8.0
 40
8.0
 10
105.3830593269528
 20
-156.0559352908471
 30
0.0
 10
105.274883328716
 20
-156.2653970963503
 30
0.0
 10
105.1015950258079
 20
-156.2843451215192
 30
0.0
 10
104.9851507984065
 20
-156.2843451215192
 30
0.0
 10
104.8242648392453
 20
-156.2843451215192
 30
0.0
 10
104.6826714148015
 20
-156.2378363324683
 30
0.0
 10
104.5875867794086
 20
-156.0559352908471
 30
0.0
 10
104.4838894053026
 20
-155.8612873959305
 30
0.0
 10
104.4645968705852
 20
-155.6242648265453
 30
0.0
 10
104.4645968705852
 20
-155.4616563196415
 30
0.0
 10
104.4645968705852
 20
-155.3176513283581
 30
0.0
 10
104.4818223480115
 20
-155.0658148483863
 30
0.0
 10
104.5875867794086
 20
-154.8670328388874
 30
0.0
 10
104.695418268097
 20
-154.6641167148062
 30
0.0
 10
104.8563042272581
 20
-154.6406900655065
 30
0.0
 10
104.9851507984065
 20
-154.6406900655065
 30
0.0
 10
105.1439697002765
 20
-154.6406900655065
 30
0.0
 10
105.2876301820114
 20
-154.6851317972662
 30
0.0
 10
105.3830593269528
 20
-154.8670328388874
 30
0.0
 10
105.482278076928
 20
-155.0596136765128
 30
0.0
 10
105.5057047262277
 20
-155.2880235071849
 30
0.0
 10
105.5057047262277
 20
-155.4616563196415
 30
0.0
 10
105.5057047262277
 20
-155.6328775652584
 30
0.0
 10
105.4843451342192
 20
-155.8633544532216
 30
0.0
 10
105.3830593269528
 20
-156.0559352908471
 30
0.0
  0
HATCH
  5
167
330
15F
100
AcDbEntity
  8
レイヤー 1
 62
   250
420
  2299925
440
 33554687
100
AcDbHatch
 10
0.0
 20
0.0
 30
0.0
210
0.0
220
0.0
230
1.0
  2
SOLID
 70
     1
 71
     1
 91
        2
 92
        1
 93
        1
 72
     4
 94
        3
 73
     0
 74
     0
 95
       17
 96
       13
 40
0.0
 40
0.0
 40
0.0
 40
0.0
 40
1.0
 40
1.0
 40
1.0
 40
2.0
 40
2.0
 40
2.0
 40
3.0
 40
3.0
 40
3.0
 40
4.0
 40
4.0
 40
4.0
 40
4.0
 10
104.9851507984065
 20
-154.8332709031319
 10
104.7353813757259
 20
-154.8332709031319
 10
104.688872586675
 20
-155.116802261568
 10
104.688872586675
 20
-155.4616563196415
 10
104.688872586675
 20
-155.7810166711242
 10
104.7250460892701
 20
-156.0896972266026
 10
104.9851507984065
 20
-156.0896972266026
 10
105.2328531637959
 20
-156.0896972266026
 10
105.281429010138
 20
-155.8085774350062
 10
105.281429010138
 20
-155.4616563196415
 10
105.281429010138
 20
-155.1419514586103
 10
105.2431884502517
 20
-154.8332709031319
 10
104.9851507984065
 20
-154.8332709031319
 97
        0
 97
        1
330
165
 92
        1
 93
        1
 72
     4
 94
        3
 73
     0
 74
     0
 95
       29
 96
       25
 40
0.0
 40
0.0
 40
0.0
 40
0.0
 40
1.0
 40
1.0
 40
1.0
 40
2.0
 40
2.0
 40
2.0
 40
3.0
 40
3.0
 40
3.0
 40
4.0
 40
4.0
 40
4.0
 40
5.0
 40
5.0
 40
5.0
 40
6.0
 40
6.0
 40
6.0
 40
7.0
 40
7.0
 40
7.0
 40
8.0
 40
8.0
 40
8.0
 40
8.0
 10
105.3830593269528
 20
-156.0559352908471
 10
105.274883328716
 20
-156.2653970963503
 10
105.1015950258079
 20
-156.2843451215192
 10
104.9851507984065
 20
-156.2843451215192
 10
104.8242648392453
 20
-156.2843451215192
 10
104.6826714148015
 20
-156.2378363324683
 10
104.5875867794086
 20
-156.0559352908471
 10
104.4838894053026
 20
-155.8612873959305
 10
104.4645968705852
 20
-155.6242648265453
 10
104.4645968705852
 20
-155.4616563196415
 10
104.4645968705852
 20
-155.3176513283581
 10
104.4818223480115
 20
-155.0658148483863
 10
104.5875867794086
 20
-154.8670328388874
 10
104.695418268097
 20
-154.6641167148062
 10
104.8563042272581
 20
-154.6406900655065
 10
104.9851507984065
 20
-154.6406900655065
 10
105.1439697002765
 20
-154.6406900655065
 10
105.2876301820114
 20
-154.6851317972662
 10
105.3830593269528
 20
-154.8670328388874
 10
105.482278076928
 20
-155.0596136765128
 10
105.5057047262277
 20
-155.2880235071849
 10
105.5057047262277
 20
-155.4616563196415
 10
105.5057047262277
 20
-155.6328775652584
 10
105.4843451342192
 20
-155.8633544532216
 10
105.3830593269528
 20
-156.0559352908471
 97
        0
 97
        1
330
166
 75
     2
 76
     1
 98
        1
 10
0.0
 20
0.0
450
        0
451
        0
460
0.0
461
0.0
452
        0
462
0.0
453
        0
470

  0
ENDBLK
  5
162
330
15F
100
AcDbEntity
  8
0
100
AcDbBlockEnd
  0
ENDSEC
  0
SECTION
  2
ENTITIES
  0
INSERT
  5
7A
330
70
100
AcDbEntity
  8
レイヤー 1
100
AcDbBlockReference
  2
Block_0
 10
0.0
 20
0.0
 30
0.0
  0
ENDSEC
  0
SECTION
  2
OBJECTS
  0
DICTIONARY
  5
C
330
0
100
AcDbDictionary
281
     1
  3
ACAD_COLOR
350
63
  3
ACAD_DETAILVIEWSTYLE
350
6A
  3
ACAD_GROUP
350
D
  3
ACAD_LAYOUT
350
62
  3
ACAD_MATERIAL
350
10
  3
ACAD_MLEADERSTYLE
350
66
  3
ACAD_MLINESTYLE
350
5F
  3
ACAD_PLOTSETTINGS
350
61
  3
ACAD_PLOTSTYLENAME
350
E
  3
ACAD_SCALELIST
350
42
  3
ACAD_SECTIONVIEWSTYLE
350
68
  3
ACAD_TABLESTYLE
350
64
  3
ACAD_VISUALSTYLE
350
29
  3
ACDB_RECOMPOSE_DATA
350
170
  3
AcDbVariableDictionary
350
168
  0
DICTIONARY
  5
63
102
{ACAD_REACTORS
330
C
102
}
330
C
100
AcDbDictionary
281
     1
  0
DICTIONARY
  5
6A
102
{ACAD_REACTORS
330
C
102
}
330
C
100
AcDbDictionary
281
     1
  3
Imperial24
350
6B
  0
DICTIONARY
  5
D
102
{ACAD_REACTORS
330
C
102
}
330
C
100
AcDbDictionary
281
     1
  0
DICTIONARY
  5
62
102
{ACAD_REACTORS
330
C
102
}
330
C
100
AcDbDictionary
281
     1
  3
Layout1
350
6F
  3
Layout2
350
77
  3
Model
350
73
  0
DICTIONARY
  5
10
102
{ACAD_REACTORS
330
C
102
}
330
C
100
AcDbDictionary
281
     1
  3
ByBlock
350
19
  3
ByLayer
350
11
  3
Global
350
21
  0
DICTIONARY
  5
66
102
{ACAD_REACTORS
330
C
102
}
330
C
100
AcDbDictionary
281
     1
  3
Standard
350
67
  0
DICTIONARY
  5
5F
102
{ACAD_REACTORS
330
C
102
}
330
C
100
AcDbDictionary
281
     1
  3
Standard
350
60
  0
DICTIONARY
  5
61
102
{ACAD_REACTORS
330
C
102
}
330
C
100
AcDbDictionary
281
     1
  0
ACDBDICTIONARYWDFLT
  5
E
102
{ACAD_REACTORS
330
C
102
}
330
C
100
AcDbDictionary
281
     1
  3
Normal
350
F
100
AcDbDictionaryWithDefault
340
F
  0
DICTIONARY
  5
42
102
{ACAD_REACTORS
330
C
102
}
330
C
100
AcDbDictionary
281
     1
  3
A0
350
43
  3
A1
350
44
  3
A2
350
45
  3
A3
350
46
  3
A4
350
47
  3
A5
350
48
  3
A6
350
49
  3
A7
350
4A
  3
A8
350
4B
  3
A9
350
4C
  3
B0
350
4D
  3
B1
350
4E
  3
B2
350
4F
  3
B3
350
50
  3
B4
350
51
  3
B5
350
52
  3
B6
350
53
  0
DICTIONARY
  5
68
102
{ACAD_REACTORS
330
C
102
}
330
C
100
AcDbDictionary
281
     1
  3
Imperial24
350
69
  0
DICTIONARY
  5
64
102
{ACAD_REACTORS
330
C
102
}
330
C
100
AcDbDictionary
281
     1
  3
Standard
350
65
  0
DICTIONARY
  5
29
102
{ACAD_REACTORS
330
C
102
}
330
C
100
AcDbDictionary
281
     1
  3
2dWireframe
350
2F
  3
Basic
350
2E
  3
Brighten
350
35
  3
ColorChange
350
39
  3
Conceptual
350
32
  3
Dim
350
34
  3
EdgeColorOff
350
41
  3
Facepattern
350
38
  3
Flat
350
2A
  3
FlatWithEdges
350
2B
  3
Gouraud
350
2C
  3
GouraudWithEdges
350
2D
  3
Hidden
350
31
  3
JitterOff
350
3F
  3
Linepattern
350
37
  3
OverhangOff
350
40
  3
Realistic
350
33
  3
Shaded
350
3E
  3
Shaded with edges
350
3D
  3
Shades of Gray
350
3A
  3
Sketchy
350
3B
  3
Thicken
350
36
  3
Wireframe
350
30
  3
X-Ray
350
3C
  0
XRECORD
  5
170
102
{ACAD_REACTORS
330
C
102
}
330
C
100
AcDbXrecord
280
     1
 90
        1
330
65
  0
DICTIONARY
  5
168
102
{ACAD_REACTORS
330
C
102
}
330
C
100
AcDbDictionary
281
     1
  3
CANNOSCALE
350
16D
  3
CMLEADERSTYLE
350
16A
  3
CTABLESTYLE
350
169
  3
CVIEWDETAILSTYLE
350
16B
  3
CVIEWSECTIONSTYLE
350
16C
  0
ACDBDETAILVIEWSTYLE
  5
6B
102
{ACAD_XDICTIONARY
360
1A5
102
}
102
{ACAD_REACTORS
330
6A
102
}
330
6A
100
AcDbModelDocViewStyle
 70
     0
  3
Imperial24
290
     0
100
AcDbDetailViewStyle
 70
     0
 71
     0
 90
        3
 71
     1
340
55
 62
   256
 40
0.24
340
0
 62
   256
 40
0.24
300

 40
0.36
280
     3
 71
     2
340
5D
 90
       25
 62
   256
 71
     3
340
55
 62
   256
 40
0.24
 90
        1
 40
0.75
 90
        1
300
%<\AcVar ViewType \f "%tc1">% %<\AcVar ViewDetailId>%\PSCALE %<\AcVar ViewScale \f "%sn">%
 71
     4
340
5D
 90
       25
 62
   256
340
5D
 90
       25
 62
   256
280
     0
  0
LAYOUT
  5
6F
102
{ACAD_REACTORS
330
62
102
}
330
62
100
AcDbPlotSettings
  1

  2

  4

  6

 40
0.0
 41
0.0
 42
0.0
 43
0.0
 44
0.0
 45
0.0
 46
0.0
 47
0.0
 48
0.0
 49
0.0
140
0.0
141
0.0
142
1.0
143
1.0
 70
   688
 72
     0
 73
     0
 74
     5
  7

 75
    16
147
1.0
 76
     0
 77
     2
 78
   300
148
0.0
149
0.0
100
AcDbLayout
  1
Layout1
 70
     1
 71
     1
 10
0.0
 20
0.0
 11
12.0
 21
9.0
 12
0.0
 22
0.0
 32
0.0
 14
0.0
 24
0.0
 34
0.0
 15
0.0
 25
0.0
 35
0.0
146
0.0
 13
0.0
 23
0.0
 33
0.0
 16
1.0
 26
0.0
 36
0.0
 17
0.0
 27
1.0
 37
0.0
 76
     0
330
6C
  0
LAYOUT
  5
77
102
{ACAD_REACTORS
330
62
102
}
330
62
100
AcDbPlotSettings
  1

  2

  4

  6

 40
0.0
 41
0.0
 42
0.0
 43
0.0
 44
0.0
 45
0.0
 46
0.0
 47
0.0
 48
0.0
 49
0.0
140
0.0
141
0.0
142
1.0
143
1.0
 70
   688
 72
     0
 73
     0
 74
     5
  7

 75
    16
147
1.0
 76
     0
 77
     2
 78
   300
148
0.0
149
0.0
100
AcDbLayout
  1
Layout2
 70
     1
 71
     2
 10
0.0
 20
0.0
 11
12.0
 21
9.0
 12
0.0
 22
0.0
 32
0.0
 14
0.0
 24
0.0
 34
0.0
 15
0.0
 25
0.0
 35
0.0
146
0.0
 13
0.0
 23
0.0
 33
0.0
 16
1.0
 26
0.0
 36
0.0
 17
0.0
 27
1.0
 37
0.0
 76
     0
330
74
  0
LAYOUT
  5
73
102
{ACAD_REACTORS
330
62
102
}
330
62
100
AcDbPlotSettings
  1

  2

  4

  6

 40
0.0
 41
0.0
 42
0.0
 43
0.0
 44
0.0
 45
0.0
 46
0.0
 47
0.0
 48
0.0
 49
0.0
140
0.0
141
0.0
142
1.0
143
1.0
 70
  1712
 72
     0
 73
     0
 74
     0
  7

 75
     0
147
1.0
 76
     0
 77
     2
 78
   300
148
0.0
149
0.0
100
AcDbLayout
  1
Model
 70
     1
 71
     0
 10
0.0
 20
0.0
 11
12.0
 21
9.0
 12
0.0
 22
0.0
 32
0.0
 14
0.0
 24
0.0
 34
0.0
 15
0.0
 25
0.0
 35
0.0
146
0.0
 13
0.0
 23
0.0
 33
0.0
 16
1.0
 26
0.0
 36
0.0
 17
0.0
 27
1.0
 37
0.0
 76
     0
330
70
  0
MATERIAL
  5
19
102
{ACAD_XDICTIONARY
360
1A
102
}
102
{ACAD_REACTORS
330
10
102
}
330
10
100
AcDbMaterial
  1
ByBlock
 72
     0
 43
0.0208333333333333
 43
0.0
 43
0.0
 43
0.0
 43
0.0
 43
0.0208333333333333
 43
0.0
 43
0.0
 43
0.0
 43
0.0
 43
1.0
 43
0.0
 43
0.0
 43
0.0
 43
0.0
 43
1.0
 77
     0
 47
0.0208333333333333
 47
0.0
 47
0.0
 47
0.0
 47
0.0
 47
0.0208333333333333
 47
0.0
 47
0.0
 47
0.0
 47
0.0
 47
1.0
 47
0.0
 47
0.0
 47
0.0
 47
0.0
 47
1.0
171
     0
 49
0.0208333333333333
 49
0.0
 49
0.0
 49
0.0
 49
0.0
 49
0.0208333333333333
 49
0.0
 49
0.0
 49
0.0
 49
0.0
 49
1.0
 49
0.0
 49
0.0
 49
0.0
 49
0.0
 49
1.0
175
     0
142
0.0208333333333333
142
0.0
142
0.0
142
0.0
142
0.0
142
0.0208333333333333
142
0.0
142
0.0
142
0.0
142
0.0
142
1.0
142
0.0
142
0.0
142
0.0
142
0.0
142
1.0
179
     0
144
0.0208333333333333
144
0.0
144
0.0
144
0.0
144
0.0
144
0.0208333333333333
144
0.0
144
0.0
144
0.0
144
0.0
144
1.0
144
0.0
144
0.0
144
0.0
144
0.0
144
1.0
147
0.0208333333333333
147
0.0
147
0.0
147
0.0
147
0.0
147
0.0208333333333333
147
0.0
147
0.0
147
0.0
147
0.0
147
1.0
147
0.0
147
0.0
147
0.0
147
0.0
147
1.0
  0
MATERIAL
  5
11
102
{ACAD_XDICTIONARY
360
12
102
}
102
{ACAD_REACTORS
330
10
102
}
330
10
100
AcDbMaterial
  1
ByLayer
 72
     0
 43
0.0208333333333333
 43
0.0
 43
0.0
 43
0.0
 43
0.0
 43
0.0208333333333333
 43
0.0
 43
0.0
 43
0.0
 43
0.0
 43
1.0
 43
0.0
 43
0.0
 43
0.0
 43
0.0
 43
1.0
 77
     0
 47
0.0208333333333333
 47
0.0
 47
0.0
 47
0.0
 47
0.0
 47
0.0208333333333333
 47
0.0
 47
0.0
 47
0.0
 47
0.0
 47
1.0
 47
0.0
 47
0.0
 47
0.0
 47
0.0
 47
1.0
171
     0
 49
0.0208333333333333
 49
0.0
 49
0.0
 49
0.0
 49
0.0
 49
0.0208333333333333
 49
0.0
 49
0.0
 49
0.0
 49
0.0
 49
1.0
 49
0.0
 49
0.0
 49
0.0
 49
0.0
 49
1.0
175
     0
142
0.0208333333333333
142
0.0
142
0.0
142
0.0
142
0.0
142
0.0208333333333333
142
0.0
142
0.0
142
0.0
142
0.0
142
1.0
142
0.0
142
0.0
142
0.0
142
0.0
142
1.0
179
     0
144
0.0208333333333333
144
0.0
144
0.0
144
0.0
144
0.0
144
0.0208333333333333
144
0.0
144
0.0
144
0.0
144
0.0
144
1.0
144
0.0
144
0.0
144
0.0
144
0.0
144
1.0
147
0.0208333333333333
147
0.0
147
0.0
147
0.0
147
0.0
147
0.0208333333333333
147
0.0
147
0.0
147
0.0
147
0.0
147
1.0
147
0.0
147
0.0
147
0.0
147
0.0
147
1.0
  0
MATERIAL
  5
21
102
{ACAD_XDICTIONARY
360
22
102
}
102
{ACAD_REACTORS
330
10
102
}
330
10
100
AcDbMaterial
  1
Global
 72
     0
 43
0.0208333333333333
 43
0.0
 43
0.0
 43
0.0
 43
0.0
 43
0.0208333333333333
 43
0.0
 43
0.0
 43
0.0
 43
0.0
 43
1.0
 43
0.0
 43
0.0
 43
0.0
 43
0.0
 43
1.0
 77
     0
 47
0.0208333333333333
 47
0.0
 47
0.0
 47
0.0
 47
0.0
 47
0.0208333333333333
 47
0.0
 47
0.0
 47
0.0
 47
0.0
 47
1.0
 47
0.0
 47
0.0
 47
0.0
 47
0.0
 47
1.0
171
     0
 49
0.0208333333333333
 49
0.0
 49
0.0
 49
0.0
 49
0.0
 49
0.0208333333333333
 49
0.0
 49
0.0
 49
0.0
 49
0.0
 49
1.0
 49
0.0
 49
0.0
 49
0.0
 49
0.0
 49
1.0
175
     0
142
0.0208333333333333
142
0.0
142
0.0
142
0.0
142
0.0
142
0.0208333333333333
142
0.0
142
0.0
142
0.0
142
0.0
142
1.0
142
0.0
142
0.0
142
0.0
142
0.0
142
1.0
179
     0
144
0.0208333333333333
144
0.0
144
0.0
144
0.0
144
0.0
144
0.0208333333333333
144
0.0
144
0.0
144
0.0
144
0.0
144
1.0
144
0.0
144
0.0
144
0.0
144
0.0
144
1.0
147
0.0208333333333333
147
0.0
147
0.0
147
0.0
147
0.0
147
0.0208333333333333
147
0.0
147
0.0
147
0.0
147
0.0
147
1.0
147
0.0
147
0.0
147
0.0
147
0.0
147
1.0
  0
MLEADERSTYLE
  5
67
102
{ACAD_XDICTIONARY
360
1A1
102
}
102
{ACAD_REACTORS
330
66
102
}
330
66
100
AcDbMLeaderStyle
179
     2
170
     2
171
     1
172
     0
 90
        2
 40
0.0
 41
0.0
173
     1
 91
-1056964608
340
5B
 92
       -2
290
     1
 42
0.09
291
     1
 43
0.36
  3
Standard
 44
0.18
300

342
55
174
     1
178
     6
175
     1
176
     0
 93
-1056964608
 45
0.18
292
     0
297
     0
 46
0.18
 94
-1056964608
 47
1.0
 49
1.0
140
1.0
293
     1
141
0.0
294
     1
177
     0
142
1.0
295
     0
296
     0
143
0.125
271
     0
272
     9
273
     9
  0
MLINESTYLE
  5
60
102
{ACAD_REACTORS
330
5F
102
}
330
5F
100
AcDbMlineStyle
  2
STANDARD
 70
     0
  3

 62
   256
 51
90.0
 52
90.0
 71
     2
 49
0.5
 62
   256
  6
BYLAYER
 49
-0.5
 62
   256
  6
BYLAYER
  0
ACDBPLACEHOLDER
  5
F
102
{ACAD_REACTORS
330
E
102
}
330
E
  0
SCALE
  5
43
102
{ACAD_REACTORS
330
42
102
}
330
42
100
AcDbScale
 70
     0
300
1:1
140
1.0
141
1.0
290
     1
  0
SCALE
  5
44
102
{ACAD_REACTORS
330
42
102
}
330
42
100
AcDbScale
 70
     0
300
1/128" = 1'-0"
140
0.0078125
141
12.0
290
     0
  0
SCALE
  5
45
102
{ACAD_REACTORS
330
42
102
}
330
42
100
AcDbScale
 70
     0
300
1/64" = 1'-0"
140
0.015625
141
12.0
290
     0
  0
SCALE
  5
46
102
{ACAD_REACTORS
330
42
102
}
330
42
100
AcDbScale
 70
     0
300
1/32" = 1'-0"
140
0.03125
141
12.0
290
     0
  0
SCALE
  5
47
102
{ACAD_REACTORS
330
42
102
}
330
42
100
AcDbScale
 70
     0
300
1/16" = 1'-0"
140
0.0625
141
12.0
290
     0
  0
SCALE
  5
48
102
{ACAD_REACTORS
330
42
102
}
330
42
100
AcDbScale
 70
     0
300
3/32" = 1'-0"
140
0.09375
141
12.0
290
     0
  0
SCALE
  5
49
102
{ACAD_REACTORS
330
42
102
}
330
42
100
AcDbScale
 70
     0
300
1/8" = 1'-0"
140
0.125
141
12.0
290
     0
  0
SCALE
  5
4A
102
{ACAD_REACTORS
330
42
102
}
330
42
100
AcDbScale
 70
     0
300
3/16" = 1'-0"
140
0.1875
141
12.0
290
     0
  0
SCALE
  5
4B
102
{ACAD_REACTORS
330
42
102
}
330
42
100
AcDbScale
 70
     0
300
1/4" = 1'-0"
140
0.25
141
12.0
290
     0
  0
SCALE
  5
4C
102
{ACAD_REACTORS
330
42
102
}
330
42
100
AcDbScale
 70
     0
300
3/8" = 1'-0"
140
0.375
141
12.0
290
     0
  0
SCALE
  5
4D
102
{ACAD_REACTORS
330
42
102
}
330
42
100
AcDbScale
 70
     0
300
1/2" = 1'-0"
140
0.5
141
12.0
290
     0
  0
SCALE
  5
4E
102
{ACAD_REACTORS
330
42
102
}
330
42
100
AcDbScale
 70
     0
300
3/4" = 1'-0"
140
0.75
141
12.0
290
     0
  0
SCALE
  5
4F
102
{ACAD_REACTORS
330
42
102
}
330
42
100
AcDbScale
 70
     0
300
1" = 1'-0"
140
1.0
141
12.0
290
     0
  0
SCALE
  5
50
102
{ACAD_REACTORS
330
42
102
}
330
42
100
AcDbScale
 70
     0
300
1-1/2" = 1'-0"
140
1.5
141
12.0
290
     0
  0
SCALE
  5
51
102
{ACAD_REACTORS
330
42
102
}
330
42
100
AcDbScale
 70
     0
300
3" = 1'-0"
140
3.0
141
12.0
290
     0
  0
SCALE
  5
52
102
{ACAD_REACTORS
330
42
102
}
330
42
100
AcDbScale
 70
     0
300
6" = 1'-0"
140
6.0
141
12.0
290
     0
  0
SCALE
  5
53
102
{ACAD_REACTORS
330
42
102
}
330
42
100
AcDbScale
 70
     0
300
1'-0" = 1'-0"
140
12.0
141
12.0
290
     0
  0
ACDBSECTIONVIEWSTYLE
  5
69
102
{ACAD_XDICTIONARY
360
1A3
102
}
102
{ACAD_REACTORS
330
68
102
}
330
68
100
AcDbModelDocViewStyle
 70
     0
  3
Imperial24
290
     0
100
AcDbSectionViewStyle
 70
     0
 71
     0
 90
       78
 71
     1
340
55
 62
   256
 40
0.24
340
0
340
0
 62
   256
 40
0.24
300
I, O, Q, S, X, Z
 40
0.48
 90
        3
 40
0.18
 90
        1
 71
     2
340
5D
 90
       25
 62
   256
340
5D
 90
       50
 62
   256
 40
0.24
 40
0.0
 40
0.24
 71
     3
340
55
 62
   256
 40
0.24
 90
        1
 40
0.75
 90
        1
300
%<\AcVar ViewType \f "%tc1">% %<\AcVar ViewSectionStartId>%-%<\AcVar ViewSectionEndId>%\PSCALE %<\AcVar ViewScale \f "%sn">%
 71
     4
 62
   256
 62
   257
300
ANSI31
 40
1.0
 90
        0
290
     0
290
     0
 90
        6
 40
0.0
 40
1.570796326794896
 40
0.2617993877991494
 40
1.308996938995747
 40
-0.2617993877991494
 40
1.832595714594046
  0
TABLESTYLE
  5
65
102
{ACAD_XDICTIONARY
360
16E
102
}
102
{ACAD_REACTORS
330
64
102
}
330
64
100
AcDbTableStyle
280
     0
  3
Standard
 70
     0
 71
     0
 40
0.06
 41
0.06
280
     0
281
     0
  7
Standard
140
0.18
170
     2
 62
     0
 63
     7
283
     0
 90
      512
 91
        0
  1

274
    -2
284
     1
 64
     0
275
    -2
285
     1
 65
     0
276
    -2
286
     1
 66
     0
277
    -2
287
     1
 67
     0
278
    -2
288
     1
 68
     0
279
    -2
289
     1
 69
     0
  7
Standard
140
0.25
170
     5
 62
     0
 63
     7
283
     0
 90
      512
 91
        0
  1

274
    -2
284
     1
 64
     0
275
    -2
285
     1
 65
     0
276
    -2
286
     1
 66
     0
277
    -2
287
     1
 67
     0
278
    -2
288
     1
 68
     0
279
    -2
289
     1
 69
     0
  7
Standard
140
0.18
170
     5
 62
     0
 63
     7
283
     0
 90
      512
 91
        0
  1

274
    -2
284
     1
 64
     0
275
    -2
285
     1
 65
     0
276
    -2
286
     1
 66
     0
277
    -2
287
     1
 67
     0
278
    -2
288
     1
 68
     0
279
    -2
289
     1
 69
     0
  0
VISUALSTYLE
  5
2F
102
{ACAD_XDICTIONARY
360
17B
102
}
102
{ACAD_REACTORS
330
29
102
}
330
29
100
AcDbVisualStyle
  2
2dWireframe
 70
     4
177
     2
291
     0
 71
     0
176
     1
 72
     2
176
     1
 73
     0
176
     1
 90
        0
176
     1
 40
0.6
176
     1
 41
30.0
176
     1
 63
     7
421
 16777215
176
     1
 74
     1
176
     1
 91
        4
176
     1
 64
     7
176
     1
 65
   257
176
     1
 75
     1
176
     1
175
     1
176
     1
 42
1.0
176
     1
 92
        0
176
     1
 66
   257
176
     1
 43
1.0
176
     1
 76
     1
176
     1
 77
     6
176
     1
 78
     2
176
     1
 67
     7
176
     1
 79
     5
176
     1
170
     0
176
     1
171
     0
176
     1
290
     0
176
     1
 93
        1
176
     1
 44
0.0
176
     1
173
     0
176
     1
1001
ACAD
1000
AcDbSavedByObjectVersion
1070
     0
  0
VISUALSTYLE
  5
2E
102
{ACAD_XDICTIONARY
360
179
102
}
102
{ACAD_REACTORS
330
29
102
}
330
29
100
AcDbVisualStyle
  2
Basic
 70
     7
177
     2
291
     1
 71
     1
176
     1
 72
     0
176
     1
 73
     1
176
     1
 90
        0
176
     1
 40
0.6
176
     1
 41
30.0
176
     1
 63
     7
421
 16777215
176
     1
 74
     0
176
     1
 91
        4
176
     1
 64
     7
176
     1
 65
   257
176
     1
 75
     1
176
     1
175
     1
176
     1
 42
1.0
176
     1
 92
        8
176
     1
 66
     7
176
     1
 43
1.0
176
     1
 76
     1
176
     1
 77
     6
176
     1
 78
     2
176
     1
 67
     7
176
     1
 79
     5
176
     1
170
     0
176
     1
171
     0
176
     1
290
     0
176
     1
 93
        1
176
     1
 44
0.0
176
     1
173
     0
176
     1
1001
ACAD
1000
AcDbSavedByObjectVersion
1070
     0
  0
VISUALSTYLE
  5
35
102
{ACAD_XDICTIONARY
360
187
102
}
102
{ACAD_REACTORS
330
29
102
}
330
29
100
AcDbVisualStyle
  2
Brighten
 70
    12
177
     2
291
     1
 71
     2
176
     1
 72
     2
176
     1
 73
     0
176
     1
 90
        0
176
     1
 40
0.6
176
     1
 41
30.0
176
     1
 63
     7
421
 16777215
176
     1
 74
     1
176
     1
 91
        4
176
     1
 64
     7
176
     1
 65
   257
176
     1
 75
     1
176
     1
175
     1
176
     1
 42
1.0
176
     1
 92
        8
176
     1
 66
     7
176
     1
 43
1.0
176
     1
 76
     1
176
     1
 77
     6
176
     1
 78
     2
176
     1
 67
     7
176
     1
 79
     5
176
     1
170
     0
176
     1
171
     0
176
     1
290
     0
176
     1
 93
        1
176
     1
 44
50.0
176
     1
173
     0
176
     1
1001
ACAD
1000
AcDbSavedByObjectVersion
1070
     0
  0
VISUALSTYLE
  5
39
102
{ACAD_XDICTIONARY
360
18F
102
}
102
{ACAD_REACTORS
330
29
102
}
330
29
100
AcDbVisualStyle
  2
ColorChange
 70
    16
177
     2
291
     1
 71
     2
176
     1
 72
     2
176
     1
 73
     3
176
     1
 90
        0
176
     1
 40
0.6
176
     1
 41
30.0
176
     1
 63
     8
421
  8421504
176
     1
 74
     1
176
     1
 91
        4
176
     1
 64
     7
176
     1
 65
   257
176
     1
 75
     1
176
     1
175
     1
176
     1
 42
1.0
176
     1
 92
        8
176
     1
 66
     8
424
  8421504
176
     1
 43
1.0
176
     1
 76
     1
176
     1
 77
     6
176
     1
 78
     2
176
     1
 67
     7
176
     1
 79
     5
176
     1
170
     0
176
     1
171
     0
176
     1
290
     0
176
     1
 93
        1
176
     1
 44
0.0
176
     1
173
     0
176
     1
1001
ACAD
1000
AcDbSavedByObjectVersion
1070
     0
  0
VISUALSTYLE
  5
32
102
{ACAD_XDICTIONARY
360
181
102
}
102
{ACAD_REACTORS
330
29
102
}
330
29
100
AcDbVisualStyle
  2
Conceptual
 70
     9
177
     2
291
     0
 71
     3
176
     1
 72
     2
176
     1
 73
     0
176
     1
 90
        0
176
     1
 40
0.6
176
     1
 41
30.0
176
     1
 63
     7
421
 16777215
176
     1
 74
     2
176
     1
 91
        2
176
     1
 64
     7
176
     1
 65
   257
176
     1
 75
     1
176
     1
175
     1
176
     1
 42
179.0
176
     1
 92
        8
176
     1
 66
     7
176
     1
 43
1.0
176
     1
 76
     1
176
     1
 77
     6
176
     1
 78
     2
176
     1
 67
     7
176
     1
 79
     3
176
     1
170
     0
176
     1
171
     0
176
     1
290
     0
176
     1
 93
        1
176
     1
 44
0.0
176
     1
173
     0
176
     1
1001
ACAD
1000
AcDbSavedByObjectVersion
1070
     0
  0
VISUALSTYLE
  5
34
102
{ACAD_XDICTIONARY
360
185
102
}
102
{ACAD_REACTORS
330
29
102
}
330
29
100
AcDbVisualStyle
  2
Dim
 70
    11
177
     2
291
     1
 71
     2
176
     1
 72
     2
176
     1
 73
     0
176
     1
 90
        0
176
     1
 40
0.6
176
     1
 41
30.0
176
     1
 63
     7
421
 16777215
176
     1
 74
     1
176
     1
 91
        4
176
     1
 64
     7
176
     1
 65
   257
176
     1
 75
     1
176
     1
175
     1
176
     1
 42
1.0
176
     1
 92
        8
176
     1
 66
     7
176
     1
 43
1.0
176
     1
 76
     1
176
     1
 77
     6
176
     1
 78
     2
176
     1
 67
     7
176
     1
 79
     5
176
     1
170
     0
176
     1
171
     0
176
     1
290
     0
176
     1
 93
        1
176
     1
 44
-50.0
176
     1
173
     0
176
     1
1001
ACAD
1000
AcDbSavedByObjectVersion
1070
     0
  0
VISUALSTYLE
  5
41
102
{ACAD_XDICTIONARY
360
19F
102
}
102
{ACAD_REACTORS
330
29
102
}
330
29
100
AcDbVisualStyle
  2
EdgeColorOff
 70
    22
177
     2
291
     1
 71
     2
176
     0
 72
     2
176
     0
 73
     0
176
     0
 90
        0
176
     0
 40
0.6
176
     0
 41
30.0
176
     0
 63
     7
421
 16777215
176
     0
 74
     1
176
     0
 91
        4
176
     0
 64
     7
176
     0
 65
   257
176
     0
 75
     1
176
     0
175
     1
176
     0
 42
1.0
176
     0
 92
        8
176
     2
 66
     7
176
     0
 43
1.0
176
     0
 76
     1
176
     0
 77
     6
176
     0
 78
     2
176
     0
 67
     7
176
     0
 79
     5
176
     0
170
     0
176
     0
171
     0
176
     0
290
     0
176
     0
 93
        1
176
     0
 44
0.0
176
     0
173
     0
176
     0
1001
ACAD
1000
AcDbSavedByObjectVersion
1070
     0
  0
VISUALSTYLE
  5
38
102
{ACAD_XDICTIONARY
360
18D
102
}
102
{ACAD_REACTORS
330
29
102
}
330
29
100
AcDbVisualStyle
  2
Facepattern
 70
    15
177
     2
291
     1
 71
     2
176
     1
 72
     2
176
     1
 73
     0
176
     1
 90
        0
176
     1
 40
0.6
176
     1
 41
30.0
176
     1
 63
     7
421
 16777215
176
     1
 74
     1
176
     1
 91
        4
176
     1
 64
     7
176
     1
 65
   257
176
     1
 75
     1
176
     1
175
     1
176
     1
 42
1.0
176
     1
 92
        8
176
     1
 66
     7
176
     1
 43
1.0
176
     1
 76
     1
176
     1
 77
     6
176
     1
 78
     2
176
     1
 67
     7
176
     1
 79
     5
176
     1
170
     0
176
     1
171
     0
176
     1
290
     0
176
     1
 93
        1
176
     1
 44
0.0
176
     1
173
     0
176
     1
1001
ACAD
1000
AcDbSavedByObjectVersion
1070
     0
  0
VISUALSTYLE
  5
2A
102
{ACAD_XDICTIONARY
360
171
102
}
102
{ACAD_REACTORS
330
29
102
}
330
29
100
AcDbVisualStyle
  2
Flat
 70
     0
177
     2
291
     1
 71
     2
176
     1
 72
     1
176
     1
 73
     1
176
     1
 90
        2
176
     1
 40
0.6
176
     1
 41
30.0
176
     1
 63
     7
421
 16777215
176
     1
 74
     0
176
     1
 91
        0
176
     1
 64
     7
176
     1
 65
   257
176
     1
 75
     1
176
     1
175
     1
176
     1
 42
1.0
176
     1
 92
        8
176
     1
 66
     7
176
     1
 43
1.0
176
     1
 76
     1
176
     1
 77
     6
176
     1
 78
     2
176
     1
 67
     7
176
     1
 79
     5
176
     1
170
     0
176
     1
171
     0
176
     1
290
     0
176
     1
 93
       13
176
     1
 44
0.0
176
     1
173
     0
176
     1
1001
ACAD
1000
AcDbSavedByObjectVersion
1070
     0
  0
VISUALSTYLE
  5
2B
102
{ACAD_XDICTIONARY
360
173
102
}
102
{ACAD_REACTORS
330
29
102
}
330
29
100
AcDbVisualStyle
  2
FlatWithEdges
 70
     1
177
     2
291
     1
 71
     2
176
     1
 72
     1
176
     1
 73
     1
176
     1
 90
        2
176
     1
 40
0.6
176
     1
 41
30.0
176
     1
 63
     7
421
 16777215
176
     1
 74
     1
176
     1
 91
        0
176
     1
 64
     7
176
     1
 65
   257
176
     1
 75
     1
176
     1
175
     1
176
     1
 42
1.0
176
     1
 92
        0
176
     1
 66
   257
176
     1
 43
1.0
176
     1
 76
     1
176
     1
 77
     6
176
     1
 78
     2
176
     1
 67
     7
176
     1
 79
     5
176
     1
170
     0
176
     1
171
     0
176
     1
290
     0
176
     1
 93
       13
176
     1
 44
0.0
176
     1
173
     0
176
     1
1001
ACAD
1000
AcDbSavedByObjectVersion
1070
     0
  0
VISUALSTYLE
  5
2C
102
{ACAD_XDICTIONARY
360
175
102
}
102
{ACAD_REACTORS
330
29
102
}
330
29
100
AcDbVisualStyle
  2
Gouraud
 70
     2
177
     2
291
     1
 71
     2
176
     1
 72
     2
176
     1
 73
     1
176
     1
 90
        2
176
     1
 40
0.6
176
     1
 41
30.0
176
     1
 63
     7
421
 16777215
176
     1
 74
     0
176
     1
 91
        0
176
     1
 64
     7
176
     1
 65
   257
176
     1
 75
     1
176
     1
175
     1
176
     1
 42
1.0
176
     1
 92
        0
176
     1
 66
     7
176
     1
 43
1.0
176
     1
 76
     1
176
     1
 77
     6
176
     1
 78
     2
176
     1
 67
     7
176
     1
 79
     5
176
     1
170
     0
176
     1
171
     0
176
     1
290
     0
176
     1
 93
       13
176
     1
 44
0.0
176
     1
173
     0
176
     1
1001
ACAD
1000
AcDbSavedByObjectVersion
1070
     0
  0
VISUALSTYLE
  5
2D
102
{ACAD_XDICTIONARY
360
177
102
}
102
{ACAD_REACTORS
330
29
102
}
330
29
100
AcDbVisualStyle
  2
GouraudWithEdges
 70
     3
177
     2
291
     1
 71
     2
176
     1
 72
     2
176
     1
 73
     1
176
     1
 90
        2
176
     1
 40
0.6
176
     1
 41
30.0
176
     1
 63
     7
421
 16777215
176
     1
 74
     1
176
     1
 91
        0
176
     1
 64
     7
176
     1
 65
   257
176
     1
 75
     1
176
     1
175
     1
176
     1
 42
1.0
176
     1
 92
        0
176
     1
 66
   257
176
     1
 43
1.0
176
     1
 76
     1
176
     1
 77
     6
176
     1
 78
     2
176
     1
 67
     7
176
     1
 79
     5
176
     1
170
     0
176
     1
171
     0
176
     1
290
     0
176
     1
 93
       13
176
     1
 44
0.0
176
     1
173
     0
176
     1
1001
ACAD
1000
AcDbSavedByObjectVersion
1070
     0
  0
VISUALSTYLE
  5
31
102
{ACAD_XDICTIONARY
360
17F
102
}
102
{ACAD_REACTORS
330
29
102
}
330
29
100
AcDbVisualStyle
  2
Hidden
 70
     6
177
     2
291
     0
 71
     1
176
     1
 72
     2
176
     1
 73
     2
176
     1
 90
        0
176
     1
 40
0.6
176
     1
 41
30.0
176
     1
 63
     7
421
 16777215
176
     1
 74
     2
176
     1
 91
        2
176
     1
 64
     7
176
     1
 65
   257
176
     1
 75
     2
176
     1
175
     1
176
     1
 42
40.0
176
     1
 92
        0
176
     1
 66
   257
176
     1
 43
1.0
176
     1
 76
     1
176
     1
 77
     6
176
     1
 78
     2
176
     1
 67
     7
176
     1
 79
     3
176
     1
170
     0
176
     1
171
     0
176
     1
290
     0
176
     1
 93
        1
176
     1
 44
0.0
176
     1
173
     0
176
     1
1001
ACAD
1000
AcDbSavedByObjectVersion
1070
     0
  0
VISUALSTYLE
  5
3F
102
{ACAD_XDICTIONARY
360
19B
102
}
102
{ACAD_REACTORS
330
29
102
}
330
29
100
AcDbVisualStyle
  2
JitterOff
 70
    20
177
     2
291
     1
 71
     2
176
     0
 72
     2
176
     0
 73
     0
176
     0
 90
        0
176
     0
 40
0.6
176
     0
 41
30.0
176
     0
 63
     7
421
 16777215
176
     0
 74
     1
176
     0
 91
        4
176
     0
 64
     7
176
     0
 65
   257
176
     0
 75
     1
176
     0
175
     1
176
     0
 42
1.0
176
     0
 92
       10
176
     2
 66
     7
176
     0
 43
1.0
176
     0
 76
     1
176
     0
 77
     6
176
     0
 78
     2
176
     0
 67
     7
176
     0
 79
     5
176
     0
170
     0
176
     0
171
     0
176
     0
290
     0
176
     0
 93
        1
176
     0
 44
0.0
176
     0
173
     0
176
     0
1001
ACAD
1000
AcDbSavedByObjectVersion
1070
     0
  0
VISUALSTYLE
  5
37
102
{ACAD_XDICTIONARY
360
18B
102
}
102
{ACAD_REACTORS
330
29
102
}
330
29
100
AcDbVisualStyle
  2
Linepattern
 70
    14
177
     2
291
     1
 71
     2
176
     1
 72
     2
176
     1
 73
     0
176
     1
 90
        0
176
     1
 40
0.6
176
     1
 41
30.0
176
     1
 63
     7
421
 16777215
176
     1
 74
     1
176
     1
 91
        4
176
     1
 64
     7
176
     1
 65
   257
176
     1
 75
     7
176
     1
175
     7
176
     1
 42
1.0
176
     1
 92
        8
176
     1
 66
     7
176
     1
 43
1.0
176
     1
 76
     1
176
     1
 77
     6
176
     1
 78
     2
176
     1
 67
     7
176
     1
 79
     5
176
     1
170
     0
176
     1
171
     0
176
     1
290
     0
176
     1
 93
        1
176
     1
 44
0.0
176
     1
173
     0
176
     1
1001
ACAD
1000
AcDbSavedByObjectVersion
1070
     0
  0
VISUALSTYLE
  5
40
102
{ACAD_XDICTIONARY
360
19D
102
}
102
{ACAD_REACTORS
330
29
102
}
330
29
100
AcDbVisualStyle
  2
OverhangOff
 70
    21
177
     2
291
     1
 71
     2
176
     0
 72
     2
176
     0
 73
     0
176
     0
 90
        0
176
     0
 40
0.6
176
     0
 41
30.0
176
     0
 63
     7
421
 16777215
176
     0
 74
     1
176
     0
 91
        4
176
     0
 64
     7
176
     0
 65
   257
176
     0
 75
     1
176
     0
175
     1
176
     0
 42
1.0
176
     0
 92
        9
176
     2
 66
     7
176
     0
 43
1.0
176
     0
 76
     1
176
     0
 77
     6
176
     0
 78
     2
176
     0
 67
     7
176
     0
 79
     5
176
     0
170
     0
176
     0
171
     0
176
     0
290
     0
176
     0
 93
        1
176
     0
 44
0.0
176
     0
173
     0
176
     0
1001
ACAD
1000
AcDbSavedByObjectVersion
1070
     0
  0
VISUALSTYLE
  5
33
102
{ACAD_XDICTIONARY
360
183
102
}
102
{ACAD_REACTORS
330
29
102
}
330
29
100
AcDbVisualStyle
  2
Realistic
 70
     8
177
     2
291
     0
 71
     2
176
     1
 72
     3
176
     1
 73
     0
176
     1
 90
        2
176
     1
 40
0.6
176
     1
 41
30.0
176
     1
 63
     7
421
 16777215
176
     1
 74
     0
176
     1
 91
        0
176
     1
 64
     7
176
     1
 65
   257
176
     1
 75
     1
176
     1
175
     1
176
     1
 42
1.0
176
     1
 92
        8
176
     1
 66
   257
176
     1
 43
1.0
176
     1
 76
     1
176
     1
 77
     6
176
     1
 78
     2
176
     1
 67
     7
176
     1
 79
     3
176
     1
170
     0
176
     1
171
     0
176
     1
290
     0
176
     1
 93
       13
176
     1
 44
0.0
176
     1
173
     0
176
     1
1001
ACAD
1000
AcDbSavedByObjectVersion
1070
     0
  0
VISUALSTYLE
  5
3E
102
{ACAD_XDICTIONARY
360
199
102
}
102
{ACAD_REACTORS
330
29
102
}
330
29
100
AcDbVisualStyle
  2
Shaded
 70
    27
177
     2
291
     0
 71
     2
176
     1
 72
     2
176
     1
 73
     1
176
     1
 90
        2
176
     1
 40
0.6
176
     1
 41
30.0
176
     1
 63
     7
421
 16777215
176
     1
 74
     0
176
     1
 91
        4
176
     1
 64
     7
176
     1
 65
   257
176
     1
 75
     1
176
     1
175
     1
176
     1
 42
1.0
176
     1
 92
        8
176
     1
 66
   257
176
     1
 43
1.0
176
     1
 76
     1
176
     1
 77
     6
176
     1
 78
     2
176
     1
 67
     8
425
  7895160
176
     1
 79
     3
176
     1
170
     0
176
     1
171
     0
176
     1
290
     0
176
     1
 93
        5
176
     1
 44
0.0
176
     1
173
     0
176
     1
1001
ACAD
1000
AcDbSavedByObjectVersion
1070
     0
  0
VISUALSTYLE
  5
3D
102
{ACAD_XDICTIONARY
360
197
102
}
102
{ACAD_REACTORS
330
29
102
}
330
29
100
AcDbVisualStyle
  2
Shaded with edges
 70
    26
177
     2
291
     0
 71
     2
176
     1
 72
     2
176
     1
 73
     1
176
     1
 90
        2
176
     1
 40
0.6
176
     1
 41
30.0
176
     1
 63
     7
421
 16777215
176
     1
 74
     1
176
     1
 91
        2
176
     1
 64
     7
176
     1
 65
   257
176
     1
 75
     2
176
     1
175
     1
176
     1
 42
1.0
176
     1
 92
        8
176
     1
 66
   257
176
     1
 43
1.0
176
     1
 76
     1
176
     1
 77
     6
176
     1
 78
     2
176
     1
 67
     7
176
     1
 79
     3
176
     1
170
     0
176
     1
171
     0
176
     1
290
     0
176
     1
 93
        5
176
     1
 44
0.0
176
     1
173
     0
176
     1
1001
ACAD
1000
AcDbSavedByObjectVersion
1070
     0
  0
VISUALSTYLE
  5
3A
102
{ACAD_XDICTIONARY
360
191
102
}
102
{ACAD_REACTORS
330
29
102
}
330
29
100
AcDbVisualStyle
  2
Shades of Gray
 70
    23
177
     2
291
     0
 71
     2
176
     1
 72
     2
176
     1
 73
     3
176
     1
 90
        0
176
     1
 40
0.6
176
     1
 41
30.0
176
     1
 63
     7
421
 16777215
176
     1
 74
     2
176
     1
 91
        2
176
     1
 64
     7
176
     1
 65
     7
176
     1
 75
     1
176
     1
175
     1
176
     1
 42
40.0
176
     1
 92
        8
176
     1
 66
     7
176
     1
 43
1.0
176
     1
 76
     1
176
     1
 77
     6
176
     1
 78
     2
176
     1
 67
     7
176
     1
 79
     3
176
     1
170
     0
176
     1
171
     0
176
     1
290
     0
176
     1
 93
        1
176
     1
 44
0.0
176
     1
173
     0
176
     1
1001
ACAD
1000
AcDbSavedByObjectVersion
1070
     0
  0
VISUALSTYLE
  5
3B
102
{ACAD_XDICTIONARY
360
193
102
}
102
{ACAD_REACTORS
330
29
102
}
330
29
100
AcDbVisualStyle
  2
Sketchy
 70
    24
177
     2
291
     0
 71
     1
176
     1
 72
     2
176
     1
 73
     2
176
     1
 90
        0
176
     1
 40
0.6
176
     1
 41
30.0
176
     1
 63
     7
421
 16777215
176
     1
 74
     2
176
     1
 91
        2
176
     1
 64
     7
176
     1
 65
     7
176
     1
 75
     1
176
     1
175
     1
176
     1
 42
40.0
176
     1
 92
       11
176
     1
 66
     7
176
     1
 43
1.0
176
     1
 76
     1
176
     1
 77
     6
176
     1
 78
     2
176
     1
 67
     7
176
     1
 79
     6
176
     1
170
     0
176
     1
171
     0
176
     1
290
     0
176
     1
 93
        1
176
     1
 44
0.0
176
     1
173
     0
176
     1
1001
ACAD
1000
AcDbSavedByObjectVersion
1070
     0
  0
VISUALSTYLE
  5
36
102
{ACAD_XDICTIONARY
360
189
102
}
102
{ACAD_REACTORS
330
29
102
}
330
29
100
AcDbVisualStyle
  2
Thicken
 70
    13
177
     2
291
     1
 71
     2
176
     1
 72
     2
176
     1
 73
     0
176
     1
 90
        0
176
     1
 40
0.6
176
     1
 41
30.0
176
     1
 63
     7
421
 16777215
176
     1
 74
     1
176
     1
 91
        4
176
     1
 64
     7
176
     1
 65
   257
176
     1
 75
     1
176
     1
175
     1
176
     1
 42
1.0
176
     1
 92
       12
176
     1
 66
     7
176
     1
 43
1.0
176
     1
 76
     1
176
     1
 77
     6
176
     1
 78
     2
176
     1
 67
     7
176
     1
 79
     5
176
     1
170
     0
176
     1
171
     0
176
     1
290
     0
176
     1
 93
        1
176
     1
 44
0.0
176
     1
173
     0
176
     1
1001
ACAD
1000
AcDbSavedByObjectVersion
1070
     0
  0
VISUALSTYLE
  5
30
102
{ACAD_XDICTIONARY
360
17D
102
}
102
{ACAD_REACTORS
330
29
102
}
330
29
100
AcDbVisualStyle
  2
Wireframe
 70
     5
177
     2
291
     0
 71
     0
176
     1
 72
     2
176
     1
 73
     0
176
     1
 90
        0
176
     1
 40
0.6
176
     1
 41
30.0
176
     1
 63
     7
421
 16777215
176
     1
 74
     1
176
     1
 91
        4
176
     1
 64
     7
176
     1
 65
   257
176
     1
 75
     1
176
     1
175
     1
176
     1
 42
1.0
176
     1
 92
        0
176
     1
 66
   257
176
     1
 43
1.0
176
     1
 76
     1
176
     1
 77
     6
176
     1
 78
     2
176
     1
 67
     7
176
     1
 79
     3
176
     1
170
     0
176
     1
171
     0
176
     1
290
     0
176
     1
 93
        1
176
     1
 44
0.0
176
     1
173
     0
176
     1
1001
ACAD
1000
AcDbSavedByObjectVersion
1070
     0
  0
VISUALSTYLE
  5
3C
102
{ACAD_XDICTIONARY
360
195
102
}
102
{ACAD_REACTORS
330
29
102
}
330
29
100
AcDbVisualStyle
  2
X-Ray
 70
    25
177
     2
291
     0
 71
     2
176
     1
 72
     2
176
     1
 73
     1
176
     1
 90
        1
176
     1
 40
0.5
176
     1
 41
30.0
176
     1
 63
     7
421
 16777215
176
     1
 74
     1
176
     1
 91
        0
176
     1
 64
     7
176
     1
 65
   257
176
     1
 75
     1
176
     1
175
     1
176
     1
 42
1.0
176
     1
 92
        8
176
     1
 66
     7
176
     1
 43
1.0
176
     1
 76
     1
176
     1
 77
     6
176
     1
 78
     2
176
     1
 67
     7
176
     1
 79
     3
176
     1
170
     0
176
     1
171
     0
176
     1
290
     0
176
     1
 93
       13
176
     1
 44
0.0
176
     1
173
     0
176
     1
1001
ACAD
1000
AcDbSavedByObjectVersion
1070
     0
  0
DICTIONARYVAR
  5
16D
102
{ACAD_REACTORS
330
168
102
}
330
168
100
DictionaryVariables
280
     0
  1
1:1
  0
DICTIONARYVAR
  5
16A
102
{ACAD_REACTORS
330
168
102
}
330
168
100
DictionaryVariables
280
     0
  1
STANDARD
  0
DICTIONARYVAR
  5
169
102
{ACAD_REACTORS
330
168
102
}
330
168
100
DictionaryVariables
280
     0
  1
STANDARD
  0
DICTIONARYVAR
  5
16B
102
{ACAD_REACTORS
330
168
102
}
330
168
100
DictionaryVariables
280
     0
  1
Imperial24
  0
DICTIONARYVAR
  5
16C
102
{ACAD_REACTORS
330
168
102
}
330
168
100
DictionaryVariables
280
     0
  1
Imperial24
  0
DICTIONARY
  5
1A5
330
6B
100
AcDbDictionary
280
     1
281
     1
  3
ACAD_XREC_ROUNDTRIP
360
1A6
  0
DICTIONARY
  5
1A
330
19
100
AcDbDictionary
280
     1
281
     1
  3
BUMPTILE
360
1C
  3
DIFFUSETILE
360
1B
  3
OPACITYTILE
360
1F
  3
REFLECTIONTILE
360
1E
  3
REFRACTIONTILE
360
20
  3
SPECULARTILE
360
1D
  0
DICTIONARY
  5
12
330
11
100
AcDbDictionary
280
     1
281
     1
  3
BUMPTILE
360
14
  3
DIFFUSETILE
360
13
  3
OPACITYTILE
360
17
  3
REFLECTIONTILE
360
16
  3
REFRACTIONTILE
360
18
  3
SPECULARTILE
360
15
  0
DICTIONARY
  5
22
330
21
100
AcDbDictionary
280
     1
281
     1
  3
BUMPTILE
360
24
  3
DIFFUSETILE
360
23
  3
OPACITYTILE
360
27
  3
REFLECTIONTILE
360
26
  3
REFRACTIONTILE
360
28
  3
SPECULARTILE
360
25
  0
DICTIONARY
  5
1A1
330
67
100
AcDbDictionary
280
     1
281
     1
  3
ACAD_XREC_ROUNDTRIP
360
1A2
  0
DICTIONARY
  5
1A3
330
69
100
AcDbDictionary
280
     1
281
     1
  3
ACAD_XREC_ROUNDTRIP
360
1A4
  0
DICTIONARY
  5
16E
330
65
100
AcDbDictionary
280
     1
281
     1
  3
ACAD_ROUNDTRIP_2008_TABLESTYLE_CELLSTYLEMAP
360
16F
  0
DICTIONARY
  5
17B
330
2F
100
AcDbDictionary
280
     1
281
     1
  3
ACAD_XREC_ROUNDTRIP
360
17C
  0
DICTIONARY
  5
179
330
2E
100
AcDbDictionary
280
     1
281
     1
  3
ACAD_XREC_ROUNDTRIP
360
17A
  0
DICTIONARY
  5
187
330
35
100
AcDbDictionary
280
     1
281
     1
  3
ACAD_XREC_ROUNDTRIP
360
188
  0
DICTIONARY
  5
18F
330
39
100
AcDbDictionary
280
     1
281
     1
  3
ACAD_XREC_ROUNDTRIP
360
190
  0
DICTIONARY
  5
181
330
32
100
AcDbDictionary
280
     1
281
     1
  3
ACAD_XREC_ROUNDTRIP
360
182
  0
DICTIONARY
  5
185
330
34
100
AcDbDictionary
280
     1
281
     1
  3
ACAD_XREC_ROUNDTRIP
360
186
  0
DICTIONARY
  5
19F
330
41
100
AcDbDictionary
280
     1
281
     1
  3
ACAD_XREC_ROUNDTRIP
360
1A0
  0
DICTIONARY
  5
18D
330
38
100
AcDbDictionary
280
     1
281
     1
  3
ACAD_XREC_ROUNDTRIP
360
18E
  0
DICTIONARY
  5
171
330
2A
100
AcDbDictionary
280
     1
281
     1
  3
ACAD_XREC_ROUNDTRIP
360
172
  0
DICTIONARY
  5
173
330
2B
100
AcDbDictionary
280
     1
281
     1
  3
ACAD_XREC_ROUNDTRIP
360
174
  0
DICTIONARY
  5
175
330
2C
100
AcDbDictionary
280
     1
281
     1
  3
ACAD_XREC_ROUNDTRIP
360
176
  0
DICTIONARY
  5
177
330
2D
100
AcDbDictionary
280
     1
281
     1
  3
ACAD_XREC_ROUNDTRIP
360
178
  0
DICTIONARY
  5
17F
330
31
100
AcDbDictionary
280
     1
281
     1
  3
ACAD_XREC_ROUNDTRIP
360
180
  0
DICTIONARY
  5
19B
330
3F
100
AcDbDictionary
280
     1
281
     1
  3
ACAD_XREC_ROUNDTRIP
360
19C
  0
DICTIONARY
  5
18B
330
37
100
AcDbDictionary
280
     1
281
     1
  3
ACAD_XREC_ROUNDTRIP
360
18C
  0
DICTIONARY
  5
19D
330
40
100
AcDbDictionary
280
     1
281
     1
  3
ACAD_XREC_ROUNDTRIP
360
19E
  0
DICTIONARY
  5
183
330
33
100
AcDbDictionary
280
     1
281
     1
  3
ACAD_XREC_ROUNDTRIP
360
184
  0
DICTIONARY
  5
199
330
3E
100
AcDbDictionary
280
     1
281
     1
  3
ACAD_XREC_ROUNDTRIP
360
19A
  0
DICTIONARY
  5
197
330
3D
100
AcDbDictionary
280
     1
281
     1
  3
ACAD_XREC_ROUNDTRIP
360
198
  0
DICTIONARY
  5
191
330
3A
100
AcDbDictionary
280
     1
281
     1
  3
ACAD_XREC_ROUNDTRIP
360
192
  0
DICTIONARY
  5
193
330
3B
100
AcDbDictionary
280
     1
281
     1
  3
ACAD_XREC_ROUNDTRIP
360
194
  0
DICTIONARY
  5
189
330
36
100
AcDbDictionary
280
     1
281
     1
  3
ACAD_XREC_ROUNDTRIP
360
18A
  0
DICTIONARY
  5
17D
330
30
100
AcDbDictionary
280
     1
281
     1
  3
ACAD_XREC_ROUNDTRIP
360
17E
  0
DICTIONARY
  5
195
330
3C
100
AcDbDictionary
280
     1
281
     1
  3
ACAD_XREC_ROUNDTRIP
360
196
  0
XRECORD
  5
1A6
102
{ACAD_REACTORS
330
1A5
102
}
330
1A5
100
AcDbXrecord
280
     1
102
DISPLAYNAME
  1
Imperial24
102
FLAGS
 90
        0
  0
XRECORD
  5
1C
102
{ACAD_REACTORS
330
1A
102
}
330
1A
100
AcDbXrecord
280
     1
270
     1
271
     1
  0
XRECORD
  5
1B
102
{ACAD_REACTORS
330
1A
102
}
330
1A
100
AcDbXrecord
280
     1
270
     1
271
     1
  0
XRECORD
  5
1F
102
{ACAD_REACTORS
330
1A
102
}
330
1A
100
AcDbXrecord
280
     1
270
     1
271
     1
  0
XRECORD
  5
1E
102
{ACAD_REACTORS
330
1A
102
}
330
1A
100
AcDbXrecord
280
     1
270
     1
271
     1
  0
XRECORD
  5
20
102
{ACAD_REACTORS
330
1A
102
}
330
1A
100
AcDbXrecord
280
     1
270
     1
271
     1
  0
XRECORD
  5
1D
102
{ACAD_REACTORS
330
1A
102
}
330
1A
100
AcDbXrecord
280
     1
270
     1
271
     1
  0
XRECORD
  5
14
102
{ACAD_REACTORS
330
12
102
}
330
12
100
AcDbXrecord
280
     1
270
     1
271
     1
  0
XRECORD
  5
13
102
{ACAD_REACTORS
330
12
102
}
330
12
100
AcDbXrecord
280
     1
270
     1
271
     1
  0
XRECORD
  5
17
102
{ACAD_REACTORS
330
12
102
}
330
12
100
AcDbXrecord
280
     1
270
     1
271
     1
  0
XRECORD
  5
16
102
{ACAD_REACTORS
330
12
102
}
330
12
100
AcDbXrecord
280
     1
270
     1
271
     1
  0
XRECORD
  5
18
102
{ACAD_REACTORS
330
12
102
}
330
12
100
AcDbXrecord
280
     1
270
     1
271
     1
  0
XRECORD
  5
15
102
{ACAD_REACTORS
330
12
102
}
330
12
100
AcDbXrecord
280
     1
270
     1
271
     1
  0
XRECORD
  5
24
102
{ACAD_REACTORS
330
22
102
}
330
22
100
AcDbXrecord
280
     1
270
     1
271
     1
  0
XRECORD
  5
23
102
{ACAD_REACTORS
330
22
102
}
330
22
100
AcDbXrecord
280
     1
270
     1
271
     1
  0
XRECORD
  5
27
102
{ACAD_REACTORS
330
22
102
}
330
22
100
AcDbXrecord
280
     1
270
     1
271
     1
  0
XRECORD
  5
26
102
{ACAD_REACTORS
330
22
102
}
330
22
100
AcDbXrecord
280
     1
270
     1
271
     1
  0
XRECORD
  5
28
102
{ACAD_REACTORS
330
22
102
}
330
22
100
AcDbXrecord
280
     1
270
     1
271
     1
  0
XRECORD
  5
25
102
{ACAD_REACTORS
330
22
102
}
330
22
100
AcDbXrecord
280
     1
270
     1
271
     1
  0
XRECORD
  5
1A2
102
{ACAD_REACTORS
330
1A1
102
}
330
1A1
100
AcDbXrecord
280
     1
102
ACAD_ROUNDTRIP_2012_MLEADER_STYLE
298
     1
  0
XRECORD
  5
1A4
102
{ACAD_REACTORS
330
1A3
102
}
330
1A3
100
AcDbXrecord
280
     1
102
DISPLAYNAME
  1
Imperial24
102
FLAGS
 90
        0
  0
CELLSTYLEMAP
  5
16F
102
{ACAD_REACTORS
330
16E
102
}
330
16E
100
AcDbCellStyleMap
 90
        3
300
CELLSTYLE
  1
TABLEFORMAT_BEGIN
 90
        5
170
     1
 91
        0
 92
    32768
 62
   257
 93
        1
300
CONTENTFORMAT
  1
CONTENTFORMAT_BEGIN
 90
        0
 91
        0
 92
      512
 93
        0
300

 40
0.0
140
1.0
 94
        5
 62
     0
340
55
144
0.25
309
CONTENTFORMAT_END
171
     0
 94
        0
309
TABLEFORMAT_END
  1
CELLSTYLE_BEGIN
 90
        1
 91
        1
300
_TITLE
309
CELLSTYLE_END
300
CELLSTYLE
  1
TABLEFORMAT_BEGIN
 90
        5
170
     1
 91
        0
 92
        0
 62
   257
 93
        1
300
CONTENTFORMAT
  1
CONTENTFORMAT_BEGIN
 90
        0
 91
        0
 92
      512
 93
        0
300

 40
0.0
140
1.0
 94
        5
 62
     0
340
55
144
0.18
309
CONTENTFORMAT_END
171
     0
 94
        0
309
TABLEFORMAT_END
  1
CELLSTYLE_BEGIN
 90
        2
 91
        1
300
_HEADER
309
CELLSTYLE_END
300
CELLSTYLE
  1
TABLEFORMAT_BEGIN
 90
        5
170
     1
 91
        0
 92
        0
 62
   257
 93
        1
300
CONTENTFORMAT
  1
CONTENTFORMAT_BEGIN
 90
        0
 91
        0
 92
      512
 93
        0
300

 40
0.0
140
1.0
 94
        2
 62
     0
340
55
144
0.18
309
CONTENTFORMAT_END
171
     0
 94
        0
309
TABLEFORMAT_END
  1
CELLSTYLE_BEGIN
 90
        3
 91
        2
300
_DATA
309
CELLSTYLE_END
  0
XRECORD
  5
17C
102
{ACAD_REACTORS
330
17B
102
}
330
17B
100
AcDbXrecord
280
     1
102
RTVSPost2010Prop28
280
     1
102
RTVSPost2010PropOp28
 70
     1
102
RTVSPost2010Prop29
280
     1
102
RTVSPost2010PropOp29
 70
     1
102
RTVSPost2010Prop30
280
     0
102
RTVSPost2010PropOp30
 70
     1
102
RTVSPost2010Prop31
280
     0
102
RTVSPost2010PropOp31
 70
     1
102
RTVSPost2010Prop32
280
     0
102
RTVSPost2010PropOp32
 70
     1
102
RTVSPost2010Prop33
280
     0
102
RTVSPost2010PropOp33
 70
     1
102
RTVSPost2010Prop34
280
     0
102
RTVSPost2010PropOp34
 70
     1
102
RTVSPost2010Prop35
280
     0
102
RTVSPost2010PropOp35
 70
     1
102
RTVSPost2010Prop36
280
     0
102
RTVSPost2010PropOp36
 70
     1
102
RTVSPost2010Prop37
 90
       50
102
RTVSPost2010PropOp37
 70
     1
102
RTVSPost2010Prop38
140
0.0
102
RTVSPost2010PropOp38
 70
     1
102
RTVSPost2010Prop39
140
1.0
102
RTVSPost2010PropOp39
 70
     1
102
RTVSPost2010Prop40
 90
        0
102
RTVSPost2010PropOp40
 70
     1
102
RTVSPost2010Prop41ColorIndex
 90
       18
102
RTVSPost2010Prop41ColorRGB
 90
        0
102
RTVSPost2010PropOp41
 70
     1
102
RTVSPost2010Prop42
 90
       50
102
RTVSPost2010PropOp42
 70
     1
102
RTVSPost2010Prop43
 90
        3
102
RTVSPost2010PropOp43
 70
     1
102
RTVSPost2010Prop44ColorIndex
 90
        5
102
RTVSPost2010Prop44ColorRGB
 90
      255
102
RTVSPost2010PropOp44
 70
     1
102
RTVSPost2010Prop45
280
     0
102
RTVSPost2010PropOp45
 70
     1
102
RTVSPost2010Prop46
 90
       50
102
RTVSPost2010PropOp46
 70
     1
102
RTVSPost2010Prop47
 90
       50
102
RTVSPost2010PropOp47
 70
     1
102
RTVSPost2010Prop48
 90
       50
102
RTVSPost2010PropOp48
 70
     1
102
RTVSPost2010Prop49
280
     0
102
RTVSPost2010PropOp49
 70
     1
102
RTVSPost2010Prop50
 90
       50
102
RTVSPost2010PropOp50
 70
     1
102
RTVSPost2010Prop51ColorIndex
 90
      256
102
RTVSPost2010Prop51ColorRGB
 90
-16777216
102
RTVSPost2010PropOp51
 70
     0
102
RTVSPost2010Prop52
140
1.0
102
RTVSPost2010PropOp52
 70
     0
102
RTVSPost2010Prop53
 90
        2
102
RTVSPost2010PropOp53
 70
     1
102
RTVSPost2010Prop54
  1
strokes_ogs.tif
102
RTVSPost2010PropOp54
 70
     1
102
RTVSPost2010Prop55
280
     0
102
RTVSPost2010PropOp55
 70
     1
102
RTVSPost2010Prop56
140
1.0
102
RTVSPost2010PropOp56
 70
     1
102
RTVSPost2010Prop57
140
1.0
102
RTVSPost2010PropOp57
 70
     1
  0
XRECORD
  5
17A
102
{ACAD_REACTORS
330
179
102
}
330
179
100
AcDbXrecord
280
     1
102
RTVSPost2010Prop28
280
     0
102
RTVSPost2010PropOp28
 70
     1
102
RTVSPost2010Prop29
280
     1
102
RTVSPost2010PropOp29
 70
     1
102
RTVSPost2010Prop30
280
     1
102
RTVSPost2010PropOp30
 70
     1
102
RTVSPost2010Prop31
280
     0
102
RTVSPost2010PropOp31
 70
     1
102
RTVSPost2010Prop32
280
     0
102
RTVSPost2010PropOp32
 70
     1
102
RTVSPost2010Prop33
280
     0
102
RTVSPost2010PropOp33
 70
     1
102
RTVSPost2010Prop34
280
     0
102
RTVSPost2010PropOp34
 70
     1
102
RTVSPost2010Prop35
280
     0
102
RTVSPost2010PropOp35
 70
     1
102
RTVSPost2010Prop36
280
     0
102
RTVSPost2010PropOp36
 70
     1
102
RTVSPost2010Prop37
 90
       50
102
RTVSPost2010PropOp37
 70
     1
102
RTVSPost2010Prop38
140
0.0
102
RTVSPost2010PropOp38
 70
     1
102
RTVSPost2010Prop39
140
1.0
102
RTVSPost2010PropOp39
 70
     1
102
RTVSPost2010Prop40
 90
        0
102
RTVSPost2010PropOp40
 70
     1
102
RTVSPost2010Prop41ColorIndex
 90
       18
102
RTVSPost2010Prop41ColorRGB
 90
        0
102
RTVSPost2010PropOp41
 70
     1
102
RTVSPost2010Prop42
 90
       50
102
RTVSPost2010PropOp42
 70
     1
102
RTVSPost2010Prop43
 90
        3
102
RTVSPost2010PropOp43
 70
     1
102
RTVSPost2010Prop44ColorIndex
 90
        5
102
RTVSPost2010Prop44ColorRGB
 90
      255
102
RTVSPost2010PropOp44
 70
     1
102
RTVSPost2010Prop45
280
     0
102
RTVSPost2010PropOp45
 70
     1
102
RTVSPost2010Prop46
 90
       50
102
RTVSPost2010PropOp46
 70
     1
102
RTVSPost2010Prop47
 90
       50
102
RTVSPost2010PropOp47
 70
     1
102
RTVSPost2010Prop48
 90
       50
102
RTVSPost2010PropOp48
 70
     1
102
RTVSPost2010Prop49
280
     0
102
RTVSPost2010PropOp49
 70
     1
102
RTVSPost2010Prop50
 90
       50
102
RTVSPost2010PropOp50
 70
     1
102
RTVSPost2010Prop51ColorIndex
 90
      256
102
RTVSPost2010Prop51ColorRGB
 90
-16777216
102
RTVSPost2010PropOp51
 70
     0
102
RTVSPost2010Prop52
140
1.0
102
RTVSPost2010PropOp52
 70
     0
102
RTVSPost2010Prop53
 90
        2
102
RTVSPost2010PropOp53
 70
     1
102
RTVSPost2010Prop54
  1
strokes_ogs.tif
102
RTVSPost2010PropOp54
 70
     1
102
RTVSPost2010Prop55
280
     0
102
RTVSPost2010PropOp55
 70
     1
102
RTVSPost2010Prop56
140
1.0
102
RTVSPost2010PropOp56
 70
     1
102
RTVSPost2010Prop57
140
1.0
102
RTVSPost2010PropOp57
 70
     1
  0
XRECORD
  5
188
102
{ACAD_REACTORS
330
187
102
}
330
187
100
AcDbXrecord
280
     1
102
RTVSPost2010Prop28
280
     0
102
RTVSPost2010PropOp28
 70
     1
102
RTVSPost2010Prop29
280
     1
102
RTVSPost2010PropOp29
 70
     1
102
RTVSPost2010Prop30
280
     1
102
RTVSPost2010PropOp30
 70
     1
102
RTVSPost2010Prop31
280
     0
102
RTVSPost2010PropOp31
 70
     1
102
RTVSPost2010Prop32
280
     0
102
RTVSPost2010PropOp32
 70
     1
102
RTVSPost2010Prop33
280
     0
102
RTVSPost2010PropOp33
 70
     1
102
RTVSPost2010Prop34
280
     0
102
RTVSPost2010PropOp34
 70
     1
102
RTVSPost2010Prop35
280
     0
102
RTVSPost2010PropOp35
 70
     1
102
RTVSPost2010Prop36
280
     0
102
RTVSPost2010PropOp36
 70
     1
102
RTVSPost2010Prop37
 90
       50
102
RTVSPost2010PropOp37
 70
     1
102
RTVSPost2010Prop38
140
0.0
102
RTVSPost2010PropOp38
 70
     1
102
RTVSPost2010Prop39
140
1.0
102
RTVSPost2010PropOp39
 70
     1
102
RTVSPost2010Prop40
 90
        0
102
RTVSPost2010PropOp40
 70
     1
102
RTVSPost2010Prop41ColorIndex
 90
       18
102
RTVSPost2010Prop41ColorRGB
 90
        0
102
RTVSPost2010PropOp41
 70
     1
102
RTVSPost2010Prop42
 90
       50
102
RTVSPost2010PropOp42
 70
     1
102
RTVSPost2010Prop43
 90
        3
102
RTVSPost2010PropOp43
 70
     1
102
RTVSPost2010Prop44ColorIndex
 90
        5
102
RTVSPost2010Prop44ColorRGB
 90
      255
102
RTVSPost2010PropOp44
 70
     1
102
RTVSPost2010Prop45
280
     0
102
RTVSPost2010PropOp45
 70
     1
102
RTVSPost2010Prop46
 90
       50
102
RTVSPost2010PropOp46
 70
     1
102
RTVSPost2010Prop47
 90
       50
102
RTVSPost2010PropOp47
 70
     1
102
RTVSPost2010Prop48
 90
       50
102
RTVSPost2010PropOp48
 70
     1
102
RTVSPost2010Prop49
280
     0
102
RTVSPost2010PropOp49
 70
     1
102
RTVSPost2010Prop50
 90
       50
102
RTVSPost2010PropOp50
 70
     1
102
RTVSPost2010Prop51ColorIndex
 90
      256
102
RTVSPost2010Prop51ColorRGB
 90
-16777216
102
RTVSPost2010PropOp51
 70
     0
102
RTVSPost2010Prop52
140
1.0
102
RTVSPost2010PropOp52
 70
     0
102
RTVSPost2010Prop53
 90
        2
102
RTVSPost2010PropOp53
 70
     1
102
RTVSPost2010Prop54
  1
strokes_ogs.tif
102
RTVSPost2010PropOp54
 70
     1
102
RTVSPost2010Prop55
280
     0
102
RTVSPost2010PropOp55
 70
     1
102
RTVSPost2010Prop56
140
1.0
102
RTVSPost2010PropOp56
 70
     1
102
RTVSPost2010Prop57
140
1.0
102
RTVSPost2010PropOp57
 70
     1
  0
XRECORD
  5
190
102
{ACAD_REACTORS
330
18F
102
}
330
18F
100
AcDbXrecord
280
     1
102
RTVSPost2010Prop28
280
     0
102
RTVSPost2010PropOp28
 70
     1
102
RTVSPost2010Prop29
280
     1
102
RTVSPost2010PropOp29
 70
     1
102
RTVSPost2010Prop30
280
     1
102
RTVSPost2010PropOp30
 70
     1
102
RTVSPost2010Prop31
280
     0
102
RTVSPost2010PropOp31
 70
     1
102
RTVSPost2010Prop32
280
     0
102
RTVSPost2010PropOp32
 70
     1
102
RTVSPost2010Prop33
280
     0
102
RTVSPost2010PropOp33
 70
     1
102
RTVSPost2010Prop34
280
     0
102
RTVSPost2010PropOp34
 70
     1
102
RTVSPost2010Prop35
280
     0
102
RTVSPost2010PropOp35
 70
     1
102
RTVSPost2010Prop36
280
     0
102
RTVSPost2010PropOp36
 70
     1
102
RTVSPost2010Prop37
 90
       50
102
RTVSPost2010PropOp37
 70
     1
102
RTVSPost2010Prop38
140
0.0
102
RTVSPost2010PropOp38
 70
     1
102
RTVSPost2010Prop39
140
1.0
102
RTVSPost2010PropOp39
 70
     1
102
RTVSPost2010Prop40
 90
        0
102
RTVSPost2010PropOp40
 70
     1
102
RTVSPost2010Prop41ColorIndex
 90
       18
102
RTVSPost2010Prop41ColorRGB
 90
        0
102
RTVSPost2010PropOp41
 70
     1
102
RTVSPost2010Prop42
 90
       50
102
RTVSPost2010PropOp42
 70
     1
102
RTVSPost2010Prop43
 90
        3
102
RTVSPost2010PropOp43
 70
     1
102
RTVSPost2010Prop44ColorIndex
 90
        5
102
RTVSPost2010Prop44ColorRGB
 90
      255
102
RTVSPost2010PropOp44
 70
     1
102
RTVSPost2010Prop45
280
     0
102
RTVSPost2010PropOp45
 70
     1
102
RTVSPost2010Prop46
 90
       50
102
RTVSPost2010PropOp46
 70
     1
102
RTVSPost2010Prop47
 90
       50
102
RTVSPost2010PropOp47
 70
     1
102
RTVSPost2010Prop48
 90
       50
102
RTVSPost2010PropOp48
 70
     1
102
RTVSPost2010Prop49
280
     0
102
RTVSPost2010PropOp49
 70
     1
102
RTVSPost2010Prop50
 90
       50
102
RTVSPost2010PropOp50
 70
     1
102
RTVSPost2010Prop51ColorIndex
 90
      256
102
RTVSPost2010Prop51ColorRGB
 90
-16777216
102
RTVSPost2010PropOp51
 70
     0
102
RTVSPost2010Prop52
140
1.0
102
RTVSPost2010PropOp52
 70
     0
102
RTVSPost2010Prop53
 90
        2
102
RTVSPost2010PropOp53
 70
     1
102
RTVSPost2010Prop54
  1
strokes_ogs.tif
102
RTVSPost2010PropOp54
 70
     1
102
RTVSPost2010Prop55
280
     0
102
RTVSPost2010PropOp55
 70
     1
102
RTVSPost2010Prop56
140
1.0
102
RTVSPost2010PropOp56
 70
     1
102
RTVSPost2010Prop57
140
1.0
102
RTVSPost2010PropOp57
 70
     1
  0
XRECORD
  5
182
102
{ACAD_REACTORS
330
181
102
}
330
181
100
AcDbXrecord
280
     1
102
RTVSPost2010Prop28
280
     0
102
RTVSPost2010PropOp28
 70
     1
102
RTVSPost2010Prop29
280
     1
102
RTVSPost2010PropOp29
 70
     1
102
RTVSPost2010Prop30
280
     1
102
RTVSPost2010PropOp30
 70
     1
102
RTVSPost2010Prop31
280
     0
102
RTVSPost2010PropOp31
 70
     1
102
RTVSPost2010Prop32
280
     0
102
RTVSPost2010PropOp32
 70
     1
102
RTVSPost2010Prop33
280
     0
102
RTVSPost2010PropOp33
 70
     1
102
RTVSPost2010Prop34
280
     0
102
RTVSPost2010PropOp34
 70
     1
102
RTVSPost2010Prop35
280
     0
102
RTVSPost2010PropOp35
 70
     1
102
RTVSPost2010Prop36
280
     0
102
RTVSPost2010PropOp36
 70
     1
102
RTVSPost2010Prop37
 90
       50
102
RTVSPost2010PropOp37
 70
     1
102
RTVSPost2010Prop38
140
0.0
102
RTVSPost2010PropOp38
 70
     1
102
RTVSPost2010Prop39
140
1.0
102
RTVSPost2010PropOp39
 70
     1
102
RTVSPost2010Prop40
 90
        0
102
RTVSPost2010PropOp40
 70
     1
102
RTVSPost2010Prop41ColorIndex
 90
       18
102
RTVSPost2010Prop41ColorRGB
 90
        0
102
RTVSPost2010PropOp41
 70
     1
102
RTVSPost2010Prop42
 90
       50
102
RTVSPost2010PropOp42
 70
     1
102
RTVSPost2010Prop43
 90
        3
102
RTVSPost2010PropOp43
 70
     1
102
RTVSPost2010Prop44ColorIndex
 90
        5
102
RTVSPost2010Prop44ColorRGB
 90
      255
102
RTVSPost2010PropOp44
 70
     1
102
RTVSPost2010Prop45
280
     0
102
RTVSPost2010PropOp45
 70
     1
102
RTVSPost2010Prop46
 90
       50
102
RTVSPost2010PropOp46
 70
     1
102
RTVSPost2010Prop47
 90
       50
102
RTVSPost2010PropOp47
 70
     1
102
RTVSPost2010Prop48
 90
       50
102
RTVSPost2010PropOp48
 70
     1
102
RTVSPost2010Prop49
280
     0
102
RTVSPost2010PropOp49
 70
     1
102
RTVSPost2010Prop50
 90
       50
102
RTVSPost2010PropOp50
 70
     1
102
RTVSPost2010Prop51ColorIndex
 90
      256
102
RTVSPost2010Prop51ColorRGB
 90
-16777216
102
RTVSPost2010PropOp51
 70
     0
102
RTVSPost2010Prop52
140
1.0
102
RTVSPost2010PropOp52
 70
     0
102
RTVSPost2010Prop53
 90
        2
102
RTVSPost2010PropOp53
 70
     1
102
RTVSPost2010Prop54
  1
strokes_ogs.tif
102
RTVSPost2010PropOp54
 70
     1
102
RTVSPost2010Prop55
280
     0
102
RTVSPost2010PropOp55
 70
     1
102
RTVSPost2010Prop56
140
1.0
102
RTVSPost2010PropOp56
 70
     1
102
RTVSPost2010Prop57
140
1.0
102
RTVSPost2010PropOp57
 70
     1
  0
XRECORD
  5
186
102
{ACAD_REACTORS
330
185
102
}
330
185
100
AcDbXrecord
280
     1
102
RTVSPost2010Prop28
280
     0
102
RTVSPost2010PropOp28
 70
     1
102
RTVSPost2010Prop29
280
     1
102
RTVSPost2010PropOp29
 70
     1
102
RTVSPost2010Prop30
280
     1
102
RTVSPost2010PropOp30
 70
     1
102
RTVSPost2010Prop31
280
     0
102
RTVSPost2010PropOp31
 70
     1
102
RTVSPost2010Prop32
280
     0
102
RTVSPost2010PropOp32
 70
     1
102
RTVSPost2010Prop33
280
     0
102
RTVSPost2010PropOp33
 70
     1
102
RTVSPost2010Prop34
280
     0
102
RTVSPost2010PropOp34
 70
     1
102
RTVSPost2010Prop35
280
     0
102
RTVSPost2010PropOp35
 70
     1
102
RTVSPost2010Prop36
280
     0
102
RTVSPost2010PropOp36
 70
     1
102
RTVSPost2010Prop37
 90
       50
102
RTVSPost2010PropOp37
 70
     1
102
RTVSPost2010Prop38
140
0.0
102
RTVSPost2010PropOp38
 70
     1
102
RTVSPost2010Prop39
140
1.0
102
RTVSPost2010PropOp39
 70
     1
102
RTVSPost2010Prop40
 90
        0
102
RTVSPost2010PropOp40
 70
     1
102
RTVSPost2010Prop41ColorIndex
 90
       18
102
RTVSPost2010Prop41ColorRGB
 90
        0
102
RTVSPost2010PropOp41
 70
     1
102
RTVSPost2010Prop42
 90
       50
102
RTVSPost2010PropOp42
 70
     1
102
RTVSPost2010Prop43
 90
        3
102
RTVSPost2010PropOp43
 70
     1
102
RTVSPost2010Prop44ColorIndex
 90
        5
102
RTVSPost2010Prop44ColorRGB
 90
      255
102
RTVSPost2010PropOp44
 70
     1
102
RTVSPost2010Prop45
280
     0
102
RTVSPost2010PropOp45
 70
     1
102
RTVSPost2010Prop46
 90
       50
102
RTVSPost2010PropOp46
 70
     1
102
RTVSPost2010Prop47
 90
       50
102
RTVSPost2010PropOp47
 70
     1
102
RTVSPost2010Prop48
 90
       50
102
RTVSPost2010PropOp48
 70
     1
102
RTVSPost2010Prop49
280
     0
102
RTVSPost2010PropOp49
 70
     1
102
RTVSPost2010Prop50
 90
       50
102
RTVSPost2010PropOp50
 70
     1
102
RTVSPost2010Prop51ColorIndex
 90
      256
102
RTVSPost2010Prop51ColorRGB
 90
-16777216
102
RTVSPost2010PropOp51
 70
     0
102
RTVSPost2010Prop52
140
1.0
102
RTVSPost2010PropOp52
 70
     0
102
RTVSPost2010Prop53
 90
        2
102
RTVSPost2010PropOp53
 70
     1
102
RTVSPost2010Prop54
  1
strokes_ogs.tif
102
RTVSPost2010PropOp54
 70
     1
102
RTVSPost2010Prop55
280
     0
102
RTVSPost2010PropOp55
 70
     1
102
RTVSPost2010Prop56
140
1.0
102
RTVSPost2010PropOp56
 70
     1
102
RTVSPost2010Prop57
140
1.0
102
RTVSPost2010PropOp57
 70
     1
  0
XRECORD
  5
1A0
102
{ACAD_REACTORS
330
19F
102
}
330
19F
100
AcDbXrecord
280
     1
102
RTVSPost2010Prop28
280
     0
102
RTVSPost2010PropOp28
 70
     0
102
RTVSPost2010Prop29
280
     1
102
RTVSPost2010PropOp29
 70
     0
102
RTVSPost2010Prop30
280
     1
102
RTVSPost2010PropOp30
 70
     0
102
RTVSPost2010Prop31
280
     0
102
RTVSPost2010PropOp31
 70
     0
102
RTVSPost2010Prop32
280
     0
102
RTVSPost2010PropOp32
 70
     0
102
RTVSPost2010Prop33
280
     0
102
RTVSPost2010PropOp33
 70
     0
102
RTVSPost2010Prop34
280
     0
102
RTVSPost2010PropOp34
 70
     0
102
RTVSPost2010Prop35
280
     0
102
RTVSPost2010PropOp35
 70
     0
102
RTVSPost2010Prop36
280
     0
102
RTVSPost2010PropOp36
 70
     0
102
RTVSPost2010Prop37
 90
       50
102
RTVSPost2010PropOp37
 70
     0
102
RTVSPost2010Prop38
140
0.0
102
RTVSPost2010PropOp38
 70
     0
102
RTVSPost2010Prop39
140
1.0
102
RTVSPost2010PropOp39
 70
     0
102
RTVSPost2010Prop40
 90
        0
102
RTVSPost2010PropOp40
 70
     0
102
RTVSPost2010Prop41ColorIndex
 90
       18
102
RTVSPost2010Prop41ColorRGB
 90
        0
102
RTVSPost2010PropOp41
 70
     0
102
RTVSPost2010Prop42
 90
       50
102
RTVSPost2010PropOp42
 70
     0
102
RTVSPost2010Prop43
 90
        3
102
RTVSPost2010PropOp43
 70
     0
102
RTVSPost2010Prop44ColorIndex
 90
        5
102
RTVSPost2010Prop44ColorRGB
 90
      255
102
RTVSPost2010PropOp44
 70
     0
102
RTVSPost2010Prop45
280
     0
102
RTVSPost2010PropOp45
 70
     0
102
RTVSPost2010Prop46
 90
       50
102
RTVSPost2010PropOp46
 70
     0
102
RTVSPost2010Prop47
 90
       50
102
RTVSPost2010PropOp47
 70
     0
102
RTVSPost2010Prop48
 90
       50
102
RTVSPost2010PropOp48
 70
     0
102
RTVSPost2010Prop49
280
     0
102
RTVSPost2010PropOp49
 70
     0
102
RTVSPost2010Prop50
 90
       50
102
RTVSPost2010PropOp50
 70
     0
102
RTVSPost2010Prop51ColorIndex
 90
      256
102
RTVSPost2010Prop51ColorRGB
 90
-16777216
102
RTVSPost2010PropOp51
 70
     0
102
RTVSPost2010Prop52
140
1.0
102
RTVSPost2010PropOp52
 70
     0
102
RTVSPost2010Prop53
 90
        2
102
RTVSPost2010PropOp53
 70
     0
102
RTVSPost2010Prop54
  1
strokes_ogs.tif
102
RTVSPost2010PropOp54
 70
     0
102
RTVSPost2010Prop55
280
     0
102
RTVSPost2010PropOp55
 70
     0
102
RTVSPost2010Prop56
140
1.0
102
RTVSPost2010PropOp56
 70
     0
102
RTVSPost2010Prop57
140
1.0
102
RTVSPost2010PropOp57
 70
     0
  0
XRECORD
  5
18E
102
{ACAD_REACTORS
330
18D
102
}
330
18D
100
AcDbXrecord
280
     1
102
RTVSPost2010Prop28
280
     0
102
RTVSPost2010PropOp28
 70
     1
102
RTVSPost2010Prop29
280
     1
102
RTVSPost2010PropOp29
 70
     1
102
RTVSPost2010Prop30
280
     1
102
RTVSPost2010PropOp30
 70
     1
102
RTVSPost2010Prop31
280
     0
102
RTVSPost2010PropOp31
 70
     1
102
RTVSPost2010Prop32
280
     0
102
RTVSPost2010PropOp32
 70
     1
102
RTVSPost2010Prop33
280
     0
102
RTVSPost2010PropOp33
 70
     1
102
RTVSPost2010Prop34
280
     0
102
RTVSPost2010PropOp34
 70
     1
102
RTVSPost2010Prop35
280
     0
102
RTVSPost2010PropOp35
 70
     1
102
RTVSPost2010Prop36
280
     0
102
RTVSPost2010PropOp36
 70
     1
102
RTVSPost2010Prop37
 90
       50
102
RTVSPost2010PropOp37
 70
     1
102
RTVSPost2010Prop38
140
0.0
102
RTVSPost2010PropOp38
 70
     1
102
RTVSPost2010Prop39
140
1.0
102
RTVSPost2010PropOp39
 70
     1
102
RTVSPost2010Prop40
 90
        0
102
RTVSPost2010PropOp40
 70
     1
102
RTVSPost2010Prop41ColorIndex
 90
       18
102
RTVSPost2010Prop41ColorRGB
 90
        0
102
RTVSPost2010PropOp41
 70
     1
102
RTVSPost2010Prop42
 90
       50
102
RTVSPost2010PropOp42
 70
     1
102
RTVSPost2010Prop43
 90
        3
102
RTVSPost2010PropOp43
 70
     1
102
RTVSPost2010Prop44ColorIndex
 90
        5
102
RTVSPost2010Prop44ColorRGB
 90
      255
102
RTVSPost2010PropOp44
 70
     1
102
RTVSPost2010Prop45
280
     0
102
RTVSPost2010PropOp45
 70
     1
102
RTVSPost2010Prop46
 90
       50
102
RTVSPost2010PropOp46
 70
     1
102
RTVSPost2010Prop47
 90
       50
102
RTVSPost2010PropOp47
 70
     1
102
RTVSPost2010Prop48
 90
       50
102
RTVSPost2010PropOp48
 70
     1
102
RTVSPost2010Prop49
280
     0
102
RTVSPost2010PropOp49
 70
     1
102
RTVSPost2010Prop50
 90
       50
102
RTVSPost2010PropOp50
 70
     1
102
RTVSPost2010Prop51ColorIndex
 90
      256
102
RTVSPost2010Prop51ColorRGB
 90
-16777216
102
RTVSPost2010PropOp51
 70
     0
102
RTVSPost2010Prop52
140
1.0
102
RTVSPost2010PropOp52
 70
     0
102
RTVSPost2010Prop53
 90
        2
102
RTVSPost2010PropOp53
 70
     1
102
RTVSPost2010Prop54
  1
strokes_ogs.tif
102
RTVSPost2010PropOp54
 70
     1
102
RTVSPost2010Prop55
280
     0
102
RTVSPost2010PropOp55
 70
     1
102
RTVSPost2010Prop56
140
1.0
102
RTVSPost2010PropOp56
 70
     1
102
RTVSPost2010Prop57
140
1.0
102
RTVSPost2010PropOp57
 70
     1
  0
XRECORD
  5
172
102
{ACAD_REACTORS
330
171
102
}
330
171
100
AcDbXrecord
280
     1
102
RTVSPost2010Prop28
280
     0
102
RTVSPost2010PropOp28
 70
     1
102
RTVSPost2010Prop29
280
     1
102
RTVSPost2010PropOp29
 70
     1
102
RTVSPost2010Prop30
280
     1
102
RTVSPost2010PropOp30
 70
     1
102
RTVSPost2010Prop31
280
     0
102
RTVSPost2010PropOp31
 70
     1
102
RTVSPost2010Prop32
280
     0
102
RTVSPost2010PropOp32
 70
     1
102
RTVSPost2010Prop33
280
     0
102
RTVSPost2010PropOp33
 70
     1
102
RTVSPost2010Prop34
280
     0
102
RTVSPost2010PropOp34
 70
     1
102
RTVSPost2010Prop35
280
     0
102
RTVSPost2010PropOp35
 70
     1
102
RTVSPost2010Prop36
280
     0
102
RTVSPost2010PropOp36
 70
     1
102
RTVSPost2010Prop37
 90
       50
102
RTVSPost2010PropOp37
 70
     1
102
RTVSPost2010Prop38
140
0.0
102
RTVSPost2010PropOp38
 70
     1
102
RTVSPost2010Prop39
140
1.0
102
RTVSPost2010PropOp39
 70
     1
102
RTVSPost2010Prop40
 90
        0
102
RTVSPost2010PropOp40
 70
     1
102
RTVSPost2010Prop41ColorIndex
 90
       18
102
RTVSPost2010Prop41ColorRGB
 90
        0
102
RTVSPost2010PropOp41
 70
     1
102
RTVSPost2010Prop42
 90
       50
102
RTVSPost2010PropOp42
 70
     1
102
RTVSPost2010Prop43
 90
        3
102
RTVSPost2010PropOp43
 70
     1
102
RTVSPost2010Prop44ColorIndex
 90
        5
102
RTVSPost2010Prop44ColorRGB
 90
      255
102
RTVSPost2010PropOp44
 70
     1
102
RTVSPost2010Prop45
280
     0
102
RTVSPost2010PropOp45
 70
     1
102
RTVSPost2010Prop46
 90
       50
102
RTVSPost2010PropOp46
 70
     1
102
RTVSPost2010Prop47
 90
       50
102
RTVSPost2010PropOp47
 70
     1
102
RTVSPost2010Prop48
 90
       50
102
RTVSPost2010PropOp48
 70
     1
102
RTVSPost2010Prop49
280
     0
102
RTVSPost2010PropOp49
 70
     1
102
RTVSPost2010Prop50
 90
       50
102
RTVSPost2010PropOp50
 70
     1
102
RTVSPost2010Prop51ColorIndex
 90
      256
102
RTVSPost2010Prop51ColorRGB
 90
-16777216
102
RTVSPost2010PropOp51
 70
     0
102
RTVSPost2010Prop52
140
1.0
102
RTVSPost2010PropOp52
 70
     0
102
RTVSPost2010Prop53
 90
        2
102
RTVSPost2010PropOp53
 70
     1
102
RTVSPost2010Prop54
  1
strokes_ogs.tif
102
RTVSPost2010PropOp54
 70
     1
102
RTVSPost2010Prop55
280
     0
102
RTVSPost2010PropOp55
 70
     1
102
RTVSPost2010Prop56
140
1.0
102
RTVSPost2010PropOp56
 70
     1
102
RTVSPost2010Prop57
140
1.0
102
RTVSPost2010PropOp57
 70
     1
  0
XRECORD
  5
174
102
{ACAD_REACTORS
330
173
102
}
330
173
100
AcDbXrecord
280
     1
102
RTVSPost2010Prop28
280
     0
102
RTVSPost2010PropOp28
 70
     1
102
RTVSPost2010Prop29
280
     1
102
RTVSPost2010PropOp29
 70
     1
102
RTVSPost2010Prop30
280
     1
102
RTVSPost2010PropOp30
 70
     1
102
RTVSPost2010Prop31
280
     0
102
RTVSPost2010PropOp31
 70
     1
102
RTVSPost2010Prop32
280
     0
102
RTVSPost2010PropOp32
 70
     1
102
RTVSPost2010Prop33
280
     0
102
RTVSPost2010PropOp33
 70
     1
102
RTVSPost2010Prop34
280
     0
102
RTVSPost2010PropOp34
 70
     1
102
RTVSPost2010Prop35
280
     0
102
RTVSPost2010PropOp35
 70
     1
102
RTVSPost2010Prop36
280
     0
102
RTVSPost2010PropOp36
 70
     1
102
RTVSPost2010Prop37
 90
       50
102
RTVSPost2010PropOp37
 70
     1
102
RTVSPost2010Prop38
140
0.0
102
RTVSPost2010PropOp38
 70
     1
102
RTVSPost2010Prop39
140
1.0
102
RTVSPost2010PropOp39
 70
     1
102
RTVSPost2010Prop40
 90
        0
102
RTVSPost2010PropOp40
 70
     1
102
RTVSPost2010Prop41ColorIndex
 90
       18
102
RTVSPost2010Prop41ColorRGB
 90
        0
102
RTVSPost2010PropOp41
 70
     1
102
RTVSPost2010Prop42
 90
       50
102
RTVSPost2010PropOp42
 70
     1
102
RTVSPost2010Prop43
 90
        3
102
RTVSPost2010PropOp43
 70
     1
102
RTVSPost2010Prop44ColorIndex
 90
        5
102
RTVSPost2010Prop44ColorRGB
 90
      255
102
RTVSPost2010PropOp44
 70
     1
102
RTVSPost2010Prop45
280
     0
102
RTVSPost2010PropOp45
 70
     1
102
RTVSPost2010Prop46
 90
       50
102
RTVSPost2010PropOp46
 70
     1
102
RTVSPost2010Prop47
 90
       50
102
RTVSPost2010PropOp47
 70
     1
102
RTVSPost2010Prop48
 90
       50
102
RTVSPost2010PropOp48
 70
     1
102
RTVSPost2010Prop49
280
     0
102
RTVSPost2010PropOp49
 70
     1
102
RTVSPost2010Prop50
 90
       50
102
RTVSPost2010PropOp50
 70
     1
102
RTVSPost2010Prop51ColorIndex
 90
      256
102
RTVSPost2010Prop51ColorRGB
 90
-16777216
102
RTVSPost2010PropOp51
 70
     0
102
RTVSPost2010Prop52
140
1.0
102
RTVSPost2010PropOp52
 70
     0
102
RTVSPost2010Prop53
 90
        2
102
RTVSPost2010PropOp53
 70
     1
102
RTVSPost2010Prop54
  1
strokes_ogs.tif
102
RTVSPost2010PropOp54
 70
     1
102
RTVSPost2010Prop55
280
     0
102
RTVSPost2010PropOp55
 70
     1
102
RTVSPost2010Prop56
140
1.0
102
RTVSPost2010PropOp56
 70
     1
102
RTVSPost2010Prop57
140
1.0
102
RTVSPost2010PropOp57
 70
     1
  0
XRECORD
  5
176
102
{ACAD_REACTORS
330
175
102
}
330
175
100
AcDbXrecord
280
     1
102
RTVSPost2010Prop28
280
     0
102
RTVSPost2010PropOp28
 70
     1
102
RTVSPost2010Prop29
280
     1
102
RTVSPost2010PropOp29
 70
     1
102
RTVSPost2010Prop30
280
     1
102
RTVSPost2010PropOp30
 70
     1
102
RTVSPost2010Prop31
280
     0
102
RTVSPost2010PropOp31
 70
     1
102
RTVSPost2010Prop32
280
     0
102
RTVSPost2010PropOp32
 70
     1
102
RTVSPost2010Prop33
280
     0
102
RTVSPost2010PropOp33
 70
     1
102
RTVSPost2010Prop34
280
     0
102
RTVSPost2010PropOp34
 70
     1
102
RTVSPost2010Prop35
280
     0
102
RTVSPost2010PropOp35
 70
     1
102
RTVSPost2010Prop36
280
     0
102
RTVSPost2010PropOp36
 70
     1
102
RTVSPost2010Prop37
 90
       50
102
RTVSPost2010PropOp37
 70
     1
102
RTVSPost2010Prop38
140
0.0
102
RTVSPost2010PropOp38
 70
     1
102
RTVSPost2010Prop39
140
1.0
102
RTVSPost2010PropOp39
 70
     1
102
RTVSPost2010Prop40
 90
        0
102
RTVSPost2010PropOp40
 70
     1
102
RTVSPost2010Prop41ColorIndex
 90
       18
102
RTVSPost2010Prop41ColorRGB
 90
        0
102
RTVSPost2010PropOp41
 70
     1
102
RTVSPost2010Prop42
 90
       50
102
RTVSPost2010PropOp42
 70
     1
102
RTVSPost2010Prop43
 90
        3
102
RTVSPost2010PropOp43
 70
     1
102
RTVSPost2010Prop44ColorIndex
 90
        5
102
RTVSPost2010Prop44ColorRGB
 90
      255
102
RTVSPost2010PropOp44
 70
     1
102
RTVSPost2010Prop45
280
     0
102
RTVSPost2010PropOp45
 70
     1
102
RTVSPost2010Prop46
 90
       50
102
RTVSPost2010PropOp46
 70
     1
102
RTVSPost2010Prop47
 90
       50
102
RTVSPost2010PropOp47
 70
     1
102
RTVSPost2010Prop48
 90
       50
102
RTVSPost2010PropOp48
 70
     1
102
RTVSPost2010Prop49
280
     0
102
RTVSPost2010PropOp49
 70
     1
102
RTVSPost2010Prop50
 90
       50
102
RTVSPost2010PropOp50
 70
     1
102
RTVSPost2010Prop51ColorIndex
 90
      256
102
RTVSPost2010Prop51ColorRGB
 90
-16777216
102
RTVSPost2010PropOp51
 70
     0
102
RTVSPost2010Prop52
140
1.0
102
RTVSPost2010PropOp52
 70
     0
102
RTVSPost2010Prop53
 90
        2
102
RTVSPost2010PropOp53
 70
     1
102
RTVSPost2010Prop54
  1
strokes_ogs.tif
102
RTVSPost2010PropOp54
 70
     1
102
RTVSPost2010Prop55
280
     0
102
RTVSPost2010PropOp55
 70
     1
102
RTVSPost2010Prop56
140
1.0
102
RTVSPost2010PropOp56
 70
     1
102
RTVSPost2010Prop57
140
1.0
102
RTVSPost2010PropOp57
 70
     1
  0
XRECORD
  5
178
102
{ACAD_REACTORS
330
177
102
}
330
177
100
AcDbXrecord
280
     1
102
RTVSPost2010Prop28
280
     0
102
RTVSPost2010PropOp28
 70
     1
102
RTVSPost2010Prop29
280
     1
102
RTVSPost2010PropOp29
 70
     1
102
RTVSPost2010Prop30
280
     1
102
RTVSPost2010PropOp30
 70
     1
102
RTVSPost2010Prop31
280
     0
102
RTVSPost2010PropOp31
 70
     1
102
RTVSPost2010Prop32
280
     0
102
RTVSPost2010PropOp32
 70
     1
102
RTVSPost2010Prop33
280
     0
102
RTVSPost2010PropOp33
 70
     1
102
RTVSPost2010Prop34
280
     0
102
RTVSPost2010PropOp34
 70
     1
102
RTVSPost2010Prop35
280
     0
102
RTVSPost2010PropOp35
 70
     1
102
RTVSPost2010Prop36
280
     0
102
RTVSPost2010PropOp36
 70
     1
102
RTVSPost2010Prop37
 90
       50
102
RTVSPost2010PropOp37
 70
     1
102
RTVSPost2010Prop38
140
0.0
102
RTVSPost2010PropOp38
 70
     1
102
RTVSPost2010Prop39
140
1.0
102
RTVSPost2010PropOp39
 70
     1
102
RTVSPost2010Prop40
 90
        0
102
RTVSPost2010PropOp40
 70
     1
102
RTVSPost2010Prop41ColorIndex
 90
       18
102
RTVSPost2010Prop41ColorRGB
 90
        0
102
RTVSPost2010PropOp41
 70
     1
102
RTVSPost2010Prop42
 90
       50
102
RTVSPost2010PropOp42
 70
     1
102
RTVSPost2010Prop43
 90
        3
102
RTVSPost2010PropOp43
 70
     1
102
RTVSPost2010Prop44ColorIndex
 90
        5
102
RTVSPost2010Prop44ColorRGB
 90
      255
102
RTVSPost2010PropOp44
 70
     1
102
RTVSPost2010Prop45
280
     0
102
RTVSPost2010PropOp45
 70
     1
102
RTVSPost2010Prop46
 90
       50
102
RTVSPost2010PropOp46
 70
     1
102
RTVSPost2010Prop47
 90
       50
102
RTVSPost2010PropOp47
 70
     1
102
RTVSPost2010Prop48
 90
       50
102
RTVSPost2010PropOp48
 70
     1
102
RTVSPost2010Prop49
280
     0
102
RTVSPost2010PropOp49
 70
     1
102
RTVSPost2010Prop50
 90
       50
102
RTVSPost2010PropOp50
 70
     1
102
RTVSPost2010Prop51ColorIndex
 90
      256
102
RTVSPost2010Prop51ColorRGB
 90
-16777216
102
RTVSPost2010PropOp51
 70
     0
102
RTVSPost2010Prop52
140
1.0
102
RTVSPost2010PropOp52
 70
     0
102
RTVSPost2010Prop53
 90
        2
102
RTVSPost2010PropOp53
 70
     1
102
RTVSPost2010Prop54
  1
strokes_ogs.tif
102
RTVSPost2010PropOp54
 70
     1
102
RTVSPost2010Prop55
280
     0
102
RTVSPost2010PropOp55
 70
     1
102
RTVSPost2010Prop56
140
1.0
102
RTVSPost2010PropOp56
 70
     1
102
RTVSPost2010Prop57
140
1.0
102
RTVSPost2010PropOp57
 70
     1
  0
XRECORD
  5
180
102
{ACAD_REACTORS
330
17F
102
}
330
17F
100
AcDbXrecord
280
     1
102
RTVSPost2010Prop28
280
     0
102
RTVSPost2010PropOp28
 70
     1
102
RTVSPost2010Prop29
280
     1
102
RTVSPost2010PropOp29
 70
     1
102
RTVSPost2010Prop30
280
     1
102
RTVSPost2010PropOp30
 70
     1
102
RTVSPost2010Prop31
280
     0
102
RTVSPost2010PropOp31
 70
     1
102
RTVSPost2010Prop32
280
     0
102
RTVSPost2010PropOp32
 70
     1
102
RTVSPost2010Prop33
280
     0
102
RTVSPost2010PropOp33
 70
     1
102
RTVSPost2010Prop34
280
     0
102
RTVSPost2010PropOp34
 70
     1
102
RTVSPost2010Prop35
280
     0
102
RTVSPost2010PropOp35
 70
     1
102
RTVSPost2010Prop36
280
     0
102
RTVSPost2010PropOp36
 70
     1
102
RTVSPost2010Prop37
 90
       50
102
RTVSPost2010PropOp37
 70
     1
102
RTVSPost2010Prop38
140
0.0
102
RTVSPost2010PropOp38
 70
     1
102
RTVSPost2010Prop39
140
1.0
102
RTVSPost2010PropOp39
 70
     1
102
RTVSPost2010Prop40
 90
        0
102
RTVSPost2010PropOp40
 70
     1
102
RTVSPost2010Prop41ColorIndex
 90
       18
102
RTVSPost2010Prop41ColorRGB
 90
        0
102
RTVSPost2010PropOp41
 70
     1
102
RTVSPost2010Prop42
 90
       50
102
RTVSPost2010PropOp42
 70
     1
102
RTVSPost2010Prop43
 90
        3
102
RTVSPost2010PropOp43
 70
     1
102
RTVSPost2010Prop44ColorIndex
 90
        5
102
RTVSPost2010Prop44ColorRGB
 90
      255
102
RTVSPost2010PropOp44
 70
     1
102
RTVSPost2010Prop45
280
     0
102
RTVSPost2010PropOp45
 70
     1
102
RTVSPost2010Prop46
 90
       50
102
RTVSPost2010PropOp46
 70
     1
102
RTVSPost2010Prop47
 90
       50
102
RTVSPost2010PropOp47
 70
     1
102
RTVSPost2010Prop48
 90
       50
102
RTVSPost2010PropOp48
 70
     1
102
RTVSPost2010Prop49
280
     0
102
RTVSPost2010PropOp49
 70
     1
102
RTVSPost2010Prop50
 90
       50
102
RTVSPost2010PropOp50
 70
     1
102
RTVSPost2010Prop51ColorIndex
 90
      256
102
RTVSPost2010Prop51ColorRGB
 90
-16777216
102
RTVSPost2010PropOp51
 70
     0
102
RTVSPost2010Prop52
140
1.0
102
RTVSPost2010PropOp52
 70
     0
102
RTVSPost2010Prop53
 90
        2
102
RTVSPost2010PropOp53
 70
     1
102
RTVSPost2010Prop54
  1
strokes_ogs.tif
102
RTVSPost2010PropOp54
 70
     1
102
RTVSPost2010Prop55
280
     0
102
RTVSPost2010PropOp55
 70
     1
102
RTVSPost2010Prop56
140
1.0
102
RTVSPost2010PropOp56
 70
     1
102
RTVSPost2010Prop57
140
1.0
102
RTVSPost2010PropOp57
 70
     1
  0
XRECORD
  5
19C
102
{ACAD_REACTORS
330
19B
102
}
330
19B
100
AcDbXrecord
280
     1
102
RTVSPost2010Prop28
280
     0
102
RTVSPost2010PropOp28
 70
     0
102
RTVSPost2010Prop29
280
     1
102
RTVSPost2010PropOp29
 70
     0
102
RTVSPost2010Prop30
280
     1
102
RTVSPost2010PropOp30
 70
     0
102
RTVSPost2010Prop31
280
     0
102
RTVSPost2010PropOp31
 70
     0
102
RTVSPost2010Prop32
280
     0
102
RTVSPost2010PropOp32
 70
     0
102
RTVSPost2010Prop33
280
     0
102
RTVSPost2010PropOp33
 70
     0
102
RTVSPost2010Prop34
280
     0
102
RTVSPost2010PropOp34
 70
     0
102
RTVSPost2010Prop35
280
     0
102
RTVSPost2010PropOp35
 70
     0
102
RTVSPost2010Prop36
280
     0
102
RTVSPost2010PropOp36
 70
     0
102
RTVSPost2010Prop37
 90
       50
102
RTVSPost2010PropOp37
 70
     0
102
RTVSPost2010Prop38
140
0.0
102
RTVSPost2010PropOp38
 70
     0
102
RTVSPost2010Prop39
140
1.0
102
RTVSPost2010PropOp39
 70
     0
102
RTVSPost2010Prop40
 90
        0
102
RTVSPost2010PropOp40
 70
     0
102
RTVSPost2010Prop41ColorIndex
 90
       18
102
RTVSPost2010Prop41ColorRGB
 90
        0
102
RTVSPost2010PropOp41
 70
     0
102
RTVSPost2010Prop42
 90
       50
102
RTVSPost2010PropOp42
 70
     0
102
RTVSPost2010Prop43
 90
        3
102
RTVSPost2010PropOp43
 70
     0
102
RTVSPost2010Prop44ColorIndex
 90
        5
102
RTVSPost2010Prop44ColorRGB
 90
      255
102
RTVSPost2010PropOp44
 70
     0
102
RTVSPost2010Prop45
280
     0
102
RTVSPost2010PropOp45
 70
     0
102
RTVSPost2010Prop46
 90
       50
102
RTVSPost2010PropOp46
 70
     0
102
RTVSPost2010Prop47
 90
       50
102
RTVSPost2010PropOp47
 70
     0
102
RTVSPost2010Prop48
 90
       50
102
RTVSPost2010PropOp48
 70
     0
102
RTVSPost2010Prop49
280
     0
102
RTVSPost2010PropOp49
 70
     0
102
RTVSPost2010Prop50
 90
       50
102
RTVSPost2010PropOp50
 70
     0
102
RTVSPost2010Prop51ColorIndex
 90
      256
102
RTVSPost2010Prop51ColorRGB
 90
-16777216
102
RTVSPost2010PropOp51
 70
     0
102
RTVSPost2010Prop52
140
1.0
102
RTVSPost2010PropOp52
 70
     0
102
RTVSPost2010Prop53
 90
        2
102
RTVSPost2010PropOp53
 70
     0
102
RTVSPost2010Prop54
  1
strokes_ogs.tif
102
RTVSPost2010PropOp54
 70
     0
102
RTVSPost2010Prop55
280
     0
102
RTVSPost2010PropOp55
 70
     0
102
RTVSPost2010Prop56
140
1.0
102
RTVSPost2010PropOp56
 70
     0
102
RTVSPost2010Prop57
140
1.0
102
RTVSPost2010PropOp57
 70
     0
  0
XRECORD
  5
18C
102
{ACAD_REACTORS
330
18B
102
}
330
18B
100
AcDbXrecord
280
     1
102
RTVSPost2010Prop28
280
     0
102
RTVSPost2010PropOp28
 70
     1
102
RTVSPost2010Prop29
280
     1
102
RTVSPost2010PropOp29
 70
     1
102
RTVSPost2010Prop30
280
     1
102
RTVSPost2010PropOp30
 70
     1
102
RTVSPost2010Prop31
280
     0
102
RTVSPost2010PropOp31
 70
     1
102
RTVSPost2010Prop32
280
     0
102
RTVSPost2010PropOp32
 70
     1
102
RTVSPost2010Prop33
280
     0
102
RTVSPost2010PropOp33
 70
     1
102
RTVSPost2010Prop34
280
     0
102
RTVSPost2010PropOp34
 70
     1
102
RTVSPost2010Prop35
280
     0
102
RTVSPost2010PropOp35
 70
     1
102
RTVSPost2010Prop36
280
     0
102
RTVSPost2010PropOp36
 70
     1
102
RTVSPost2010Prop37
 90
       50
102
RTVSPost2010PropOp37
 70
     1
102
RTVSPost2010Prop38
140
0.0
102
RTVSPost2010PropOp38
 70
     1
102
RTVSPost2010Prop39
140
1.0
102
RTVSPost2010PropOp39
 70
     1
102
RTVSPost2010Prop40
 90
        0
102
RTVSPost2010PropOp40
 70
     1
102
RTVSPost2010Prop41ColorIndex
 90
       18
102
RTVSPost2010Prop41ColorRGB
 90
        0
102
RTVSPost2010PropOp41
 70
     1
102
RTVSPost2010Prop42
 90
       50
102
RTVSPost2010PropOp42
 70
     1
102
RTVSPost2010Prop43
 90
        3
102
RTVSPost2010PropOp43
 70
     1
102
RTVSPost2010Prop44ColorIndex
 90
        5
102
RTVSPost2010Prop44ColorRGB
 90
      255
102
RTVSPost2010PropOp44
 70
     1
102
RTVSPost2010Prop45
280
     0
102
RTVSPost2010PropOp45
 70
     1
102
RTVSPost2010Prop46
 90
       50
102
RTVSPost2010PropOp46
 70
     1
102
RTVSPost2010Prop47
 90
       50
102
RTVSPost2010PropOp47
 70
     1
102
RTVSPost2010Prop48
 90
       50
102
RTVSPost2010PropOp48
 70
     1
102
RTVSPost2010Prop49
280
     0
102
RTVSPost2010PropOp49
 70
     1
102
RTVSPost2010Prop50
 90
       50
102
RTVSPost2010PropOp50
 70
     1
102
RTVSPost2010Prop51ColorIndex
 90
      256
102
RTVSPost2010Prop51ColorRGB
 90
-16777216
102
RTVSPost2010PropOp51
 70
     0
102
RTVSPost2010Prop52
140
1.0
102
RTVSPost2010PropOp52
 70
     0
102
RTVSPost2010Prop53
 90
        2
102
RTVSPost2010PropOp53
 70
     1
102
RTVSPost2010Prop54
  1
strokes_ogs.tif
102
RTVSPost2010PropOp54
 70
     1
102
RTVSPost2010Prop55
280
     0
102
RTVSPost2010PropOp55
 70
     1
102
RTVSPost2010Prop56
140
1.0
102
RTVSPost2010PropOp56
 70
     1
102
RTVSPost2010Prop57
140
1.0
102
RTVSPost2010PropOp57
 70
     1
  0
XRECORD
  5
19E
102
{ACAD_REACTORS
330
19D
102
}
330
19D
100
AcDbXrecord
280
     1
102
RTVSPost2010Prop28
280
     0
102
RTVSPost2010PropOp28
 70
     0
102
RTVSPost2010Prop29
280
     1
102
RTVSPost2010PropOp29
 70
     0
102
RTVSPost2010Prop30
280
     1
102
RTVSPost2010PropOp30
 70
     0
102
RTVSPost2010Prop31
280
     0
102
RTVSPost2010PropOp31
 70
     0
102
RTVSPost2010Prop32
280
     0
102
RTVSPost2010PropOp32
 70
     0
102
RTVSPost2010Prop33
280
     0
102
RTVSPost2010PropOp33
 70
     0
102
RTVSPost2010Prop34
280
     0
102
RTVSPost2010PropOp34
 70
     0
102
RTVSPost2010Prop35
280
     0
102
RTVSPost2010PropOp35
 70
     0
102
RTVSPost2010Prop36
280
     0
102
RTVSPost2010PropOp36
 70
     0
102
RTVSPost2010Prop37
 90
       50
102
RTVSPost2010PropOp37
 70
     0
102
RTVSPost2010Prop38
140
0.0
102
RTVSPost2010PropOp38
 70
     0
102
RTVSPost2010Prop39
140
1.0
102
RTVSPost2010PropOp39
 70
     0
102
RTVSPost2010Prop40
 90
        0
102
RTVSPost2010PropOp40
 70
     0
102
RTVSPost2010Prop41ColorIndex
 90
       18
102
RTVSPost2010Prop41ColorRGB
 90
        0
102
RTVSPost2010PropOp41
 70
     0
102
RTVSPost2010Prop42
 90
       50
102
RTVSPost2010PropOp42
 70
     0
102
RTVSPost2010Prop43
 90
        3
102
RTVSPost2010PropOp43
 70
     0
102
RTVSPost2010Prop44ColorIndex
 90
        5
102
RTVSPost2010Prop44ColorRGB
 90
      255
102
RTVSPost2010PropOp44
 70
     0
102
RTVSPost2010Prop45
280
     0
102
RTVSPost2010PropOp45
 70
     0
102
RTVSPost2010Prop46
 90
       50
102
RTVSPost2010PropOp46
 70
     0
102
RTVSPost2010Prop47
 90
       50
102
RTVSPost2010PropOp47
 70
     0
102
RTVSPost2010Prop48
 90
       50
102
RTVSPost2010PropOp48
 70
     0
102
RTVSPost2010Prop49
280
     0
102
RTVSPost2010PropOp49
 70
     0
102
RTVSPost2010Prop50
 90
       50
102
RTVSPost2010PropOp50
 70
     0
102
RTVSPost2010Prop51ColorIndex
 90
      256
102
RTVSPost2010Prop51ColorRGB
 90
-16777216
102
RTVSPost2010PropOp51
 70
     0
102
RTVSPost2010Prop52
140
1.0
102
RTVSPost2010PropOp52
 70
     0
102
RTVSPost2010Prop53
 90
        2
102
RTVSPost2010PropOp53
 70
     0
102
RTVSPost2010Prop54
  1
strokes_ogs.tif
102
RTVSPost2010PropOp54
 70
     0
102
RTVSPost2010Prop55
280
     0
102
RTVSPost2010PropOp55
 70
     0
102
RTVSPost2010Prop56
140
1.0
102
RTVSPost2010PropOp56
 70
     0
102
RTVSPost2010Prop57
140
1.0
102
RTVSPost2010PropOp57
 70
     0
  0
XRECORD
  5
184
102
{ACAD_REACTORS
330
183
102
}
330
183
100
AcDbXrecord
280
     1
102
RTVSPost2010Prop28
280
     0
102
RTVSPost2010PropOp28
 70
     1
102
RTVSPost2010Prop29
280
     1
102
RTVSPost2010PropOp29
 70
     1
102
RTVSPost2010Prop30
280
     1
102
RTVSPost2010PropOp30
 70
     1
102
RTVSPost2010Prop31
280
     0
102
RTVSPost2010PropOp31
 70
     1
102
RTVSPost2010Prop32
280
     0
102
RTVSPost2010PropOp32
 70
     1
102
RTVSPost2010Prop33
280
     0
102
RTVSPost2010PropOp33
 70
     1
102
RTVSPost2010Prop34
280
     0
102
RTVSPost2010PropOp34
 70
     1
102
RTVSPost2010Prop35
280
     0
102
RTVSPost2010PropOp35
 70
     1
102
RTVSPost2010Prop36
280
     0
102
RTVSPost2010PropOp36
 70
     1
102
RTVSPost2010Prop37
 90
       50
102
RTVSPost2010PropOp37
 70
     1
102
RTVSPost2010Prop38
140
0.0
102
RTVSPost2010PropOp38
 70
     1
102
RTVSPost2010Prop39
140
1.0
102
RTVSPost2010PropOp39
 70
     1
102
RTVSPost2010Prop40
 90
        0
102
RTVSPost2010PropOp40
 70
     1
102
RTVSPost2010Prop41ColorIndex
 90
       18
102
RTVSPost2010Prop41ColorRGB
 90
        0
102
RTVSPost2010PropOp41
 70
     1
102
RTVSPost2010Prop42
 90
       50
102
RTVSPost2010PropOp42
 70
     1
102
RTVSPost2010Prop43
 90
        3
102
RTVSPost2010PropOp43
 70
     1
102
RTVSPost2010Prop44ColorIndex
 90
        5
102
RTVSPost2010Prop44ColorRGB
 90
      255
102
RTVSPost2010PropOp44
 70
     1
102
RTVSPost2010Prop45
280
     0
102
RTVSPost2010PropOp45
 70
     1
102
RTVSPost2010Prop46
 90
       50
102
RTVSPost2010PropOp46
 70
     1
102
RTVSPost2010Prop47
 90
       50
102
RTVSPost2010PropOp47
 70
     1
102
RTVSPost2010Prop48
 90
       50
102
RTVSPost2010PropOp48
 70
     1
102
RTVSPost2010Prop49
280
     0
102
RTVSPost2010PropOp49
 70
     1
102
RTVSPost2010Prop50
 90
       50
102
RTVSPost2010PropOp50
 70
     1
102
RTVSPost2010Prop51ColorIndex
 90
      256
102
RTVSPost2010Prop51ColorRGB
 90
-16777216
102
RTVSPost2010PropOp51
 70
     0
102
RTVSPost2010Prop52
140
1.0
102
RTVSPost2010PropOp52
 70
     0
102
RTVSPost2010Prop53
 90
        2
102
RTVSPost2010PropOp53
 70
     1
102
RTVSPost2010Prop54
  1
strokes_ogs.tif
102
RTVSPost2010PropOp54
 70
     1
102
RTVSPost2010Prop55
280
     0
102
RTVSPost2010PropOp55
 70
     1
102
RTVSPost2010Prop56
140
1.0
102
RTVSPost2010PropOp56
 70
     1
102
RTVSPost2010Prop57
140
1.0
102
RTVSPost2010PropOp57
 70
     1
  0
XRECORD
  5
19A
102
{ACAD_REACTORS
330
199
102
}
330
199
100
AcDbXrecord
280
     1
102
RTVSPost2010Prop28
280
     0
102
RTVSPost2010PropOp28
 70
     1
102
RTVSPost2010Prop29
280
     1
102
RTVSPost2010PropOp29
 70
     1
102
RTVSPost2010Prop30
280
     1
102
RTVSPost2010PropOp30
 70
     1
102
RTVSPost2010Prop31
280
     0
102
RTVSPost2010PropOp31
 70
     1
102
RTVSPost2010Prop32
280
     0
102
RTVSPost2010PropOp32
 70
     1
102
RTVSPost2010Prop33
280
     0
102
RTVSPost2010PropOp33
 70
     1
102
RTVSPost2010Prop34
280
     0
102
RTVSPost2010PropOp34
 70
     1
102
RTVSPost2010Prop35
280
     0
102
RTVSPost2010PropOp35
 70
     1
102
RTVSPost2010Prop36
280
     0
102
RTVSPost2010PropOp36
 70
     1
102
RTVSPost2010Prop37
 90
       50
102
RTVSPost2010PropOp37
 70
     1
102
RTVSPost2010Prop38
140
0.0
102
RTVSPost2010PropOp38
 70
     1
102
RTVSPost2010Prop39
140
1.0
102
RTVSPost2010PropOp39
 70
     1
102
RTVSPost2010Prop40
 90
        0
102
RTVSPost2010PropOp40
 70
     1
102
RTVSPost2010Prop41ColorIndex
 90
       18
102
RTVSPost2010Prop41ColorRGB
 90
        0
102
RTVSPost2010PropOp41
 70
     1
102
RTVSPost2010Prop42
 90
       50
102
RTVSPost2010PropOp42
 70
     1
102
RTVSPost2010Prop43
 90
        3
102
RTVSPost2010PropOp43
 70
     1
102
RTVSPost2010Prop44ColorIndex
 90
        5
102
RTVSPost2010Prop44ColorRGB
 90
      255
102
RTVSPost2010PropOp44
 70
     1
102
RTVSPost2010Prop45
280
     0
102
RTVSPost2010PropOp45
 70
     1
102
RTVSPost2010Prop46
 90
       50
102
RTVSPost2010PropOp46
 70
     1
102
RTVSPost2010Prop47
 90
       50
102
RTVSPost2010PropOp47
 70
     1
102
RTVSPost2010Prop48
 90
       50
102
RTVSPost2010PropOp48
 70
     1
102
RTVSPost2010Prop49
280
     0
102
RTVSPost2010PropOp49
 70
     1
102
RTVSPost2010Prop50
 90
       50
102
RTVSPost2010PropOp50
 70
     1
102
RTVSPost2010Prop51ColorIndex
 90
      256
102
RTVSPost2010Prop51ColorRGB
 90
-16777216
102
RTVSPost2010PropOp51
 70
     0
102
RTVSPost2010Prop52
140
1.0
102
RTVSPost2010PropOp52
 70
     0
102
RTVSPost2010Prop53
 90
        2
102
RTVSPost2010PropOp53
 70
     1
102
RTVSPost2010Prop54
  1
strokes_ogs.tif
102
RTVSPost2010PropOp54
 70
     1
102
RTVSPost2010Prop55
280
     0
102
RTVSPost2010PropOp55
 70
     1
102
RTVSPost2010Prop56
140
1.0
102
RTVSPost2010PropOp56
 70
     1
102
RTVSPost2010Prop57
140
1.0
102
RTVSPost2010PropOp57
 70
     1
  0
XRECORD
  5
198
102
{ACAD_REACTORS
330
197
102
}
330
197
100
AcDbXrecord
280
     1
102
RTVSPost2010Prop28
280
     0
102
RTVSPost2010PropOp28
 70
     1
102
RTVSPost2010Prop29
280
     1
102
RTVSPost2010PropOp29
 70
     1
102
RTVSPost2010Prop30
280
     1
102
RTVSPost2010PropOp30
 70
     1
102
RTVSPost2010Prop31
280
     0
102
RTVSPost2010PropOp31
 70
     1
102
RTVSPost2010Prop32
280
     0
102
RTVSPost2010PropOp32
 70
     1
102
RTVSPost2010Prop33
280
     0
102
RTVSPost2010PropOp33
 70
     1
102
RTVSPost2010Prop34
280
     0
102
RTVSPost2010PropOp34
 70
     1
102
RTVSPost2010Prop35
280
     0
102
RTVSPost2010PropOp35
 70
     1
102
RTVSPost2010Prop36
280
     0
102
RTVSPost2010PropOp36
 70
     1
102
RTVSPost2010Prop37
 90
       50
102
RTVSPost2010PropOp37
 70
     1
102
RTVSPost2010Prop38
140
0.0
102
RTVSPost2010PropOp38
 70
     1
102
RTVSPost2010Prop39
140
1.0
102
RTVSPost2010PropOp39
 70
     1
102
RTVSPost2010Prop40
 90
        0
102
RTVSPost2010PropOp40
 70
     1
102
RTVSPost2010Prop41ColorIndex
 90
       18
102
RTVSPost2010Prop41ColorRGB
 90
        0
102
RTVSPost2010PropOp41
 70
     1
102
RTVSPost2010Prop42
 90
       50
102
RTVSPost2010PropOp42
 70
     1
102
RTVSPost2010Prop43
 90
        3
102
RTVSPost2010PropOp43
 70
     1
102
RTVSPost2010Prop44ColorIndex
 90
        5
102
RTVSPost2010Prop44ColorRGB
 90
      255
102
RTVSPost2010PropOp44
 70
     1
102
RTVSPost2010Prop45
280
     0
102
RTVSPost2010PropOp45
 70
     1
102
RTVSPost2010Prop46
 90
       50
102
RTVSPost2010PropOp46
 70
     1
102
RTVSPost2010Prop47
 90
       50
102
RTVSPost2010PropOp47
 70
     1
102
RTVSPost2010Prop48
 90
       50
102
RTVSPost2010PropOp48
 70
     1
102
RTVSPost2010Prop49
280
     0
102
RTVSPost2010PropOp49
 70
     1
102
RTVSPost2010Prop50
 90
       50
102
RTVSPost2010PropOp50
 70
     1
102
RTVSPost2010Prop51ColorIndex
 90
      256
102
RTVSPost2010Prop51ColorRGB
 90
-16777216
102
RTVSPost2010PropOp51
 70
     0
102
RTVSPost2010Prop52
140
1.0
102
RTVSPost2010PropOp52
 70
     0
102
RTVSPost2010Prop53
 90
        2
102
RTVSPost2010PropOp53
 70
     1
102
RTVSPost2010Prop54
  1
strokes_ogs.tif
102
RTVSPost2010PropOp54
 70
     1
102
RTVSPost2010Prop55
280
     0
102
RTVSPost2010PropOp55
 70
     1
102
RTVSPost2010Prop56
140
1.0
102
RTVSPost2010PropOp56
 70
     1
102
RTVSPost2010Prop57
140
1.0
102
RTVSPost2010PropOp57
 70
     1
  0
XRECORD
  5
192
102
{ACAD_REACTORS
330
191
102
}
330
191
100
AcDbXrecord
280
     1
102
RTVSPost2010Prop28
280
     0
102
RTVSPost2010PropOp28
 70
     1
102
RTVSPost2010Prop29
280
     1
102
RTVSPost2010PropOp29
 70
     1
102
RTVSPost2010Prop30
280
     1
102
RTVSPost2010PropOp30
 70
     1
102
RTVSPost2010Prop31
280
     0
102
RTVSPost2010PropOp31
 70
     1
102
RTVSPost2010Prop32
280
     0
102
RTVSPost2010PropOp32
 70
     1
102
RTVSPost2010Prop33
280
     0
102
RTVSPost2010PropOp33
 70
     1
102
RTVSPost2010Prop34
280
     0
102
RTVSPost2010PropOp34
 70
     1
102
RTVSPost2010Prop35
280
     0
102
RTVSPost2010PropOp35
 70
     1
102
RTVSPost2010Prop36
280
     0
102
RTVSPost2010PropOp36
 70
     1
102
RTVSPost2010Prop37
 90
       50
102
RTVSPost2010PropOp37
 70
     1
102
RTVSPost2010Prop38
140
0.0
102
RTVSPost2010PropOp38
 70
     1
102
RTVSPost2010Prop39
140
1.0
102
RTVSPost2010PropOp39
 70
     1
102
RTVSPost2010Prop40
 90
        0
102
RTVSPost2010PropOp40
 70
     1
102
RTVSPost2010Prop41ColorIndex
 90
       18
102
RTVSPost2010Prop41ColorRGB
 90
        0
102
RTVSPost2010PropOp41
 70
     1
102
RTVSPost2010Prop42
 90
       50
102
RTVSPost2010PropOp42
 70
     1
102
RTVSPost2010Prop43
 90
        3
102
RTVSPost2010PropOp43
 70
     1
102
RTVSPost2010Prop44ColorIndex
 90
        5
102
RTVSPost2010Prop44ColorRGB
 90
      255
102
RTVSPost2010PropOp44
 70
     1
102
RTVSPost2010Prop45
280
     0
102
RTVSPost2010PropOp45
 70
     1
102
RTVSPost2010Prop46
 90
       50
102
RTVSPost2010PropOp46
 70
     1
102
RTVSPost2010Prop47
 90
       50
102
RTVSPost2010PropOp47
 70
     1
102
RTVSPost2010Prop48
 90
       50
102
RTVSPost2010PropOp48
 70
     1
102
RTVSPost2010Prop49
280
     0
102
RTVSPost2010PropOp49
 70
     1
102
RTVSPost2010Prop50
 90
       50
102
RTVSPost2010PropOp50
 70
     1
102
RTVSPost2010Prop51ColorIndex
 90
      256
102
RTVSPost2010Prop51ColorRGB
 90
-16777216
102
RTVSPost2010PropOp51
 70
     0
102
RTVSPost2010Prop52
140
1.0
102
RTVSPost2010PropOp52
 70
     0
102
RTVSPost2010Prop53
 90
        2
102
RTVSPost2010PropOp53
 70
     1
102
RTVSPost2010Prop54
  1
strokes_ogs.tif
102
RTVSPost2010PropOp54
 70
     1
102
RTVSPost2010Prop55
280
     0
102
RTVSPost2010PropOp55
 70
     1
102
RTVSPost2010Prop56
140
1.0
102
RTVSPost2010PropOp56
 70
     1
102
RTVSPost2010Prop57
140
1.0
102
RTVSPost2010PropOp57
 70
     1
  0
XRECORD
  5
194
102
{ACAD_REACTORS
330
193
102
}
330
193
100
AcDbXrecord
280
     1
102
RTVSPost2010Prop28
280
     0
102
RTVSPost2010PropOp28
 70
     1
102
RTVSPost2010Prop29
280
     1
102
RTVSPost2010PropOp29
 70
     1
102
RTVSPost2010Prop30
280
     1
102
RTVSPost2010PropOp30
 70
     1
102
RTVSPost2010Prop31
280
     0
102
RTVSPost2010PropOp31
 70
     1
102
RTVSPost2010Prop32
280
     0
102
RTVSPost2010PropOp32
 70
     1
102
RTVSPost2010Prop33
280
     0
102
RTVSPost2010PropOp33
 70
     1
102
RTVSPost2010Prop34
280
     0
102
RTVSPost2010PropOp34
 70
     1
102
RTVSPost2010Prop35
280
     0
102
RTVSPost2010PropOp35
 70
     1
102
RTVSPost2010Prop36
280
     0
102
RTVSPost2010PropOp36
 70
     1
102
RTVSPost2010Prop37
 90
       50
102
RTVSPost2010PropOp37
 70
     1
102
RTVSPost2010Prop38
140
0.0
102
RTVSPost2010PropOp38
 70
     1
102
RTVSPost2010Prop39
140
1.0
102
RTVSPost2010PropOp39
 70
     1
102
RTVSPost2010Prop40
 90
        0
102
RTVSPost2010PropOp40
 70
     1
102
RTVSPost2010Prop41ColorIndex
 90
       18
102
RTVSPost2010Prop41ColorRGB
 90
        0
102
RTVSPost2010PropOp41
 70
     1
102
RTVSPost2010Prop42
 90
       50
102
RTVSPost2010PropOp42
 70
     1
102
RTVSPost2010Prop43
 90
        3
102
RTVSPost2010PropOp43
 70
     1
102
RTVSPost2010Prop44ColorIndex
 90
        5
102
RTVSPost2010Prop44ColorRGB
 90
      255
102
RTVSPost2010PropOp44
 70
     1
102
RTVSPost2010Prop45
280
     0
102
RTVSPost2010PropOp45
 70
     1
102
RTVSPost2010Prop46
 90
       50
102
RTVSPost2010PropOp46
 70
     1
102
RTVSPost2010Prop47
 90
       50
102
RTVSPost2010PropOp47
 70
     1
102
RTVSPost2010Prop48
 90
       50
102
RTVSPost2010PropOp48
 70
     1
102
RTVSPost2010Prop49
280
     0
102
RTVSPost2010PropOp49
 70
     1
102
RTVSPost2010Prop50
 90
       50
102
RTVSPost2010PropOp50
 70
     1
102
RTVSPost2010Prop51ColorIndex
 90
      256
102
RTVSPost2010Prop51ColorRGB
 90
-16777216
102
RTVSPost2010PropOp51
 70
     0
102
RTVSPost2010Prop52
140
1.0
102
RTVSPost2010PropOp52
 70
     0
102
RTVSPost2010Prop53
 90
        2
102
RTVSPost2010PropOp53
 70
     1
102
RTVSPost2010Prop54
  1
strokes_ogs.tif
102
RTVSPost2010PropOp54
 70
     1
102
RTVSPost2010Prop55
280
     0
102
RTVSPost2010PropOp55
 70
     1
102
RTVSPost2010Prop56
140
1.0
102
RTVSPost2010PropOp56
 70
     1
102
RTVSPost2010Prop57
140
1.0
102
RTVSPost2010PropOp57
 70
     1
  0
XRECORD
  5
18A
102
{ACAD_REACTORS
330
189
102
}
330
189
100
AcDbXrecord
280
     1
102
RTVSPost2010Prop28
280
     0
102
RTVSPost2010PropOp28
 70
     1
102
RTVSPost2010Prop29
280
     1
102
RTVSPost2010PropOp29
 70
     1
102
RTVSPost2010Prop30
280
     1
102
RTVSPost2010PropOp30
 70
     1
102
RTVSPost2010Prop31
280
     0
102
RTVSPost2010PropOp31
 70
     1
102
RTVSPost2010Prop32
280
     0
102
RTVSPost2010PropOp32
 70
     1
102
RTVSPost2010Prop33
280
     0
102
RTVSPost2010PropOp33
 70
     1
102
RTVSPost2010Prop34
280
     0
102
RTVSPost2010PropOp34
 70
     1
102
RTVSPost2010Prop35
280
     0
102
RTVSPost2010PropOp35
 70
     1
102
RTVSPost2010Prop36
280
     0
102
RTVSPost2010PropOp36
 70
     1
102
RTVSPost2010Prop37
 90
       50
102
RTVSPost2010PropOp37
 70
     1
102
RTVSPost2010Prop38
140
0.0
102
RTVSPost2010PropOp38
 70
     1
102
RTVSPost2010Prop39
140
1.0
102
RTVSPost2010PropOp39
 70
     1
102
RTVSPost2010Prop40
 90
        0
102
RTVSPost2010PropOp40
 70
     1
102
RTVSPost2010Prop41ColorIndex
 90
       18
102
RTVSPost2010Prop41ColorRGB
 90
        0
102
RTVSPost2010PropOp41
 70
     1
102
RTVSPost2010Prop42
 90
       50
102
RTVSPost2010PropOp42
 70
     1
102
RTVSPost2010Prop43
 90
        3
102
RTVSPost2010PropOp43
 70
     1
102
RTVSPost2010Prop44ColorIndex
 90
        5
102
RTVSPost2010Prop44ColorRGB
 90
      255
102
RTVSPost2010PropOp44
 70
     1
102
RTVSPost2010Prop45
280
     0
102
RTVSPost2010PropOp45
 70
     1
102
RTVSPost2010Prop46
 90
       50
102
RTVSPost2010PropOp46
 70
     1
102
RTVSPost2010Prop47
 90
       50
102
RTVSPost2010PropOp47
 70
     1
102
RTVSPost2010Prop48
 90
       50
102
RTVSPost2010PropOp48
 70
     1
102
RTVSPost2010Prop49
280
     0
102
RTVSPost2010PropOp49
 70
     1
102
RTVSPost2010Prop50
 90
       50
102
RTVSPost2010PropOp50
 70
     1
102
RTVSPost2010Prop51ColorIndex
 90
      256
102
RTVSPost2010Prop51ColorRGB
 90
-16777216
102
RTVSPost2010PropOp51
 70
     0
102
RTVSPost2010Prop52
140
1.0
102
RTVSPost2010PropOp52
 70
     0
102
RTVSPost2010Prop53
 90
        2
102
RTVSPost2010PropOp53
 70
     1
102
RTVSPost2010Prop54
  1
strokes_ogs.tif
102
RTVSPost2010PropOp54
 70
     1
102
RTVSPost2010Prop55
280
     0
102
RTVSPost2010PropOp55
 70
     1
102
RTVSPost2010Prop56
140
1.0
102
RTVSPost2010PropOp56
 70
     1
102
RTVSPost2010Prop57
140
1.0
102
RTVSPost2010PropOp57
 70
     1
  0
XRECORD
  5
17E
102
{ACAD_REACTORS
330
17D
102
}
330
17D
100
AcDbXrecord
280
     1
102
RTVSPost2010Prop28
280
     0
102
RTVSPost2010PropOp28
 70
     1
102
RTVSPost2010Prop29
280
     1
102
RTVSPost2010PropOp29
 70
     1
102
RTVSPost2010Prop30
280
     1
102
RTVSPost2010PropOp30
 70
     1
102
RTVSPost2010Prop31
280
     0
102
RTVSPost2010PropOp31
 70
     1
102
RTVSPost2010Prop32
280
     0
102
RTVSPost2010PropOp32
 70
     1
102
RTVSPost2010Prop33
280
     0
102
RTVSPost2010PropOp33
 70
     1
102
RTVSPost2010Prop34
280
     0
102
RTVSPost2010PropOp34
 70
     1
102
RTVSPost2010Prop35
280
     0
102
RTVSPost2010PropOp35
 70
     1
102
RTVSPost2010Prop36
280
     0
102
RTVSPost2010PropOp36
 70
     1
102
RTVSPost2010Prop37
 90
       50
102
RTVSPost2010PropOp37
 70
     1
102
RTVSPost2010Prop38
140
0.0
102
RTVSPost2010PropOp38
 70
     1
102
RTVSPost2010Prop39
140
1.0
102
RTVSPost2010PropOp39
 70
     1
102
RTVSPost2010Prop40
 90
        0
102
RTVSPost2010PropOp40
 70
     1
102
RTVSPost2010Prop41ColorIndex
 90
       18
102
RTVSPost2010Prop41ColorRGB
 90
        0
102
RTVSPost2010PropOp41
 70
     1
102
RTVSPost2010Prop42
 90
       50
102
RTVSPost2010PropOp42
 70
     1
102
RTVSPost2010Prop43
 90
        3
102
RTVSPost2010PropOp43
 70
     1
102
RTVSPost2010Prop44ColorIndex
 90
        5
102
RTVSPost2010Prop44ColorRGB
 90
      255
102
RTVSPost2010PropOp44
 70
     1
102
RTVSPost2010Prop45
280
     0
102
RTVSPost2010PropOp45
 70
     1
102
RTVSPost2010Prop46
 90
       50
102
RTVSPost2010PropOp46
 70
     1
102
RTVSPost2010Prop47
 90
       50
102
RTVSPost2010PropOp47
 70
     1
102
RTVSPost2010Prop48
 90
       50
102
RTVSPost2010PropOp48
 70
     1
102
RTVSPost2010Prop49
280
     0
102
RTVSPost2010PropOp49
 70
     1
102
RTVSPost2010Prop50
 90
       50
102
RTVSPost2010PropOp50
 70
     1
102
RTVSPost2010Prop51ColorIndex
 90
      256
102
RTVSPost2010Prop51ColorRGB
 90
-16777216
102
RTVSPost2010PropOp51
 70
     0
102
RTVSPost2010Prop52
140
1.0
102
RTVSPost2010PropOp52
 70
     0
102
RTVSPost2010Prop53
 90
        2
102
RTVSPost2010PropOp53
 70
     1
102
RTVSPost2010Prop54
  1
strokes_ogs.tif
102
RTVSPost2010PropOp54
 70
     1
102
RTVSPost2010Prop55
280
     0
102
RTVSPost2010PropOp55
 70
     1
102
RTVSPost2010Prop56
140
1.0
102
RTVSPost2010PropOp56
 70
     1
102
RTVSPost2010Prop57
140
1.0
102
RTVSPost2010PropOp57
 70
     1
  0
XRECORD
  5
196
102
{ACAD_REACTORS
330
195
102
}
330
195
100
AcDbXrecord
280
     1
102
RTVSPost2010Prop28
280
     0
102
RTVSPost2010PropOp28
 70
     1
102
RTVSPost2010Prop29
280
     1
102
RTVSPost2010PropOp29
 70
     1
102
RTVSPost2010Prop30
280
     1
102
RTVSPost2010PropOp30
 70
     1
102
RTVSPost2010Prop31
280
     0
102
RTVSPost2010PropOp31
 70
     1
102
RTVSPost2010Prop32
280
     0
102
RTVSPost2010PropOp32
 70
     1
102
RTVSPost2010Prop33
280
     0
102
RTVSPost2010PropOp33
 70
     1
102
RTVSPost2010Prop34
280
     0
102
RTVSPost2010PropOp34
 70
     1
102
RTVSPost2010Prop35
280
     0
102
RTVSPost2010PropOp35
 70
     1
102
RTVSPost2010Prop36
280
     0
102
RTVSPost2010PropOp36
 70
     1
102
RTVSPost2010Prop37
 90
       50
102
RTVSPost2010PropOp37
 70
     1
102
RTVSPost2010Prop38
140
0.0
102
RTVSPost2010PropOp38
 70
     1
102
RTVSPost2010Prop39
140
1.0
102
RTVSPost2010PropOp39
 70
     1
102
RTVSPost2010Prop40
 90
        0
102
RTVSPost2010PropOp40
 70
     1
102
RTVSPost2010Prop41ColorIndex
 90
       18
102
RTVSPost2010Prop41ColorRGB
 90
        0
102
RTVSPost2010PropOp41
 70
     1
102
RTVSPost2010Prop42
 90
       50
102
RTVSPost2010PropOp42
 70
     1
102
RTVSPost2010Prop43
 90
        3
102
RTVSPost2010PropOp43
 70
     1
102
RTVSPost2010Prop44ColorIndex
 90
        5
102
RTVSPost2010Prop44ColorRGB
 90
      255
102
RTVSPost2010PropOp44
 70
     1
102
RTVSPost2010Prop45
280
     0
102
RTVSPost2010PropOp45
 70
     1
102
RTVSPost2010Prop46
 90
       50
102
RTVSPost2010PropOp46
 70
     1
102
RTVSPost2010Prop47
 90
       50
102
RTVSPost2010PropOp47
 70
     1
102
RTVSPost2010Prop48
 90
       50
102
RTVSPost2010PropOp48
 70
     1
102
RTVSPost2010Prop49
280
     0
102
RTVSPost2010PropOp49
 70
     1
102
RTVSPost2010Prop50
 90
       50
102
RTVSPost2010PropOp50
 70
     1
102
RTVSPost2010Prop51ColorIndex
 90
      256
102
RTVSPost2010Prop51ColorRGB
 90
-16777216
102
RTVSPost2010PropOp51
 70
     0
102
RTVSPost2010Prop52
140
1.0
102
RTVSPost2010PropOp52
 70
     0
102
RTVSPost2010Prop53
 90
        2
102
RTVSPost2010PropOp53
 70
     1
102
RTVSPost2010Prop54
  1
strokes_ogs.tif
102
RTVSPost2010PropOp54
 70
     1
102
RTVSPost2010Prop55
280
     0
102
RTVSPost2010PropOp55
 70
     1
102
RTVSPost2010Prop56
140
1.0
102
RTVSPost2010PropOp56
 70
     1
102
RTVSPost2010Prop57
140
1.0
102
RTVSPost2010PropOp57
 70
     1
  0
ENDSEC
  0
EOF
