  0
SECTION
  2
HEADER
  9
$ACADVER
  1
AC1024
  9
$ACADMAINTVER
 70
   226
  9
$DWGCODEPAGE
  3
ANSI_932
  9
$INSBASE
 10
0.0
 20
0.0
 30
0.0
  9
$EXTMIN
 10
1.000000000000000E+20
 20
1.000000000000000E+20
 30
1.000000000000000E+20
  9
$EXTMAX
 10
-1.000000000000000E+20
 20
-1.000000000000000E+20
 30
-1.000000000000000E+20
  9
$LIMMIN
 10
0.0
 20
0.0
  9
$LIMMAX
 10
12.0
 20
9.0
  9
$ORTHOMODE
 70
     0
  9
$REGENMODE
 70
     1
  9
$FILLMODE
 70
     1
  9
$QTEXTMODE
 70
     0
  9
$MIRRTEXT
 70
     0
  9
$LTSCALE
 40
1.0
  9
$ATTMODE
 70
     1
  9
$TEXTSIZE
 40
0.2
  9
$TRACEWID
 40
0.05
  9
$TEXTSTYLE
  7
Standard
  9
$CLAYER
  8
0
  9
$CELTYPE
  6
ByLayer
  9
$CECOLOR
 62
   256
  9
$CELTSCALE
 40
1.0
  9
$DISPSILH
 70
     0
  9
$DIMSCALE
 40
1.0
  9
$DIMASZ
 40
0.18
  9
$DIMEXO
 40
0.0625
  9
$DIMDLI
 40
0.38
  9
$DIMRND
 40
0.0
  9
$DIMDLE
 40
0.0
  9
$DIMEXE
 40
0.18
  9
$DIMTP
 40
0.0
  9
$DIMTM
 40
0.0
  9
$DIMTXT
 40
0.18
  9
$DIMCEN
 40
0.09
  9
$DIMTSZ
 40
0.0
  9
$DIMTOL
 70
     0
  9
$DIMLIM
 70
     0
  9
$DIMTIH
 70
     1
  9
$DIMTOH
 70
     1
  9
$DIMSE1
 70
     0
  9
$DIMSE2
 70
     0
  9
$DIMTAD
 70
     0
  9
$DIMZIN
 70
     0
  9
$DIMBLK
  1

  9
$DIMASO
 70
     1
  9
$DIMSHO
 70
     1
  9
$DIMPOST
  1

  9
$DIMAPOST
  1

  9
$DIMALT
 70
     0
  9
$DIMALTD
 70
     2
  9
$DIMALTF
 40
25.4
  9
$DIMLFAC
 40
1.0
  9
$DIMTOFL
 70
     0
  9
$DIMTVP
 40
0.0
  9
$DIMTIX
 70
     0
  9
$DIMSOXD
 70
     0
  9
$DIMSAH
 70
     0
  9
$DIMBLK1
  1

  9
$DIMBLK2
  1

  9
$DIMSTYLE
  2
Standard
  9
$DIMCLRD
 70
     0
  9
$DIMCLRE
 70
     0
  9
$DIMCLRT
 70
     0
  9
$DIMTFAC
 40
1.0
  9
$DIMGAP
 40
0.09
  9
$DIMJUST
 70
     0
  9
$DIMSD1
 70
     0
  9
$DIMSD2
 70
     0
  9
$DIMTOLJ
 70
     1
  9
$DIMTZIN
 70
     0
  9
$DIMALTZ
 70
     0
  9
$DIMALTTZ
 70
     0
  9
$DIMUPT
 70
     0
  9
$DIMDEC
 70
     4
  9
$DIMTDEC
 70
     4
  9
$DIMALTU
 70
     2
  9
$DIMALTTD
 70
     2
  9
$DIMTXSTY
  7
Standard
  9
$DIMAUNIT
 70
     0
  9
$DIMADEC
 70
     0
  9
$DIMALTRND
 40
0.0
  9
$DIMAZIN
 70
     0
  9
$DIMDSEP
 70
    46
  9
$DIMATFIT
 70
     3
  9
$DIMFRAC
 70
     0
  9
$DIMLDRBLK
  1

  9
$DIMLUNIT
 70
     2
  9
$DIMLWD
 70
    -2
  9
$DIMLWE
 70
    -2
  9
$DIMTMOVE
 70
     0
  9
$DIMFXL
 40
1.0
  9
$DIMFXLON
 70
     0
  9
$DIMJOGANG
 40
0.7853981633974483
  9
$DIMTFILL
 70
     0
  9
$DIMTFILLCLR
 70
     0
  9
$DIMARCSYM
 70
     0
  9
$DIMLTYPE
  6

  9
$DIMLTEX1
  6

  9
$DIMLTEX2
  6

  9
$DIMTXTDIRECTION
 70
     0
  9
$LUNITS
 70
     2
  9
$LUPREC
 70
     4
  9
$SKETCHINC
 40
0.1
  9
$FILLETRAD
 40
0.0
  9
$AUNITS
 70
     0
  9
$AUPREC
 70
     0
  9
$MENU
  1
.
  9
$ELEVATION
 40
0.0
  9
$PELEVATION
 40
0.0
  9
$THICKNESS
 40
0.0
  9
$LIMCHECK
 70
     0
  9
$CHAMFERA
 40
0.0
  9
$CHAMFERB
 40
0.0
  9
$CHAMFERC
 40
0.0
  9
$CHAMFERD
 40
0.0
  9
$SKPOLY
 70
     0
  9
$TDCREATE
 40
2459569.503125000
  9
$TDUCREATE
 40
2459569.128125000
  9
$TDUPDATE
 40
2459569.503125000
  9
$TDUUPDATE
 40
2459569.128125000
  9
$TDINDWG
 40
0.0000000000
  9
$TDUSRTIMER
 40
0.0000000000
  9
$USRTIMER
 70
     1
  9
$ANGBASE
 50
0.0
  9
$ANGDIR
 70
     0
  9
$PDMODE
 70
     0
  9
$PDSIZE
 40
0.0
  9
$PLINEWID
 40
0.0
  9
$SPLFRAME
 70
     0
  9
$SPLINETYPE
 70
     6
  9
$SPLINESEGS
 70
     8
  9
$HANDSEED
  5
1DA
  9
$SURFTAB1
 70
     6
  9
$SURFTAB2
 70
     6
  9
$SURFTYPE
 70
     6
  9
$SURFU
 70
     6
  9
$SURFV
 70
     6
  9
$UCSBASE
  2

  9
$UCSNAME
  2

  9
$UCSORG
 10
0.0
 20
0.0
 30
0.0
  9
$UCSXDIR
 10
1.0
 20
0.0
 30
0.0
  9
$UCSYDIR
 10
0.0
 20
1.0
 30
0.0
  9
$UCSORTHOREF
  2

  9
$UCSORTHOVIEW
 70
     0
  9
$UCSORGTOP
 10
0.0
 20
0.0
 30
0.0
  9
$UCSORGBOTTOM
 10
0.0
 20
0.0
 30
0.0
  9
$UCSORGLEFT
 10
0.0
 20
0.0
 30
0.0
  9
$UCSORGRIGHT
 10
0.0
 20
0.0
 30
0.0
  9
$UCSORGFRONT
 10
0.0
 20
0.0
 30
0.0
  9
$UCSORGBACK
 10
0.0
 20
0.0
 30
0.0
  9
$PUCSBASE
  2

  9
$PUCSNAME
  2

  9
$PUCSORG
 10
0.0
 20
0.0
 30
0.0
  9
$PUCSXDIR
 10
1.0
 20
0.0
 30
0.0
  9
$PUCSYDIR
 10
0.0
 20
1.0
 30
0.0
  9
$PUCSORTHOREF
  2

  9
$PUCSORTHOVIEW
 70
     0
  9
$PUCSORGTOP
 10
0.0
 20
0.0
 30
0.0
  9
$PUCSORGBOTTOM
 10
0.0
 20
0.0
 30
0.0
  9
$PUCSORGLEFT
 10
0.0
 20
0.0
 30
0.0
  9
$PUCSORGRIGHT
 10
0.0
 20
0.0
 30
0.0
  9
$PUCSORGFRONT
 10
0.0
 20
0.0
 30
0.0
  9
$PUCSORGBACK
 10
0.0
 20
0.0
 30
0.0
  9
$USERI1
 70
     0
  9
$USERI2
 70
     0
  9
$USERI3
 70
     0
  9
$USERI4
 70
     0
  9
$USERI5
 70
     0
  9
$USERR1
 40
0.0
  9
$USERR2
 40
0.0
  9
$USERR3
 40
0.0
  9
$USERR4
 40
0.0
  9
$USERR5
 40
0.0
  9
$WORLDVIEW
 70
     1
  9
$SHADEDGE
 70
     3
  9
$SHADEDIF
 70
    70
  9
$TILEMODE
 70
     1
  9
$MAXACTVP
 70
    64
  9
$PINSBASE
 10
0.0
 20
0.0
 30
0.0
  9
$PLIMCHECK
 70
     0
  9
$PEXTMIN
 10
1.000000000000000E+20
 20
1.000000000000000E+20
 30
1.000000000000000E+20
  9
$PEXTMAX
 10
-1.000000000000000E+20
 20
-1.000000000000000E+20
 30
-1.000000000000000E+20
  9
$PLIMMIN
 10
0.0
 20
0.0
  9
$PLIMMAX
 10
12.0
 20
9.0
  9
$UNITMODE
 70
     0
  9
$VISRETAIN
 70
     1
  9
$PLINEGEN
 70
     0
  9
$PSLTSCALE
 70
     1
  9
$TREEDEPTH
 70
  3020
  9
$CMLSTYLE
  2
Standard
  9
$CMLJUST
 70
     0
  9
$CMLSCALE
 40
1.0
  9
$PROXYGRAPHICS
 70
     1
  9
$MEASUREMENT
 70
     0
  9
$CELWEIGHT
370
    -1
  9
$ENDCAPS
280
     0
  9
$JOINSTYLE
280
     0
  9
$LWDISPLAY
290
     1
  9
$INSUNITS
 70
     4
  9
$HYPERLINKBASE
  1

  9
$STYLESHEET
  1

  9
$XEDIT
290
     1
  9
$CEPSNTYPE
380
     0
  9
$PSTYLEMODE
290
     1
  9
$FINGERPRINTGUID
  2
{BA47EF91-2795-174E-B013-5048F3074D1D}
  9
$VERSIONGUID
  2
{B3A90FF0-4989-B145-9797-622CDA34D0CC}
  9
$EXTNAMES
290
     1
  9
$PSVPSCALE
 40
0.0
  9
$OLESTARTUP
290
     0
  9
$SORTENTS
280
   127
  9
$INDEXCTL
280
     0
  9
$HIDETEXT
280
     1
  9
$XCLIPFRAME
280
     2
  9
$HALOGAP
280
     0
  9
$OBSCOLOR
 70
   257
  9
$OBSLTYPE
280
     0
  9
$INTERSECTIONDISPLAY
280
     0
  9
$INTERSECTIONCOLOR
 70
   257
  9
$DIMASSOC
280
     2
  9
$PROJECTNAME
  1

  9
$CAMERADISPLAY
290
     0
  9
$LENSLENGTH
 40
50.0
  9
$CAMERAHEIGHT
 40
0.0
  9
$STEPSPERSEC
 40
2.0
  9
$STEPSIZE
 40
6.0
  9
$3DDWFPREC
 40
2.0
  9
$PSOLWIDTH
 40
0.25
  9
$PSOLHEIGHT
 40
4.0
  9
$LOFTANG1
 40
1.570796326794896
  9
$LOFTANG2
 40
1.570796326794896
  9
$LOFTMAG1
 40
0.0
  9
$LOFTMAG2
 40
0.0
  9
$LOFTPARAM
 70
     7
  9
$LOFTNORMALS
280
     1
  9
$LATITUDE
 40
37.795
  9
$LONGITUDE
 40
-122.394
  9
$NORTHDIRECTION
 40
0.0
  9
$TIMEZONE
 70
 -8000
  9
$LIGHTGLYPHDISPLAY
280
     1
  9
$TILEMODELIGHTSYNCH
280
     1
  9
$CMATERIAL
347
11
  9
$SOLIDHIST
280
     0
  9
$SHOWHIST
280
     1
  9
$DWFFRAME
280
     2
  9
$DGNFRAME
280
     0
  9
$REALWORLDSCALE
290
     1
  9
$INTERFERECOLOR
 62
     1
  9
$INTERFEREOBJVS
345
33
  9
$INTERFEREVPVS
346
30
  9
$CSHADOW
280
     0
  9
$SHADOWPLANELOCATION
 40
0.0
  0
ENDSEC
  0
SECTION
  2
CLASSES
  0
CLASS
  1
ACDBDICTIONARYWDFLT
  2
AcDbDictionaryWithDefault
  3
ObjectDBX Classes
 90
        0
 91
        1
280
     0
281
     0
  0
CLASS
  1
MATERIAL
  2
AcDbMaterial
  3
ObjectDBX Classes
 90
     1153
 91
        3
280
     0
281
     0
  0
CLASS
  1
VISUALSTYLE
  2
AcDbVisualStyle
  3
ObjectDBX Classes
 90
     4095
 91
       24
280
     0
281
     0
  0
CLASS
  1
SCALE
  2
AcDbScale
  3
ObjectDBX Classes
 90
     1153
 91
       17
280
     0
281
     0
  0
CLASS
  1
TABLESTYLE
  2
AcDbTableStyle
  3
ObjectDBX Classes
 90
     4095
 91
        1
280
     0
281
     0
  0
CLASS
  1
MLEADERSTYLE
  2
AcDbMLeaderStyle
  3
ACDB_MLEADERSTYLE_CLASS
 90
     4095
 91
        1
280
     0
281
     0
  0
CLASS
  1
ACDBSECTIONVIEWSTYLE
  2
AcDbSectionViewStyle
  3
ObjectDBX Classes
 90
     1025
 91
        1
280
     0
281
     0
  0
CLASS
  1
ACDBDETAILVIEWSTYLE
  2
AcDbDetailViewStyle
  3
ObjectDBX Classes
 90
     1025
 91
        1
280
     0
281
     0
  0
CLASS
  1
DICTIONARYVAR
  2
AcDbDictionaryVar
  3
ObjectDBX Classes
 90
        0
 91
        5
280
     0
281
     0
  0
CLASS
  1
CELLSTYLEMAP
  2
AcDbCellStyleMap
  3
ObjectDBX Classes
 90
     1152
 91
        1
280
     0
281
     0
  0
ENDSEC
  0
SECTION
  2
TABLES
  0
TABLE
  2
VPORT
  5
8
330
0
100
AcDbSymbolTable
 70
     1
  0
VPORT
  5
57
330
8
100
AcDbSymbolTableRecord
100
AcDbViewportTableRecord
  2
*Active
 70
     0
 10
0.0
 20
0.0
 11
1.0
 21
1.0
 12
0.0
 22
0.0
 13
0.0
 23
0.0
 14
1.0
 24
1.0
 15
0.0
 25
0.0
 16
0.0
 26
0.0
 36
1.0
 17
104.9999999737534
 27
-148.4999999628701
 37
0.0
 40
302.939999924255
 41
0.7070707070707534
 42
50.0
 43
0.0
 44
0.0
 50
0.0
 51
0.0
 71
     0
 72
   100
 73
     1
 74
     0
 75
     1
 76
     0
 77
     0
 78
     0
281
     0
 65
     1
110
0.0
120
0.0
130
0.0
111
1.0
121
0.0
131
0.0
112
0.0
122
1.0
132
0.0
 79
     0
146
0.0
 60
     3
 61
     5
292
     1
282
     1
141
0.0
142
0.0
 63
   250
421
  3355443
  0
ENDTAB
  0
TABLE
  2
LTYPE
  5
5
330
0
100
AcDbSymbolTable
 70
     3
  0
LTYPE
  5
5B
330
5
100
AcDbSymbolTableRecord
100
AcDbLinetypeTableRecord
  2
ByBlock
 70
     0
  3

 72
    65
 73
     0
 40
0.0
  0
LTYPE
  5
5C
330
5
100
AcDbSymbolTableRecord
100
AcDbLinetypeTableRecord
  2
ByLayer
 70
     0
  3

 72
    65
 73
     0
 40
0.0
  0
LTYPE
  5
5D
330
5
100
AcDbSymbolTableRecord
100
AcDbLinetypeTableRecord
  2
Continuous
 70
     0
  3
Solid line
 72
    65
 73
     0
 40
0.0
  0
LTYPE
  5
B4
330
5
100
AcDbSymbolTableRecord
100
AcDbLinetypeTableRecord
  2
AI-Linetype-0
 70
     0
  3
Adobe Illustrator Linetype No. 0
 72
    65
 73
     2
 40
1.411111110758333
 49
0.7055555553791667
 74
     0
 49
-0.7055555553791667
 74
     0
  0
LTYPE
  5
B6
330
5
100
AcDbSymbolTableRecord
100
AcDbLinetypeTableRecord
  2
AI-Linetype-1
 70
     0
  3
Adobe Illustrator Linetype No. 1
 72
    65
 73
     2
 40
1.411111110758333
 49
0.7055555553791667
 74
     0
 49
-0.7055555553791667
 74
     0
  0
ENDTAB
  0
TABLE
  2
LAYER
  5
2
330
0
100
AcDbSymbolTable
 70
     2
  0
LAYER
  5
54
330
2
100
AcDbSymbolTableRecord
100
AcDbLayerTableRecord
  2
0
 70
     0
 62
     7
  6
Continuous
370
    -3
390
F
347
21
  0
LAYER
  5
78
330
2
100
AcDbSymbolTableRecord
100
AcDbLayerTableRecord
  2
レイヤー 1
 70
     0
 62
     7
  6
Continuous
370
     0
390
F
347
21
  0
ENDTAB
  0
TABLE
  2
STYLE
  5
3
330
0
100
AcDbSymbolTable
 70
     2
  0
STYLE
  5
55
330
3
100
AcDbSymbolTableRecord
100
AcDbTextStyleTableRecord
  2
Standard
 70
     0
 40
0.0
 41
1.0
 50
0.0
 71
     0
 42
0.2
  3
txt
  4

  0
STYLE
  5
5A
330
3
100
AcDbSymbolTableRecord
100
AcDbTextStyleTableRecord
  2
Annotative
 70
     0
 40
0.0
 41
1.0
 50
0.0
 71
     0
 42
0.2
  3
txt
  4

1001
AcadAnnotative
1000
AnnotativeData
1002
{
1070
     1
1070
     1
1002
}
  0
ENDTAB
  0
TABLE
  2
VIEW
  5
6
330
0
100
AcDbSymbolTable
 70
     0
  0
ENDTAB
  0
TABLE
  2
UCS
  5
7
330
0
100
AcDbSymbolTable
 70
     0
  0
ENDTAB
  0
TABLE
  2
APPID
  5
9
330
0
100
AcDbSymbolTable
 70
     2
  0
APPID
  5
56
330
9
100
AcDbSymbolTableRecord
100
AcDbRegAppTableRecord
  2
ACAD
 70
     0
  0
APPID
  5
5E
330
9
100
AcDbSymbolTableRecord
100
AcDbRegAppTableRecord
  2
AcadAnnotative
 70
     0
  0
ENDTAB
  0
TABLE
  2
DIMSTYLE
  5
A
330
0
100
AcDbSymbolTable
 70
     2
100
AcDbDimStyleTable
 71
     0
  0
DIMSTYLE
105
58
330
A
100
AcDbSymbolTableRecord
100
AcDbDimStyleTableRecord
  2
Standard
 70
     0
340
55
  0
DIMSTYLE
105
59
330
A
100
AcDbSymbolTableRecord
100
AcDbDimStyleTableRecord
  2
Annotative
 70
     0
340
55
1001
AcadAnnotative
1000
AnnotativeData
1002
{
1070
     1
1070
     1
1002
}
  0
ENDTAB
  0
TABLE
  2
BLOCK_RECORD
  5
1
330
0
100
AcDbSymbolTable
 70
    17
  0
BLOCK_RECORD
  5
70
330
1
100
AcDbSymbolTableRecord
100
AcDbBlockTableRecord
  2
*Model_Space
340
73
 70
     0
280
     1
281
     0
  0
BLOCK_RECORD
  5
6C
330
1
100
AcDbSymbolTableRecord
100
AcDbBlockTableRecord
  2
*Paper_Space
340
6F
 70
     0
280
     1
281
     0
  0
BLOCK_RECORD
  5
74
330
1
100
AcDbSymbolTableRecord
100
AcDbBlockTableRecord
  2
*Paper_Space0
340
77
 70
     0
280
     1
281
     0
  0
BLOCK_RECORD
  5
79
330
1
100
AcDbSymbolTableRecord
100
AcDbBlockTableRecord
  2
Block_0
340
0
102
{BLKREFS
331
7A
102
}
 70
     0
280
     1
281
     0
  0
BLOCK_RECORD
  5
11E
330
1
100
AcDbSymbolTableRecord
100
AcDbBlockTableRecord
  2
Block_1
340
0
102
{BLKREFS
331
11F
102
}
 70
     0
280
     1
281
     0
  0
BLOCK_RECORD
  5
122
330
1
100
AcDbSymbolTableRecord
100
AcDbBlockTableRecord
  2
Block_2
340
0
102
{BLKREFS
331
123
102
}
 70
     0
280
     1
281
     0
  0
BLOCK_RECORD
  5
12F
330
1
100
AcDbSymbolTableRecord
100
AcDbBlockTableRecord
  2
Block_3
340
0
102
{BLKREFS
331
130
102
}
 70
     0
280
     1
281
     0
  0
BLOCK_RECORD
  5
133
330
1
100
AcDbSymbolTableRecord
100
AcDbBlockTableRecord
  2
Block_4
340
0
102
{BLKREFS
331
134
102
}
 70
     0
280
     1
281
     0
  0
BLOCK_RECORD
  5
13D
330
1
100
AcDbSymbolTableRecord
100
AcDbBlockTableRecord
  2
Block_5
340
0
102
{BLKREFS
331
13E
102
}
 70
     0
280
     1
281
     0
  0
BLOCK_RECORD
  5
145
330
1
100
AcDbSymbolTableRecord
100
AcDbBlockTableRecord
  2
Block_6
340
0
102
{BLKREFS
331
146
102
}
 70
     0
280
     1
281
     0
  0
BLOCK_RECORD
  5
149
330
1
100
AcDbSymbolTableRecord
100
AcDbBlockTableRecord
  2
Block_7
340
0
102
{BLKREFS
331
14A
102
}
 70
     0
280
     1
281
     0
  0
BLOCK_RECORD
  5
154
330
1
100
AcDbSymbolTableRecord
100
AcDbBlockTableRecord
  2
Block_8
340
0
102
{BLKREFS
331
155
102
}
 70
     0
280
     1
281
     0
  0
BLOCK_RECORD
  5
15D
330
1
100
AcDbSymbolTableRecord
100
AcDbBlockTableRecord
  2
Block_9
340
0
102
{BLKREFS
331
15E
102
}
 70
     0
280
     1
281
     0
  0
BLOCK_RECORD
  5
168
330
1
100
AcDbSymbolTableRecord
100
AcDbBlockTableRecord
  2
Block_10
340
0
102
{BLKREFS
331
169
102
}
 70
     0
280
     1
281
     0
  0
BLOCK_RECORD
  5
16C
330
1
100
AcDbSymbolTableRecord
100
AcDbBlockTableRecord
  2
Block_11
340
0
102
{BLKREFS
331
16D
102
}
 70
     0
280
     1
281
     0
  0
BLOCK_RECORD
  5
175
330
1
100
AcDbSymbolTableRecord
100
AcDbBlockTableRecord
  2
Block_12
340
0
102
{BLKREFS
331
176
102
}
 70
     0
280
     1
281
     0
  0
BLOCK_RECORD
  5
179
330
1
100
AcDbSymbolTableRecord
100
AcDbBlockTableRecord
  2
Block_13
340
0
102
{BLKREFS
331
17A
102
}
 70
     0
280
     1
281
     0
  0
BLOCK_RECORD
  5
180
330
1
100
AcDbSymbolTableRecord
100
AcDbBlockTableRecord
  2
Block_14
340
0
102
{BLKREFS
331
181
102
}
 70
     0
280
     1
281
     0
  0
BLOCK_RECORD
  5
184
330
1
100
AcDbSymbolTableRecord
100
AcDbBlockTableRecord
  2
Block_15
340
0
102
{BLKREFS
331
185
102
}
 70
     0
280
     1
281
     0
  0
ENDTAB
  0
ENDSEC
  0
SECTION
  2
BLOCKS
  0
BLOCK
  5
71
330
70
100
AcDbEntity
  8
0
100
AcDbBlockBegin
  2
*Model_Space
 70
     0
 10
0.0
 20
0.0
 30
0.0
  3
*Model_Space
  1

  0
ENDBLK
  5
72
330
70
100
AcDbEntity
  8
0
100
AcDbBlockEnd
  0
BLOCK
  5
6D
330
6C
100
AcDbEntity
 67
     1
  8
0
100
AcDbBlockBegin
  2
*Paper_Space
 70
     0
 10
0.0
 20
0.0
 30
0.0
  3
*Paper_Space
  1

  0
ENDBLK
  5
6E
330
6C
100
AcDbEntity
 67
     1
  8
0
100
AcDbBlockEnd
  0
BLOCK
  5
75
330
74
100
AcDbEntity
 67
     1
  8
0
100
AcDbBlockBegin
  2
*Paper_Space0
 70
     0
 10
0.0
 20
0.0
 30
0.0
  3
*Paper_Space0
  1

  0
ENDBLK
  5
76
330
74
100
AcDbEntity
 67
     1
  8
0
100
AcDbBlockEnd
  0
BLOCK
  5
7B
330
79
100
AcDbEntity
  8
0
100
AcDbBlockBegin
  2
Block_0
 70
     0
 10
0.0
 20
0.0
 30
0.0
  3
Block_0
  1

  0
SPLINE
  5
7D
330
79
100
AcDbEntity
  8
レイヤー 1
 62
   250
420
  2299925
370
     9
100
AcDbSpline
210
0.0
220
0.0
230
1.0
 70
     8
 71
     3
 72
     8
 73
     4
 74
     0
 42
0.0000000001
 43
0.0000000001
 40
0.0
 40
0.0
 40
0.0
 40
0.0
 40
1.0
 40
1.0
 40
1.0
 40
1.0
 10
133.7148455872343
 20
-153.0151724716329
 30
0.0
 10
133.7148455872343
 20
-153.0151724716329
 30
0.0
 10
133.009290049679
 20
-152.5380052495299
 30
0.0
 10
132.8942492192806
 20
-152.9576344160918
 30
0.0
  0
SPLINE
  5
7E
330
79
100
AcDbEntity
  8
レイヤー 1
 62
   250
420
  2299925
370
     9
100
AcDbSpline
210
0.0
220
0.0
230
1.0
 70
     8
 71
     3
 72
    26
 73
    22
 74
     0
 42
0.0000000001
 43
0.0000000001
 40
0.0
 40
0.0
 40
0.0
 40
0.0
 40
1.0
 40
1.0
 40
1.0
 40
2.0
 40
2.0
 40
2.0
 40
3.0
 40
3.0
 40
3.0
 40
4.0
 40
4.0
 40
4.0
 40
5.0
 40
5.0
 40
5.0
 40
6.0
 40
6.0
 40
6.0
 40
7.0
 40
7.0
 40
7.0
 40
7.0
 10
134.2502211291313
 20
-145.9676955289503
 30
0.0
 10
134.2502211291313
 20
-145.9676955289503
 30
0.0
 10
125.6175021827036
 20
-149.0045477504136
 30
0.0
 10
125.6175021827036
 20
-149.0045477504136
 30
0.0
 10
125.6175021827036
 20
-149.0045477504136
 30
0.0
 10
124.2429036066615
 20
-149.2720591392355
 30
0.0
 10
124.7583119268456
 20
-149.7302821946764
 30
0.0
 10
124.7583119268456
 20
-149.7302821946764
 30
0.0
 10
125.0642408079296
 20
-149.9213113612951
 30
0.0
 10
125.5989107942891
 20
-150.1314610834653
 30
0.0
 10
125.5989107942891
 20
-150.1314610834653
 30
0.0
 10
130.6597548318428
 20
-152.1749263607321
 30
0.0
 10
130.6597548318428
 20
-152.1749263607321
 30
0.0
 10
130.6597548318428
 20
-152.1749263607321
 30
0.0
 10
130.6211609439386
 20
-155.2493141377412
 30
0.0
 10
130.6211609439386
 20
-155.2493141377412
 30
0.0
 10
130.6211609439386
 20
-155.2493141377412
 30
0.0
 10
133.275954765098
 20
-156.5291566374211
 30
0.0
 10
133.275954765098
 20
-156.5291566374211
 30
0.0
 10
133.275954765098
 20
-156.5291566374211
 30
0.0
 10
137.0007941145139
 20
-154.9439144155952
 30
0.0
 10
137.0007941145139
 20
-154.9439144155952
 30
0.0
  0
LINE
  5
7F
330
79
100
AcDbEntity
  8
レイヤー 1
 62
   250
420
  2299925
370
     9
100
AcDbLine
 10
132.9707355282769
 20
-152.8239669161253
 30
0.0
 11
142.3090059235346
 21
-148.8136949726832
 31
0.0
  0
SPLINE
  5
80
330
79
100
AcDbEntity
  8
レイヤー 1
 62
   250
420
  2299925
370
     9
100
AcDbSpline
210
0.0
220
0.0
230
1.0
 70
     8
 71
     3
 72
    26
 73
    22
 74
     0
 42
0.0000000001
 43
0.0000000001
 40
0.0
 40
0.0
 40
0.0
 40
0.0
 40
1.0
 40
1.0
 40
1.0
 40
2.0
 40
2.0
 40
2.0
 40
3.0
 40
3.0
 40
3.0
 40
4.0
 40
4.0
 40
4.0
 40
5.0
 40
5.0
 40
5.0
 40
6.0
 40
6.0
 40
6.0
 40
7.0
 40
7.0
 40
7.0
 40
7.0
 10
134.3453300155938
 20
-146.1399569177961
 30
0.0
 10
134.3453300155938
 20
-146.1399569177961
 30
0.0
 10
125.4073524658428
 20
-149.2720591392355
 30
0.0
 10
125.4073524658428
 20
-149.2720591392355
 30
0.0
 10
125.4073524658428
 20
-149.2720591392355
 30
0.0
 10
124.9305771969532
 20
-149.348223861439
 30
0.0
 10
124.9684616437065
 20
-149.5202735836175
 30
0.0
 10
124.9684616437065
 20
-149.5202735836175
 30
0.0
 10
124.9491646997544
 20
-149.5966146947099
 30
0.0
 10
125.2550935808383
 20
-149.6916883057968
 30
0.0
 10
125.2550935808383
 20
-149.6916883057968
 30
0.0
 10
130.9649781573893
 20
-151.9457971941229
 30
0.0
 10
130.9649781573893
 20
-151.9457971941229
 30
0.0
 10
130.9649781573893
 20
-151.9457971941229
 30
0.0
 10
130.9649781573893
 20
-154.9249702489332
 30
0.0
 10
130.9649781573893
 20
-154.9249702489332
 30
0.0
 10
130.9649781573893
 20
-154.9249702489332
 30
0.0
 10
132.7798827505465
 20
-155.7843369153855
 30
0.0
 10
132.7798827505465
 20
-155.7843369153855
 30
0.0
 10
132.7798827505465
 20
-155.7843369153855
 30
0.0
 10
132.9128406076952
 20
-152.9576344160918
 30
0.0
 10
132.9128406076952
 20
-152.9576344160918
 30
0.0
  0
LINE
  5
81
330
79
100
AcDbEntity
  8
レイヤー 1
 62
   250
420
  2299925
370
     9
100
AcDbLine
 10
140.323255140862
 20
-148.2023663617249
 30
0.0
 11
130.9649781573893
 21
-152.0029824718856
 31
0.0
  0
SPLINE
  5
82
330
79
100
AcDbEntity
  8
レイヤー 1
 62
   250
420
  2299925
370
     9
100
AcDbSpline
210
0.0
220
0.0
230
1.0
 70
     8
 71
     3
 72
    20
 73
    16
 74
     0
 42
0.0000000001
 43
0.0000000001
 40
0.0
 40
0.0
 40
0.0
 40
0.0
 40
1.0
 40
1.0
 40
1.0
 40
2.0
 40
2.0
 40
2.0
 40
3.0
 40
3.0
 40
3.0
 40
4.0
 40
4.0
 40
4.0
 40
5.0
 40
5.0
 40
5.0
 40
5.0
 10
133.275954765098
 20
-156.5291566374211
 30
0.0
 10
133.275954765098
 20
-156.5291566374211
 30
0.0
 10
133.275954765098
 20
-153.5880835826007
 30
0.0
 10
133.275954765098
 20
-153.5880835826007
 30
0.0
 10
133.275954765098
 20
-153.5880835826007
 30
0.0
 10
133.275954765098
 20
-153.2444427493535
 30
0.0
 10
133.505401425911
 20
-153.3781102493199
 30
0.0
 10
133.505401425911
 20
-153.3781102493199
 30
0.0
 10
138.7956921242778
 20
-155.6889105265197
 30
0.0
 10
138.7956921242778
 20
-155.6889105265197
 30
0.0
 10
138.7956921242778
 20
-155.6889105265197
 30
0.0
 10
139.5405160821899
 20
-156.1470983041831
 30
0.0
 10
140.2467771931246
 20
-155.9371249709023
 30
0.0
 10
140.2467771931246
 20
-155.9371249709023
 30
0.0
 10
149.8344612870998
 20
-151.8689974719195
 30
0.0
 10
149.8344612870998
 20
-151.8689974719195
 30
0.0
  0
SPLINE
  5
83
330
79
100
AcDbEntity
  8
レイヤー 1
 62
   250
420
  2299925
370
     9
100
AcDbSpline
210
0.0
220
0.0
230
1.0
 70
     8
 71
     3
 72
    20
 73
    16
 74
     0
 42
0.0000000001
 43
0.0000000001
 40
0.0
 40
0.0
 40
0.0
 40
0.0
 40
1.0
 40
1.0
 40
1.0
 40
2.0
 40
2.0
 40
2.0
 40
3.0
 40
3.0
 40
3.0
 40
4.0
 40
4.0
 40
4.0
 40
5.0
 40
5.0
 40
5.0
 40
5.0
 10
133.4482161495922
 20
-152.8815049716664
 30
0.0
 10
133.4482161495922
 20
-152.8815049716664
 30
0.0
 10
136.9808268928011
 20
-154.5048119157053
 30
0.0
 10
137.1530529995183
 20
-154.6000971934591
 30
0.0
 10
137.1530529995183
 20
-154.6000971934591
 30
0.0
 10
139.3110651666851
 20
-155.6124283043172
 30
0.0
 10
139.3110651666851
 20
-155.6124283043172
 30
0.0
 10
139.3110651666851
 20
-155.6124283043172
 30
0.0
 10
139.7313688599203
 20
-155.9564219153421
 30
0.0
 10
140.6477754103605
 20
-155.4980577487905
 30
0.0
 10
140.6477754103605
 20
-155.4980577487905
 30
0.0
 10
147.9817077232563
 20
-152.3085938606986
 30
0.0
 10
147.9817077232563
 20
-152.3085938606986
 30
0.0
 10
147.9817077232563
 20
-152.3085938606986
 30
0.0
 10
149.6429029586535
 20
-151.6018035830973
 30
0.0
 10
149.6429029586535
 20
-151.6018035830973
 30
0.0
  0
LINE
  5
84
330
79
100
AcDbEntity
  8
レイヤー 1
 62
   250
420
  2299925
370
     9
100
AcDbLine
 10
130.9649781573893
 20
-154.9249702489332
 30
0.0
 11
132.8177669990096
 21
-154.2564210824338
 31
0.0
  0
SPLINE
  5
85
330
79
100
AcDbEntity
  8
レイヤー 1
 62
   250
420
  2299925
370
     9
100
AcDbSpline
210
0.0
220
0.0
230
1.0
 70
     9
 71
     3
 72
    17
 73
    13
 74
     0
 42
0.0000000001
 43
0.0000000001
 40
0.0
 40
0.0
 40
0.0
 40
0.0
 40
1.0
 40
1.0
 40
1.0
 40
2.0
 40
2.0
 40
2.0
 40
3.0
 40
3.0
 40
3.0
 40
4.0
 40
4.0
 40
4.0
 40
4.0
 10
137.5906032661333
 20
-147.9825858062245
 30
0.0
 10
137.5906032661333
 20
-148.218382472832
 30
0.0
 10
137.2598741079042
 20
-148.4102935838954
 30
0.0
 10
136.8540385627024
 20
-148.4102935838954
 30
0.0
 10
136.4461216286648
 20
-148.4102935838954
 30
0.0
 10
136.1161021941576
 20
-148.218382472832
 30
0.0
 10
136.1161021941576
 20
-147.9825858062245
 30
0.0
 10
136.1161021941576
 20
-147.7462246951724
 30
0.0
 10
136.4461216286648
 20
-147.5548780285535
 30
0.0
 10
136.8540385627024
 20
-147.5548780285535
 30
0.0
 10
137.2598741079042
 20
-147.5548780285535
 30
0.0
 10
137.5906032661333
 20
-147.7462246951724
 30
0.0
 10
137.5906032661333
 20
-147.9825858062245
 30
0.0
  0
SPLINE
  5
86
330
79
100
AcDbEntity
  8
レイヤー 1
 62
   250
420
  2299925
370
     9
100
AcDbSpline
210
0.0
220
0.0
230
1.0
 70
     8
 71
     3
 72
    11
 73
     7
 74
     0
 42
0.0000000001
 43
0.0000000001
 40
0.0
 40
0.0
 40
0.0
 40
0.0
 40
1.0
 40
1.0
 40
1.0
 40
2.0
 40
2.0
 40
2.0
 40
2.0
 10
136.2442621893702
 20
-148.2173594172769
 30
0.0
 10
136.2442621893702
 20
-148.2173594172769
 30
0.0
 10
136.2228838565822
 20
-147.7042088618496
 30
0.0
 10
137.0566077494771
 20
-147.7477769173939
 30
0.0
 10
137.0566077494771
 20
-147.7477769173939
 30
0.0
 10
137.5471763227967
 20
-147.8111710840452
 30
0.0
 10
137.4624391027363
 20
-148.1963338617264
 30
0.0
  0
SPLINE
  5
87
330
79
100
AcDbEntity
  8
レイヤー 1
 62
   250
420
  2299925
370
     9
100
AcDbSpline
210
0.0
220
0.0
230
1.0
 70
     9
 71
     3
 72
    17
 73
    13
 74
     0
 42
0.0000000001
 43
0.0000000001
 40
0.0
 40
0.0
 40
0.0
 40
0.0
 40
1.0
 40
1.0
 40
1.0
 40
2.0
 40
2.0
 40
2.0
 40
3.0
 40
3.0
 40
3.0
 40
4.0
 40
4.0
 40
4.0
 40
4.0
 10
137.3535718832916
 20
-146.8968416398293
 30
0.0
 10
137.3535718832916
 20
-147.1330263619925
 30
0.0
 10
137.0228427250625
 20
-147.3243730286111
 30
0.0
 10
136.6163410829207
 20
-147.3243730286111
 30
0.0
 10
136.2084199680624
 20
-147.3243730286111
 30
0.0
 10
135.8790666431316
 20
-147.1330263619925
 30
0.0
 10
135.8790666431316
 20
-146.8968416398293
 30
0.0
 10
135.8790666431316
 20
-146.660692195444
 30
0.0
 10
136.2084199680624
 20
-146.4694866399361
 30
0.0
 10
136.6163410829207
 20
-146.4694866399361
 30
0.0
 10
137.0228427250625
 20
-146.4694866399361
 30
0.0
 10
137.3535718832916
 20
-146.660692195444
 30
0.0
 10
137.3535718832916
 20
-146.8968416398293
 30
0.0
  0
SPLINE
  5
88
330
79
100
AcDbEntity
  8
レイヤー 1
 62
   250
420
  2299925
370
     9
100
AcDbSpline
210
0.0
220
0.0
230
1.0
 70
     8
 71
     3
 72
    11
 73
     7
 74
     0
 42
0.0000000001
 43
0.0000000001
 40
0.0
 40
0.0
 40
0.0
 40
0.0
 40
1.0
 40
1.0
 40
1.0
 40
2.0
 40
2.0
 40
2.0
 40
2.0
 10
136.0065252509909
 20
-147.1319680286595
 30
0.0
 10
136.0065252509909
 20
-147.1319680286595
 30
0.0
 10
135.9858524737405
 20
-146.6184999732323
 30
0.0
 10
136.8181963413946
 20
-146.6620680287769
 30
0.0
 10
136.8181963413946
 20
-146.6620680287769
 30
0.0
 10
137.3101802177319
 20
-146.7254621954279
 30
0.0
 10
137.2247374421339
 20
-147.1106249731091
 30
0.0
  0
SPLINE
  5
89
330
79
100
AcDbEntity
  8
レイヤー 1
 62
   250
420
  2299925
370
     9
100
AcDbSpline
210
0.0
220
0.0
230
1.0
 70
     9
 71
     3
 72
    17
 73
    13
 74
     0
 42
0.0000000001
 43
0.0000000001
 40
0.0
 40
0.0
 40
0.0
 40
0.0
 40
1.0
 40
1.0
 40
1.0
 40
2.0
 40
2.0
 40
2.0
 40
3.0
 40
3.0
 40
3.0
 40
4.0
 40
4.0
 40
4.0
 40
4.0
 10
127.6508074086075
 20
-149.5090905280649
 30
0.0
 10
127.6508074086075
 20
-149.7450988613398
 30
0.0
 10
127.3207485281391
 20
-149.9362691390692
 30
0.0
 10
126.9135410853461
 20
-149.9362691390692
 30
0.0
 10
126.5063610489159
 20
-149.9362691390692
 30
0.0
 10
126.177007723985
 20
-149.7450988613398
 30
0.0
 10
126.177007723985
 20
-149.5090905280649
 30
0.0
 10
126.177007723985
 20
-149.2731174725681
 30
0.0
 10
126.5063610489159
 20
-149.0812063615057
 30
0.0
 10
126.9135410853461
 20
-149.0812063615057
 30
0.0
 10
127.3207485281391
 20
-149.0812063615057
 30
0.0
 10
127.6508074086075
 20
-149.2731174725681
 30
0.0
 10
127.6508074086075
 20
-149.5090905280649
 30
0.0
  0
SPLINE
  5
8A
330
79
100
AcDbEntity
  8
レイヤー 1
 62
   250
420
  2299925
370
     9
100
AcDbSpline
210
0.0
220
0.0
230
1.0
 70
     8
 71
     3
 72
    11
 73
     7
 74
     0
 42
0.0000000001
 43
0.0000000001
 40
0.0
 40
0.0
 40
0.0
 40
0.0
 40
1.0
 40
1.0
 40
1.0
 40
2.0
 40
2.0
 40
2.0
 40
2.0
 10
126.3051366096051
 20
-149.743864139117
 30
0.0
 10
126.3051366096051
 20
-149.743864139117
 30
0.0
 10
126.2830879990565
 20
-149.2305724725793
 30
0.0
 10
127.116137422248
 20
-149.2737877503461
 30
0.0
 10
127.116137422248
 20
-149.2737877503461
 30
0.0
 10
127.607380465271
 20
-149.3377110836638
 30
0.0
 10
127.5226432452106
 20
-149.7225210835669
 30
0.0
  0
SPLINE
  5
8B
330
79
100
AcDbEntity
  8
レイヤー 1
 62
   250
420
  2299925
370
     9
100
AcDbSpline
210
0.0
220
0.0
230
1.0
 70
     9
 71
     3
 72
    17
 73
    13
 74
     0
 42
0.0000000001
 43
0.0000000001
 40
0.0
 40
0.0
 40
0.0
 40
0.0
 40
1.0
 40
1.0
 40
1.0
 40
2.0
 40
2.0
 40
2.0
 40
3.0
 40
3.0
 40
3.0
 40
4.0
 40
4.0
 40
4.0
 40
4.0
 10
135.3850366557353
 20
-149.0684710837307
 30
0.0
 10
135.3850366557353
 20
-149.3041266392278
 30
0.0
 10
135.0536372197456
 20
-149.495649694735
 30
0.0
 10
134.6478016745437
 20
-149.495649694735
 30
0.0
 10
134.2398847405061
 20
-149.495649694735
 30
0.0
 10
133.9112410835977
 20
-149.3041266392278
 30
0.0
 10
133.9112410835977
 20
-149.0684710837307
 30
0.0
 10
133.9112410835977
 20
-148.8323216393453
 30
0.0
 10
134.2398847405061
 20
-148.64076330606
 30
0.0
 10
134.6478016745437
 20
-148.64076330606
 30
0.0
 10
135.0536372197456
 20
-148.64076330606
 30
0.0
 10
135.3850366557353
 20
-148.8323216393453
 30
0.0
 10
135.3850366557353
 20
-149.0684710837307
 30
0.0
  0
SPLINE
  5
8C
330
79
100
AcDbEntity
  8
レイヤー 1
 62
   250
420
  2299925
370
     9
100
AcDbSpline
210
0.0
220
0.0
230
1.0
 70
     8
 71
     3
 72
    11
 73
     7
 74
     0
 42
0.0000000001
 43
0.0000000001
 40
0.0
 40
0.0
 40
0.0
 40
0.0
 40
1.0
 40
1.0
 40
1.0
 40
2.0
 40
2.0
 40
2.0
 40
2.0
 10
134.0394011345098
 20
-149.3030683058946
 30
0.0
 10
134.0394011345098
 20
-149.3030683058946
 30
0.0
 10
134.0173525239612
 20
-148.789917750467
 30
0.0
 10
134.8510410833617
 20
-148.8333446949008
 30
0.0
 10
134.8510410833617
 20
-148.8333446949008
 30
0.0
 10
135.3423152679363
 20
-148.8969152504401
 30
0.0
 10
135.2568724923384
 20
-149.2819016392327
 30
0.0
  0
SPLINE
  5
8D
330
79
100
AcDbEntity
  8
レイヤー 1
 62
   250
420
  2299925
370
     9
100
AcDbSpline
210
0.0
220
0.0
230
1.0
 70
     9
 71
     3
 72
    17
 73
    13
 74
     0
 42
0.0000000001
 43
0.0000000001
 40
0.0
 40
0.0
 40
0.0
 40
0.0
 40
1.0
 40
1.0
 40
1.0
 40
2.0
 40
2.0
 40
2.0
 40
3.0
 40
3.0
 40
3.0
 40
4.0
 40
4.0
 40
4.0
 40
4.0
 10
135.1473349951329
 20
-147.9825858062245
 30
0.0
 10
135.1473349951329
 20
-148.218382472832
 30
0.0
 10
134.8166058369038
 20
-148.4102935838954
 30
0.0
 10
134.4107744168053
 20
-148.4102935838954
 30
0.0
 10
134.0028886354413
 20
-148.4102935838954
 30
0.0
 10
133.6735353105104
 20
-148.218382472832
 30
0.0
 10
133.6735353105104
 20
-147.9825858062245
 30
0.0
 10
133.6735353105104
 20
-147.7462246951724
 30
0.0
 10
134.0028886354413
 20
-147.5548780285535
 30
0.0
 10
134.4107744168053
 20
-147.5548780285535
 30
0.0
 10
134.8166058369038
 20
-147.5548780285535
 30
0.0
 10
135.1473349951329
 20
-147.7462246951724
 30
0.0
 10
135.1473349951329
 20
-147.9825858062245
 30
0.0
  0
SPLINE
  5
8E
330
79
100
AcDbEntity
  8
レイヤー 1
 62
   250
420
  2299925
370
     9
100
AcDbSpline
210
0.0
220
0.0
230
1.0
 70
     8
 71
     3
 72
    11
 73
     7
 74
     0
 42
0.0000000001
 43
0.0000000001
 40
0.0
 40
0.0
 40
0.0
 40
0.0
 40
1.0
 40
1.0
 40
1.0
 40
2.0
 40
2.0
 40
2.0
 40
2.0
 10
133.8016641961305
 20
-148.2173594172769
 30
0.0
 10
133.8016641961305
 20
-148.2173594172769
 30
0.0
 10
133.7803211411194
 20
-147.7042088618496
 30
0.0
 10
134.6133352865342
 20
-147.7477769173939
 30
0.0
 10
134.6133352865342
 20
-147.7477769173939
 30
0.0
 10
135.1053191628715
 20
-147.8111710840452
 30
0.0
 10
135.019170831736
 20
-148.1963338617264
 30
0.0
  0
SPLINE
  5
8F
330
79
100
AcDbEntity
  8
レイヤー 1
 62
   250
420
  2299925
370
     9
100
AcDbSpline
210
0.0
220
0.0
230
1.0
 70
     9
 71
     3
 72
    17
 73
    13
 74
     0
 42
0.0000000001
 43
0.0000000001
 40
0.0
 40
0.0
 40
0.0
 40
0.0
 40
1.0
 40
1.0
 40
1.0
 40
2.0
 40
2.0
 40
2.0
 40
3.0
 40
3.0
 40
3.0
 40
4.0
 40
4.0
 40
4.0
 40
4.0
 10
134.6043747312072
 20
-147.0327669175731
 30
0.0
 10
134.6043747312072
 20
-147.2690927508473
 30
0.0
 10
134.2743511285157
 20
-147.4601219174663
 30
0.0
 10
133.8678100277763
 20
-147.4601219174663
 30
0.0
 10
133.4605986492763
 20
-147.4601219174663
 30
0.0
 10
133.1305750465847
 20
-147.2690927508473
 30
0.0
 10
133.1305750465847
 20
-147.0327669175731
 30
0.0
 10
133.1305750465847
 20
-146.7967585842988
 30
0.0
 10
133.4605986492763
 20
-146.6052355287913
 30
0.0
 10
133.8678100277763
 20
-146.6052355287913
 30
0.0
 10
134.2743511285157
 20
-146.6052355287913
 30
0.0
 10
134.6043747312072
 20
-146.7967585842988
 30
0.0
 10
134.6043747312072
 20
-147.0327669175731
 30
0.0
  0
SPLINE
  5
90
330
79
100
AcDbEntity
  8
レイヤー 1
 62
   250
420
  2299925
370
     9
100
AcDbSpline
210
0.0
220
0.0
230
1.0
 70
     8
 71
     3
 72
    11
 73
     7
 74
     0
 42
0.0000000001
 43
0.0000000001
 40
0.0
 40
0.0
 40
0.0
 40
0.0
 40
1.0
 40
1.0
 40
1.0
 40
2.0
 40
2.0
 40
2.0
 40
2.0
 10
133.2587392099817
 20
-147.2678933064033
 30
0.0
 10
133.2587392099817
 20
-147.2678933064033
 30
0.0
 10
133.2373608771938
 20
-146.7545663620871
 30
0.0
 10
134.0704103003853
 20
-146.7976405287429
 30
0.0
 10
134.0704103003853
 20
-146.7976405287429
 30
0.0
 10
134.5623588989458
 20
-146.8615285842824
 30
0.0
 10
134.4769161233478
 20
-147.2466913619639
 30
0.0
  0
SPLINE
  5
91
330
79
100
AcDbEntity
  8
レイヤー 1
 62
   250
420
  2299925
370
     9
100
AcDbSpline
210
0.0
220
0.0
230
1.0
 70
     9
 71
     3
 72
    17
 73
    13
 74
     0
 42
0.0000000001
 43
0.0000000001
 40
0.0
 40
0.0
 40
0.0
 40
0.0
 40
1.0
 40
1.0
 40
1.0
 40
2.0
 40
2.0
 40
2.0
 40
3.0
 40
3.0
 40
3.0
 40
4.0
 40
4.0
 40
4.0
 40
4.0
 10
133.0782228256981
 20
-149.8821883057494
 30
0.0
 10
133.0782228256981
 20
-150.1185141390239
 30
0.0
 10
132.7474936674691
 20
-150.3097196945315
 30
0.0
 10
132.3409525667297
 20
-150.3097196945315
 30
0.0
 10
131.9337411882296
 20
-150.3097196945315
 30
0.0
 10
131.6043878632988
 20
-150.1185141390239
 30
0.0
 10
131.6043878632988
 20
-149.8821883057494
 30
0.0
 10
131.6043878632988
 20
-149.6460388613644
 30
0.0
 10
131.9337411882296
 20
-149.454656916968
 30
0.0
 10
132.3409525667297
 20
-149.454656916968
 30
0.0
 10
132.7474936674691
 20
-149.454656916968
 30
0.0
 10
133.0782228256981
 20
-149.6460388613644
 30
0.0
 10
133.0782228256981
 20
-149.8821883057494
 30
0.0
  0
SPLINE
  5
92
330
79
100
AcDbEntity
  8
レイヤー 1
 62
   250
420
  2299925
370
     9
100
AcDbSpline
210
0.0
220
0.0
230
1.0
 70
     8
 71
     3
 72
    11
 73
     7
 74
     0
 42
0.0000000001
 43
0.0000000001
 40
0.0
 40
0.0
 40
0.0
 40
0.0
 40
1.0
 40
1.0
 40
1.0
 40
2.0
 40
2.0
 40
2.0
 40
2.0
 10
131.7325520266957
 20
-150.1169971945797
 30
0.0
 10
131.7325520266957
 20
-150.1169971945797
 30
0.0
 10
131.7105034161471
 20
-149.6038466391521
 30
0.0
 10
132.5442271950506
 20
-149.6470619169195
 30
0.0
 10
132.5442271950506
 20
-149.6470619169195
 30
0.0
 10
133.0355014378991
 20
-149.7111616391261
 30
0.0
 10
132.9493531067637
 20
-150.0959716390292
 30
0.0
  0
SPLINE
  5
93
330
79
100
AcDbEntity
  8
レイヤー 1
 62
   250
420
  2299925
370
     9
100
AcDbSpline
210
0.0
220
0.0
230
1.0
 70
     9
 71
     3
 72
    17
 73
    13
 74
     0
 42
0.0000000001
 43
0.0000000001
 40
0.0
 40
0.0
 40
0.0
 40
0.0
 40
1.0
 40
1.0
 40
1.0
 40
2.0
 40
2.0
 40
2.0
 40
3.0
 40
3.0
 40
3.0
 40
4.0
 40
4.0
 40
4.0
 40
4.0
 10
132.8398156095582
 20
-148.796655806021
 30
0.0
 10
132.8398156095582
 20
-149.0326288615174
 30
0.0
 10
132.5097567290898
 20
-149.223834417025
 30
0.0
 10
132.1032549729386
 20
-149.223834417025
 30
0.0
 10
131.6960395276272
 20
-149.223834417025
 30
0.0
 10
131.3666862026964
 20
-149.0326288615174
 30
0.0
 10
131.3666862026964
 20
-148.796655806021
 30
0.0
 10
131.3666862026964
 20
-148.5606474727467
 30
0.0
 10
131.6960395276272
 20
-148.3687716394611
 30
0.0
 10
132.1032549729386
 20
-148.3687716394611
 30
0.0
 10
132.5097567290898
 20
-148.3687716394611
 30
0.0
 10
132.8398156095582
 20
-148.5606474727467
 30
0.0
 10
132.8398156095582
 20
-148.796655806021
 30
0.0
  0
SPLINE
  5
94
330
79
100
AcDbEntity
  8
レイヤー 1
 62
   250
420
  2299925
370
     9
100
AcDbSpline
210
0.0
220
0.0
230
1.0
 70
     8
 71
     3
 72
    11
 73
     7
 74
     0
 42
0.0000000001
 43
0.0000000001
 40
0.0
 40
0.0
 40
0.0
 40
0.0
 40
1.0
 40
1.0
 40
1.0
 40
2.0
 40
2.0
 40
2.0
 40
2.0
 10
131.4948503660933
 20
-149.0310766392957
 30
0.0
 10
131.4948503660933
 20
-149.0310766392957
 30
0.0
 10
131.4734720333054
 20
-148.5181024727573
 30
0.0
 10
132.306521456497
 20
-148.5615294171908
 30
0.0
 10
132.306521456497
 20
-148.5615294171908
 30
0.0
 10
132.7977644995199
 20
-148.6252410838414
 30
0.0
 10
132.7123217239219
 20
-149.0102274726341
 30
0.0
  0
SPLINE
  5
95
330
79
100
AcDbEntity
  8
レイヤー 1
 62
   250
420
  2299925
370
     9
100
AcDbSpline
210
0.0
220
0.0
230
1.0
 70
     9
 71
     3
 72
    17
 73
    13
 74
     0
 42
0.0000000001
 43
0.0000000001
 40
0.0
 40
0.0
 40
0.0
 40
0.0
 40
1.0
 40
1.0
 40
1.0
 40
2.0
 40
2.0
 40
2.0
 40
3.0
 40
3.0
 40
3.0
 40
4.0
 40
4.0
 40
4.0
 40
4.0
 10
132.2982311789307
 20
-147.8464841395918
 30
0.0
 10
132.2982311789307
 20
-148.082809972866
 30
0.0
 10
131.9675020207017
 20
-148.2741919172628
 30
0.0
 10
131.5616664754998
 20
-148.2741919172628
 30
0.0
 10
131.1537848192391
 20
-148.2741919172628
 30
0.0
 10
130.8237299732583
 20
-148.082809972866
 30
0.0
 10
130.8237299732583
 20
-147.8464841395918
 30
0.0
 10
130.8237299732583
 20
-147.6105110840954
 30
0.0
 10
131.1537848192391
 20
-147.4196583063652
 30
0.0
 10
131.5616664754998
 20
-147.4196583063652
 30
0.0
 10
131.9675020207017
 20
-147.4196583063652
 30
0.0
 10
132.2982311789307
 20
-147.6105110840954
 30
0.0
 10
132.2982311789307
 20
-147.8464841395918
 30
0.0
  0
SPLINE
  5
96
330
79
100
AcDbEntity
  8
レイヤー 1
 62
   250
420
  2299925
370
     9
100
AcDbSpline
210
0.0
220
0.0
230
1.0
 70
     8
 71
     3
 72
    11
 73
     7
 74
     0
 42
0.0000000001
 43
0.0000000001
 40
0.0
 40
0.0
 40
0.0
 40
0.0
 40
1.0
 40
1.0
 40
1.0
 40
2.0
 40
2.0
 40
2.0
 40
2.0
 10
130.9518901021676
 20
-148.0817869173109
 30
0.0
 10
130.9518901021676
 20
-148.0817869173109
 30
0.0
 10
130.929841491619
 20
-147.5681424729948
 30
0.0
 10
131.7635611925713
 20
-147.6118869174283
 30
0.0
 10
131.7635611925713
 20
-147.6118869174283
 30
0.0
 10
132.2541339578335
 20
-147.6754574729682
 30
0.0
 10
132.1700670155338
 20
-148.0602674728713
 30
0.0
  0
SPLINE
  5
97
330
79
100
AcDbEntity
  8
レイヤー 1
 62
   250
420
  2299925
370
     9
100
AcDbSpline
210
0.0
220
0.0
230
1.0
 70
     9
 71
     3
 72
    17
 73
    13
 74
     0
 42
0.0000000001
 43
0.0000000001
 40
0.0
 40
0.0
 40
0.0
 40
0.0
 40
1.0
 40
1.0
 40
1.0
 40
2.0
 40
2.0
 40
2.0
 40
3.0
 40
3.0
 40
3.0
 40
4.0
 40
4.0
 40
4.0
 40
4.0
 10
130.6349545546978
 20
-150.6966110833237
 30
0.0
 10
130.6349545546978
 20
-150.932619416598
 30
0.0
 10
130.3048956742294
 20
-151.1239660832169
 30
0.0
 10
129.8983938623787
 20
-151.1239660832169
 30
0.0
 10
129.4904729172293
 20
-151.1239660832169
 30
0.0
 10
129.1604493145378
 20
-150.932619416598
 30
0.0
 10
129.1604493145378
 20
-150.6966110833237
 30
0.0
 10
129.1604493145378
 20
-150.4602852500492
 30
0.0
 10
129.4904729172293
 20
-150.2687269167645
 30
0.0
 10
129.8983938623787
 20
-150.2687269167645
 30
0.0
 10
130.3048956742294
 20
-150.2687269167645
 30
0.0
 10
130.6349545546978
 20
-150.4602852500492
 30
0.0
 10
130.6349545546978
 20
-150.6966110833237
 30
0.0
  0
SPLINE
  5
98
330
79
100
AcDbEntity
  8
レイヤー 1
 62
   250
420
  2299925
370
     9
100
AcDbSpline
210
0.0
220
0.0
230
1.0
 70
     8
 71
     3
 72
    11
 73
     7
 74
     0
 42
0.0000000001
 43
0.0000000001
 40
0.0
 40
0.0
 40
0.0
 40
0.0
 40
1.0
 40
1.0
 40
1.0
 40
2.0
 40
2.0
 40
2.0
 40
2.0
 10
129.2886134779347
 20
-150.9315610832653
 30
0.0
 10
129.2886134779347
 20
-150.9315610832653
 30
0.0
 10
129.2672351451467
 20
-150.4180930278382
 30
0.0
 10
130.100954846099
 20
-150.461308305605
 30
0.0
 10
130.100954846099
 20
-150.461308305605
 30
0.0
 10
130.5929034446595
 20
-150.5248788611449
 30
0.0
 10
130.5074606690615
 20
-150.9102180277146
 30
0.0
  0
SPLINE
  5
99
330
79
100
AcDbEntity
  8
レイヤー 1
 62
   250
420
  2299925
370
     9
100
AcDbSpline
210
0.0
220
0.0
230
1.0
 70
     9
 71
     3
 72
    17
 73
    13
 74
     0
 42
0.0000000001
 43
0.0000000001
 40
0.0
 40
0.0
 40
0.0
 40
0.0
 40
1.0
 40
1.0
 40
1.0
 40
2.0
 40
2.0
 40
2.0
 40
3.0
 40
3.0
 40
3.0
 40
4.0
 40
4.0
 40
4.0
 40
4.0
 10
130.3979271955862
 20
-149.6107258058178
 30
0.0
 10
130.3979271955862
 20
-149.8468752502028
 30
0.0
 10
130.067194013627
 20
-150.0384335834882
 30
0.0
 10
129.6606881906645
 20
-150.0384335834882
 30
0.0
 10
129.2534768121644
 20
-150.0384335834882
 30
0.0
 10
128.9241234872336
 20
-149.8468752502028
 30
0.0
 10
128.9241234872336
 20
-149.6107258058178
 30
0.0
 10
128.9241234872336
 20
-149.3745763614322
 30
0.0
 10
129.2534768121644
 20
-149.1835471948129
 30
0.0
 10
129.6606881906645
 20
-149.1835471948129
 30
0.0
 10
130.067194013627
 20
-149.1835471948129
 30
0.0
 10
130.3979271955862
 20
-149.3745763614322
 30
0.0
 10
130.3979271955862
 20
-149.6107258058178
 30
0.0
  0
SPLINE
  5
9A
330
79
100
AcDbEntity
  8
レイヤー 1
 62
   250
420
  2299925
370
     9
100
AcDbSpline
210
0.0
220
0.0
230
1.0
 70
     8
 71
     3
 72
    11
 73
     7
 74
     0
 42
0.0000000001
 43
0.0000000001
 40
0.0
 40
0.0
 40
0.0
 40
0.0
 40
1.0
 40
1.0
 40
1.0
 40
2.0
 40
2.0
 40
2.0
 40
2.0
 10
129.0522523728536
 20
-149.8458521946477
 30
0.0
 10
129.0522523728536
 20
-149.8458521946477
 30
0.0
 10
129.0309133070391
 20
-149.3323488614423
 30
0.0
 10
129.8639234632573
 20
-149.3757758058762
 30
0.0
 10
129.8639234632573
 20
-149.3757758058762
 30
0.0
 10
130.3559073395947
 20
-149.4394874725268
 30
0.0
 10
130.2697590084591
 20
-149.8246502502084
 30
0.0
  0
SPLINE
  5
9B
330
79
100
AcDbEntity
  8
レイヤー 1
 62
   250
420
  2299925
370
     9
100
AcDbSpline
210
0.0
220
0.0
230
1.0
 70
     9
 71
     3
 72
    17
 73
    13
 74
     0
 42
0.0000000001
 43
0.0000000001
 40
0.0
 40
0.0
 40
0.0
 40
0.0
 40
1.0
 40
1.0
 40
1.0
 40
2.0
 40
2.0
 40
2.0
 40
3.0
 40
3.0
 40
3.0
 40
4.0
 40
4.0
 40
4.0
 40
4.0
 10
129.8549629079303
 20
-148.6607305282772
 30
0.0
 10
129.8549629079303
 20
-148.8969152504401
 30
0.0
 10
129.5242337497013
 20
-149.0884383059479
 30
0.0
 10
129.118402195906
 20
-149.0884383059479
 30
0.0
 10
128.7105165482387
 20
-149.0884383059479
 30
0.0
 10
128.3811632233079
 20
-148.8969152504401
 30
0.0
 10
128.3811632233079
 20
-148.6607305282772
 30
0.0
 10
128.3811632233079
 20
-148.4249338616693
 30
0.0
 10
128.7105165482387
 20
-148.2335519172729
 30
0.0
 10
129.118402195906
 20
-148.2335519172729
 30
0.0
 10
129.5242337497013
 20
-148.2335519172729
 30
0.0
 10
129.8549629079303
 20
-148.4249338616693
 30
0.0
 10
129.8549629079303
 20
-148.6607305282772
 30
0.0
  0
SPLINE
  5
9C
330
79
100
AcDbEntity
  8
レイヤー 1
 62
   250
420
  2299925
370
     9
100
AcDbSpline
210
0.0
220
0.0
230
1.0
 70
     8
 71
     3
 72
    11
 73
     7
 74
     0
 42
0.0000000001
 43
0.0000000001
 40
0.0
 40
0.0
 40
0.0
 40
0.0
 40
1.0
 40
1.0
 40
1.0
 40
2.0
 40
2.0
 40
2.0
 40
2.0
 10
128.5093273867048
 20
-148.8958569171074
 30
0.0
 10
128.5093273867048
 20
-148.8958569171074
 30
0.0
 10
128.4879490539169
 20
-148.3825652505688
 30
0.0
 10
129.3209984771085
 20
-148.4259569172248
 30
0.0
 10
129.3209984771085
 20
-148.4259569172248
 30
0.0
 10
129.8122415201314
 20
-148.4897038616533
 30
0.0
 10
129.7268340223103
 20
-148.8746902504462
 30
0.0
  0
SPLINE
  5
9D
330
79
100
AcDbEntity
  8
レイヤー 1
 62
   250
420
  2299925
370
     9
100
AcDbSpline
210
0.0
220
0.0
230
1.0
 70
     9
 71
     3
 72
    17
 73
    13
 74
     0
 42
0.0000000001
 43
0.0000000001
 40
0.0
 40
0.0
 40
0.0
 40
0.0
 40
1.0
 40
1.0
 40
1.0
 40
2.0
 40
2.0
 40
2.0
 40
3.0
 40
3.0
 40
3.0
 40
4.0
 40
4.0
 40
4.0
 40
4.0
 10
140.2364365319658
 20
-153.4104952493119
 30
0.0
 10
140.2364365319658
 20
-153.6468210825858
 30
0.0
 10
139.9057073737367
 20
-153.8382030269829
 30
0.0
 10
139.4998718285349
 20
-153.8382030269829
 30
0.0
 10
139.0919548944973
 20
-153.8382030269829
 30
0.0
 10
138.7626015695665
 20
-153.6468210825858
 30
0.0
 10
138.7626015695665
 20
-153.4104952493119
 30
0.0
 10
138.7626015695665
 20
-153.1746633049265
 30
0.0
 10
139.0919548944973
 20
-152.9834577494189
 30
0.0
 10
139.4998718285349
 20
-152.9834577494189
 30
0.0
 10
139.9057073737367
 20
-152.9834577494189
 30
0.0
 10
140.2364365319658
 20
-153.1746633049265
 30
0.0
 10
140.2364365319658
 20
-153.4104952493119
 30
0.0
  0
SPLINE
  5
9E
330
79
100
AcDbEntity
  8
レイヤー 1
 62
   250
420
  2299925
370
     9
100
AcDbSpline
210
0.0
220
0.0
230
1.0
 70
     8
 71
     3
 72
    11
 73
     7
 74
     0
 42
0.0000000001
 43
0.0000000001
 40
0.0
 40
0.0
 40
0.0
 40
0.0
 40
1.0
 40
1.0
 40
1.0
 40
2.0
 40
2.0
 40
2.0
 40
2.0
 10
138.8900954552027
 20
-153.6456216381424
 30
0.0
 10
138.8900954552027
 20
-153.6456216381424
 30
0.0
 10
138.8687171224147
 20
-153.1324710827148
 30
0.0
 10
139.702441082149
 20
-153.1760391382594
 30
0.0
 10
139.702441082149
 20
-153.1760391382594
 30
0.0
 10
140.1937151441668
 20
-153.2394333049104
 30
0.0
 10
140.1082723685688
 20
-153.6242433048142
 30
0.0
  0
SPLINE
  5
9F
330
79
100
AcDbEntity
  8
レイヤー 1
 62
   250
420
  2299925
370
     9
100
AcDbSpline
210
0.0
220
0.0
230
1.0
 70
     9
 71
     3
 72
    17
 73
    13
 74
     0
 42
0.0000000001
 43
0.0000000001
 40
0.0
 40
0.0
 40
0.0
 40
0.0
 40
1.0
 40
1.0
 40
1.0
 40
2.0
 40
2.0
 40
2.0
 40
3.0
 40
3.0
 40
3.0
 40
4.0
 40
4.0
 40
4.0
 40
4.0
 10
140.2364365319658
 20
-154.7337646934256
 30
0.0
 10
140.2364365319658
 20
-154.9699141378113
 30
0.0
 10
139.9057073737367
 20
-155.1614724710959
 30
0.0
 10
139.4998718285349
 20
-155.1614724710959
 30
0.0
 10
139.0919548944973
 20
-155.1614724710959
 30
0.0
 10
138.7626015695665
 20
-154.9699141378113
 30
0.0
 10
138.7626015695665
 20
-154.7337646934256
 30
0.0
 10
138.7626015695665
 20
-154.4977563601513
 30
0.0
 10
139.0919548944973
 20
-154.3063744157549
 30
0.0
 10
139.4998718285349
 20
-154.3063744157549
 30
0.0
 10
139.9057073737367
 20
-154.3063744157549
 30
0.0
 10
140.2364365319658
 20
-154.4977563601513
 30
0.0
 10
140.2364365319658
 20
-154.7337646934256
 30
0.0
  0
SPLINE
  5
A0
330
79
100
AcDbEntity
  8
レイヤー 1
 62
   250
420
  2299925
370
     9
100
AcDbSpline
210
0.0
220
0.0
230
1.0
 70
     8
 71
     3
 72
    11
 73
     7
 74
     0
 42
0.0000000001
 43
0.0000000001
 40
0.0
 40
0.0
 40
0.0
 40
0.0
 40
1.0
 40
1.0
 40
1.0
 40
2.0
 40
2.0
 40
2.0
 40
2.0
 10
138.8900954552027
 20
-154.9687146933666
 30
0.0
 10
138.8900954552027
 20
-154.9687146933666
 30
0.0
 10
138.8687171224147
 20
-154.4555641379397
 30
0.0
 10
139.702441082149
 20
-154.4989558045953
 30
0.0
 10
139.702441082149
 20
-154.4989558045953
 30
0.0
 10
140.1937151441668
 20
-154.562349971247
 30
0.0
 10
140.1082723685688
 20
-154.9475127489279
 30
0.0
  0
SPLINE
  5
A1
330
79
100
AcDbEntity
  8
レイヤー 1
 62
   250
420
  2299925
370
     9
100
AcDbSpline
210
0.0
220
0.0
230
1.0
 70
     9
 71
     3
 72
    17
 73
    13
 74
     0
 42
0.0000000001
 43
0.0000000001
 40
0.0
 40
0.0
 40
0.0
 40
0.0
 40
1.0
 40
1.0
 40
1.0
 40
2.0
 40
2.0
 40
2.0
 40
3.0
 40
3.0
 40
3.0
 40
4.0
 40
4.0
 40
4.0
 40
4.0
 10
140.2364365319658
 20
-152.1893902496171
 30
0.0
 10
140.2364365319658
 20
-152.425716082891
 30
0.0
 10
139.9057073737367
 20
-152.6169216383992
 30
0.0
 10
139.4998718285349
 20
-152.6169216383992
 30
0.0
 10
139.0919548944973
 20
-152.6169216383992
 30
0.0
 10
138.7626015695665
 20
-152.425716082891
 30
0.0
 10
138.7626015695665
 20
-152.1893902496171
 30
0.0
 10
138.7626015695665
 20
-151.953205527454
 30
0.0
 10
139.0919548944973
 20
-151.7621763608353
 30
0.0
 10
139.4998718285349
 20
-151.7621763608353
 30
0.0
 10
139.9057073737367
 20
-151.7621763608353
 30
0.0
 10
140.2364365319658
 20
-151.953205527454
 30
0.0
 10
140.2364365319658
 20
-152.1893902496171
 30
0.0
  0
SPLINE
  5
A2
330
79
100
AcDbEntity
  8
レイヤー 1
 62
   250
420
  2299925
370
     9
100
AcDbSpline
210
0.0
220
0.0
230
1.0
 70
     8
 71
     3
 72
    11
 73
     7
 74
     0
 42
0.0000000001
 43
0.0000000001
 40
0.0
 40
0.0
 40
0.0
 40
0.0
 40
1.0
 40
1.0
 40
1.0
 40
2.0
 40
2.0
 40
2.0
 40
2.0
 10
138.8900954552027
 20
-152.4243402495581
 30
0.0
 10
138.8900954552027
 20
-152.4243402495581
 30
0.0
 10
138.8687171224147
 20
-151.9110133052423
 30
0.0
 10
139.702441082149
 20
-151.9544402496761
 30
0.0
 10
139.702441082149
 20
-151.9544402496761
 30
0.0
 10
140.1937151441668
 20
-152.0183283052157
 30
0.0
 10
140.1082723685688
 20
-152.4031383051194
 30
0.0
  0
SPLINE
  5
A3
330
79
100
AcDbEntity
  8
レイヤー 1
 62
   250
420
  2299925
370
     9
100
AcDbSpline
210
0.0
220
0.0
230
1.0
 70
     9
 71
     3
 72
    17
 73
    13
 74
     0
 42
0.0000000001
 43
0.0000000001
 40
0.0
 40
0.0
 40
0.0
 40
0.0
 40
1.0
 40
1.0
 40
1.0
 40
2.0
 40
2.0
 40
2.0
 40
3.0
 40
3.0
 40
3.0
 40
4.0
 40
4.0
 40
4.0
 40
4.0
 10
142.4585131419425
 20
-152.5800563606302
 30
0.0
 10
142.4585131419425
 20
-152.816029416127
 30
0.0
 10
142.1277883037649
 20
-153.0070585827457
 30
0.0
 10
141.721278160751
 20
-153.0070585827457
 30
0.0
 10
141.3140667822509
 20
-153.0070585827457
 30
0.0
 10
140.9840079017825
 20
-152.816029416127
 30
0.0
 10
140.9840079017825
 20
-152.5800563606302
 30
0.0
 10
140.9840079017825
 20
-152.3433777495786
 30
0.0
 10
141.3140667822509
 20
-152.152172194071
 30
0.0
 10
141.721278160751
 20
-152.152172194071
 30
0.0
 10
142.1277883037649
 20
-152.152172194071
 30
0.0
 10
142.4585131419425
 20
-152.3433777495786
 30
0.0
 10
142.4585131419425
 20
-152.5800563606302
 30
0.0
  0
SPLINE
  5
A4
330
79
100
AcDbEntity
  8
レイヤー 1
 62
   250
420
  2299925
370
     9
100
AcDbSpline
210
0.0
220
0.0
230
1.0
 70
     8
 71
     3
 72
    11
 73
     7
 74
     0
 42
0.0000000001
 43
0.0000000001
 40
0.0
 40
0.0
 40
0.0
 40
0.0
 40
1.0
 40
1.0
 40
1.0
 40
2.0
 40
2.0
 40
2.0
 40
2.0
 10
141.1121720651795
 20
-152.8146535827941
 30
0.0
 10
141.1121720651795
 20
-152.8146535827941
 30
0.0
 10
141.0907937323915
 20
-152.3015030273665
 30
0.0
 10
141.9245134333438
 20
-152.3445771940226
 30
0.0
 10
141.9245134333438
 20
-152.3445771940226
 30
0.0
 10
142.4157917541436
 20
-152.4085005273402
 30
0.0
 10
142.3303489785456
 20
-152.7936633050218
 30
0.0
  0
SPLINE
  5
A5
330
79
100
AcDbEntity
  8
レイヤー 1
 62
   250
420
  2299925
370
     9
100
AcDbSpline
210
0.0
220
0.0
230
1.0
 70
     9
 71
     3
 72
    17
 73
    13
 74
     0
 42
0.0000000001
 43
0.0000000001
 40
0.0
 40
0.0
 40
0.0
 40
0.0
 40
1.0
 40
1.0
 40
1.0
 40
2.0
 40
2.0
 40
2.0
 40
3.0
 40
3.0
 40
3.0
 40
4.0
 40
4.0
 40
4.0
 40
4.0
 10
142.4585131419425
 20
-153.9029730269662
 30
0.0
 10
142.4585131419425
 20
-154.1389460824629
 30
0.0
 10
142.1277883037649
 20
-154.3303280268593
 30
0.0
 10
141.721278160751
 20
-154.3303280268593
 30
0.0
 10
141.3140667822509
 20
-154.3303280268593
 30
0.0
 10
140.9840079017825
 20
-154.1389460824629
 30
0.0
 10
140.9840079017825
 20
-153.9029730269662
 30
0.0
 10
140.9840079017825
 20
-153.6666471936923
 30
0.0
 10
141.3140667822509
 20
-153.4752652492958
 30
0.0
 10
141.721278160751
 20
-153.4752652492958
 30
0.0
 10
142.1277883037649
 20
-153.4752652492958
 30
0.0
 10
142.4585131419425
 20
-153.6666471936923
 30
0.0
 10
142.4585131419425
 20
-153.9029730269662
 30
0.0
  0
SPLINE
  5
A6
330
79
100
AcDbEntity
  8
レイヤー 1
 62
   250
420
  2299925
370
     9
100
AcDbSpline
210
0.0
220
0.0
230
1.0
 70
     8
 71
     3
 72
    11
 73
     7
 74
     0
 42
0.0000000001
 43
0.0000000001
 40
0.0
 40
0.0
 40
0.0
 40
0.0
 40
1.0
 40
1.0
 40
1.0
 40
2.0
 40
2.0
 40
2.0
 40
2.0
 10
141.1121720651795
 20
-154.1377466380189
 30
0.0
 10
141.1121720651795
 20
-154.1377466380189
 30
0.0
 10
141.0907937323915
 20
-153.6242433048142
 30
0.0
 10
141.9245134333438
 20
-153.6678466381363
 30
0.0
 10
141.9245134333438
 20
-153.6678466381363
 30
0.0
 10
142.4157917541436
 20
-153.7314171936762
 30
0.0
 10
142.3303489785456
 20
-154.1167210824691
 30
0.0
  0
SPLINE
  5
A7
330
79
100
AcDbEntity
  8
レイヤー 1
 62
   250
420
  2299925
370
     9
100
AcDbSpline
210
0.0
220
0.0
230
1.0
 70
     9
 71
     3
 72
    17
 73
    13
 74
     0
 42
0.0000000001
 43
0.0000000001
 40
0.0
 40
0.0
 40
0.0
 40
0.0
 40
1.0
 40
1.0
 40
1.0
 40
2.0
 40
2.0
 40
2.0
 40
3.0
 40
3.0
 40
3.0
 40
4.0
 40
4.0
 40
4.0
 40
4.0
 10
142.4585131419425
 20
-151.3585985831583
 30
0.0
 10
142.4585131419425
 20
-151.5943952497662
 30
0.0
 10
142.1277883037649
 20
-151.7856008052738
 30
0.0
 10
141.721278160751
 20
-151.7856008052738
 30
0.0
 10
141.3140667822509
 20
-151.7856008052738
 30
0.0
 10
140.9840079017825
 20
-151.5943952497662
 30
0.0
 10
140.9840079017825
 20
-151.3585985831583
 30
0.0
 10
140.9840079017825
 20
-151.1225902498841
 30
0.0
 10
141.3140667822509
 20
-150.9308908054873
 30
0.0
 10
141.721278160751
 20
-150.9308908054873
 30
0.0
 10
142.1277883037649
 20
-150.9308908054873
 30
0.0
 10
142.4585131419425
 20
-151.1225902498841
 30
0.0
 10
142.4585131419425
 20
-151.3585985831583
 30
0.0
  0
SPLINE
  5
A8
330
79
100
AcDbEntity
  8
レイヤー 1
 62
   250
420
  2299925
370
     9
100
AcDbSpline
210
0.0
220
0.0
230
1.0
 70
     8
 71
     3
 72
    11
 73
     7
 74
     0
 42
0.0000000001
 43
0.0000000001
 40
0.0
 40
0.0
 40
0.0
 40
0.0
 40
1.0
 40
1.0
 40
1.0
 40
2.0
 40
2.0
 40
2.0
 40
2.0
 10
141.1121720651795
 20
-151.5933721942111
 30
0.0
 10
141.1121720651795
 20
-151.5933721942111
 30
0.0
 10
141.0907937323915
 20
-151.0800452498946
 30
0.0
 10
141.9245134333438
 20
-151.1232958054396
 30
0.0
 10
141.9245134333438
 20
-151.1232958054396
 30
0.0
 10
142.4157917541436
 20
-151.1870427498677
 30
0.0
 10
142.3303489785456
 20
-151.5720291386604
 30
0.0
  0
SPLINE
  5
A9
330
79
100
AcDbEntity
  8
レイヤー 1
 62
   250
420
  2299925
370
     9
100
AcDbSpline
210
0.0
220
0.0
230
1.0
 70
     9
 71
     3
 72
    17
 73
    13
 74
     0
 42
0.0000000001
 43
0.0000000001
 40
0.0
 40
0.0
 40
0.0
 40
0.0
 40
1.0
 40
1.0
 40
1.0
 40
2.0
 40
2.0
 40
2.0
 40
3.0
 40
3.0
 40
3.0
 40
4.0
 40
4.0
 40
4.0
 40
4.0
 10
144.917621134761
 20
-151.6467827497529
 30
0.0
 10
144.917621134761
 20
-151.8829321941379
 30
0.0
 10
144.5875975320695
 20
-152.074314138535
 30
0.0
 10
144.1810564313302
 20
-152.074314138535
 30
0.0
 10
143.7738494144648
 20
-152.074314138535
 30
0.0
 10
143.443115894601
 20
-151.8829321941379
 30
0.0
 10
143.443115894601
 20
-151.6467827497529
 30
0.0
 10
143.443115894601
 20
-151.4107744164786
 30
0.0
 10
143.7738494144648
 20
-151.2190749720819
 30
0.0
 10
144.1810564313302
 20
-151.2190749720819
 30
0.0
 10
144.5875975320695
 20
-151.2190749720819
 30
0.0
 10
144.917621134761
 20
-151.4107744164786
 30
0.0
 10
144.917621134761
 20
-151.6467827497529
 30
0.0
  0
SPLINE
  5
AA
330
79
100
AcDbEntity
  8
レイヤー 1
 62
   250
420
  2299925
370
     9
100
AcDbSpline
210
0.0
220
0.0
230
1.0
 70
     8
 71
     3
 72
    11
 73
     7
 74
     0
 42
0.0000000001
 43
0.0000000001
 40
0.0
 40
0.0
 40
0.0
 40
0.0
 40
1.0
 40
1.0
 40
1.0
 40
2.0
 40
2.0
 40
2.0
 40
2.0
 10
143.5719856135355
 20
-151.881556360805
 30
0.0
 10
143.5719856135355
 20
-151.881556360805
 30
0.0
 10
143.5506072807475
 20
-151.3680530276003
 30
0.0
 10
144.3829511484016
 20
-151.4114799720335
 30
0.0
 10
144.3829511484016
 20
-151.4114799720335
 30
0.0
 10
144.8748997469621
 20
-151.4753680275736
 30
0.0
 10
144.7901625269017
 20
-151.8605308052545
 30
0.0
  0
SPLINE
  5
AB
330
79
100
AcDbEntity
  8
レイヤー 1
 62
   250
420
  2299925
370
     9
100
AcDbSpline
210
0.0
220
0.0
230
1.0
 70
     9
 71
     3
 72
    17
 73
    13
 74
     0
 42
0.0000000001
 43
0.0000000001
 40
0.0
 40
0.0
 40
0.0
 40
0.0
 40
1.0
 40
1.0
 40
1.0
 40
2.0
 40
2.0
 40
2.0
 40
3.0
 40
3.0
 40
3.0
 40
4.0
 40
4.0
 40
4.0
 40
4.0
 10
144.917621134761
 20
-152.9696994160888
 30
0.0
 10
144.917621134761
 20
-153.2062016382516
 30
0.0
 10
144.5875975320695
 20
-153.3972308048709
 30
0.0
 10
144.1810564313302
 20
-153.3972308048709
 30
0.0
 10
143.7738494144648
 20
-153.3972308048709
 30
0.0
 10
143.443115894601
 20
-153.2062016382516
 30
0.0
 10
143.443115894601
 20
-152.9696994160888
 30
0.0
 10
143.443115894601
 20
-152.7336910828145
 30
0.0
 10
143.7738494144648
 20
-152.542485527307
 30
0.0
 10
144.1810564313302
 20
-152.542485527307
 30
0.0
 10
144.5875975320695
 20
-152.542485527307
 30
0.0
 10
144.917621134761
 20
-152.7336910828145
 30
0.0
 10
144.917621134761
 20
-152.9696994160888
 30
0.0
  0
SPLINE
  5
AC
330
79
100
AcDbEntity
  8
レイヤー 1
 62
   250
420
  2299925
370
     9
100
AcDbSpline
210
0.0
220
0.0
230
1.0
 70
     8
 71
     3
 72
    11
 73
     7
 74
     0
 42
0.0000000001
 43
0.0000000001
 40
0.0
 40
0.0
 40
0.0
 40
0.0
 40
1.0
 40
1.0
 40
1.0
 40
2.0
 40
2.0
 40
2.0
 40
2.0
 10
143.5719856135355
 20
-153.2048258049187
 30
0.0
 10
143.5719856135355
 20
-153.2048258049187
 30
0.0
 10
143.5506072807475
 20
-152.691322471714
 30
0.0
 10
144.3829511484016
 20
-152.7347494161472
 30
0.0
 10
144.3829511484016
 20
-152.7347494161472
 30
0.0
 10
144.8748997469621
 20
-152.7988138605756
 30
0.0
 10
144.7901625269017
 20
-153.18362386048
 30
0.0
  0
SPLINE
  5
AD
330
79
100
AcDbEntity
  8
レイヤー 1
 62
   250
420
  2299925
370
     9
100
AcDbSpline
210
0.0
220
0.0
230
1.0
 70
     9
 71
     3
 72
    17
 73
    13
 74
     0
 42
0.0000000001
 43
0.0000000001
 40
0.0
 40
0.0
 40
0.0
 40
0.0
 40
1.0
 40
1.0
 40
1.0
 40
2.0
 40
2.0
 40
2.0
 40
3.0
 40
3.0
 40
3.0
 40
4.0
 40
4.0
 40
4.0
 40
4.0
 10
144.917621134761
 20
-150.4253249722803
 30
0.0
 10
144.917621134761
 20
-150.661474416666
 30
0.0
 10
144.5875975320695
 20
-150.8526799721735
 30
0.0
 10
144.1810564313302
 20
-150.8526799721735
 30
0.0
 10
143.7738494144648
 20
-150.8526799721735
 30
0.0
 10
143.443115894601
 20
-150.661474416666
 30
0.0
 10
143.443115894601
 20
-150.4253249722803
 30
0.0
 10
143.443115894601
 20
-150.189316639006
 30
0.0
 10
143.7738494144648
 20
-149.9979699723871
 30
0.0
 10
144.1810564313302
 20
-149.9979699723871
 30
0.0
 10
144.5875975320695
 20
-149.9979699723871
 30
0.0
 10
144.917621134761
 20
-150.189316639006
 30
0.0
 10
144.917621134761
 20
-150.4253249722803
 30
0.0
  0
SPLINE
  5
AE
330
79
100
AcDbEntity
  8
レイヤー 1
 62
   250
420
  2299925
370
     9
100
AcDbSpline
210
0.0
220
0.0
230
1.0
 70
     8
 71
     3
 72
    11
 73
     7
 74
     0
 42
0.0000000001
 43
0.0000000001
 40
0.0
 40
0.0
 40
0.0
 40
0.0
 40
1.0
 40
1.0
 40
1.0
 40
2.0
 40
2.0
 40
2.0
 40
2.0
 10
143.5719856135355
 20
-150.6604513611102
 30
0.0
 10
143.5719856135355
 20
-150.6604513611102
 30
0.0
 10
143.5506072807475
 20
-150.1473008056833
 30
0.0
 10
144.3829511484016
 20
-150.1903749723393
 30
0.0
 10
144.3829511484016
 20
-150.1903749723393
 30
0.0
 10
144.8748997469621
 20
-150.2544394167677
 30
0.0
 10
144.7901625269017
 20
-150.6392494166715
 30
0.0
  0
SPLINE
  5
AF
330
79
100
AcDbEntity
  8
レイヤー 1
 62
   250
420
  2299925
370
     9
100
AcDbSpline
210
0.0
220
0.0
230
1.0
 70
     9
 71
     3
 72
    17
 73
    13
 74
     0
 42
0.0000000001
 43
0.0000000001
 40
0.0
 40
0.0
 40
0.0
 40
0.0
 40
1.0
 40
1.0
 40
1.0
 40
2.0
 40
2.0
 40
2.0
 40
3.0
 40
3.0
 40
3.0
 40
4.0
 40
4.0
 40
4.0
 40
4.0
 10
147.2926621852798
 20
-152.1893902496171
 30
0.0
 10
147.2926621852798
 20
-152.425716082891
 30
0.0
 10
146.9619330270507
 20
-152.6169216383992
 30
0.0
 10
146.5554272040882
 20
-152.6169216383992
 30
0.0
 10
146.1482158255882
 20
-152.6169216383992
 30
0.0
 10
145.8181569451198
 20
-152.425716082891
 30
0.0
 10
145.8181569451198
 20
-152.1893902496171
 30
0.0
 10
145.8181569451198
 20
-151.953205527454
 30
0.0
 10
146.1482158255882
 20
-151.7621763608353
 30
0.0
 10
146.5554272040882
 20
-151.7621763608353
 30
0.0
 10
146.9619330270507
 20
-151.7621763608353
 30
0.0
 10
147.2926621852798
 20
-151.953205527454
 30
0.0
 10
147.2926621852798
 20
-152.1893902496171
 30
0.0
  0
SPLINE
  5
B0
330
79
100
AcDbEntity
  8
レイヤー 1
 62
   250
420
  2299925
370
     9
100
AcDbSpline
210
0.0
220
0.0
230
1.0
 70
     8
 71
     3
 72
    11
 73
     7
 74
     0
 42
0.0000000001
 43
0.0000000001
 40
0.0
 40
0.0
 40
0.0
 40
0.0
 40
1.0
 40
1.0
 40
1.0
 40
2.0
 40
2.0
 40
2.0
 40
2.0
 10
145.9463211085167
 20
-152.4243402495581
 30
0.0
 10
145.9463211085167
 20
-152.4243402495581
 30
0.0
 10
145.9249780535057
 20
-151.9110133052423
 30
0.0
 10
146.7587021914962
 20
-151.9544402496761
 30
0.0
 10
146.7587021914962
 20
-151.9544402496761
 30
0.0
 10
147.2499407974808
 20
-152.0183283052157
 30
0.0
 10
147.1638277441222
 20
-152.4031383051194
 30
0.0
  0
SPLINE
  5
B1
330
79
100
AcDbEntity
  8
レイヤー 1
 62
   250
420
  2299925
370
     9
100
AcDbSpline
210
0.0
220
0.0
230
1.0
 70
     9
 71
     3
 72
    17
 73
    13
 74
     0
 42
0.0000000001
 43
0.0000000001
 40
0.0
 40
0.0
 40
0.0
 40
0.0
 40
1.0
 40
1.0
 40
1.0
 40
2.0
 40
2.0
 40
2.0
 40
3.0
 40
3.0
 40
3.0
 40
4.0
 40
4.0
 40
4.0
 40
4.0
 10
147.2926621852798
 20
-150.9684263610337
 30
0.0
 10
147.2926621852798
 20
-151.2040819165302
 30
0.0
 10
146.9619330270507
 20
-151.3956402498156
 30
0.0
 10
146.5554272040882
 20
-151.3956402498156
 30
0.0
 10
146.1482158255882
 20
-151.3956402498156
 30
0.0
 10
145.8181569451198
 20
-151.2040819165302
 30
0.0
 10
145.8181569451198
 20
-150.9684263610337
 30
0.0
 10
145.8181569451198
 20
-150.7322769166481
 30
0.0
 10
146.1482158255882
 20
-150.5405421944739
 30
0.0
 10
146.5554272040882
 20
-150.5405421944739
 30
0.0
 10
146.9619330270507
 20
-150.5405421944739
 30
0.0
 10
147.2926621852798
 20
-150.7322769166481
 30
0.0
 10
147.2926621852798
 20
-150.9684263610337
 30
0.0
  0
SPLINE
  5
B2
330
79
100
AcDbEntity
  8
レイヤー 1
 62
   250
420
  2299925
370
     9
100
AcDbSpline
210
0.0
220
0.0
230
1.0
 70
     8
 71
     3
 72
    11
 73
     7
 74
     0
 42
0.0000000001
 43
0.0000000001
 40
0.0
 40
0.0
 40
0.0
 40
0.0
 40
1.0
 40
1.0
 40
1.0
 40
2.0
 40
2.0
 40
2.0
 40
2.0
 10
145.9463211085167
 20
-151.2030588609751
 30
0.0
 10
145.9463211085167
 20
-151.2030588609751
 30
0.0
 10
145.9249780535057
 20
-150.6897319166587
 30
0.0
 10
146.7587021914962
 20
-150.733123583315
 30
0.0
 10
146.7587021914962
 20
-150.733123583315
 30
0.0
 10
147.2499407974808
 20
-150.7968705277431
 30
0.0
 10
147.1638277441222
 20
-151.1818569165358
 30
0.0
  0
ENDBLK
  5
7C
330
79
100
AcDbEntity
  8
0
100
AcDbBlockEnd
  0
BLOCK
  5
120
330
11E
100
AcDbEntity
  8
0
100
AcDbBlockBegin
  2
Block_1
 70
     0
 10
0.0
 20
0.0
 30
0.0
  3
Block_1
  1

  0
INSERT
  5
123
330
11E
100
AcDbEntity
  8
レイヤー 1
100
AcDbBlockReference
  2
Block_2
 10
0.0
 20
0.0
 30
0.0
  0
ENDBLK
  5
121
330
11E
100
AcDbEntity
  8
0
100
AcDbBlockEnd
  0
BLOCK
  5
124
330
122
100
AcDbEntity
  8
0
100
AcDbBlockBegin
  2
Block_2
 70
     0
 10
0.0
 20
0.0
 30
0.0
  3
Block_2
  1

  0
SPLINE
  5
126
330
122
100
AcDbEntity
  8
レイヤー 1
100
AcDbSpline
210
0.0
220
0.0
230
1.0
 70
     9
 71
     3
 72
    17
 73
    13
 74
     0
 42
0.0000000001
 43
0.0000000001
 40
0.0
 40
0.0
 40
0.0
 40
0.0
 40
1.0
 40
1.0
 40
1.0
 40
2.0
 40
2.0
 40
2.0
 40
3.0
 40
3.0
 40
3.0
 40
4.0
 40
4.0
 40
4.0
 40
4.0
 10
60.58114283424707
 20
-148.1353162607092
 30
0.0
 10
60.58114283424707
 20
-148.3850856833898
 30
0.0
 10
60.86450193790888
 20
-148.4315944724407
 30
0.0
 10
61.20935599598238
 20
-148.4315944724407
 30
0.0
 10
61.52888860223931
 20
-148.4315944724407
 30
0.0
 10
61.83774141249195
 20
-148.3954209698456
 30
0.0
 10
61.83774141249195
 20
-148.1353162607092
 30
0.0
 10
61.83774141249195
 20
-147.8876138953197
 30
0.0
 10
61.55627711134704
 20
-147.8390380489777
 30
0.0
 10
61.20935599598238
 20
-147.8390380489777
 30
0.0
 10
60.88999564449973
 20
-147.8390380489777
 30
0.0
 10
60.58114283424707
 20
-147.877278608864
 30
0.0
 10
60.58114283424707
 20
-148.1353162607092
 30
0.0
  0
SPLINE
  5
127
330
122
100
AcDbEntity
  8
レイヤー 1
100
AcDbSpline
210
0.0
220
0.0
230
1.0
 70
     9
 71
     3
 72
    29
 73
    25
 74
     0
 42
0.0000000001
 43
0.0000000001
 40
0.0
 40
0.0
 40
0.0
 40
0.0
 40
1.0
 40
1.0
 40
1.0
 40
2.0
 40
2.0
 40
2.0
 40
3.0
 40
3.0
 40
3.0
 40
4.0
 40
4.0
 40
4.0
 40
5.0
 40
5.0
 40
5.0
 40
6.0
 40
6.0
 40
6.0
 40
7.0
 40
7.0
 40
7.0
 40
8.0
 40
8.0
 40
8.0
 40
8.0
 10
61.80380722196225
 20
-147.7374077321628
 30
0.0
 10
62.01326902746544
 20
-147.8455837303997
 30
0.0
 10
62.03238930740857
 20
-148.0188720333078
 30
0.0
 10
62.03238930740857
 20
-148.1353162607092
 30
0.0
 10
62.03238930740857
 20
-148.2962022198704
 30
0.0
 10
61.9858805183577
 20
-148.4377956443142
 30
0.0
 10
61.80380722196225
 20
-148.532880279707
 30
0.0
 10
61.6093315818199
 20
-148.6365776538131
 30
0.0
 10
61.3723090124347
 20
-148.6558701885305
 30
0.0
 10
61.20935599598238
 20
-148.6558701885305
 30
0.0
 10
61.0655232594732
 20
-148.6558701885305
 30
0.0
 10
60.8138590342757
 20
-148.6386447111042
 30
0.0
 10
60.61490477000252
 20
-148.532880279707
 30
0.0
 10
60.41181639114705
 20
-148.4250487910187
 30
0.0
 10
60.38856199662161
 20
-148.2641628318576
 30
0.0
 10
60.38856199662161
 20
-148.1353162607092
 30
0.0
 10
60.38856199662161
 20
-147.9764973588392
 30
0.0
 10
60.43300372838134
 20
-147.8328368771043
 30
0.0
 10
60.61490477000252
 20
-147.7374077321628
 30
0.0
 10
60.80748560762799
 20
-147.6381889821877
 30
0.0
 10
61.03589543830006
 20
-147.6147623328879
 30
0.0
 10
61.20935599598238
 20
-147.6147623328879
 30
0.0
 10
61.38074949637356
 20
-147.6147623328879
 30
0.0
 10
61.61139863911104
 20
-147.6361219248965
 30
0.0
 10
61.80380722196225
 20
-147.7374077321628
 30
0.0
  0
HATCH
  5
128
330
122
100
AcDbEntity
  8
レイヤー 1
 62
   250
420
  2299925
440
 33554687
100
AcDbHatch
 10
0.0
 20
0.0
 30
0.0
210
0.0
220
0.0
230
1.0
  2
SOLID
 70
     1
 71
     1
 91
        2
 92
        1
 93
        1
 72
     4
 94
        3
 73
     0
 74
     0
 95
       17
 96
       13
 40
0.0
 40
0.0
 40
0.0
 40
0.0
 40
1.0
 40
1.0
 40
1.0
 40
2.0
 40
2.0
 40
2.0
 40
3.0
 40
3.0
 40
3.0
 40
4.0
 40
4.0
 40
4.0
 40
4.0
 10
60.58114283424707
 20
-148.1353162607092
 10
60.58114283424707
 20
-148.3850856833898
 10
60.86450193790888
 20
-148.4315944724407
 10
61.20935599598238
 20
-148.4315944724407
 10
61.52888860223931
 20
-148.4315944724407
 10
61.83774141249195
 20
-148.3954209698456
 10
61.83774141249195
 20
-148.1353162607092
 10
61.83774141249195
 20
-147.8876138953197
 10
61.55627711134704
 20
-147.8390380489777
 10
61.20935599598238
 20
-147.8390380489777
 10
60.88999564449973
 20
-147.8390380489777
 10
60.58114283424707
 20
-147.877278608864
 10
60.58114283424707
 20
-148.1353162607092
 97
        0
 97
        1
330
126
 92
        1
 93
        1
 72
     4
 94
        3
 73
     0
 74
     0
 95
       29
 96
       25
 40
0.0
 40
0.0
 40
0.0
 40
0.0
 40
1.0
 40
1.0
 40
1.0
 40
2.0
 40
2.0
 40
2.0
 40
3.0
 40
3.0
 40
3.0
 40
4.0
 40
4.0
 40
4.0
 40
5.0
 40
5.0
 40
5.0
 40
6.0
 40
6.0
 40
6.0
 40
7.0
 40
7.0
 40
7.0
 40
8.0
 40
8.0
 40
8.0
 40
8.0
 10
61.80380722196225
 20
-147.7374077321628
 10
62.01326902746544
 20
-147.8455837303997
 10
62.03238930740857
 20
-148.0188720333078
 10
62.03238930740857
 20
-148.1353162607092
 10
62.03238930740857
 20
-148.2962022198704
 10
61.9858805183577
 20
-148.4377956443142
 10
61.80380722196225
 20
-148.532880279707
 10
61.6093315818199
 20
-148.6365776538131
 10
61.3723090124347
 20
-148.6558701885305
 10
61.20935599598238
 20
-148.6558701885305
 10
61.0655232594732
 20
-148.6558701885305
 10
60.8138590342757
 20
-148.6386447111042
 10
60.61490477000252
 20
-148.532880279707
 10
60.41181639114705
 20
-148.4250487910187
 10
60.38856199662161
 20
-148.2641628318576
 10
60.38856199662161
 20
-148.1353162607092
 10
60.38856199662161
 20
-147.9764973588392
 10
60.43300372838134
 20
-147.8328368771043
 10
60.61490477000252
 20
-147.7374077321628
 10
60.80748560762799
 20
-147.6381889821877
 10
61.03589543830006
 20
-147.6147623328879
 10
61.20935599598238
 20
-147.6147623328879
 10
61.38074949637356
 20
-147.6147623328879
 10
61.61139863911104
 20
-147.6361219248965
 10
61.80380722196225
 20
-147.7374077321628
 97
        0
 97
        1
330
127
 75
     2
 76
     1
 98
        1
 10
0.0
 20
0.0
450
        0
451
        0
460
0.0
461
0.0
452
        0
462
0.0
453
        0
470

  0
SPLINE
  5
129
330
122
100
AcDbEntity
  8
レイヤー 1
100
AcDbSpline
210
0.0
220
0.0
230
1.0
 70
    11
 71
     3
 72
    17
 73
    13
 74
     0
 42
0.0000000001
 43
0.0000000001
 40
0.0
 40
0.0
 40
0.0
 40
0.0
 40
1.0
 40
1.0
 40
1.0
 40
2.0
 40
2.0
 40
2.0
 40
3.0
 40
3.0
 40
3.0
 40
4.0
 40
4.0
 40
4.0
 40
4.0
 10
61.98157414900114
 20
-147.3984103364143
 30
0.0
 10
61.98157414900114
 20
-147.3984103364143
 30
0.0
 10
61.72990992380364
 20
-147.3984103364143
 30
0.0
 10
61.72990992380364
 20
-147.3984103364143
 30
0.0
 10
61.72990992380364
 20
-147.3984103364143
 30
0.0
 10
61.72990992380364
 20
-147.1465738564425
 30
0.0
 10
61.72990992380364
 20
-147.1465738564425
 30
0.0
 10
61.72990992380364
 20
-147.1465738564425
 30
0.0
 10
61.98157414900114
 20
-147.1465738564425
 30
0.0
 10
61.98157414900114
 20
-147.1465738564425
 30
0.0
 10
61.98157414900114
 20
-147.1465738564425
 30
0.0
 10
61.98157414900114
 20
-147.3984103364143
 30
0.0
 10
61.98157414900114
 20
-147.3984103364143
 30
0.0
  0
HATCH
  5
12A
330
122
100
AcDbEntity
  8
レイヤー 1
 62
   250
420
  2299925
440
 33554687
100
AcDbHatch
 10
0.0
 20
0.0
 30
0.0
210
0.0
220
0.0
230
1.0
  2
SOLID
 70
     1
 71
     1
 91
        1
 92
        1
 93
        1
 72
     4
 94
        3
 73
     0
 74
     0
 95
       17
 96
       13
 40
0.0
 40
0.0
 40
0.0
 40
0.0
 40
1.0
 40
1.0
 40
1.0
 40
2.0
 40
2.0
 40
2.0
 40
3.0
 40
3.0
 40
3.0
 40
4.0
 40
4.0
 40
4.0
 40
4.0
 10
61.98157414900114
 20
-147.3984103364143
 10
61.98157414900114
 20
-147.3984103364143
 10
61.72990992380364
 20
-147.3984103364143
 10
61.72990992380364
 20
-147.3984103364143
 10
61.72990992380364
 20
-147.3984103364143
 10
61.72990992380364
 20
-147.1465738564425
 10
61.72990992380364
 20
-147.1465738564425
 10
61.72990992380364
 20
-147.1465738564425
 10
61.98157414900114
 20
-147.1465738564425
 10
61.98157414900114
 20
-147.1465738564425
 10
61.98157414900114
 20
-147.1465738564425
 10
61.98157414900114
 20
-147.3984103364143
 10
61.98157414900114
 20
-147.3984103364143
 97
        0
 97
        1
330
129
 75
     2
 76
     1
 98
        1
 10
0.0
 20
0.0
450
        0
451
        0
460
0.0
461
0.0
452
        0
462
0.0
453
        0
470

  0
SPLINE
  5
12B
330
122
100
AcDbEntity
  8
レイヤー 1
100
AcDbSpline
210
0.0
220
0.0
230
1.0
 70
     9
 71
     3
 72
    53
 73
    49
 74
     0
 42
0.0000000001
 43
0.0000000001
 40
0.0
 40
0.0
 40
0.0
 40
0.0
 40
1.0
 40
1.0
 40
1.0
 40
2.0
 40
2.0
 40
2.0
 40
3.0
 40
3.0
 40
3.0
 40
4.0
 40
4.0
 40
4.0
 40
5.0
 40
5.0
 40
5.0
 40
6.0
 40
6.0
 40
6.0
 40
7.0
 40
7.0
 40
7.0
 40
8.0
 40
8.0
 40
8.0
 40
9.0
 40
9.0
 40
9.0
 40
10.0
 40
10.0
 40
10.0
 40
11.0
 40
11.0
 40
11.0
 40
12.0
 40
12.0
 40
12.0
 40
13.0
 40
13.0
 40
13.0
 40
14.0
 40
14.0
 40
14.0
 40
15.0
 40
15.0
 40
15.0
 40
16.0
 40
16.0
 40
16.0
 40
16.0
 10
62.03238930740857
 20
-146.4293049764135
 30
0.0
 10
62.03238930740857
 20
-146.5075086439286
 30
0.0
 10
62.01550833953085
 20
-146.6091389607435
 30
0.0
 10
61.95194632782799
 20
-146.7107692775584
 30
0.0
 10
61.84187552707426
 20
-146.8840575804665
 30
0.0
 10
61.7107896438605
 20
-146.905417172475
 30
0.0
 10
61.60295815517218
 20
-146.9243651976439
 30
0.0
 10
61.60295815517218
 20
-146.9243651976439
 30
0.0
 10
61.60295815517218
 20
-146.7021565388453
 30
0.0
 10
61.60295815517218
 20
-146.7021565388453
 30
0.0
 10
61.80174016467109
 20
-146.6473795206298
 30
0.0
 10
61.83136798584424
 20
-146.5202554972241
 30
0.0
 10
61.83136798584424
 20
-146.4272379191223
 30
0.0
 10
61.83136798584424
 20
-146.2877115519697
 30
0.0
 10
61.73197698109479
 20
-146.1354383315217
 30
0.0
 10
61.49926078106616
 20
-146.1354383315217
 30
0.0
 10
61.24329018651209
 20
-146.1354383315217
 30
0.0
 10
61.17352700293579
 20
-146.3152723158517
 30
0.0
 10
61.17352700293579
 20
-146.4358506578355
 30
0.0
 10
61.17352700293579
 20
-146.4675455362998
 30
0.0
 10
61.17352700293579
 20
-146.6091389607435
 30
0.0
 10
61.30254582885839
 20
-146.698022424263
 30
0.0
 10
61.30254582885839
 20
-146.698022424263
 30
0.0
 10
61.28342554891526
 20
-146.8737222940107
 30
0.0
 10
61.28342554891526
 20
-146.8737222940107
 30
0.0
 10
61.28342554891526
 20
-146.8737222940107
 30
0.0
 10
60.43731009773789
 20
-146.753143952027
 30
0.0
 10
60.43731009773789
 20
-146.753143952027
 30
0.0
 10
60.43731009773789
 20
-146.753143952027
 30
0.0
 10
60.43731009773789
 20
-145.9745523723605
 30
0.0
 10
60.43731009773789
 20
-145.9745523723605
 30
0.0
 10
60.43731009773789
 20
-145.9745523723605
 30
0.0
 10
60.63195799265451
 20
-145.9745523723605
 30
0.0
 10
60.63195799265451
 20
-145.9745523723605
 30
0.0
 10
60.63195799265451
 20
-145.9745523723605
 30
0.0
 10
60.63195799265451
 20
-146.5901909355746
 30
0.0
 10
60.63195799265451
 20
-146.5901909355746
 30
0.0
 10
60.63195799265451
 20
-146.5901909355746
 30
0.0
 10
61.05501571824319
 20
-146.6556477497944
 30
0.0
 10
61.05501571824319
 20
-146.6556477497944
 30
0.0
 10
61.02108152771348
 20
-146.594325050157
 30
0.0
 10
60.98094616531032
 20
-146.5119872680595
 30
0.0
 10
60.98094616531032
 20
-146.3934759833669
 30
0.0
 10
60.98094616531032
 20
-146.139572446104
 30
0.0
 10
61.16715357628807
 20
-145.9025498767188
 30
0.0
 10
61.48014050112302
 20
-145.9025498767188
 30
0.0
 10
61.7976060500888
 20
-145.9025498767188
 30
0.0
 10
62.03238930740857
 20
-146.1268255928086
 30
0.0
 10
62.03238930740857
 20
-146.4293049764135
 30
0.0
  0
HATCH
  5
12C
330
122
100
AcDbEntity
  8
レイヤー 1
 62
   250
420
  2299925
440
 33554687
100
AcDbHatch
 10
0.0
 20
0.0
 30
0.0
210
0.0
220
0.0
230
1.0
  2
SOLID
 70
     1
 71
     1
 91
        1
 92
        1
 93
        1
 72
     4
 94
        3
 73
     0
 74
     0
 95
       53
 96
       49
 40
0.0
 40
0.0
 40
0.0
 40
0.0
 40
1.0
 40
1.0
 40
1.0
 40
2.0
 40
2.0
 40
2.0
 40
3.0
 40
3.0
 40
3.0
 40
4.0
 40
4.0
 40
4.0
 40
5.0
 40
5.0
 40
5.0
 40
6.0
 40
6.0
 40
6.0
 40
7.0
 40
7.0
 40
7.0
 40
8.0
 40
8.0
 40
8.0
 40
9.0
 40
9.0
 40
9.0
 40
10.0
 40
10.0
 40
10.0
 40
11.0
 40
11.0
 40
11.0
 40
12.0
 40
12.0
 40
12.0
 40
13.0
 40
13.0
 40
13.0
 40
14.0
 40
14.0
 40
14.0
 40
15.0
 40
15.0
 40
15.0
 40
16.0
 40
16.0
 40
16.0
 40
16.0
 10
62.03238930740857
 20
-146.4293049764135
 10
62.03238930740857
 20
-146.5075086439286
 10
62.01550833953085
 20
-146.6091389607435
 10
61.95194632782799
 20
-146.7107692775584
 10
61.84187552707426
 20
-146.8840575804665
 10
61.7107896438605
 20
-146.905417172475
 10
61.60295815517218
 20
-146.9243651976439
 10
61.60295815517218
 20
-146.9243651976439
 10
61.60295815517218
 20
-146.7021565388453
 10
61.60295815517218
 20
-146.7021565388453
 10
61.80174016467109
 20
-146.6473795206298
 10
61.83136798584424
 20
-146.5202554972241
 10
61.83136798584424
 20
-146.4272379191223
 10
61.83136798584424
 20
-146.2877115519697
 10
61.73197698109479
 20
-146.1354383315217
 10
61.49926078106616
 20
-146.1354383315217
 10
61.24329018651209
 20
-146.1354383315217
 10
61.17352700293579
 20
-146.3152723158517
 10
61.17352700293579
 20
-146.4358506578355
 10
61.17352700293579
 20
-146.4675455362998
 10
61.17352700293579
 20
-146.6091389607435
 10
61.30254582885839
 20
-146.698022424263
 10
61.30254582885839
 20
-146.698022424263
 10
61.28342554891526
 20
-146.8737222940107
 10
61.28342554891526
 20
-146.8737222940107
 10
61.28342554891526
 20
-146.8737222940107
 10
60.43731009773789
 20
-146.753143952027
 10
60.43731009773789
 20
-146.753143952027
 10
60.43731009773789
 20
-146.753143952027
 10
60.43731009773789
 20
-145.9745523723605
 10
60.43731009773789
 20
-145.9745523723605
 10
60.43731009773789
 20
-145.9745523723605
 10
60.63195799265451
 20
-145.9745523723605
 10
60.63195799265451
 20
-145.9745523723605
 10
60.63195799265451
 20
-145.9745523723605
 10
60.63195799265451
 20
-146.5901909355746
 10
60.63195799265451
 20
-146.5901909355746
 10
60.63195799265451
 20
-146.5901909355746
 10
61.05501571824319
 20
-146.6556477497944
 10
61.05501571824319
 20
-146.6556477497944
 10
61.02108152771348
 20
-146.594325050157
 10
60.98094616531032
 20
-146.5119872680595
 10
60.98094616531032
 20
-146.3934759833669
 10
60.98094616531032
 20
-146.139572446104
 10
61.16715357628807
 20
-145.9025498767188
 10
61.48014050112302
 20
-145.9025498767188
 10
61.7976060500888
 20
-145.9025498767188
 10
62.03238930740857
 20
-146.1268255928086
 10
62.03238930740857
 20
-146.4293049764135
 97
        0
 97
        1
330
12B
 75
     2
 76
     1
 98
        1
 10
0.0
 20
0.0
450
        0
451
        0
460
0.0
461
0.0
452
        0
462
0.0
453
        0
470

  0
ENDBLK
  5
125
330
122
100
AcDbEntity
  8
0
100
AcDbBlockEnd
  0
BLOCK
  5
131
330
12F
100
AcDbEntity
  8
0
100
AcDbBlockBegin
  2
Block_3
 70
     0
 10
0.0
 20
0.0
 30
0.0
  3
Block_3
  1

  0
INSERT
  5
134
330
12F
100
AcDbEntity
  8
レイヤー 1
100
AcDbBlockReference
  2
Block_4
 10
0.0
 20
0.0
 30
0.0
  0
ENDBLK
  5
132
330
12F
100
AcDbEntity
  8
0
100
AcDbBlockEnd
  0
BLOCK
  5
135
330
133
100
AcDbEntity
  8
0
100
AcDbBlockBegin
  2
Block_4
 70
     0
 10
0.0
 20
0.0
 30
0.0
  3
Block_4
  1

  0
SPLINE
  5
137
330
133
100
AcDbEntity
  8
レイヤー 1
100
AcDbSpline
210
0.0
220
0.0
230
1.0
 70
     9
 71
     3
 72
    44
 73
    40
 74
     0
 42
0.0000000001
 43
0.0000000001
 40
0.0
 40
0.0
 40
0.0
 40
0.0
 40
1.0
 40
1.0
 40
1.0
 40
2.0
 40
2.0
 40
2.0
 40
3.0
 40
3.0
 40
3.0
 40
4.0
 40
4.0
 40
4.0
 40
5.0
 40
5.0
 40
5.0
 40
6.0
 40
6.0
 40
6.0
 40
7.0
 40
7.0
 40
7.0
 40
8.0
 40
8.0
 40
8.0
 40
9.0
 40
9.0
 40
9.0
 40
10.0
 40
10.0
 40
10.0
 40
11.0
 40
11.0
 40
11.0
 40
12.0
 40
12.0
 40
12.0
 40
13.0
 40
13.0
 40
13.0
 40
13.0
 10
75.49099933008559
 20
-140.9230088623387
 30
0.0
 10
75.27309704064354
 20
-141.0816555094344
 30
0.0
 10
75.17990720776753
 20
-141.1557250623673
 30
0.0
 10
75.13133136142551
 20
-141.2995577988765
 30
0.0
 10
75.13133136142551
 20
-141.2995577988765
 30
0.0
 10
75.9097506863177
 20
-141.2995577988765
 30
0.0
 10
75.9097506863177
 20
-141.2995577988765
 30
0.0
 10
75.9097506863177
 20
-141.2995577988765
 30
0.0
 10
75.9097506863177
 20
-141.5047132350231
 30
0.0
 10
75.9097506863177
 20
-141.5047132350231
 30
0.0
 10
75.9097506863177
 20
-141.5047132350231
 30
0.0
 10
74.88173419351915
 20
-141.5047132350231
 30
0.0
 10
74.88173419351915
 20
-141.5047132350231
 30
0.0
 10
74.91342907198346
 20
-141.1471123236542
 30
0.0
 10
74.97905814097745
 20
-141.068908656139
 30
0.0
 10
75.36404756145413
 20
-140.7705633871164
 30
0.0
 10
75.6200181560082
 20
-140.5717813776174
 30
0.0
 10
75.68547497022795
 20
-140.5040852513323
 30
0.0
 10
75.68547497022795
 20
-140.3666259414708
 30
0.0
 10
75.68547497022795
 20
-140.2481146567782
 30
0.0
 10
75.61364472936048
 20
-140.1168565187902
 30
0.0
 10
75.41692977715271
 20
-140.1168565187902
 30
0.0
 10
75.15665281324209
 20
-140.1168565187902
 30
0.0
 10
75.14821232930323
 20
-140.3475056615277
 30
0.0
 10
75.14390595994666
 20
-140.4639498889291
 30
0.0
 10
75.14390595994666
 20
-140.4639498889291
 30
0.0
 10
74.91980249863117
 20
-140.4639498889291
 30
0.0
 10
74.91980249863117
 20
-140.4639498889291
 30
0.0
 10
74.92824298257002
 20
-140.3369981202977
 30
0.0
 10
74.93875052380004
 20
-140.2248602622528
 30
0.0
 10
75.01919350338062
 20
-140.1063489775602
 30
0.0
 10
75.12909204936009
 20
-139.9456352731733
 30
0.0
 10
75.31529946033784
 20
-139.9117010826436
 30
0.0
 10
75.43174368773929
 20
-139.9117010826436
 30
0.0
 10
75.70890161952764
 20
-139.9117010826436
 30
0.0
 10
75.91612411296542
 20
-140.0958414363302
 30
0.0
 10
75.91612411296542
 20
-140.3686929987619
 30
0.0
 10
75.91612411296542
 20
-140.597102829434
 30
0.0
 10
75.79985214033823
 20
-140.6966660889578
 30
0.0
 10
75.49099933008559
 20
-140.9230088623387
 30
0.0
  0
HATCH
  5
138
330
133
100
AcDbEntity
  8
レイヤー 1
 62
   250
420
  2299925
440
 33554687
100
AcDbHatch
 10
0.0
 20
0.0
 30
0.0
210
0.0
220
0.0
230
1.0
  2
SOLID
 70
     1
 71
     1
 91
        1
 92
        1
 93
        1
 72
     4
 94
        3
 73
     0
 74
     0
 95
       44
 96
       40
 40
0.0
 40
0.0
 40
0.0
 40
0.0
 40
1.0
 40
1.0
 40
1.0
 40
2.0
 40
2.0
 40
2.0
 40
3.0
 40
3.0
 40
3.0
 40
4.0
 40
4.0
 40
4.0
 40
5.0
 40
5.0
 40
5.0
 40
6.0
 40
6.0
 40
6.0
 40
7.0
 40
7.0
 40
7.0
 40
8.0
 40
8.0
 40
8.0
 40
9.0
 40
9.0
 40
9.0
 40
10.0
 40
10.0
 40
10.0
 40
11.0
 40
11.0
 40
11.0
 40
12.0
 40
12.0
 40
12.0
 40
13.0
 40
13.0
 40
13.0
 40
13.0
 10
75.49099933008559
 20
-140.9230088623387
 10
75.27309704064354
 20
-141.0816555094344
 10
75.17990720776753
 20
-141.1557250623673
 10
75.13133136142551
 20
-141.2995577988765
 10
75.13133136142551
 20
-141.2995577988765
 10
75.9097506863177
 20
-141.2995577988765
 10
75.9097506863177
 20
-141.2995577988765
 10
75.9097506863177
 20
-141.2995577988765
 10
75.9097506863177
 20
-141.5047132350231
 10
75.9097506863177
 20
-141.5047132350231
 10
75.9097506863177
 20
-141.5047132350231
 10
74.88173419351915
 20
-141.5047132350231
 10
74.88173419351915
 20
-141.5047132350231
 10
74.91342907198346
 20
-141.1471123236542
 10
74.97905814097745
 20
-141.068908656139
 10
75.36404756145413
 20
-140.7705633871164
 10
75.6200181560082
 20
-140.5717813776174
 10
75.68547497022795
 20
-140.5040852513323
 10
75.68547497022795
 20
-140.3666259414708
 10
75.68547497022795
 20
-140.2481146567782
 10
75.61364472936048
 20
-140.1168565187902
 10
75.41692977715271
 20
-140.1168565187902
 10
75.15665281324209
 20
-140.1168565187902
 10
75.14821232930323
 20
-140.3475056615277
 10
75.14390595994666
 20
-140.4639498889291
 10
75.14390595994666
 20
-140.4639498889291
 10
74.91980249863117
 20
-140.4639498889291
 10
74.91980249863117
 20
-140.4639498889291
 10
74.92824298257002
 20
-140.3369981202977
 10
74.93875052380004
 20
-140.2248602622528
 10
75.01919350338062
 20
-140.1063489775602
 10
75.12909204936009
 20
-139.9456352731733
 10
75.31529946033784
 20
-139.9117010826436
 10
75.43174368773929
 20
-139.9117010826436
 10
75.70890161952764
 20
-139.9117010826436
 10
75.91612411296542
 20
-140.0958414363302
 10
75.91612411296542
 20
-140.3686929987619
 10
75.91612411296542
 20
-140.597102829434
 10
75.79985214033823
 20
-140.6966660889578
 10
75.49099933008559
 20
-140.9230088623387
 97
        0
 97
        1
330
137
 75
     2
 76
     1
 98
        1
 10
0.0
 20
0.0
450
        0
451
        0
460
0.0
461
0.0
452
        0
462
0.0
453
        0
470

  0
SPLINE
  5
139
330
133
100
AcDbEntity
  8
レイヤー 1
100
AcDbSpline
210
0.0
220
0.0
230
1.0
 70
    11
 71
     3
 72
    26
 73
    22
 74
     0
 42
0.0000000001
 43
0.0000000001
 40
0.0
 40
0.0
 40
0.0
 40
0.0
 40
1.0
 40
1.0
 40
1.0
 40
2.0
 40
2.0
 40
2.0
 40
3.0
 40
3.0
 40
3.0
 40
4.0
 40
4.0
 40
4.0
 40
5.0
 40
5.0
 40
5.0
 40
6.0
 40
6.0
 40
6.0
 40
7.0
 40
7.0
 40
7.0
 40
7.0
 10
76.5260782686289
 20
-141.5047132350231
 30
0.0
 10
76.5260782686289
 20
-141.5047132350231
 30
0.0
 10
76.5260782686289
 20
-140.4003878772263
 30
0.0
 10
76.5260782686289
 20
-140.4003878772263
 30
0.0
 10
76.5260782686289
 20
-140.4003878772263
 30
0.0
 10
76.19603812114196
 20
-140.4003878772263
 30
0.0
 10
76.19603812114196
 20
-140.4003878772263
 30
0.0
 10
76.19603812114196
 20
-140.4003878772263
 30
0.0
 10
76.19603812114196
 20
-140.2522487713605
 30
0.0
 10
76.19603812114196
 20
-140.2522487713605
 30
0.0
 10
76.52814532592005
 20
-140.2376071155482
 30
0.0
 10
76.57465411497092
 20
-140.0746540990959
 30
0.0
 10
76.60428193614407
 20
-139.9604491837599
 30
0.0
 10
76.60428193614407
 20
-139.9604491837599
 30
0.0
 10
76.75035398471867
 20
-139.9604491837599
 30
0.0
 10
76.75035398471867
 20
-139.9604491837599
 30
0.0
 10
76.75035398471867
 20
-139.9604491837599
 30
0.0
 10
76.75035398471867
 20
-141.5047132350231
 30
0.0
 10
76.75035398471867
 20
-141.5047132350231
 30
0.0
 10
76.75035398471867
 20
-141.5047132350231
 30
0.0
 10
76.5260782686289
 20
-141.5047132350231
 30
0.0
 10
76.5260782686289
 20
-141.5047132350231
 30
0.0
  0
HATCH
  5
13A
330
133
100
AcDbEntity
  8
レイヤー 1
 62
   250
420
  2299925
440
 33554687
100
AcDbHatch
 10
0.0
 20
0.0
 30
0.0
210
0.0
220
0.0
230
1.0
  2
SOLID
 70
     1
 71
     1
 91
        1
 92
        1
 93
        1
 72
     4
 94
        3
 73
     0
 74
     0
 95
       26
 96
       22
 40
0.0
 40
0.0
 40
0.0
 40
0.0
 40
1.0
 40
1.0
 40
1.0
 40
2.0
 40
2.0
 40
2.0
 40
3.0
 40
3.0
 40
3.0
 40
4.0
 40
4.0
 40
4.0
 40
5.0
 40
5.0
 40
5.0
 40
6.0
 40
6.0
 40
6.0
 40
7.0
 40
7.0
 40
7.0
 40
7.0
 10
76.5260782686289
 20
-141.5047132350231
 10
76.5260782686289
 20
-141.5047132350231
 10
76.5260782686289
 20
-140.4003878772263
 10
76.5260782686289
 20
-140.4003878772263
 10
76.5260782686289
 20
-140.4003878772263
 10
76.19603812114196
 20
-140.4003878772263
 10
76.19603812114196
 20
-140.4003878772263
 10
76.19603812114196
 20
-140.4003878772263
 10
76.19603812114196
 20
-140.2522487713605
 10
76.19603812114196
 20
-140.2522487713605
 10
76.52814532592005
 20
-140.2376071155482
 10
76.57465411497092
 20
-140.0746540990959
 10
76.60428193614407
 20
-139.9604491837599
 10
76.60428193614407
 20
-139.9604491837599
 10
76.75035398471867
 20
-139.9604491837599
 10
76.75035398471867
 20
-139.9604491837599
 10
76.75035398471867
 20
-139.9604491837599
 10
76.75035398471867
 20
-141.5047132350231
 10
76.75035398471867
 20
-141.5047132350231
 10
76.75035398471867
 20
-141.5047132350231
 10
76.5260782686289
 20
-141.5047132350231
 10
76.5260782686289
 20
-141.5047132350231
 97
        0
 97
        1
330
139
 75
     2
 76
     1
 98
        1
 10
0.0
 20
0.0
450
        0
451
        0
460
0.0
461
0.0
452
        0
462
0.0
453
        0
470

  0
ENDBLK
  5
136
330
133
100
AcDbEntity
  8
0
100
AcDbBlockEnd
  0
BLOCK
  5
13F
330
13D
100
AcDbEntity
  8
0
100
AcDbBlockBegin
  2
Block_5
 70
     0
 10
0.0
 20
0.0
 30
0.0
  3
Block_5
  1

  0
SPLINE
  5
141
330
13D
100
AcDbEntity
  8
レイヤー 1
100
AcDbSpline
210
0.0
220
0.0
230
1.0
 70
     9
 71
     3
 72
    53
 73
    49
 74
     0
 42
0.0000000001
 43
0.0000000001
 40
0.0
 40
0.0
 40
0.0
 40
0.0
 40
1.0
 40
1.0
 40
1.0
 40
2.0
 40
2.0
 40
2.0
 40
3.0
 40
3.0
 40
3.0
 40
4.0
 40
4.0
 40
4.0
 40
5.0
 40
5.0
 40
5.0
 40
6.0
 40
6.0
 40
6.0
 40
7.0
 40
7.0
 40
7.0
 40
8.0
 40
8.0
 40
8.0
 40
9.0
 40
9.0
 40
9.0
 40
10.0
 40
10.0
 40
10.0
 40
11.0
 40
11.0
 40
11.0
 40
12.0
 40
12.0
 40
12.0
 40
13.0
 40
13.0
 40
13.0
 40
14.0
 40
14.0
 40
14.0
 40
15.0
 40
15.0
 40
15.0
 40
16.0
 40
16.0
 40
16.0
 40
16.0
 10
62.76274955028154
 20
-150.7911403702883
 30
0.0
 10
62.76274955028154
 20
-150.8693440378035
 30
0.0
 10
62.74586858240382
 20
-150.9709743546183
 30
0.0
 10
62.68230657070095
 20
-151.0726046714332
 30
0.0
 10
62.57223576994721
 20
-151.2458929743413
 30
0.0
 10
62.44114988673346
 20
-151.2672525663498
 30
0.0
 10
62.33331839804514
 20
-151.2862005915187
 30
0.0
 10
62.33331839804514
 20
-151.2862005915187
 30
0.0
 10
62.33331839804514
 20
-151.0639919327201
 30
0.0
 10
62.33331839804514
 20
-151.0639919327201
 30
0.0
 10
62.53210040754407
 20
-151.0092149145046
 30
0.0
 10
62.56172822871721
 20
-150.8820908910989
 30
0.0
 10
62.56172822871721
 20
-150.7890733129972
 30
0.0
 10
62.56172822871721
 20
-150.6495469458446
 30
0.0
 10
62.46233722396775
 20
-150.4972737253965
 30
0.0
 10
62.22962102393912
 20
-150.4972737253965
 30
0.0
 10
61.97365042938506
 20
-150.4972737253965
 30
0.0
 10
61.90388724580875
 20
-150.6771077097265
 30
0.0
 10
61.90388724580875
 20
-150.7976860517103
 30
0.0
 10
61.90388724580875
 20
-150.8293809301746
 30
0.0
 10
61.90388724580875
 20
-150.9709743546183
 30
0.0
 10
62.03290607173136
 20
-151.0598578181378
 30
0.0
 10
62.03290607173136
 20
-151.0598578181378
 30
0.0
 10
62.01378579178822
 20
-151.2355576878855
 30
0.0
 10
62.01378579178822
 20
-151.2355576878855
 30
0.0
 10
62.01378579178822
 20
-151.2355576878855
 30
0.0
 10
61.16767034061086
 20
-151.1149793459018
 30
0.0
 10
61.16767034061086
 20
-151.1149793459018
 30
0.0
 10
61.16767034061086
 20
-151.1149793459018
 30
0.0
 10
61.16767034061086
 20
-150.3363877662353
 30
0.0
 10
61.16767034061086
 20
-150.3363877662353
 30
0.0
 10
61.16767034061086
 20
-150.3363877662353
 30
0.0
 10
61.36231823552748
 20
-150.3363877662353
 30
0.0
 10
61.36231823552748
 20
-150.3363877662353
 30
0.0
 10
61.36231823552748
 20
-150.3363877662353
 30
0.0
 10
61.36231823552748
 20
-150.9520263294495
 30
0.0
 10
61.36231823552748
 20
-150.9520263294495
 30
0.0
 10
61.36231823552748
 20
-150.9520263294495
 30
0.0
 10
61.78537596111616
 20
-151.0174831436692
 30
0.0
 10
61.78537596111616
 20
-151.0174831436692
 30
0.0
 10
61.75144177058644
 20
-150.9561604440318
 30
0.0
 10
61.71130640818329
 20
-150.8738226619343
 30
0.0
 10
61.71130640818329
 20
-150.7553113772417
 30
0.0
 10
61.71130640818329
 20
-150.5014078399788
 30
0.0
 10
61.89751381916104
 20
-150.2643852705936
 30
0.0
 10
62.21050074399599
 20
-150.2643852705936
 30
0.0
 10
62.52796629296176
 20
-150.2643852705936
 30
0.0
 10
62.76274955028154
 20
-150.4886609866834
 30
0.0
 10
62.76274955028154
 20
-150.7911403702883
 30
0.0
  0
HATCH
  5
142
330
13D
100
AcDbEntity
  8
レイヤー 1
 62
   250
420
  2299925
440
 33554687
100
AcDbHatch
 10
0.0
 20
0.0
 30
0.0
210
0.0
220
0.0
230
1.0
  2
SOLID
 70
     1
 71
     1
 91
        1
 92
        1
 93
        1
 72
     4
 94
        3
 73
     0
 74
     0
 95
       53
 96
       49
 40
0.0
 40
0.0
 40
0.0
 40
0.0
 40
1.0
 40
1.0
 40
1.0
 40
2.0
 40
2.0
 40
2.0
 40
3.0
 40
3.0
 40
3.0
 40
4.0
 40
4.0
 40
4.0
 40
5.0
 40
5.0
 40
5.0
 40
6.0
 40
6.0
 40
6.0
 40
7.0
 40
7.0
 40
7.0
 40
8.0
 40
8.0
 40
8.0
 40
9.0
 40
9.0
 40
9.0
 40
10.0
 40
10.0
 40
10.0
 40
11.0
 40
11.0
 40
11.0
 40
12.0
 40
12.0
 40
12.0
 40
13.0
 40
13.0
 40
13.0
 40
14.0
 40
14.0
 40
14.0
 40
15.0
 40
15.0
 40
15.0
 40
16.0
 40
16.0
 40
16.0
 40
16.0
 10
62.76274955028154
 20
-150.7911403702883
 10
62.76274955028154
 20
-150.8693440378035
 10
62.74586858240382
 20
-150.9709743546183
 10
62.68230657070095
 20
-151.0726046714332
 10
62.57223576994721
 20
-151.2458929743413
 10
62.44114988673346
 20
-151.2672525663498
 10
62.33331839804514
 20
-151.2862005915187
 10
62.33331839804514
 20
-151.2862005915187
 10
62.33331839804514
 20
-151.0639919327201
 10
62.33331839804514
 20
-151.0639919327201
 10
62.53210040754407
 20
-151.0092149145046
 10
62.56172822871721
 20
-150.8820908910989
 10
62.56172822871721
 20
-150.7890733129972
 10
62.56172822871721
 20
-150.6495469458446
 10
62.46233722396775
 20
-150.4972737253965
 10
62.22962102393912
 20
-150.4972737253965
 10
61.97365042938506
 20
-150.4972737253965
 10
61.90388724580875
 20
-150.6771077097265
 10
61.90388724580875
 20
-150.7976860517103
 10
61.90388724580875
 20
-150.8293809301746
 10
61.90388724580875
 20
-150.9709743546183
 10
62.03290607173136
 20
-151.0598578181378
 10
62.03290607173136
 20
-151.0598578181378
 10
62.01378579178822
 20
-151.2355576878855
 10
62.01378579178822
 20
-151.2355576878855
 10
62.01378579178822
 20
-151.2355576878855
 10
61.16767034061086
 20
-151.1149793459018
 10
61.16767034061086
 20
-151.1149793459018
 10
61.16767034061086
 20
-151.1149793459018
 10
61.16767034061086
 20
-150.3363877662353
 10
61.16767034061086
 20
-150.3363877662353
 10
61.16767034061086
 20
-150.3363877662353
 10
61.36231823552748
 20
-150.3363877662353
 10
61.36231823552748
 20
-150.3363877662353
 10
61.36231823552748
 20
-150.3363877662353
 10
61.36231823552748
 20
-150.9520263294495
 10
61.36231823552748
 20
-150.9520263294495
 10
61.36231823552748
 20
-150.9520263294495
 10
61.78537596111616
 20
-151.0174831436692
 10
61.78537596111616
 20
-151.0174831436692
 10
61.75144177058644
 20
-150.9561604440318
 10
61.71130640818329
 20
-150.8738226619343
 10
61.71130640818329
 20
-150.7553113772417
 10
61.71130640818329
 20
-150.5014078399788
 10
61.89751381916104
 20
-150.2643852705936
 10
62.21050074399599
 20
-150.2643852705936
 10
62.52796629296176
 20
-150.2643852705936
 10
62.76274955028154
 20
-150.4886609866834
 10
62.76274955028154
 20
-150.7911403702883
 97
        0
 97
        1
330
141
 75
     2
 76
     1
 98
        1
 10
0.0
 20
0.0
450
        0
451
        0
460
0.0
461
0.0
452
        0
462
0.0
453
        0
470

  0
ENDBLK
  5
140
330
13D
100
AcDbEntity
  8
0
100
AcDbBlockEnd
  0
BLOCK
  5
147
330
145
100
AcDbEntity
  8
0
100
AcDbBlockBegin
  2
Block_6
 70
     0
 10
0.0
 20
0.0
 30
0.0
  3
Block_6
  1

  0
INSERT
  5
14A
330
145
100
AcDbEntity
  8
レイヤー 1
100
AcDbBlockReference
  2
Block_7
 10
0.0
 20
0.0
 30
0.0
  0
ENDBLK
  5
148
330
145
100
AcDbEntity
  8
0
100
AcDbBlockEnd
  0
BLOCK
  5
14B
330
149
100
AcDbEntity
  8
0
100
AcDbBlockBegin
  2
Block_7
 70
     0
 10
0.0
 20
0.0
 30
0.0
  3
Block_7
  1

  0
SPLINE
  5
14D
330
149
100
AcDbEntity
  8
レイヤー 1
100
AcDbSpline
210
0.0
220
0.0
230
1.0
 70
     9
 71
     3
 72
    44
 73
    40
 74
     0
 42
0.0000000001
 43
0.0000000001
 40
0.0
 40
0.0
 40
0.0
 40
0.0
 40
1.0
 40
1.0
 40
1.0
 40
2.0
 40
2.0
 40
2.0
 40
3.0
 40
3.0
 40
3.0
 40
4.0
 40
4.0
 40
4.0
 40
5.0
 40
5.0
 40
5.0
 40
6.0
 40
6.0
 40
6.0
 40
7.0
 40
7.0
 40
7.0
 40
8.0
 40
8.0
 40
8.0
 40
9.0
 40
9.0
 40
9.0
 40
10.0
 40
10.0
 40
10.0
 40
11.0
 40
11.0
 40
11.0
 40
12.0
 40
12.0
 40
12.0
 40
13.0
 40
13.0
 40
13.0
 40
13.0
 10
106.4920355636547
 20
-140.9230088623387
 30
0.0
 10
106.274305528987
 20
-141.0816555094344
 30
0.0
 10
106.1812879508852
 20
-141.1557250623673
 30
0.0
 10
106.1323675949947
 20
-141.2995577988765
 30
0.0
 10
106.1323675949947
 20
-141.2995577988765
 30
0.0
 10
106.9109591746611
 20
-141.2995577988765
 30
0.0
 10
106.9109591746611
 20
-141.2995577988765
 30
0.0
 10
106.9109591746611
 20
-141.2995577988765
 30
0.0
 10
106.9109591746611
 20
-141.5047132350231
 30
0.0
 10
106.9109591746611
 20
-141.5047132350231
 30
0.0
 10
106.9109591746611
 20
-141.5047132350231
 30
0.0
 10
105.8829426818626
 20
-141.5047132350231
 30
0.0
 10
105.8829426818626
 20
-141.5047132350231
 30
0.0
 10
105.9146375603269
 20
-141.1471123236542
 30
0.0
 10
105.9800943745466
 20
-141.068908656139
 30
0.0
 10
106.3652560497976
 20
-140.7705633871164
 30
0.0
 10
106.6212266443516
 20
-140.5717813776174
 30
0.0
 10
106.6866834585714
 20
-140.5040852513323
 30
0.0
 10
106.6866834585714
 20
-140.3666259414708
 30
0.0
 10
106.6866834585714
 20
-140.2481146567782
 30
0.0
 10
106.6146809629296
 20
-140.1168565187902
 30
0.0
 10
106.4179660107219
 20
-140.1168565187902
 30
0.0
 10
106.1578613015855
 20
-140.1168565187902
 30
0.0
 10
106.1495930724209
 20
-140.3475056615277
 30
0.0
 10
106.1451144482901
 20
-140.4639498889291
 30
0.0
 10
106.1451144482901
 20
-140.4639498889291
 30
0.0
 10
105.9208387322003
 20
-140.4639498889291
 30
0.0
 10
105.9208387322003
 20
-140.4639498889291
 30
0.0
 10
105.9294514709135
 20
-140.3369981202977
 30
0.0
 10
105.9401312669177
 20
-140.2248602622528
 30
0.0
 10
106.020401991724
 20
-140.1063489775602
 30
0.0
 10
106.1303005377035
 20
-139.9456352731733
 30
0.0
 10
106.3166802034555
 20
-139.9117010826436
 30
0.0
 10
106.4327799213085
 20
-139.9117010826436
 30
0.0
 10
106.7101101078711
 20
-139.9117010826436
 30
0.0
 10
106.9175048560831
 20
-140.0958414363302
 30
0.0
 10
106.9175048560831
 20
-140.3686929987619
 30
0.0
 10
106.9175048560831
 20
-140.597102829434
 30
0.0
 10
106.8010606286817
 20
-140.6966660889578
 30
0.0
 10
106.4920355636547
 20
-140.9230088623387
 30
0.0
  0
HATCH
  5
14E
330
149
100
AcDbEntity
  8
レイヤー 1
 62
   250
420
  2299925
440
 33554687
100
AcDbHatch
 10
0.0
 20
0.0
 30
0.0
210
0.0
220
0.0
230
1.0
  2
SOLID
 70
     1
 71
     1
 91
        1
 92
        1
 93
        1
 72
     4
 94
        3
 73
     0
 74
     0
 95
       44
 96
       40
 40
0.0
 40
0.0
 40
0.0
 40
0.0
 40
1.0
 40
1.0
 40
1.0
 40
2.0
 40
2.0
 40
2.0
 40
3.0
 40
3.0
 40
3.0
 40
4.0
 40
4.0
 40
4.0
 40
5.0
 40
5.0
 40
5.0
 40
6.0
 40
6.0
 40
6.0
 40
7.0
 40
7.0
 40
7.0
 40
8.0
 40
8.0
 40
8.0
 40
9.0
 40
9.0
 40
9.0
 40
10.0
 40
10.0
 40
10.0
 40
11.0
 40
11.0
 40
11.0
 40
12.0
 40
12.0
 40
12.0
 40
13.0
 40
13.0
 40
13.0
 40
13.0
 10
106.4920355636547
 20
-140.9230088623387
 10
106.274305528987
 20
-141.0816555094344
 10
106.1812879508852
 20
-141.1557250623673
 10
106.1323675949947
 20
-141.2995577988765
 10
106.1323675949947
 20
-141.2995577988765
 10
106.9109591746611
 20
-141.2995577988765
 10
106.9109591746611
 20
-141.2995577988765
 10
106.9109591746611
 20
-141.2995577988765
 10
106.9109591746611
 20
-141.5047132350231
 10
106.9109591746611
 20
-141.5047132350231
 10
106.9109591746611
 20
-141.5047132350231
 10
105.8829426818626
 20
-141.5047132350231
 10
105.8829426818626
 20
-141.5047132350231
 10
105.9146375603269
 20
-141.1471123236542
 10
105.9800943745466
 20
-141.068908656139
 10
106.3652560497976
 20
-140.7705633871164
 10
106.6212266443516
 20
-140.5717813776174
 10
106.6866834585714
 20
-140.5040852513323
 10
106.6866834585714
 20
-140.3666259414708
 10
106.6866834585714
 20
-140.2481146567782
 10
106.6146809629296
 20
-140.1168565187902
 10
106.4179660107219
 20
-140.1168565187902
 10
106.1578613015855
 20
-140.1168565187902
 10
106.1495930724209
 20
-140.3475056615277
 10
106.1451144482901
 20
-140.4639498889291
 10
106.1451144482901
 20
-140.4639498889291
 10
105.9208387322003
 20
-140.4639498889291
 10
105.9208387322003
 20
-140.4639498889291
 10
105.9294514709135
 20
-140.3369981202977
 10
105.9401312669177
 20
-140.2248602622528
 10
106.020401991724
 20
-140.1063489775602
 10
106.1303005377035
 20
-139.9456352731733
 10
106.3166802034555
 20
-139.9117010826436
 10
106.4327799213085
 20
-139.9117010826436
 10
106.7101101078711
 20
-139.9117010826436
 10
106.9175048560831
 20
-140.0958414363302
 10
106.9175048560831
 20
-140.3686929987619
 10
106.9175048560831
 20
-140.597102829434
 10
106.8010606286817
 20
-140.6966660889578
 10
106.4920355636547
 20
-140.9230088623387
 97
        0
 97
        1
330
14D
 75
     2
 76
     1
 98
        1
 10
0.0
 20
0.0
450
        0
451
        0
460
0.0
461
0.0
452
        0
462
0.0
453
        0
470

  0
SPLINE
  5
14F
330
149
100
AcDbEntity
  8
レイヤー 1
100
AcDbSpline
210
0.0
220
0.0
230
1.0
 70
    11
 71
     3
 72
    26
 73
    22
 74
     0
 42
0.0000000001
 43
0.0000000001
 40
0.0
 40
0.0
 40
0.0
 40
0.0
 40
1.0
 40
1.0
 40
1.0
 40
2.0
 40
2.0
 40
2.0
 40
3.0
 40
3.0
 40
3.0
 40
4.0
 40
4.0
 40
4.0
 40
5.0
 40
5.0
 40
5.0
 40
6.0
 40
6.0
 40
6.0
 40
7.0
 40
7.0
 40
7.0
 40
7.0
 10
107.5272867569723
 20
-141.5047132350231
 30
0.0
 10
107.5272867569723
 20
-141.5047132350231
 30
0.0
 10
107.5272867569723
 20
-140.4003878772263
 30
0.0
 10
107.5272867569723
 20
-140.4003878772263
 30
0.0
 10
107.5272867569723
 20
-140.4003878772263
 30
0.0
 10
107.1972466094854
 20
-140.4003878772263
 30
0.0
 10
107.1972466094854
 20
-140.4003878772263
 30
0.0
 10
107.1972466094854
 20
-140.4003878772263
 30
0.0
 10
107.1972466094854
 20
-140.2522487713605
 30
0.0
 10
107.1972466094854
 20
-140.2522487713605
 30
0.0
 10
107.5293538142635
 20
-140.2376071155482
 30
0.0
 10
107.5758626033143
 20
-140.0746540990959
 30
0.0
 10
107.6054904244875
 20
-139.9604491837599
 30
0.0
 10
107.6054904244875
 20
-139.9604491837599
 30
0.0
 10
107.7515624730621
 20
-139.9604491837599
 30
0.0
 10
107.7515624730621
 20
-139.9604491837599
 30
0.0
 10
107.7515624730621
 20
-139.9604491837599
 30
0.0
 10
107.7515624730621
 20
-141.5047132350231
 30
0.0
 10
107.7515624730621
 20
-141.5047132350231
 30
0.0
 10
107.7515624730621
 20
-141.5047132350231
 30
0.0
 10
107.5272867569723
 20
-141.5047132350231
 30
0.0
 10
107.5272867569723
 20
-141.5047132350231
 30
0.0
  0
HATCH
  5
150
330
149
100
AcDbEntity
  8
レイヤー 1
 62
   250
420
  2299925
440
 33554687
100
AcDbHatch
 10
0.0
 20
0.0
 30
0.0
210
0.0
220
0.0
230
1.0
  2
SOLID
 70
     1
 71
     1
 91
        1
 92
        1
 93
        1
 72
     4
 94
        3
 73
     0
 74
     0
 95
       26
 96
       22
 40
0.0
 40
0.0
 40
0.0
 40
0.0
 40
1.0
 40
1.0
 40
1.0
 40
2.0
 40
2.0
 40
2.0
 40
3.0
 40
3.0
 40
3.0
 40
4.0
 40
4.0
 40
4.0
 40
5.0
 40
5.0
 40
5.0
 40
6.0
 40
6.0
 40
6.0
 40
7.0
 40
7.0
 40
7.0
 40
7.0
 10
107.5272867569723
 20
-141.5047132350231
 10
107.5272867569723
 20
-141.5047132350231
 10
107.5272867569723
 20
-140.4003878772263
 10
107.5272867569723
 20
-140.4003878772263
 10
107.5272867569723
 20
-140.4003878772263
 10
107.1972466094854
 20
-140.4003878772263
 10
107.1972466094854
 20
-140.4003878772263
 10
107.1972466094854
 20
-140.4003878772263
 10
107.1972466094854
 20
-140.2522487713605
 10
107.1972466094854
 20
-140.2522487713605
 10
107.5293538142635
 20
-140.2376071155482
 10
107.5758626033143
 20
-140.0746540990959
 10
107.6054904244875
 20
-139.9604491837599
 10
107.6054904244875
 20
-139.9604491837599
 10
107.7515624730621
 20
-139.9604491837599
 10
107.7515624730621
 20
-139.9604491837599
 10
107.7515624730621
 20
-139.9604491837599
 10
107.7515624730621
 20
-141.5047132350231
 10
107.7515624730621
 20
-141.5047132350231
 10
107.7515624730621
 20
-141.5047132350231
 10
107.5272867569723
 20
-141.5047132350231
 10
107.5272867569723
 20
-141.5047132350231
 97
        0
 97
        1
330
14F
 75
     2
 76
     1
 98
        1
 10
0.0
 20
0.0
450
        0
451
        0
460
0.0
461
0.0
452
        0
462
0.0
453
        0
470

  0
ENDBLK
  5
14C
330
149
100
AcDbEntity
  8
0
100
AcDbBlockEnd
  0
BLOCK
  5
156
330
154
100
AcDbEntity
  8
0
100
AcDbBlockBegin
  2
Block_8
 70
     0
 10
0.0
 20
0.0
 30
0.0
  3
Block_8
  1

  0
SPLINE
  5
158
330
154
100
AcDbEntity
  8
レイヤー 1
100
AcDbSpline
210
0.0
220
0.0
230
1.0
 70
     9
 71
     3
 72
    17
 73
    13
 74
     0
 42
0.0000000001
 43
0.0000000001
 40
0.0
 40
0.0
 40
0.0
 40
0.0
 40
1.0
 40
1.0
 40
1.0
 40
2.0
 40
2.0
 40
2.0
 40
3.0
 40
3.0
 40
3.0
 40
4.0
 40
4.0
 40
4.0
 40
4.0
 10
90.43616805464791
 20
-140.104281920269
 30
0.0
 10
90.27114798090444
 20
-140.104281920269
 30
0.0
 10
90.1863986319673
 20
-140.199366555662
 30
0.0
 10
90.1863986319673
 20
-140.3347588082323
 30
0.0
 10
90.1863986319673
 20
-140.4575764622814
 30
0.0
 10
90.25840112760901
 20
-140.576087746974
 30
0.0
 10
90.43616805464791
 20
-140.576087746974
 30
0.0
 10
90.6139349816868
 20
-140.576087746974
 30
0.0
 10
90.68593747732853
 20
-140.4575764622814
 30
0.0
 10
90.68593747732853
 20
-140.3347588082323
 30
0.0
 10
90.68593747732853
 20
-140.199366555662
 30
0.0
 10
90.59912107110022
 20
-140.104281920269
 30
0.0
 10
90.43616805464791
 20
-140.104281920269
 30
0.0
  0
SPLINE
  5
159
330
154
100
AcDbEntity
  8
レイヤー 1
100
AcDbSpline
210
0.0
220
0.0
230
1.0
 70
     9
 71
     3
 72
    17
 73
    13
 74
     0
 42
0.0000000001
 43
0.0000000001
 40
0.0
 40
0.0
 40
0.0
 40
0.0
 40
1.0
 40
1.0
 40
1.0
 40
2.0
 40
2.0
 40
2.0
 40
3.0
 40
3.0
 40
3.0
 40
4.0
 40
4.0
 40
4.0
 40
4.0
 10
90.43616805464791
 20
-140.7643622152429
 30
0.0
 10
90.29250757291299
 20
-140.7643622152429
 30
0.0
 10
90.13988984291641
 20
-140.8510063666969
 30
0.0
 10
90.13988984291641
 20
-141.0540947455524
 30
0.0
 10
90.13988984291641
 20
-141.2592501816991
 30
0.0
 10
90.26701386632215
 20
-141.3608804985139
 30
0.0
 10
90.43616805464791
 20
-141.3608804985139
 30
0.0
 10
90.6222032108514
 20
-141.3608804985139
 30
0.0
 10
90.7324462663794
 20
-141.238235099239
 30
0.0
 10
90.7324462663794
 20
-141.0604681722001
 30
0.0
 10
90.7324462663794
 20
-140.8382595134015
 30
0.0
 10
90.56949324992707
 20
-140.7643622152429
 30
0.0
 10
90.43616805464791
 20
-140.7643622152429
 30
0.0
  0
SPLINE
  5
15A
330
154
100
AcDbEntity
  8
レイヤー 1
100
AcDbSpline
210
0.0
220
0.0
230
1.0
 70
     9
 71
     3
 72
    29
 73
    25
 74
     0
 42
0.0000000001
 43
0.0000000001
 40
0.0
 40
0.0
 40
0.0
 40
0.0
 40
1.0
 40
1.0
 40
1.0
 40
2.0
 40
2.0
 40
2.0
 40
3.0
 40
3.0
 40
3.0
 40
4.0
 40
4.0
 40
4.0
 40
5.0
 40
5.0
 40
5.0
 40
6.0
 40
6.0
 40
6.0
 40
7.0
 40
7.0
 40
7.0
 40
8.0
 40
8.0
 40
8.0
 40
8.0
 10
90.43616805464791
 20
-141.5555283934305
 30
0.0
 10
90.16951766408956
 20
-141.5555283934305
 30
0.0
 10
89.91561412682665
 20
-141.4178968287948
 30
0.0
 10
89.91561412682665
 20
-141.068908656139
 30
0.0
 10
89.91561412682665
 20
-140.8129380615849
 30
0.0
 10
90.05755206081895
 20
-140.7176811714178
 30
0.0
 10
90.16331649221612
 20
-140.6563584717803
 30
0.0
 10
90.03860403565008
 20
-140.597102829434
 30
0.0
 10
89.96246742542606
 20
-140.482897914098
 30
0.0
 10
89.96246742542606
 20
-140.3221842097111
 30
0.0
 10
89.96246742542606
 20
-140.0470933352139
 30
0.0
 10
90.16124943492497
 20
-139.9117010826436
 30
0.0
 10
90.43616805464791
 20
-139.9117010826436
 30
0.0
 10
90.71969941308397
 20
-139.9117010826436
 30
0.0
 10
90.91021319341828
 20
-140.0555338191528
 30
0.0
 10
90.91021319341828
 20
-140.3221842097111
 30
0.0
 10
90.91021319341828
 20
-140.482897914098
 30
0.0
 10
90.83166501635458
 20
-140.597102829434
 30
0.0
 10
90.70695255978854
 20
-140.6563584717803
 30
0.0
 10
90.79583602330798
 20
-140.7071736301878
 30
0.0
 10
90.95465492517801
 20
-140.8024305203549
 30
0.0
 10
90.95465492517801
 20
-141.0646022867824
 30
0.0
 10
90.95465492517801
 20
-141.4390841660291
 30
0.0
 10
90.67525768132425
 20
-141.5555283934305
 30
0.0
 10
90.43616805464791
 20
-141.5555283934305
 30
0.0
  0
HATCH
  5
15B
330
154
100
AcDbEntity
  8
レイヤー 1
 62
   250
420
  2299925
440
 33554687
100
AcDbHatch
 10
0.0
 20
0.0
 30
0.0
210
0.0
220
0.0
230
1.0
  2
SOLID
 70
     1
 71
     1
 91
        3
 92
        1
 93
        1
 72
     4
 94
        3
 73
     0
 74
     0
 95
       17
 96
       13
 40
0.0
 40
0.0
 40
0.0
 40
0.0
 40
1.0
 40
1.0
 40
1.0
 40
2.0
 40
2.0
 40
2.0
 40
3.0
 40
3.0
 40
3.0
 40
4.0
 40
4.0
 40
4.0
 40
4.0
 10
90.43616805464791
 20
-140.104281920269
 10
90.27114798090444
 20
-140.104281920269
 10
90.1863986319673
 20
-140.199366555662
 10
90.1863986319673
 20
-140.3347588082323
 10
90.1863986319673
 20
-140.4575764622814
 10
90.25840112760901
 20
-140.576087746974
 10
90.43616805464791
 20
-140.576087746974
 10
90.6139349816868
 20
-140.576087746974
 10
90.68593747732853
 20
-140.4575764622814
 10
90.68593747732853
 20
-140.3347588082323
 10
90.68593747732853
 20
-140.199366555662
 10
90.59912107110022
 20
-140.104281920269
 10
90.43616805464791
 20
-140.104281920269
 97
        0
 97
        1
330
158
 92
        1
 93
        1
 72
     4
 94
        3
 73
     0
 74
     0
 95
       17
 96
       13
 40
0.0
 40
0.0
 40
0.0
 40
0.0
 40
1.0
 40
1.0
 40
1.0
 40
2.0
 40
2.0
 40
2.0
 40
3.0
 40
3.0
 40
3.0
 40
4.0
 40
4.0
 40
4.0
 40
4.0
 10
90.43616805464791
 20
-140.7643622152429
 10
90.29250757291299
 20
-140.7643622152429
 10
90.13988984291641
 20
-140.8510063666969
 10
90.13988984291641
 20
-141.0540947455524
 10
90.13988984291641
 20
-141.2592501816991
 10
90.26701386632215
 20
-141.3608804985139
 10
90.43616805464791
 20
-141.3608804985139
 10
90.6222032108514
 20
-141.3608804985139
 10
90.7324462663794
 20
-141.238235099239
 10
90.7324462663794
 20
-141.0604681722001
 10
90.7324462663794
 20
-140.8382595134015
 10
90.56949324992707
 20
-140.7643622152429
 10
90.43616805464791
 20
-140.7643622152429
 97
        0
 97
        1
330
159
 92
        1
 93
        1
 72
     4
 94
        3
 73
     0
 74
     0
 95
       29
 96
       25
 40
0.0
 40
0.0
 40
0.0
 40
0.0
 40
1.0
 40
1.0
 40
1.0
 40
2.0
 40
2.0
 40
2.0
 40
3.0
 40
3.0
 40
3.0
 40
4.0
 40
4.0
 40
4.0
 40
5.0
 40
5.0
 40
5.0
 40
6.0
 40
6.0
 40
6.0
 40
7.0
 40
7.0
 40
7.0
 40
8.0
 40
8.0
 40
8.0
 40
8.0
 10
90.43616805464791
 20
-141.5555283934305
 10
90.16951766408956
 20
-141.5555283934305
 10
89.91561412682665
 20
-141.4178968287948
 10
89.91561412682665
 20
-141.068908656139
 10
89.91561412682665
 20
-140.8129380615849
 10
90.05755206081895
 20
-140.7176811714178
 10
90.16331649221612
 20
-140.6563584717803
 10
90.03860403565008
 20
-140.597102829434
 10
89.96246742542606
 20
-140.482897914098
 10
89.96246742542606
 20
-140.3221842097111
 10
89.96246742542606
 20
-140.0470933352139
 10
90.16124943492497
 20
-139.9117010826436
 10
90.43616805464791
 20
-139.9117010826436
 10
90.71969941308397
 20
-139.9117010826436
 10
90.91021319341828
 20
-140.0555338191528
 10
90.91021319341828
 20
-140.3221842097111
 10
90.91021319341828
 20
-140.482897914098
 10
90.83166501635458
 20
-140.597102829434
 10
90.70695255978854
 20
-140.6563584717803
 10
90.79583602330798
 20
-140.7071736301878
 10
90.95465492517801
 20
-140.8024305203549
 10
90.95465492517801
 20
-141.0646022867824
 10
90.95465492517801
 20
-141.4390841660291
 10
90.67525768132425
 20
-141.5555283934305
 10
90.43616805464791
 20
-141.5555283934305
 97
        0
 97
        1
330
15A
 75
     2
 76
     1
 98
        1
 10
0.0
 20
0.0
450
        0
451
        0
460
0.0
461
0.0
452
        0
462
0.0
453
        0
470

  0
ENDBLK
  5
157
330
154
100
AcDbEntity
  8
0
100
AcDbBlockEnd
  0
BLOCK
  5
15F
330
15D
100
AcDbEntity
  8
0
100
AcDbBlockBegin
  2
Block_9
 70
     0
 10
0.0
 20
0.0
 30
0.0
  3
Block_9
  1

  0
SPLINE
  5
161
330
15D
100
AcDbEntity
  8
レイヤー 1
100
AcDbSpline
210
0.0
220
0.0
230
1.0
 70
    11
 71
     3
 72
    26
 73
    22
 74
     0
 42
0.0000000001
 43
0.0000000001
 40
0.0
 40
0.0
 40
0.0
 40
0.0
 40
1.0
 40
1.0
 40
1.0
 40
2.0
 40
2.0
 40
2.0
 40
3.0
 40
3.0
 40
3.0
 40
4.0
 40
4.0
 40
4.0
 40
5.0
 40
5.0
 40
5.0
 40
6.0
 40
6.0
 40
6.0
 40
7.0
 40
7.0
 40
7.0
 40
7.0
 10
98.14663626018557
 20
-149.6670057134513
 30
0.0
 10
98.14663626018557
 20
-149.6670057134513
 30
0.0
 10
98.14663626018557
 20
-148.5625081008802
 30
0.0
 10
98.14663626018557
 20
-148.5625081008802
 30
0.0
 10
98.14663626018557
 20
-148.5625081008802
 30
0.0
 10
97.81659611269864
 20
-148.5625081008802
 30
0.0
 10
97.81659611269864
 20
-148.5625081008802
 30
0.0
 10
97.81659611269864
 20
-148.5625081008802
 30
0.0
 10
97.81659611269864
 20
-148.4143689950144
 30
0.0
 10
97.81659611269864
 20
-148.4143689950144
 30
0.0
 10
98.14870331747671
 20
-148.3997273392021
 30
0.0
 10
98.19521210652759
 20
-148.2367743227498
 30
0.0
 10
98.22483992770074
 20
-148.1225694074138
 30
0.0
 10
98.22483992770074
 20
-148.1225694074138
 30
0.0
 10
98.37091197627534
 20
-148.1225694074138
 30
0.0
 10
98.37091197627534
 20
-148.1225694074138
 30
0.0
 10
98.37091197627534
 20
-148.1225694074138
 30
0.0
 10
98.37091197627534
 20
-149.6670057134513
 30
0.0
 10
98.37091197627534
 20
-149.6670057134513
 30
0.0
 10
98.37091197627534
 20
-149.6670057134513
 30
0.0
 10
98.14663626018557
 20
-149.6670057134513
 30
0.0
 10
98.14663626018557
 20
-149.6670057134513
 30
0.0
  0
HATCH
  5
162
330
15D
100
AcDbEntity
  8
レイヤー 1
 62
   250
420
  2299925
440
 33554687
100
AcDbHatch
 10
0.0
 20
0.0
 30
0.0
210
0.0
220
0.0
230
1.0
  2
SOLID
 70
     1
 71
     1
 91
        1
 92
        1
 93
        1
 72
     4
 94
        3
 73
     0
 74
     0
 95
       26
 96
       22
 40
0.0
 40
0.0
 40
0.0
 40
0.0
 40
1.0
 40
1.0
 40
1.0
 40
2.0
 40
2.0
 40
2.0
 40
3.0
 40
3.0
 40
3.0
 40
4.0
 40
4.0
 40
4.0
 40
5.0
 40
5.0
 40
5.0
 40
6.0
 40
6.0
 40
6.0
 40
7.0
 40
7.0
 40
7.0
 40
7.0
 10
98.14663626018557
 20
-149.6670057134513
 10
98.14663626018557
 20
-149.6670057134513
 10
98.14663626018557
 20
-148.5625081008802
 10
98.14663626018557
 20
-148.5625081008802
 10
98.14663626018557
 20
-148.5625081008802
 10
97.81659611269864
 20
-148.5625081008802
 10
97.81659611269864
 20
-148.5625081008802
 10
97.81659611269864
 20
-148.5625081008802
 10
97.81659611269864
 20
-148.4143689950144
 10
97.81659611269864
 20
-148.4143689950144
 10
98.14870331747671
 20
-148.3997273392021
 10
98.19521210652759
 20
-148.2367743227498
 10
98.22483992770074
 20
-148.1225694074138
 10
98.22483992770074
 20
-148.1225694074138
 10
98.37091197627534
 20
-148.1225694074138
 10
98.37091197627534
 20
-148.1225694074138
 10
98.37091197627534
 20
-148.1225694074138
 10
98.37091197627534
 20
-149.6670057134513
 10
98.37091197627534
 20
-149.6670057134513
 10
98.37091197627534
 20
-149.6670057134513
 10
98.14663626018557
 20
-149.6670057134513
 10
98.14663626018557
 20
-149.6670057134513
 97
        0
 97
        1
330
161
 75
     2
 76
     1
 98
        1
 10
0.0
 20
0.0
450
        0
451
        0
460
0.0
461
0.0
452
        0
462
0.0
453
        0
470

  0
ENDBLK
  5
160
330
15D
100
AcDbEntity
  8
0
100
AcDbBlockEnd
  0
BLOCK
  5
16A
330
168
100
AcDbEntity
  8
0
100
AcDbBlockBegin
  2
Block_10
 70
     0
 10
0.0
 20
0.0
 30
0.0
  3
Block_10
  1

  0
INSERT
  5
16D
330
168
100
AcDbEntity
  8
レイヤー 1
100
AcDbBlockReference
  2
Block_11
 10
0.0
 20
0.0
 30
0.0
  0
ENDBLK
  5
16B
330
168
100
AcDbEntity
  8
0
100
AcDbBlockEnd
  0
BLOCK
  5
16E
330
16C
100
AcDbEntity
  8
0
100
AcDbBlockBegin
  2
Block_11
 70
     0
 10
0.0
 20
0.0
 30
0.0
  3
Block_11
  1

  0
SPLINE
  5
170
330
16C
100
AcDbEntity
  8
レイヤー 1
100
AcDbSpline
210
0.0
220
0.0
230
1.0
 70
    11
 71
     3
 72
    26
 73
    22
 74
     0
 42
0.0000000001
 43
0.0000000001
 40
0.0
 40
0.0
 40
0.0
 40
0.0
 40
1.0
 40
1.0
 40
1.0
 40
2.0
 40
2.0
 40
2.0
 40
3.0
 40
3.0
 40
3.0
 40
4.0
 40
4.0
 40
4.0
 40
5.0
 40
5.0
 40
5.0
 40
6.0
 40
6.0
 40
6.0
 40
7.0
 40
7.0
 40
7.0
 40
7.0
 10
90.03240286377662
 20
-156.4224934504777
 30
0.0
 10
90.03240286377662
 20
-156.4224934504777
 30
0.0
 10
90.03240286377662
 20
-155.3183403474551
 30
0.0
 10
90.03240286377662
 20
-155.3183403474551
 30
0.0
 10
90.03240286377662
 20
-155.3183403474551
 30
0.0
 10
89.70236271628968
 20
-155.3183403474551
 30
0.0
 10
89.70236271628968
 20
-155.3183403474551
 30
0.0
 10
89.70236271628968
 20
-155.3183403474551
 30
0.0
 10
89.70236271628968
 20
-155.1702012415894
 30
0.0
 10
89.70236271628968
 20
-155.1702012415894
 30
0.0
 10
90.03446992106779
 20
-155.1553873310028
 30
0.0
 10
90.08097871011864
 20
-154.9924343145505
 30
0.0
 10
90.11060653129179
 20
-154.8780571444402
 30
0.0
 10
90.11060653129179
 20
-154.8780571444402
 30
0.0
 10
90.25667857986638
 20
-154.8780571444402
 30
0.0
 10
90.25667857986638
 20
-154.8780571444402
 30
0.0
 10
90.25667857986638
 20
-154.8780571444402
 30
0.0
 10
90.25667857986638
 20
-156.4224934504777
 30
0.0
 10
90.25667857986638
 20
-156.4224934504777
 30
0.0
 10
90.25667857986638
 20
-156.4224934504777
 30
0.0
 10
90.03240286377662
 20
-156.4224934504777
 30
0.0
 10
90.03240286377662
 20
-156.4224934504777
 30
0.0
  0
HATCH
  5
171
330
16C
100
AcDbEntity
  8
レイヤー 1
 62
   250
420
  2299925
440
 33554687
100
AcDbHatch
 10
0.0
 20
0.0
 30
0.0
210
0.0
220
0.0
230
1.0
  2
SOLID
 70
     1
 71
     1
 91
        1
 92
        1
 93
        1
 72
     4
 94
        3
 73
     0
 74
     0
 95
       26
 96
       22
 40
0.0
 40
0.0
 40
0.0
 40
0.0
 40
1.0
 40
1.0
 40
1.0
 40
2.0
 40
2.0
 40
2.0
 40
3.0
 40
3.0
 40
3.0
 40
4.0
 40
4.0
 40
4.0
 40
5.0
 40
5.0
 40
5.0
 40
6.0
 40
6.0
 40
6.0
 40
7.0
 40
7.0
 40
7.0
 40
7.0
 10
90.03240286377662
 20
-156.4224934504777
 10
90.03240286377662
 20
-156.4224934504777
 10
90.03240286377662
 20
-155.3183403474551
 10
90.03240286377662
 20
-155.3183403474551
 10
90.03240286377662
 20
-155.3183403474551
 10
89.70236271628968
 20
-155.3183403474551
 10
89.70236271628968
 20
-155.3183403474551
 10
89.70236271628968
 20
-155.3183403474551
 10
89.70236271628968
 20
-155.1702012415894
 10
89.70236271628968
 20
-155.1702012415894
 10
90.03446992106779
 20
-155.1553873310028
 10
90.08097871011864
 20
-154.9924343145505
 10
90.11060653129179
 20
-154.8780571444402
 10
90.11060653129179
 20
-154.8780571444402
 10
90.25667857986638
 20
-154.8780571444402
 10
90.25667857986638
 20
-154.8780571444402
 10
90.25667857986638
 20
-154.8780571444402
 10
90.25667857986638
 20
-156.4224934504777
 10
90.25667857986638
 20
-156.4224934504777
 10
90.25667857986638
 20
-156.4224934504777
 10
90.03240286377662
 20
-156.4224934504777
 10
90.03240286377662
 20
-156.4224934504777
 97
        0
 97
        1
330
170
 75
     2
 76
     1
 98
        1
 10
0.0
 20
0.0
450
        0
451
        0
460
0.0
461
0.0
452
        0
462
0.0
453
        0
470

  0
SPLINE
  5
172
330
16C
100
AcDbEntity
  8
レイヤー 1
100
AcDbSpline
210
0.0
220
0.0
230
1.0
 70
     9
 71
     3
 72
    17
 73
    13
 74
     0
 42
0.0000000001
 43
0.0000000001
 40
0.0
 40
0.0
 40
0.0
 40
0.0
 40
1.0
 40
1.0
 40
1.0
 40
2.0
 40
2.0
 40
2.0
 40
3.0
 40
3.0
 40
3.0
 40
4.0
 40
4.0
 40
4.0
 40
4.0
 10
91.25782332787998
 20
-155.0220621357236
 30
0.0
 10
91.00822615997364
 20
-155.0220621357236
 30
0.0
 10
90.96171737092276
 20
-155.3055934941597
 30
0.0
 10
90.96171737092276
 20
-155.6504475522332
 30
0.0
 10
90.96171737092276
 20
-155.9698079037159
 30
0.0
 10
90.99771861874364
 20
-156.2784884591942
 30
0.0
 10
91.25782332787998
 20
-156.2784884591942
 30
0.0
 10
91.50535343849519
 20
-156.2784884591942
 30
0.0
 10
91.55410153961147
 20
-155.9973686675979
 30
0.0
 10
91.55410153961147
 20
-155.6504475522332
 30
0.0
 10
91.55410153961147
 20
-155.330742691202
 30
0.0
 10
91.51603323449947
 20
-155.0220621357236
 30
0.0
 10
91.25782332787998
 20
-155.0220621357236
 30
0.0
  0
SPLINE
  5
173
330
16C
100
AcDbEntity
  8
レイヤー 1
100
AcDbSpline
210
0.0
220
0.0
230
1.0
 70
     9
 71
     3
 72
    29
 73
    25
 74
     0
 42
0.0000000001
 43
0.0000000001
 40
0.0
 40
0.0
 40
0.0
 40
0.0
 40
1.0
 40
1.0
 40
1.0
 40
2.0
 40
2.0
 40
2.0
 40
3.0
 40
3.0
 40
3.0
 40
4.0
 40
4.0
 40
4.0
 40
5.0
 40
5.0
 40
5.0
 40
6.0
 40
6.0
 40
6.0
 40
7.0
 40
7.0
 40
7.0
 40
8.0
 40
8.0
 40
8.0
 40
8.0
 10
91.65555960165209
 20
-156.2447265234388
 30
0.0
 10
91.54772811296377
 20
-156.454188328942
 30
0.0
 10
91.37426755528144
 20
-156.4731363541109
 30
0.0
 10
91.25782332787998
 20
-156.4731363541109
 30
0.0
 10
91.09710962349309
 20
-156.4731363541109
 30
0.0
 10
90.95534394427506
 20
-156.42662756506
 30
0.0
 10
90.86008705410788
 20
-156.2447265234388
 30
0.0
 10
90.75656193477614
 20
-156.0500786285222
 30
0.0
 10
90.73744165483301
 20
-155.8134005686855
 30
0.0
 10
90.73744165483301
 20
-155.6504475522332
 30
0.0
 10
90.73744165483301
 20
-155.5064425609498
 30
0.0
 10
90.75432262271073
 20
-155.254606080978
 30
0.0
 10
90.86008705410788
 20
-155.0558240714791
 30
0.0
 10
90.96809079757049
 20
-154.8529079473978
 30
0.0
 10
91.12880450195739
 20
-154.8294812980982
 30
0.0
 10
91.25782332787998
 20
-154.8294812980982
 30
0.0
 10
91.41646997497575
 20
-154.8294812980982
 30
0.0
 10
91.56047496625919
 20
-154.8739230298579
 30
0.0
 10
91.65555960165209
 20
-155.0558240714791
 30
0.0
 10
91.75495060640155
 20
-155.2484049091046
 30
0.0
 10
91.77837725570125
 20
-155.4768147397766
 30
0.0
 10
91.77837725570125
 20
-155.6504475522332
 30
0.0
 10
91.77837725570125
 20
-155.8216687978501
 30
0.0
 10
91.75718991846697
 20
-156.0521456858134
 30
0.0
 10
91.65555960165209
 20
-156.2447265234388
 30
0.0
  0
HATCH
  5
174
330
16C
100
AcDbEntity
  8
レイヤー 1
 62
   250
420
  2299925
440
 33554687
100
AcDbHatch
 10
0.0
 20
0.0
 30
0.0
210
0.0
220
0.0
230
1.0
  2
SOLID
 70
     1
 71
     1
 91
        2
 92
        1
 93
        1
 72
     4
 94
        3
 73
     0
 74
     0
 95
       17
 96
       13
 40
0.0
 40
0.0
 40
0.0
 40
0.0
 40
1.0
 40
1.0
 40
1.0
 40
2.0
 40
2.0
 40
2.0
 40
3.0
 40
3.0
 40
3.0
 40
4.0
 40
4.0
 40
4.0
 40
4.0
 10
91.25782332787998
 20
-155.0220621357236
 10
91.00822615997364
 20
-155.0220621357236
 10
90.96171737092276
 20
-155.3055934941597
 10
90.96171737092276
 20
-155.6504475522332
 10
90.96171737092276
 20
-155.9698079037159
 10
90.99771861874364
 20
-156.2784884591942
 10
91.25782332787998
 20
-156.2784884591942
 10
91.50535343849519
 20
-156.2784884591942
 10
91.55410153961147
 20
-155.9973686675979
 10
91.55410153961147
 20
-155.6504475522332
 10
91.55410153961147
 20
-155.330742691202
 10
91.51603323449947
 20
-155.0220621357236
 10
91.25782332787998
 20
-155.0220621357236
 97
        0
 97
        1
330
172
 92
        1
 93
        1
 72
     4
 94
        3
 73
     0
 74
     0
 95
       29
 96
       25
 40
0.0
 40
0.0
 40
0.0
 40
0.0
 40
1.0
 40
1.0
 40
1.0
 40
2.0
 40
2.0
 40
2.0
 40
3.0
 40
3.0
 40
3.0
 40
4.0
 40
4.0
 40
4.0
 40
5.0
 40
5.0
 40
5.0
 40
6.0
 40
6.0
 40
6.0
 40
7.0
 40
7.0
 40
7.0
 40
8.0
 40
8.0
 40
8.0
 40
8.0
 10
91.65555960165209
 20
-156.2447265234388
 10
91.54772811296377
 20
-156.454188328942
 10
91.37426755528144
 20
-156.4731363541109
 10
91.25782332787998
 20
-156.4731363541109
 10
91.09710962349309
 20
-156.4731363541109
 10
90.95534394427506
 20
-156.42662756506
 10
90.86008705410788
 20
-156.2447265234388
 10
90.75656193477614
 20
-156.0500786285222
 10
90.73744165483301
 20
-155.8134005686855
 10
90.73744165483301
 20
-155.6504475522332
 10
90.73744165483301
 20
-155.5064425609498
 10
90.75432262271073
 20
-155.254606080978
 10
90.86008705410788
 20
-155.0558240714791
 10
90.96809079757049
 20
-154.8529079473978
 10
91.12880450195739
 20
-154.8294812980982
 10
91.25782332787998
 20
-154.8294812980982
 10
91.41646997497575
 20
-154.8294812980982
 10
91.56047496625919
 20
-154.8739230298579
 10
91.65555960165209
 20
-155.0558240714791
 10
91.75495060640155
 20
-155.2484049091046
 10
91.77837725570125
 20
-155.4768147397766
 10
91.77837725570125
 20
-155.6504475522332
 10
91.77837725570125
 20
-155.8216687978501
 10
91.75718991846697
 20
-156.0521456858134
 10
91.65555960165209
 20
-156.2447265234388
 97
        0
 97
        1
330
173
 75
     2
 76
     1
 98
        1
 10
0.0
 20
0.0
450
        0
451
        0
460
0.0
461
0.0
452
        0
462
0.0
453
        0
470

  0
ENDBLK
  5
16F
330
16C
100
AcDbEntity
  8
0
100
AcDbBlockEnd
  0
BLOCK
  5
177
330
175
100
AcDbEntity
  8
0
100
AcDbBlockBegin
  2
Block_12
 70
     0
 10
0.0
 20
0.0
 30
0.0
  3
Block_12
  1

  0
INSERT
  5
17A
330
175
100
AcDbEntity
  8
レイヤー 1
100
AcDbBlockReference
  2
Block_13
 10
0.0
 20
0.0
 30
0.0
  0
INSERT
  5
181
330
175
100
AcDbEntity
  8
レイヤー 1
100
AcDbBlockReference
  2
Block_14
 10
0.0
 20
0.0
 30
0.0
  0
ENDBLK
  5
178
330
175
100
AcDbEntity
  8
0
100
AcDbBlockEnd
  0
BLOCK
  5
17B
330
179
100
AcDbEntity
  8
0
100
AcDbBlockBegin
  2
Block_13
 70
     0
 10
0.0
 20
0.0
 30
0.0
  3
Block_13
  1

  0
LINE
  5
17D
330
179
100
AcDbEntity
  8
レイヤー 1
 62
    18
420
        0
370
     9
100
AcDbLine
 10
106.9698809917774
 20
-148.5255108060886
 30
0.0
 11
107.7811993044123
 21
-149.1101694170539
 31
0.0
  0
LINE
  5
17E
330
179
100
AcDbEntity
  8
レイヤー 1
 62
    18
420
        0
370
     9
100
AcDbLine
 10
106.9698809917774
 20
-148.5255108060886
 30
0.0
 11
109.5475223149052
 21
-151.6825896941886
 31
0.0
  0
LINE
  5
17F
330
179
100
AcDbEntity
  8
レイヤー 1
 62
    18
420
        0
370
     9
100
AcDbLine
 10
106.9698809917774
 20
-148.5255108060886
 30
0.0
 11
107.3801968146427
 21
-149.4376177503048
 31
0.0
  0
ENDBLK
  5
17C
330
179
100
AcDbEntity
  8
0
100
AcDbBlockEnd
  0
BLOCK
  5
182
330
180
100
AcDbEntity
  8
0
100
AcDbBlockBegin
  2
Block_14
 70
     0
 10
0.0
 20
0.0
 30
0.0
  3
Block_14
  1

  0
INSERT
  5
185
330
180
100
AcDbEntity
  8
レイヤー 1
100
AcDbBlockReference
  2
Block_15
 10
0.0
 20
0.0
 30
0.0
  0
ENDBLK
  5
183
330
180
100
AcDbEntity
  8
0
100
AcDbBlockEnd
  0
BLOCK
  5
186
330
184
100
AcDbEntity
  8
0
100
AcDbBlockBegin
  2
Block_15
 70
     0
 10
0.0
 20
0.0
 30
0.0
  3
Block_15
  1

  0
SPLINE
  5
188
330
184
100
AcDbEntity
  8
レイヤー 1
100
AcDbSpline
210
0.0
220
0.0
230
1.0
 70
     9
 71
     3
 72
    17
 73
    13
 74
     0
 42
0.0000000001
 43
0.0000000001
 40
0.0
 40
0.0
 40
0.0
 40
0.0
 40
1.0
 40
1.0
 40
1.0
 40
2.0
 40
2.0
 40
2.0
 40
3.0
 40
3.0
 40
3.0
 40
4.0
 40
4.0
 40
4.0
 40
4.0
 10
111.2138834357382
 20
-152.1295599663079
 30
0.0
 10
111.1970024678605
 20
-152.159187787481
 30
0.0
 10
111.1463595642273
 20
-152.2522053655828
 30
0.0
 10
111.135679768223
 20
-152.2711533907516
 30
0.0
 10
111.3261935485573
 20
-152.3304090330979
 30
0.0
 10
111.3472086310173
 20
-152.3369547145199
 30
0.0
 10
111.4192111266591
 20
-152.3641709688534
 30
0.0
 10
111.4739881448745
 20
-152.2776990721736
 30
0.0
 10
111.4974147941742
 20
-152.2036295192407
 30
0.0
 10
111.5122287047608
 20
-152.1295599663079
 30
0.0
 10
111.5122287047608
 20
-152.1295599663079
 30
0.0
 10
111.2138834357382
 20
-152.1295599663079
 30
0.0
 10
111.2138834357382
 20
-152.1295599663079
 30
0.0
  0
SPLINE
  5
189
330
184
100
AcDbEntity
  8
レイヤー 1
100
AcDbSpline
210
0.0
220
0.0
230
1.0
 70
    11
 71
     3
 72
    20
 73
    16
 74
     0
 42
0.0000000001
 43
0.0000000001
 40
0.0
 40
0.0
 40
0.0
 40
0.0
 40
1.0
 40
1.0
 40
1.0
 40
2.0
 40
2.0
 40
2.0
 40
3.0
 40
3.0
 40
3.0
 40
4.0
 40
4.0
 40
4.0
 40
5.0
 40
5.0
 40
5.0
 40
5.0
 10
111.1504936788096
 20
-151.2789658909997
 30
0.0
 10
111.1504936788096
 20
-151.2789658909997
 30
0.0
 10
111.1187988003453
 20
-151.2789658909997
 30
0.0
 10
111.1187988003453
 20
-151.2789658909997
 30
0.0
 10
111.1653075893962
 20
-151.3785291505234
 30
0.0
 10
111.1970024678605
 20
-151.4587998753297
 30
0.0
 10
111.2307644036159
 20
-151.5859238987355
 30
0.0
 10
111.2307644036159
 20
-151.5859238987355
 30
0.0
 10
111.4381591518279
 20
-151.5859238987355
 30
0.0
 10
111.4381591518279
 20
-151.5859238987355
 30
0.0
 10
111.4698540302923
 20
-151.4929063206337
 30
0.0
 10
111.4932806795919
 20
-151.4081569716966
 30
0.0
 10
111.5163628193431
 20
-151.2789658909997
 30
0.0
 10
111.5163628193431
 20
-151.2789658909997
 30
0.0
 10
111.1504936788096
 20
-151.2789658909997
 30
0.0
 10
111.1504936788096
 20
-151.2789658909997
 30
0.0
  0
SPLINE
  5
18A
330
184
100
AcDbEntity
  8
レイヤー 1
100
AcDbSpline
210
0.0
220
0.0
230
1.0
 70
     9
 71
     3
 72
   242
 73
   238
 74
     0
 42
0.0000000001
 43
0.0000000001
 40
0.0
 40
0.0
 40
0.0
 40
0.0
 40
1.0
 40
1.0
 40
1.0
 40
2.0
 40
2.0
 40
2.0
 40
3.0
 40
3.0
 40
3.0
 40
4.0
 40
4.0
 40
4.0
 40
5.0
 40
5.0
 40
5.0
 40
6.0
 40
6.0
 40
6.0
 40
7.0
 40
7.0
 40
7.0
 40
8.0
 40
8.0
 40
8.0
 40
9.0
 40
9.0
 40
9.0
 40
10.0
 40
10.0
 40
10.0
 40
11.0
 40
11.0
 40
11.0
 40
12.0
 40
12.0
 40
12.0
 40
13.0
 40
13.0
 40
13.0
 40
14.0
 40
14.0
 40
14.0
 40
15.0
 40
15.0
 40
15.0
 40
16.0
 40
16.0
 40
16.0
 40
17.0
 40
17.0
 40
17.0
 40
18.0
 40
18.0
 40
18.0
 40
19.0
 40
19.0
 40
19.0
 40
20.0
 40
20.0
 40
20.0
 40
21.0
 40
21.0
 40
21.0
 40
22.0
 40
22.0
 40
22.0
 40
23.0
 40
23.0
 40
23.0
 40
24.0
 40
24.0
 40
24.0
 40
25.0
 40
25.0
 40
25.0
 40
26.0
 40
26.0
 40
26.0
 40
27.0
 40
27.0
 40
27.0
 40
28.0
 40
28.0
 40
28.0
 40
29.0
 40
29.0
 40
29.0
 40
30.0
 40
30.0
 40
30.0
 40
31.0
 40
31.0
 40
31.0
 40
32.0
 40
32.0
 40
32.0
 40
33.0
 40
33.0
 40
33.0
 40
34.0
 40
34.0
 40
34.0
 40
35.0
 40
35.0
 40
35.0
 40
36.0
 40
36.0
 40
36.0
 40
37.0
 40
37.0
 40
37.0
 40
38.0
 40
38.0
 40
38.0
 40
39.0
 40
39.0
 40
39.0
 40
40.0
 40
40.0
 40
40.0
 40
41.0
 40
41.0
 40
41.0
 40
42.0
 40
42.0
 40
42.0
 40
43.0
 40
43.0
 40
43.0
 40
44.0
 40
44.0
 40
44.0
 40
45.0
 40
45.0
 40
45.0
 40
46.0
 40
46.0
 40
46.0
 40
47.0
 40
47.0
 40
47.0
 40
48.0
 40
48.0
 40
48.0
 40
49.0
 40
49.0
 40
49.0
 40
50.0
 40
50.0
 40
50.0
 40
51.0
 40
51.0
 40
51.0
 40
52.0
 40
52.0
 40
52.0
 40
53.0
 40
53.0
 40
53.0
 40
54.0
 40
54.0
 40
54.0
 40
55.0
 40
55.0
 40
55.0
 40
56.0
 40
56.0
 40
56.0
 40
57.0
 40
57.0
 40
57.0
 40
58.0
 40
58.0
 40
58.0
 40
59.0
 40
59.0
 40
59.0
 40
60.0
 40
60.0
 40
60.0
 40
61.0
 40
61.0
 40
61.0
 40
62.0
 40
62.0
 40
62.0
 40
63.0
 40
63.0
 40
63.0
 40
64.0
 40
64.0
 40
64.0
 40
65.0
 40
65.0
 40
65.0
 40
66.0
 40
66.0
 40
66.0
 40
67.0
 40
67.0
 40
67.0
 40
68.0
 40
68.0
 40
68.0
 40
69.0
 40
69.0
 40
69.0
 40
70.0
 40
70.0
 40
70.0
 40
71.0
 40
71.0
 40
71.0
 40
72.0
 40
72.0
 40
72.0
 40
73.0
 40
73.0
 40
73.0
 40
74.0
 40
74.0
 40
74.0
 40
75.0
 40
75.0
 40
75.0
 40
76.0
 40
76.0
 40
76.0
 40
77.0
 40
77.0
 40
77.0
 40
78.0
 40
78.0
 40
78.0
 40
79.0
 40
79.0
 40
79.0
 40
79.0
 10
111.7788790953191
 20
-151.7443982910569
 30
0.0
 10
111.7788790953191
 20
-151.7443982910569
 30
0.0
 10
111.5249755580562
 20
-151.7443982910569
 30
0.0
 10
111.5249755580562
 20
-151.7443982910569
 30
0.0
 10
111.5249755580562
 20
-151.7443982910569
 30
0.0
 10
111.2476453714936
 20
-151.7443982910569
 30
0.0
 10
111.2476453714936
 20
-151.7443982910569
 30
0.0
 10
111.2476453714936
 20
-151.7443982910569
 30
0.0
 10
111.3747693948994
 20
-151.7867729655255
 30
0.0
 10
111.3747693948994
 20
-151.7867729655255
 30
0.0
 10
111.3854491909036
 20
-151.7909070801078
 30
0.0
 10
111.3978515346505
 20
-151.7974527615298
 30
0.0
 10
111.3978515346505
 20
-151.8101996148252
 30
0.0
 10
111.3978515346505
 20
-151.8312146972852
 30
0.0
 10
111.3661566561862
 20
-151.8374158691587
 30
0.0
 10
111.3451415737262
 20
-151.8418944932895
 30
0.0
 10
111.3344617777219
 20
-151.8649766330407
 30
0.0
 10
111.3048339565488
 20
-151.930777956809
 30
0.0
 10
111.2858859313799
 20
-151.9752196885687
 30
0.0
 10
111.2858859313799
 20
-151.9752196885687
 30
0.0
 10
111.5566704365205
 20
-151.9752196885687
 30
0.0
 10
111.5566704365205
 20
-151.9752196885687
 30
0.0
 10
111.6476209573311
 20
-151.9752196885687
 30
0.0
 10
111.8443359095389
 20
-151.9707410644379
 30
0.0
 10
111.9859293339827
 20
-151.9624728352733
 30
0.0
 10
111.9859293339827
 20
-151.9624728352733
 30
0.0
 10
111.9859293339827
 20
-152.1402397623122
 30
0.0
 10
111.9859293339827
 20
-152.1402397623122
 30
0.0
 10
111.9035915518852
 20
-152.1357611381813
 30
0.0
 10
111.8825764694252
 20
-152.1357611381813
 30
0.0
 10
111.7027424850951
 20
-152.131627023599
 30
0.0
 10
111.6710476066308
 20
-152.2859673013382
 30
0.0
 10
111.6266058748711
 20
-152.3665825356931
 30
0.0
 10
111.5821641431114
 20
-152.4361734644951
 30
0.0
 10
111.7027424850951
 20
-152.4954291068414
 30
0.0
 10
111.8085069164923
 20
-152.5632974879008
 30
0.0
 10
111.9122042905983
 20
-152.6456352699983
 30
0.0
 10
111.9122042905983
 20
-152.6456352699983
 30
0.0
 10
111.7936930059057
 20
-152.8127224010329
 30
0.0
 10
111.7936930059057
 20
-152.8127224010329
 30
0.0
 10
111.770266356606
 20
-152.793774375864
 30
0.0
 10
111.7575195033106
 20
-152.7851616371509
 30
0.0
 10
111.64555390004
 20
-152.7007567977623
 30
0.0
 10
111.596978053698
 20
-152.662516237876
 30
0.0
 10
111.5377224113517
 20
-152.6266872448294
 30
0.0
 10
111.4571071769968
 20
-152.5822455130697
 30
0.0
 10
111.2455783142025
 20
-152.7682806692732
 30
0.0
 10
111.0405951328301
 20
-152.7917073185729
 30
0.0
 10
110.7505180929721
 20
-152.821335139746
 30
0.0
 10
110.7505180929721
 20
-152.821335139746
 30
0.0
 10
110.6468207188661
 20
-152.641501155416
 30
0.0
 10
110.6468207188661
 20
-152.641501155416
 30
0.0
 10
110.9644585226061
 20
-152.6373670408337
 30
0.0
 10
111.1398138828053
 20
-152.6118733342428
 30
0.0
 10
111.2920871032534
 20
-152.5019747882634
 30
0.0
 10
111.1735758185607
 20
-152.4509873750817
 30
0.0
 10
111.0850368645898
 20
-152.4234266111997
 30
0.0
 10
111.0488633619947
 20
-152.4110242674528
 30
0.0
 10
111.0299153368258
 20
-152.4382405217862
 30
0.0
 10
111.0151014262393
 20
-152.4575330565037
 30
0.0
 10
110.9875406623573
 20
-152.4912949922591
 30
0.0
 10
110.9875406623573
 20
-152.4912949922591
 30
0.0
 10
110.7908257101495
 20
-152.4086127006131
 30
0.0
 10
110.7908257101495
 20
-152.4086127006131
 30
0.0
 10
110.8735080017955
 20
-152.3283419758068
 30
0.0
 10
110.9348307014329
 20
-152.2332573404139
 30
0.0
 10
110.9916747769396
 20
-152.131627023599
 30
0.0
 10
110.8015055061538
 20
-152.1357611381813
 30
0.0
 10
110.7801459141452
 20
-152.1357611381813
 30
0.0
 10
110.6978081320477
 20
-152.1402397623122
 30
0.0
 10
110.6978081320477
 20
-152.1402397623122
 30
0.0
 10
110.6978081320477
 20
-151.9624728352733
 30
0.0
 10
110.6978081320477
 20
-151.9624728352733
 30
0.0
 10
110.8373344992004
 20
-151.9686740071467
 30
0.0
 10
111.0467963047036
 20
-151.972808121729
 30
0.0
 10
111.0722900112944
 20
-151.972808121729
 30
0.0
 10
111.0891709791721
 20
-151.9390461859735
 30
0.0
 10
111.1442925069361
 20
-151.8184678439898
 30
0.0
 10
111.163240532105
 20
-151.7443982910569
 30
0.0
 10
111.1442925069361
 20
-151.7443982910569
 30
0.0
 10
110.9665255798972
 20
-151.7509439724789
 30
0.0
 10
110.7718776849806
 20
-151.7636908257744
 30
0.0
 10
110.7718776849806
 20
-151.7636908257744
 30
0.0
 10
110.7718776849806
 20
-151.896671511505
 30
0.0
 10
110.7718776849806
 20
-151.896671511505
 30
0.0
 10
110.7233018386386
 20
-151.9221652180958
 30
0.0
 10
110.6640461962923
 20
-151.9538600965601
 30
0.0
 10
110.5307210010131
 20
-152.0196614203284
 30
0.0
 10
110.5307210010131
 20
-152.0196614203284
 30
0.0
 10
110.5307210010131
 20
-152.1653889593545
 30
0.0
 10
110.5307210010131
 20
-152.1653889593545
 30
0.0
 10
110.5307210010131
 20
-152.1653889593545
 30
0.0
 10
110.5307210010131
 20
-152.6328884167029
 30
0.0
 10
110.5307210010131
 20
-152.6328884167029
 30
0.0
 10
110.5307210010131
 20
-152.7600124401086
 30
0.0
 10
110.494547498418
 20
-152.8192680824549
 30
0.0
 10
110.211016139982
 20
-152.8106553437418
 30
0.0
 10
110.211016139982
 20
-152.8106553437418
 30
0.0
 10
110.1076632754244
 20
-152.6032605955297
 30
0.0
 10
110.1076632754244
 20
-152.6032605955297
 30
0.0
 10
110.1710530323531
 20
-152.6160074488251
 30
0.0
 10
110.2196288786951
 20
-152.620486072956
 30
0.0
 10
110.2599364958725
 20
-152.620486072956
 30
0.0
 10
110.3360731060965
 20
-152.620486072956
 30
0.0
 10
110.3464083925523
 20
-152.5970594236563
 30
0.0
 10
110.3464083925523
 20
-152.5316026094365
 30
0.0
 10
110.3464083925523
 20
-152.5316026094365
 30
0.0
 10
110.3464083925523
 20
-152.1019992024259
 30
0.0
 10
110.3464083925523
 20
-152.1019992024259
 30
0.0
 10
110.2492566998682
 20
-152.1423068196033
 30
0.0
 10
110.2323757319905
 20
-152.1485079914768
 30
0.0
 10
110.1858669429396
 20
-152.1674560166456
 30
0.0
 10
110.1817328283573
 20
-152.1888156086542
 30
0.0
 10
110.1772542042265
 20
-152.2184434298273
 30
0.0
 10
110.1583061790576
 20
-152.2184434298273
 30
0.0
 10
110.1496934403445
 20
-152.2184434298273
 30
0.0
 10
110.1393581538888
 20
-152.2139648056965
 30
0.0
 10
110.1328124724668
 20
-152.1908826659453
 30
0.0
 10
110.1328124724668
 20
-152.1908826659453
 30
0.0
 10
110.0801025115424
 20
-151.9983018283198
 30
0.0
 10
110.0801025115424
 20
-151.9983018283198
 30
0.0
 10
110.2258300505685
 20
-151.951793039269
 30
0.0
 10
110.2916313743368
 20
-151.9287108995178
 30
0.0
 10
110.3464083925523
 20
-151.9073513075093
 30
0.0
 10
110.3464083925523
 20
-151.9073513075093
 30
0.0
 10
110.3464083925523
 20
-151.4949733779249
 30
0.0
 10
110.3464083925523
 20
-151.4949733779249
 30
0.0
 10
110.3464083925523
 20
-151.4949733779249
 30
0.0
 10
110.2936984316279
 20
-151.4949733779249
 30
0.0
 10
110.2936984316279
 20
-151.4949733779249
 30
0.0
 10
110.2936984316279
 20
-151.4949733779249
 30
0.0
 10
110.2154947641128
 20
-151.4949733779249
 30
0.0
 10
110.2154947641128
 20
-151.4949733779249
 30
0.0
 10
110.1476263830533
 20
-151.4949733779249
 30
0.0
 10
110.1393581538888
 20
-151.4949733779249
 30
0.0
 10
110.1031846512936
 20
-151.5011745497983
 30
0.0
 10
110.1031846512936
 20
-151.5011745497983
 30
0.0
 10
110.1031846512936
 20
-151.3065266548817
 30
0.0
 10
110.1031846512936
 20
-151.3065266548817
 30
0.0
 10
110.1307454151756
 20
-151.3130723363037
 30
0.0
 10
110.1393581538888
 20
-151.3130723363037
 30
0.0
 10
110.2089490826908
 20
-151.3130723363037
 30
0.0
 10
110.2089490826908
 20
-151.3130723363037
 30
0.0
 10
110.34227427797
 20
-151.3130723363037
 30
0.0
 10
110.34227427797
 20
-151.3130723363037
 30
0.0
 10
110.34227427797
 20
-151.2431368979531
 30
0.0
 10
110.34227427797
 20
-151.1604546063071
 30
0.0
 10
110.3402072206788
 20
-151.1563204917248
 30
0.0
 10
110.3319389915142
 20
-150.9764865073948
 30
0.0
 10
110.3319389915142
 20
-150.9575384822259
 30
0.0
 10
110.3295274246745
 20
-150.911029693175
 30
0.0
 10
110.3295274246745
 20
-150.911029693175
 30
0.0
 10
110.5455349115997
 20
-150.9192979223396
 30
0.0
 10
110.5455349115997
 20
-150.9192979223396
 30
0.0
 10
110.5558701980555
 20
-150.9192979223396
 30
0.0
 10
110.577229790064
 20
-150.9217094891793
 30
0.0
 10
110.577229790064
 20
-150.938590457057
 30
0.0
 10
110.577229790064
 20
-150.9575384822259
 30
0.0
 10
110.5624158794774
 20
-150.9682182782302
 30
0.0
 10
110.5369221728866
 20
-150.987166303399
 30
0.0
 10
110.5369221728866
 20
-151.0378092070322
 30
0.0
 10
110.5307210010131
 20
-151.2665635472528
 30
0.0
 10
110.5327880583043
 20
-151.3130723363037
 30
0.0
 10
110.6616346294526
 20
-151.3130723363037
 30
0.0
 10
110.6743814827481
 20
-151.3130723363037
 30
0.0
 10
110.7718776849806
 20
-151.3044595975905
 30
0.0
 10
110.7718776849806
 20
-151.3044595975905
 30
0.0
 10
110.7718776849806
 20
-151.4991074925071
 30
0.0
 10
110.7718776849806
 20
-151.4991074925071
 30
0.0
 10
110.7336371250944
 20
-151.497040435216
 30
0.0
 10
110.6661132535835
 20
-151.4929063206337
 30
0.0
 10
110.5307210010131
 20
-151.4949733779249
 30
0.0
 10
110.5307210010131
 20
-151.4949733779249
 30
0.0
 10
110.5307210010131
 20
-151.8332817545764
 30
0.0
 10
110.5307210010131
 20
-151.8332817545764
 30
0.0
 10
110.5854980192286
 20
-151.8101996148252
 30
0.0
 10
110.6512993429969
 20
-151.7826388509432
 30
0.0
 10
110.6998751893389
 20
-151.7592122016435
 30
0.0
 10
110.6998751893389
 20
-151.7592122016435
 30
0.0
 10
110.6998751893389
 20
-151.5814452746046
 30
0.0
 10
110.6998751893389
 20
-151.5814452746046
 30
0.0
 10
110.8142523594492
 20
-151.5941921279001
 30
0.0
 10
110.9324191345933
 20
-151.5941921279001
 30
0.0
 10
111.0488633619947
 20
-151.5941921279001
 30
0.0
 10
111.0257812222435
 20
-151.4991074925071
 30
0.0
 10
110.9982204583615
 20
-151.4164252008612
 30
0.0
 10
110.9348307014329
 20
-151.2834445151305
 30
0.0
 10
110.8903889696732
 20
-151.2855115724217
 30
0.0
 10
110.8077066780272
 20
-151.289645687004
 30
0.0
 10
110.7698106276895
 20
-151.2917127442951
 30
0.0
 10
110.7698106276895
 20
-151.2917127442951
 30
0.0
 10
110.7698106276895
 20
-151.1118787599651
 30
0.0
 10
110.7698106276895
 20
-151.1118787599651
 30
0.0
 10
110.8945230842555
 20
-151.1204914986782
 30
0.0
 10
111.0678113871636
 20
-151.1246256132605
 30
0.0
 10
111.1504936788096
 20
-151.1246256132605
 30
0.0
 10
111.1504936788096
 20
-151.1246256132605
 30
0.0
 10
111.2328314609071
 20
-151.1246256132605
 30
0.0
 10
111.2328314609071
 20
-151.1246256132605
 30
0.0
 10
111.2328314609071
 20
-150.9616725968082
 30
0.0
 10
111.2328314609071
 20
-150.9513373103524
 30
0.0
 10
111.2307644036159
 20
-150.8962157825884
 30
0.0
 10
111.2307644036159
 20
-150.8962157825884
 30
0.0
 10
111.4550401197057
 20
-150.9217094891793
 30
0.0
 10
111.4550401197057
 20
-150.9217094891793
 30
0.0
 10
111.459174234288
 20
-150.9217094891793
 30
0.0
 10
111.4805338262965
 20
-150.9237765464704
 30
0.0
 10
111.4805338262965
 20
-150.9406575143481
 30
0.0
 10
111.4805338262965
 20
-150.9554714249347
 30
0.0
 10
111.4698540302923
 20
-150.9637396540993
 30
0.0
 10
111.4422932664102
 20
-150.9785535646859
 30
0.0
 10
111.4360920945368
 20
-151.0443548884542
 30
0.0
 10
111.4340250372456
 20
-151.0653699709142
 30
0.0
 10
111.4340250372456
 20
-151.1246256132605
 30
0.0
 10
111.4340250372456
 20
-151.1246256132605
 30
0.0
 10
111.5291096726385
 20
-151.1246256132605
 30
0.0
 10
111.5291096726385
 20
-151.1246256132605
 30
0.0
 10
111.6117919642845
 20
-151.1246256132605
 30
0.0
 10
111.7850802671926
 20
-151.1204914986782
 30
0.0
 10
111.9097927237586
 20
-151.1118787599651
 30
0.0
 10
111.9097927237586
 20
-151.1118787599651
 30
0.0
 10
111.9097927237586
 20
-151.2917127442951
 30
0.0
 10
111.9097927237586
 20
-151.2917127442951
 30
0.0
 10
111.8801649025855
 20
-151.289645687004
 30
0.0
 10
111.7619981274414
 20
-151.2855115724217
 30
0.0
 10
111.721690510264
 20
-151.2834445151305
 30
0.0
 10
111.7068765996774
 20
-151.3340874187637
 30
0.0
 10
111.673114663922
 20
-151.4460530220343
 30
0.0
 10
111.6073133401537
 20
-151.5859238987355
 30
0.0
 10
111.6496880146223
 20
-151.5859238987355
 30
0.0
 10
111.9270182011849
 20
-151.566631364018
 30
0.0
 10
111.9883409008223
 20
-151.5645643067269
 30
0.0
 10
111.9883409008223
 20
-151.5645643067269
 30
0.0
 10
111.9883409008223
 20
-151.7488769151878
 30
0.0
 10
111.9883409008223
 20
-151.7488769151878
 30
0.0
 10
111.9587130796492
 20
-151.7488769151878
 30
0.0
 10
111.9418321117715
 20
-151.7443982910569
 30
0.0
 10
111.7788790953191
 20
-151.7443982910569
 30
0.0
  0
HATCH
  5
18B
330
184
100
AcDbEntity
  8
レイヤー 1
 62
    18
420
        0
440
 33554687
100
AcDbHatch
 10
0.0
 20
0.0
 30
0.0
210
0.0
220
0.0
230
1.0
  2
SOLID
 70
     1
 71
     1
 91
        3
 92
        1
 93
        1
 72
     4
 94
        3
 73
     0
 74
     0
 95
       17
 96
       13
 40
0.0
 40
0.0
 40
0.0
 40
0.0
 40
1.0
 40
1.0
 40
1.0
 40
2.0
 40
2.0
 40
2.0
 40
3.0
 40
3.0
 40
3.0
 40
4.0
 40
4.0
 40
4.0
 40
4.0
 10
111.2138834357382
 20
-152.1295599663079
 10
111.1970024678605
 20
-152.159187787481
 10
111.1463595642273
 20
-152.2522053655828
 10
111.135679768223
 20
-152.2711533907516
 10
111.3261935485573
 20
-152.3304090330979
 10
111.3472086310173
 20
-152.3369547145199
 10
111.4192111266591
 20
-152.3641709688534
 10
111.4739881448745
 20
-152.2776990721736
 10
111.4974147941742
 20
-152.2036295192407
 10
111.5122287047608
 20
-152.1295599663079
 10
111.5122287047608
 20
-152.1295599663079
 10
111.2138834357382
 20
-152.1295599663079
 10
111.2138834357382
 20
-152.1295599663079
 97
        0
 97
        1
330
188
 92
        1
 93
        1
 72
     4
 94
        3
 73
     0
 74
     0
 95
       20
 96
       16
 40
0.0
 40
0.0
 40
0.0
 40
0.0
 40
1.0
 40
1.0
 40
1.0
 40
2.0
 40
2.0
 40
2.0
 40
3.0
 40
3.0
 40
3.0
 40
4.0
 40
4.0
 40
4.0
 40
5.0
 40
5.0
 40
5.0
 40
5.0
 10
111.1504936788096
 20
-151.2789658909997
 10
111.1504936788096
 20
-151.2789658909997
 10
111.1187988003453
 20
-151.2789658909997
 10
111.1187988003453
 20
-151.2789658909997
 10
111.1653075893962
 20
-151.3785291505234
 10
111.1970024678605
 20
-151.4587998753297
 10
111.2307644036159
 20
-151.5859238987355
 10
111.2307644036159
 20
-151.5859238987355
 10
111.4381591518279
 20
-151.5859238987355
 10
111.4381591518279
 20
-151.5859238987355
 10
111.4698540302923
 20
-151.4929063206337
 10
111.4932806795919
 20
-151.4081569716966
 10
111.5163628193431
 20
-151.2789658909997
 10
111.5163628193431
 20
-151.2789658909997
 10
111.1504936788096
 20
-151.2789658909997
 10
111.1504936788096
 20
-151.2789658909997
 97
        0
 97
        1
330
189
 92
        1
 93
        1
 72
     4
 94
        3
 73
     0
 74
     0
 95
      242
 96
      238
 40
0.0
 40
0.0
 40
0.0
 40
0.0
 40
1.0
 40
1.0
 40
1.0
 40
2.0
 40
2.0
 40
2.0
 40
3.0
 40
3.0
 40
3.0
 40
4.0
 40
4.0
 40
4.0
 40
5.0
 40
5.0
 40
5.0
 40
6.0
 40
6.0
 40
6.0
 40
7.0
 40
7.0
 40
7.0
 40
8.0
 40
8.0
 40
8.0
 40
9.0
 40
9.0
 40
9.0
 40
10.0
 40
10.0
 40
10.0
 40
11.0
 40
11.0
 40
11.0
 40
12.0
 40
12.0
 40
12.0
 40
13.0
 40
13.0
 40
13.0
 40
14.0
 40
14.0
 40
14.0
 40
15.0
 40
15.0
 40
15.0
 40
16.0
 40
16.0
 40
16.0
 40
17.0
 40
17.0
 40
17.0
 40
18.0
 40
18.0
 40
18.0
 40
19.0
 40
19.0
 40
19.0
 40
20.0
 40
20.0
 40
20.0
 40
21.0
 40
21.0
 40
21.0
 40
22.0
 40
22.0
 40
22.0
 40
23.0
 40
23.0
 40
23.0
 40
24.0
 40
24.0
 40
24.0
 40
25.0
 40
25.0
 40
25.0
 40
26.0
 40
26.0
 40
26.0
 40
27.0
 40
27.0
 40
27.0
 40
28.0
 40
28.0
 40
28.0
 40
29.0
 40
29.0
 40
29.0
 40
30.0
 40
30.0
 40
30.0
 40
31.0
 40
31.0
 40
31.0
 40
32.0
 40
32.0
 40
32.0
 40
33.0
 40
33.0
 40
33.0
 40
34.0
 40
34.0
 40
34.0
 40
35.0
 40
35.0
 40
35.0
 40
36.0
 40
36.0
 40
36.0
 40
37.0
 40
37.0
 40
37.0
 40
38.0
 40
38.0
 40
38.0
 40
39.0
 40
39.0
 40
39.0
 40
40.0
 40
40.0
 40
40.0
 40
41.0
 40
41.0
 40
41.0
 40
42.0
 40
42.0
 40
42.0
 40
43.0
 40
43.0
 40
43.0
 40
44.0
 40
44.0
 40
44.0
 40
45.0
 40
45.0
 40
45.0
 40
46.0
 40
46.0
 40
46.0
 40
47.0
 40
47.0
 40
47.0
 40
48.0
 40
48.0
 40
48.0
 40
49.0
 40
49.0
 40
49.0
 40
50.0
 40
50.0
 40
50.0
 40
51.0
 40
51.0
 40
51.0
 40
52.0
 40
52.0
 40
52.0
 40
53.0
 40
53.0
 40
53.0
 40
54.0
 40
54.0
 40
54.0
 40
55.0
 40
55.0
 40
55.0
 40
56.0
 40
56.0
 40
56.0
 40
57.0
 40
57.0
 40
57.0
 40
58.0
 40
58.0
 40
58.0
 40
59.0
 40
59.0
 40
59.0
 40
60.0
 40
60.0
 40
60.0
 40
61.0
 40
61.0
 40
61.0
 40
62.0
 40
62.0
 40
62.0
 40
63.0
 40
63.0
 40
63.0
 40
64.0
 40
64.0
 40
64.0
 40
65.0
 40
65.0
 40
65.0
 40
66.0
 40
66.0
 40
66.0
 40
67.0
 40
67.0
 40
67.0
 40
68.0
 40
68.0
 40
68.0
 40
69.0
 40
69.0
 40
69.0
 40
70.0
 40
70.0
 40
70.0
 40
71.0
 40
71.0
 40
71.0
 40
72.0
 40
72.0
 40
72.0
 40
73.0
 40
73.0
 40
73.0
 40
74.0
 40
74.0
 40
74.0
 40
75.0
 40
75.0
 40
75.0
 40
76.0
 40
76.0
 40
76.0
 40
77.0
 40
77.0
 40
77.0
 40
78.0
 40
78.0
 40
78.0
 40
79.0
 40
79.0
 40
79.0
 40
79.0
 10
111.7788790953191
 20
-151.7443982910569
 10
111.7788790953191
 20
-151.7443982910569
 10
111.5249755580562
 20
-151.7443982910569
 10
111.5249755580562
 20
-151.7443982910569
 10
111.5249755580562
 20
-151.7443982910569
 10
111.2476453714936
 20
-151.7443982910569
 10
111.2476453714936
 20
-151.7443982910569
 10
111.2476453714936
 20
-151.7443982910569
 10
111.3747693948994
 20
-151.7867729655255
 10
111.3747693948994
 20
-151.7867729655255
 10
111.3854491909036
 20
-151.7909070801078
 10
111.3978515346505
 20
-151.7974527615298
 10
111.3978515346505
 20
-151.8101996148252
 10
111.3978515346505
 20
-151.8312146972852
 10
111.3661566561862
 20
-151.8374158691587
 10
111.3451415737262
 20
-151.8418944932895
 10
111.3344617777219
 20
-151.8649766330407
 10
111.3048339565488
 20
-151.930777956809
 10
111.2858859313799
 20
-151.9752196885687
 10
111.2858859313799
 20
-151.9752196885687
 10
111.5566704365205
 20
-151.9752196885687
 10
111.5566704365205
 20
-151.9752196885687
 10
111.6476209573311
 20
-151.9752196885687
 10
111.8443359095389
 20
-151.9707410644379
 10
111.9859293339827
 20
-151.9624728352733
 10
111.9859293339827
 20
-151.9624728352733
 10
111.9859293339827
 20
-152.1402397623122
 10
111.9859293339827
 20
-152.1402397623122
 10
111.9035915518852
 20
-152.1357611381813
 10
111.8825764694252
 20
-152.1357611381813
 10
111.7027424850951
 20
-152.131627023599
 10
111.6710476066308
 20
-152.2859673013382
 10
111.6266058748711
 20
-152.3665825356931
 10
111.5821641431114
 20
-152.4361734644951
 10
111.7027424850951
 20
-152.4954291068414
 10
111.8085069164923
 20
-152.5632974879008
 10
111.9122042905983
 20
-152.6456352699983
 10
111.9122042905983
 20
-152.6456352699983
 10
111.7936930059057
 20
-152.8127224010329
 10
111.7936930059057
 20
-152.8127224010329
 10
111.770266356606
 20
-152.793774375864
 10
111.7575195033106
 20
-152.7851616371509
 10
111.64555390004
 20
-152.7007567977623
 10
111.596978053698
 20
-152.662516237876
 10
111.5377224113517
 20
-152.6266872448294
 10
111.4571071769968
 20
-152.5822455130697
 10
111.2455783142025
 20
-152.7682806692732
 10
111.0405951328301
 20
-152.7917073185729
 10
110.7505180929721
 20
-152.821335139746
 10
110.7505180929721
 20
-152.821335139746
 10
110.6468207188661
 20
-152.641501155416
 10
110.6468207188661
 20
-152.641501155416
 10
110.9644585226061
 20
-152.6373670408337
 10
111.1398138828053
 20
-152.6118733342428
 10
111.2920871032534
 20
-152.5019747882634
 10
111.1735758185607
 20
-152.4509873750817
 10
111.0850368645898
 20
-152.4234266111997
 10
111.0488633619947
 20
-152.4110242674528
 10
111.0299153368258
 20
-152.4382405217862
 10
111.0151014262393
 20
-152.4575330565037
 10
110.9875406623573
 20
-152.4912949922591
 10
110.9875406623573
 20
-152.4912949922591
 10
110.7908257101495
 20
-152.4086127006131
 10
110.7908257101495
 20
-152.4086127006131
 10
110.8735080017955
 20
-152.3283419758068
 10
110.9348307014329
 20
-152.2332573404139
 10
110.9916747769396
 20
-152.131627023599
 10
110.8015055061538
 20
-152.1357611381813
 10
110.7801459141452
 20
-152.1357611381813
 10
110.6978081320477
 20
-152.1402397623122
 10
110.6978081320477
 20
-152.1402397623122
 10
110.6978081320477
 20
-151.9624728352733
 10
110.6978081320477
 20
-151.9624728352733
 10
110.8373344992004
 20
-151.9686740071467
 10
111.0467963047036
 20
-151.972808121729
 10
111.0722900112944
 20
-151.972808121729
 10
111.0891709791721
 20
-151.9390461859735
 10
111.1442925069361
 20
-151.8184678439898
 10
111.163240532105
 20
-151.7443982910569
 10
111.1442925069361
 20
-151.7443982910569
 10
110.9665255798972
 20
-151.7509439724789
 10
110.7718776849806
 20
-151.7636908257744
 10
110.7718776849806
 20
-151.7636908257744
 10
110.7718776849806
 20
-151.896671511505
 10
110.7718776849806
 20
-151.896671511505
 10
110.7233018386386
 20
-151.9221652180958
 10
110.6640461962923
 20
-151.9538600965601
 10
110.5307210010131
 20
-152.0196614203284
 10
110.5307210010131
 20
-152.0196614203284
 10
110.5307210010131
 20
-152.1653889593545
 10
110.5307210010131
 20
-152.1653889593545
 10
110.5307210010131
 20
-152.1653889593545
 10
110.5307210010131
 20
-152.6328884167029
 10
110.5307210010131
 20
-152.6328884167029
 10
110.5307210010131
 20
-152.7600124401086
 10
110.494547498418
 20
-152.8192680824549
 10
110.211016139982
 20
-152.8106553437418
 10
110.211016139982
 20
-152.8106553437418
 10
110.1076632754244
 20
-152.6032605955297
 10
110.1076632754244
 20
-152.6032605955297
 10
110.1710530323531
 20
-152.6160074488251
 10
110.2196288786951
 20
-152.620486072956
 10
110.2599364958725
 20
-152.620486072956
 10
110.3360731060965
 20
-152.620486072956
 10
110.3464083925523
 20
-152.5970594236563
 10
110.3464083925523
 20
-152.5316026094365
 10
110.3464083925523
 20
-152.5316026094365
 10
110.3464083925523
 20
-152.1019992024259
 10
110.3464083925523
 20
-152.1019992024259
 10
110.2492566998682
 20
-152.1423068196033
 10
110.2323757319905
 20
-152.1485079914768
 10
110.1858669429396
 20
-152.1674560166456
 10
110.1817328283573
 20
-152.1888156086542
 10
110.1772542042265
 20
-152.2184434298273
 10
110.1583061790576
 20
-152.2184434298273
 10
110.1496934403445
 20
-152.2184434298273
 10
110.1393581538888
 20
-152.2139648056965
 10
110.1328124724668
 20
-152.1908826659453
 10
110.1328124724668
 20
-152.1908826659453
 10
110.0801025115424
 20
-151.9983018283198
 10
110.0801025115424
 20
-151.9983018283198
 10
110.2258300505685
 20
-151.951793039269
 10
110.2916313743368
 20
-151.9287108995178
 10
110.3464083925523
 20
-151.9073513075093
 10
110.3464083925523
 20
-151.9073513075093
 10
110.3464083925523
 20
-151.4949733779249
 10
110.3464083925523
 20
-151.4949733779249
 10
110.3464083925523
 20
-151.4949733779249
 10
110.2936984316279
 20
-151.4949733779249
 10
110.2936984316279
 20
-151.4949733779249
 10
110.2936984316279
 20
-151.4949733779249
 10
110.2154947641128
 20
-151.4949733779249
 10
110.2154947641128
 20
-151.4949733779249
 10
110.1476263830533
 20
-151.4949733779249
 10
110.1393581538888
 20
-151.4949733779249
 10
110.1031846512936
 20
-151.5011745497983
 10
110.1031846512936
 20
-151.5011745497983
 10
110.1031846512936
 20
-151.3065266548817
 10
110.1031846512936
 20
-151.3065266548817
 10
110.1307454151756
 20
-151.3130723363037
 10
110.1393581538888
 20
-151.3130723363037
 10
110.2089490826908
 20
-151.3130723363037
 10
110.2089490826908
 20
-151.3130723363037
 10
110.34227427797
 20
-151.3130723363037
 10
110.34227427797
 20
-151.3130723363037
 10
110.34227427797
 20
-151.2431368979531
 10
110.34227427797
 20
-151.1604546063071
 10
110.3402072206788
 20
-151.1563204917248
 10
110.3319389915142
 20
-150.9764865073948
 10
110.3319389915142
 20
-150.9575384822259
 10
110.3295274246745
 20
-150.911029693175
 10
110.3295274246745
 20
-150.911029693175
 10
110.5455349115997
 20
-150.9192979223396
 10
110.5455349115997
 20
-150.9192979223396
 10
110.5558701980555
 20
-150.9192979223396
 10
110.577229790064
 20
-150.9217094891793
 10
110.577229790064
 20
-150.938590457057
 10
110.577229790064
 20
-150.9575384822259
 10
110.5624158794774
 20
-150.9682182782302
 10
110.5369221728866
 20
-150.987166303399
 10
110.5369221728866
 20
-151.0378092070322
 10
110.5307210010131
 20
-151.2665635472528
 10
110.5327880583043
 20
-151.3130723363037
 10
110.6616346294526
 20
-151.3130723363037
 10
110.6743814827481
 20
-151.3130723363037
 10
110.7718776849806
 20
-151.3044595975905
 10
110.7718776849806
 20
-151.3044595975905
 10
110.7718776849806
 20
-151.4991074925071
 10
110.7718776849806
 20
-151.4991074925071
 10
110.7336371250944
 20
-151.497040435216
 10
110.6661132535835
 20
-151.4929063206337
 10
110.5307210010131
 20
-151.4949733779249
 10
110.5307210010131
 20
-151.4949733779249
 10
110.5307210010131
 20
-151.8332817545764
 10
110.5307210010131
 20
-151.8332817545764
 10
110.5854980192286
 20
-151.8101996148252
 10
110.6512993429969
 20
-151.7826388509432
 10
110.6998751893389
 20
-151.7592122016435
 10
110.6998751893389
 20
-151.7592122016435
 10
110.6998751893389
 20
-151.5814452746046
 10
110.6998751893389
 20
-151.5814452746046
 10
110.8142523594492
 20
-151.5941921279001
 10
110.9324191345933
 20
-151.5941921279001
 10
111.0488633619947
 20
-151.5941921279001
 10
111.0257812222435
 20
-151.4991074925071
 10
110.9982204583615
 20
-151.4164252008612
 10
110.9348307014329
 20
-151.2834445151305
 10
110.8903889696732
 20
-151.2855115724217
 10
110.8077066780272
 20
-151.289645687004
 10
110.7698106276895
 20
-151.2917127442951
 10
110.7698106276895
 20
-151.2917127442951
 10
110.7698106276895
 20
-151.1118787599651
 10
110.7698106276895
 20
-151.1118787599651
 10
110.8945230842555
 20
-151.1204914986782
 10
111.0678113871636
 20
-151.1246256132605
 10
111.1504936788096
 20
-151.1246256132605
 10
111.1504936788096
 20
-151.1246256132605
 10
111.2328314609071
 20
-151.1246256132605
 10
111.2328314609071
 20
-151.1246256132605
 10
111.2328314609071
 20
-150.9616725968082
 10
111.2328314609071
 20
-150.9513373103524
 10
111.2307644036159
 20
-150.8962157825884
 10
111.2307644036159
 20
-150.8962157825884
 10
111.4550401197057
 20
-150.9217094891793
 10
111.4550401197057
 20
-150.9217094891793
 10
111.459174234288
 20
-150.9217094891793
 10
111.4805338262965
 20
-150.9237765464704
 10
111.4805338262965
 20
-150.9406575143481
 10
111.4805338262965
 20
-150.9554714249347
 10
111.4698540302923
 20
-150.9637396540993
 10
111.4422932664102
 20
-150.9785535646859
 10
111.4360920945368
 20
-151.0443548884542
 10
111.4340250372456
 20
-151.0653699709142
 10
111.4340250372456
 20
-151.1246256132605
 10
111.4340250372456
 20
-151.1246256132605
 10
111.5291096726385
 20
-151.1246256132605
 10
111.5291096726385
 20
-151.1246256132605
 10
111.6117919642845
 20
-151.1246256132605
 10
111.7850802671926
 20
-151.1204914986782
 10
111.9097927237586
 20
-151.1118787599651
 10
111.9097927237586
 20
-151.1118787599651
 10
111.9097927237586
 20
-151.2917127442951
 10
111.9097927237586
 20
-151.2917127442951
 10
111.8801649025855
 20
-151.289645687004
 10
111.7619981274414
 20
-151.2855115724217
 10
111.721690510264
 20
-151.2834445151305
 10
111.7068765996774
 20
-151.3340874187637
 10
111.673114663922
 20
-151.4460530220343
 10
111.6073133401537
 20
-151.5859238987355
 10
111.6496880146223
 20
-151.5859238987355
 10
111.9270182011849
 20
-151.566631364018
 10
111.9883409008223
 20
-151.5645643067269
 10
111.9883409008223
 20
-151.5645643067269
 10
111.9883409008223
 20
-151.7488769151878
 10
111.9883409008223
 20
-151.7488769151878
 10
111.9587130796492
 20
-151.7488769151878
 10
111.9418321117715
 20
-151.7443982910569
 10
111.7788790953191
 20
-151.7443982910569
 97
        0
 97
        1
330
18A
 75
     2
 76
     1
 98
        1
 10
0.0
 20
0.0
450
        0
451
        0
460
0.0
461
0.0
452
        0
462
0.0
453
        0
470

  0
SPLINE
  5
18C
330
184
100
AcDbEntity
  8
レイヤー 1
100
AcDbSpline
210
0.0
220
0.0
230
1.0
 70
    11
 71
     3
 72
    17
 73
    13
 74
     0
 42
0.0000000001
 43
0.0000000001
 40
0.0
 40
0.0
 40
0.0
 40
0.0
 40
1.0
 40
1.0
 40
1.0
 40
2.0
 40
2.0
 40
2.0
 40
3.0
 40
3.0
 40
3.0
 40
4.0
 40
4.0
 40
4.0
 40
4.0
 10
113.6350965427718
 20
-152.5440049531834
 30
0.0
 10
113.6350965427718
 20
-152.5440049531834
 30
0.0
 10
112.928507458747
 20
-152.5440049531834
 30
0.0
 10
112.928507458747
 20
-152.5440049531834
 30
0.0
 10
112.928507458747
 20
-152.5440049531834
 30
0.0
 10
112.928507458747
 20
-152.6583821232937
 30
0.0
 10
112.928507458747
 20
-152.6583821232937
 30
0.0
 10
112.928507458747
 20
-152.6583821232937
 30
0.0
 10
113.6350965427718
 20
-152.6583821232937
 30
0.0
 10
113.6350965427718
 20
-152.6583821232937
 30
0.0
 10
113.6350965427718
 20
-152.6583821232937
 30
0.0
 10
113.6350965427718
 20
-152.5440049531834
 30
0.0
 10
113.6350965427718
 20
-152.5440049531834
 30
0.0
  0
SPLINE
  5
18D
330
184
100
AcDbEntity
  8
レイヤー 1
100
AcDbSpline
210
0.0
220
0.0
230
1.0
 70
    11
 71
     3
 72
    17
 73
    13
 74
     0
 42
0.0000000001
 43
0.0000000001
 40
0.0
 40
0.0
 40
0.0
 40
0.0
 40
1.0
 40
1.0
 40
1.0
 40
2.0
 40
2.0
 40
2.0
 40
3.0
 40
3.0
 40
3.0
 40
4.0
 40
4.0
 40
4.0
 40
4.0
 10
113.6350965427718
 20
-152.3007812119248
 30
0.0
 10
113.6350965427718
 20
-152.3007812119248
 30
0.0
 10
112.928507458747
 20
-152.3007812119248
 30
0.0
 10
112.928507458747
 20
-152.3007812119248
 30
0.0
 10
112.928507458747
 20
-152.3007812119248
 30
0.0
 10
112.928507458747
 20
-152.4151583820351
 30
0.0
 10
112.928507458747
 20
-152.4151583820351
 30
0.0
 10
112.928507458747
 20
-152.4151583820351
 30
0.0
 10
113.6350965427718
 20
-152.4151583820351
 30
0.0
 10
113.6350965427718
 20
-152.4151583820351
 30
0.0
 10
113.6350965427718
 20
-152.4151583820351
 30
0.0
 10
113.6350965427718
 20
-152.3007812119248
 30
0.0
 10
113.6350965427718
 20
-152.3007812119248
 30
0.0
  0
SPLINE
  5
18E
330
184
100
AcDbEntity
  8
レイヤー 1
100
AcDbSpline
210
0.0
220
0.0
230
1.0
 70
    11
 71
     3
 72
    17
 73
    13
 74
     0
 42
0.0000000001
 43
0.0000000001
 40
0.0
 40
0.0
 40
0.0
 40
0.0
 40
1.0
 40
1.0
 40
1.0
 40
2.0
 40
2.0
 40
2.0
 40
3.0
 40
3.0
 40
3.0
 40
4.0
 40
4.0
 40
4.0
 40
4.0
 10
113.6350965427718
 20
-152.0682372666704
 30
0.0
 10
113.6350965427718
 20
-152.0682372666704
 30
0.0
 10
112.928507458747
 20
-152.0682372666704
 30
0.0
 10
112.928507458747
 20
-152.0682372666704
 30
0.0
 10
112.928507458747
 20
-152.0682372666704
 30
0.0
 10
112.928507458747
 20
-152.1760687553587
 30
0.0
 10
112.928507458747
 20
-152.1760687553587
 30
0.0
 10
112.928507458747
 20
-152.1760687553587
 30
0.0
 10
113.6350965427718
 20
-152.1760687553587
 30
0.0
 10
113.6350965427718
 20
-152.1760687553587
 30
0.0
 10
113.6350965427718
 20
-152.1760687553587
 30
0.0
 10
113.6350965427718
 20
-152.0682372666704
 30
0.0
 10
113.6350965427718
 20
-152.0682372666704
 30
0.0
  0
SPLINE
  5
18F
330
184
100
AcDbEntity
  8
レイヤー 1
100
AcDbSpline
210
0.0
220
0.0
230
1.0
 70
     9
 71
     3
 72
   203
 73
   199
 74
     0
 42
0.0000000001
 43
0.0000000001
 40
0.0
 40
0.0
 40
0.0
 40
0.0
 40
1.0
 40
1.0
 40
1.0
 40
2.0
 40
2.0
 40
2.0
 40
3.0
 40
3.0
 40
3.0
 40
4.0
 40
4.0
 40
4.0
 40
5.0
 40
5.0
 40
5.0
 40
6.0
 40
6.0
 40
6.0
 40
7.0
 40
7.0
 40
7.0
 40
8.0
 40
8.0
 40
8.0
 40
9.0
 40
9.0
 40
9.0
 40
10.0
 40
10.0
 40
10.0
 40
11.0
 40
11.0
 40
11.0
 40
12.0
 40
12.0
 40
12.0
 40
13.0
 40
13.0
 40
13.0
 40
14.0
 40
14.0
 40
14.0
 40
15.0
 40
15.0
 40
15.0
 40
16.0
 40
16.0
 40
16.0
 40
17.0
 40
17.0
 40
17.0
 40
18.0
 40
18.0
 40
18.0
 40
19.0
 40
19.0
 40
19.0
 40
20.0
 40
20.0
 40
20.0
 40
21.0
 40
21.0
 40
21.0
 40
22.0
 40
22.0
 40
22.0
 40
23.0
 40
23.0
 40
23.0
 40
24.0
 40
24.0
 40
24.0
 40
25.0
 40
25.0
 40
25.0
 40
26.0
 40
26.0
 40
26.0
 40
27.0
 40
27.0
 40
27.0
 40
28.0
 40
28.0
 40
28.0
 40
29.0
 40
29.0
 40
29.0
 40
30.0
 40
30.0
 40
30.0
 40
31.0
 40
31.0
 40
31.0
 40
32.0
 40
32.0
 40
32.0
 40
33.0
 40
33.0
 40
33.0
 40
34.0
 40
34.0
 40
34.0
 40
35.0
 40
35.0
 40
35.0
 40
36.0
 40
36.0
 40
36.0
 40
37.0
 40
37.0
 40
37.0
 40
38.0
 40
38.0
 40
38.0
 40
39.0
 40
39.0
 40
39.0
 40
40.0
 40
40.0
 40
40.0
 40
41.0
 40
41.0
 40
41.0
 40
42.0
 40
42.0
 40
42.0
 40
43.0
 40
43.0
 40
43.0
 40
44.0
 40
44.0
 40
44.0
 40
45.0
 40
45.0
 40
45.0
 40
46.0
 40
46.0
 40
46.0
 40
47.0
 40
47.0
 40
47.0
 40
48.0
 40
48.0
 40
48.0
 40
49.0
 40
49.0
 40
49.0
 40
50.0
 40
50.0
 40
50.0
 40
51.0
 40
51.0
 40
51.0
 40
52.0
 40
52.0
 40
52.0
 40
53.0
 40
53.0
 40
53.0
 40
54.0
 40
54.0
 40
54.0
 40
55.0
 40
55.0
 40
55.0
 40
56.0
 40
56.0
 40
56.0
 40
57.0
 40
57.0
 40
57.0
 40
58.0
 40
58.0
 40
58.0
 40
59.0
 40
59.0
 40
59.0
 40
60.0
 40
60.0
 40
60.0
 40
61.0
 40
61.0
 40
61.0
 40
62.0
 40
62.0
 40
62.0
 40
63.0
 40
63.0
 40
63.0
 40
64.0
 40
64.0
 40
64.0
 40
65.0
 40
65.0
 40
65.0
 40
66.0
 40
66.0
 40
66.0
 40
66.0
 10
113.4700764690283
 20
-151.8122666721164
 30
0.0
 10
113.4700764690283
 20
-151.8122666721164
 30
0.0
 10
112.9116264908693
 20
-151.8122666721164
 30
0.0
 10
112.9116264908693
 20
-151.8122666721164
 30
0.0
 10
112.9012912044135
 20
-151.8567084038761
 30
0.0
 10
112.8926784657004
 20
-151.8884032823404
 30
0.0
 10
112.879931612405
 20
-151.9262993326781
 30
0.0
 10
112.9054253189959
 20
-151.9262993326781
 30
0.0
 10
112.9202392295824
 20
-151.9287108995178
 30
0.0
 10
112.9264404014559
 20
-151.9287108995178
 30
0.0
 10
112.9264404014559
 20
-151.9287108995178
 30
0.0
 10
113.114887124499
 20
-151.9287108995178
 30
0.0
 10
113.114887124499
 20
-151.9287108995178
 30
0.0
 10
113.114887124499
 20
-151.9287108995178
 30
0.0
 10
113.4893690037457
 20
-151.9287108995178
 30
0.0
 10
113.4893690037457
 20
-151.9287108995178
 30
0.0
 10
113.5400119073789
 20
-151.9287108995178
 30
0.0
 10
113.8235432658149
 20
-151.9159640462224
 30
0.0
 10
113.8552381442792
 20
-151.9159640462224
 30
0.0
 10
113.8531710869881
 20
-151.9431803005558
 30
0.0
 10
113.8511040296969
 20
-151.9624728352733
 30
0.0
 10
113.8511040296969
 20
-151.9921006564464
 30
0.0
 10
113.8490369724058
 20
-152.0237955349107
 30
0.0
 10
113.8490369724058
 20
-152.159187787481
 30
0.0
 10
113.8490369724058
 20
-152.186748551363
 30
0.0
 10
113.8490369724058
 20
-152.186748551363
 30
0.0
 10
113.8490369724058
 20
-152.4320393499128
 30
0.0
 10
113.8490369724058
 20
-152.4320393499128
 30
0.0
 10
113.8490369724058
 20
-152.4764810816725
 30
0.0
 10
113.8531710869881
 20
-152.6731960338803
 30
0.0
 10
113.8573052015704
 20
-152.8254692543283
 30
0.0
 10
113.8573052015704
 20
-152.8254692543283
 30
0.0
 10
113.6309624281895
 20
-152.8254692543283
 30
0.0
 10
113.6309624281895
 20
-152.8254692543283
 30
0.0
 10
113.6309624281895
 20
-152.8254692543283
 30
0.0
 10
113.6330294854806
 20
-152.7917073185729
 30
0.0
 10
113.6330294854806
 20
-152.7917073185729
 30
0.0
 10
113.6330294854806
 20
-152.7917073185729
 30
0.0
 10
112.9309190255867
 20
-152.7917073185729
 30
0.0
 10
112.9309190255867
 20
-152.7917073185729
 30
0.0
 10
112.9309190255867
 20
-152.7917073185729
 30
0.0
 10
112.9329860828778
 20
-152.8254692543283
 30
0.0
 10
112.9329860828778
 20
-152.8254692543283
 30
0.0
 10
112.9329860828778
 20
-152.8254692543283
 30
0.0
 10
112.7149115386615
 20
-152.8254692543283
 30
0.0
 10
112.7149115386615
 20
-152.8254692543283
 30
0.0
 10
112.7193901627923
 20
-152.7703477265643
 30
0.0
 10
112.7193901627923
 20
-152.7579453828174
 30
0.0
 10
112.7255913346658
 20
-152.6435682127072
 30
0.0
 10
112.7276583919569
 20
-152.6160074488251
 30
0.0
 10
112.7297254492481
 20
-152.482682253546
 30
0.0
 10
112.7297254492481
 20
-152.4637342283771
 30
0.0
 10
112.7297254492481
 20
-152.4637342283771
 30
0.0
 10
112.7297254492481
 20
-152.2608181042959
 30
0.0
 10
112.7297254492481
 20
-152.2608181042959
 30
0.0
 10
112.5901990820955
 20
-152.510243017428
 30
0.0
 10
112.4210448937697
 20
-152.641501155416
 30
0.0
 10
112.3152804623726
 20
-152.7069579696357
 30
0.0
 10
112.3152804623726
 20
-152.7069579696357
 30
0.0
 10
112.141647649916
 20
-152.5674316024831
 30
0.0
 10
112.141647649916
 20
-152.5674316024831
 30
0.0
 10
112.2305311134354
 20
-152.51678869885
 30
0.0
 10
112.3745361047189
 20
-152.4299722926216
 30
0.0
 10
112.5119954145803
 20
-152.235324397705
 30
0.0
 10
112.6029459353909
 20
-152.1082003742993
 30
0.0
 10
112.6684027496106
 20
-151.9645398925644
 30
0.0
 10
112.7021646853661
 20
-151.8122666721164
 30
0.0
 10
112.473754854694
 20
-151.8143337294075
 30
0.0
 10
112.293920870364
 20
-151.8205349012809
 30
0.0
 10
112.1988362349711
 20
-151.8226019585721
 30
0.0
 10
112.1988362349711
 20
-151.8226019585721
 30
0.0
 10
112.1988362349711
 20
-151.6451795410818
 30
0.0
 10
112.1988362349711
 20
-151.6451795410818
 30
0.0
 10
112.3955511871789
 20
-151.6513807129552
 30
0.0
 10
112.6790825456149
 20
-151.6555148275375
 30
0.0
 10
112.8292887087718
 20
-151.6555148275375
 30
0.0
 10
112.8292887087718
 20
-151.6555148275375
 30
0.0
 10
113.0428846288573
 20
-151.6555148275375
 30
0.0
 10
113.0428846288573
 20
-151.6555148275375
 30
0.0
 10
113.0428846288573
 20
-151.6555148275375
 30
0.0
 10
113.0428846288573
 20
-151.5476833388492
 30
0.0
 10
113.0428846288573
 20
-151.5476833388492
 30
0.0
 10
113.0428846288573
 20
-151.5476833388492
 30
0.0
 10
112.8968125802827
 20
-151.5476833388492
 30
0.0
 10
112.8968125802827
 20
-151.5476833388492
 30
0.0
 10
112.7276583919569
 20
-151.5476833388492
 30
0.0
 10
112.5585042036312
 20
-151.5518174534315
 30
0.0
 10
112.3914170725966
 20
-151.5583631348534
 30
0.0
 10
112.3914170725966
 20
-151.5583631348534
 30
0.0
 10
112.3914170725966
 20
-151.3871418892365
 30
0.0
 10
112.3914170725966
 20
-151.3871418892365
 30
0.0
 10
112.5457573503358
 20
-151.3974771756923
 30
0.0
 10
112.7317925065393
 20
-151.3974771756923
 30
0.0
 10
112.8968125802827
 20
-151.3974771756923
 30
0.0
 10
112.8968125802827
 20
-151.3974771756923
 30
0.0
 10
113.0428846288573
 20
-151.3974771756923
 30
0.0
 10
113.0428846288573
 20
-151.3974771756923
 30
0.0
 10
113.0428846288573
 20
-151.3974771756923
 30
0.0
 10
113.0428846288573
 20
-151.2789658909997
 30
0.0
 10
113.0428846288573
 20
-151.2789658909997
 30
0.0
 10
113.0428846288573
 20
-151.2789658909997
 30
0.0
 10
112.9116264908693
 20
-151.2789658909997
 30
0.0
 10
112.9116264908693
 20
-151.2789658909997
 30
0.0
 10
112.8651177018184
 20
-151.2789658909997
 30
0.0
 10
112.6622015777372
 20
-151.2875786297128
 30
0.0
 10
112.6198269032686
 20
-151.2875786297128
 30
0.0
 10
112.4165662696389
 20
-151.2917127442951
 30
0.0
 10
112.3404296594149
 20
-151.2937798015863
 30
0.0
 10
112.2622259918997
 20
-151.2958468588774
 30
0.0
 10
112.2622259918997
 20
-151.2958468588774
 30
0.0
 10
112.2622259918997
 20
-151.1118787599651
 30
0.0
 10
112.2622259918997
 20
-151.1118787599651
 30
0.0
 10
112.37660316201
 20
-151.1204914986782
 30
0.0
 10
112.4210448937697
 20
-151.1204914986782
 30
0.0
 10
112.803795002181
 20
-151.1287597278428
 30
0.0
 10
112.7404052452524
 20
-151.0336750924499
 30
0.0
 10
112.7128444813704
 20
-151.0061143285679
 30
0.0
 10
112.6770154883238
 20
-150.9702853355213
 30
0.0
 10
112.6770154883238
 20
-150.9702853355213
 30
0.0
 10
112.852370848523
 20
-150.8876030438753
 30
0.0
 10
112.852370848523
 20
-150.8876030438753
 30
0.0
 10
112.8926784657004
 20
-150.9237765464704
 30
0.0
 10
112.9371201974602
 20
-150.966151220939
 30
0.0
 10
113.011189750393
 20
-151.0760497669185
 30
0.0
 10
113.011189750393
 20
-151.0760497669185
 30
0.0
 10
112.8968125802827
 20
-151.1308267851339
 30
0.0
 10
112.8968125802827
 20
-151.1308267851339
 30
0.0
 10
112.8968125802827
 20
-151.1308267851339
 30
0.0
 10
112.907492376287
 20
-151.1308267851339
 30
0.0
 10
112.907492376287
 20
-151.1308267851339
 30
0.0
 10
112.907492376287
 20
-151.1308267851339
 30
0.0
 10
113.4301133613994
 20
-151.1308267851339
 30
0.0
 10
113.4301133613994
 20
-151.1308267851339
 30
0.0
 10
113.4301133613994
 20
-151.1308267851339
 30
0.0
 10
113.334684216458
 20
-151.0867295629227
 30
0.0
 10
113.334684216458
 20
-151.0867295629227
 30
0.0
 10
113.36224498034
 20
-151.0484890030365
 30
0.0
 10
113.4194335653951
 20
-150.9682182782302
 30
0.0
 10
113.4342474759817
 20
-150.8941487252973
 30
0.0
 10
113.4342474759817
 20
-150.8941487252973
 30
0.0
 10
113.6478433960672
 20
-150.9575384822259
 30
0.0
 10
113.6478433960672
 20
-150.9575384822259
 30
0.0
 10
113.6564561347803
 20
-150.959605539517
 30
0.0
 10
113.6774712172403
 20
-150.9702853355213
 30
0.0
 10
113.6774712172403
 20
-150.9913004179813
 30
0.0
 10
113.6774712172403
 20
-151.0295409778676
 30
0.0
 10
113.6120144030206
 20
-151.0295409778676
 30
0.0
 10
113.5930663778517
 20
-151.0295409778676
 30
0.0
 10
113.5823865818474
 20
-151.0484890030365
 30
0.0
 10
113.5589599325477
 20
-151.0887966202139
 30
0.0
 10
113.5293321113746
 20
-151.1287597278428
 30
0.0
 10
113.9293076972121
 20
-151.1225585559693
 30
0.0
 10
113.9589355183852
 20
-151.1204914986782
 30
0.0
 10
114.0350721286093
 20
-151.1139458172562
 30
0.0
 10
114.0350721286093
 20
-151.1139458172562
 30
0.0
 10
114.0350721286093
 20
-151.2958468588774
 30
0.0
 10
114.0350721286093
 20
-151.2958468588774
 30
0.0
 10
114.0161241034404
 20
-151.2958468588774
 30
0.0
 10
113.9906303968496
 20
-151.2937798015863
 30
0.0
 10
113.7704887953421
 20
-151.2855115724217
 30
0.0
 10
113.7198458917089
 20
-151.2834445151305
 30
0.0
 10
113.4997042902014
 20
-151.2789658909997
 30
0.0
 10
113.4552625584417
 20
-151.2789658909997
 30
0.0
 10
113.4552625584417
 20
-151.2789658909997
 30
0.0
 10
113.2395995810651
 20
-151.2789658909997
 30
0.0
 10
113.2395995810651
 20
-151.2789658909997
 30
0.0
 10
113.2395995810651
 20
-151.2789658909997
 30
0.0
 10
113.2395995810651
 20
-151.3974771756923
 30
0.0
 10
113.2395995810651
 20
-151.3974771756923
 30
0.0
 10
113.2395995810651
 20
-151.3974771756923
 30
0.0
 10
113.4132323935217
 20
-151.3974771756923
 30
0.0
 10
113.4132323935217
 20
-151.3974771756923
 30
0.0
 10
113.5758409004255
 20
-151.3974771756923
 30
0.0
 10
113.7663546807598
 20
-151.3974771756923
 30
0.0
 10
113.9231065253387
 20
-151.3871418892365
 30
0.0
 10
113.9231065253387
 20
-151.3871418892365
 30
0.0
 10
113.9231065253387
 20
-151.5583631348534
 30
0.0
 10
113.9231065253387
 20
-151.5583631348534
 30
0.0
 10
113.7136447198355
 20
-151.5497503961403
 30
0.0
 10
113.5169297676277
 20
-151.5476833388492
 30
0.0
 10
113.4132323935217
 20
-151.5476833388492
 30
0.0
 10
113.4132323935217
 20
-151.5476833388492
 30
0.0
 10
113.2395995810651
 20
-151.5476833388492
 30
0.0
 10
113.2395995810651
 20
-151.5476833388492
 30
0.0
 10
113.2395995810651
 20
-151.5476833388492
 30
0.0
 10
113.2395995810651
 20
-151.6555148275375
 30
0.0
 10
113.2395995810651
 20
-151.6555148275375
 30
0.0
 10
113.2395995810651
 20
-151.6555148275375
 30
0.0
 10
113.4700764690283
 20
-151.6555148275375
 30
0.0
 10
113.4700764690283
 20
-151.6555148275375
 30
0.0
 10
113.6034016643075
 20
-151.6555148275375
 30
0.0
 10
113.8910671373258
 20
-151.6513807129552
 30
0.0
 10
114.100528942829
 20
-151.6451795410818
 30
0.0
 10
114.100528942829
 20
-151.6451795410818
 30
0.0
 10
114.100528942829
 20
-151.8226019585721
 30
0.0
 10
114.100528942829
 20
-151.8226019585721
 30
0.0
 10
113.9082926147521
 20
-151.8164007866987
 30
0.0
 10
113.5951334351429
 20
-151.8122666721164
 30
0.0
 10
113.4700764690283
 20
-151.8122666721164
 30
0.0
  0
HATCH
  5
190
330
184
100
AcDbEntity
  8
レイヤー 1
 62
    18
420
        0
440
 33554687
100
AcDbHatch
 10
0.0
 20
0.0
 30
0.0
210
0.0
220
0.0
230
1.0
  2
SOLID
 70
     1
 71
     1
 91
        4
 92
        1
 93
        1
 72
     4
 94
        3
 73
     0
 74
     0
 95
       17
 96
       13
 40
0.0
 40
0.0
 40
0.0
 40
0.0
 40
1.0
 40
1.0
 40
1.0
 40
2.0
 40
2.0
 40
2.0
 40
3.0
 40
3.0
 40
3.0
 40
4.0
 40
4.0
 40
4.0
 40
4.0
 10
113.6350965427718
 20
-152.5440049531834
 10
113.6350965427718
 20
-152.5440049531834
 10
112.928507458747
 20
-152.5440049531834
 10
112.928507458747
 20
-152.5440049531834
 10
112.928507458747
 20
-152.5440049531834
 10
112.928507458747
 20
-152.6583821232937
 10
112.928507458747
 20
-152.6583821232937
 10
112.928507458747
 20
-152.6583821232937
 10
113.6350965427718
 20
-152.6583821232937
 10
113.6350965427718
 20
-152.6583821232937
 10
113.6350965427718
 20
-152.6583821232937
 10
113.6350965427718
 20
-152.5440049531834
 10
113.6350965427718
 20
-152.5440049531834
 97
        0
 97
        1
330
18C
 92
        1
 93
        1
 72
     4
 94
        3
 73
     0
 74
     0
 95
       17
 96
       13
 40
0.0
 40
0.0
 40
0.0
 40
0.0
 40
1.0
 40
1.0
 40
1.0
 40
2.0
 40
2.0
 40
2.0
 40
3.0
 40
3.0
 40
3.0
 40
4.0
 40
4.0
 40
4.0
 40
4.0
 10
113.6350965427718
 20
-152.3007812119248
 10
113.6350965427718
 20
-152.3007812119248
 10
112.928507458747
 20
-152.3007812119248
 10
112.928507458747
 20
-152.3007812119248
 10
112.928507458747
 20
-152.3007812119248
 10
112.928507458747
 20
-152.4151583820351
 10
112.928507458747
 20
-152.4151583820351
 10
112.928507458747
 20
-152.4151583820351
 10
113.6350965427718
 20
-152.4151583820351
 10
113.6350965427718
 20
-152.4151583820351
 10
113.6350965427718
 20
-152.4151583820351
 10
113.6350965427718
 20
-152.3007812119248
 10
113.6350965427718
 20
-152.3007812119248
 97
        0
 97
        1
330
18D
 92
        1
 93
        1
 72
     4
 94
        3
 73
     0
 74
     0
 95
       17
 96
       13
 40
0.0
 40
0.0
 40
0.0
 40
0.0
 40
1.0
 40
1.0
 40
1.0
 40
2.0
 40
2.0
 40
2.0
 40
3.0
 40
3.0
 40
3.0
 40
4.0
 40
4.0
 40
4.0
 40
4.0
 10
113.6350965427718
 20
-152.0682372666704
 10
113.6350965427718
 20
-152.0682372666704
 10
112.928507458747
 20
-152.0682372666704
 10
112.928507458747
 20
-152.0682372666704
 10
112.928507458747
 20
-152.0682372666704
 10
112.928507458747
 20
-152.1760687553587
 10
112.928507458747
 20
-152.1760687553587
 10
112.928507458747
 20
-152.1760687553587
 10
113.6350965427718
 20
-152.1760687553587
 10
113.6350965427718
 20
-152.1760687553587
 10
113.6350965427718
 20
-152.1760687553587
 10
113.6350965427718
 20
-152.0682372666704
 10
113.6350965427718
 20
-152.0682372666704
 97
        0
 97
        1
330
18E
 92
        1
 93
        1
 72
     4
 94
        3
 73
     0
 74
     0
 95
      203
 96
      199
 40
0.0
 40
0.0
 40
0.0
 40
0.0
 40
1.0
 40
1.0
 40
1.0
 40
2.0
 40
2.0
 40
2.0
 40
3.0
 40
3.0
 40
3.0
 40
4.0
 40
4.0
 40
4.0
 40
5.0
 40
5.0
 40
5.0
 40
6.0
 40
6.0
 40
6.0
 40
7.0
 40
7.0
 40
7.0
 40
8.0
 40
8.0
 40
8.0
 40
9.0
 40
9.0
 40
9.0
 40
10.0
 40
10.0
 40
10.0
 40
11.0
 40
11.0
 40
11.0
 40
12.0
 40
12.0
 40
12.0
 40
13.0
 40
13.0
 40
13.0
 40
14.0
 40
14.0
 40
14.0
 40
15.0
 40
15.0
 40
15.0
 40
16.0
 40
16.0
 40
16.0
 40
17.0
 40
17.0
 40
17.0
 40
18.0
 40
18.0
 40
18.0
 40
19.0
 40
19.0
 40
19.0
 40
20.0
 40
20.0
 40
20.0
 40
21.0
 40
21.0
 40
21.0
 40
22.0
 40
22.0
 40
22.0
 40
23.0
 40
23.0
 40
23.0
 40
24.0
 40
24.0
 40
24.0
 40
25.0
 40
25.0
 40
25.0
 40
26.0
 40
26.0
 40
26.0
 40
27.0
 40
27.0
 40
27.0
 40
28.0
 40
28.0
 40
28.0
 40
29.0
 40
29.0
 40
29.0
 40
30.0
 40
30.0
 40
30.0
 40
31.0
 40
31.0
 40
31.0
 40
32.0
 40
32.0
 40
32.0
 40
33.0
 40
33.0
 40
33.0
 40
34.0
 40
34.0
 40
34.0
 40
35.0
 40
35.0
 40
35.0
 40
36.0
 40
36.0
 40
36.0
 40
37.0
 40
37.0
 40
37.0
 40
38.0
 40
38.0
 40
38.0
 40
39.0
 40
39.0
 40
39.0
 40
40.0
 40
40.0
 40
40.0
 40
41.0
 40
41.0
 40
41.0
 40
42.0
 40
42.0
 40
42.0
 40
43.0
 40
43.0
 40
43.0
 40
44.0
 40
44.0
 40
44.0
 40
45.0
 40
45.0
 40
45.0
 40
46.0
 40
46.0
 40
46.0
 40
47.0
 40
47.0
 40
47.0
 40
48.0
 40
48.0
 40
48.0
 40
49.0
 40
49.0
 40
49.0
 40
50.0
 40
50.0
 40
50.0
 40
51.0
 40
51.0
 40
51.0
 40
52.0
 40
52.0
 40
52.0
 40
53.0
 40
53.0
 40
53.0
 40
54.0
 40
54.0
 40
54.0
 40
55.0
 40
55.0
 40
55.0
 40
56.0
 40
56.0
 40
56.0
 40
57.0
 40
57.0
 40
57.0
 40
58.0
 40
58.0
 40
58.0
 40
59.0
 40
59.0
 40
59.0
 40
60.0
 40
60.0
 40
60.0
 40
61.0
 40
61.0
 40
61.0
 40
62.0
 40
62.0
 40
62.0
 40
63.0
 40
63.0
 40
63.0
 40
64.0
 40
64.0
 40
64.0
 40
65.0
 40
65.0
 40
65.0
 40
66.0
 40
66.0
 40
66.0
 40
66.0
 10
113.4700764690283
 20
-151.8122666721164
 10
113.4700764690283
 20
-151.8122666721164
 10
112.9116264908693
 20
-151.8122666721164
 10
112.9116264908693
 20
-151.8122666721164
 10
112.9012912044135
 20
-151.8567084038761
 10
112.8926784657004
 20
-151.8884032823404
 10
112.879931612405
 20
-151.9262993326781
 10
112.9054253189959
 20
-151.9262993326781
 10
112.9202392295824
 20
-151.9287108995178
 10
112.9264404014559
 20
-151.9287108995178
 10
112.9264404014559
 20
-151.9287108995178
 10
113.114887124499
 20
-151.9287108995178
 10
113.114887124499
 20
-151.9287108995178
 10
113.114887124499
 20
-151.9287108995178
 10
113.4893690037457
 20
-151.9287108995178
 10
113.4893690037457
 20
-151.9287108995178
 10
113.5400119073789
 20
-151.9287108995178
 10
113.8235432658149
 20
-151.9159640462224
 10
113.8552381442792
 20
-151.9159640462224
 10
113.8531710869881
 20
-151.9431803005558
 10
113.8511040296969
 20
-151.9624728352733
 10
113.8511040296969
 20
-151.9921006564464
 10
113.8490369724058
 20
-152.0237955349107
 10
113.8490369724058
 20
-152.159187787481
 10
113.8490369724058
 20
-152.186748551363
 10
113.8490369724058
 20
-152.186748551363
 10
113.8490369724058
 20
-152.4320393499128
 10
113.8490369724058
 20
-152.4320393499128
 10
113.8490369724058
 20
-152.4764810816725
 10
113.8531710869881
 20
-152.6731960338803
 10
113.8573052015704
 20
-152.8254692543283
 10
113.8573052015704
 20
-152.8254692543283
 10
113.6309624281895
 20
-152.8254692543283
 10
113.6309624281895
 20
-152.8254692543283
 10
113.6309624281895
 20
-152.8254692543283
 10
113.6330294854806
 20
-152.7917073185729
 10
113.6330294854806
 20
-152.7917073185729
 10
113.6330294854806
 20
-152.7917073185729
 10
112.9309190255867
 20
-152.7917073185729
 10
112.9309190255867
 20
-152.7917073185729
 10
112.9309190255867
 20
-152.7917073185729
 10
112.9329860828778
 20
-152.8254692543283
 10
112.9329860828778
 20
-152.8254692543283
 10
112.9329860828778
 20
-152.8254692543283
 10
112.7149115386615
 20
-152.8254692543283
 10
112.7149115386615
 20
-152.8254692543283
 10
112.7193901627923
 20
-152.7703477265643
 10
112.7193901627923
 20
-152.7579453828174
 10
112.7255913346658
 20
-152.6435682127072
 10
112.7276583919569
 20
-152.6160074488251
 10
112.7297254492481
 20
-152.482682253546
 10
112.7297254492481
 20
-152.4637342283771
 10
112.7297254492481
 20
-152.4637342283771
 10
112.7297254492481
 20
-152.2608181042959
 10
112.7297254492481
 20
-152.2608181042959
 10
112.5901990820955
 20
-152.510243017428
 10
112.4210448937697
 20
-152.641501155416
 10
112.3152804623726
 20
-152.7069579696357
 10
112.3152804623726
 20
-152.7069579696357
 10
112.141647649916
 20
-152.5674316024831
 10
112.141647649916
 20
-152.5674316024831
 10
112.2305311134354
 20
-152.51678869885
 10
112.3745361047189
 20
-152.4299722926216
 10
112.5119954145803
 20
-152.235324397705
 10
112.6029459353909
 20
-152.1082003742993
 10
112.6684027496106
 20
-151.9645398925644
 10
112.7021646853661
 20
-151.8122666721164
 10
112.473754854694
 20
-151.8143337294075
 10
112.293920870364
 20
-151.8205349012809
 10
112.1988362349711
 20
-151.8226019585721
 10
112.1988362349711
 20
-151.8226019585721
 10
112.1988362349711
 20
-151.6451795410818
 10
112.1988362349711
 20
-151.6451795410818
 10
112.3955511871789
 20
-151.6513807129552
 10
112.6790825456149
 20
-151.6555148275375
 10
112.8292887087718
 20
-151.6555148275375
 10
112.8292887087718
 20
-151.6555148275375
 10
113.0428846288573
 20
-151.6555148275375
 10
113.0428846288573
 20
-151.6555148275375
 10
113.0428846288573
 20
-151.6555148275375
 10
113.0428846288573
 20
-151.5476833388492
 10
113.0428846288573
 20
-151.5476833388492
 10
113.0428846288573
 20
-151.5476833388492
 10
112.8968125802827
 20
-151.5476833388492
 10
112.8968125802827
 20
-151.5476833388492
 10
112.7276583919569
 20
-151.5476833388492
 10
112.5585042036312
 20
-151.5518174534315
 10
112.3914170725966
 20
-151.5583631348534
 10
112.3914170725966
 20
-151.5583631348534
 10
112.3914170725966
 20
-151.3871418892365
 10
112.3914170725966
 20
-151.3871418892365
 10
112.5457573503358
 20
-151.3974771756923
 10
112.7317925065393
 20
-151.3974771756923
 10
112.8968125802827
 20
-151.3974771756923
 10
112.8968125802827
 20
-151.3974771756923
 10
113.0428846288573
 20
-151.3974771756923
 10
113.0428846288573
 20
-151.3974771756923
 10
113.0428846288573
 20
-151.3974771756923
 10
113.0428846288573
 20
-151.2789658909997
 10
113.0428846288573
 20
-151.2789658909997
 10
113.0428846288573
 20
-151.2789658909997
 10
112.9116264908693
 20
-151.2789658909997
 10
112.9116264908693
 20
-151.2789658909997
 10
112.8651177018184
 20
-151.2789658909997
 10
112.6622015777372
 20
-151.2875786297128
 10
112.6198269032686
 20
-151.2875786297128
 10
112.4165662696389
 20
-151.2917127442951
 10
112.3404296594149
 20
-151.2937798015863
 10
112.2622259918997
 20
-151.2958468588774
 10
112.2622259918997
 20
-151.2958468588774
 10
112.2622259918997
 20
-151.1118787599651
 10
112.2622259918997
 20
-151.1118787599651
 10
112.37660316201
 20
-151.1204914986782
 10
112.4210448937697
 20
-151.1204914986782
 10
112.803795002181
 20
-151.1287597278428
 10
112.7404052452524
 20
-151.0336750924499
 10
112.7128444813704
 20
-151.0061143285679
 10
112.6770154883238
 20
-150.9702853355213
 10
112.6770154883238
 20
-150.9702853355213
 10
112.852370848523
 20
-150.8876030438753
 10
112.852370848523
 20
-150.8876030438753
 10
112.8926784657004
 20
-150.9237765464704
 10
112.9371201974602
 20
-150.966151220939
 10
113.011189750393
 20
-151.0760497669185
 10
113.011189750393
 20
-151.0760497669185
 10
112.8968125802827
 20
-151.1308267851339
 10
112.8968125802827
 20
-151.1308267851339
 10
112.8968125802827
 20
-151.1308267851339
 10
112.907492376287
 20
-151.1308267851339
 10
112.907492376287
 20
-151.1308267851339
 10
112.907492376287
 20
-151.1308267851339
 10
113.4301133613994
 20
-151.1308267851339
 10
113.4301133613994
 20
-151.1308267851339
 10
113.4301133613994
 20
-151.1308267851339
 10
113.334684216458
 20
-151.0867295629227
 10
113.334684216458
 20
-151.0867295629227
 10
113.36224498034
 20
-151.0484890030365
 10
113.4194335653951
 20
-150.9682182782302
 10
113.4342474759817
 20
-150.8941487252973
 10
113.4342474759817
 20
-150.8941487252973
 10
113.6478433960672
 20
-150.9575384822259
 10
113.6478433960672
 20
-150.9575384822259
 10
113.6564561347803
 20
-150.959605539517
 10
113.6774712172403
 20
-150.9702853355213
 10
113.6774712172403
 20
-150.9913004179813
 10
113.6774712172403
 20
-151.0295409778676
 10
113.6120144030206
 20
-151.0295409778676
 10
113.5930663778517
 20
-151.0295409778676
 10
113.5823865818474
 20
-151.0484890030365
 10
113.5589599325477
 20
-151.0887966202139
 10
113.5293321113746
 20
-151.1287597278428
 10
113.9293076972121
 20
-151.1225585559693
 10
113.9589355183852
 20
-151.1204914986782
 10
114.0350721286093
 20
-151.1139458172562
 10
114.0350721286093
 20
-151.1139458172562
 10
114.0350721286093
 20
-151.2958468588774
 10
114.0350721286093
 20
-151.2958468588774
 10
114.0161241034404
 20
-151.2958468588774
 10
113.9906303968496
 20
-151.2937798015863
 10
113.7704887953421
 20
-151.2855115724217
 10
113.7198458917089
 20
-151.2834445151305
 10
113.4997042902014
 20
-151.2789658909997
 10
113.4552625584417
 20
-151.2789658909997
 10
113.4552625584417
 20
-151.2789658909997
 10
113.2395995810651
 20
-151.2789658909997
 10
113.2395995810651
 20
-151.2789658909997
 10
113.2395995810651
 20
-151.2789658909997
 10
113.2395995810651
 20
-151.3974771756923
 10
113.2395995810651
 20
-151.3974771756923
 10
113.2395995810651
 20
-151.3974771756923
 10
113.4132323935217
 20
-151.3974771756923
 10
113.4132323935217
 20
-151.3974771756923
 10
113.5758409004255
 20
-151.3974771756923
 10
113.7663546807598
 20
-151.3974771756923
 10
113.9231065253387
 20
-151.3871418892365
 10
113.9231065253387
 20
-151.3871418892365
 10
113.9231065253387
 20
-151.5583631348534
 10
113.9231065253387
 20
-151.5583631348534
 10
113.7136447198355
 20
-151.5497503961403
 10
113.5169297676277
 20
-151.5476833388492
 10
113.4132323935217
 20
-151.5476833388492
 10
113.4132323935217
 20
-151.5476833388492
 10
113.2395995810651
 20
-151.5476833388492
 10
113.2395995810651
 20
-151.5476833388492
 10
113.2395995810651
 20
-151.5476833388492
 10
113.2395995810651
 20
-151.6555148275375
 10
113.2395995810651
 20
-151.6555148275375
 10
113.2395995810651
 20
-151.6555148275375
 10
113.4700764690283
 20
-151.6555148275375
 10
113.4700764690283
 20
-151.6555148275375
 10
113.6034016643075
 20
-151.6555148275375
 10
113.8910671373258
 20
-151.6513807129552
 10
114.100528942829
 20
-151.6451795410818
 10
114.100528942829
 20
-151.6451795410818
 10
114.100528942829
 20
-151.8226019585721
 10
114.100528942829
 20
-151.8226019585721
 10
113.9082926147521
 20
-151.8164007866987
 10
113.5951334351429
 20
-151.8122666721164
 10
113.4700764690283
 20
-151.8122666721164
 97
        0
 97
        1
330
18F
 75
     2
 76
     1
 98
        1
 10
0.0
 20
0.0
450
        0
451
        0
460
0.0
461
0.0
452
        0
462
0.0
453
        0
470

  0
SPLINE
  5
191
330
184
100
AcDbEntity
  8
レイヤー 1
100
AcDbSpline
210
0.0
220
0.0
230
1.0
 70
     9
 71
     3
 72
    29
 73
    25
 74
     0
 42
0.0000000001
 43
0.0000000001
 40
0.0
 40
0.0
 40
0.0
 40
0.0
 40
1.0
 40
1.0
 40
1.0
 40
2.0
 40
2.0
 40
2.0
 40
3.0
 40
3.0
 40
3.0
 40
4.0
 40
4.0
 40
4.0
 40
5.0
 40
5.0
 40
5.0
 40
6.0
 40
6.0
 40
6.0
 40
7.0
 40
7.0
 40
7.0
 40
8.0
 40
8.0
 40
8.0
 40
8.0
 10
115.3455864511983
 20
-151.2600178658308
 30
0.0
 10
115.3455864511983
 20
-151.2600178658308
 30
0.0
 10
114.9924641639602
 20
-151.2600178658308
 30
0.0
 10
114.9924641639602
 20
-151.2600178658308
 30
0.0
 10
114.880154051141
 20
-151.2600178658308
 30
0.0
 10
114.7406276839884
 20
-151.2665635472528
 30
0.0
 10
114.6327961953001
 20
-151.2789658909997
 30
0.0
 10
114.6327961953001
 20
-151.2789658909997
 30
0.0
 10
114.6327961953001
 20
-151.0443548884542
 30
0.0
 10
114.6327961953001
 20
-151.0443548884542
 30
0.0
 10
114.7513074799927
 20
-151.0591687990407
 30
0.0
 10
114.9352755789051
 20
-151.063302913623
 30
0.0
 10
114.9924641639602
 20
-151.063302913623
 30
0.0
 10
114.9924641639602
 20
-151.063302913623
 30
0.0
 10
115.3455864511983
 20
-151.063302913623
 30
0.0
 10
115.3455864511983
 20
-151.063302913623
 30
0.0
 10
115.3648789859157
 20
-151.063302913623
 30
0.0
 10
115.5677951099969
 20
-151.063302913623
 30
0.0
 10
115.7093885344407
 20
-151.0443548884542
 30
0.0
 10
115.7093885344407
 20
-151.0443548884542
 30
0.0
 10
115.7093885344407
 20
-151.2789658909997
 30
0.0
 10
115.7093885344407
 20
-151.2789658909997
 30
0.0
 10
115.5529811994103
 20
-151.2600178658308
 30
0.0
 10
115.362467419076
 20
-151.2600178658308
 30
0.0
 10
115.3455864511983
 20
-151.2600178658308
 30
0.0
  0
SPLINE
  5
192
330
184
100
AcDbEntity
  8
レイヤー 1
100
AcDbSpline
210
0.0
220
0.0
230
1.0
 70
     9
 71
     3
 72
    47
 73
    43
 74
     0
 42
0.0000000001
 43
0.0000000001
 40
0.0
 40
0.0
 40
0.0
 40
0.0
 40
1.0
 40
1.0
 40
1.0
 40
2.0
 40
2.0
 40
2.0
 40
3.0
 40
3.0
 40
3.0
 40
4.0
 40
4.0
 40
4.0
 40
5.0
 40
5.0
 40
5.0
 40
6.0
 40
6.0
 40
6.0
 40
7.0
 40
7.0
 40
7.0
 40
8.0
 40
8.0
 40
8.0
 40
9.0
 40
9.0
 40
9.0
 40
10.0
 40
10.0
 40
10.0
 40
11.0
 40
11.0
 40
11.0
 40
12.0
 40
12.0
 40
12.0
 40
13.0
 40
13.0
 40
13.0
 40
14.0
 40
14.0
 40
14.0
 40
14.0
 10
115.4472167680132
 20
-151.7888400228167
 30
0.0
 10
115.4472167680132
 20
-151.7888400228167
 30
0.0
 10
115.3455864511983
 20
-151.7888400228167
 30
0.0
 10
115.3455864511983
 20
-151.7888400228167
 30
0.0
 10
115.3455864511983
 20
-151.875656429045
 30
0.0
 10
115.3245713687383
 20
-152.2649522188782
 30
0.0
 10
115.1278564165305
 20
-152.4847493108371
 30
0.0
 10
114.9755831960825
 20
-152.6542480087114
 30
0.0
 10
114.7681884478704
 20
-152.7238389375135
 30
0.0
 10
114.6834390989333
 20
-152.7513997013955
 30
0.0
 10
114.6834390989333
 20
-152.7513997013955
 30
0.0
 10
114.4887912040167
 20
-152.5843125703609
 30
0.0
 10
114.4887912040167
 20
-152.5843125703609
 30
0.0
 10
114.5862874062492
 20
-152.5715657170654
 30
0.0
 10
114.7616427664485
 20
-152.5484835773142
 30
0.0
 10
114.9500894894916
 20
-152.3600368542711
 30
0.0
 10
115.0241590424245
 20
-152.2880343586294
 30
0.0
 10
115.1278564165305
 20
-152.1485079914768
 30
0.0
 10
115.1278564165305
 20
-151.7888400228167
 30
0.0
 10
115.1278564165305
 20
-151.7888400228167
 30
0.0
 10
114.8970350190188
 20
-151.7888400228167
 30
0.0
 10
114.8970350190188
 20
-151.7888400228167
 30
0.0
 10
114.7109998628153
 20
-151.7888400228167
 30
0.0
 10
114.5249647066118
 20
-151.7933186469475
 30
0.0
 10
114.3385850408598
 20
-151.8081325575341
 30
0.0
 10
114.3385850408598
 20
-151.8081325575341
 30
0.0
 10
114.3385850408598
 20
-151.5879909560266
 30
0.0
 10
114.3385850408598
 20
-151.5879909560266
 30
0.0
 10
114.5270317639029
 20
-151.6028048666132
 30
0.0
 10
114.8126301796301
 20
-151.6069389811955
 30
0.0
 10
114.8970350190188
 20
-151.6069389811955
 30
0.0
 10
114.8970350190188
 20
-151.6069389811955
 30
0.0
 10
115.4472167680132
 20
-151.6069389811955
 30
0.0
 10
115.4472167680132
 20
-151.6069389811955
 30
0.0
 10
115.4661647931821
 20
-151.6069389811955
 30
0.0
 10
115.7834580873736
 20
-151.6069389811955
 30
0.0
 10
116.0122124275942
 20
-151.5879909560266
 30
0.0
 10
116.0122124275942
 20
-151.5879909560266
 30
0.0
 10
116.0122124275942
 20
-151.8081325575341
 30
0.0
 10
116.0122124275942
 20
-151.8081325575341
 30
0.0
 10
115.823765704551
 20
-151.7933186469475
 30
0.0
 10
115.6356634910563
 20
-151.7888400228167
 30
0.0
 10
115.4472167680132
 20
-151.7888400228167
 30
0.0
  0
HATCH
  5
193
330
184
100
AcDbEntity
  8
レイヤー 1
 62
    18
420
        0
440
 33554687
100
AcDbHatch
 10
0.0
 20
0.0
 30
0.0
210
0.0
220
0.0
230
1.0
  2
SOLID
 70
     1
 71
     1
 91
        2
 92
        1
 93
        1
 72
     4
 94
        3
 73
     0
 74
     0
 95
       29
 96
       25
 40
0.0
 40
0.0
 40
0.0
 40
0.0
 40
1.0
 40
1.0
 40
1.0
 40
2.0
 40
2.0
 40
2.0
 40
3.0
 40
3.0
 40
3.0
 40
4.0
 40
4.0
 40
4.0
 40
5.0
 40
5.0
 40
5.0
 40
6.0
 40
6.0
 40
6.0
 40
7.0
 40
7.0
 40
7.0
 40
8.0
 40
8.0
 40
8.0
 40
8.0
 10
115.3455864511983
 20
-151.2600178658308
 10
115.3455864511983
 20
-151.2600178658308
 10
114.9924641639602
 20
-151.2600178658308
 10
114.9924641639602
 20
-151.2600178658308
 10
114.880154051141
 20
-151.2600178658308
 10
114.7406276839884
 20
-151.2665635472528
 10
114.6327961953001
 20
-151.2789658909997
 10
114.6327961953001
 20
-151.2789658909997
 10
114.6327961953001
 20
-151.0443548884542
 10
114.6327961953001
 20
-151.0443548884542
 10
114.7513074799927
 20
-151.0591687990407
 10
114.9352755789051
 20
-151.063302913623
 10
114.9924641639602
 20
-151.063302913623
 10
114.9924641639602
 20
-151.063302913623
 10
115.3455864511983
 20
-151.063302913623
 10
115.3455864511983
 20
-151.063302913623
 10
115.3648789859157
 20
-151.063302913623
 10
115.5677951099969
 20
-151.063302913623
 10
115.7093885344407
 20
-151.0443548884542
 10
115.7093885344407
 20
-151.0443548884542
 10
115.7093885344407
 20
-151.2789658909997
 10
115.7093885344407
 20
-151.2789658909997
 10
115.5529811994103
 20
-151.2600178658308
 10
115.362467419076
 20
-151.2600178658308
 10
115.3455864511983
 20
-151.2600178658308
 97
        0
 97
        1
330
191
 92
        1
 93
        1
 72
     4
 94
        3
 73
     0
 74
     0
 95
       47
 96
       43
 40
0.0
 40
0.0
 40
0.0
 40
0.0
 40
1.0
 40
1.0
 40
1.0
 40
2.0
 40
2.0
 40
2.0
 40
3.0
 40
3.0
 40
3.0
 40
4.0
 40
4.0
 40
4.0
 40
5.0
 40
5.0
 40
5.0
 40
6.0
 40
6.0
 40
6.0
 40
7.0
 40
7.0
 40
7.0
 40
8.0
 40
8.0
 40
8.0
 40
9.0
 40
9.0
 40
9.0
 40
10.0
 40
10.0
 40
10.0
 40
11.0
 40
11.0
 40
11.0
 40
12.0
 40
12.0
 40
12.0
 40
13.0
 40
13.0
 40
13.0
 40
14.0
 40
14.0
 40
14.0
 40
14.0
 10
115.4472167680132
 20
-151.7888400228167
 10
115.4472167680132
 20
-151.7888400228167
 10
115.3455864511983
 20
-151.7888400228167
 10
115.3455864511983
 20
-151.7888400228167
 10
115.3455864511983
 20
-151.875656429045
 10
115.3245713687383
 20
-152.2649522188782
 10
115.1278564165305
 20
-152.4847493108371
 10
114.9755831960825
 20
-152.6542480087114
 10
114.7681884478704
 20
-152.7238389375135
 10
114.6834390989333
 20
-152.7513997013955
 10
114.6834390989333
 20
-152.7513997013955
 10
114.4887912040167
 20
-152.5843125703609
 10
114.4887912040167
 20
-152.5843125703609
 10
114.5862874062492
 20
-152.5715657170654
 10
114.7616427664485
 20
-152.5484835773142
 10
114.9500894894916
 20
-152.3600368542711
 10
115.0241590424245
 20
-152.2880343586294
 10
115.1278564165305
 20
-152.1485079914768
 10
115.1278564165305
 20
-151.7888400228167
 10
115.1278564165305
 20
-151.7888400228167
 10
114.8970350190188
 20
-151.7888400228167
 10
114.8970350190188
 20
-151.7888400228167
 10
114.7109998628153
 20
-151.7888400228167
 10
114.5249647066118
 20
-151.7933186469475
 10
114.3385850408598
 20
-151.8081325575341
 10
114.3385850408598
 20
-151.8081325575341
 10
114.3385850408598
 20
-151.5879909560266
 10
114.3385850408598
 20
-151.5879909560266
 10
114.5270317639029
 20
-151.6028048666132
 10
114.8126301796301
 20
-151.6069389811955
 10
114.8970350190188
 20
-151.6069389811955
 10
114.8970350190188
 20
-151.6069389811955
 10
115.4472167680132
 20
-151.6069389811955
 10
115.4472167680132
 20
-151.6069389811955
 10
115.4661647931821
 20
-151.6069389811955
 10
115.7834580873736
 20
-151.6069389811955
 10
116.0122124275942
 20
-151.5879909560266
 10
116.0122124275942
 20
-151.5879909560266
 10
116.0122124275942
 20
-151.8081325575341
 10
116.0122124275942
 20
-151.8081325575341
 10
115.823765704551
 20
-151.7933186469475
 10
115.6356634910563
 20
-151.7888400228167
 10
115.4472167680132
 20
-151.7888400228167
 97
        0
 97
        1
330
192
 75
     2
 76
     1
 98
        1
 10
0.0
 20
0.0
450
        0
451
        0
460
0.0
461
0.0
452
        0
462
0.0
453
        0
470

  0
SPLINE
  5
194
330
184
100
AcDbEntity
  8
レイヤー 1
100
AcDbSpline
210
0.0
220
0.0
230
1.0
 70
     9
 71
     3
 72
    29
 73
    25
 74
     0
 42
0.0000000001
 43
0.0000000001
 40
0.0
 40
0.0
 40
0.0
 40
0.0
 40
1.0
 40
1.0
 40
1.0
 40
2.0
 40
2.0
 40
2.0
 40
3.0
 40
3.0
 40
3.0
 40
4.0
 40
4.0
 40
4.0
 40
5.0
 40
5.0
 40
5.0
 40
6.0
 40
6.0
 40
6.0
 40
7.0
 40
7.0
 40
7.0
 40
8.0
 40
8.0
 40
8.0
 40
8.0
 10
117.29309892901
 20
-151.951793039269
 30
0.0
 10
117.29309892901
 20
-151.951793039269
 30
0.0
 10
116.8087185037839
 20
-151.951793039269
 30
0.0
 10
116.8087185037839
 20
-151.951793039269
 30
0.0
 10
116.7811577399019
 20
-151.951793039269
 30
0.0
 10
116.4638644457104
 20
-151.951793039269
 30
0.0
 10
116.2523355829161
 20
-151.9772867458598
 30
0.0
 10
116.2523355829161
 20
-151.9772867458598
 30
0.0
 10
116.2523355829161
 20
-151.7464653483481
 30
0.0
 10
116.2523355829161
 20
-151.7464653483481
 30
0.0
 10
116.4108099752376
 20
-151.7698919976478
 30
0.0
 10
116.6013237555719
 20
-151.771959054939
 30
0.0
 10
116.8087185037839
 20
-151.771959054939
 30
0.0
 10
116.8087185037839
 20
-151.771959054939
 30
0.0
 10
117.29309892901
 20
-151.771959054939
 30
0.0
 10
117.29309892901
 20
-151.771959054939
 30
0.0
 10
117.4791340852135
 20
-151.771959054939
 30
0.0
 10
117.665169241417
 20
-151.7698919976478
 30
0.0
 10
117.8494818498779
 20
-151.7464653483481
 30
0.0
 10
117.8494818498779
 20
-151.7464653483481
 30
0.0
 10
117.8494818498779
 20
-151.9772867458598
 30
0.0
 10
117.8494818498779
 20
-151.9772867458598
 30
0.0
 10
117.665169241417
 20
-151.9538600965601
 30
0.0
 10
117.4178113855761
 20
-151.951793039269
 30
0.0
 10
117.29309892901
 20
-151.951793039269
 30
0.0
  0
HATCH
  5
195
330
184
100
AcDbEntity
  8
レイヤー 1
 62
    18
420
        0
440
 33554687
100
AcDbHatch
 10
0.0
 20
0.0
 30
0.0
210
0.0
220
0.0
230
1.0
  2
SOLID
 70
     1
 71
     1
 91
        1
 92
        1
 93
        1
 72
     4
 94
        3
 73
     0
 74
     0
 95
       29
 96
       25
 40
0.0
 40
0.0
 40
0.0
 40
0.0
 40
1.0
 40
1.0
 40
1.0
 40
2.0
 40
2.0
 40
2.0
 40
3.0
 40
3.0
 40
3.0
 40
4.0
 40
4.0
 40
4.0
 40
5.0
 40
5.0
 40
5.0
 40
6.0
 40
6.0
 40
6.0
 40
7.0
 40
7.0
 40
7.0
 40
8.0
 40
8.0
 40
8.0
 40
8.0
 10
117.29309892901
 20
-151.951793039269
 10
117.29309892901
 20
-151.951793039269
 10
116.8087185037839
 20
-151.951793039269
 10
116.8087185037839
 20
-151.951793039269
 10
116.7811577399019
 20
-151.951793039269
 10
116.4638644457104
 20
-151.951793039269
 10
116.2523355829161
 20
-151.9772867458598
 10
116.2523355829161
 20
-151.9772867458598
 10
116.2523355829161
 20
-151.7464653483481
 10
116.2523355829161
 20
-151.7464653483481
 10
116.4108099752376
 20
-151.7698919976478
 10
116.6013237555719
 20
-151.771959054939
 10
116.8087185037839
 20
-151.771959054939
 10
116.8087185037839
 20
-151.771959054939
 10
117.29309892901
 20
-151.771959054939
 10
117.29309892901
 20
-151.771959054939
 10
117.4791340852135
 20
-151.771959054939
 10
117.665169241417
 20
-151.7698919976478
 10
117.8494818498779
 20
-151.7464653483481
 10
117.8494818498779
 20
-151.7464653483481
 10
117.8494818498779
 20
-151.9772867458598
 10
117.8494818498779
 20
-151.9772867458598
 10
117.665169241417
 20
-151.9538600965601
 10
117.4178113855761
 20
-151.951793039269
 10
117.29309892901
 20
-151.951793039269
 97
        0
 97
        1
330
194
 75
     2
 76
     1
 98
        1
 10
0.0
 20
0.0
450
        0
451
        0
460
0.0
461
0.0
452
        0
462
0.0
453
        0
470

  0
SPLINE
  5
196
330
184
100
AcDbEntity
  8
レイヤー 1
100
AcDbSpline
210
0.0
220
0.0
230
1.0
 70
     9
 71
     3
 72
    47
 73
    43
 74
     0
 42
0.0000000001
 43
0.0000000001
 40
0.0
 40
0.0
 40
0.0
 40
0.0
 40
1.0
 40
1.0
 40
1.0
 40
2.0
 40
2.0
 40
2.0
 40
3.0
 40
3.0
 40
3.0
 40
4.0
 40
4.0
 40
4.0
 40
5.0
 40
5.0
 40
5.0
 40
6.0
 40
6.0
 40
6.0
 40
7.0
 40
7.0
 40
7.0
 40
8.0
 40
8.0
 40
8.0
 40
9.0
 40
9.0
 40
9.0
 40
10.0
 40
10.0
 40
10.0
 40
11.0
 40
11.0
 40
11.0
 40
12.0
 40
12.0
 40
12.0
 40
13.0
 40
13.0
 40
13.0
 40
14.0
 40
14.0
 40
14.0
 40
14.0
 10
119.513118459705
 20
-151.3575140680634
 30
0.0
 10
119.443527530903
 20
-151.6365668023686
 30
0.0
 10
119.3670464111304
 20
-151.9411132432647
 30
0.0
 10
119.0542317410698
 20
-152.2732204480428
 30
0.0
 10
118.8172091716846
 20
-152.5229898707234
 30
0.0
 10
118.5719183731348
 20
-152.6225531302471
 30
0.0
 10
118.4661539417376
 20
-152.6645832951672
 30
0.0
 10
118.4661539417376
 20
-152.6645832951672
 30
0.0
 10
118.271506046821
 20
-152.482682253546
 30
0.0
 10
118.271506046821
 20
-152.482682253546
 30
0.0
 10
118.4575412030245
 20
-152.4361734644951
 30
0.0
 10
118.8192762289757
 20
-152.3431558863934
 30
0.0
 10
119.1155544407072
 20
-151.848095665163
 30
0.0
 10
119.2760958903198
 20
-151.5814452746046
 30
0.0
 10
119.2888427436153
 20
-151.4081569716966
 30
0.0
 10
119.2974554823284
 20
-151.3172064508859
 30
0.0
 10
119.2974554823284
 20
-151.3172064508859
 30
0.0
 10
118.7917154650937
 20
-151.3172064508859
 30
0.0
 10
118.7917154650937
 20
-151.3172064508859
 30
0.0
 10
118.6732041804011
 20
-151.3172064508859
 30
0.0
 10
118.2522135121036
 20
-151.3361544760548
 30
0.0
 10
118.0999402916556
 20
-151.3468342720591
 30
0.0
 10
118.0999402916556
 20
-151.3468342720591
 30
0.0
 10
118.0999402916556
 20
-151.1373724665559
 30
0.0
 10
118.0999402916556
 20
-151.1373724665559
 30
0.0
 10
118.2418782256478
 20
-151.1501193198514
 30
0.0
 10
118.5188639026619
 20
-151.1542534344336
 30
0.0
 10
118.6353081300634
 20
-151.1542534344336
 30
0.0
 10
118.6353081300634
 20
-151.1542534344336
 30
0.0
 10
118.9904974745926
 20
-151.1542534344336
 30
0.0
 10
118.9904974745926
 20
-151.1542534344336
 30
0.0
 10
119.0180582384746
 20
-151.1542534344336
 30
0.0
 10
119.1789441976358
 20
-151.1521863771425
 30
0.0
 10
119.2888427436153
 20
-151.1373724665559
 30
0.0
 10
119.3460313286704
 20
-151.1308267851339
 30
0.0
 10
119.3629122965481
 20
-151.1118787599651
 30
0.0
 10
119.3863389458478
 20
-151.0887966202139
 30
0.0
 10
119.3863389458478
 20
-151.0887966202139
 30
0.0
 10
119.5744411593425
 20
-151.2390027833708
 30
0.0
 10
119.5744411593425
 20
-151.2390027833708
 30
0.0
 10
119.5596272487559
 20
-151.268630604544
 30
0.0
 10
119.5492919623002
 20
-151.2875786297128
 30
0.0
 10
119.513118459705
 20
-151.3575140680634
 30
0.0
  0
HATCH
  5
197
330
184
100
AcDbEntity
  8
レイヤー 1
 62
    18
420
        0
440
 33554687
100
AcDbHatch
 10
0.0
 20
0.0
 30
0.0
210
0.0
220
0.0
230
1.0
  2
SOLID
 70
     1
 71
     1
 91
        1
 92
        1
 93
        1
 72
     4
 94
        3
 73
     0
 74
     0
 95
       47
 96
       43
 40
0.0
 40
0.0
 40
0.0
 40
0.0
 40
1.0
 40
1.0
 40
1.0
 40
2.0
 40
2.0
 40
2.0
 40
3.0
 40
3.0
 40
3.0
 40
4.0
 40
4.0
 40
4.0
 40
5.0
 40
5.0
 40
5.0
 40
6.0
 40
6.0
 40
6.0
 40
7.0
 40
7.0
 40
7.0
 40
8.0
 40
8.0
 40
8.0
 40
9.0
 40
9.0
 40
9.0
 40
10.0
 40
10.0
 40
10.0
 40
11.0
 40
11.0
 40
11.0
 40
12.0
 40
12.0
 40
12.0
 40
13.0
 40
13.0
 40
13.0
 40
14.0
 40
14.0
 40
14.0
 40
14.0
 10
119.513118459705
 20
-151.3575140680634
 10
119.443527530903
 20
-151.6365668023686
 10
119.3670464111304
 20
-151.9411132432647
 10
119.0542317410698
 20
-152.2732204480428
 10
118.8172091716846
 20
-152.5229898707234
 10
118.5719183731348
 20
-152.6225531302471
 10
118.4661539417376
 20
-152.6645832951672
 10
118.4661539417376
 20
-152.6645832951672
 10
118.271506046821
 20
-152.482682253546
 10
118.271506046821
 20
-152.482682253546
 10
118.4575412030245
 20
-152.4361734644951
 10
118.8192762289757
 20
-152.3431558863934
 10
119.1155544407072
 20
-151.848095665163
 10
119.2760958903198
 20
-151.5814452746046
 10
119.2888427436153
 20
-151.4081569716966
 10
119.2974554823284
 20
-151.3172064508859
 10
119.2974554823284
 20
-151.3172064508859
 10
118.7917154650937
 20
-151.3172064508859
 10
118.7917154650937
 20
-151.3172064508859
 10
118.6732041804011
 20
-151.3172064508859
 10
118.2522135121036
 20
-151.3361544760548
 10
118.0999402916556
 20
-151.3468342720591
 10
118.0999402916556
 20
-151.3468342720591
 10
118.0999402916556
 20
-151.1373724665559
 10
118.0999402916556
 20
-151.1373724665559
 10
118.2418782256478
 20
-151.1501193198514
 10
118.5188639026619
 20
-151.1542534344336
 10
118.6353081300634
 20
-151.1542534344336
 10
118.6353081300634
 20
-151.1542534344336
 10
118.9904974745926
 20
-151.1542534344336
 10
118.9904974745926
 20
-151.1542534344336
 10
119.0180582384746
 20
-151.1542534344336
 10
119.1789441976358
 20
-151.1521863771425
 10
119.2888427436153
 20
-151.1373724665559
 10
119.3460313286704
 20
-151.1308267851339
 10
119.3629122965481
 20
-151.1118787599651
 10
119.3863389458478
 20
-151.0887966202139
 10
119.3863389458478
 20
-151.0887966202139
 10
119.5744411593425
 20
-151.2390027833708
 10
119.5744411593425
 20
-151.2390027833708
 10
119.5596272487559
 20
-151.268630604544
 10
119.5492919623002
 20
-151.2875786297128
 10
119.513118459705
 20
-151.3575140680634
 97
        0
 97
        1
330
196
 75
     2
 76
     1
 98
        1
 10
0.0
 20
0.0
450
        0
451
        0
460
0.0
461
0.0
452
        0
462
0.0
453
        0
470

  0
SPLINE
  5
198
330
184
100
AcDbEntity
  8
レイヤー 1
100
AcDbSpline
210
0.0
220
0.0
230
1.0
 70
    11
 71
     3
 72
    17
 73
    13
 74
     0
 42
0.0000000001
 43
0.0000000001
 40
0.0
 40
0.0
 40
0.0
 40
0.0
 40
1.0
 40
1.0
 40
1.0
 40
2.0
 40
2.0
 40
2.0
 40
3.0
 40
3.0
 40
3.0
 40
4.0
 40
4.0
 40
4.0
 40
4.0
 10
119.9034477781838
 20
-151.1394395238471
 30
0.0
 10
119.9034477781838
 20
-151.1986951661933
 30
0.0
 10
119.9499565672347
 20
-151.2452039552442
 30
0.0
 10
120.009212209581
 20
-151.2452039552442
 30
0.0
 10
120.0684678519273
 20
-151.2452039552442
 30
0.0
 10
120.1170436982693
 20
-151.1986951661933
 30
0.0
 10
120.1170436982693
 20
-151.1394395238471
 30
0.0
 10
120.1170436982693
 20
-151.0801838815008
 30
0.0
 10
120.0684678519273
 20
-151.0316080351588
 30
0.0
 10
120.009212209581
 20
-151.0316080351588
 30
0.0
 10
119.9499565672347
 20
-151.0316080351588
 30
0.0
 10
119.9034477781838
 20
-151.0801838815008
 30
0.0
 10
119.9034477781838
 20
-151.1394395238471
 30
0.0
  0
SPLINE
  5
199
330
184
100
AcDbEntity
  8
レイヤー 1
100
AcDbSpline
210
0.0
220
0.0
230
1.0
 70
     9
 71
     3
 72
    17
 73
    13
 74
     0
 42
0.0000000001
 43
0.0000000001
 40
0.0
 40
0.0
 40
0.0
 40
0.0
 40
1.0
 40
1.0
 40
1.0
 40
2.0
 40
2.0
 40
2.0
 40
3.0
 40
3.0
 40
3.0
 40
4.0
 40
4.0
 40
4.0
 40
4.0
 10
120.2186740150842
 20
-151.1394395238471
 30
0.0
 10
120.2186740150842
 20
-151.2538166939574
 30
0.0
 10
120.1256564369824
 20
-151.3489013293503
 30
0.0
 10
120.009212209581
 20
-151.3489013293503
 30
0.0
 10
119.8948350394707
 20
-151.3489013293503
 30
0.0
 10
119.7997504040778
 20
-151.2538166939574
 30
0.0
 10
119.7997504040778
 20
-151.1394395238471
 30
0.0
 10
119.7997504040778
 20
-151.0229952964456
 30
0.0
 10
119.8948350394707
 20
-150.9299777183439
 30
0.0
 10
120.009212209581
 20
-150.9299777183439
 30
0.0
 10
120.1235893796913
 20
-150.9299777183439
 30
0.0
 10
120.2186740150842
 20
-151.0229952964456
 30
0.0
 10
120.2186740150842
 20
-151.1394395238471
 30
0.0
  0
HATCH
  5
19A
330
184
100
AcDbEntity
  8
レイヤー 1
 62
    18
420
        0
440
 33554687
100
AcDbHatch
 10
0.0
 20
0.0
 30
0.0
210
0.0
220
0.0
230
1.0
  2
SOLID
 70
     1
 71
     1
 91
        2
 92
        1
 93
        1
 72
     4
 94
        3
 73
     0
 74
     0
 95
       17
 96
       13
 40
0.0
 40
0.0
 40
0.0
 40
0.0
 40
1.0
 40
1.0
 40
1.0
 40
2.0
 40
2.0
 40
2.0
 40
3.0
 40
3.0
 40
3.0
 40
4.0
 40
4.0
 40
4.0
 40
4.0
 10
119.9034477781838
 20
-151.1394395238471
 10
119.9034477781838
 20
-151.1986951661933
 10
119.9499565672347
 20
-151.2452039552442
 10
120.009212209581
 20
-151.2452039552442
 10
120.0684678519273
 20
-151.2452039552442
 10
120.1170436982693
 20
-151.1986951661933
 10
120.1170436982693
 20
-151.1394395238471
 10
120.1170436982693
 20
-151.0801838815008
 10
120.0684678519273
 20
-151.0316080351588
 10
120.009212209581
 20
-151.0316080351588
 10
119.9499565672347
 20
-151.0316080351588
 10
119.9034477781838
 20
-151.0801838815008
 10
119.9034477781838
 20
-151.1394395238471
 97
        0
 97
        1
330
198
 92
        1
 93
        1
 72
     4
 94
        3
 73
     0
 74
     0
 95
       17
 96
       13
 40
0.0
 40
0.0
 40
0.0
 40
0.0
 40
1.0
 40
1.0
 40
1.0
 40
2.0
 40
2.0
 40
2.0
 40
3.0
 40
3.0
 40
3.0
 40
4.0
 40
4.0
 40
4.0
 40
4.0
 10
120.2186740150842
 20
-151.1394395238471
 10
120.2186740150842
 20
-151.2538166939574
 10
120.1256564369824
 20
-151.3489013293503
 10
120.009212209581
 20
-151.3489013293503
 10
119.8948350394707
 20
-151.3489013293503
 10
119.7997504040778
 20
-151.2538166939574
 10
119.7997504040778
 20
-151.1394395238471
 10
119.7997504040778
 20
-151.0229952964456
 10
119.8948350394707
 20
-150.9299777183439
 10
120.009212209581
 20
-150.9299777183439
 10
120.1235893796913
 20
-150.9299777183439
 10
120.2186740150842
 20
-151.0229952964456
 10
120.2186740150842
 20
-151.1394395238471
 97
        0
 97
        1
330
199
 75
     2
 76
     1
 98
        1
 10
0.0
 20
0.0
450
        0
451
        0
460
0.0
461
0.0
452
        0
462
0.0
453
        0
470

  0
ENDBLK
  5
187
330
184
100
AcDbEntity
  8
0
100
AcDbBlockEnd
  0
ENDSEC
  0
SECTION
  2
ENTITIES
  0
INSERT
  5
7A
330
70
100
AcDbEntity
  8
レイヤー 1
100
AcDbBlockReference
  2
Block_0
 10
0.0
 20
0.0
 30
0.0
  0
LINE
  5
B3
330
70
100
AcDbEntity
  8
レイヤー 1
  6
AI-Linetype-0
 62
   154
420
    23468
370
    25
100
AcDbLine
 10
65.56174371485403
 20
-148.0866199728651
 30
0.0
 11
75.56165290417921
 21
-148.0866199728651
 31
0.0
  0
LINE
  5
B5
330
70
100
AcDbEntity
  8
レイヤー 1
  6
AI-Linetype-1
 62
   154
420
    23468
370
    25
100
AcDbLine
 10
105.117797705695
 20
-148.0866199728651
 30
0.0
 11
115.6177693822625
 21
-148.0866199728651
 31
0.0
  0
LINE
  5
B7
330
70
100
AcDbEntity
  8
レイヤー 1
 62
    18
420
        0
370
    25
100
AcDbLine
 10
95.56319989389756
 20
-152.4808199717666
 30
0.0
 11
85.56276153791889
 21
-152.4808199717666
 31
0.0
  0
LINE
  5
B8
330
70
100
AcDbEntity
  8
レイヤー 1
 62
    18
420
        0
370
    25
100
AcDbLine
 10
65.56174371485403
 20
-146.9803794175861
 30
0.0
 11
65.56174371485403
 21
-147.4806183063498
 31
0.0
  0
LINE
  5
B9
330
70
100
AcDbEntity
  8
レイヤー 1
 62
    18
420
        0
370
    25
100
AcDbLine
 10
85.56276153791889
 20
-147.4806183063498
 30
0.0
 11
65.56174371485403
 21
-147.4806183063498
 31
0.0
  0
LINE
  5
BA
330
70
100
AcDbEntity
  8
レイヤー 1
 62
    18
420
        0
370
    25
100
AcDbLine
 10
65.56174371485403
 20
-146.9803794175861
 30
0.0
 11
66.07574092396309
 21
-147.3627905286015
 31
0.0
  0
LINE
  5
BB
330
70
100
AcDbEntity
  8
レイヤー 1
 62
    18
420
        0
370
    25
100
AcDbLine
 10
66.07574092396309
 20
-147.3627905286015
 30
0.0
 11
66.56081035603238
 21
-146.9452427509283
 31
0.0
  0
LINE
  5
BC
330
70
100
AcDbEntity
  8
レイヤー 1
 62
    18
420
        0
370
    25
100
AcDbLine
 10
67.07484284291833
 20
-147.3269835841661
 30
0.0
 11
67.56058255274862
 21
-146.9094358064926
 31
0.0
  0
LINE
  5
BD
330
70
100
AcDbEntity
  8
レイヤー 1
 62
    18
420
        0
370
    25
100
AcDbLine
 10
66.56081035603238
 20
-146.9452427509283
 30
0.0
 11
67.07484284291833
 21
-147.3269835841661
 31
0.0
  0
LINE
  5
BE
330
70
100
AcDbEntity
  8
レイヤー 1
 62
    18
420
        0
370
    25
100
AcDbLine
 10
67.56058255274862
 20
-146.9094358064926
 30
0.0
 11
68.07457976185735
 21
-147.2911413619529
 31
0.0
  0
LINE
  5
BF
330
70
100
AcDbEntity
  8
レイヤー 1
 62
    18
420
        0
370
    25
100
AcDbLine
 10
68.07457976185735
 20
-147.2911413619529
 30
0.0
 11
68.55964919392665
 21
-146.8735935842794
 31
0.0
  0
LINE
  5
C0
330
70
100
AcDbEntity
  8
レイヤー 1
 62
    18
420
        0
370
    25
100
AcDbLine
 10
68.55964919392665
 20
-146.8735935842794
 30
0.0
 11
69.07368168081259
 21
-147.2552991397396
 31
0.0
  0
LINE
  5
C1
330
70
100
AcDbEntity
  8
レイヤー 1
 62
    18
420
        0
370
    25
100
AcDbLine
 10
69.07368168081259
 20
-147.2552991397396
 30
0.0
 11
69.55875111288188
 21
-146.8377513620661
 31
0.0
  0
LINE
  5
C2
330
70
100
AcDbEntity
  8
レイヤー 1
 62
    18
420
        0
370
    25
100
AcDbLine
 10
69.55875111288188
 20
-146.8377513620661
 30
0.0
 11
70.07274832199094
 21
-147.2194921953042
 31
0.0
  0
LINE
  5
C3
330
70
100
AcDbEntity
  8
レイヤー 1
 62
    18
420
        0
370
    25
100
AcDbLine
 10
70.07274832199094
 20
-147.2194921953042
 30
0.0
 11
70.55852330959779
 21
-146.8019444176307
 31
0.0
  0
LINE
  5
C4
330
70
100
AcDbEntity
  8
レイヤー 1
 62
    18
420
        0
370
    25
100
AcDbLine
 10
70.55852330959779
 20
-146.8019444176307
 30
0.0
 11
71.07252051870716
 21
-147.1843555286465
 31
0.0
  0
LINE
  5
C5
330
70
100
AcDbEntity
  8
レイヤー 1
 62
    18
420
        0
370
    25
100
AcDbLine
 10
71.07252051870716
 20
-147.1843555286465
 30
0.0
 11
71.55758995077613
 21
-146.766807750973
 31
0.0
  0
LINE
  5
C6
330
70
100
AcDbEntity
  8
レイヤー 1
 62
    18
420
        0
370
    25
100
AcDbLine
 10
71.55758995077613
 20
-146.766807750973
 30
0.0
 11
72.07158715988519
 21
-147.1485133064329
 31
0.0
  0
LINE
  5
C7
330
70
100
AcDbEntity
  8
レイヤー 1
 62
    18
420
        0
370
    25
100
AcDbLine
 10
72.07158715988519
 20
-147.1485133064329
 30
0.0
 11
72.55736214749237
 21
-146.7309655287594
 31
0.0
  0
LINE
  5
C8
330
70
100
AcDbEntity
  8
レイヤー 1
 62
    18
420
        0
370
    25
100
AcDbLine
 10
73.0713593566011
 20
-147.1126710842197
 30
0.0
 11
73.5564287886704
 21
-146.6951233065462
 31
0.0
  0
LINE
  5
C9
330
70
100
AcDbEntity
  8
レイヤー 1
 62
    18
420
        0
370
    25
100
AcDbLine
 10
72.55736214749237
 20
-146.7309655287594
 30
0.0
 11
73.0713593566011
 21
-147.1126710842197
 31
0.0
  0
LINE
  5
CA
330
70
100
AcDbEntity
  8
レイヤー 1
 62
    18
420
        0
370
    25
100
AcDbLine
 10
73.5564287886704
 20
-146.6951233065462
 30
0.0
 11
74.07042599777946
 21
-147.0768641397843
 31
0.0
  0
LINE
  5
CB
330
70
100
AcDbEntity
  8
レイヤー 1
 62
    18
420
        0
370
    25
100
AcDbLine
 10
74.07042599777946
 20
-147.0768641397843
 30
0.0
 11
74.55620098538631
 21
-146.6593163621111
 31
0.0
  0
LINE
  5
CC
330
70
100
AcDbEntity
  8
レイヤー 1
 62
    18
420
        0
370
    25
100
AcDbLine
 10
75.06952791673469
 20
-147.041021917571
 30
0.0
 11
75.55526762656466
 21
-146.6234741398978
 31
0.0
  0
LINE
  5
CD
330
70
100
AcDbEntity
  8
レイヤー 1
 62
    18
420
        0
370
    25
100
AcDbLine
 10
74.55620098538631
 20
-146.6593163621111
 30
0.0
 11
75.06952791673469
 21
-147.041021917571
 31
0.0
  0
LINE
  5
CE
330
70
100
AcDbEntity
  8
レイヤー 1
 62
    18
420
        0
370
    25
100
AcDbLine
 10
76.06930011345092
 20
-147.005885250913
 30
0.0
 11
76.55436954551989
 21
-146.5883374732398
 31
0.0
  0
LINE
  5
CF
330
70
100
AcDbEntity
  8
レイヤー 1
 62
    18
420
        0
370
    25
100
AcDbLine
 10
75.55526762656466
 20
-146.6234741398978
 30
0.0
 11
76.06930011345092
 21
-147.005885250913
 31
0.0
  0
LINE
  5
D0
330
70
100
AcDbEntity
  8
レイヤー 1
 62
    18
420
        0
370
    25
100
AcDbLine
 10
76.55436954551989
 20
-146.5883374732398
 30
0.0
 11
77.06819036574488
 21
-146.9700430286997
 31
0.0
  0
LINE
  5
D1
330
70
100
AcDbEntity
  8
レイヤー 1
 62
    18
420
        0
370
    25
100
AcDbLine
 10
77.06819036574488
 20
-146.9700430286997
 30
0.0
 11
77.55396535335141
 21
-146.5525305288041
 31
0.0
  0
LINE
  5
D2
330
70
100
AcDbEntity
  8
レイヤー 1
 62
    18
420
        0
370
    25
100
AcDbLine
 10
77.55396535335141
 20
-146.5525305288041
 30
0.0
 11
78.06796256246048
 21
-146.9342360842643
 31
0.0
  0
LINE
  5
D3
330
70
100
AcDbEntity
  8
レイヤー 1
 62
    18
420
        0
370
    25
100
AcDbLine
 10
78.06796256246048
 20
-146.9342360842643
 30
0.0
 11
78.55303199452976
 21
-146.5166883065908
 31
0.0
  0
LINE
  5
D4
330
70
100
AcDbEntity
  8
レイヤー 1
 62
    18
420
        0
370
    25
100
AcDbLine
 10
78.55303199452976
 20
-146.5166883065908
 30
0.0
 11
79.06702920363883
 21
-146.898393862051
 31
0.0
  0
LINE
  5
D5
330
70
100
AcDbEntity
  8
レイヤー 1
 62
    18
420
        0
370
    25
100
AcDbLine
 10
79.06702920363883
 20
-146.898393862051
 30
0.0
 11
79.55280419124567
 21
-146.4808460843776
 31
0.0
  0
LINE
  5
D6
330
70
100
AcDbEntity
  8
レイヤー 1
 62
    18
420
        0
370
    25
100
AcDbLine
 10
79.55280419124567
 20
-146.4808460843776
 30
0.0
 11
80.06715417812351
 21
-146.8625869176157
 31
0.0
  0
LINE
  5
D7
330
70
100
AcDbEntity
  8
レイヤー 1
 62
    18
420
        0
370
    25
100
AcDbLine
 10
80.06715417812351
 20
-146.8625869176157
 30
0.0
 11
80.5522236101928
 21
-146.4450391399422
 31
0.0
  0
LINE
  5
D8
330
70
100
AcDbEntity
  8
レイヤー 1
 62
    18
420
        0
370
    25
100
AcDbLine
 10
80.5522236101928
 20
-146.4450391399422
 30
0.0
 11
81.06622081930186
 21
-146.8274149731798
 31
0.0
  0
LINE
  5
D9
330
70
100
AcDbEntity
  8
レイヤー 1
 62
    18
420
        0
370
    25
100
AcDbLine
 10
81.06622081930186
 20
-146.8274149731798
 30
0.0
 11
81.55129025137084
 21
-146.4099024732844
 31
0.0
  0
LINE
  5
DA
330
70
100
AcDbEntity
  8
レイヤー 1
 62
    18
420
        0
370
    25
100
AcDbLine
 10
81.55129025137084
 20
-146.4099024732844
 30
0.0
 11
82.06528746048054
 21
-146.7916080287447
 31
0.0
  0
LINE
  5
DB
330
70
100
AcDbEntity
  8
レイヤー 1
 62
    18
420
        0
370
    25
100
AcDbLine
 10
82.06528746048054
 20
-146.7916080287447
 30
0.0
 11
82.55106244808706
 21
-146.3740602510712
 31
0.0
  0
LINE
  5
DC
330
70
100
AcDbEntity
  8
レイヤー 1
 62
    18
420
        0
370
    25
100
AcDbLine
 10
82.55106244808706
 20
-146.3740602510712
 30
0.0
 11
83.06505965719614
 21
-146.7557658065314
 31
0.0
  0
LINE
  5
DD
330
70
100
AcDbEntity
  8
レイヤー 1
 62
    18
420
        0
370
    25
100
AcDbLine
 10
83.06505965719614
 20
-146.7557658065314
 30
0.0
 11
83.55012908926543
 21
-146.3382180288579
 31
0.0
  0
LINE
  5
DE
330
70
100
AcDbEntity
  8
レイヤー 1
 62
    18
420
        0
370
    25
100
AcDbLine
 10
83.55012908926543
 20
-146.3382180288579
 30
0.0
 11
84.06416157615137
 21
-146.7199588620957
 31
0.0
  0
LINE
  5
DF
330
70
100
AcDbEntity
  8
レイヤー 1
 62
    18
420
        0
370
    25
100
AcDbLine
 10
84.06416157615137
 20
-146.7199588620957
 30
0.0
 11
84.54923100822064
 21
-146.3024110844225
 31
0.0
  0
LINE
  5
E0
330
70
100
AcDbEntity
  8
レイヤー 1
 62
    18
420
        0
370
    25
100
AcDbLine
 10
84.54923100822064
 20
-146.3024110844225
 30
0.0
 11
85.0632282173294
 21
-146.6841166398825
 31
0.0
  0
LINE
  5
E1
330
70
100
AcDbEntity
  8
レイヤー 1
 62
    18
420
        0
370
    25
100
AcDbLine
 10
85.0632282173294
 20
-146.6841166398825
 30
0.0
 11
85.54896792715968
 21
-146.266568862209
 31
0.0
  0
LINE
  5
E2
330
70
100
AcDbEntity
  8
レイヤー 1
 62
    18
420
        0
370
    25
100
AcDbLine
 10
85.61517115629927
 20
-146.2183441399991
 30
0.0
 11
86.56320401239515
 21
-146.2183441399991
 31
0.0
  0
LINE
  5
E3
330
70
100
AcDbEntity
  8
レイヤー 1
 62
    18
420
        0
370
    25
100
AcDbLine
 10
86.56320401239515
 20
-146.2183441399991
 30
0.0
 11
86.56320401239515
 21
-151.4803774720167
 31
0.0
  0
LINE
  5
E4
330
70
100
AcDbEntity
  8
レイヤー 1
 62
    18
420
        0
370
    25
100
AcDbLine
 10
85.56276153791889
 20
-147.4806183063498
 30
0.0
 11
85.56276153791889
 21
-152.4808199717666
 31
0.0
  0
LINE
  5
E5
330
70
100
AcDbEntity
  8
レイヤー 1
 62
    18
420
        0
370
    25
100
AcDbLine
 10
94.56342769718165
 20
-151.4803774720167
 30
0.0
 11
86.56320401239515
 21
-151.4803774720167
 31
0.0
  0
LINE
  5
E6
330
70
100
AcDbEntity
  8
レイヤー 1
 62
    18
420
        0
370
    25
100
AcDbLine
 10
105.6242454705519
 20
-146.6234741398978
 30
0.0
 11
105.1102482614431
 21
-147.005885250913
 31
0.0
  0
LINE
  5
E7
330
70
100
AcDbEntity
  8
レイヤー 1
 62
    18
420
        0
370
    25
100
AcDbLine
 10
110.6210250652956
 20
-146.8019444176307
 30
0.0
 11
110.1069925784097
 21
-147.1843555286465
 31
0.0
  0
LINE
  5
E8
330
70
100
AcDbEntity
  8
レイヤー 1
 62
    18
420
        0
370
    25
100
AcDbLine
 10
106.1093149026212
 20
-147.041021917571
 30
0.0
 11
105.6242454705519
 21
-146.6234741398978
 31
0.0
  0
LINE
  5
E9
330
70
100
AcDbEntity
  8
レイヤー 1
 62
    18
420
        0
370
    25
100
AcDbLine
 10
107.1090870993371
 20
-147.0768641397843
 30
0.0
 11
106.6233121117303
 21
-146.6593163621111
 31
0.0
  0
LINE
  5
EA
330
70
100
AcDbEntity
  8
レイヤー 1
 62
    18
420
        0
370
    25
100
AcDbLine
 10
105.1102482614431
 20
-147.005885250913
 30
0.0
 11
104.6244732738363
 21
-146.5883374732398
 31
0.0
  0
LINE
  5
EB
330
70
100
AcDbEntity
  8
レイヤー 1
 62
    18
420
        0
370
    25
100
AcDbLine
 10
106.6233121117303
 20
-146.6593163621111
 30
0.0
 11
106.1093149026212
 21
-147.041021917571
 31
0.0
  0
LINE
  5
EC
330
70
100
AcDbEntity
  8
レイヤー 1
 62
    18
420
        0
370
    25
100
AcDbLine
 10
114.6187027410842
 20
-146.9452427509283
 30
0.0
 11
114.1047055319751
 21
-147.3269835841661
 31
0.0
  0
LINE
  5
ED
330
70
100
AcDbEntity
  8
レイヤー 1
 62
    18
420
        0
370
    25
100
AcDbLine
 10
107.6230843084462
 20
-146.6951233065462
 30
0.0
 11
107.1090870993371
 21
-147.0768641397843
 31
0.0
  0
LINE
  5
EE
330
70
100
AcDbEntity
  8
レイヤー 1
 62
    18
420
        0
370
    25
100
AcDbLine
 10
108.6221509496245
 20
-146.7309655287594
 30
0.0
 11
108.1081537405155
 21
-147.1126710842197
 31
0.0
  0
LINE
  5
EF
330
70
100
AcDbEntity
  8
レイヤー 1
 62
    18
420
        0
370
    25
100
AcDbLine
 10
94.61648547360582
 20
-146.2183441399991
 30
0.0
 11
94.61648547360582
 21
-151.4803774720167
 31
0.0
  0
LINE
  5
F0
330
70
100
AcDbEntity
  8
レイヤー 1
 62
    18
420
        0
370
    25
100
AcDbLine
 10
108.1081537405155
 20
-147.1126710842197
 30
0.0
 11
107.6230843084462
 21
-146.6951233065462
 31
0.0
  0
LINE
  5
F1
330
70
100
AcDbEntity
  8
レイヤー 1
 62
    18
420
        0
370
    25
100
AcDbLine
 10
109.1079259372314
 20
-147.1485133064329
 30
0.0
 11
108.6221509496245
 21
-146.7309655287594
 31
0.0
  0
LINE
  5
F2
330
70
100
AcDbEntity
  8
レイヤー 1
 62
    18
420
        0
370
    25
100
AcDbLine
 10
114.1047055319751
 20
-147.3269835841661
 30
0.0
 11
113.6189305443683
 21
-146.9094358064926
 31
0.0
  0
LINE
  5
F3
330
70
100
AcDbEntity
  8
レイヤー 1
 62
    18
420
        0
370
    25
100
AcDbLine
 10
109.6212528685797
 20
-146.766807750973
 30
0.0
 11
109.1079259372314
 21
-147.1485133064329
 31
0.0
  0
LINE
  5
F4
330
70
100
AcDbEntity
  8
レイヤー 1
 62
    18
420
        0
370
    25
100
AcDbLine
 10
110.1069925784097
 20
-147.1843555286465
 30
0.0
 11
109.6212528685797
 21
-146.766807750973
 31
0.0
  0
LINE
  5
F5
330
70
100
AcDbEntity
  8
レイヤー 1
 62
    18
420
        0
370
    25
100
AcDbLine
 10
115.1037721731535
 20
-147.3627905286015
 30
0.0
 11
114.6187027410842
 21
-146.9452427509283
 31
0.0
  0
LINE
  5
F6
330
70
100
AcDbEntity
  8
レイヤー 1
 62
    18
420
        0
370
    25
100
AcDbLine
 10
111.620091706474
 20
-146.8377513620661
 30
0.0
 11
111.1060944973649
 21
-147.2194921953042
 31
0.0
  0
LINE
  5
F7
330
70
100
AcDbEntity
  8
レイヤー 1
 62
    18
420
        0
370
    25
100
AcDbLine
 10
112.6198639031899
 20
-146.8735935842794
 30
0.0
 11
112.105831416304
 21
-147.2552991397396
 31
0.0
  0
LINE
  5
F8
330
70
100
AcDbEntity
  8
レイヤー 1
 62
    18
420
        0
370
    25
100
AcDbLine
 10
112.105831416304
 20
-147.2552991397396
 30
0.0
 11
111.620091706474
 21
-146.8377513620661
 31
0.0
  0
LINE
  5
F9
330
70
100
AcDbEntity
  8
レイヤー 1
 62
    18
420
        0
370
    25
100
AcDbLine
 10
115.6177693822625
 20
-146.9803794175861
 30
0.0
 11
115.1037721731535
 21
-147.3627905286015
 31
0.0
  0
LINE
  5
FA
330
70
100
AcDbEntity
  8
レイヤー 1
 62
    18
420
        0
370
    25
100
AcDbLine
 10
111.1060944973649
 20
-147.2194921953042
 30
0.0
 11
110.6210250652956
 21
-146.8019444176307
 31
0.0
  0
LINE
  5
FB
330
70
100
AcDbEntity
  8
レイヤー 1
 62
    18
420
        0
370
    25
100
AcDbLine
 10
113.6189305443683
 20
-146.9094358064926
 30
0.0
 11
113.1049333352592
 21
-147.2911413619529
 31
0.0
  0
LINE
  5
FC
330
70
100
AcDbEntity
  8
レイヤー 1
 62
    18
420
        0
370
    25
100
AcDbLine
 10
113.1049333352592
 20
-147.2911413619529
 30
0.0
 11
112.6198639031899
 21
-146.8735935842794
 31
0.0
  0
LINE
  5
FD
330
70
100
AcDbEntity
  8
レイヤー 1
 62
    18
420
        0
370
    25
100
AcDbLine
 10
115.6177693822625
 20
-146.9803794175861
 30
0.0
 11
115.6177693822625
 21
-147.4806183063498
 31
0.0
  0
LINE
  5
FE
330
70
100
AcDbEntity
  8
レイヤー 1
 62
    18
420
        0
370
    25
100
AcDbLine
 10
95.61625767032174
 20
-147.4806183063498
 30
0.0
 11
115.6177693822625
 21
-147.4806183063498
 31
0.0
  0
LINE
  5
FF
330
70
100
AcDbEntity
  8
レイヤー 1
 62
    18
420
        0
370
    25
100
AcDbLine
 10
104.6244732738363
 20
-146.5883374732398
 30
0.0
 11
104.1104760647272
 21
-146.9700430286997
 31
0.0
  0
LINE
  5
100
330
70
100
AcDbEntity
  8
レイヤー 1
 62
    18
420
        0
370
    25
100
AcDbLine
 10
104.1104760647272
 20
-146.9700430286997
 30
0.0
 11
103.625406632658
 21
-146.5525305288041
 31
0.0
  0
LINE
  5
101
330
70
100
AcDbEntity
  8
レイヤー 1
 62
    18
420
        0
370
    25
100
AcDbLine
 10
103.625406632658
 20
-146.5525305288041
 30
0.0
 11
103.111374145772
 21
-146.9342360842643
 31
0.0
  0
LINE
  5
102
330
70
100
AcDbEntity
  8
レイヤー 1
 62
    18
420
        0
370
    25
100
AcDbLine
 10
103.111374145772
 20
-146.9342360842643
 30
0.0
 11
102.6263047137027
 21
-146.5166883065908
 31
0.0
  0
LINE
  5
103
330
70
100
AcDbEntity
  8
レイヤー 1
 62
    18
420
        0
370
    25
100
AcDbLine
 10
102.6263047137027
 20
-146.5166883065908
 30
0.0
 11
102.1123075045937
 21
-146.898393862051
 31
0.0
  0
LINE
  5
104
330
70
100
AcDbEntity
  8
レイヤー 1
 62
    18
420
        0
370
    25
100
AcDbLine
 10
102.1123075045937
 20
-146.898393862051
 30
0.0
 11
101.6265677947637
 21
-146.4808460843776
 31
0.0
  0
LINE
  5
105
330
70
100
AcDbEntity
  8
レイヤー 1
 62
    18
420
        0
370
    25
100
AcDbLine
 10
101.6265677947637
 20
-146.4808460843776
 30
0.0
 11
101.1125353078778
 21
-146.8625869176157
 31
0.0
  0
LINE
  5
106
330
70
100
AcDbEntity
  8
レイヤー 1
 62
    18
420
        0
370
    25
100
AcDbLine
 10
101.1125353078778
 20
-146.8625869176157
 30
0.0
 11
100.6274658758085
 21
-146.4450391399422
 31
0.0
  0
LINE
  5
107
330
70
100
AcDbEntity
  8
レイヤー 1
 62
    18
420
        0
370
    25
100
AcDbLine
 10
100.6274658758085
 20
-146.4450391399422
 30
0.0
 11
100.1134686666994
 21
-146.8274149731798
 31
0.0
  0
LINE
  5
108
330
70
100
AcDbEntity
  8
レイヤー 1
 62
    18
420
        0
370
    25
100
AcDbLine
 10
100.1134686666994
 20
-146.8274149731798
 30
0.0
 11
99.62769367909258
 21
-146.4099024732844
 31
0.0
  0
LINE
  5
109
330
70
100
AcDbEntity
  8
レイヤー 1
 62
    18
420
        0
370
    25
100
AcDbLine
 10
99.62769367909258
 20
-146.4099024732844
 30
0.0
 11
99.11369646998352
 21
-146.7916080287447
 31
0.0
  0
LINE
  5
10A
330
70
100
AcDbEntity
  8
レイヤー 1
 62
    18
420
        0
370
    25
100
AcDbLine
 10
99.11369646998352
 20
-146.7916080287447
 30
0.0
 11
98.62862703791391
 21
-146.3740602510712
 31
0.0
  0
LINE
  5
10B
330
70
100
AcDbEntity
  8
レイヤー 1
 62
    18
420
        0
370
    25
100
AcDbLine
 10
98.62862703791391
 20
-146.3740602510712
 30
0.0
 11
98.11462982880517
 21
-146.7557658065314
 31
0.0
  0
LINE
  5
10C
330
70
100
AcDbEntity
  8
レイヤー 1
 62
    18
420
        0
370
    25
100
AcDbLine
 10
98.11462982880517
 20
-146.7557658065314
 30
0.0
 11
97.62956039673587
 21
-146.3382180288579
 31
0.0
  0
LINE
  5
10D
330
70
100
AcDbEntity
  8
レイヤー 1
 62
    18
420
        0
370
    25
100
AcDbLine
 10
97.62956039673587
 20
-146.3382180288579
 30
0.0
 11
97.11556318762681
 21
-146.7199588620957
 31
0.0
  0
LINE
  5
10E
330
70
100
AcDbEntity
  8
レイヤー 1
 62
    18
420
        0
370
    25
100
AcDbLine
 10
97.11556318762681
 20
-146.7199588620957
 30
0.0
 11
96.62978820001995
 21
-146.3024110844225
 31
0.0
  0
LINE
  5
10F
330
70
100
AcDbEntity
  8
レイヤー 1
 62
    18
420
        0
370
    25
100
AcDbLine
 10
96.62978820001995
 20
-146.3024110844225
 30
0.0
 11
96.11579099091089
 21
-146.6841166398825
 31
0.0
  0
LINE
  5
110
330
70
100
AcDbEntity
  8
レイヤー 1
 62
    18
420
        0
370
    25
100
AcDbLine
 10
96.11579099091089
 20
-146.6841166398825
 30
0.0
 11
95.63072155884162
 21
-146.266568862209
 31
0.0
  0
LINE
  5
111
330
70
100
AcDbEntity
  8
レイヤー 1
 62
    18
420
        0
370
    25
100
AcDbLine
 10
95.58235939138432
 20
-146.2183441399991
 30
0.0
 11
94.61648547360582
 21
-146.2183441399991
 31
0.0
  0
LINE
  5
112
330
70
100
AcDbEntity
  8
レイヤー 1
 62
    18
420
        0
370
    25
100
AcDbLine
 10
95.61625767032174
 20
-147.4806183063498
 30
0.0
 11
95.61625767032174
 21
-152.4808199717666
 31
0.0
  0
CIRCLE
  5
113
330
70
100
AcDbEntity
  8
レイヤー 1
 62
    18
420
        0
370
     9
100
AcDbCircle
 10
65.56174371485394
 20
-142.2185849743322
 30
0.0
 40
0.0999066653796964
  0
SPLINE
  5
114
330
70
100
AcDbEntity
  8
レイヤー 1
 62
    18
420
        0
370
     9
100
AcDbSpline
210
0.0
220
0.0
230
1.0
 70
     9
 71
     3
 72
    17
 73
    13
 74
     0
 42
0.0000000001
 43
0.0000000001
 40
0.0
 40
0.0
 40
0.0
 40
0.0
 40
1.0
 40
1.0
 40
1.0
 40
2.0
 40
2.0
 40
2.0
 40
3.0
 40
3.0
 40
3.0
 40
4.0
 40
4.0
 40
4.0
 40
4.0
 10
63.52568682235372
 20
-146.9803794175861
 30
0.0
 10
63.52568682235372
 20
-146.9252755287111
 30
0.0
 10
63.48092165676039
 20
-146.8804727509445
 30
0.0
 10
63.42510988047553
 20
-146.8804727509445
 30
0.0
 10
63.36997071521526
 20
-146.8804727509445
 30
0.0
 10
63.3252032163577
 20
-146.9252755287111
 30
0.0
 10
63.3252032163577
 20
-146.9803794175861
 30
0.0
 10
63.3252032163577
 20
-147.0355185842391
 30
0.0
 10
63.36997071521526
 20
-147.0802860842277
 30
0.0
 10
63.42510988047553
 20
-147.0802860842277
 30
0.0
 10
63.48092165676039
 20
-147.0802860842277
 30
0.0
 10
63.52568682235372
 20
-147.0355185842391
 30
0.0
 10
63.52568682235372
 20
-146.9803794175861
 30
0.0
  0
SPLINE
  5
115
330
70
100
AcDbEntity
  8
レイヤー 1
 62
    18
420
        0
370
     9
100
AcDbSpline
210
0.0
220
0.0
230
1.0
 70
     9
 71
     3
 72
    17
 73
    13
 74
     0
 42
0.0000000001
 43
0.0000000001
 40
0.0
 40
0.0
 40
0.0
 40
0.0
 40
1.0
 40
1.0
 40
1.0
 40
2.0
 40
2.0
 40
2.0
 40
3.0
 40
3.0
 40
3.0
 40
4.0
 40
4.0
 40
4.0
 40
4.0
 10
63.52568682235372
 20
-147.4806183063498
 30
0.0
 10
63.52568682235372
 20
-147.4255144174749
 30
0.0
 10
63.48092165676039
 20
-147.3807116397082
 30
0.0
 10
63.42510988047553
 20
-147.3807116397082
 30
0.0
 10
63.36997071521526
 20
-147.3807116397082
 30
0.0
 10
63.3252032163577
 20
-147.4255144174749
 30
0.0
 10
63.3252032163577
 20
-147.4806183063498
 30
0.0
 10
63.3252032163577
 20
-147.5357574730029
 30
0.0
 10
63.36997071521526
 20
-147.5805249729918
 30
0.0
 10
63.42510988047553
 20
-147.5805249729918
 30
0.0
 10
63.48092165676039
 20
-147.5805249729918
 30
0.0
 10
63.52568682235372
 20
-147.5357574730029
 30
0.0
 10
63.52568682235372
 20
-147.4806183063498
 30
0.0
  0
SPLINE
  5
116
330
70
100
AcDbEntity
  8
レイヤー 1
 62
    18
420
        0
370
     9
100
AcDbSpline
210
0.0
220
0.0
230
1.0
 70
     9
 71
     3
 72
    17
 73
    13
 74
     0
 42
0.0000000001
 43
0.0000000001
 40
0.0
 40
0.0
 40
0.0
 40
0.0
 40
1.0
 40
1.0
 40
1.0
 40
2.0
 40
2.0
 40
2.0
 40
3.0
 40
3.0
 40
3.0
 40
4.0
 40
4.0
 40
4.0
 40
4.0
 10
63.52568682235372
 20
-152.4808199717666
 30
0.0
 10
63.52568682235372
 20
-152.425716082891
 30
0.0
 10
63.48092165676039
 20
-152.3809133051249
 30
0.0
 10
63.42510988047553
 20
-152.3809133051249
 30
0.0
 10
63.36997071521526
 20
-152.3809133051249
 30
0.0
 10
63.3252032163577
 20
-152.425716082891
 30
0.0
 10
63.3252032163577
 20
-152.4808199717666
 30
0.0
 10
63.3252032163577
 20
-152.535959138419
 30
0.0
 10
63.36997071521526
 20
-152.5807266384082
 30
0.0
 10
63.42510988047553
 20
-152.5807266384082
 30
0.0
 10
63.48092165676039
 20
-152.5807266384082
 30
0.0
 10
63.52568682235372
 20
-152.535959138419
 30
0.0
 10
63.52568682235372
 20
-152.4808199717666
 30
0.0
  0
SPLINE
  5
117
330
70
100
AcDbEntity
  8
レイヤー 1
 62
    18
420
        0
370
     9
100
AcDbSpline
210
0.0
220
0.0
230
1.0
 70
     9
 71
     3
 72
    17
 73
    13
 74
     0
 42
0.0000000001
 43
0.0000000001
 40
0.0
 40
0.0
 40
0.0
 40
0.0
 40
1.0
 40
1.0
 40
1.0
 40
2.0
 40
2.0
 40
2.0
 40
3.0
 40
3.0
 40
3.0
 40
4.0
 40
4.0
 40
4.0
 40
4.0
 10
86.66311067651331
 20
-142.2185849743322
 30
0.0
 10
86.66311067651331
 20
-142.1634458076792
 30
0.0
 10
86.61834317765542
 20
-142.1186783076906
 30
0.0
 10
86.56320401239515
 20
-142.1186783076906
 30
0.0
 10
86.50739456937484
 20
-142.1186783076906
 30
0.0
 10
86.46262998434876
 20
-142.1634458076792
 30
0.0
 10
86.46262998434876
 20
-142.2185849743322
 30
0.0
 10
86.46262998434876
 20
-142.2736888632072
 30
0.0
 10
86.50739456937484
 20
-142.3184916409739
 30
0.0
 10
86.56320401239515
 20
-142.3184916409739
 30
0.0
 10
86.61834317765542
 20
-142.3184916409739
 30
0.0
 10
86.66311067651331
 20
-142.2736888632072
 30
0.0
 10
86.66311067651331
 20
-142.2185849743322
 30
0.0
  0
CIRCLE
  5
118
330
70
100
AcDbEntity
  8
レイヤー 1
 62
    18
420
        0
370
     9
100
AcDbCircle
 10
115.5750479944636
 20
-142.2185849743322
 30
0.0
 40
0.0999066653797365
  0
CIRCLE
  5
119
330
70
100
AcDbEntity
  8
レイヤー 1
 62
    18
420
        0
370
     9
100
AcDbCircle
 10
94.4635210330639
 20
-142.2185849743322
 30
0.0
 40
0.0999066653796162
  0
LINE
  5
11A
330
70
100
AcDbEntity
  8
レイヤー 1
 62
    18
420
        0
370
     9
100
AcDbLine
 10
63.42510988047553
 20
-146.9803794175861
 30
0.0
 11
63.42510988047553
 21
-141.7231791411227
 31
0.0
  0
LINE
  5
11B
330
70
100
AcDbEntity
  8
レイヤー 1
 62
    18
420
        0
370
     9
100
AcDbLine
 10
63.42510988047553
 20
-146.9803794175861
 30
0.0
 11
63.42510988047553
 21
-147.4806183063498
 31
0.0
  0
LINE
  5
11C
330
70
100
AcDbEntity
  8
レイヤー 1
 62
    18
420
        0
370
     9
100
AcDbLine
 10
64.88511595433846
 20
-146.9803794175861
 30
0.0
 11
62.4253376837593
 21
-146.9803794175861
 31
0.0
  0
LINE
  5
11D
330
70
100
AcDbEntity
  8
レイヤー 1
 62
    18
420
        0
370
     9
100
AcDbLine
 10
64.88511595433846
 20
-147.4806183063498
 30
0.0
 11
62.4253376837593
 21
-147.4806183063498
 31
0.0
  0
INSERT
  5
11F
330
70
100
AcDbEntity
  8
レイヤー 1
100
AcDbBlockReference
  2
Block_1
 10
0.0
 20
0.0
 30
0.0
  0
LINE
  5
12D
330
70
100
AcDbEntity
  8
レイヤー 1
 62
    18
420
        0
370
     9
100
AcDbLine
 10
65.56174371485403
 20
-142.2185849743322
 30
0.0
 11
86.56320401239515
 21
-142.2185849743322
 31
0.0
  0
LINE
  5
12E
330
70
100
AcDbEntity
  8
レイヤー 1
 62
    18
420
        0
370
     9
100
AcDbLine
 10
65.56174371485403
 20
-144.4406616404435
 30
0.0
 11
65.56174371485403
 21
-141.2188127523597
 31
0.0
  0
INSERT
  5
130
330
70
100
AcDbEntity
  8
レイヤー 1
100
AcDbBlockReference
  2
Block_3
 10
0.0
 20
0.0
 30
0.0
  0
LINE
  5
13B
330
70
100
AcDbEntity
  8
レイヤー 1
 62
    18
420
        0
370
     9
100
AcDbLine
 10
63.42510988047553
 20
-147.4806183063498
 30
0.0
 11
63.42510988047553
 21
-152.4808199717666
 31
0.0
  0
LINE
  5
13C
330
70
100
AcDbEntity
  8
レイヤー 1
 62
    18
420
        0
370
     9
100
AcDbLine
 10
84.88683933294119
 20
-152.4808199717666
 30
0.0
 11
62.4253376837593
 21
-152.4808199717666
 31
0.0
  0
INSERT
  5
13E
330
70
100
AcDbEntity
  8
レイヤー 1
100
AcDbBlockReference
  2
Block_5
 10
0.0
 20
0.0
 30
0.0
  0
LINE
  5
143
330
70
100
AcDbEntity
  8
レイヤー 1
 62
    18
420
        0
370
     9
100
AcDbLine
 10
115.5750479944636
 20
-142.2185849743322
 30
0.0
 11
94.57376408580683
 21
-142.2185849743322
 31
0.0
  0
LINE
  5
144
330
70
100
AcDbEntity
  8
レイヤー 1
 62
    18
420
        0
370
     9
100
AcDbLine
 10
115.5750479944636
 20
-144.4406616404435
 30
0.0
 11
115.5750479944636
 21
-141.2188127523597
 31
0.0
  0
INSERT
  5
146
330
70
100
AcDbEntity
  8
レイヤー 1
100
AcDbBlockReference
  2
Block_6
 10
0.0
 20
0.0
 30
0.0
  0
LINE
  5
151
330
70
100
AcDbEntity
  8
レイヤー 1
 62
    18
420
        0
370
     9
100
AcDbLine
 10
86.56320401239515
 20
-142.2185849743322
 30
0.0
 11
94.56342769718165
 21
-142.2185849743322
 31
0.0
  0
LINE
  5
152
330
70
100
AcDbEntity
  8
レイヤー 1
 62
    18
420
        0
370
     9
100
AcDbLine
 10
86.56320401239515
 20
-143.6786263628563
 30
0.0
 11
86.56320401239515
 21
-141.2188127523597
 31
0.0
  0
LINE
  5
153
330
70
100
AcDbEntity
  8
レイヤー 1
 62
    18
420
        0
370
     9
100
AcDbLine
 10
94.46352103306381
 20
-143.6786263628563
 30
0.0
 11
94.46352103306381
 21
-141.2188127523597
 31
0.0
  0
INSERT
  5
155
330
70
100
AcDbEntity
  8
レイヤー 1
100
AcDbBlockReference
  2
Block_8
 10
0.0
 20
0.0
 30
0.0
  0
LINE
  5
15C
330
70
100
AcDbEntity
  8
レイヤー 1
 62
    18
420
        0
370
     9
100
AcDbLine
 10
93.18674773230368
 20
-150.4351321945001
 30
0.0
 11
101.1869714170902
 21
-150.4351321945001
 31
0.0
  0
INSERT
  5
15E
330
70
100
AcDbEntity
  8
レイヤー 1
100
AcDbBlockReference
  2
Block_9
 10
0.0
 20
0.0
 30
0.0
  0
SPLINE
  5
163
330
70
100
AcDbEntity
  8
レイヤー 1
 62
    18
420
        0
370
     9
100
AcDbSpline
210
0.0
220
0.0
230
1.0
 70
     9
 71
     3
 72
    17
 73
    13
 74
     0
 42
0.0000000001
 43
0.0000000001
 40
0.0
 40
0.0
 40
0.0
 40
0.0
 40
1.0
 40
1.0
 40
1.0
 40
2.0
 40
2.0
 40
2.0
 40
3.0
 40
3.0
 40
3.0
 40
4.0
 40
4.0
 40
4.0
 40
4.0
 10
95.77472544405665
 20
-156.9484330262052
 30
0.0
 10
95.77472544405665
 20
-156.8933291373303
 30
0.0
 10
95.71891600103571
 20
-156.8485263595636
 30
0.0
 10
95.65002164871815
 20
-156.8485263595636
 30
0.0
 10
95.58179128231214
 20
-156.8485263595636
 30
0.0
 10
95.52598183929152
 20
-156.8933291373303
 30
0.0
 10
95.52598183929152
 20
-156.9484330262052
 30
0.0
 10
95.52598183929152
 20
-157.0035721928583
 30
0.0
 10
95.58179128231214
 20
-157.0483396928469
 30
0.0
 10
95.65002164871815
 20
-157.0483396928469
 30
0.0
 10
95.71891600103571
 20
-157.0483396928469
 30
0.0
 10
95.77472544405665
 20
-157.0035721928583
 30
0.0
 10
95.77472544405665
 20
-156.9484330262052
 30
0.0
  0
SPLINE
  5
164
330
70
100
AcDbEntity
  8
レイヤー 1
 62
    18
420
        0
370
     9
100
AcDbSpline
210
0.0
220
0.0
230
1.0
 70
     9
 71
     3
 72
    17
 73
    13
 74
     0
 42
0.0000000001
 43
0.0000000001
 40
0.0
 40
0.0
 40
0.0
 40
0.0
 40
1.0
 40
1.0
 40
1.0
 40
2.0
 40
2.0
 40
2.0
 40
3.0
 40
3.0
 40
3.0
 40
4.0
 40
4.0
 40
4.0
 40
4.0
 10
85.81425680928049
 20
-156.9484330262052
 30
0.0
 10
85.81425680928049
 20
-156.8933291373303
 30
0.0
 10
85.75844736625986
 20
-156.8485263595636
 30
0.0
 10
85.68954986801758
 20
-156.8485263595636
 30
0.0
 10
85.62132264753598
 20
-156.8485263595636
 30
0.0
 10
85.56551609568332
 20
-156.8933291373303
 30
0.0
 10
85.56551609568332
 20
-156.9484330262052
 30
0.0
 10
85.56551609568332
 20
-157.0035721928583
 30
0.0
 10
85.62132264753598
 20
-157.0483396928469
 30
0.0
 10
85.68954986801758
 20
-157.0483396928469
 30
0.0
 10
85.75844736625986
 20
-157.0483396928469
 30
0.0
 10
85.81425680928049
 20
-157.0035721928583
 30
0.0
 10
85.81425680928049
 20
-156.9484330262052
 30
0.0
  0
LINE
  5
165
330
70
100
AcDbEntity
  8
レイヤー 1
 62
   250
420
  2299925
370
     9
100
AcDbLine
 10
95.65068878055441
 20
-156.9484330262052
 30
0.0
 11
85.69022014577825
 21
-156.9484330262052
 31
0.0
  0
LINE
  5
166
330
70
100
AcDbEntity
  8
レイヤー 1
 62
   250
420
  2299925
370
     9
100
AcDbLine
 10
95.65068878055441
 20
-155.4883916376821
 30
0.0
 11
95.65068878055441
 21
-157.9482052481777
 31
0.0
  0
LINE
  5
167
330
70
100
AcDbEntity
  8
レイヤー 1
 62
   250
420
  2299925
370
     9
100
AcDbLine
 10
85.69022014577825
 20
-155.4883916376821
 30
0.0
 11
85.69022014577825
 21
-157.9482052481777
 31
0.0
  0
INSERT
  5
169
330
70
100
AcDbEntity
  8
レイヤー 1
100
AcDbBlockReference
  2
Block_10
 10
0.0
 20
0.0
 30
0.0
  0
INSERT
  5
176
330
70
100
AcDbEntity
  8
レイヤー 1
100
AcDbBlockReference
  2
Block_12
 10
0.0
 20
0.0
 30
0.0
  0
ENDSEC
  0
SECTION
  2
OBJECTS
  0
DICTIONARY
  5
C
330
0
100
AcDbDictionary
281
     1
  3
ACAD_COLOR
350
63
  3
ACAD_DETAILVIEWSTYLE
350
6A
  3
ACAD_GROUP
350
D
  3
ACAD_LAYOUT
350
62
  3
ACAD_MATERIAL
350
10
  3
ACAD_MLEADERSTYLE
350
66
  3
ACAD_MLINESTYLE
350
5F
  3
ACAD_PLOTSETTINGS
350
61
  3
ACAD_PLOTSTYLENAME
350
E
  3
ACAD_SCALELIST
350
42
  3
ACAD_SECTIONVIEWSTYLE
350
68
  3
ACAD_TABLESTYLE
350
64
  3
ACAD_VISUALSTYLE
350
29
  3
ACDB_RECOMPOSE_DATA
350
1A3
  3
AcDbVariableDictionary
350
19B
  0
DICTIONARY
  5
63
102
{ACAD_REACTORS
330
C
102
}
330
C
100
AcDbDictionary
281
     1
  0
DICTIONARY
  5
6A
102
{ACAD_REACTORS
330
C
102
}
330
C
100
AcDbDictionary
281
     1
  3
Imperial24
350
6B
  0
DICTIONARY
  5
D
102
{ACAD_REACTORS
330
C
102
}
330
C
100
AcDbDictionary
281
     1
  0
DICTIONARY
  5
62
102
{ACAD_REACTORS
330
C
102
}
330
C
100
AcDbDictionary
281
     1
  3
Layout1
350
6F
  3
Layout2
350
77
  3
Model
350
73
  0
DICTIONARY
  5
10
102
{ACAD_REACTORS
330
C
102
}
330
C
100
AcDbDictionary
281
     1
  3
ByBlock
350
19
  3
ByLayer
350
11
  3
Global
350
21
  0
DICTIONARY
  5
66
102
{ACAD_REACTORS
330
C
102
}
330
C
100
AcDbDictionary
281
     1
  3
Standard
350
67
  0
DICTIONARY
  5
5F
102
{ACAD_REACTORS
330
C
102
}
330
C
100
AcDbDictionary
281
     1
  3
Standard
350
60
  0
DICTIONARY
  5
61
102
{ACAD_REACTORS
330
C
102
}
330
C
100
AcDbDictionary
281
     1
  0
ACDBDICTIONARYWDFLT
  5
E
102
{ACAD_REACTORS
330
C
102
}
330
C
100
AcDbDictionary
281
     1
  3
Normal
350
F
100
AcDbDictionaryWithDefault
340
F
  0
DICTIONARY
  5
42
102
{ACAD_REACTORS
330
C
102
}
330
C
100
AcDbDictionary
281
     1
  3
A0
350
43
  3
A1
350
44
  3
A2
350
45
  3
A3
350
46
  3
A4
350
47
  3
A5
350
48
  3
A6
350
49
  3
A7
350
4A
  3
A8
350
4B
  3
A9
350
4C
  3
B0
350
4D
  3
B1
350
4E
  3
B2
350
4F
  3
B3
350
50
  3
B4
350
51
  3
B5
350
52
  3
B6
350
53
  0
DICTIONARY
  5
68
102
{ACAD_REACTORS
330
C
102
}
330
C
100
AcDbDictionary
281
     1
  3
Imperial24
350
69
  0
DICTIONARY
  5
64
102
{ACAD_REACTORS
330
C
102
}
330
C
100
AcDbDictionary
281
     1
  3
Standard
350
65
  0
DICTIONARY
  5
29
102
{ACAD_REACTORS
330
C
102
}
330
C
100
AcDbDictionary
281
     1
  3
2dWireframe
350
2F
  3
Basic
350
2E
  3
Brighten
350
35
  3
ColorChange
350
39
  3
Conceptual
350
32
  3
Dim
350
34
  3
EdgeColorOff
350
41
  3
Facepattern
350
38
  3
Flat
350
2A
  3
FlatWithEdges
350
2B
  3
Gouraud
350
2C
  3
GouraudWithEdges
350
2D
  3
Hidden
350
31
  3
JitterOff
350
3F
  3
Linepattern
350
37
  3
OverhangOff
350
40
  3
Realistic
350
33
  3
Shaded
350
3E
  3
Shaded with edges
350
3D
  3
Shades of Gray
350
3A
  3
Sketchy
350
3B
  3
Thicken
350
36
  3
Wireframe
350
30
  3
X-Ray
350
3C
  0
XRECORD
  5
1A3
102
{ACAD_REACTORS
330
C
102
}
330
C
100
AcDbXrecord
280
     1
 90
        1
330
65
  0
DICTIONARY
  5
19B
102
{ACAD_REACTORS
330
C
102
}
330
C
100
AcDbDictionary
281
     1
  3
CANNOSCALE
350
1A0
  3
CMLEADERSTYLE
350
19D
  3
CTABLESTYLE
350
19C
  3
CVIEWDETAILSTYLE
350
19E
  3
CVIEWSECTIONSTYLE
350
19F
  0
ACDBDETAILVIEWSTYLE
  5
6B
102
{ACAD_XDICTIONARY
360
1D8
102
}
102
{ACAD_REACTORS
330
6A
102
}
330
6A
100
AcDbModelDocViewStyle
 70
     0
  3
Imperial24
290
     0
100
AcDbDetailViewStyle
 70
     0
 71
     0
 90
        3
 71
     1
340
55
 62
   256
 40
0.24
340
0
 62
   256
 40
0.24
300

 40
0.36
280
     3
 71
     2
340
5D
 90
       25
 62
   256
 71
     3
340
55
 62
   256
 40
0.24
 90
        1
 40
0.75
 90
        1
300
%<\AcVar ViewType \f "%tc1">% %<\AcVar ViewDetailId>%\PSCALE %<\AcVar ViewScale \f "%sn">%
 71
     4
340
5D
 90
       25
 62
   256
340
5D
 90
       25
 62
   256
280
     0
  0
LAYOUT
  5
6F
102
{ACAD_REACTORS
330
62
102
}
330
62
100
AcDbPlotSettings
  1

  2

  4

  6

 40
0.0
 41
0.0
 42
0.0
 43
0.0
 44
0.0
 45
0.0
 46
0.0
 47
0.0
 48
0.0
 49
0.0
140
0.0
141
0.0
142
1.0
143
1.0
 70
   688
 72
     0
 73
     0
 74
     5
  7

 75
    16
147
1.0
 76
     0
 77
     2
 78
   300
148
0.0
149
0.0
100
AcDbLayout
  1
Layout1
 70
     1
 71
     1
 10
0.0
 20
0.0
 11
12.0
 21
9.0
 12
0.0
 22
0.0
 32
0.0
 14
0.0
 24
0.0
 34
0.0
 15
0.0
 25
0.0
 35
0.0
146
0.0
 13
0.0
 23
0.0
 33
0.0
 16
1.0
 26
0.0
 36
0.0
 17
0.0
 27
1.0
 37
0.0
 76
     0
330
6C
  0
LAYOUT
  5
77
102
{ACAD_REACTORS
330
62
102
}
330
62
100
AcDbPlotSettings
  1

  2

  4

  6

 40
0.0
 41
0.0
 42
0.0
 43
0.0
 44
0.0
 45
0.0
 46
0.0
 47
0.0
 48
0.0
 49
0.0
140
0.0
141
0.0
142
1.0
143
1.0
 70
   688
 72
     0
 73
     0
 74
     5
  7

 75
    16
147
1.0
 76
     0
 77
     2
 78
   300
148
0.0
149
0.0
100
AcDbLayout
  1
Layout2
 70
     1
 71
     2
 10
0.0
 20
0.0
 11
12.0
 21
9.0
 12
0.0
 22
0.0
 32
0.0
 14
0.0
 24
0.0
 34
0.0
 15
0.0
 25
0.0
 35
0.0
146
0.0
 13
0.0
 23
0.0
 33
0.0
 16
1.0
 26
0.0
 36
0.0
 17
0.0
 27
1.0
 37
0.0
 76
     0
330
74
  0
LAYOUT
  5
73
102
{ACAD_REACTORS
330
62
102
}
330
62
100
AcDbPlotSettings
  1

  2

  4

  6

 40
0.0
 41
0.0
 42
0.0
 43
0.0
 44
0.0
 45
0.0
 46
0.0
 47
0.0
 48
0.0
 49
0.0
140
0.0
141
0.0
142
1.0
143
1.0
 70
  1712
 72
     0
 73
     0
 74
     0
  7

 75
     0
147
1.0
 76
     0
 77
     2
 78
   300
148
0.0
149
0.0
100
AcDbLayout
  1
Model
 70
     1
 71
     0
 10
0.0
 20
0.0
 11
12.0
 21
9.0
 12
0.0
 22
0.0
 32
0.0
 14
0.0
 24
0.0
 34
0.0
 15
0.0
 25
0.0
 35
0.0
146
0.0
 13
0.0
 23
0.0
 33
0.0
 16
1.0
 26
0.0
 36
0.0
 17
0.0
 27
1.0
 37
0.0
 76
     0
330
70
  0
MATERIAL
  5
19
102
{ACAD_XDICTIONARY
360
1A
102
}
102
{ACAD_REACTORS
330
10
102
}
330
10
100
AcDbMaterial
  1
ByBlock
 72
     0
 43
0.0208333333333333
 43
0.0
 43
0.0
 43
0.0
 43
0.0
 43
0.0208333333333333
 43
0.0
 43
0.0
 43
0.0
 43
0.0
 43
1.0
 43
0.0
 43
0.0
 43
0.0
 43
0.0
 43
1.0
 77
     0
 47
0.0208333333333333
 47
0.0
 47
0.0
 47
0.0
 47
0.0
 47
0.0208333333333333
 47
0.0
 47
0.0
 47
0.0
 47
0.0
 47
1.0
 47
0.0
 47
0.0
 47
0.0
 47
0.0
 47
1.0
171
     0
 49
0.0208333333333333
 49
0.0
 49
0.0
 49
0.0
 49
0.0
 49
0.0208333333333333
 49
0.0
 49
0.0
 49
0.0
 49
0.0
 49
1.0
 49
0.0
 49
0.0
 49
0.0
 49
0.0
 49
1.0
175
     0
142
0.0208333333333333
142
0.0
142
0.0
142
0.0
142
0.0
142
0.0208333333333333
142
0.0
142
0.0
142
0.0
142
0.0
142
1.0
142
0.0
142
0.0
142
0.0
142
0.0
142
1.0
179
     0
144
0.0208333333333333
144
0.0
144
0.0
144
0.0
144
0.0
144
0.0208333333333333
144
0.0
144
0.0
144
0.0
144
0.0
144
1.0
144
0.0
144
0.0
144
0.0
144
0.0
144
1.0
147
0.0208333333333333
147
0.0
147
0.0
147
0.0
147
0.0
147
0.0208333333333333
147
0.0
147
0.0
147
0.0
147
0.0
147
1.0
147
0.0
147
0.0
147
0.0
147
0.0
147
1.0
  0
MATERIAL
  5
11
102
{ACAD_XDICTIONARY
360
12
102
}
102
{ACAD_REACTORS
330
10
102
}
330
10
100
AcDbMaterial
  1
ByLayer
 72
     0
 43
0.0208333333333333
 43
0.0
 43
0.0
 43
0.0
 43
0.0
 43
0.0208333333333333
 43
0.0
 43
0.0
 43
0.0
 43
0.0
 43
1.0
 43
0.0
 43
0.0
 43
0.0
 43
0.0
 43
1.0
 77
     0
 47
0.0208333333333333
 47
0.0
 47
0.0
 47
0.0
 47
0.0
 47
0.0208333333333333
 47
0.0
 47
0.0
 47
0.0
 47
0.0
 47
1.0
 47
0.0
 47
0.0
 47
0.0
 47
0.0
 47
1.0
171
     0
 49
0.0208333333333333
 49
0.0
 49
0.0
 49
0.0
 49
0.0
 49
0.0208333333333333
 49
0.0
 49
0.0
 49
0.0
 49
0.0
 49
1.0
 49
0.0
 49
0.0
 49
0.0
 49
0.0
 49
1.0
175
     0
142
0.0208333333333333
142
0.0
142
0.0
142
0.0
142
0.0
142
0.0208333333333333
142
0.0
142
0.0
142
0.0
142
0.0
142
1.0
142
0.0
142
0.0
142
0.0
142
0.0
142
1.0
179
     0
144
0.0208333333333333
144
0.0
144
0.0
144
0.0
144
0.0
144
0.0208333333333333
144
0.0
144
0.0
144
0.0
144
0.0
144
1.0
144
0.0
144
0.0
144
0.0
144
0.0
144
1.0
147
0.0208333333333333
147
0.0
147
0.0
147
0.0
147
0.0
147
0.0208333333333333
147
0.0
147
0.0
147
0.0
147
0.0
147
1.0
147
0.0
147
0.0
147
0.0
147
0.0
147
1.0
  0
MATERIAL
  5
21
102
{ACAD_XDICTIONARY
360
22
102
}
102
{ACAD_REACTORS
330
10
102
}
330
10
100
AcDbMaterial
  1
Global
 72
     0
 43
0.0208333333333333
 43
0.0
 43
0.0
 43
0.0
 43
0.0
 43
0.0208333333333333
 43
0.0
 43
0.0
 43
0.0
 43
0.0
 43
1.0
 43
0.0
 43
0.0
 43
0.0
 43
0.0
 43
1.0
 77
     0
 47
0.0208333333333333
 47
0.0
 47
0.0
 47
0.0
 47
0.0
 47
0.0208333333333333
 47
0.0
 47
0.0
 47
0.0
 47
0.0
 47
1.0
 47
0.0
 47
0.0
 47
0.0
 47
0.0
 47
1.0
171
     0
 49
0.0208333333333333
 49
0.0
 49
0.0
 49
0.0
 49
0.0
 49
0.0208333333333333
 49
0.0
 49
0.0
 49
0.0
 49
0.0
 49
1.0
 49
0.0
 49
0.0
 49
0.0
 49
0.0
 49
1.0
175
     0
142
0.0208333333333333
142
0.0
142
0.0
142
0.0
142
0.0
142
0.0208333333333333
142
0.0
142
0.0
142
0.0
142
0.0
142
1.0
142
0.0
142
0.0
142
0.0
142
0.0
142
1.0
179
     0
144
0.0208333333333333
144
0.0
144
0.0
144
0.0
144
0.0
144
0.0208333333333333
144
0.0
144
0.0
144
0.0
144
0.0
144
1.0
144
0.0
144
0.0
144
0.0
144
0.0
144
1.0
147
0.0208333333333333
147
0.0
147
0.0
147
0.0
147
0.0
147
0.0208333333333333
147
0.0
147
0.0
147
0.0
147
0.0
147
1.0
147
0.0
147
0.0
147
0.0
147
0.0
147
1.0
  0
MLEADERSTYLE
  5
67
102
{ACAD_XDICTIONARY
360
1D4
102
}
102
{ACAD_REACTORS
330
66
102
}
330
66
100
AcDbMLeaderStyle
179
     2
170
     2
171
     1
172
     0
 90
        2
 40
0.0
 41
0.0
173
     1
 91
-1056964608
340
5B
 92
       -2
290
     1
 42
0.09
291
     1
 43
0.36
  3
Standard
 44
0.18
300

342
55
174
     1
178
     6
175
     1
176
     0
 93
-1056964608
 45
0.18
292
     0
297
     0
 46
0.18
 94
-1056964608
 47
1.0
 49
1.0
140
1.0
293
     1
141
0.0
294
     1
177
     0
142
1.0
295
     0
296
     0
143
0.125
271
     0
272
     9
273
     9
  0
MLINESTYLE
  5
60
102
{ACAD_REACTORS
330
5F
102
}
330
5F
100
AcDbMlineStyle
  2
STANDARD
 70
     0
  3

 62
   256
 51
90.0
 52
90.0
 71
     2
 49
0.5
 62
   256
  6
BYLAYER
 49
-0.5
 62
   256
  6
BYLAYER
  0
ACDBPLACEHOLDER
  5
F
102
{ACAD_REACTORS
330
E
102
}
330
E
  0
SCALE
  5
43
102
{ACAD_REACTORS
330
42
102
}
330
42
100
AcDbScale
 70
     0
300
1:1
140
1.0
141
1.0
290
     1
  0
SCALE
  5
44
102
{ACAD_REACTORS
330
42
102
}
330
42
100
AcDbScale
 70
     0
300
1/128" = 1'-0"
140
0.0078125
141
12.0
290
     0
  0
SCALE
  5
45
102
{ACAD_REACTORS
330
42
102
}
330
42
100
AcDbScale
 70
     0
300
1/64" = 1'-0"
140
0.015625
141
12.0
290
     0
  0
SCALE
  5
46
102
{ACAD_REACTORS
330
42
102
}
330
42
100
AcDbScale
 70
     0
300
1/32" = 1'-0"
140
0.03125
141
12.0
290
     0
  0
SCALE
  5
47
102
{ACAD_REACTORS
330
42
102
}
330
42
100
AcDbScale
 70
     0
300
1/16" = 1'-0"
140
0.0625
141
12.0
290
     0
  0
SCALE
  5
48
102
{ACAD_REACTORS
330
42
102
}
330
42
100
AcDbScale
 70
     0
300
3/32" = 1'-0"
140
0.09375
141
12.0
290
     0
  0
SCALE
  5
49
102
{ACAD_REACTORS
330
42
102
}
330
42
100
AcDbScale
 70
     0
300
1/8" = 1'-0"
140
0.125
141
12.0
290
     0
  0
SCALE
  5
4A
102
{ACAD_REACTORS
330
42
102
}
330
42
100
AcDbScale
 70
     0
300
3/16" = 1'-0"
140
0.1875
141
12.0
290
     0
  0
SCALE
  5
4B
102
{ACAD_REACTORS
330
42
102
}
330
42
100
AcDbScale
 70
     0
300
1/4" = 1'-0"
140
0.25
141
12.0
290
     0
  0
SCALE
  5
4C
102
{ACAD_REACTORS
330
42
102
}
330
42
100
AcDbScale
 70
     0
300
3/8" = 1'-0"
140
0.375
141
12.0
290
     0
  0
SCALE
  5
4D
102
{ACAD_REACTORS
330
42
102
}
330
42
100
AcDbScale
 70
     0
300
1/2" = 1'-0"
140
0.5
141
12.0
290
     0
  0
SCALE
  5
4E
102
{ACAD_REACTORS
330
42
102
}
330
42
100
AcDbScale
 70
     0
300
3/4" = 1'-0"
140
0.75
141
12.0
290
     0
  0
SCALE
  5
4F
102
{ACAD_REACTORS
330
42
102
}
330
42
100
AcDbScale
 70
     0
300
1" = 1'-0"
140
1.0
141
12.0
290
     0
  0
SCALE
  5
50
102
{ACAD_REACTORS
330
42
102
}
330
42
100
AcDbScale
 70
     0
300
1-1/2" = 1'-0"
140
1.5
141
12.0
290
     0
  0
SCALE
  5
51
102
{ACAD_REACTORS
330
42
102
}
330
42
100
AcDbScale
 70
     0
300
3" = 1'-0"
140
3.0
141
12.0
290
     0
  0
SCALE
  5
52
102
{ACAD_REACTORS
330
42
102
}
330
42
100
AcDbScale
 70
     0
300
6" = 1'-0"
140
6.0
141
12.0
290
     0
  0
SCALE
  5
53
102
{ACAD_REACTORS
330
42
102
}
330
42
100
AcDbScale
 70
     0
300
1'-0" = 1'-0"
140
12.0
141
12.0
290
     0
  0
ACDBSECTIONVIEWSTYLE
  5
69
102
{ACAD_XDICTIONARY
360
1D6
102
}
102
{ACAD_REACTORS
330
68
102
}
330
68
100
AcDbModelDocViewStyle
 70
     0
  3
Imperial24
290
     0
100
AcDbSectionViewStyle
 70
     0
 71
     0
 90
       78
 71
     1
340
55
 62
   256
 40
0.24
340
0
340
0
 62
   256
 40
0.24
300
I, O, Q, S, X, Z
 40
0.48
 90
        3
 40
0.18
 90
        1
 71
     2
340
5D
 90
       25
 62
   256
340
5D
 90
       50
 62
   256
 40
0.24
 40
0.0
 40
0.24
 71
     3
340
55
 62
   256
 40
0.24
 90
        1
 40
0.75
 90
        1
300
%<\AcVar ViewType \f "%tc1">% %<\AcVar ViewSectionStartId>%-%<\AcVar ViewSectionEndId>%\PSCALE %<\AcVar ViewScale \f "%sn">%
 71
     4
 62
   256
 62
   257
300
ANSI31
 40
1.0
 90
        0
290
     0
290
     0
 90
        6
 40
0.0
 40
1.570796326794896
 40
0.2617993877991494
 40
1.308996938995747
 40
-0.2617993877991494
 40
1.832595714594046
  0
TABLESTYLE
  5
65
102
{ACAD_XDICTIONARY
360
1A1
102
}
102
{ACAD_REACTORS
330
64
102
}
330
64
100
AcDbTableStyle
280
     0
  3
Standard
 70
     0
 71
     0
 40
0.06
 41
0.06
280
     0
281
     0
  7
Standard
140
0.18
170
     2
 62
     0
 63
     7
283
     0
 90
      512
 91
        0
  1

274
    -2
284
     1
 64
     0
275
    -2
285
     1
 65
     0
276
    -2
286
     1
 66
     0
277
    -2
287
     1
 67
     0
278
    -2
288
     1
 68
     0
279
    -2
289
     1
 69
     0
  7
Standard
140
0.25
170
     5
 62
     0
 63
     7
283
     0
 90
      512
 91
        0
  1

274
    -2
284
     1
 64
     0
275
    -2
285
     1
 65
     0
276
    -2
286
     1
 66
     0
277
    -2
287
     1
 67
     0
278
    -2
288
     1
 68
     0
279
    -2
289
     1
 69
     0
  7
Standard
140
0.18
170
     5
 62
     0
 63
     7
283
     0
 90
      512
 91
        0
  1

274
    -2
284
     1
 64
     0
275
    -2
285
     1
 65
     0
276
    -2
286
     1
 66
     0
277
    -2
287
     1
 67
     0
278
    -2
288
     1
 68
     0
279
    -2
289
     1
 69
     0
  0
VISUALSTYLE
  5
2F
102
{ACAD_XDICTIONARY
360
1AE
102
}
102
{ACAD_REACTORS
330
29
102
}
330
29
100
AcDbVisualStyle
  2
2dWireframe
 70
     4
177
     2
291
     0
 71
     0
176
     1
 72
     2
176
     1
 73
     0
176
     1
 90
        0
176
     1
 40
0.6
176
     1
 41
30.0
176
     1
 63
     7
421
 16777215
176
     1
 74
     1
176
     1
 91
        4
176
     1
 64
     7
176
     1
 65
   257
176
     1
 75
     1
176
     1
175
     1
176
     1
 42
1.0
176
     1
 92
        0
176
     1
 66
   257
176
     1
 43
1.0
176
     1
 76
     1
176
     1
 77
     6
176
     1
 78
     2
176
     1
 67
     7
176
     1
 79
     5
176
     1
170
     0
176
     1
171
     0
176
     1
290
     0
176
     1
 93
        1
176
     1
 44
0.0
176
     1
173
     0
176
     1
1001
ACAD
1000
AcDbSavedByObjectVersion
1070
     0
  0
VISUALSTYLE
  5
2E
102
{ACAD_XDICTIONARY
360
1AC
102
}
102
{ACAD_REACTORS
330
29
102
}
330
29
100
AcDbVisualStyle
  2
Basic
 70
     7
177
     2
291
     1
 71
     1
176
     1
 72
     0
176
     1
 73
     1
176
     1
 90
        0
176
     1
 40
0.6
176
     1
 41
30.0
176
     1
 63
     7
421
 16777215
176
     1
 74
     0
176
     1
 91
        4
176
     1
 64
     7
176
     1
 65
   257
176
     1
 75
     1
176
     1
175
     1
176
     1
 42
1.0
176
     1
 92
        8
176
     1
 66
     7
176
     1
 43
1.0
176
     1
 76
     1
176
     1
 77
     6
176
     1
 78
     2
176
     1
 67
     7
176
     1
 79
     5
176
     1
170
     0
176
     1
171
     0
176
     1
290
     0
176
     1
 93
        1
176
     1
 44
0.0
176
     1
173
     0
176
     1
1001
ACAD
1000
AcDbSavedByObjectVersion
1070
     0
  0
VISUALSTYLE
  5
35
102
{ACAD_XDICTIONARY
360
1BA
102
}
102
{ACAD_REACTORS
330
29
102
}
330
29
100
AcDbVisualStyle
  2
Brighten
 70
    12
177
     2
291
     1
 71
     2
176
     1
 72
     2
176
     1
 73
     0
176
     1
 90
        0
176
     1
 40
0.6
176
     1
 41
30.0
176
     1
 63
     7
421
 16777215
176
     1
 74
     1
176
     1
 91
        4
176
     1
 64
     7
176
     1
 65
   257
176
     1
 75
     1
176
     1
175
     1
176
     1
 42
1.0
176
     1
 92
        8
176
     1
 66
     7
176
     1
 43
1.0
176
     1
 76
     1
176
     1
 77
     6
176
     1
 78
     2
176
     1
 67
     7
176
     1
 79
     5
176
     1
170
     0
176
     1
171
     0
176
     1
290
     0
176
     1
 93
        1
176
     1
 44
50.0
176
     1
173
     0
176
     1
1001
ACAD
1000
AcDbSavedByObjectVersion
1070
     0
  0
VISUALSTYLE
  5
39
102
{ACAD_XDICTIONARY
360
1C2
102
}
102
{ACAD_REACTORS
330
29
102
}
330
29
100
AcDbVisualStyle
  2
ColorChange
 70
    16
177
     2
291
     1
 71
     2
176
     1
 72
     2
176
     1
 73
     3
176
     1
 90
        0
176
     1
 40
0.6
176
     1
 41
30.0
176
     1
 63
     8
421
  8421504
176
     1
 74
     1
176
     1
 91
        4
176
     1
 64
     7
176
     1
 65
   257
176
     1
 75
     1
176
     1
175
     1
176
     1
 42
1.0
176
     1
 92
        8
176
     1
 66
     8
424
  8421504
176
     1
 43
1.0
176
     1
 76
     1
176
     1
 77
     6
176
     1
 78
     2
176
     1
 67
     7
176
     1
 79
     5
176
     1
170
     0
176
     1
171
     0
176
     1
290
     0
176
     1
 93
        1
176
     1
 44
0.0
176
     1
173
     0
176
     1
1001
ACAD
1000
AcDbSavedByObjectVersion
1070
     0
  0
VISUALSTYLE
  5
32
102
{ACAD_XDICTIONARY
360
1B4
102
}
102
{ACAD_REACTORS
330
29
102
}
330
29
100
AcDbVisualStyle
  2
Conceptual
 70
     9
177
     2
291
     0
 71
     3
176
     1
 72
     2
176
     1
 73
     0
176
     1
 90
        0
176
     1
 40
0.6
176
     1
 41
30.0
176
     1
 63
     7
421
 16777215
176
     1
 74
     2
176
     1
 91
        2
176
     1
 64
     7
176
     1
 65
   257
176
     1
 75
     1
176
     1
175
     1
176
     1
 42
179.0
176
     1
 92
        8
176
     1
 66
     7
176
     1
 43
1.0
176
     1
 76
     1
176
     1
 77
     6
176
     1
 78
     2
176
     1
 67
     7
176
     1
 79
     3
176
     1
170
     0
176
     1
171
     0
176
     1
290
     0
176
     1
 93
        1
176
     1
 44
0.0
176
     1
173
     0
176
     1
1001
ACAD
1000
AcDbSavedByObjectVersion
1070
     0
  0
VISUALSTYLE
  5
34
102
{ACAD_XDICTIONARY
360
1B8
102
}
102
{ACAD_REACTORS
330
29
102
}
330
29
100
AcDbVisualStyle
  2
Dim
 70
    11
177
     2
291
     1
 71
     2
176
     1
 72
     2
176
     1
 73
     0
176
     1
 90
        0
176
     1
 40
0.6
176
     1
 41
30.0
176
     1
 63
     7
421
 16777215
176
     1
 74
     1
176
     1
 91
        4
176
     1
 64
     7
176
     1
 65
   257
176
     1
 75
     1
176
     1
175
     1
176
     1
 42
1.0
176
     1
 92
        8
176
     1
 66
     7
176
     1
 43
1.0
176
     1
 76
     1
176
     1
 77
     6
176
     1
 78
     2
176
     1
 67
     7
176
     1
 79
     5
176
     1
170
     0
176
     1
171
     0
176
     1
290
     0
176
     1
 93
        1
176
     1
 44
-50.0
176
     1
173
     0
176
     1
1001
ACAD
1000
AcDbSavedByObjectVersion
1070
     0
  0
VISUALSTYLE
  5
41
102
{ACAD_XDICTIONARY
360
1D2
102
}
102
{ACAD_REACTORS
330
29
102
}
330
29
100
AcDbVisualStyle
  2
EdgeColorOff
 70
    22
177
     2
291
     1
 71
     2
176
     0
 72
     2
176
     0
 73
     0
176
     0
 90
        0
176
     0
 40
0.6
176
     0
 41
30.0
176
     0
 63
     7
421
 16777215
176
     0
 74
     1
176
     0
 91
        4
176
     0
 64
     7
176
     0
 65
   257
176
     0
 75
     1
176
     0
175
     1
176
     0
 42
1.0
176
     0
 92
        8
176
     2
 66
     7
176
     0
 43
1.0
176
     0
 76
     1
176
     0
 77
     6
176
     0
 78
     2
176
     0
 67
     7
176
     0
 79
     5
176
     0
170
     0
176
     0
171
     0
176
     0
290
     0
176
     0
 93
        1
176
     0
 44
0.0
176
     0
173
     0
176
     0
1001
ACAD
1000
AcDbSavedByObjectVersion
1070
     0
  0
VISUALSTYLE
  5
38
102
{ACAD_XDICTIONARY
360
1C0
102
}
102
{ACAD_REACTORS
330
29
102
}
330
29
100
AcDbVisualStyle
  2
Facepattern
 70
    15
177
     2
291
     1
 71
     2
176
     1
 72
     2
176
     1
 73
     0
176
     1
 90
        0
176
     1
 40
0.6
176
     1
 41
30.0
176
     1
 63
     7
421
 16777215
176
     1
 74
     1
176
     1
 91
        4
176
     1
 64
     7
176
     1
 65
   257
176
     1
 75
     1
176
     1
175
     1
176
     1
 42
1.0
176
     1
 92
        8
176
     1
 66
     7
176
     1
 43
1.0
176
     1
 76
     1
176
     1
 77
     6
176
     1
 78
     2
176
     1
 67
     7
176
     1
 79
     5
176
     1
170
     0
176
     1
171
     0
176
     1
290
     0
176
     1
 93
        1
176
     1
 44
0.0
176
     1
173
     0
176
     1
1001
ACAD
1000
AcDbSavedByObjectVersion
1070
     0
  0
VISUALSTYLE
  5
2A
102
{ACAD_XDICTIONARY
360
1A4
102
}
102
{ACAD_REACTORS
330
29
102
}
330
29
100
AcDbVisualStyle
  2
Flat
 70
     0
177
     2
291
     1
 71
     2
176
     1
 72
     1
176
     1
 73
     1
176
     1
 90
        2
176
     1
 40
0.6
176
     1
 41
30.0
176
     1
 63
     7
421
 16777215
176
     1
 74
     0
176
     1
 91
        0
176
     1
 64
     7
176
     1
 65
   257
176
     1
 75
     1
176
     1
175
     1
176
     1
 42
1.0
176
     1
 92
        8
176
     1
 66
     7
176
     1
 43
1.0
176
     1
 76
     1
176
     1
 77
     6
176
     1
 78
     2
176
     1
 67
     7
176
     1
 79
     5
176
     1
170
     0
176
     1
171
     0
176
     1
290
     0
176
     1
 93
       13
176
     1
 44
0.0
176
     1
173
     0
176
     1
1001
ACAD
1000
AcDbSavedByObjectVersion
1070
     0
  0
VISUALSTYLE
  5
2B
102
{ACAD_XDICTIONARY
360
1A6
102
}
102
{ACAD_REACTORS
330
29
102
}
330
29
100
AcDbVisualStyle
  2
FlatWithEdges
 70
     1
177
     2
291
     1
 71
     2
176
     1
 72
     1
176
     1
 73
     1
176
     1
 90
        2
176
     1
 40
0.6
176
     1
 41
30.0
176
     1
 63
     7
421
 16777215
176
     1
 74
     1
176
     1
 91
        0
176
     1
 64
     7
176
     1
 65
   257
176
     1
 75
     1
176
     1
175
     1
176
     1
 42
1.0
176
     1
 92
        0
176
     1
 66
   257
176
     1
 43
1.0
176
     1
 76
     1
176
     1
 77
     6
176
     1
 78
     2
176
     1
 67
     7
176
     1
 79
     5
176
     1
170
     0
176
     1
171
     0
176
     1
290
     0
176
     1
 93
       13
176
     1
 44
0.0
176
     1
173
     0
176
     1
1001
ACAD
1000
AcDbSavedByObjectVersion
1070
     0
  0
VISUALSTYLE
  5
2C
102
{ACAD_XDICTIONARY
360
1A8
102
}
102
{ACAD_REACTORS
330
29
102
}
330
29
100
AcDbVisualStyle
  2
Gouraud
 70
     2
177
     2
291
     1
 71
     2
176
     1
 72
     2
176
     1
 73
     1
176
     1
 90
        2
176
     1
 40
0.6
176
     1
 41
30.0
176
     1
 63
     7
421
 16777215
176
     1
 74
     0
176
     1
 91
        0
176
     1
 64
     7
176
     1
 65
   257
176
     1
 75
     1
176
     1
175
     1
176
     1
 42
1.0
176
     1
 92
        0
176
     1
 66
     7
176
     1
 43
1.0
176
     1
 76
     1
176
     1
 77
     6
176
     1
 78
     2
176
     1
 67
     7
176
     1
 79
     5
176
     1
170
     0
176
     1
171
     0
176
     1
290
     0
176
     1
 93
       13
176
     1
 44
0.0
176
     1
173
     0
176
     1
1001
ACAD
1000
AcDbSavedByObjectVersion
1070
     0
  0
VISUALSTYLE
  5
2D
102
{ACAD_XDICTIONARY
360
1AA
102
}
102
{ACAD_REACTORS
330
29
102
}
330
29
100
AcDbVisualStyle
  2
GouraudWithEdges
 70
     3
177
     2
291
     1
 71
     2
176
     1
 72
     2
176
     1
 73
     1
176
     1
 90
        2
176
     1
 40
0.6
176
     1
 41
30.0
176
     1
 63
     7
421
 16777215
176
     1
 74
     1
176
     1
 91
        0
176
     1
 64
     7
176
     1
 65
   257
176
     1
 75
     1
176
     1
175
     1
176
     1
 42
1.0
176
     1
 92
        0
176
     1
 66
   257
176
     1
 43
1.0
176
     1
 76
     1
176
     1
 77
     6
176
     1
 78
     2
176
     1
 67
     7
176
     1
 79
     5
176
     1
170
     0
176
     1
171
     0
176
     1
290
     0
176
     1
 93
       13
176
     1
 44
0.0
176
     1
173
     0
176
     1
1001
ACAD
1000
AcDbSavedByObjectVersion
1070
     0
  0
VISUALSTYLE
  5
31
102
{ACAD_XDICTIONARY
360
1B2
102
}
102
{ACAD_REACTORS
330
29
102
}
330
29
100
AcDbVisualStyle
  2
Hidden
 70
     6
177
     2
291
     0
 71
     1
176
     1
 72
     2
176
     1
 73
     2
176
     1
 90
        0
176
     1
 40
0.6
176
     1
 41
30.0
176
     1
 63
     7
421
 16777215
176
     1
 74
     2
176
     1
 91
        2
176
     1
 64
     7
176
     1
 65
   257
176
     1
 75
     2
176
     1
175
     1
176
     1
 42
40.0
176
     1
 92
        0
176
     1
 66
   257
176
     1
 43
1.0
176
     1
 76
     1
176
     1
 77
     6
176
     1
 78
     2
176
     1
 67
     7
176
     1
 79
     3
176
     1
170
     0
176
     1
171
     0
176
     1
290
     0
176
     1
 93
        1
176
     1
 44
0.0
176
     1
173
     0
176
     1
1001
ACAD
1000
AcDbSavedByObjectVersion
1070
     0
  0
VISUALSTYLE
  5
3F
102
{ACAD_XDICTIONARY
360
1CE
102
}
102
{ACAD_REACTORS
330
29
102
}
330
29
100
AcDbVisualStyle
  2
JitterOff
 70
    20
177
     2
291
     1
 71
     2
176
     0
 72
     2
176
     0
 73
     0
176
     0
 90
        0
176
     0
 40
0.6
176
     0
 41
30.0
176
     0
 63
     7
421
 16777215
176
     0
 74
     1
176
     0
 91
        4
176
     0
 64
     7
176
     0
 65
   257
176
     0
 75
     1
176
     0
175
     1
176
     0
 42
1.0
176
     0
 92
       10
176
     2
 66
     7
176
     0
 43
1.0
176
     0
 76
     1
176
     0
 77
     6
176
     0
 78
     2
176
     0
 67
     7
176
     0
 79
     5
176
     0
170
     0
176
     0
171
     0
176
     0
290
     0
176
     0
 93
        1
176
     0
 44
0.0
176
     0
173
     0
176
     0
1001
ACAD
1000
AcDbSavedByObjectVersion
1070
     0
  0
VISUALSTYLE
  5
37
102
{ACAD_XDICTIONARY
360
1BE
102
}
102
{ACAD_REACTORS
330
29
102
}
330
29
100
AcDbVisualStyle
  2
Linepattern
 70
    14
177
     2
291
     1
 71
     2
176
     1
 72
     2
176
     1
 73
     0
176
     1
 90
        0
176
     1
 40
0.6
176
     1
 41
30.0
176
     1
 63
     7
421
 16777215
176
     1
 74
     1
176
     1
 91
        4
176
     1
 64
     7
176
     1
 65
   257
176
     1
 75
     7
176
     1
175
     7
176
     1
 42
1.0
176
     1
 92
        8
176
     1
 66
     7
176
     1
 43
1.0
176
     1
 76
     1
176
     1
 77
     6
176
     1
 78
     2
176
     1
 67
     7
176
     1
 79
     5
176
     1
170
     0
176
     1
171
     0
176
     1
290
     0
176
     1
 93
        1
176
     1
 44
0.0
176
     1
173
     0
176
     1
1001
ACAD
1000
AcDbSavedByObjectVersion
1070
     0
  0
VISUALSTYLE
  5
40
102
{ACAD_XDICTIONARY
360
1D0
102
}
102
{ACAD_REACTORS
330
29
102
}
330
29
100
AcDbVisualStyle
  2
OverhangOff
 70
    21
177
     2
291
     1
 71
     2
176
     0
 72
     2
176
     0
 73
     0
176
     0
 90
        0
176
     0
 40
0.6
176
     0
 41
30.0
176
     0
 63
     7
421
 16777215
176
     0
 74
     1
176
     0
 91
        4
176
     0
 64
     7
176
     0
 65
   257
176
     0
 75
     1
176
     0
175
     1
176
     0
 42
1.0
176
     0
 92
        9
176
     2
 66
     7
176
     0
 43
1.0
176
     0
 76
     1
176
     0
 77
     6
176
     0
 78
     2
176
     0
 67
     7
176
     0
 79
     5
176
     0
170
     0
176
     0
171
     0
176
     0
290
     0
176
     0
 93
        1
176
     0
 44
0.0
176
     0
173
     0
176
     0
1001
ACAD
1000
AcDbSavedByObjectVersion
1070
     0
  0
VISUALSTYLE
  5
33
102
{ACAD_XDICTIONARY
360
1B6
102
}
102
{ACAD_REACTORS
330
29
102
}
330
29
100
AcDbVisualStyle
  2
Realistic
 70
     8
177
     2
291
     0
 71
     2
176
     1
 72
     3
176
     1
 73
     0
176
     1
 90
        2
176
     1
 40
0.6
176
     1
 41
30.0
176
     1
 63
     7
421
 16777215
176
     1
 74
     0
176
     1
 91
        0
176
     1
 64
     7
176
     1
 65
   257
176
     1
 75
     1
176
     1
175
     1
176
     1
 42
1.0
176
     1
 92
        8
176
     1
 66
   257
176
     1
 43
1.0
176
     1
 76
     1
176
     1
 77
     6
176
     1
 78
     2
176
     1
 67
     7
176
     1
 79
     3
176
     1
170
     0
176
     1
171
     0
176
     1
290
     0
176
     1
 93
       13
176
     1
 44
0.0
176
     1
173
     0
176
     1
1001
ACAD
1000
AcDbSavedByObjectVersion
1070
     0
  0
VISUALSTYLE
  5
3E
102
{ACAD_XDICTIONARY
360
1CC
102
}
102
{ACAD_REACTORS
330
29
102
}
330
29
100
AcDbVisualStyle
  2
Shaded
 70
    27
177
     2
291
     0
 71
     2
176
     1
 72
     2
176
     1
 73
     1
176
     1
 90
        2
176
     1
 40
0.6
176
     1
 41
30.0
176
     1
 63
     7
421
 16777215
176
     1
 74
     0
176
     1
 91
        4
176
     1
 64
     7
176
     1
 65
   257
176
     1
 75
     1
176
     1
175
     1
176
     1
 42
1.0
176
     1
 92
        8
176
     1
 66
   257
176
     1
 43
1.0
176
     1
 76
     1
176
     1
 77
     6
176
     1
 78
     2
176
     1
 67
     8
425
  7895160
176
     1
 79
     3
176
     1
170
     0
176
     1
171
     0
176
     1
290
     0
176
     1
 93
        5
176
     1
 44
0.0
176
     1
173
     0
176
     1
1001
ACAD
1000
AcDbSavedByObjectVersion
1070
     0
  0
VISUALSTYLE
  5
3D
102
{ACAD_XDICTIONARY
360
1CA
102
}
102
{ACAD_REACTORS
330
29
102
}
330
29
100
AcDbVisualStyle
  2
Shaded with edges
 70
    26
177
     2
291
     0
 71
     2
176
     1
 72
     2
176
     1
 73
     1
176
     1
 90
        2
176
     1
 40
0.6
176
     1
 41
30.0
176
     1
 63
     7
421
 16777215
176
     1
 74
     1
176
     1
 91
        2
176
     1
 64
     7
176
     1
 65
   257
176
     1
 75
     2
176
     1
175
     1
176
     1
 42
1.0
176
     1
 92
        8
176
     1
 66
   257
176
     1
 43
1.0
176
     1
 76
     1
176
     1
 77
     6
176
     1
 78
     2
176
     1
 67
     7
176
     1
 79
     3
176
     1
170
     0
176
     1
171
     0
176
     1
290
     0
176
     1
 93
        5
176
     1
 44
0.0
176
     1
173
     0
176
     1
1001
ACAD
1000
AcDbSavedByObjectVersion
1070
     0
  0
VISUALSTYLE
  5
3A
102
{ACAD_XDICTIONARY
360
1C4
102
}
102
{ACAD_REACTORS
330
29
102
}
330
29
100
AcDbVisualStyle
  2
Shades of Gray
 70
    23
177
     2
291
     0
 71
     2
176
     1
 72
     2
176
     1
 73
     3
176
     1
 90
        0
176
     1
 40
0.6
176
     1
 41
30.0
176
     1
 63
     7
421
 16777215
176
     1
 74
     2
176
     1
 91
        2
176
     1
 64
     7
176
     1
 65
     7
176
     1
 75
     1
176
     1
175
     1
176
     1
 42
40.0
176
     1
 92
        8
176
     1
 66
     7
176
     1
 43
1.0
176
     1
 76
     1
176
     1
 77
     6
176
     1
 78
     2
176
     1
 67
     7
176
     1
 79
     3
176
     1
170
     0
176
     1
171
     0
176
     1
290
     0
176
     1
 93
        1
176
     1
 44
0.0
176
     1
173
     0
176
     1
1001
ACAD
1000
AcDbSavedByObjectVersion
1070
     0
  0
VISUALSTYLE
  5
3B
102
{ACAD_XDICTIONARY
360
1C6
102
}
102
{ACAD_REACTORS
330
29
102
}
330
29
100
AcDbVisualStyle
  2
Sketchy
 70
    24
177
     2
291
     0
 71
     1
176
     1
 72
     2
176
     1
 73
     2
176
     1
 90
        0
176
     1
 40
0.6
176
     1
 41
30.0
176
     1
 63
     7
421
 16777215
176
     1
 74
     2
176
     1
 91
        2
176
     1
 64
     7
176
     1
 65
     7
176
     1
 75
     1
176
     1
175
     1
176
     1
 42
40.0
176
     1
 92
       11
176
     1
 66
     7
176
     1
 43
1.0
176
     1
 76
     1
176
     1
 77
     6
176
     1
 78
     2
176
     1
 67
     7
176
     1
 79
     6
176
     1
170
     0
176
     1
171
     0
176
     1
290
     0
176
     1
 93
        1
176
     1
 44
0.0
176
     1
173
     0
176
     1
1001
ACAD
1000
AcDbSavedByObjectVersion
1070
     0
  0
VISUALSTYLE
  5
36
102
{ACAD_XDICTIONARY
360
1BC
102
}
102
{ACAD_REACTORS
330
29
102
}
330
29
100
AcDbVisualStyle
  2
Thicken
 70
    13
177
     2
291
     1
 71
     2
176
     1
 72
     2
176
     1
 73
     0
176
     1
 90
        0
176
     1
 40
0.6
176
     1
 41
30.0
176
     1
 63
     7
421
 16777215
176
     1
 74
     1
176
     1
 91
        4
176
     1
 64
     7
176
     1
 65
   257
176
     1
 75
     1
176
     1
175
     1
176
     1
 42
1.0
176
     1
 92
       12
176
     1
 66
     7
176
     1
 43
1.0
176
     1
 76
     1
176
     1
 77
     6
176
     1
 78
     2
176
     1
 67
     7
176
     1
 79
     5
176
     1
170
     0
176
     1
171
     0
176
     1
290
     0
176
     1
 93
        1
176
     1
 44
0.0
176
     1
173
     0
176
     1
1001
ACAD
1000
AcDbSavedByObjectVersion
1070
     0
  0
VISUALSTYLE
  5
30
102
{ACAD_XDICTIONARY
360
1B0
102
}
102
{ACAD_REACTORS
330
29
102
}
330
29
100
AcDbVisualStyle
  2
Wireframe
 70
     5
177
     2
291
     0
 71
     0
176
     1
 72
     2
176
     1
 73
     0
176
     1
 90
        0
176
     1
 40
0.6
176
     1
 41
30.0
176
     1
 63
     7
421
 16777215
176
     1
 74
     1
176
     1
 91
        4
176
     1
 64
     7
176
     1
 65
   257
176
     1
 75
     1
176
     1
175
     1
176
     1
 42
1.0
176
     1
 92
        0
176
     1
 66
   257
176
     1
 43
1.0
176
     1
 76
     1
176
     1
 77
     6
176
     1
 78
     2
176
     1
 67
     7
176
     1
 79
     3
176
     1
170
     0
176
     1
171
     0
176
     1
290
     0
176
     1
 93
        1
176
     1
 44
0.0
176
     1
173
     0
176
     1
1001
ACAD
1000
AcDbSavedByObjectVersion
1070
     0
  0
VISUALSTYLE
  5
3C
102
{ACAD_XDICTIONARY
360
1C8
102
}
102
{ACAD_REACTORS
330
29
102
}
330
29
100
AcDbVisualStyle
  2
X-Ray
 70
    25
177
     2
291
     0
 71
     2
176
     1
 72
     2
176
     1
 73
     1
176
     1
 90
        1
176
     1
 40
0.5
176
     1
 41
30.0
176
     1
 63
     7
421
 16777215
176
     1
 74
     1
176
     1
 91
        0
176
     1
 64
     7
176
     1
 65
   257
176
     1
 75
     1
176
     1
175
     1
176
     1
 42
1.0
176
     1
 92
        8
176
     1
 66
     7
176
     1
 43
1.0
176
     1
 76
     1
176
     1
 77
     6
176
     1
 78
     2
176
     1
 67
     7
176
     1
 79
     3
176
     1
170
     0
176
     1
171
     0
176
     1
290
     0
176
     1
 93
       13
176
     1
 44
0.0
176
     1
173
     0
176
     1
1001
ACAD
1000
AcDbSavedByObjectVersion
1070
     0
  0
DICTIONARYVAR
  5
1A0
102
{ACAD_REACTORS
330
19B
102
}
330
19B
100
DictionaryVariables
280
     0
  1
1:1
  0
DICTIONARYVAR
  5
19D
102
{ACAD_REACTORS
330
19B
102
}
330
19B
100
DictionaryVariables
280
     0
  1
STANDARD
  0
DICTIONARYVAR
  5
19C
102
{ACAD_REACTORS
330
19B
102
}
330
19B
100
DictionaryVariables
280
     0
  1
STANDARD
  0
DICTIONARYVAR
  5
19E
102
{ACAD_REACTORS
330
19B
102
}
330
19B
100
DictionaryVariables
280
     0
  1
Imperial24
  0
DICTIONARYVAR
  5
19F
102
{ACAD_REACTORS
330
19B
102
}
330
19B
100
DictionaryVariables
280
     0
  1
Imperial24
  0
DICTIONARY
  5
1D8
330
6B
100
AcDbDictionary
280
     1
281
     1
  3
ACAD_XREC_ROUNDTRIP
360
1D9
  0
DICTIONARY
  5
1A
330
19
100
AcDbDictionary
280
     1
281
     1
  3
BUMPTILE
360
1C
  3
DIFFUSETILE
360
1B
  3
OPACITYTILE
360
1F
  3
REFLECTIONTILE
360
1E
  3
REFRACTIONTILE
360
20
  3
SPECULARTILE
360
1D
  0
DICTIONARY
  5
12
330
11
100
AcDbDictionary
280
     1
281
     1
  3
BUMPTILE
360
14
  3
DIFFUSETILE
360
13
  3
OPACITYTILE
360
17
  3
REFLECTIONTILE
360
16
  3
REFRACTIONTILE
360
18
  3
SPECULARTILE
360
15
  0
DICTIONARY
  5
22
330
21
100
AcDbDictionary
280
     1
281
     1
  3
BUMPTILE
360
24
  3
DIFFUSETILE
360
23
  3
OPACITYTILE
360
27
  3
REFLECTIONTILE
360
26
  3
REFRACTIONTILE
360
28
  3
SPECULARTILE
360
25
  0
DICTIONARY
  5
1D4
330
67
100
AcDbDictionary
280
     1
281
     1
  3
ACAD_XREC_ROUNDTRIP
360
1D5
  0
DICTIONARY
  5
1D6
330
69
100
AcDbDictionary
280
     1
281
     1
  3
ACAD_XREC_ROUNDTRIP
360
1D7
  0
DICTIONARY
  5
1A1
330
65
100
AcDbDictionary
280
     1
281
     1
  3
ACAD_ROUNDTRIP_2008_TABLESTYLE_CELLSTYLEMAP
360
1A2
  0
DICTIONARY
  5
1AE
330
2F
100
AcDbDictionary
280
     1
281
     1
  3
ACAD_XREC_ROUNDTRIP
360
1AF
  0
DICTIONARY
  5
1AC
330
2E
100
AcDbDictionary
280
     1
281
     1
  3
ACAD_XREC_ROUNDTRIP
360
1AD
  0
DICTIONARY
  5
1BA
330
35
100
AcDbDictionary
280
     1
281
     1
  3
ACAD_XREC_ROUNDTRIP
360
1BB
  0
DICTIONARY
  5
1C2
330
39
100
AcDbDictionary
280
     1
281
     1
  3
ACAD_XREC_ROUNDTRIP
360
1C3
  0
DICTIONARY
  5
1B4
330
32
100
AcDbDictionary
280
     1
281
     1
  3
ACAD_XREC_ROUNDTRIP
360
1B5
  0
DICTIONARY
  5
1B8
330
34
100
AcDbDictionary
280
     1
281
     1
  3
ACAD_XREC_ROUNDTRIP
360
1B9
  0
DICTIONARY
  5
1D2
330
41
100
AcDbDictionary
280
     1
281
     1
  3
ACAD_XREC_ROUNDTRIP
360
1D3
  0
DICTIONARY
  5
1C0
330
38
100
AcDbDictionary
280
     1
281
     1
  3
ACAD_XREC_ROUNDTRIP
360
1C1
  0
DICTIONARY
  5
1A4
330
2A
100
AcDbDictionary
280
     1
281
     1
  3
ACAD_XREC_ROUNDTRIP
360
1A5
  0
DICTIONARY
  5
1A6
330
2B
100
AcDbDictionary
280
     1
281
     1
  3
ACAD_XREC_ROUNDTRIP
360
1A7
  0
DICTIONARY
  5
1A8
330
2C
100
AcDbDictionary
280
     1
281
     1
  3
ACAD_XREC_ROUNDTRIP
360
1A9
  0
DICTIONARY
  5
1AA
330
2D
100
AcDbDictionary
280
     1
281
     1
  3
ACAD_XREC_ROUNDTRIP
360
1AB
  0
DICTIONARY
  5
1B2
330
31
100
AcDbDictionary
280
     1
281
     1
  3
ACAD_XREC_ROUNDTRIP
360
1B3
  0
DICTIONARY
  5
1CE
330
3F
100
AcDbDictionary
280
     1
281
     1
  3
ACAD_XREC_ROUNDTRIP
360
1CF
  0
DICTIONARY
  5
1BE
330
37
100
AcDbDictionary
280
     1
281
     1
  3
ACAD_XREC_ROUNDTRIP
360
1BF
  0
DICTIONARY
  5
1D0
330
40
100
AcDbDictionary
280
     1
281
     1
  3
ACAD_XREC_ROUNDTRIP
360
1D1
  0
DICTIONARY
  5
1B6
330
33
100
AcDbDictionary
280
     1
281
     1
  3
ACAD_XREC_ROUNDTRIP
360
1B7
  0
DICTIONARY
  5
1CC
330
3E
100
AcDbDictionary
280
     1
281
     1
  3
ACAD_XREC_ROUNDTRIP
360
1CD
  0
DICTIONARY
  5
1CA
330
3D
100
AcDbDictionary
280
     1
281
     1
  3
ACAD_XREC_ROUNDTRIP
360
1CB
  0
DICTIONARY
  5
1C4
330
3A
100
AcDbDictionary
280
     1
281
     1
  3
ACAD_XREC_ROUNDTRIP
360
1C5
  0
DICTIONARY
  5
1C6
330
3B
100
AcDbDictionary
280
     1
281
     1
  3
ACAD_XREC_ROUNDTRIP
360
1C7
  0
DICTIONARY
  5
1BC
330
36
100
AcDbDictionary
280
     1
281
     1
  3
ACAD_XREC_ROUNDTRIP
360
1BD
  0
DICTIONARY
  5
1B0
330
30
100
AcDbDictionary
280
     1
281
     1
  3
ACAD_XREC_ROUNDTRIP
360
1B1
  0
DICTIONARY
  5
1C8
330
3C
100
AcDbDictionary
280
     1
281
     1
  3
ACAD_XREC_ROUNDTRIP
360
1C9
  0
XRECORD
  5
1D9
102
{ACAD_REACTORS
330
1D8
102
}
330
1D8
100
AcDbXrecord
280
     1
102
DISPLAYNAME
  1
Imperial24
102
FLAGS
 90
        0
  0
XRECORD
  5
1C
102
{ACAD_REACTORS
330
1A
102
}
330
1A
100
AcDbXrecord
280
     1
270
     1
271
     1
  0
XRECORD
  5
1B
102
{ACAD_REACTORS
330
1A
102
}
330
1A
100
AcDbXrecord
280
     1
270
     1
271
     1
  0
XRECORD
  5
1F
102
{ACAD_REACTORS
330
1A
102
}
330
1A
100
AcDbXrecord
280
     1
270
     1
271
     1
  0
XRECORD
  5
1E
102
{ACAD_REACTORS
330
1A
102
}
330
1A
100
AcDbXrecord
280
     1
270
     1
271
     1
  0
XRECORD
  5
20
102
{ACAD_REACTORS
330
1A
102
}
330
1A
100
AcDbXrecord
280
     1
270
     1
271
     1
  0
XRECORD
  5
1D
102
{ACAD_REACTORS
330
1A
102
}
330
1A
100
AcDbXrecord
280
     1
270
     1
271
     1
  0
XRECORD
  5
14
102
{ACAD_REACTORS
330
12
102
}
330
12
100
AcDbXrecord
280
     1
270
     1
271
     1
  0
XRECORD
  5
13
102
{ACAD_REACTORS
330
12
102
}
330
12
100
AcDbXrecord
280
     1
270
     1
271
     1
  0
XRECORD
  5
17
102
{ACAD_REACTORS
330
12
102
}
330
12
100
AcDbXrecord
280
     1
270
     1
271
     1
  0
XRECORD
  5
16
102
{ACAD_REACTORS
330
12
102
}
330
12
100
AcDbXrecord
280
     1
270
     1
271
     1
  0
XRECORD
  5
18
102
{ACAD_REACTORS
330
12
102
}
330
12
100
AcDbXrecord
280
     1
270
     1
271
     1
  0
XRECORD
  5
15
102
{ACAD_REACTORS
330
12
102
}
330
12
100
AcDbXrecord
280
     1
270
     1
271
     1
  0
XRECORD
  5
24
102
{ACAD_REACTORS
330
22
102
}
330
22
100
AcDbXrecord
280
     1
270
     1
271
     1
  0
XRECORD
  5
23
102
{ACAD_REACTORS
330
22
102
}
330
22
100
AcDbXrecord
280
     1
270
     1
271
     1
  0
XRECORD
  5
27
102
{ACAD_REACTORS
330
22
102
}
330
22
100
AcDbXrecord
280
     1
270
     1
271
     1
  0
XRECORD
  5
26
102
{ACAD_REACTORS
330
22
102
}
330
22
100
AcDbXrecord
280
     1
270
     1
271
     1
  0
XRECORD
  5
28
102
{ACAD_REACTORS
330
22
102
}
330
22
100
AcDbXrecord
280
     1
270
     1
271
     1
  0
XRECORD
  5
25
102
{ACAD_REACTORS
330
22
102
}
330
22
100
AcDbXrecord
280
     1
270
     1
271
     1
  0
XRECORD
  5
1D5
102
{ACAD_REACTORS
330
1D4
102
}
330
1D4
100
AcDbXrecord
280
     1
102
ACAD_ROUNDTRIP_2012_MLEADER_STYLE
298
     1
  0
XRECORD
  5
1D7
102
{ACAD_REACTORS
330
1D6
102
}
330
1D6
100
AcDbXrecord
280
     1
102
DISPLAYNAME
  1
Imperial24
102
FLAGS
 90
        0
  0
CELLSTYLEMAP
  5
1A2
102
{ACAD_REACTORS
330
1A1
102
}
330
1A1
100
AcDbCellStyleMap
 90
        3
300
CELLSTYLE
  1
TABLEFORMAT_BEGIN
 90
        5
170
     1
 91
        0
 92
    32768
 62
   257
 93
        1
300
CONTENTFORMAT
  1
CONTENTFORMAT_BEGIN
 90
        0
 91
        0
 92
      512
 93
        0
300

 40
0.0
140
1.0
 94
        5
 62
     0
340
55
144
0.25
309
CONTENTFORMAT_END
171
     0
 94
        0
309
TABLEFORMAT_END
  1
CELLSTYLE_BEGIN
 90
        1
 91
        1
300
_TITLE
309
CELLSTYLE_END
300
CELLSTYLE
  1
TABLEFORMAT_BEGIN
 90
        5
170
     1
 91
        0
 92
        0
 62
   257
 93
        1
300
CONTENTFORMAT
  1
CONTENTFORMAT_BEGIN
 90
        0
 91
        0
 92
      512
 93
        0
300

 40
0.0
140
1.0
 94
        5
 62
     0
340
55
144
0.18
309
CONTENTFORMAT_END
171
     0
 94
        0
309
TABLEFORMAT_END
  1
CELLSTYLE_BEGIN
 90
        2
 91
        1
300
_HEADER
309
CELLSTYLE_END
300
CELLSTYLE
  1
TABLEFORMAT_BEGIN
 90
        5
170
     1
 91
        0
 92
        0
 62
   257
 93
        1
300
CONTENTFORMAT
  1
CONTENTFORMAT_BEGIN
 90
        0
 91
        0
 92
      512
 93
        0
300

 40
0.0
140
1.0
 94
        2
 62
     0
340
55
144
0.18
309
CONTENTFORMAT_END
171
     0
 94
        0
309
TABLEFORMAT_END
  1
CELLSTYLE_BEGIN
 90
        3
 91
        2
300
_DATA
309
CELLSTYLE_END
  0
XRECORD
  5
1AF
102
{ACAD_REACTORS
330
1AE
102
}
330
1AE
100
AcDbXrecord
280
     1
102
RTVSPost2010Prop28
280
     1
102
RTVSPost2010PropOp28
 70
     1
102
RTVSPost2010Prop29
280
     1
102
RTVSPost2010PropOp29
 70
     1
102
RTVSPost2010Prop30
280
     0
102
RTVSPost2010PropOp30
 70
     1
102
RTVSPost2010Prop31
280
     0
102
RTVSPost2010PropOp31
 70
     1
102
RTVSPost2010Prop32
280
     0
102
RTVSPost2010PropOp32
 70
     1
102
RTVSPost2010Prop33
280
     0
102
RTVSPost2010PropOp33
 70
     1
102
RTVSPost2010Prop34
280
     0
102
RTVSPost2010PropOp34
 70
     1
102
RTVSPost2010Prop35
280
     0
102
RTVSPost2010PropOp35
 70
     1
102
RTVSPost2010Prop36
280
     0
102
RTVSPost2010PropOp36
 70
     1
102
RTVSPost2010Prop37
 90
       50
102
RTVSPost2010PropOp37
 70
     1
102
RTVSPost2010Prop38
140
0.0
102
RTVSPost2010PropOp38
 70
     1
102
RTVSPost2010Prop39
140
1.0
102
RTVSPost2010PropOp39
 70
     1
102
RTVSPost2010Prop40
 90
        0
102
RTVSPost2010PropOp40
 70
     1
102
RTVSPost2010Prop41ColorIndex
 90
       18
102
RTVSPost2010Prop41ColorRGB
 90
        0
102
RTVSPost2010PropOp41
 70
     1
102
RTVSPost2010Prop42
 90
       50
102
RTVSPost2010PropOp42
 70
     1
102
RTVSPost2010Prop43
 90
        3
102
RTVSPost2010PropOp43
 70
     1
102
RTVSPost2010Prop44ColorIndex
 90
        5
102
RTVSPost2010Prop44ColorRGB
 90
      255
102
RTVSPost2010PropOp44
 70
     1
102
RTVSPost2010Prop45
280
     0
102
RTVSPost2010PropOp45
 70
     1
102
RTVSPost2010Prop46
 90
       50
102
RTVSPost2010PropOp46
 70
     1
102
RTVSPost2010Prop47
 90
       50
102
RTVSPost2010PropOp47
 70
     1
102
RTVSPost2010Prop48
 90
       50
102
RTVSPost2010PropOp48
 70
     1
102
RTVSPost2010Prop49
280
     0
102
RTVSPost2010PropOp49
 70
     1
102
RTVSPost2010Prop50
 90
       50
102
RTVSPost2010PropOp50
 70
     1
102
RTVSPost2010Prop51ColorIndex
 90
      256
102
RTVSPost2010Prop51ColorRGB
 90
-16777216
102
RTVSPost2010PropOp51
 70
     0
102
RTVSPost2010Prop52
140
1.0
102
RTVSPost2010PropOp52
 70
     0
102
RTVSPost2010Prop53
 90
        2
102
RTVSPost2010PropOp53
 70
     1
102
RTVSPost2010Prop54
  1
strokes_ogs.tif
102
RTVSPost2010PropOp54
 70
     1
102
RTVSPost2010Prop55
280
     0
102
RTVSPost2010PropOp55
 70
     1
102
RTVSPost2010Prop56
140
1.0
102
RTVSPost2010PropOp56
 70
     1
102
RTVSPost2010Prop57
140
1.0
102
RTVSPost2010PropOp57
 70
     1
  0
XRECORD
  5
1AD
102
{ACAD_REACTORS
330
1AC
102
}
330
1AC
100
AcDbXrecord
280
     1
102
RTVSPost2010Prop28
280
     0
102
RTVSPost2010PropOp28
 70
     1
102
RTVSPost2010Prop29
280
     1
102
RTVSPost2010PropOp29
 70
     1
102
RTVSPost2010Prop30
280
     1
102
RTVSPost2010PropOp30
 70
     1
102
RTVSPost2010Prop31
280
     0
102
RTVSPost2010PropOp31
 70
     1
102
RTVSPost2010Prop32
280
     0
102
RTVSPost2010PropOp32
 70
     1
102
RTVSPost2010Prop33
280
     0
102
RTVSPost2010PropOp33
 70
     1
102
RTVSPost2010Prop34
280
     0
102
RTVSPost2010PropOp34
 70
     1
102
RTVSPost2010Prop35
280
     0
102
RTVSPost2010PropOp35
 70
     1
102
RTVSPost2010Prop36
280
     0
102
RTVSPost2010PropOp36
 70
     1
102
RTVSPost2010Prop37
 90
       50
102
RTVSPost2010PropOp37
 70
     1
102
RTVSPost2010Prop38
140
0.0
102
RTVSPost2010PropOp38
 70
     1
102
RTVSPost2010Prop39
140
1.0
102
RTVSPost2010PropOp39
 70
     1
102
RTVSPost2010Prop40
 90
        0
102
RTVSPost2010PropOp40
 70
     1
102
RTVSPost2010Prop41ColorIndex
 90
       18
102
RTVSPost2010Prop41ColorRGB
 90
        0
102
RTVSPost2010PropOp41
 70
     1
102
RTVSPost2010Prop42
 90
       50
102
RTVSPost2010PropOp42
 70
     1
102
RTVSPost2010Prop43
 90
        3
102
RTVSPost2010PropOp43
 70
     1
102
RTVSPost2010Prop44ColorIndex
 90
        5
102
RTVSPost2010Prop44ColorRGB
 90
      255
102
RTVSPost2010PropOp44
 70
     1
102
RTVSPost2010Prop45
280
     0
102
RTVSPost2010PropOp45
 70
     1
102
RTVSPost2010Prop46
 90
       50
102
RTVSPost2010PropOp46
 70
     1
102
RTVSPost2010Prop47
 90
       50
102
RTVSPost2010PropOp47
 70
     1
102
RTVSPost2010Prop48
 90
       50
102
RTVSPost2010PropOp48
 70
     1
102
RTVSPost2010Prop49
280
     0
102
RTVSPost2010PropOp49
 70
     1
102
RTVSPost2010Prop50
 90
       50
102
RTVSPost2010PropOp50
 70
     1
102
RTVSPost2010Prop51ColorIndex
 90
      256
102
RTVSPost2010Prop51ColorRGB
 90
-16777216
102
RTVSPost2010PropOp51
 70
     0
102
RTVSPost2010Prop52
140
1.0
102
RTVSPost2010PropOp52
 70
     0
102
RTVSPost2010Prop53
 90
        2
102
RTVSPost2010PropOp53
 70
     1
102
RTVSPost2010Prop54
  1
strokes_ogs.tif
102
RTVSPost2010PropOp54
 70
     1
102
RTVSPost2010Prop55
280
     0
102
RTVSPost2010PropOp55
 70
     1
102
RTVSPost2010Prop56
140
1.0
102
RTVSPost2010PropOp56
 70
     1
102
RTVSPost2010Prop57
140
1.0
102
RTVSPost2010PropOp57
 70
     1
  0
XRECORD
  5
1BB
102
{ACAD_REACTORS
330
1BA
102
}
330
1BA
100
AcDbXrecord
280
     1
102
RTVSPost2010Prop28
280
     0
102
RTVSPost2010PropOp28
 70
     1
102
RTVSPost2010Prop29
280
     1
102
RTVSPost2010PropOp29
 70
     1
102
RTVSPost2010Prop30
280
     1
102
RTVSPost2010PropOp30
 70
     1
102
RTVSPost2010Prop31
280
     0
102
RTVSPost2010PropOp31
 70
     1
102
RTVSPost2010Prop32
280
     0
102
RTVSPost2010PropOp32
 70
     1
102
RTVSPost2010Prop33
280
     0
102
RTVSPost2010PropOp33
 70
     1
102
RTVSPost2010Prop34
280
     0
102
RTVSPost2010PropOp34
 70
     1
102
RTVSPost2010Prop35
280
     0
102
RTVSPost2010PropOp35
 70
     1
102
RTVSPost2010Prop36
280
     0
102
RTVSPost2010PropOp36
 70
     1
102
RTVSPost2010Prop37
 90
       50
102
RTVSPost2010PropOp37
 70
     1
102
RTVSPost2010Prop38
140
0.0
102
RTVSPost2010PropOp38
 70
     1
102
RTVSPost2010Prop39
140
1.0
102
RTVSPost2010PropOp39
 70
     1
102
RTVSPost2010Prop40
 90
        0
102
RTVSPost2010PropOp40
 70
     1
102
RTVSPost2010Prop41ColorIndex
 90
       18
102
RTVSPost2010Prop41ColorRGB
 90
        0
102
RTVSPost2010PropOp41
 70
     1
102
RTVSPost2010Prop42
 90
       50
102
RTVSPost2010PropOp42
 70
     1
102
RTVSPost2010Prop43
 90
        3
102
RTVSPost2010PropOp43
 70
     1
102
RTVSPost2010Prop44ColorIndex
 90
        5
102
RTVSPost2010Prop44ColorRGB
 90
      255
102
RTVSPost2010PropOp44
 70
     1
102
RTVSPost2010Prop45
280
     0
102
RTVSPost2010PropOp45
 70
     1
102
RTVSPost2010Prop46
 90
       50
102
RTVSPost2010PropOp46
 70
     1
102
RTVSPost2010Prop47
 90
       50
102
RTVSPost2010PropOp47
 70
     1
102
RTVSPost2010Prop48
 90
       50
102
RTVSPost2010PropOp48
 70
     1
102
RTVSPost2010Prop49
280
     0
102
RTVSPost2010PropOp49
 70
     1
102
RTVSPost2010Prop50
 90
       50
102
RTVSPost2010PropOp50
 70
     1
102
RTVSPost2010Prop51ColorIndex
 90
      256
102
RTVSPost2010Prop51ColorRGB
 90
-16777216
102
RTVSPost2010PropOp51
 70
     0
102
RTVSPost2010Prop52
140
1.0
102
RTVSPost2010PropOp52
 70
     0
102
RTVSPost2010Prop53
 90
        2
102
RTVSPost2010PropOp53
 70
     1
102
RTVSPost2010Prop54
  1
strokes_ogs.tif
102
RTVSPost2010PropOp54
 70
     1
102
RTVSPost2010Prop55
280
     0
102
RTVSPost2010PropOp55
 70
     1
102
RTVSPost2010Prop56
140
1.0
102
RTVSPost2010PropOp56
 70
     1
102
RTVSPost2010Prop57
140
1.0
102
RTVSPost2010PropOp57
 70
     1
  0
XRECORD
  5
1C3
102
{ACAD_REACTORS
330
1C2
102
}
330
1C2
100
AcDbXrecord
280
     1
102
RTVSPost2010Prop28
280
     0
102
RTVSPost2010PropOp28
 70
     1
102
RTVSPost2010Prop29
280
     1
102
RTVSPost2010PropOp29
 70
     1
102
RTVSPost2010Prop30
280
     1
102
RTVSPost2010PropOp30
 70
     1
102
RTVSPost2010Prop31
280
     0
102
RTVSPost2010PropOp31
 70
     1
102
RTVSPost2010Prop32
280
     0
102
RTVSPost2010PropOp32
 70
     1
102
RTVSPost2010Prop33
280
     0
102
RTVSPost2010PropOp33
 70
     1
102
RTVSPost2010Prop34
280
     0
102
RTVSPost2010PropOp34
 70
     1
102
RTVSPost2010Prop35
280
     0
102
RTVSPost2010PropOp35
 70
     1
102
RTVSPost2010Prop36
280
     0
102
RTVSPost2010PropOp36
 70
     1
102
RTVSPost2010Prop37
 90
       50
102
RTVSPost2010PropOp37
 70
     1
102
RTVSPost2010Prop38
140
0.0
102
RTVSPost2010PropOp38
 70
     1
102
RTVSPost2010Prop39
140
1.0
102
RTVSPost2010PropOp39
 70
     1
102
RTVSPost2010Prop40
 90
        0
102
RTVSPost2010PropOp40
 70
     1
102
RTVSPost2010Prop41ColorIndex
 90
       18
102
RTVSPost2010Prop41ColorRGB
 90
        0
102
RTVSPost2010PropOp41
 70
     1
102
RTVSPost2010Prop42
 90
       50
102
RTVSPost2010PropOp42
 70
     1
102
RTVSPost2010Prop43
 90
        3
102
RTVSPost2010PropOp43
 70
     1
102
RTVSPost2010Prop44ColorIndex
 90
        5
102
RTVSPost2010Prop44ColorRGB
 90
      255
102
RTVSPost2010PropOp44
 70
     1
102
RTVSPost2010Prop45
280
     0
102
RTVSPost2010PropOp45
 70
     1
102
RTVSPost2010Prop46
 90
       50
102
RTVSPost2010PropOp46
 70
     1
102
RTVSPost2010Prop47
 90
       50
102
RTVSPost2010PropOp47
 70
     1
102
RTVSPost2010Prop48
 90
       50
102
RTVSPost2010PropOp48
 70
     1
102
RTVSPost2010Prop49
280
     0
102
RTVSPost2010PropOp49
 70
     1
102
RTVSPost2010Prop50
 90
       50
102
RTVSPost2010PropOp50
 70
     1
102
RTVSPost2010Prop51ColorIndex
 90
      256
102
RTVSPost2010Prop51ColorRGB
 90
-16777216
102
RTVSPost2010PropOp51
 70
     0
102
RTVSPost2010Prop52
140
1.0
102
RTVSPost2010PropOp52
 70
     0
102
RTVSPost2010Prop53
 90
        2
102
RTVSPost2010PropOp53
 70
     1
102
RTVSPost2010Prop54
  1
strokes_ogs.tif
102
RTVSPost2010PropOp54
 70
     1
102
RTVSPost2010Prop55
280
     0
102
RTVSPost2010PropOp55
 70
     1
102
RTVSPost2010Prop56
140
1.0
102
RTVSPost2010PropOp56
 70
     1
102
RTVSPost2010Prop57
140
1.0
102
RTVSPost2010PropOp57
 70
     1
  0
XRECORD
  5
1B5
102
{ACAD_REACTORS
330
1B4
102
}
330
1B4
100
AcDbXrecord
280
     1
102
RTVSPost2010Prop28
280
     0
102
RTVSPost2010PropOp28
 70
     1
102
RTVSPost2010Prop29
280
     1
102
RTVSPost2010PropOp29
 70
     1
102
RTVSPost2010Prop30
280
     1
102
RTVSPost2010PropOp30
 70
     1
102
RTVSPost2010Prop31
280
     0
102
RTVSPost2010PropOp31
 70
     1
102
RTVSPost2010Prop32
280
     0
102
RTVSPost2010PropOp32
 70
     1
102
RTVSPost2010Prop33
280
     0
102
RTVSPost2010PropOp33
 70
     1
102
RTVSPost2010Prop34
280
     0
102
RTVSPost2010PropOp34
 70
     1
102
RTVSPost2010Prop35
280
     0
102
RTVSPost2010PropOp35
 70
     1
102
RTVSPost2010Prop36
280
     0
102
RTVSPost2010PropOp36
 70
     1
102
RTVSPost2010Prop37
 90
       50
102
RTVSPost2010PropOp37
 70
     1
102
RTVSPost2010Prop38
140
0.0
102
RTVSPost2010PropOp38
 70
     1
102
RTVSPost2010Prop39
140
1.0
102
RTVSPost2010PropOp39
 70
     1
102
RTVSPost2010Prop40
 90
        0
102
RTVSPost2010PropOp40
 70
     1
102
RTVSPost2010Prop41ColorIndex
 90
       18
102
RTVSPost2010Prop41ColorRGB
 90
        0
102
RTVSPost2010PropOp41
 70
     1
102
RTVSPost2010Prop42
 90
       50
102
RTVSPost2010PropOp42
 70
     1
102
RTVSPost2010Prop43
 90
        3
102
RTVSPost2010PropOp43
 70
     1
102
RTVSPost2010Prop44ColorIndex
 90
        5
102
RTVSPost2010Prop44ColorRGB
 90
      255
102
RTVSPost2010PropOp44
 70
     1
102
RTVSPost2010Prop45
280
     0
102
RTVSPost2010PropOp45
 70
     1
102
RTVSPost2010Prop46
 90
       50
102
RTVSPost2010PropOp46
 70
     1
102
RTVSPost2010Prop47
 90
       50
102
RTVSPost2010PropOp47
 70
     1
102
RTVSPost2010Prop48
 90
       50
102
RTVSPost2010PropOp48
 70
     1
102
RTVSPost2010Prop49
280
     0
102
RTVSPost2010PropOp49
 70
     1
102
RTVSPost2010Prop50
 90
       50
102
RTVSPost2010PropOp50
 70
     1
102
RTVSPost2010Prop51ColorIndex
 90
      256
102
RTVSPost2010Prop51ColorRGB
 90
-16777216
102
RTVSPost2010PropOp51
 70
     0
102
RTVSPost2010Prop52
140
1.0
102
RTVSPost2010PropOp52
 70
     0
102
RTVSPost2010Prop53
 90
        2
102
RTVSPost2010PropOp53
 70
     1
102
RTVSPost2010Prop54
  1
strokes_ogs.tif
102
RTVSPost2010PropOp54
 70
     1
102
RTVSPost2010Prop55
280
     0
102
RTVSPost2010PropOp55
 70
     1
102
RTVSPost2010Prop56
140
1.0
102
RTVSPost2010PropOp56
 70
     1
102
RTVSPost2010Prop57
140
1.0
102
RTVSPost2010PropOp57
 70
     1
  0
XRECORD
  5
1B9
102
{ACAD_REACTORS
330
1B8
102
}
330
1B8
100
AcDbXrecord
280
     1
102
RTVSPost2010Prop28
280
     0
102
RTVSPost2010PropOp28
 70
     1
102
RTVSPost2010Prop29
280
     1
102
RTVSPost2010PropOp29
 70
     1
102
RTVSPost2010Prop30
280
     1
102
RTVSPost2010PropOp30
 70
     1
102
RTVSPost2010Prop31
280
     0
102
RTVSPost2010PropOp31
 70
     1
102
RTVSPost2010Prop32
280
     0
102
RTVSPost2010PropOp32
 70
     1
102
RTVSPost2010Prop33
280
     0
102
RTVSPost2010PropOp33
 70
     1
102
RTVSPost2010Prop34
280
     0
102
RTVSPost2010PropOp34
 70
     1
102
RTVSPost2010Prop35
280
     0
102
RTVSPost2010PropOp35
 70
     1
102
RTVSPost2010Prop36
280
     0
102
RTVSPost2010PropOp36
 70
     1
102
RTVSPost2010Prop37
 90
       50
102
RTVSPost2010PropOp37
 70
     1
102
RTVSPost2010Prop38
140
0.0
102
RTVSPost2010PropOp38
 70
     1
102
RTVSPost2010Prop39
140
1.0
102
RTVSPost2010PropOp39
 70
     1
102
RTVSPost2010Prop40
 90
        0
102
RTVSPost2010PropOp40
 70
     1
102
RTVSPost2010Prop41ColorIndex
 90
       18
102
RTVSPost2010Prop41ColorRGB
 90
        0
102
RTVSPost2010PropOp41
 70
     1
102
RTVSPost2010Prop42
 90
       50
102
RTVSPost2010PropOp42
 70
     1
102
RTVSPost2010Prop43
 90
        3
102
RTVSPost2010PropOp43
 70
     1
102
RTVSPost2010Prop44ColorIndex
 90
        5
102
RTVSPost2010Prop44ColorRGB
 90
      255
102
RTVSPost2010PropOp44
 70
     1
102
RTVSPost2010Prop45
280
     0
102
RTVSPost2010PropOp45
 70
     1
102
RTVSPost2010Prop46
 90
       50
102
RTVSPost2010PropOp46
 70
     1
102
RTVSPost2010Prop47
 90
       50
102
RTVSPost2010PropOp47
 70
     1
102
RTVSPost2010Prop48
 90
       50
102
RTVSPost2010PropOp48
 70
     1
102
RTVSPost2010Prop49
280
     0
102
RTVSPost2010PropOp49
 70
     1
102
RTVSPost2010Prop50
 90
       50
102
RTVSPost2010PropOp50
 70
     1
102
RTVSPost2010Prop51ColorIndex
 90
      256
102
RTVSPost2010Prop51ColorRGB
 90
-16777216
102
RTVSPost2010PropOp51
 70
     0
102
RTVSPost2010Prop52
140
1.0
102
RTVSPost2010PropOp52
 70
     0
102
RTVSPost2010Prop53
 90
        2
102
RTVSPost2010PropOp53
 70
     1
102
RTVSPost2010Prop54
  1
strokes_ogs.tif
102
RTVSPost2010PropOp54
 70
     1
102
RTVSPost2010Prop55
280
     0
102
RTVSPost2010PropOp55
 70
     1
102
RTVSPost2010Prop56
140
1.0
102
RTVSPost2010PropOp56
 70
     1
102
RTVSPost2010Prop57
140
1.0
102
RTVSPost2010PropOp57
 70
     1
  0
XRECORD
  5
1D3
102
{ACAD_REACTORS
330
1D2
102
}
330
1D2
100
AcDbXrecord
280
     1
102
RTVSPost2010Prop28
280
     0
102
RTVSPost2010PropOp28
 70
     0
102
RTVSPost2010Prop29
280
     1
102
RTVSPost2010PropOp29
 70
     0
102
RTVSPost2010Prop30
280
     1
102
RTVSPost2010PropOp30
 70
     0
102
RTVSPost2010Prop31
280
     0
102
RTVSPost2010PropOp31
 70
     0
102
RTVSPost2010Prop32
280
     0
102
RTVSPost2010PropOp32
 70
     0
102
RTVSPost2010Prop33
280
     0
102
RTVSPost2010PropOp33
 70
     0
102
RTVSPost2010Prop34
280
     0
102
RTVSPost2010PropOp34
 70
     0
102
RTVSPost2010Prop35
280
     0
102
RTVSPost2010PropOp35
 70
     0
102
RTVSPost2010Prop36
280
     0
102
RTVSPost2010PropOp36
 70
     0
102
RTVSPost2010Prop37
 90
       50
102
RTVSPost2010PropOp37
 70
     0
102
RTVSPost2010Prop38
140
0.0
102
RTVSPost2010PropOp38
 70
     0
102
RTVSPost2010Prop39
140
1.0
102
RTVSPost2010PropOp39
 70
     0
102
RTVSPost2010Prop40
 90
        0
102
RTVSPost2010PropOp40
 70
     0
102
RTVSPost2010Prop41ColorIndex
 90
       18
102
RTVSPost2010Prop41ColorRGB
 90
        0
102
RTVSPost2010PropOp41
 70
     0
102
RTVSPost2010Prop42
 90
       50
102
RTVSPost2010PropOp42
 70
     0
102
RTVSPost2010Prop43
 90
        3
102
RTVSPost2010PropOp43
 70
     0
102
RTVSPost2010Prop44ColorIndex
 90
        5
102
RTVSPost2010Prop44ColorRGB
 90
      255
102
RTVSPost2010PropOp44
 70
     0
102
RTVSPost2010Prop45
280
     0
102
RTVSPost2010PropOp45
 70
     0
102
RTVSPost2010Prop46
 90
       50
102
RTVSPost2010PropOp46
 70
     0
102
RTVSPost2010Prop47
 90
       50
102
RTVSPost2010PropOp47
 70
     0
102
RTVSPost2010Prop48
 90
       50
102
RTVSPost2010PropOp48
 70
     0
102
RTVSPost2010Prop49
280
     0
102
RTVSPost2010PropOp49
 70
     0
102
RTVSPost2010Prop50
 90
       50
102
RTVSPost2010PropOp50
 70
     0
102
RTVSPost2010Prop51ColorIndex
 90
      256
102
RTVSPost2010Prop51ColorRGB
 90
-16777216
102
RTVSPost2010PropOp51
 70
     0
102
RTVSPost2010Prop52
140
1.0
102
RTVSPost2010PropOp52
 70
     0
102
RTVSPost2010Prop53
 90
        2
102
RTVSPost2010PropOp53
 70
     0
102
RTVSPost2010Prop54
  1
strokes_ogs.tif
102
RTVSPost2010PropOp54
 70
     0
102
RTVSPost2010Prop55
280
     0
102
RTVSPost2010PropOp55
 70
     0
102
RTVSPost2010Prop56
140
1.0
102
RTVSPost2010PropOp56
 70
     0
102
RTVSPost2010Prop57
140
1.0
102
RTVSPost2010PropOp57
 70
     0
  0
XRECORD
  5
1C1
102
{ACAD_REACTORS
330
1C0
102
}
330
1C0
100
AcDbXrecord
280
     1
102
RTVSPost2010Prop28
280
     0
102
RTVSPost2010PropOp28
 70
     1
102
RTVSPost2010Prop29
280
     1
102
RTVSPost2010PropOp29
 70
     1
102
RTVSPost2010Prop30
280
     1
102
RTVSPost2010PropOp30
 70
     1
102
RTVSPost2010Prop31
280
     0
102
RTVSPost2010PropOp31
 70
     1
102
RTVSPost2010Prop32
280
     0
102
RTVSPost2010PropOp32
 70
     1
102
RTVSPost2010Prop33
280
     0
102
RTVSPost2010PropOp33
 70
     1
102
RTVSPost2010Prop34
280
     0
102
RTVSPost2010PropOp34
 70
     1
102
RTVSPost2010Prop35
280
     0
102
RTVSPost2010PropOp35
 70
     1
102
RTVSPost2010Prop36
280
     0
102
RTVSPost2010PropOp36
 70
     1
102
RTVSPost2010Prop37
 90
       50
102
RTVSPost2010PropOp37
 70
     1
102
RTVSPost2010Prop38
140
0.0
102
RTVSPost2010PropOp38
 70
     1
102
RTVSPost2010Prop39
140
1.0
102
RTVSPost2010PropOp39
 70
     1
102
RTVSPost2010Prop40
 90
        0
102
RTVSPost2010PropOp40
 70
     1
102
RTVSPost2010Prop41ColorIndex
 90
       18
102
RTVSPost2010Prop41ColorRGB
 90
        0
102
RTVSPost2010PropOp41
 70
     1
102
RTVSPost2010Prop42
 90
       50
102
RTVSPost2010PropOp42
 70
     1
102
RTVSPost2010Prop43
 90
        3
102
RTVSPost2010PropOp43
 70
     1
102
RTVSPost2010Prop44ColorIndex
 90
        5
102
RTVSPost2010Prop44ColorRGB
 90
      255
102
RTVSPost2010PropOp44
 70
     1
102
RTVSPost2010Prop45
280
     0
102
RTVSPost2010PropOp45
 70
     1
102
RTVSPost2010Prop46
 90
       50
102
RTVSPost2010PropOp46
 70
     1
102
RTVSPost2010Prop47
 90
       50
102
RTVSPost2010PropOp47
 70
     1
102
RTVSPost2010Prop48
 90
       50
102
RTVSPost2010PropOp48
 70
     1
102
RTVSPost2010Prop49
280
     0
102
RTVSPost2010PropOp49
 70
     1
102
RTVSPost2010Prop50
 90
       50
102
RTVSPost2010PropOp50
 70
     1
102
RTVSPost2010Prop51ColorIndex
 90
      256
102
RTVSPost2010Prop51ColorRGB
 90
-16777216
102
RTVSPost2010PropOp51
 70
     0
102
RTVSPost2010Prop52
140
1.0
102
RTVSPost2010PropOp52
 70
     0
102
RTVSPost2010Prop53
 90
        2
102
RTVSPost2010PropOp53
 70
     1
102
RTVSPost2010Prop54
  1
strokes_ogs.tif
102
RTVSPost2010PropOp54
 70
     1
102
RTVSPost2010Prop55
280
     0
102
RTVSPost2010PropOp55
 70
     1
102
RTVSPost2010Prop56
140
1.0
102
RTVSPost2010PropOp56
 70
     1
102
RTVSPost2010Prop57
140
1.0
102
RTVSPost2010PropOp57
 70
     1
  0
XRECORD
  5
1A5
102
{ACAD_REACTORS
330
1A4
102
}
330
1A4
100
AcDbXrecord
280
     1
102
RTVSPost2010Prop28
280
     0
102
RTVSPost2010PropOp28
 70
     1
102
RTVSPost2010Prop29
280
     1
102
RTVSPost2010PropOp29
 70
     1
102
RTVSPost2010Prop30
280
     1
102
RTVSPost2010PropOp30
 70
     1
102
RTVSPost2010Prop31
280
     0
102
RTVSPost2010PropOp31
 70
     1
102
RTVSPost2010Prop32
280
     0
102
RTVSPost2010PropOp32
 70
     1
102
RTVSPost2010Prop33
280
     0
102
RTVSPost2010PropOp33
 70
     1
102
RTVSPost2010Prop34
280
     0
102
RTVSPost2010PropOp34
 70
     1
102
RTVSPost2010Prop35
280
     0
102
RTVSPost2010PropOp35
 70
     1
102
RTVSPost2010Prop36
280
     0
102
RTVSPost2010PropOp36
 70
     1
102
RTVSPost2010Prop37
 90
       50
102
RTVSPost2010PropOp37
 70
     1
102
RTVSPost2010Prop38
140
0.0
102
RTVSPost2010PropOp38
 70
     1
102
RTVSPost2010Prop39
140
1.0
102
RTVSPost2010PropOp39
 70
     1
102
RTVSPost2010Prop40
 90
        0
102
RTVSPost2010PropOp40
 70
     1
102
RTVSPost2010Prop41ColorIndex
 90
       18
102
RTVSPost2010Prop41ColorRGB
 90
        0
102
RTVSPost2010PropOp41
 70
     1
102
RTVSPost2010Prop42
 90
       50
102
RTVSPost2010PropOp42
 70
     1
102
RTVSPost2010Prop43
 90
        3
102
RTVSPost2010PropOp43
 70
     1
102
RTVSPost2010Prop44ColorIndex
 90
        5
102
RTVSPost2010Prop44ColorRGB
 90
      255
102
RTVSPost2010PropOp44
 70
     1
102
RTVSPost2010Prop45
280
     0
102
RTVSPost2010PropOp45
 70
     1
102
RTVSPost2010Prop46
 90
       50
102
RTVSPost2010PropOp46
 70
     1
102
RTVSPost2010Prop47
 90
       50
102
RTVSPost2010PropOp47
 70
     1
102
RTVSPost2010Prop48
 90
       50
102
RTVSPost2010PropOp48
 70
     1
102
RTVSPost2010Prop49
280
     0
102
RTVSPost2010PropOp49
 70
     1
102
RTVSPost2010Prop50
 90
       50
102
RTVSPost2010PropOp50
 70
     1
102
RTVSPost2010Prop51ColorIndex
 90
      256
102
RTVSPost2010Prop51ColorRGB
 90
-16777216
102
RTVSPost2010PropOp51
 70
     0
102
RTVSPost2010Prop52
140
1.0
102
RTVSPost2010PropOp52
 70
     0
102
RTVSPost2010Prop53
 90
        2
102
RTVSPost2010PropOp53
 70
     1
102
RTVSPost2010Prop54
  1
strokes_ogs.tif
102
RTVSPost2010PropOp54
 70
     1
102
RTVSPost2010Prop55
280
     0
102
RTVSPost2010PropOp55
 70
     1
102
RTVSPost2010Prop56
140
1.0
102
RTVSPost2010PropOp56
 70
     1
102
RTVSPost2010Prop57
140
1.0
102
RTVSPost2010PropOp57
 70
     1
  0
XRECORD
  5
1A7
102
{ACAD_REACTORS
330
1A6
102
}
330
1A6
100
AcDbXrecord
280
     1
102
RTVSPost2010Prop28
280
     0
102
RTVSPost2010PropOp28
 70
     1
102
RTVSPost2010Prop29
280
     1
102
RTVSPost2010PropOp29
 70
     1
102
RTVSPost2010Prop30
280
     1
102
RTVSPost2010PropOp30
 70
     1
102
RTVSPost2010Prop31
280
     0
102
RTVSPost2010PropOp31
 70
     1
102
RTVSPost2010Prop32
280
     0
102
RTVSPost2010PropOp32
 70
     1
102
RTVSPost2010Prop33
280
     0
102
RTVSPost2010PropOp33
 70
     1
102
RTVSPost2010Prop34
280
     0
102
RTVSPost2010PropOp34
 70
     1
102
RTVSPost2010Prop35
280
     0
102
RTVSPost2010PropOp35
 70
     1
102
RTVSPost2010Prop36
280
     0
102
RTVSPost2010PropOp36
 70
     1
102
RTVSPost2010Prop37
 90
       50
102
RTVSPost2010PropOp37
 70
     1
102
RTVSPost2010Prop38
140
0.0
102
RTVSPost2010PropOp38
 70
     1
102
RTVSPost2010Prop39
140
1.0
102
RTVSPost2010PropOp39
 70
     1
102
RTVSPost2010Prop40
 90
        0
102
RTVSPost2010PropOp40
 70
     1
102
RTVSPost2010Prop41ColorIndex
 90
       18
102
RTVSPost2010Prop41ColorRGB
 90
        0
102
RTVSPost2010PropOp41
 70
     1
102
RTVSPost2010Prop42
 90
       50
102
RTVSPost2010PropOp42
 70
     1
102
RTVSPost2010Prop43
 90
        3
102
RTVSPost2010PropOp43
 70
     1
102
RTVSPost2010Prop44ColorIndex
 90
        5
102
RTVSPost2010Prop44ColorRGB
 90
      255
102
RTVSPost2010PropOp44
 70
     1
102
RTVSPost2010Prop45
280
     0
102
RTVSPost2010PropOp45
 70
     1
102
RTVSPost2010Prop46
 90
       50
102
RTVSPost2010PropOp46
 70
     1
102
RTVSPost2010Prop47
 90
       50
102
RTVSPost2010PropOp47
 70
     1
102
RTVSPost2010Prop48
 90
       50
102
RTVSPost2010PropOp48
 70
     1
102
RTVSPost2010Prop49
280
     0
102
RTVSPost2010PropOp49
 70
     1
102
RTVSPost2010Prop50
 90
       50
102
RTVSPost2010PropOp50
 70
     1
102
RTVSPost2010Prop51ColorIndex
 90
      256
102
RTVSPost2010Prop51ColorRGB
 90
-16777216
102
RTVSPost2010PropOp51
 70
     0
102
RTVSPost2010Prop52
140
1.0
102
RTVSPost2010PropOp52
 70
     0
102
RTVSPost2010Prop53
 90
        2
102
RTVSPost2010PropOp53
 70
     1
102
RTVSPost2010Prop54
  1
strokes_ogs.tif
102
RTVSPost2010PropOp54
 70
     1
102
RTVSPost2010Prop55
280
     0
102
RTVSPost2010PropOp55
 70
     1
102
RTVSPost2010Prop56
140
1.0
102
RTVSPost2010PropOp56
 70
     1
102
RTVSPost2010Prop57
140
1.0
102
RTVSPost2010PropOp57
 70
     1
  0
XRECORD
  5
1A9
102
{ACAD_REACTORS
330
1A8
102
}
330
1A8
100
AcDbXrecord
280
     1
102
RTVSPost2010Prop28
280
     0
102
RTVSPost2010PropOp28
 70
     1
102
RTVSPost2010Prop29
280
     1
102
RTVSPost2010PropOp29
 70
     1
102
RTVSPost2010Prop30
280
     1
102
RTVSPost2010PropOp30
 70
     1
102
RTVSPost2010Prop31
280
     0
102
RTVSPost2010PropOp31
 70
     1
102
RTVSPost2010Prop32
280
     0
102
RTVSPost2010PropOp32
 70
     1
102
RTVSPost2010Prop33
280
     0
102
RTVSPost2010PropOp33
 70
     1
102
RTVSPost2010Prop34
280
     0
102
RTVSPost2010PropOp34
 70
     1
102
RTVSPost2010Prop35
280
     0
102
RTVSPost2010PropOp35
 70
     1
102
RTVSPost2010Prop36
280
     0
102
RTVSPost2010PropOp36
 70
     1
102
RTVSPost2010Prop37
 90
       50
102
RTVSPost2010PropOp37
 70
     1
102
RTVSPost2010Prop38
140
0.0
102
RTVSPost2010PropOp38
 70
     1
102
RTVSPost2010Prop39
140
1.0
102
RTVSPost2010PropOp39
 70
     1
102
RTVSPost2010Prop40
 90
        0
102
RTVSPost2010PropOp40
 70
     1
102
RTVSPost2010Prop41ColorIndex
 90
       18
102
RTVSPost2010Prop41ColorRGB
 90
        0
102
RTVSPost2010PropOp41
 70
     1
102
RTVSPost2010Prop42
 90
       50
102
RTVSPost2010PropOp42
 70
     1
102
RTVSPost2010Prop43
 90
        3
102
RTVSPost2010PropOp43
 70
     1
102
RTVSPost2010Prop44ColorIndex
 90
        5
102
RTVSPost2010Prop44ColorRGB
 90
      255
102
RTVSPost2010PropOp44
 70
     1
102
RTVSPost2010Prop45
280
     0
102
RTVSPost2010PropOp45
 70
     1
102
RTVSPost2010Prop46
 90
       50
102
RTVSPost2010PropOp46
 70
     1
102
RTVSPost2010Prop47
 90
       50
102
RTVSPost2010PropOp47
 70
     1
102
RTVSPost2010Prop48
 90
       50
102
RTVSPost2010PropOp48
 70
     1
102
RTVSPost2010Prop49
280
     0
102
RTVSPost2010PropOp49
 70
     1
102
RTVSPost2010Prop50
 90
       50
102
RTVSPost2010PropOp50
 70
     1
102
RTVSPost2010Prop51ColorIndex
 90
      256
102
RTVSPost2010Prop51ColorRGB
 90
-16777216
102
RTVSPost2010PropOp51
 70
     0
102
RTVSPost2010Prop52
140
1.0
102
RTVSPost2010PropOp52
 70
     0
102
RTVSPost2010Prop53
 90
        2
102
RTVSPost2010PropOp53
 70
     1
102
RTVSPost2010Prop54
  1
strokes_ogs.tif
102
RTVSPost2010PropOp54
 70
     1
102
RTVSPost2010Prop55
280
     0
102
RTVSPost2010PropOp55
 70
     1
102
RTVSPost2010Prop56
140
1.0
102
RTVSPost2010PropOp56
 70
     1
102
RTVSPost2010Prop57
140
1.0
102
RTVSPost2010PropOp57
 70
     1
  0
XRECORD
  5
1AB
102
{ACAD_REACTORS
330
1AA
102
}
330
1AA
100
AcDbXrecord
280
     1
102
RTVSPost2010Prop28
280
     0
102
RTVSPost2010PropOp28
 70
     1
102
RTVSPost2010Prop29
280
     1
102
RTVSPost2010PropOp29
 70
     1
102
RTVSPost2010Prop30
280
     1
102
RTVSPost2010PropOp30
 70
     1
102
RTVSPost2010Prop31
280
     0
102
RTVSPost2010PropOp31
 70
     1
102
RTVSPost2010Prop32
280
     0
102
RTVSPost2010PropOp32
 70
     1
102
RTVSPost2010Prop33
280
     0
102
RTVSPost2010PropOp33
 70
     1
102
RTVSPost2010Prop34
280
     0
102
RTVSPost2010PropOp34
 70
     1
102
RTVSPost2010Prop35
280
     0
102
RTVSPost2010PropOp35
 70
     1
102
RTVSPost2010Prop36
280
     0
102
RTVSPost2010PropOp36
 70
     1
102
RTVSPost2010Prop37
 90
       50
102
RTVSPost2010PropOp37
 70
     1
102
RTVSPost2010Prop38
140
0.0
102
RTVSPost2010PropOp38
 70
     1
102
RTVSPost2010Prop39
140
1.0
102
RTVSPost2010PropOp39
 70
     1
102
RTVSPost2010Prop40
 90
        0
102
RTVSPost2010PropOp40
 70
     1
102
RTVSPost2010Prop41ColorIndex
 90
       18
102
RTVSPost2010Prop41ColorRGB
 90
        0
102
RTVSPost2010PropOp41
 70
     1
102
RTVSPost2010Prop42
 90
       50
102
RTVSPost2010PropOp42
 70
     1
102
RTVSPost2010Prop43
 90
        3
102
RTVSPost2010PropOp43
 70
     1
102
RTVSPost2010Prop44ColorIndex
 90
        5
102
RTVSPost2010Prop44ColorRGB
 90
      255
102
RTVSPost2010PropOp44
 70
     1
102
RTVSPost2010Prop45
280
     0
102
RTVSPost2010PropOp45
 70
     1
102
RTVSPost2010Prop46
 90
       50
102
RTVSPost2010PropOp46
 70
     1
102
RTVSPost2010Prop47
 90
       50
102
RTVSPost2010PropOp47
 70
     1
102
RTVSPost2010Prop48
 90
       50
102
RTVSPost2010PropOp48
 70
     1
102
RTVSPost2010Prop49
280
     0
102
RTVSPost2010PropOp49
 70
     1
102
RTVSPost2010Prop50
 90
       50
102
RTVSPost2010PropOp50
 70
     1
102
RTVSPost2010Prop51ColorIndex
 90
      256
102
RTVSPost2010Prop51ColorRGB
 90
-16777216
102
RTVSPost2010PropOp51
 70
     0
102
RTVSPost2010Prop52
140
1.0
102
RTVSPost2010PropOp52
 70
     0
102
RTVSPost2010Prop53
 90
        2
102
RTVSPost2010PropOp53
 70
     1
102
RTVSPost2010Prop54
  1
strokes_ogs.tif
102
RTVSPost2010PropOp54
 70
     1
102
RTVSPost2010Prop55
280
     0
102
RTVSPost2010PropOp55
 70
     1
102
RTVSPost2010Prop56
140
1.0
102
RTVSPost2010PropOp56
 70
     1
102
RTVSPost2010Prop57
140
1.0
102
RTVSPost2010PropOp57
 70
     1
  0
XRECORD
  5
1B3
102
{ACAD_REACTORS
330
1B2
102
}
330
1B2
100
AcDbXrecord
280
     1
102
RTVSPost2010Prop28
280
     0
102
RTVSPost2010PropOp28
 70
     1
102
RTVSPost2010Prop29
280
     1
102
RTVSPost2010PropOp29
 70
     1
102
RTVSPost2010Prop30
280
     1
102
RTVSPost2010PropOp30
 70
     1
102
RTVSPost2010Prop31
280
     0
102
RTVSPost2010PropOp31
 70
     1
102
RTVSPost2010Prop32
280
     0
102
RTVSPost2010PropOp32
 70
     1
102
RTVSPost2010Prop33
280
     0
102
RTVSPost2010PropOp33
 70
     1
102
RTVSPost2010Prop34
280
     0
102
RTVSPost2010PropOp34
 70
     1
102
RTVSPost2010Prop35
280
     0
102
RTVSPost2010PropOp35
 70
     1
102
RTVSPost2010Prop36
280
     0
102
RTVSPost2010PropOp36
 70
     1
102
RTVSPost2010Prop37
 90
       50
102
RTVSPost2010PropOp37
 70
     1
102
RTVSPost2010Prop38
140
0.0
102
RTVSPost2010PropOp38
 70
     1
102
RTVSPost2010Prop39
140
1.0
102
RTVSPost2010PropOp39
 70
     1
102
RTVSPost2010Prop40
 90
        0
102
RTVSPost2010PropOp40
 70
     1
102
RTVSPost2010Prop41ColorIndex
 90
       18
102
RTVSPost2010Prop41ColorRGB
 90
        0
102
RTVSPost2010PropOp41
 70
     1
102
RTVSPost2010Prop42
 90
       50
102
RTVSPost2010PropOp42
 70
     1
102
RTVSPost2010Prop43
 90
        3
102
RTVSPost2010PropOp43
 70
     1
102
RTVSPost2010Prop44ColorIndex
 90
        5
102
RTVSPost2010Prop44ColorRGB
 90
      255
102
RTVSPost2010PropOp44
 70
     1
102
RTVSPost2010Prop45
280
     0
102
RTVSPost2010PropOp45
 70
     1
102
RTVSPost2010Prop46
 90
       50
102
RTVSPost2010PropOp46
 70
     1
102
RTVSPost2010Prop47
 90
       50
102
RTVSPost2010PropOp47
 70
     1
102
RTVSPost2010Prop48
 90
       50
102
RTVSPost2010PropOp48
 70
     1
102
RTVSPost2010Prop49
280
     0
102
RTVSPost2010PropOp49
 70
     1
102
RTVSPost2010Prop50
 90
       50
102
RTVSPost2010PropOp50
 70
     1
102
RTVSPost2010Prop51ColorIndex
 90
      256
102
RTVSPost2010Prop51ColorRGB
 90
-16777216
102
RTVSPost2010PropOp51
 70
     0
102
RTVSPost2010Prop52
140
1.0
102
RTVSPost2010PropOp52
 70
     0
102
RTVSPost2010Prop53
 90
        2
102
RTVSPost2010PropOp53
 70
     1
102
RTVSPost2010Prop54
  1
strokes_ogs.tif
102
RTVSPost2010PropOp54
 70
     1
102
RTVSPost2010Prop55
280
     0
102
RTVSPost2010PropOp55
 70
     1
102
RTVSPost2010Prop56
140
1.0
102
RTVSPost2010PropOp56
 70
     1
102
RTVSPost2010Prop57
140
1.0
102
RTVSPost2010PropOp57
 70
     1
  0
XRECORD
  5
1CF
102
{ACAD_REACTORS
330
1CE
102
}
330
1CE
100
AcDbXrecord
280
     1
102
RTVSPost2010Prop28
280
     0
102
RTVSPost2010PropOp28
 70
     0
102
RTVSPost2010Prop29
280
     1
102
RTVSPost2010PropOp29
 70
     0
102
RTVSPost2010Prop30
280
     1
102
RTVSPost2010PropOp30
 70
     0
102
RTVSPost2010Prop31
280
     0
102
RTVSPost2010PropOp31
 70
     0
102
RTVSPost2010Prop32
280
     0
102
RTVSPost2010PropOp32
 70
     0
102
RTVSPost2010Prop33
280
     0
102
RTVSPost2010PropOp33
 70
     0
102
RTVSPost2010Prop34
280
     0
102
RTVSPost2010PropOp34
 70
     0
102
RTVSPost2010Prop35
280
     0
102
RTVSPost2010PropOp35
 70
     0
102
RTVSPost2010Prop36
280
     0
102
RTVSPost2010PropOp36
 70
     0
102
RTVSPost2010Prop37
 90
       50
102
RTVSPost2010PropOp37
 70
     0
102
RTVSPost2010Prop38
140
0.0
102
RTVSPost2010PropOp38
 70
     0
102
RTVSPost2010Prop39
140
1.0
102
RTVSPost2010PropOp39
 70
     0
102
RTVSPost2010Prop40
 90
        0
102
RTVSPost2010PropOp40
 70
     0
102
RTVSPost2010Prop41ColorIndex
 90
       18
102
RTVSPost2010Prop41ColorRGB
 90
        0
102
RTVSPost2010PropOp41
 70
     0
102
RTVSPost2010Prop42
 90
       50
102
RTVSPost2010PropOp42
 70
     0
102
RTVSPost2010Prop43
 90
        3
102
RTVSPost2010PropOp43
 70
     0
102
RTVSPost2010Prop44ColorIndex
 90
        5
102
RTVSPost2010Prop44ColorRGB
 90
      255
102
RTVSPost2010PropOp44
 70
     0
102
RTVSPost2010Prop45
280
     0
102
RTVSPost2010PropOp45
 70
     0
102
RTVSPost2010Prop46
 90
       50
102
RTVSPost2010PropOp46
 70
     0
102
RTVSPost2010Prop47
 90
       50
102
RTVSPost2010PropOp47
 70
     0
102
RTVSPost2010Prop48
 90
       50
102
RTVSPost2010PropOp48
 70
     0
102
RTVSPost2010Prop49
280
     0
102
RTVSPost2010PropOp49
 70
     0
102
RTVSPost2010Prop50
 90
       50
102
RTVSPost2010PropOp50
 70
     0
102
RTVSPost2010Prop51ColorIndex
 90
      256
102
RTVSPost2010Prop51ColorRGB
 90
-16777216
102
RTVSPost2010PropOp51
 70
     0
102
RTVSPost2010Prop52
140
1.0
102
RTVSPost2010PropOp52
 70
     0
102
RTVSPost2010Prop53
 90
        2
102
RTVSPost2010PropOp53
 70
     0
102
RTVSPost2010Prop54
  1
strokes_ogs.tif
102
RTVSPost2010PropOp54
 70
     0
102
RTVSPost2010Prop55
280
     0
102
RTVSPost2010PropOp55
 70
     0
102
RTVSPost2010Prop56
140
1.0
102
RTVSPost2010PropOp56
 70
     0
102
RTVSPost2010Prop57
140
1.0
102
RTVSPost2010PropOp57
 70
     0
  0
XRECORD
  5
1BF
102
{ACAD_REACTORS
330
1BE
102
}
330
1BE
100
AcDbXrecord
280
     1
102
RTVSPost2010Prop28
280
     0
102
RTVSPost2010PropOp28
 70
     1
102
RTVSPost2010Prop29
280
     1
102
RTVSPost2010PropOp29
 70
     1
102
RTVSPost2010Prop30
280
     1
102
RTVSPost2010PropOp30
 70
     1
102
RTVSPost2010Prop31
280
     0
102
RTVSPost2010PropOp31
 70
     1
102
RTVSPost2010Prop32
280
     0
102
RTVSPost2010PropOp32
 70
     1
102
RTVSPost2010Prop33
280
     0
102
RTVSPost2010PropOp33
 70
     1
102
RTVSPost2010Prop34
280
     0
102
RTVSPost2010PropOp34
 70
     1
102
RTVSPost2010Prop35
280
     0
102
RTVSPost2010PropOp35
 70
     1
102
RTVSPost2010Prop36
280
     0
102
RTVSPost2010PropOp36
 70
     1
102
RTVSPost2010Prop37
 90
       50
102
RTVSPost2010PropOp37
 70
     1
102
RTVSPost2010Prop38
140
0.0
102
RTVSPost2010PropOp38
 70
     1
102
RTVSPost2010Prop39
140
1.0
102
RTVSPost2010PropOp39
 70
     1
102
RTVSPost2010Prop40
 90
        0
102
RTVSPost2010PropOp40
 70
     1
102
RTVSPost2010Prop41ColorIndex
 90
       18
102
RTVSPost2010Prop41ColorRGB
 90
        0
102
RTVSPost2010PropOp41
 70
     1
102
RTVSPost2010Prop42
 90
       50
102
RTVSPost2010PropOp42
 70
     1
102
RTVSPost2010Prop43
 90
        3
102
RTVSPost2010PropOp43
 70
     1
102
RTVSPost2010Prop44ColorIndex
 90
        5
102
RTVSPost2010Prop44ColorRGB
 90
      255
102
RTVSPost2010PropOp44
 70
     1
102
RTVSPost2010Prop45
280
     0
102
RTVSPost2010PropOp45
 70
     1
102
RTVSPost2010Prop46
 90
       50
102
RTVSPost2010PropOp46
 70
     1
102
RTVSPost2010Prop47
 90
       50
102
RTVSPost2010PropOp47
 70
     1
102
RTVSPost2010Prop48
 90
       50
102
RTVSPost2010PropOp48
 70
     1
102
RTVSPost2010Prop49
280
     0
102
RTVSPost2010PropOp49
 70
     1
102
RTVSPost2010Prop50
 90
       50
102
RTVSPost2010PropOp50
 70
     1
102
RTVSPost2010Prop51ColorIndex
 90
      256
102
RTVSPost2010Prop51ColorRGB
 90
-16777216
102
RTVSPost2010PropOp51
 70
     0
102
RTVSPost2010Prop52
140
1.0
102
RTVSPost2010PropOp52
 70
     0
102
RTVSPost2010Prop53
 90
        2
102
RTVSPost2010PropOp53
 70
     1
102
RTVSPost2010Prop54
  1
strokes_ogs.tif
102
RTVSPost2010PropOp54
 70
     1
102
RTVSPost2010Prop55
280
     0
102
RTVSPost2010PropOp55
 70
     1
102
RTVSPost2010Prop56
140
1.0
102
RTVSPost2010PropOp56
 70
     1
102
RTVSPost2010Prop57
140
1.0
102
RTVSPost2010PropOp57
 70
     1
  0
XRECORD
  5
1D1
102
{ACAD_REACTORS
330
1D0
102
}
330
1D0
100
AcDbXrecord
280
     1
102
RTVSPost2010Prop28
280
     0
102
RTVSPost2010PropOp28
 70
     0
102
RTVSPost2010Prop29
280
     1
102
RTVSPost2010PropOp29
 70
     0
102
RTVSPost2010Prop30
280
     1
102
RTVSPost2010PropOp30
 70
     0
102
RTVSPost2010Prop31
280
     0
102
RTVSPost2010PropOp31
 70
     0
102
RTVSPost2010Prop32
280
     0
102
RTVSPost2010PropOp32
 70
     0
102
RTVSPost2010Prop33
280
     0
102
RTVSPost2010PropOp33
 70
     0
102
RTVSPost2010Prop34
280
     0
102
RTVSPost2010PropOp34
 70
     0
102
RTVSPost2010Prop35
280
     0
102
RTVSPost2010PropOp35
 70
     0
102
RTVSPost2010Prop36
280
     0
102
RTVSPost2010PropOp36
 70
     0
102
RTVSPost2010Prop37
 90
       50
102
RTVSPost2010PropOp37
 70
     0
102
RTVSPost2010Prop38
140
0.0
102
RTVSPost2010PropOp38
 70
     0
102
RTVSPost2010Prop39
140
1.0
102
RTVSPost2010PropOp39
 70
     0
102
RTVSPost2010Prop40
 90
        0
102
RTVSPost2010PropOp40
 70
     0
102
RTVSPost2010Prop41ColorIndex
 90
       18
102
RTVSPost2010Prop41ColorRGB
 90
        0
102
RTVSPost2010PropOp41
 70
     0
102
RTVSPost2010Prop42
 90
       50
102
RTVSPost2010PropOp42
 70
     0
102
RTVSPost2010Prop43
 90
        3
102
RTVSPost2010PropOp43
 70
     0
102
RTVSPost2010Prop44ColorIndex
 90
        5
102
RTVSPost2010Prop44ColorRGB
 90
      255
102
RTVSPost2010PropOp44
 70
     0
102
RTVSPost2010Prop45
280
     0
102
RTVSPost2010PropOp45
 70
     0
102
RTVSPost2010Prop46
 90
       50
102
RTVSPost2010PropOp46
 70
     0
102
RTVSPost2010Prop47
 90
       50
102
RTVSPost2010PropOp47
 70
     0
102
RTVSPost2010Prop48
 90
       50
102
RTVSPost2010PropOp48
 70
     0
102
RTVSPost2010Prop49
280
     0
102
RTVSPost2010PropOp49
 70
     0
102
RTVSPost2010Prop50
 90
       50
102
RTVSPost2010PropOp50
 70
     0
102
RTVSPost2010Prop51ColorIndex
 90
      256
102
RTVSPost2010Prop51ColorRGB
 90
-16777216
102
RTVSPost2010PropOp51
 70
     0
102
RTVSPost2010Prop52
140
1.0
102
RTVSPost2010PropOp52
 70
     0
102
RTVSPost2010Prop53
 90
        2
102
RTVSPost2010PropOp53
 70
     0
102
RTVSPost2010Prop54
  1
strokes_ogs.tif
102
RTVSPost2010PropOp54
 70
     0
102
RTVSPost2010Prop55
280
     0
102
RTVSPost2010PropOp55
 70
     0
102
RTVSPost2010Prop56
140
1.0
102
RTVSPost2010PropOp56
 70
     0
102
RTVSPost2010Prop57
140
1.0
102
RTVSPost2010PropOp57
 70
     0
  0
XRECORD
  5
1B7
102
{ACAD_REACTORS
330
1B6
102
}
330
1B6
100
AcDbXrecord
280
     1
102
RTVSPost2010Prop28
280
     0
102
RTVSPost2010PropOp28
 70
     1
102
RTVSPost2010Prop29
280
     1
102
RTVSPost2010PropOp29
 70
     1
102
RTVSPost2010Prop30
280
     1
102
RTVSPost2010PropOp30
 70
     1
102
RTVSPost2010Prop31
280
     0
102
RTVSPost2010PropOp31
 70
     1
102
RTVSPost2010Prop32
280
     0
102
RTVSPost2010PropOp32
 70
     1
102
RTVSPost2010Prop33
280
     0
102
RTVSPost2010PropOp33
 70
     1
102
RTVSPost2010Prop34
280
     0
102
RTVSPost2010PropOp34
 70
     1
102
RTVSPost2010Prop35
280
     0
102
RTVSPost2010PropOp35
 70
     1
102
RTVSPost2010Prop36
280
     0
102
RTVSPost2010PropOp36
 70
     1
102
RTVSPost2010Prop37
 90
       50
102
RTVSPost2010PropOp37
 70
     1
102
RTVSPost2010Prop38
140
0.0
102
RTVSPost2010PropOp38
 70
     1
102
RTVSPost2010Prop39
140
1.0
102
RTVSPost2010PropOp39
 70
     1
102
RTVSPost2010Prop40
 90
        0
102
RTVSPost2010PropOp40
 70
     1
102
RTVSPost2010Prop41ColorIndex
 90
       18
102
RTVSPost2010Prop41ColorRGB
 90
        0
102
RTVSPost2010PropOp41
 70
     1
102
RTVSPost2010Prop42
 90
       50
102
RTVSPost2010PropOp42
 70
     1
102
RTVSPost2010Prop43
 90
        3
102
RTVSPost2010PropOp43
 70
     1
102
RTVSPost2010Prop44ColorIndex
 90
        5
102
RTVSPost2010Prop44ColorRGB
 90
      255
102
RTVSPost2010PropOp44
 70
     1
102
RTVSPost2010Prop45
280
     0
102
RTVSPost2010PropOp45
 70
     1
102
RTVSPost2010Prop46
 90
       50
102
RTVSPost2010PropOp46
 70
     1
102
RTVSPost2010Prop47
 90
       50
102
RTVSPost2010PropOp47
 70
     1
102
RTVSPost2010Prop48
 90
       50
102
RTVSPost2010PropOp48
 70
     1
102
RTVSPost2010Prop49
280
     0
102
RTVSPost2010PropOp49
 70
     1
102
RTVSPost2010Prop50
 90
       50
102
RTVSPost2010PropOp50
 70
     1
102
RTVSPost2010Prop51ColorIndex
 90
      256
102
RTVSPost2010Prop51ColorRGB
 90
-16777216
102
RTVSPost2010PropOp51
 70
     0
102
RTVSPost2010Prop52
140
1.0
102
RTVSPost2010PropOp52
 70
     0
102
RTVSPost2010Prop53
 90
        2
102
RTVSPost2010PropOp53
 70
     1
102
RTVSPost2010Prop54
  1
strokes_ogs.tif
102
RTVSPost2010PropOp54
 70
     1
102
RTVSPost2010Prop55
280
     0
102
RTVSPost2010PropOp55
 70
     1
102
RTVSPost2010Prop56
140
1.0
102
RTVSPost2010PropOp56
 70
     1
102
RTVSPost2010Prop57
140
1.0
102
RTVSPost2010PropOp57
 70
     1
  0
XRECORD
  5
1CD
102
{ACAD_REACTORS
330
1CC
102
}
330
1CC
100
AcDbXrecord
280
     1
102
RTVSPost2010Prop28
280
     0
102
RTVSPost2010PropOp28
 70
     1
102
RTVSPost2010Prop29
280
     1
102
RTVSPost2010PropOp29
 70
     1
102
RTVSPost2010Prop30
280
     1
102
RTVSPost2010PropOp30
 70
     1
102
RTVSPost2010Prop31
280
     0
102
RTVSPost2010PropOp31
 70
     1
102
RTVSPost2010Prop32
280
     0
102
RTVSPost2010PropOp32
 70
     1
102
RTVSPost2010Prop33
280
     0
102
RTVSPost2010PropOp33
 70
     1
102
RTVSPost2010Prop34
280
     0
102
RTVSPost2010PropOp34
 70
     1
102
RTVSPost2010Prop35
280
     0
102
RTVSPost2010PropOp35
 70
     1
102
RTVSPost2010Prop36
280
     0
102
RTVSPost2010PropOp36
 70
     1
102
RTVSPost2010Prop37
 90
       50
102
RTVSPost2010PropOp37
 70
     1
102
RTVSPost2010Prop38
140
0.0
102
RTVSPost2010PropOp38
 70
     1
102
RTVSPost2010Prop39
140
1.0
102
RTVSPost2010PropOp39
 70
     1
102
RTVSPost2010Prop40
 90
        0
102
RTVSPost2010PropOp40
 70
     1
102
RTVSPost2010Prop41ColorIndex
 90
       18
102
RTVSPost2010Prop41ColorRGB
 90
        0
102
RTVSPost2010PropOp41
 70
     1
102
RTVSPost2010Prop42
 90
       50
102
RTVSPost2010PropOp42
 70
     1
102
RTVSPost2010Prop43
 90
        3
102
RTVSPost2010PropOp43
 70
     1
102
RTVSPost2010Prop44ColorIndex
 90
        5
102
RTVSPost2010Prop44ColorRGB
 90
      255
102
RTVSPost2010PropOp44
 70
     1
102
RTVSPost2010Prop45
280
     0
102
RTVSPost2010PropOp45
 70
     1
102
RTVSPost2010Prop46
 90
       50
102
RTVSPost2010PropOp46
 70
     1
102
RTVSPost2010Prop47
 90
       50
102
RTVSPost2010PropOp47
 70
     1
102
RTVSPost2010Prop48
 90
       50
102
RTVSPost2010PropOp48
 70
     1
102
RTVSPost2010Prop49
280
     0
102
RTVSPost2010PropOp49
 70
     1
102
RTVSPost2010Prop50
 90
       50
102
RTVSPost2010PropOp50
 70
     1
102
RTVSPost2010Prop51ColorIndex
 90
      256
102
RTVSPost2010Prop51ColorRGB
 90
-16777216
102
RTVSPost2010PropOp51
 70
     0
102
RTVSPost2010Prop52
140
1.0
102
RTVSPost2010PropOp52
 70
     0
102
RTVSPost2010Prop53
 90
        2
102
RTVSPost2010PropOp53
 70
     1
102
RTVSPost2010Prop54
  1
strokes_ogs.tif
102
RTVSPost2010PropOp54
 70
     1
102
RTVSPost2010Prop55
280
     0
102
RTVSPost2010PropOp55
 70
     1
102
RTVSPost2010Prop56
140
1.0
102
RTVSPost2010PropOp56
 70
     1
102
RTVSPost2010Prop57
140
1.0
102
RTVSPost2010PropOp57
 70
     1
  0
XRECORD
  5
1CB
102
{ACAD_REACTORS
330
1CA
102
}
330
1CA
100
AcDbXrecord
280
     1
102
RTVSPost2010Prop28
280
     0
102
RTVSPost2010PropOp28
 70
     1
102
RTVSPost2010Prop29
280
     1
102
RTVSPost2010PropOp29
 70
     1
102
RTVSPost2010Prop30
280
     1
102
RTVSPost2010PropOp30
 70
     1
102
RTVSPost2010Prop31
280
     0
102
RTVSPost2010PropOp31
 70
     1
102
RTVSPost2010Prop32
280
     0
102
RTVSPost2010PropOp32
 70
     1
102
RTVSPost2010Prop33
280
     0
102
RTVSPost2010PropOp33
 70
     1
102
RTVSPost2010Prop34
280
     0
102
RTVSPost2010PropOp34
 70
     1
102
RTVSPost2010Prop35
280
     0
102
RTVSPost2010PropOp35
 70
     1
102
RTVSPost2010Prop36
280
     0
102
RTVSPost2010PropOp36
 70
     1
102
RTVSPost2010Prop37
 90
       50
102
RTVSPost2010PropOp37
 70
     1
102
RTVSPost2010Prop38
140
0.0
102
RTVSPost2010PropOp38
 70
     1
102
RTVSPost2010Prop39
140
1.0
102
RTVSPost2010PropOp39
 70
     1
102
RTVSPost2010Prop40
 90
        0
102
RTVSPost2010PropOp40
 70
     1
102
RTVSPost2010Prop41ColorIndex
 90
       18
102
RTVSPost2010Prop41ColorRGB
 90
        0
102
RTVSPost2010PropOp41
 70
     1
102
RTVSPost2010Prop42
 90
       50
102
RTVSPost2010PropOp42
 70
     1
102
RTVSPost2010Prop43
 90
        3
102
RTVSPost2010PropOp43
 70
     1
102
RTVSPost2010Prop44ColorIndex
 90
        5
102
RTVSPost2010Prop44ColorRGB
 90
      255
102
RTVSPost2010PropOp44
 70
     1
102
RTVSPost2010Prop45
280
     0
102
RTVSPost2010PropOp45
 70
     1
102
RTVSPost2010Prop46
 90
       50
102
RTVSPost2010PropOp46
 70
     1
102
RTVSPost2010Prop47
 90
       50
102
RTVSPost2010PropOp47
 70
     1
102
RTVSPost2010Prop48
 90
       50
102
RTVSPost2010PropOp48
 70
     1
102
RTVSPost2010Prop49
280
     0
102
RTVSPost2010PropOp49
 70
     1
102
RTVSPost2010Prop50
 90
       50
102
RTVSPost2010PropOp50
 70
     1
102
RTVSPost2010Prop51ColorIndex
 90
      256
102
RTVSPost2010Prop51ColorRGB
 90
-16777216
102
RTVSPost2010PropOp51
 70
     0
102
RTVSPost2010Prop52
140
1.0
102
RTVSPost2010PropOp52
 70
     0
102
RTVSPost2010Prop53
 90
        2
102
RTVSPost2010PropOp53
 70
     1
102
RTVSPost2010Prop54
  1
strokes_ogs.tif
102
RTVSPost2010PropOp54
 70
     1
102
RTVSPost2010Prop55
280
     0
102
RTVSPost2010PropOp55
 70
     1
102
RTVSPost2010Prop56
140
1.0
102
RTVSPost2010PropOp56
 70
     1
102
RTVSPost2010Prop57
140
1.0
102
RTVSPost2010PropOp57
 70
     1
  0
XRECORD
  5
1C5
102
{ACAD_REACTORS
330
1C4
102
}
330
1C4
100
AcDbXrecord
280
     1
102
RTVSPost2010Prop28
280
     0
102
RTVSPost2010PropOp28
 70
     1
102
RTVSPost2010Prop29
280
     1
102
RTVSPost2010PropOp29
 70
     1
102
RTVSPost2010Prop30
280
     1
102
RTVSPost2010PropOp30
 70
     1
102
RTVSPost2010Prop31
280
     0
102
RTVSPost2010PropOp31
 70
     1
102
RTVSPost2010Prop32
280
     0
102
RTVSPost2010PropOp32
 70
     1
102
RTVSPost2010Prop33
280
     0
102
RTVSPost2010PropOp33
 70
     1
102
RTVSPost2010Prop34
280
     0
102
RTVSPost2010PropOp34
 70
     1
102
RTVSPost2010Prop35
280
     0
102
RTVSPost2010PropOp35
 70
     1
102
RTVSPost2010Prop36
280
     0
102
RTVSPost2010PropOp36
 70
     1
102
RTVSPost2010Prop37
 90
       50
102
RTVSPost2010PropOp37
 70
     1
102
RTVSPost2010Prop38
140
0.0
102
RTVSPost2010PropOp38
 70
     1
102
RTVSPost2010Prop39
140
1.0
102
RTVSPost2010PropOp39
 70
     1
102
RTVSPost2010Prop40
 90
        0
102
RTVSPost2010PropOp40
 70
     1
102
RTVSPost2010Prop41ColorIndex
 90
       18
102
RTVSPost2010Prop41ColorRGB
 90
        0
102
RTVSPost2010PropOp41
 70
     1
102
RTVSPost2010Prop42
 90
       50
102
RTVSPost2010PropOp42
 70
     1
102
RTVSPost2010Prop43
 90
        3
102
RTVSPost2010PropOp43
 70
     1
102
RTVSPost2010Prop44ColorIndex
 90
        5
102
RTVSPost2010Prop44ColorRGB
 90
      255
102
RTVSPost2010PropOp44
 70
     1
102
RTVSPost2010Prop45
280
     0
102
RTVSPost2010PropOp45
 70
     1
102
RTVSPost2010Prop46
 90
       50
102
RTVSPost2010PropOp46
 70
     1
102
RTVSPost2010Prop47
 90
       50
102
RTVSPost2010PropOp47
 70
     1
102
RTVSPost2010Prop48
 90
       50
102
RTVSPost2010PropOp48
 70
     1
102
RTVSPost2010Prop49
280
     0
102
RTVSPost2010PropOp49
 70
     1
102
RTVSPost2010Prop50
 90
       50
102
RTVSPost2010PropOp50
 70
     1
102
RTVSPost2010Prop51ColorIndex
 90
      256
102
RTVSPost2010Prop51ColorRGB
 90
-16777216
102
RTVSPost2010PropOp51
 70
     0
102
RTVSPost2010Prop52
140
1.0
102
RTVSPost2010PropOp52
 70
     0
102
RTVSPost2010Prop53
 90
        2
102
RTVSPost2010PropOp53
 70
     1
102
RTVSPost2010Prop54
  1
strokes_ogs.tif
102
RTVSPost2010PropOp54
 70
     1
102
RTVSPost2010Prop55
280
     0
102
RTVSPost2010PropOp55
 70
     1
102
RTVSPost2010Prop56
140
1.0
102
RTVSPost2010PropOp56
 70
     1
102
RTVSPost2010Prop57
140
1.0
102
RTVSPost2010PropOp57
 70
     1
  0
XRECORD
  5
1C7
102
{ACAD_REACTORS
330
1C6
102
}
330
1C6
100
AcDbXrecord
280
     1
102
RTVSPost2010Prop28
280
     0
102
RTVSPost2010PropOp28
 70
     1
102
RTVSPost2010Prop29
280
     1
102
RTVSPost2010PropOp29
 70
     1
102
RTVSPost2010Prop30
280
     1
102
RTVSPost2010PropOp30
 70
     1
102
RTVSPost2010Prop31
280
     0
102
RTVSPost2010PropOp31
 70
     1
102
RTVSPost2010Prop32
280
     0
102
RTVSPost2010PropOp32
 70
     1
102
RTVSPost2010Prop33
280
     0
102
RTVSPost2010PropOp33
 70
     1
102
RTVSPost2010Prop34
280
     0
102
RTVSPost2010PropOp34
 70
     1
102
RTVSPost2010Prop35
280
     0
102
RTVSPost2010PropOp35
 70
     1
102
RTVSPost2010Prop36
280
     0
102
RTVSPost2010PropOp36
 70
     1
102
RTVSPost2010Prop37
 90
       50
102
RTVSPost2010PropOp37
 70
     1
102
RTVSPost2010Prop38
140
0.0
102
RTVSPost2010PropOp38
 70
     1
102
RTVSPost2010Prop39
140
1.0
102
RTVSPost2010PropOp39
 70
     1
102
RTVSPost2010Prop40
 90
        0
102
RTVSPost2010PropOp40
 70
     1
102
RTVSPost2010Prop41ColorIndex
 90
       18
102
RTVSPost2010Prop41ColorRGB
 90
        0
102
RTVSPost2010PropOp41
 70
     1
102
RTVSPost2010Prop42
 90
       50
102
RTVSPost2010PropOp42
 70
     1
102
RTVSPost2010Prop43
 90
        3
102
RTVSPost2010PropOp43
 70
     1
102
RTVSPost2010Prop44ColorIndex
 90
        5
102
RTVSPost2010Prop44ColorRGB
 90
      255
102
RTVSPost2010PropOp44
 70
     1
102
RTVSPost2010Prop45
280
     0
102
RTVSPost2010PropOp45
 70
     1
102
RTVSPost2010Prop46
 90
       50
102
RTVSPost2010PropOp46
 70
     1
102
RTVSPost2010Prop47
 90
       50
102
RTVSPost2010PropOp47
 70
     1
102
RTVSPost2010Prop48
 90
       50
102
RTVSPost2010PropOp48
 70
     1
102
RTVSPost2010Prop49
280
     0
102
RTVSPost2010PropOp49
 70
     1
102
RTVSPost2010Prop50
 90
       50
102
RTVSPost2010PropOp50
 70
     1
102
RTVSPost2010Prop51ColorIndex
 90
      256
102
RTVSPost2010Prop51ColorRGB
 90
-16777216
102
RTVSPost2010PropOp51
 70
     0
102
RTVSPost2010Prop52
140
1.0
102
RTVSPost2010PropOp52
 70
     0
102
RTVSPost2010Prop53
 90
        2
102
RTVSPost2010PropOp53
 70
     1
102
RTVSPost2010Prop54
  1
strokes_ogs.tif
102
RTVSPost2010PropOp54
 70
     1
102
RTVSPost2010Prop55
280
     0
102
RTVSPost2010PropOp55
 70
     1
102
RTVSPost2010Prop56
140
1.0
102
RTVSPost2010PropOp56
 70
     1
102
RTVSPost2010Prop57
140
1.0
102
RTVSPost2010PropOp57
 70
     1
  0
XRECORD
  5
1BD
102
{ACAD_REACTORS
330
1BC
102
}
330
1BC
100
AcDbXrecord
280
     1
102
RTVSPost2010Prop28
280
     0
102
RTVSPost2010PropOp28
 70
     1
102
RTVSPost2010Prop29
280
     1
102
RTVSPost2010PropOp29
 70
     1
102
RTVSPost2010Prop30
280
     1
102
RTVSPost2010PropOp30
 70
     1
102
RTVSPost2010Prop31
280
     0
102
RTVSPost2010PropOp31
 70
     1
102
RTVSPost2010Prop32
280
     0
102
RTVSPost2010PropOp32
 70
     1
102
RTVSPost2010Prop33
280
     0
102
RTVSPost2010PropOp33
 70
     1
102
RTVSPost2010Prop34
280
     0
102
RTVSPost2010PropOp34
 70
     1
102
RTVSPost2010Prop35
280
     0
102
RTVSPost2010PropOp35
 70
     1
102
RTVSPost2010Prop36
280
     0
102
RTVSPost2010PropOp36
 70
     1
102
RTVSPost2010Prop37
 90
       50
102
RTVSPost2010PropOp37
 70
     1
102
RTVSPost2010Prop38
140
0.0
102
RTVSPost2010PropOp38
 70
     1
102
RTVSPost2010Prop39
140
1.0
102
RTVSPost2010PropOp39
 70
     1
102
RTVSPost2010Prop40
 90
        0
102
RTVSPost2010PropOp40
 70
     1
102
RTVSPost2010Prop41ColorIndex
 90
       18
102
RTVSPost2010Prop41ColorRGB
 90
        0
102
RTVSPost2010PropOp41
 70
     1
102
RTVSPost2010Prop42
 90
       50
102
RTVSPost2010PropOp42
 70
     1
102
RTVSPost2010Prop43
 90
        3
102
RTVSPost2010PropOp43
 70
     1
102
RTVSPost2010Prop44ColorIndex
 90
        5
102
RTVSPost2010Prop44ColorRGB
 90
      255
102
RTVSPost2010PropOp44
 70
     1
102
RTVSPost2010Prop45
280
     0
102
RTVSPost2010PropOp45
 70
     1
102
RTVSPost2010Prop46
 90
       50
102
RTVSPost2010PropOp46
 70
     1
102
RTVSPost2010Prop47
 90
       50
102
RTVSPost2010PropOp47
 70
     1
102
RTVSPost2010Prop48
 90
       50
102
RTVSPost2010PropOp48
 70
     1
102
RTVSPost2010Prop49
280
     0
102
RTVSPost2010PropOp49
 70
     1
102
RTVSPost2010Prop50
 90
       50
102
RTVSPost2010PropOp50
 70
     1
102
RTVSPost2010Prop51ColorIndex
 90
      256
102
RTVSPost2010Prop51ColorRGB
 90
-16777216
102
RTVSPost2010PropOp51
 70
     0
102
RTVSPost2010Prop52
140
1.0
102
RTVSPost2010PropOp52
 70
     0
102
RTVSPost2010Prop53
 90
        2
102
RTVSPost2010PropOp53
 70
     1
102
RTVSPost2010Prop54
  1
strokes_ogs.tif
102
RTVSPost2010PropOp54
 70
     1
102
RTVSPost2010Prop55
280
     0
102
RTVSPost2010PropOp55
 70
     1
102
RTVSPost2010Prop56
140
1.0
102
RTVSPost2010PropOp56
 70
     1
102
RTVSPost2010Prop57
140
1.0
102
RTVSPost2010PropOp57
 70
     1
  0
XRECORD
  5
1B1
102
{ACAD_REACTORS
330
1B0
102
}
330
1B0
100
AcDbXrecord
280
     1
102
RTVSPost2010Prop28
280
     0
102
RTVSPost2010PropOp28
 70
     1
102
RTVSPost2010Prop29
280
     1
102
RTVSPost2010PropOp29
 70
     1
102
RTVSPost2010Prop30
280
     1
102
RTVSPost2010PropOp30
 70
     1
102
RTVSPost2010Prop31
280
     0
102
RTVSPost2010PropOp31
 70
     1
102
RTVSPost2010Prop32
280
     0
102
RTVSPost2010PropOp32
 70
     1
102
RTVSPost2010Prop33
280
     0
102
RTVSPost2010PropOp33
 70
     1
102
RTVSPost2010Prop34
280
     0
102
RTVSPost2010PropOp34
 70
     1
102
RTVSPost2010Prop35
280
     0
102
RTVSPost2010PropOp35
 70
     1
102
RTVSPost2010Prop36
280
     0
102
RTVSPost2010PropOp36
 70
     1
102
RTVSPost2010Prop37
 90
       50
102
RTVSPost2010PropOp37
 70
     1
102
RTVSPost2010Prop38
140
0.0
102
RTVSPost2010PropOp38
 70
     1
102
RTVSPost2010Prop39
140
1.0
102
RTVSPost2010PropOp39
 70
     1
102
RTVSPost2010Prop40
 90
        0
102
RTVSPost2010PropOp40
 70
     1
102
RTVSPost2010Prop41ColorIndex
 90
       18
102
RTVSPost2010Prop41ColorRGB
 90
        0
102
RTVSPost2010PropOp41
 70
     1
102
RTVSPost2010Prop42
 90
       50
102
RTVSPost2010PropOp42
 70
     1
102
RTVSPost2010Prop43
 90
        3
102
RTVSPost2010PropOp43
 70
     1
102
RTVSPost2010Prop44ColorIndex
 90
        5
102
RTVSPost2010Prop44ColorRGB
 90
      255
102
RTVSPost2010PropOp44
 70
     1
102
RTVSPost2010Prop45
280
     0
102
RTVSPost2010PropOp45
 70
     1
102
RTVSPost2010Prop46
 90
       50
102
RTVSPost2010PropOp46
 70
     1
102
RTVSPost2010Prop47
 90
       50
102
RTVSPost2010PropOp47
 70
     1
102
RTVSPost2010Prop48
 90
       50
102
RTVSPost2010PropOp48
 70
     1
102
RTVSPost2010Prop49
280
     0
102
RTVSPost2010PropOp49
 70
     1
102
RTVSPost2010Prop50
 90
       50
102
RTVSPost2010PropOp50
 70
     1
102
RTVSPost2010Prop51ColorIndex
 90
      256
102
RTVSPost2010Prop51ColorRGB
 90
-16777216
102
RTVSPost2010PropOp51
 70
     0
102
RTVSPost2010Prop52
140
1.0
102
RTVSPost2010PropOp52
 70
     0
102
RTVSPost2010Prop53
 90
        2
102
RTVSPost2010PropOp53
 70
     1
102
RTVSPost2010Prop54
  1
strokes_ogs.tif
102
RTVSPost2010PropOp54
 70
     1
102
RTVSPost2010Prop55
280
     0
102
RTVSPost2010PropOp55
 70
     1
102
RTVSPost2010Prop56
140
1.0
102
RTVSPost2010PropOp56
 70
     1
102
RTVSPost2010Prop57
140
1.0
102
RTVSPost2010PropOp57
 70
     1
  0
XRECORD
  5
1C9
102
{ACAD_REACTORS
330
1C8
102
}
330
1C8
100
AcDbXrecord
280
     1
102
RTVSPost2010Prop28
280
     0
102
RTVSPost2010PropOp28
 70
     1
102
RTVSPost2010Prop29
280
     1
102
RTVSPost2010PropOp29
 70
     1
102
RTVSPost2010Prop30
280
     1
102
RTVSPost2010PropOp30
 70
     1
102
RTVSPost2010Prop31
280
     0
102
RTVSPost2010PropOp31
 70
     1
102
RTVSPost2010Prop32
280
     0
102
RTVSPost2010PropOp32
 70
     1
102
RTVSPost2010Prop33
280
     0
102
RTVSPost2010PropOp33
 70
     1
102
RTVSPost2010Prop34
280
     0
102
RTVSPost2010PropOp34
 70
     1
102
RTVSPost2010Prop35
280
     0
102
RTVSPost2010PropOp35
 70
     1
102
RTVSPost2010Prop36
280
     0
102
RTVSPost2010PropOp36
 70
     1
102
RTVSPost2010Prop37
 90
       50
102
RTVSPost2010PropOp37
 70
     1
102
RTVSPost2010Prop38
140
0.0
102
RTVSPost2010PropOp38
 70
     1
102
RTVSPost2010Prop39
140
1.0
102
RTVSPost2010PropOp39
 70
     1
102
RTVSPost2010Prop40
 90
        0
102
RTVSPost2010PropOp40
 70
     1
102
RTVSPost2010Prop41ColorIndex
 90
       18
102
RTVSPost2010Prop41ColorRGB
 90
        0
102
RTVSPost2010PropOp41
 70
     1
102
RTVSPost2010Prop42
 90
       50
102
RTVSPost2010PropOp42
 70
     1
102
RTVSPost2010Prop43
 90
        3
102
RTVSPost2010PropOp43
 70
     1
102
RTVSPost2010Prop44ColorIndex
 90
        5
102
RTVSPost2010Prop44ColorRGB
 90
      255
102
RTVSPost2010PropOp44
 70
     1
102
RTVSPost2010Prop45
280
     0
102
RTVSPost2010PropOp45
 70
     1
102
RTVSPost2010Prop46
 90
       50
102
RTVSPost2010PropOp46
 70
     1
102
RTVSPost2010Prop47
 90
       50
102
RTVSPost2010PropOp47
 70
     1
102
RTVSPost2010Prop48
 90
       50
102
RTVSPost2010PropOp48
 70
     1
102
RTVSPost2010Prop49
280
     0
102
RTVSPost2010PropOp49
 70
     1
102
RTVSPost2010Prop50
 90
       50
102
RTVSPost2010PropOp50
 70
     1
102
RTVSPost2010Prop51ColorIndex
 90
      256
102
RTVSPost2010Prop51ColorRGB
 90
-16777216
102
RTVSPost2010PropOp51
 70
     0
102
RTVSPost2010Prop52
140
1.0
102
RTVSPost2010PropOp52
 70
     0
102
RTVSPost2010Prop53
 90
        2
102
RTVSPost2010PropOp53
 70
     1
102
RTVSPost2010Prop54
  1
strokes_ogs.tif
102
RTVSPost2010PropOp54
 70
     1
102
RTVSPost2010Prop55
280
     0
102
RTVSPost2010PropOp55
 70
     1
102
RTVSPost2010Prop56
140
1.0
102
RTVSPost2010PropOp56
 70
     1
102
RTVSPost2010Prop57
140
1.0
102
RTVSPost2010PropOp57
 70
     1
  0
ENDSEC
  0
EOF
