  0
SECTION
  2
HEADER
  9
$ACADVER
  1
AC1024
  9
$ACADMAINTVER
 70
   226
  9
$DWGCODEPAGE
  3
ANSI_932
  9
$INSBASE
 10
0.0
 20
0.0
 30
0.0
  9
$EXTMIN
 10
1.000000000000000E+20
 20
1.000000000000000E+20
 30
1.000000000000000E+20
  9
$EXTMAX
 10
-1.000000000000000E+20
 20
-1.000000000000000E+20
 30
-1.000000000000000E+20
  9
$LIMMIN
 10
0.0
 20
0.0
  9
$LIMMAX
 10
12.0
 20
9.0
  9
$ORTHOMODE
 70
     0
  9
$REGENMODE
 70
     1
  9
$FILLMODE
 70
     1
  9
$QTEXTMODE
 70
     0
  9
$MIRRTEXT
 70
     0
  9
$LTSCALE
 40
1.0
  9
$ATTMODE
 70
     1
  9
$TEXTSIZE
 40
0.2
  9
$TRACEWID
 40
0.05
  9
$TEXTSTYLE
  7
Standard
  9
$CLAYER
  8
0
  9
$CELTYPE
  6
ByLayer
  9
$CECOLOR
 62
   256
  9
$CELTSCALE
 40
1.0
  9
$DISPSILH
 70
     0
  9
$DIMSCALE
 40
1.0
  9
$DIMASZ
 40
0.18
  9
$DIMEXO
 40
0.0625
  9
$DIMDLI
 40
0.38
  9
$DIMRND
 40
0.0
  9
$DIMDLE
 40
0.0
  9
$DIMEXE
 40
0.18
  9
$DIMTP
 40
0.0
  9
$DIMTM
 40
0.0
  9
$DIMTXT
 40
0.18
  9
$DIMCEN
 40
0.09
  9
$DIMTSZ
 40
0.0
  9
$DIMTOL
 70
     0
  9
$DIMLIM
 70
     0
  9
$DIMTIH
 70
     1
  9
$DIMTOH
 70
     1
  9
$DIMSE1
 70
     0
  9
$DIMSE2
 70
     0
  9
$DIMTAD
 70
     0
  9
$DIMZIN
 70
     0
  9
$DIMBLK
  1

  9
$DIMASO
 70
     1
  9
$DIMSHO
 70
     1
  9
$DIMPOST
  1

  9
$DIMAPOST
  1

  9
$DIMALT
 70
     0
  9
$DIMALTD
 70
     2
  9
$DIMALTF
 40
25.4
  9
$DIMLFAC
 40
1.0
  9
$DIMTOFL
 70
     0
  9
$DIMTVP
 40
0.0
  9
$DIMTIX
 70
     0
  9
$DIMSOXD
 70
     0
  9
$DIMSAH
 70
     0
  9
$DIMBLK1
  1

  9
$DIMBLK2
  1

  9
$DIMSTYLE
  2
Standard
  9
$DIMCLRD
 70
     0
  9
$DIMCLRE
 70
     0
  9
$DIMCLRT
 70
     0
  9
$DIMTFAC
 40
1.0
  9
$DIMGAP
 40
0.09
  9
$DIMJUST
 70
     0
  9
$DIMSD1
 70
     0
  9
$DIMSD2
 70
     0
  9
$DIMTOLJ
 70
     1
  9
$DIMTZIN
 70
     0
  9
$DIMALTZ
 70
     0
  9
$DIMALTTZ
 70
     0
  9
$DIMUPT
 70
     0
  9
$DIMDEC
 70
     4
  9
$DIMTDEC
 70
     4
  9
$DIMALTU
 70
     2
  9
$DIMALTTD
 70
     2
  9
$DIMTXSTY
  7
Standard
  9
$DIMAUNIT
 70
     0
  9
$DIMADEC
 70
     0
  9
$DIMALTRND
 40
0.0
  9
$DIMAZIN
 70
     0
  9
$DIMDSEP
 70
    46
  9
$DIMATFIT
 70
     3
  9
$DIMFRAC
 70
     0
  9
$DIMLDRBLK
  1

  9
$DIMLUNIT
 70
     2
  9
$DIMLWD
 70
    -2
  9
$DIMLWE
 70
    -2
  9
$DIMTMOVE
 70
     0
  9
$DIMFXL
 40
1.0
  9
$DIMFXLON
 70
     0
  9
$DIMJOGANG
 40
0.7853981633974483
  9
$DIMTFILL
 70
     0
  9
$DIMTFILLCLR
 70
     0
  9
$DIMARCSYM
 70
     0
  9
$DIMLTYPE
  6

  9
$DIMLTEX1
  6

  9
$DIMLTEX2
  6

  9
$DIMTXTDIRECTION
 70
     0
  9
$LUNITS
 70
     2
  9
$LUPREC
 70
     4
  9
$SKETCHINC
 40
0.1
  9
$FILLETRAD
 40
0.0
  9
$AUNITS
 70
     0
  9
$AUPREC
 70
     0
  9
$MENU
  1
.
  9
$ELEVATION
 40
0.0
  9
$PELEVATION
 40
0.0
  9
$THICKNESS
 40
0.0
  9
$LIMCHECK
 70
     0
  9
$CHAMFERA
 40
0.0
  9
$CHAMFERB
 40
0.0
  9
$CHAMFERC
 40
0.0
  9
$CHAMFERD
 40
0.0
  9
$SKPOLY
 70
     0
  9
$TDCREATE
 40
2459569.503090278
  9
$TDUCREATE
 40
2459569.128090278
  9
$TDUPDATE
 40
2459569.503090278
  9
$TDUUPDATE
 40
2459569.128090278
  9
$TDINDWG
 40
0.0000000000
  9
$TDUSRTIMER
 40
0.0000000000
  9
$USRTIMER
 70
     1
  9
$ANGBASE
 50
0.0
  9
$ANGDIR
 70
     0
  9
$PDMODE
 70
     0
  9
$PDSIZE
 40
0.0
  9
$PLINEWID
 40
0.0
  9
$SPLFRAME
 70
     0
  9
$SPLINETYPE
 70
     6
  9
$SPLINESEGS
 70
     8
  9
$HANDSEED
  5
1D8
  9
$SURFTAB1
 70
     6
  9
$SURFTAB2
 70
     6
  9
$SURFTYPE
 70
     6
  9
$SURFU
 70
     6
  9
$SURFV
 70
     6
  9
$UCSBASE
  2

  9
$UCSNAME
  2

  9
$UCSORG
 10
0.0
 20
0.0
 30
0.0
  9
$UCSXDIR
 10
1.0
 20
0.0
 30
0.0
  9
$UCSYDIR
 10
0.0
 20
1.0
 30
0.0
  9
$UCSORTHOREF
  2

  9
$UCSORTHOVIEW
 70
     0
  9
$UCSORGTOP
 10
0.0
 20
0.0
 30
0.0
  9
$UCSORGBOTTOM
 10
0.0
 20
0.0
 30
0.0
  9
$UCSORGLEFT
 10
0.0
 20
0.0
 30
0.0
  9
$UCSORGRIGHT
 10
0.0
 20
0.0
 30
0.0
  9
$UCSORGFRONT
 10
0.0
 20
0.0
 30
0.0
  9
$UCSORGBACK
 10
0.0
 20
0.0
 30
0.0
  9
$PUCSBASE
  2

  9
$PUCSNAME
  2

  9
$PUCSORG
 10
0.0
 20
0.0
 30
0.0
  9
$PUCSXDIR
 10
1.0
 20
0.0
 30
0.0
  9
$PUCSYDIR
 10
0.0
 20
1.0
 30
0.0
  9
$PUCSORTHOREF
  2

  9
$PUCSORTHOVIEW
 70
     0
  9
$PUCSORGTOP
 10
0.0
 20
0.0
 30
0.0
  9
$PUCSORGBOTTOM
 10
0.0
 20
0.0
 30
0.0
  9
$PUCSORGLEFT
 10
0.0
 20
0.0
 30
0.0
  9
$PUCSORGRIGHT
 10
0.0
 20
0.0
 30
0.0
  9
$PUCSORGFRONT
 10
0.0
 20
0.0
 30
0.0
  9
$PUCSORGBACK
 10
0.0
 20
0.0
 30
0.0
  9
$USERI1
 70
     0
  9
$USERI2
 70
     0
  9
$USERI3
 70
     0
  9
$USERI4
 70
     0
  9
$USERI5
 70
     0
  9
$USERR1
 40
0.0
  9
$USERR2
 40
0.0
  9
$USERR3
 40
0.0
  9
$USERR4
 40
0.0
  9
$USERR5
 40
0.0
  9
$WORLDVIEW
 70
     1
  9
$SHADEDGE
 70
     3
  9
$SHADEDIF
 70
    70
  9
$TILEMODE
 70
     1
  9
$MAXACTVP
 70
    64
  9
$PINSBASE
 10
0.0
 20
0.0
 30
0.0
  9
$PLIMCHECK
 70
     0
  9
$PEXTMIN
 10
1.000000000000000E+20
 20
1.000000000000000E+20
 30
1.000000000000000E+20
  9
$PEXTMAX
 10
-1.000000000000000E+20
 20
-1.000000000000000E+20
 30
-1.000000000000000E+20
  9
$PLIMMIN
 10
0.0
 20
0.0
  9
$PLIMMAX
 10
12.0
 20
9.0
  9
$UNITMODE
 70
     0
  9
$VISRETAIN
 70
     1
  9
$PLINEGEN
 70
     0
  9
$PSLTSCALE
 70
     1
  9
$TREEDEPTH
 70
  3020
  9
$CMLSTYLE
  2
Standard
  9
$CMLJUST
 70
     0
  9
$CMLSCALE
 40
1.0
  9
$PROXYGRAPHICS
 70
     1
  9
$MEASUREMENT
 70
     0
  9
$CELWEIGHT
370
    -1
  9
$ENDCAPS
280
     0
  9
$JOINSTYLE
280
     0
  9
$LWDISPLAY
290
     1
  9
$INSUNITS
 70
     4
  9
$HYPERLINKBASE
  1

  9
$STYLESHEET
  1

  9
$XEDIT
290
     1
  9
$CEPSNTYPE
380
     0
  9
$PSTYLEMODE
290
     1
  9
$FINGERPRINTGUID
  2
{A65B1E32-282B-4A41-8D46-A209820E22FB}
  9
$VERSIONGUID
  2
{A8BDF1D3-2652-7548-B359-A96C886287B2}
  9
$EXTNAMES
290
     1
  9
$PSVPSCALE
 40
0.0
  9
$OLESTARTUP
290
     0
  9
$SORTENTS
280
   127
  9
$INDEXCTL
280
     0
  9
$HIDETEXT
280
     1
  9
$XCLIPFRAME
280
     2
  9
$HALOGAP
280
     0
  9
$OBSCOLOR
 70
   257
  9
$OBSLTYPE
280
     0
  9
$INTERSECTIONDISPLAY
280
     0
  9
$INTERSECTIONCOLOR
 70
   257
  9
$DIMASSOC
280
     2
  9
$PROJECTNAME
  1

  9
$CAMERADISPLAY
290
     0
  9
$LENSLENGTH
 40
50.0
  9
$CAMERAHEIGHT
 40
0.0
  9
$STEPSPERSEC
 40
2.0
  9
$STEPSIZE
 40
6.0
  9
$3DDWFPREC
 40
2.0
  9
$PSOLWIDTH
 40
0.25
  9
$PSOLHEIGHT
 40
4.0
  9
$LOFTANG1
 40
1.570796326794896
  9
$LOFTANG2
 40
1.570796326794896
  9
$LOFTMAG1
 40
0.0
  9
$LOFTMAG2
 40
0.0
  9
$LOFTPARAM
 70
     7
  9
$LOFTNORMALS
280
     1
  9
$LATITUDE
 40
37.795
  9
$LONGITUDE
 40
-122.394
  9
$NORTHDIRECTION
 40
0.0
  9
$TIMEZONE
 70
 -8000
  9
$LIGHTGLYPHDISPLAY
280
     1
  9
$TILEMODELIGHTSYNCH
280
     1
  9
$CMATERIAL
347
11
  9
$SOLIDHIST
280
     0
  9
$SHOWHIST
280
     1
  9
$DWFFRAME
280
     2
  9
$DGNFRAME
280
     0
  9
$REALWORLDSCALE
290
     1
  9
$INTERFERECOLOR
 62
     1
  9
$INTERFEREOBJVS
345
33
  9
$INTERFEREVPVS
346
30
  9
$CSHADOW
280
     0
  9
$SHADOWPLANELOCATION
 40
0.0
  0
ENDSEC
  0
SECTION
  2
CLASSES
  0
CLASS
  1
ACDBDICTIONARYWDFLT
  2
AcDbDictionaryWithDefault
  3
ObjectDBX Classes
 90
        0
 91
        1
280
     0
281
     0
  0
CLASS
  1
MATERIAL
  2
AcDbMaterial
  3
ObjectDBX Classes
 90
     1153
 91
        3
280
     0
281
     0
  0
CLASS
  1
VISUALSTYLE
  2
AcDbVisualStyle
  3
ObjectDBX Classes
 90
     4095
 91
       24
280
     0
281
     0
  0
CLASS
  1
SCALE
  2
AcDbScale
  3
ObjectDBX Classes
 90
     1153
 91
       17
280
     0
281
     0
  0
CLASS
  1
TABLESTYLE
  2
AcDbTableStyle
  3
ObjectDBX Classes
 90
     4095
 91
        1
280
     0
281
     0
  0
CLASS
  1
MLEADERSTYLE
  2
AcDbMLeaderStyle
  3
ACDB_MLEADERSTYLE_CLASS
 90
     4095
 91
        1
280
     0
281
     0
  0
CLASS
  1
ACDBSECTIONVIEWSTYLE
  2
AcDbSectionViewStyle
  3
ObjectDBX Classes
 90
     1025
 91
        1
280
     0
281
     0
  0
CLASS
  1
ACDBDETAILVIEWSTYLE
  2
AcDbDetailViewStyle
  3
ObjectDBX Classes
 90
     1025
 91
        1
280
     0
281
     0
  0
CLASS
  1
DICTIONARYVAR
  2
AcDbDictionaryVar
  3
ObjectDBX Classes
 90
        0
 91
        5
280
     0
281
     0
  0
CLASS
  1
CELLSTYLEMAP
  2
AcDbCellStyleMap
  3
ObjectDBX Classes
 90
     1152
 91
        1
280
     0
281
     0
  0
ENDSEC
  0
SECTION
  2
TABLES
  0
TABLE
  2
VPORT
  5
8
330
0
100
AcDbSymbolTable
 70
     1
  0
VPORT
  5
57
330
8
100
AcDbSymbolTableRecord
100
AcDbViewportTableRecord
  2
*Active
 70
     0
 10
0.0
 20
0.0
 11
1.0
 21
1.0
 12
0.0
 22
0.0
 13
0.0
 23
0.0
 14
1.0
 24
1.0
 15
0.0
 25
0.0
 16
0.0
 26
0.0
 36
1.0
 17
104.9999999737534
 27
-148.4999999628701
 37
0.0
 40
302.939999924255
 41
0.7070707070707534
 42
50.0
 43
0.0
 44
0.0
 50
0.0
 51
0.0
 71
     0
 72
   100
 73
     1
 74
     0
 75
     1
 76
     0
 77
     0
 78
     0
281
     0
 65
     1
110
0.0
120
0.0
130
0.0
111
1.0
121
0.0
131
0.0
112
0.0
122
1.0
132
0.0
 79
     0
146
0.0
 60
     3
 61
     5
292
     1
282
     1
141
0.0
142
0.0
 63
   250
421
  3355443
  0
ENDTAB
  0
TABLE
  2
LTYPE
  5
5
330
0
100
AcDbSymbolTable
 70
     3
  0
LTYPE
  5
5B
330
5
100
AcDbSymbolTableRecord
100
AcDbLinetypeTableRecord
  2
ByBlock
 70
     0
  3

 72
    65
 73
     0
 40
0.0
  0
LTYPE
  5
5C
330
5
100
AcDbSymbolTableRecord
100
AcDbLinetypeTableRecord
  2
ByLayer
 70
     0
  3

 72
    65
 73
     0
 40
0.0
  0
LTYPE
  5
5D
330
5
100
AcDbSymbolTableRecord
100
AcDbLinetypeTableRecord
  2
Continuous
 70
     0
  3
Solid line
 72
    65
 73
     0
 40
0.0
  0
LTYPE
  5
B8
330
5
100
AcDbSymbolTableRecord
100
AcDbLinetypeTableRecord
  2
AI-Linetype-0
 70
     0
  3
Adobe Illustrator Linetype No. 0
 72
    65
 73
     2
 40
1.411111110758333
 49
0.7055555553791667
 74
     0
 49
-0.7055555553791667
 74
     0
  0
LTYPE
  5
BA
330
5
100
AcDbSymbolTableRecord
100
AcDbLinetypeTableRecord
  2
AI-Linetype-1
 70
     0
  3
Adobe Illustrator Linetype No. 1
 72
    65
 73
     2
 40
1.411111110758333
 49
0.7055555553791667
 74
     0
 49
-0.7055555553791667
 74
     0
  0
ENDTAB
  0
TABLE
  2
LAYER
  5
2
330
0
100
AcDbSymbolTable
 70
     2
  0
LAYER
  5
54
330
2
100
AcDbSymbolTableRecord
100
AcDbLayerTableRecord
  2
0
 70
     0
 62
     7
  6
Continuous
370
    -3
390
F
347
21
  0
LAYER
  5
78
330
2
100
AcDbSymbolTableRecord
100
AcDbLayerTableRecord
  2
レイヤー 1
 70
     0
 62
     7
  6
Continuous
370
     0
390
F
347
21
  0
ENDTAB
  0
TABLE
  2
STYLE
  5
3
330
0
100
AcDbSymbolTable
 70
     2
  0
STYLE
  5
55
330
3
100
AcDbSymbolTableRecord
100
AcDbTextStyleTableRecord
  2
Standard
 70
     0
 40
0.0
 41
1.0
 50
0.0
 71
     0
 42
0.2
  3
txt
  4

  0
STYLE
  5
5A
330
3
100
AcDbSymbolTableRecord
100
AcDbTextStyleTableRecord
  2
Annotative
 70
     0
 40
0.0
 41
1.0
 50
0.0
 71
     0
 42
0.2
  3
txt
  4

1001
AcadAnnotative
1000
AnnotativeData
1002
{
1070
     1
1070
     1
1002
}
  0
ENDTAB
  0
TABLE
  2
VIEW
  5
6
330
0
100
AcDbSymbolTable
 70
     0
  0
ENDTAB
  0
TABLE
  2
UCS
  5
7
330
0
100
AcDbSymbolTable
 70
     0
  0
ENDTAB
  0
TABLE
  2
APPID
  5
9
330
0
100
AcDbSymbolTable
 70
     2
  0
APPID
  5
56
330
9
100
AcDbSymbolTableRecord
100
AcDbRegAppTableRecord
  2
ACAD
 70
     0
  0
APPID
  5
5E
330
9
100
AcDbSymbolTableRecord
100
AcDbRegAppTableRecord
  2
AcadAnnotative
 70
     0
  0
ENDTAB
  0
TABLE
  2
DIMSTYLE
  5
A
330
0
100
AcDbSymbolTable
 70
     2
100
AcDbDimStyleTable
 71
     0
  0
DIMSTYLE
105
58
330
A
100
AcDbSymbolTableRecord
100
AcDbDimStyleTableRecord
  2
Standard
 70
     0
340
55
  0
DIMSTYLE
105
59
330
A
100
AcDbSymbolTableRecord
100
AcDbDimStyleTableRecord
  2
Annotative
 70
     0
340
55
1001
AcadAnnotative
1000
AnnotativeData
1002
{
1070
     1
1070
     1
1002
}
  0
ENDTAB
  0
TABLE
  2
BLOCK_RECORD
  5
1
330
0
100
AcDbSymbolTable
 70
    17
  0
BLOCK_RECORD
  5
70
330
1
100
AcDbSymbolTableRecord
100
AcDbBlockTableRecord
  2
*Model_Space
340
73
 70
     0
280
     1
281
     0
  0
BLOCK_RECORD
  5
6C
330
1
100
AcDbSymbolTableRecord
100
AcDbBlockTableRecord
  2
*Paper_Space
340
6F
 70
     0
280
     1
281
     0
  0
BLOCK_RECORD
  5
74
330
1
100
AcDbSymbolTableRecord
100
AcDbBlockTableRecord
  2
*Paper_Space0
340
77
 70
     0
280
     1
281
     0
  0
BLOCK_RECORD
  5
79
330
1
100
AcDbSymbolTableRecord
100
AcDbBlockTableRecord
  2
Block_0
340
0
102
{BLKREFS
331
7A
102
}
 70
     0
280
     1
281
     0
  0
BLOCK_RECORD
  5
B3
330
1
100
AcDbSymbolTableRecord
100
AcDbBlockTableRecord
  2
Block_1
340
0
102
{BLKREFS
331
B4
102
}
 70
     0
280
     1
281
     0
  0
BLOCK_RECORD
  5
122
330
1
100
AcDbSymbolTableRecord
100
AcDbBlockTableRecord
  2
Block_2
340
0
102
{BLKREFS
331
123
102
}
 70
     0
280
     1
281
     0
  0
BLOCK_RECORD
  5
126
330
1
100
AcDbSymbolTableRecord
100
AcDbBlockTableRecord
  2
Block_3
340
0
102
{BLKREFS
331
127
102
}
 70
     0
280
     1
281
     0
  0
BLOCK_RECORD
  5
133
330
1
100
AcDbSymbolTableRecord
100
AcDbBlockTableRecord
  2
Block_4
340
0
102
{BLKREFS
331
134
102
}
 70
     0
280
     1
281
     0
  0
BLOCK_RECORD
  5
137
330
1
100
AcDbSymbolTableRecord
100
AcDbBlockTableRecord
  2
Block_5
340
0
102
{BLKREFS
331
138
102
}
 70
     0
280
     1
281
     0
  0
BLOCK_RECORD
  5
141
330
1
100
AcDbSymbolTableRecord
100
AcDbBlockTableRecord
  2
Block_6
340
0
102
{BLKREFS
331
142
102
}
 70
     0
280
     1
281
     0
  0
BLOCK_RECORD
  5
149
330
1
100
AcDbSymbolTableRecord
100
AcDbBlockTableRecord
  2
Block_7
340
0
102
{BLKREFS
331
14A
102
}
 70
     0
280
     1
281
     0
  0
BLOCK_RECORD
  5
14D
330
1
100
AcDbSymbolTableRecord
100
AcDbBlockTableRecord
  2
Block_8
340
0
102
{BLKREFS
331
14E
102
}
 70
     0
280
     1
281
     0
  0
BLOCK_RECORD
  5
158
330
1
100
AcDbSymbolTableRecord
100
AcDbBlockTableRecord
  2
Block_9
340
0
102
{BLKREFS
331
159
102
}
 70
     0
280
     1
281
     0
  0
BLOCK_RECORD
  5
164
330
1
100
AcDbSymbolTableRecord
100
AcDbBlockTableRecord
  2
Block_10
340
0
102
{BLKREFS
331
165
102
}
 70
     0
280
     1
281
     0
  0
BLOCK_RECORD
  5
16D
330
1
100
AcDbSymbolTableRecord
100
AcDbBlockTableRecord
  2
Block_11
340
0
102
{BLKREFS
331
16E
102
}
 70
     0
280
     1
281
     0
  0
BLOCK_RECORD
  5
173
330
1
100
AcDbSymbolTableRecord
100
AcDbBlockTableRecord
  2
Block_12
340
0
102
{BLKREFS
331
174
102
}
 70
     0
280
     1
281
     0
  0
BLOCK_RECORD
  5
177
330
1
100
AcDbSymbolTableRecord
100
AcDbBlockTableRecord
  2
Block_13
340
0
102
{BLKREFS
331
178
102
}
 70
     0
280
     1
281
     0
  0
BLOCK_RECORD
  5
17E
330
1
100
AcDbSymbolTableRecord
100
AcDbBlockTableRecord
  2
Block_14
340
0
102
{BLKREFS
331
17F
102
}
 70
     0
280
     1
281
     0
  0
BLOCK_RECORD
  5
182
330
1
100
AcDbSymbolTableRecord
100
AcDbBlockTableRecord
  2
Block_15
340
0
102
{BLKREFS
331
183
102
}
 70
     0
280
     1
281
     0
  0
ENDTAB
  0
ENDSEC
  0
SECTION
  2
BLOCKS
  0
BLOCK
  5
71
330
70
100
AcDbEntity
  8
0
100
AcDbBlockBegin
  2
*Model_Space
 70
     0
 10
0.0
 20
0.0
 30
0.0
  3
*Model_Space
  1

  0
ENDBLK
  5
72
330
70
100
AcDbEntity
  8
0
100
AcDbBlockEnd
  0
BLOCK
  5
6D
330
6C
100
AcDbEntity
 67
     1
  8
0
100
AcDbBlockBegin
  2
*Paper_Space
 70
     0
 10
0.0
 20
0.0
 30
0.0
  3
*Paper_Space
  1

  0
ENDBLK
  5
6E
330
6C
100
AcDbEntity
 67
     1
  8
0
100
AcDbBlockEnd
  0
BLOCK
  5
75
330
74
100
AcDbEntity
 67
     1
  8
0
100
AcDbBlockBegin
  2
*Paper_Space0
 70
     0
 10
0.0
 20
0.0
 30
0.0
  3
*Paper_Space0
  1

  0
ENDBLK
  5
76
330
74
100
AcDbEntity
 67
     1
  8
0
100
AcDbBlockEnd
  0
BLOCK
  5
7B
330
79
100
AcDbEntity
  8
0
100
AcDbBlockBegin
  2
Block_0
 70
     0
 10
0.0
 20
0.0
 30
0.0
  3
Block_0
  1

  0
SPLINE
  5
7D
330
79
100
AcDbEntity
  8
レイヤー 1
 62
   250
420
  2299925
370
     9
100
AcDbSpline
210
0.0
220
0.0
230
1.0
 70
     8
 71
     3
 72
     8
 73
     4
 74
     0
 42
0.0000000001
 43
0.0000000001
 40
0.0
 40
0.0
 40
0.0
 40
0.0
 40
1.0
 40
1.0
 40
1.0
 40
1.0
 10
133.6409562835638
 20
-153.5439884274472
 30
0.0
 10
133.6409562835638
 20
-153.5439884274472
 30
0.0
 10
132.9354007460085
 20
-153.0668564831217
 30
0.0
 10
132.8203246378332
 20
-153.486450371906
 30
0.0
  0
SPLINE
  5
7E
330
79
100
AcDbEntity
  8
レイヤー 1
 62
   250
420
  2299925
370
     9
100
AcDbSpline
210
0.0
220
0.0
230
1.0
 70
     8
 71
     3
 72
    26
 73
    22
 74
     0
 42
0.0000000001
 43
0.0000000001
 40
0.0
 40
0.0
 40
0.0
 40
0.0
 40
1.0
 40
1.0
 40
1.0
 40
2.0
 40
2.0
 40
2.0
 40
3.0
 40
3.0
 40
3.0
 40
4.0
 40
4.0
 40
4.0
 40
5.0
 40
5.0
 40
5.0
 40
6.0
 40
6.0
 40
6.0
 40
7.0
 40
7.0
 40
7.0
 40
7.0
 10
134.1763359427751
 20
-146.4965114847645
 30
0.0
 10
134.1763359427751
 20
-146.4965114847645
 30
0.0
 10
125.5436128790332
 20
-149.5333637062279
 30
0.0
 10
125.5436128790332
 20
-149.5333637062279
 30
0.0
 10
125.5436128790332
 20
-149.5333637062279
 30
0.0
 10
124.169014302991
 20
-149.8008750950497
 30
0.0
 10
124.6843873453983
 20
-150.2590981504907
 30
0.0
 10
124.6843873453983
 20
-150.2590981504907
 30
0.0
 10
124.9903162264823
 20
-150.4501273171093
 30
0.0
 10
125.5249862128417
 20
-150.6602770392796
 30
0.0
 10
125.5249862128417
 20
-150.6602770392796
 30
0.0
 10
130.5858302503955
 20
-152.7037423165464
 30
0.0
 10
130.5858302503955
 20
-152.7037423165464
 30
0.0
 10
130.5858302503955
 20
-152.7037423165464
 30
0.0
 10
130.5472716402681
 20
-155.7781300935555
 30
0.0
 10
130.5472716402681
 20
-155.7781300935555
 30
0.0
 10
130.5472716402681
 20
-155.7781300935555
 30
0.0
 10
133.2020654614275
 20
-157.0579725932353
 30
0.0
 10
133.2020654614275
 20
-157.0579725932353
 30
0.0
 10
133.2020654614275
 20
-157.0579725932353
 30
0.0
 10
136.9269048108434
 20
-155.4727303714095
 30
0.0
 10
136.9269048108434
 20
-155.4727303714095
 30
0.0
  0
LINE
  5
7F
330
79
100
AcDbEntity
  8
レイヤー 1
 62
   250
420
  2299925
370
     9
100
AcDbLine
 10
132.8968109430948
 20
-153.3527828719396
 30
0.0
 11
142.2350813420872
 21
-149.3425109284975
 31
0.0
  0
SPLINE
  5
80
330
79
100
AcDbEntity
  8
レイヤー 1
 62
   250
420
  2299925
370
     9
100
AcDbSpline
210
0.0
220
0.0
230
1.0
 70
     8
 71
     3
 72
    26
 73
    22
 74
     0
 42
0.0000000001
 43
0.0000000001
 40
0.0
 40
0.0
 40
0.0
 40
0.0
 40
1.0
 40
1.0
 40
1.0
 40
2.0
 40
2.0
 40
2.0
 40
3.0
 40
3.0
 40
3.0
 40
4.0
 40
4.0
 40
4.0
 40
5.0
 40
5.0
 40
5.0
 40
6.0
 40
6.0
 40
6.0
 40
7.0
 40
7.0
 40
7.0
 40
7.0
 10
134.2714054341464
 20
-146.6687728736107
 30
0.0
 10
134.2714054341464
 20
-146.6687728736107
 30
0.0
 10
125.3334631621723
 20
-149.8008750950497
 30
0.0
 10
125.3334631621723
 20
-149.8008750950497
 30
0.0
 10
125.3334631621723
 20
-149.8008750950497
 30
0.0
 10
124.8566526117725
 20
-149.8770398172533
 30
0.0
 10
124.8945370622591
 20
-150.0491248172099
 30
0.0
 10
124.8945370622591
 20
-150.0491248172099
 30
0.0
 10
124.875240118307
 20
-150.1254306505242
 30
0.0
 10
125.181168999391
 20
-150.2205042616123
 30
0.0
 10
125.181168999391
 20
-150.2205042616123
 30
0.0
 10
130.8910888537188
 20
-152.4746131499371
 30
0.0
 10
130.8910888537188
 20
-152.4746131499371
 30
0.0
 10
130.8910888537188
 20
-152.4746131499371
 30
0.0
 10
130.8910888537188
 20
-155.4537862047474
 30
0.0
 10
130.8910888537188
 20
-155.4537862047474
 30
0.0
 10
130.8910888537188
 20
-155.4537862047474
 30
0.0
 10
132.7059581653657
 20
-156.3131528711998
 30
0.0
 10
132.7059581653657
 20
-156.3131528711998
 30
0.0
 10
132.7059581653657
 20
-156.3131528711998
 30
0.0
 10
132.8389553875535
 20
-153.486450371906
 30
0.0
 10
132.8389553875535
 20
-153.486450371906
 30
0.0
  0
LINE
  5
81
330
79
100
AcDbEntity
  8
レイヤー 1
 62
   250
420
  2299925
370
     9
100
AcDbLine
 10
140.2493305594146
 20
-148.7311823175395
 30
0.0
 11
130.8910888537188
 21
-152.531833705478
 31
0.0
  0
SPLINE
  5
82
330
79
100
AcDbEntity
  8
レイヤー 1
 62
   250
420
  2299925
370
     9
100
AcDbSpline
210
0.0
220
0.0
230
1.0
 70
     8
 71
     3
 72
    20
 73
    16
 74
     0
 42
0.0000000001
 43
0.0000000001
 40
0.0
 40
0.0
 40
0.0
 40
0.0
 40
1.0
 40
1.0
 40
1.0
 40
2.0
 40
2.0
 40
2.0
 40
3.0
 40
3.0
 40
3.0
 40
4.0
 40
4.0
 40
4.0
 40
5.0
 40
5.0
 40
5.0
 40
5.0
 10
133.2020654614275
 20
-157.0579725932353
 30
0.0
 10
133.2020654614275
 20
-157.0579725932353
 30
0.0
 10
133.2020654614275
 20
-154.1168995384149
 30
0.0
 10
133.2020654614275
 20
-154.1168995384149
 30
0.0
 10
133.2020654614275
 20
-154.1168995384149
 30
0.0
 10
133.2020654614275
 20
-153.7732587051677
 30
0.0
 10
133.4314768444637
 20
-153.9069262051342
 30
0.0
 10
133.4314768444637
 20
-153.9069262051342
 30
0.0
 10
138.7217675428304
 20
-156.2177264823352
 30
0.0
 10
138.7217675428304
 20
-156.2177264823352
 30
0.0
 10
138.7217675428304
 20
-156.2177264823352
 30
0.0
 10
139.4666225238276
 20
-156.6759142599973
 30
0.0
 10
140.1728526079425
 20
-156.4659409267166
 30
0.0
 10
140.1728526079425
 20
-156.4659409267166
 30
0.0
 10
149.7605719834293
 20
-152.3978134277338
 30
0.0
 10
149.7605719834293
 20
-152.3978134277338
 30
0.0
  0
SPLINE
  5
83
330
79
100
AcDbEntity
  8
レイヤー 1
 62
   250
420
  2299925
370
     9
100
AcDbSpline
210
0.0
220
0.0
230
1.0
 70
     8
 71
     3
 72
    20
 73
    16
 74
     0
 42
0.0000000001
 43
0.0000000001
 40
0.0
 40
0.0
 40
0.0
 40
0.0
 40
1.0
 40
1.0
 40
1.0
 40
2.0
 40
2.0
 40
2.0
 40
3.0
 40
3.0
 40
3.0
 40
4.0
 40
4.0
 40
4.0
 40
5.0
 40
5.0
 40
5.0
 40
5.0
 10
133.3742915681448
 20
-153.4103209274807
 30
0.0
 10
133.3742915681448
 20
-153.4103209274807
 30
0.0
 10
136.9069023113537
 20
-155.033663149297
 30
0.0
 10
137.0791636958479
 20
-155.1289131492734
 30
0.0
 10
137.0791636958479
 20
-155.1289131492734
 30
0.0
 10
139.2371758630146
 20
-156.1412442601314
 30
0.0
 10
139.2371758630146
 20
-156.1412442601314
 30
0.0
 10
139.2371758630146
 20
-156.1412442601314
 30
0.0
 10
139.6574752967363
 20
-156.4852378711564
 30
0.0
 10
140.5738508289132
 20
-156.0268737046048
 30
0.0
 10
140.5738508289132
 20
-156.0268737046048
 30
0.0
 10
147.907783141809
 20
-152.8374098165128
 30
0.0
 10
147.907783141809
 20
-152.8374098165128
 30
0.0
 10
147.907783141809
 20
-152.8374098165128
 30
0.0
 10
149.569013654983
 20
-152.130654816689
 30
0.0
 10
149.569013654983
 20
-152.130654816689
 30
0.0
  0
LINE
  5
84
330
79
100
AcDbEntity
  8
レイヤー 1
 62
   250
420
  2299925
370
     9
100
AcDbLine
 10
130.8910888537188
 20
-155.4537862047474
 30
0.0
 11
132.7438424175622
 21
-154.7852723160255
 31
0.0
  0
SPLINE
  5
85
330
79
100
AcDbEntity
  8
レイヤー 1
 62
   250
420
  2299925
370
     9
100
AcDbSpline
210
0.0
220
0.0
230
1.0
 70
     9
 71
     3
 72
    17
 73
    13
 74
     0
 42
0.0000000001
 43
0.0000000001
 40
0.0
 40
0.0
 40
0.0
 40
0.0
 40
1.0
 40
1.0
 40
1.0
 40
2.0
 40
2.0
 40
2.0
 40
3.0
 40
3.0
 40
3.0
 40
4.0
 40
4.0
 40
4.0
 40
4.0
 10
137.5166786846859
 20
-148.5114017620384
 30
0.0
 10
137.5166786846859
 20
-148.7471984286466
 30
0.0
 10
137.1859495264569
 20
-148.93910953971
 30
0.0
 10
136.780113981255
 20
-148.93910953971
 30
0.0
 10
136.3722323249943
 20
-148.93910953971
 30
0.0
 10
136.0421776089756
 20
-148.7471984286466
 30
0.0
 10
136.0421776089756
 20
-148.5114017620384
 30
0.0
 10
136.0421776089756
 20
-148.2750759287645
 30
0.0
 10
136.3722323249943
 20
-148.0836939843677
 30
0.0
 10
136.780113981255
 20
-148.0836939843677
 30
0.0
 10
137.1859495264569
 20
-148.0836939843677
 30
0.0
 10
137.5166786846859
 20
-148.2750759287645
 30
0.0
 10
137.5166786846859
 20
-148.5114017620384
 30
0.0
  0
SPLINE
  5
86
330
79
100
AcDbEntity
  8
レイヤー 1
 62
   250
420
  2299925
370
     9
100
AcDbSpline
210
0.0
220
0.0
230
1.0
 70
     8
 71
     3
 72
    11
 73
     7
 74
     0
 42
0.0000000001
 43
0.0000000001
 40
0.0
 40
0.0
 40
0.0
 40
0.0
 40
1.0
 40
1.0
 40
1.0
 40
2.0
 40
2.0
 40
2.0
 40
2.0
 10
136.1703376079228
 20
-148.7461753730912
 30
0.0
 10
136.1703376079228
 20
-148.7461753730912
 30
0.0
 10
136.1489945529118
 20
-148.2330248176642
 30
0.0
 10
136.982714253864
 20
-148.2765928732084
 30
0.0
 10
136.982714253864
 20
-148.2765928732084
 30
0.0
 10
137.4732870191262
 20
-148.3399870398595
 30
0.0
 10
137.388514521289
 20
-148.725149817541
 30
0.0
  0
SPLINE
  5
87
330
79
100
AcDbEntity
  8
レイヤー 1
 62
   250
420
  2299925
370
     9
100
AcDbSpline
210
0.0
220
0.0
230
1.0
 70
     9
 71
     3
 72
    17
 73
    13
 74
     0
 42
0.0000000001
 43
0.0000000001
 40
0.0
 40
0.0
 40
0.0
 40
0.0
 40
1.0
 40
1.0
 40
1.0
 40
2.0
 40
2.0
 40
2.0
 40
3.0
 40
3.0
 40
3.0
 40
4.0
 40
4.0
 40
4.0
 40
4.0
 10
137.2796825796211
 20
-147.4256575956435
 30
0.0
 10
137.2796825796211
 20
-147.6618423178067
 30
0.0
 10
136.948953421392
 20
-147.8532242622032
 30
0.0
 10
136.5424164977399
 20
-147.8532242622032
 30
0.0
 10
136.1345306643919
 20
-147.8532242622032
 30
0.0
 10
135.8051773394611
 20
-147.6618423178067
 30
0.0
 10
135.8051773394611
 20
-147.4256575956435
 30
0.0
 10
135.8051773394611
 20
-147.1895081512582
 30
0.0
 10
136.1345306643919
 20
-146.9983025957507
 30
0.0
 10
136.5424164977399
 20
-146.9983025957507
 30
0.0
 10
136.948953421392
 20
-146.9983025957507
 30
0.0
 10
137.2796825796211
 20
-147.1895081512582
 30
0.0
 10
137.2796825796211
 20
-147.4256575956435
 30
0.0
  0
SPLINE
  5
88
330
79
100
AcDbEntity
  8
レイヤー 1
 62
   250
420
  2299925
370
     9
100
AcDbSpline
210
0.0
220
0.0
230
1.0
 70
     8
 71
     3
 72
    11
 73
     7
 74
     0
 42
0.0000000001
 43
0.0000000001
 40
0.0
 40
0.0
 40
0.0
 40
0.0
 40
1.0
 40
1.0
 40
1.0
 40
2.0
 40
2.0
 40
2.0
 40
2.0
 10
135.9326359473204
 20
-147.6607839844738
 30
0.0
 10
135.9326359473204
 20
-147.6607839844738
 30
0.0
 10
135.9119631700701
 20
-147.1473159290466
 30
0.0
 10
136.7443070377241
 20
-147.1908839845911
 30
0.0
 10
136.7443070377241
 20
-147.1908839845911
 30
0.0
 10
137.2362556362845
 20
-147.2542781512418
 30
0.0
 10
137.1508128606866
 20
-147.6394409289233
 30
0.0
  0
SPLINE
  5
89
330
79
100
AcDbEntity
  8
レイヤー 1
 62
   250
420
  2299925
370
     9
100
AcDbSpline
210
0.0
220
0.0
230
1.0
 70
     9
 71
     3
 72
    17
 73
    13
 74
     0
 42
0.0000000001
 43
0.0000000001
 40
0.0
 40
0.0
 40
0.0
 40
0.0
 40
1.0
 40
1.0
 40
1.0
 40
2.0
 40
2.0
 40
2.0
 40
3.0
 40
3.0
 40
3.0
 40
4.0
 40
4.0
 40
4.0
 40
4.0
 10
127.5768828271601
 20
-150.0379064838791
 30
0.0
 10
127.5768828271601
 20
-150.2739148171541
 30
0.0
 10
127.2468592244686
 20
-150.465120372661
 30
0.0
 10
126.8396478459685
 20
-150.465120372661
 30
0.0
 10
126.4324364674685
 20
-150.465120372661
 30
0.0
 10
126.1030831425377
 20
-150.2739148171541
 30
0.0
 10
126.1030831425377
 20
-150.0379064838791
 30
0.0
 10
126.1030831425377
 20
-149.8019334283824
 30
0.0
 10
126.4324364674685
 20
-149.6100223173199
 30
0.0
 10
126.8396478459685
 20
-149.6100223173199
 30
0.0
 10
127.2468592244686
 20
-149.6100223173199
 30
0.0
 10
127.5768828271601
 20
-149.8019334283824
 30
0.0
 10
127.5768828271601
 20
-150.0379064838791
 30
0.0
  0
SPLINE
  5
8A
330
79
100
AcDbEntity
  8
レイヤー 1
 62
   250
420
  2299925
370
     9
100
AcDbSpline
210
0.0
220
0.0
230
1.0
 70
     8
 71
     3
 72
    11
 73
     7
 74
     0
 42
0.0000000001
 43
0.0000000001
 40
0.0
 40
0.0
 40
0.0
 40
0.0
 40
1.0
 40
1.0
 40
1.0
 40
2.0
 40
2.0
 40
2.0
 40
2.0
 10
126.2312473059346
 20
-150.2726800949319
 30
0.0
 10
126.2312473059346
 20
-150.2726800949319
 30
0.0
 10
126.209202611434
 20
-149.7593884283936
 30
0.0
 10
127.0422128408007
 20
-149.8026037061604
 30
0.0
 10
127.0422128408007
 20
-149.8026037061604
 30
0.0
 10
127.5334911616005
 20
-149.8665270394781
 30
0.0
 10
127.4487539415401
 20
-150.2513370393812
 30
0.0
  0
SPLINE
  5
8B
330
79
100
AcDbEntity
  8
レイヤー 1
 62
   250
420
  2299925
370
     9
100
AcDbSpline
210
0.0
220
0.0
230
1.0
 70
     9
 71
     3
 72
    17
 73
    13
 74
     0
 42
0.0000000001
 43
0.0000000001
 40
0.0
 40
0.0
 40
0.0
 40
0.0
 40
1.0
 40
1.0
 40
1.0
 40
2.0
 40
2.0
 40
2.0
 40
3.0
 40
3.0
 40
3.0
 40
4.0
 40
4.0
 40
4.0
 40
4.0
 10
135.3111473520648
 20
-149.5972870395449
 30
0.0
 10
135.3111473520648
 20
-149.8329425950421
 30
0.0
 10
134.9797126382982
 20
-150.0244656505492
 30
0.0
 10
134.5738770930964
 20
-150.0244656505492
 30
0.0
 10
134.1659954368356
 20
-150.0244656505492
 30
0.0
 10
133.8373164984157
 20
-149.8329425950421
 30
0.0
 10
133.8373164984157
 20
-149.5972870395449
 30
0.0
 10
133.8373164984157
 20
-149.3611375951599
 30
0.0
 10
134.1659954368356
 20
-149.1695792618739
 30
0.0
 10
134.5738770930964
 20
-149.1695792618739
 30
0.0
 10
134.9797126382982
 20
-149.1695792618739
 30
0.0
 10
135.3111473520648
 20
-149.3611375951599
 30
0.0
 10
135.3111473520648
 20
-149.5972870395449
 30
0.0
  0
SPLINE
  5
8C
330
79
100
AcDbEntity
  8
レイヤー 1
 62
   250
420
  2299925
370
     9
100
AcDbSpline
210
0.0
220
0.0
230
1.0
 70
     8
 71
     3
 72
    11
 73
     7
 74
     0
 42
0.0000000001
 43
0.0000000001
 40
0.0
 40
0.0
 40
0.0
 40
0.0
 40
1.0
 40
1.0
 40
1.0
 40
2.0
 40
2.0
 40
2.0
 40
2.0
 10
133.9654765530624
 20
-149.8318842617088
 30
0.0
 10
133.9654765530624
 20
-149.8318842617088
 30
0.0
 10
133.9434279425138
 20
-149.3187337062812
 30
0.0
 10
134.7771476434661
 20
-149.362160650715
 30
0.0
 10
134.7771476434661
 20
-149.362160650715
 30
0.0
 10
135.2684259642658
 20
-149.4257312062543
 30
0.0
 10
135.1829831886679
 20
-149.810717595047
 30
0.0
  0
SPLINE
  5
8D
330
79
100
AcDbEntity
  8
レイヤー 1
 62
   250
420
  2299925
370
     9
100
AcDbSpline
210
0.0
220
0.0
230
1.0
 70
     9
 71
     3
 72
    17
 73
    13
 74
     0
 42
0.0000000001
 43
0.0000000001
 40
0.0
 40
0.0
 40
0.0
 40
0.0
 40
1.0
 40
1.0
 40
1.0
 40
2.0
 40
2.0
 40
2.0
 40
3.0
 40
3.0
 40
3.0
 40
4.0
 40
4.0
 40
4.0
 40
4.0
 10
135.0734104136855
 20
-148.5114017620384
 30
0.0
 10
135.0734104136855
 20
-148.7471984286466
 30
0.0
 10
134.7426812554565
 20
-148.93910953971
 30
0.0
 10
134.3368809880315
 20
-148.93910953971
 30
0.0
 10
133.9289640539939
 20
-148.93910953971
 30
0.0
 10
133.5996107290631
 20
-148.7471984286466
 30
0.0
 10
133.5996107290631
 20
-148.5114017620384
 30
0.0
 10
133.5996107290631
 20
-148.2750759287645
 30
0.0
 10
133.9289640539939
 20
-148.0836939843677
 30
0.0
 10
134.3368809880315
 20
-148.0836939843677
 30
0.0
 10
134.7426812554565
 20
-148.0836939843677
 30
0.0
 10
135.0734104136855
 20
-148.2750759287645
 30
0.0
 10
135.0734104136855
 20
-148.5114017620384
 30
0.0
  0
SPLINE
  5
8E
330
79
100
AcDbEntity
  8
レイヤー 1
 62
   250
420
  2299925
370
     9
100
AcDbSpline
210
0.0
220
0.0
230
1.0
 70
     8
 71
     3
 72
    11
 73
     7
 74
     0
 42
0.0000000001
 43
0.0000000001
 40
0.0
 40
0.0
 40
0.0
 40
0.0
 40
1.0
 40
1.0
 40
1.0
 40
2.0
 40
2.0
 40
2.0
 40
2.0
 10
133.72777489246
 20
-148.7461753730912
 30
0.0
 10
133.72777489246
 20
-148.7461753730912
 30
0.0
 10
133.7063965596721
 20
-148.2330248176642
 30
0.0
 10
134.5394459828637
 20
-148.2765928732084
 30
0.0
 10
134.5394459828637
 20
-148.2765928732084
 30
0.0
 10
135.0313945814241
 20
-148.3399870398595
 30
0.0
 10
134.9452815280655
 20
-148.725149817541
 30
0.0
  0
SPLINE
  5
8F
330
79
100
AcDbEntity
  8
レイヤー 1
 62
   250
420
  2299925
370
     9
100
AcDbSpline
210
0.0
220
0.0
230
1.0
 70
     9
 71
     3
 72
    17
 73
    13
 74
     0
 42
0.0000000001
 43
0.0000000001
 40
0.0
 40
0.0
 40
0.0
 40
0.0
 40
1.0
 40
1.0
 40
1.0
 40
2.0
 40
2.0
 40
2.0
 40
3.0
 40
3.0
 40
3.0
 40
4.0
 40
4.0
 40
4.0
 40
4.0
 10
134.5304854275367
 20
-147.5615828733876
 30
0.0
 10
134.5304854275367
 20
-147.7979087066615
 30
0.0
 10
134.2004265470683
 20
-147.9889378732805
 30
0.0
 10
133.79392483176
 20
-147.9889378732805
 30
0.0
 10
133.3867093456058
 20
-147.9889378732805
 30
0.0
 10
133.0566504651374
 20
-147.7979087066615
 30
0.0
 10
133.0566504651374
 20
-147.5615828733876
 30
0.0
 10
133.0566504651374
 20
-147.325574540113
 30
0.0
 10
133.3867093456058
 20
-147.1340514846052
 30
0.0
 10
133.79392483176
 20
-147.1340514846052
 30
0.0
 10
134.2004265470683
 20
-147.1340514846052
 30
0.0
 10
134.5304854275367
 20
-147.325574540113
 30
0.0
 10
134.5304854275367
 20
-147.5615828733876
 30
0.0
  0
SPLINE
  5
90
330
79
100
AcDbEntity
  8
レイヤー 1
 62
   250
420
  2299925
370
     9
100
AcDbSpline
210
0.0
220
0.0
230
1.0
 70
     8
 71
     3
 72
    11
 73
     7
 74
     0
 42
0.0000000001
 43
0.0000000001
 40
0.0
 40
0.0
 40
0.0
 40
0.0
 40
1.0
 40
1.0
 40
1.0
 40
2.0
 40
2.0
 40
2.0
 40
2.0
 10
133.1848146285343
 20
-147.7967092622175
 30
0.0
 10
133.1848146285343
 20
-147.7967092622175
 30
0.0
 10
133.1634715735233
 20
-147.2833823179014
 30
0.0
 10
133.996485718938
 20
-147.3264564845571
 30
0.0
 10
133.996485718938
 20
-147.3264564845571
 30
0.0
 10
134.4884343174984
 20
-147.3903445400966
 30
0.0
 10
134.4030268196773
 20
-147.7755073177782
 30
0.0
  0
SPLINE
  5
91
330
79
100
AcDbEntity
  8
レイヤー 1
 62
   250
420
  2299925
370
     9
100
AcDbSpline
210
0.0
220
0.0
230
1.0
 70
     9
 71
     3
 72
    17
 73
    13
 74
     0
 42
0.0000000001
 43
0.0000000001
 40
0.0
 40
0.0
 40
0.0
 40
0.0
 40
1.0
 40
1.0
 40
1.0
 40
2.0
 40
2.0
 40
2.0
 40
3.0
 40
3.0
 40
3.0
 40
4.0
 40
4.0
 40
4.0
 40
4.0
 10
133.0042982442508
 20
-150.4110042615637
 30
0.0
 10
133.0042982442508
 20
-150.6473653726157
 30
0.0
 10
132.6735690860217
 20
-150.8385709281233
 30
0.0
 10
132.2670632630592
 20
-150.8385709281233
 30
0.0
 10
131.8598518845591
 20
-150.8385709281233
 30
0.0
 10
131.5305026101032
 20
-150.6473653726157
 30
0.0
 10
131.5305026101032
 20
-150.4110042615637
 30
0.0
 10
131.5305026101032
 20
-150.1748548171787
 30
0.0
 10
131.8598518845591
 20
-149.9834728727822
 30
0.0
 10
132.2670632630592
 20
-149.9834728727822
 30
0.0
 10
132.6735690860217
 20
-149.9834728727822
 30
0.0
 10
133.0042982442508
 20
-150.1748548171787
 30
0.0
 10
133.0042982442508
 20
-150.4110042615637
 30
0.0
  0
SPLINE
  5
92
330
79
100
AcDbEntity
  8
レイヤー 1
 62
   250
420
  2299925
370
     9
100
AcDbSpline
210
0.0
220
0.0
230
1.0
 70
     8
 71
     3
 72
    11
 73
     7
 74
     0
 42
0.0000000001
 43
0.0000000001
 40
0.0
 40
0.0
 40
0.0
 40
0.0
 40
1.0
 40
1.0
 40
1.0
 40
2.0
 40
2.0
 40
2.0
 40
2.0
 10
131.6586627230252
 20
-150.645813150394
 30
0.0
 10
131.6586627230252
 20
-150.645813150394
 30
0.0
 10
131.6366141124766
 20
-150.1326625949664
 30
0.0
 10
132.4703026098685
 20
-150.1758778727338
 30
0.0
 10
132.4703026098685
 20
-150.1758778727338
 30
0.0
 10
132.9615768564518
 20
-150.2399775949403
 30
0.0
 10
132.8754638030932
 20
-150.6247875948435
 30
0.0
  0
SPLINE
  5
93
330
79
100
AcDbEntity
  8
レイヤー 1
 62
   250
420
  2299925
370
     9
100
AcDbSpline
210
0.0
220
0.0
230
1.0
 70
     9
 71
     3
 72
    17
 73
    13
 74
     0
 42
0.0000000001
 43
0.0000000001
 40
0.0
 40
0.0
 40
0.0
 40
0.0
 40
1.0
 40
1.0
 40
1.0
 40
2.0
 40
2.0
 40
2.0
 40
3.0
 40
3.0
 40
3.0
 40
4.0
 40
4.0
 40
4.0
 40
4.0
 10
132.7658910281108
 20
-149.3254717618356
 30
0.0
 10
132.7658910281108
 20
-149.5614448173317
 30
0.0
 10
132.4358674254193
 20
-149.7526503728392
 30
0.0
 10
132.0293303877565
 20
-149.7526503728392
 30
0.0
 10
131.6221149461799
 20
-149.7526503728392
 30
0.0
 10
131.292761621249
 20
-149.5614448173317
 30
0.0
 10
131.292761621249
 20
-149.3254717618356
 30
0.0
 10
131.292761621249
 20
-149.0894634285606
 30
0.0
 10
131.6221149461799
 20
-148.8975875952764
 30
0.0
 10
132.0293303877565
 20
-148.8975875952764
 30
0.0
 10
132.4358674254193
 20
-148.8975875952764
 30
0.0
 10
132.7658910281108
 20
-149.0894634285606
 30
0.0
 10
132.7658910281108
 20
-149.3254717618356
 30
0.0
  0
SPLINE
  5
94
330
79
100
AcDbEntity
  8
レイヤー 1
 62
   250
420
  2299925
370
     9
100
AcDbSpline
210
0.0
220
0.0
230
1.0
 70
     8
 71
     3
 72
    11
 73
     7
 74
     0
 42
0.0000000001
 43
0.0000000001
 40
0.0
 40
0.0
 40
0.0
 40
0.0
 40
1.0
 40
1.0
 40
1.0
 40
2.0
 40
2.0
 40
2.0
 40
2.0
 10
131.420925784646
 20
-149.5598925951099
 30
0.0
 10
131.420925784646
 20
-149.5598925951099
 30
0.0
 10
131.3995827296349
 20
-149.0469184285718
 30
0.0
 10
132.2325968750496
 20
-149.090345373005
 30
0.0
 10
132.2325968750496
 20
-149.090345373005
 30
0.0
 10
132.7238751958494
 20
-149.1540923174332
 30
0.0
 10
132.6384324202515
 20
-149.5390787062258
 30
0.0
  0
SPLINE
  5
95
330
79
100
AcDbEntity
  8
レイヤー 1
 62
   250
420
  2299925
370
     9
100
AcDbSpline
210
0.0
220
0.0
230
1.0
 70
     9
 71
     3
 72
    17
 73
    13
 74
     0
 42
0.0000000001
 43
0.0000000001
 40
0.0
 40
0.0
 40
0.0
 40
0.0
 40
1.0
 40
1.0
 40
1.0
 40
2.0
 40
2.0
 40
2.0
 40
3.0
 40
3.0
 40
3.0
 40
4.0
 40
4.0
 40
4.0
 40
4.0
 10
132.2243418752602
 20
-148.3753000954058
 30
0.0
 10
132.2243418752602
 20
-148.6116612064584
 30
0.0
 10
131.8936127170312
 20
-148.803007873077
 30
0.0
 10
131.4877771718293
 20
-148.803007873077
 30
0.0
 10
131.0798602377917
 20
-148.803007873077
 30
0.0
 10
130.7498366351002
 20
-148.6116612064584
 30
0.0
 10
130.7498366351002
 20
-148.3753000954058
 30
0.0
 10
130.7498366351002
 20
-148.1393270399096
 30
0.0
 10
131.0798602377917
 20
-147.9484742621795
 30
0.0
 10
131.4877771718293
 20
-147.9484742621795
 30
0.0
 10
131.8936127170312
 20
-147.9484742621795
 30
0.0
 10
132.2243418752602
 20
-148.1393270399096
 30
0.0
 10
132.2243418752602
 20
-148.3753000954058
 30
0.0
  0
SPLINE
  5
96
330
79
100
AcDbEntity
  8
レイヤー 1
 62
   250
420
  2299925
370
     9
100
AcDbSpline
210
0.0
220
0.0
230
1.0
 70
     8
 71
     3
 72
    11
 73
     7
 74
     0
 42
0.0000000001
 43
0.0000000001
 40
0.0
 40
0.0
 40
0.0
 40
0.0
 40
1.0
 40
1.0
 40
1.0
 40
2.0
 40
2.0
 40
2.0
 40
2.0
 10
130.8780007984971
 20
-148.6106028731251
 30
0.0
 10
130.8780007984971
 20
-148.6106028731251
 30
0.0
 10
130.8559521879485
 20
-148.0969584288091
 30
0.0
 10
131.6896366111239
 20
-148.1407028732428
 30
0.0
 10
131.6896366111239
 20
-148.1407028732428
 30
0.0
 10
132.180244654163
 20
-148.2042734287821
 30
0.0
 10
132.0961777118633
 20
-148.5890834286859
 30
0.0
  0
SPLINE
  5
97
330
79
100
AcDbEntity
  8
レイヤー 1
 62
   250
420
  2299925
370
     9
100
AcDbSpline
210
0.0
220
0.0
230
1.0
 70
     9
 71
     3
 72
    17
 73
    13
 74
     0
 42
0.0000000001
 43
0.0000000001
 40
0.0
 40
0.0
 40
0.0
 40
0.0
 40
1.0
 40
1.0
 40
1.0
 40
2.0
 40
2.0
 40
2.0
 40
3.0
 40
3.0
 40
3.0
 40
4.0
 40
4.0
 40
4.0
 40
4.0
 10
130.5610299732504
 20
-151.2254270391379
 30
0.0
 10
130.5610299732504
 20
-151.4614353724122
 30
0.0
 10
130.2310063705589
 20
-151.6528173168093
 30
0.0
 10
129.8244692771966
 20
-151.6528173168093
 30
0.0
 10
129.4165836135588
 20
-151.6528173168093
 30
0.0
 10
129.0865247330904
 20
-151.4614353724122
 30
0.0
 10
129.0865247330904
 20
-151.2254270391379
 30
0.0
 10
129.0865247330904
 20
-150.9891012058634
 30
0.0
 10
129.4165836135588
 20
-150.7975428725787
 30
0.0
 10
129.8244692771966
 20
-150.7975428725787
 30
0.0
 10
130.2310063705589
 20
-150.7975428725787
 30
0.0
 10
130.5610299732504
 20
-150.9891012058634
 30
0.0
 10
130.5610299732504
 20
-151.2254270391379
 30
0.0
  0
SPLINE
  5
98
330
79
100
AcDbEntity
  8
レイヤー 1
 62
   250
420
  2299925
370
     9
100
AcDbSpline
210
0.0
220
0.0
230
1.0
 70
     8
 71
     3
 72
    11
 73
     7
 74
     0
 42
0.0000000001
 43
0.0000000001
 40
0.0
 40
0.0
 40
0.0
 40
0.0
 40
1.0
 40
1.0
 40
1.0
 40
2.0
 40
2.0
 40
2.0
 40
2.0
 10
129.2146888964873
 20
-151.4603770390796
 30
0.0
 10
129.2146888964873
 20
-151.4603770390796
 30
0.0
 10
129.1933498329097
 20
-150.9469089836524
 30
0.0
 10
130.0270655424285
 20
-150.9901242614192
 30
0.0
 10
130.0270655424285
 20
-150.9901242614192
 30
0.0
 10
130.519014140989
 20
-151.0536948169591
 30
0.0
 10
130.433571365391
 20
-151.4390339835295
 30
0.0
  0
SPLINE
  5
99
330
79
100
AcDbEntity
  8
レイヤー 1
 62
   250
420
  2299925
370
     9
100
AcDbSpline
210
0.0
220
0.0
230
1.0
 70
     9
 71
     3
 72
    17
 73
    13
 74
     0
 42
0.0000000001
 43
0.0000000001
 40
0.0
 40
0.0
 40
0.0
 40
0.0
 40
1.0
 40
1.0
 40
1.0
 40
2.0
 40
2.0
 40
2.0
 40
3.0
 40
3.0
 40
3.0
 40
4.0
 40
4.0
 40
4.0
 40
4.0
 10
130.3240338681856
 20
-150.1395417616321
 30
0.0
 10
130.3240338681856
 20
-150.3756912060171
 30
0.0
 10
129.9933047099565
 20
-150.5672495393024
 30
0.0
 10
129.5867636092171
 20
-150.5672495393024
 30
0.0
 10
129.1795522307171
 20
-150.5672495393024
 30
0.0
 10
128.8501989057863
 20
-150.3756912060171
 30
0.0
 10
128.8501989057863
 20
-150.1395417616321
 30
0.0
 10
128.8501989057863
 20
-149.9033923172464
 30
0.0
 10
129.1795522307171
 20
-149.7123631506271
 30
0.0
 10
129.5867636092171
 20
-149.7123631506271
 30
0.0
 10
129.9933047099565
 20
-149.7123631506271
 30
0.0
 10
130.3240338681856
 20
-149.9033923172464
 30
0.0
 10
130.3240338681856
 20
-150.1395417616321
 30
0.0
  0
SPLINE
  5
9A
330
79
100
AcDbEntity
  8
レイヤー 1
 62
   250
420
  2299925
370
     9
100
AcDbSpline
210
0.0
220
0.0
230
1.0
 70
     8
 71
     3
 72
    11
 73
     7
 74
     0
 42
0.0000000001
 43
0.0000000001
 40
0.0
 40
0.0
 40
0.0
 40
0.0
 40
1.0
 40
1.0
 40
1.0
 40
2.0
 40
2.0
 40
2.0
 40
2.0
 10
128.9783630691832
 20
-150.374668150462
 30
0.0
 10
128.9783630691832
 20
-150.374668150462
 30
0.0
 10
128.9570200141721
 20
-149.8611648172566
 30
0.0
 10
129.7900341595868
 20
-149.9045917616904
 30
0.0
 10
129.7900341595868
 20
-149.9045917616904
 30
0.0
 10
130.2819827581473
 20
-149.9683387061192
 30
0.0
 10
130.1958697047886
 20
-150.3535014838001
 30
0.0
  0
SPLINE
  5
9B
330
79
100
AcDbEntity
  8
レイヤー 1
 62
   250
420
  2299925
370
     9
100
AcDbSpline
210
0.0
220
0.0
230
1.0
 70
     9
 71
     3
 72
    17
 73
    13
 74
     0
 42
0.0000000001
 43
0.0000000001
 40
0.0
 40
0.0
 40
0.0
 40
0.0
 40
1.0
 40
1.0
 40
1.0
 40
2.0
 40
2.0
 40
2.0
 40
3.0
 40
3.0
 40
3.0
 40
4.0
 40
4.0
 40
4.0
 40
4.0
 10
129.781077610541
 20
-149.1895464840911
 30
0.0
 10
129.781077610541
 20
-149.4257312062543
 30
0.0
 10
129.4503444460308
 20
-149.6172542617621
 30
0.0
 10
129.044508900829
 20
-149.6172542617621
 30
0.0
 10
128.6366272445682
 20
-149.6172542617621
 30
0.0
 10
128.3072739196374
 20
-149.4257312062543
 30
0.0
 10
128.3072739196374
 20
-149.1895464840911
 30
0.0
 10
128.3072739196374
 20
-148.9537498174839
 30
0.0
 10
128.6366272445682
 20
-148.7623678730871
 30
0.0
 10
129.044508900829
 20
-148.7623678730871
 30
0.0
 10
129.4503444460308
 20
-148.7623678730871
 30
0.0
 10
129.781077610541
 20
-148.9537498174839
 30
0.0
 10
129.781077610541
 20
-149.1895464840911
 30
0.0
  0
SPLINE
  5
9C
330
79
100
AcDbEntity
  8
レイヤー 1
 62
   250
420
  2299925
370
     9
100
AcDbSpline
210
0.0
220
0.0
230
1.0
 70
     8
 71
     3
 72
    11
 73
     7
 74
     0
 42
0.0000000001
 43
0.0000000001
 40
0.0
 40
0.0
 40
0.0
 40
0.0
 40
1.0
 40
1.0
 40
1.0
 40
2.0
 40
2.0
 40
2.0
 40
2.0
 10
128.4354028052574
 20
-149.4246728729217
 30
0.0
 10
128.4354028052574
 20
-149.4246728729217
 30
0.0
 10
128.4140637219938
 20
-148.9113812063833
 30
0.0
 10
129.2470738956611
 20
-148.954772873039
 30
0.0
 10
129.2470738956611
 20
-148.954772873039
 30
0.0
 10
129.7383522164609
 20
-149.0185198174678
 30
0.0
 10
129.6529094408629
 20
-149.4035062062605
 30
0.0
  0
SPLINE
  5
9D
330
79
100
AcDbEntity
  8
レイヤー 1
 62
   250
420
  2299925
370
     9
100
AcDbSpline
210
0.0
220
0.0
230
1.0
 70
     9
 71
     3
 72
    17
 73
    13
 74
     0
 42
0.0000000001
 43
0.0000000001
 40
0.0
 40
0.0
 40
0.0
 40
0.0
 40
1.0
 40
1.0
 40
1.0
 40
2.0
 40
2.0
 40
2.0
 40
3.0
 40
3.0
 40
3.0
 40
4.0
 40
4.0
 40
4.0
 40
4.0
 10
140.1625119505184
 20
-153.9393112051262
 30
0.0
 10
140.1625119505184
 20
-154.1756370384
 30
0.0
 10
139.8317827922894
 20
-154.3670189827971
 30
0.0
 10
139.4259472470875
 20
-154.3670189827971
 30
0.0
 10
139.0180655908268
 20
-154.3670189827971
 30
0.0
 10
138.688716497203
 20
-154.1756370384
 30
0.0
 10
138.688716497203
 20
-153.9393112051262
 30
0.0
 10
138.688716497203
 20
-153.7034792607407
 30
0.0
 10
139.0180655908268
 20
-153.5123089830107
 30
0.0
 10
139.4259472470875
 20
-153.5123089830107
 30
0.0
 10
139.8317827922894
 20
-153.5123089830107
 30
0.0
 10
140.1625119505184
 20
-153.7034792607407
 30
0.0
 10
140.1625119505184
 20
-153.9393112051262
 30
0.0
  0
SPLINE
  5
9E
330
79
100
AcDbEntity
  8
レイヤー 1
 62
   250
420
  2299925
370
     9
100
AcDbSpline
210
0.0
220
0.0
230
1.0
 70
     8
 71
     3
 72
    11
 73
     7
 74
     0
 42
0.0000000001
 43
0.0000000001
 40
0.0
 40
0.0
 40
0.0
 40
0.0
 40
1.0
 40
1.0
 40
1.0
 40
2.0
 40
2.0
 40
2.0
 40
2.0
 10
138.8161708737553
 20
-154.1744375939567
 30
0.0
 10
138.8161708737553
 20
-154.1744375939567
 30
0.0
 10
138.7948278187443
 20
-153.6612870385291
 30
0.0
 10
139.6285475196965
 20
-153.7048903718511
 30
0.0
 10
139.6285475196965
 20
-153.7048903718511
 30
0.0
 10
140.1197905627194
 20
-153.7682492607246
 30
0.0
 10
140.0343477871215
 20
-154.1530945384059
 30
0.0
  0
SPLINE
  5
9F
330
79
100
AcDbEntity
  8
レイヤー 1
 62
   250
420
  2299925
370
     9
100
AcDbSpline
210
0.0
220
0.0
230
1.0
 70
     9
 71
     3
 72
    17
 73
    13
 74
     0
 42
0.0000000001
 43
0.0000000001
 40
0.0
 40
0.0
 40
0.0
 40
0.0
 40
1.0
 40
1.0
 40
1.0
 40
2.0
 40
2.0
 40
2.0
 40
3.0
 40
3.0
 40
3.0
 40
4.0
 40
4.0
 40
4.0
 40
4.0
 10
140.1625119505184
 20
-155.2625806492399
 30
0.0
 10
140.1625119505184
 20
-155.4987300936255
 30
0.0
 10
139.8317827922894
 20
-155.6902884269108
 30
0.0
 10
139.4259472470875
 20
-155.6902884269108
 30
0.0
 10
139.0180655908268
 20
-155.6902884269108
 30
0.0
 10
138.688716497203
 20
-155.4987300936255
 30
0.0
 10
138.688716497203
 20
-155.2625806492399
 30
0.0
 10
138.688716497203
 20
-155.0265723159656
 30
0.0
 10
139.0180655908268
 20
-154.8352256493466
 30
0.0
 10
139.4259472470875
 20
-154.8352256493466
 30
0.0
 10
139.8317827922894
 20
-154.8352256493466
 30
0.0
 10
140.1625119505184
 20
-155.0265723159656
 30
0.0
 10
140.1625119505184
 20
-155.2625806492399
 30
0.0
  0
SPLINE
  5
A0
330
79
100
AcDbEntity
  8
レイヤー 1
 62
   250
420
  2299925
370
     9
100
AcDbSpline
210
0.0
220
0.0
230
1.0
 70
     8
 71
     3
 72
    11
 73
     7
 74
     0
 42
0.0000000001
 43
0.0000000001
 40
0.0
 40
0.0
 40
0.0
 40
0.0
 40
1.0
 40
1.0
 40
1.0
 40
2.0
 40
2.0
 40
2.0
 40
2.0
 10
138.8161708737553
 20
-155.4975306491809
 30
0.0
 10
138.8161708737553
 20
-155.4975306491809
 30
0.0
 10
138.7948278187443
 20
-154.9843800937539
 30
0.0
 10
139.6285475196965
 20
-155.0278070381871
 30
0.0
 10
139.6285475196965
 20
-155.0278070381871
 30
0.0
 10
140.1197905627194
 20
-155.0911659270606
 30
0.0
 10
140.0343477871215
 20
-155.4763287047421
 30
0.0
  0
SPLINE
  5
A1
330
79
100
AcDbEntity
  8
レイヤー 1
 62
   250
420
  2299925
370
     9
100
AcDbSpline
210
0.0
220
0.0
230
1.0
 70
     9
 71
     3
 72
    17
 73
    13
 74
     0
 42
0.0000000001
 43
0.0000000001
 40
0.0
 40
0.0
 40
0.0
 40
0.0
 40
1.0
 40
1.0
 40
1.0
 40
2.0
 40
2.0
 40
2.0
 40
3.0
 40
3.0
 40
3.0
 40
4.0
 40
4.0
 40
4.0
 40
4.0
 10
140.1625119505184
 20
-152.7182062054314
 30
0.0
 10
140.1625119505184
 20
-152.9545320387065
 30
0.0
 10
139.8317827922894
 20
-153.1457375942135
 30
0.0
 10
139.4259472470875
 20
-153.1457375942135
 30
0.0
 10
139.0180655908268
 20
-153.1457375942135
 30
0.0
 10
138.688716497203
 20
-152.9545320387065
 30
0.0
 10
138.688716497203
 20
-152.7182062054314
 30
0.0
 10
138.688716497203
 20
-152.4820214832682
 30
0.0
 10
139.0180655908268
 20
-152.2909923166495
 30
0.0
 10
139.4259472470875
 20
-152.2909923166495
 30
0.0
 10
139.8317827922894
 20
-152.2909923166495
 30
0.0
 10
140.1625119505184
 20
-152.4820214832682
 30
0.0
 10
140.1625119505184
 20
-152.7182062054314
 30
0.0
  0
SPLINE
  5
A2
330
79
100
AcDbEntity
  8
レイヤー 1
 62
   250
420
  2299925
370
     9
100
AcDbSpline
210
0.0
220
0.0
230
1.0
 70
     8
 71
     3
 72
    11
 73
     7
 74
     0
 42
0.0000000001
 43
0.0000000001
 40
0.0
 40
0.0
 40
0.0
 40
0.0
 40
1.0
 40
1.0
 40
1.0
 40
2.0
 40
2.0
 40
2.0
 40
2.0
 10
138.8161708737553
 20
-152.9531562053724
 30
0.0
 10
138.8161708737553
 20
-152.9531562053724
 30
0.0
 10
138.7948278187443
 20
-152.4398292610565
 30
0.0
 10
139.6285475196965
 20
-152.4832562054904
 30
0.0
 10
139.6285475196965
 20
-152.4832562054904
 30
0.0
 10
140.1197905627194
 20
-152.5471442610299
 30
0.0
 10
140.0343477871215
 20
-152.9319542609337
 30
0.0
  0
SPLINE
  5
A3
330
79
100
AcDbEntity
  8
レイヤー 1
 62
   250
420
  2299925
370
     9
100
AcDbSpline
210
0.0
220
0.0
230
1.0
 70
     9
 71
     3
 72
    17
 73
    13
 74
     0
 42
0.0000000001
 43
0.0000000001
 40
0.0
 40
0.0
 40
0.0
 40
0.0
 40
1.0
 40
1.0
 40
1.0
 40
2.0
 40
2.0
 40
2.0
 40
3.0
 40
3.0
 40
3.0
 40
4.0
 40
4.0
 40
4.0
 40
4.0
 10
142.3846238382721
 20
-153.1088723164457
 30
0.0
 10
142.3846238382721
 20
-153.3448453719412
 30
0.0
 10
142.053894680043
 20
-153.5358745385605
 30
0.0
 10
141.6473535793036
 20
-153.5358745385605
 30
0.0
 10
141.2401422008036
 20
-153.5358745385605
 30
0.0
 10
140.910118598112
 20
-153.3448453719412
 30
0.0
 10
140.910118598112
 20
-153.1088723164457
 30
0.0
 10
140.910118598112
 20
-152.8721937053934
 30
0.0
 10
141.2401422008036
 20
-152.6809881498853
 30
0.0
 10
141.6473535793036
 20
-152.6809881498853
 30
0.0
 10
142.053894680043
 20
-152.6809881498853
 30
0.0
 10
142.3846238382721
 20
-152.8721937053934
 30
0.0
 10
142.3846238382721
 20
-153.1088723164457
 30
0.0
  0
SPLINE
  5
A4
330
79
100
AcDbEntity
  8
レイヤー 1
 62
   250
420
  2299925
370
     9
100
AcDbSpline
210
0.0
220
0.0
230
1.0
 70
     8
 71
     3
 72
    11
 73
     7
 74
     0
 42
0.0000000001
 43
0.0000000001
 40
0.0
 40
0.0
 40
0.0
 40
0.0
 40
1.0
 40
1.0
 40
1.0
 40
2.0
 40
2.0
 40
2.0
 40
2.0
 10
141.0382474837321
 20
-153.3434695386083
 30
0.0
 10
141.0382474837321
 20
-153.3434695386083
 30
0.0
 10
141.016904428721
 20
-152.8303189831814
 30
0.0
 10
141.8506241296733
 20
-152.8733931498368
 30
0.0
 10
141.8506241296733
 20
-152.8733931498368
 30
0.0
 10
142.3419024504731
 20
-152.9373164831545
 30
0.0
 10
142.2564596748751
 20
-153.322479260836
 30
0.0
  0
SPLINE
  5
A5
330
79
100
AcDbEntity
  8
レイヤー 1
 62
   250
420
  2299925
370
     9
100
AcDbSpline
210
0.0
220
0.0
230
1.0
 70
     9
 71
     3
 72
    17
 73
    13
 74
     0
 42
0.0000000001
 43
0.0000000001
 40
0.0
 40
0.0
 40
0.0
 40
0.0
 40
1.0
 40
1.0
 40
1.0
 40
2.0
 40
2.0
 40
2.0
 40
3.0
 40
3.0
 40
3.0
 40
4.0
 40
4.0
 40
4.0
 40
4.0
 10
142.3846238382721
 20
-154.4317889827817
 30
0.0
 10
142.3846238382721
 20
-154.6677620382771
 30
0.0
 10
142.053894680043
 20
-154.8591439826736
 30
0.0
 10
141.6473535793036
 20
-154.8591439826736
 30
0.0
 10
141.2401422008036
 20
-154.8591439826736
 30
0.0
 10
140.910118598112
 20
-154.6677620382771
 30
0.0
 10
140.910118598112
 20
-154.4317889827817
 30
0.0
 10
140.910118598112
 20
-154.1954631495065
 30
0.0
 10
141.2401422008036
 20
-154.0040812051101
 30
0.0
 10
141.6473535793036
 20
-154.0040812051101
 30
0.0
 10
142.053894680043
 20
-154.0040812051101
 30
0.0
 10
142.3846238382721
 20
-154.1954631495065
 30
0.0
 10
142.3846238382721
 20
-154.4317889827817
 30
0.0
  0
SPLINE
  5
A6
330
79
100
AcDbEntity
  8
レイヤー 1
 62
   250
420
  2299925
370
     9
100
AcDbSpline
210
0.0
220
0.0
230
1.0
 70
     8
 71
     3
 72
    11
 73
     7
 74
     0
 42
0.0000000001
 43
0.0000000001
 40
0.0
 40
0.0
 40
0.0
 40
0.0
 40
1.0
 40
1.0
 40
1.0
 40
2.0
 40
2.0
 40
2.0
 40
2.0
 10
141.0382474837321
 20
-154.6665625938332
 30
0.0
 10
141.0382474837321
 20
-154.6665625938332
 30
0.0
 10
141.016904428721
 20
-154.1530945384059
 30
0.0
 10
141.8506241296733
 20
-154.1966625939505
 30
0.0
 10
141.8506241296733
 20
-154.1966625939505
 30
0.0
 10
142.3419024504731
 20
-154.2602331494904
 30
0.0
 10
142.2564596748751
 20
-154.6455723160609
 30
0.0
  0
SPLINE
  5
A7
330
79
100
AcDbEntity
  8
レイヤー 1
 62
   250
420
  2299925
370
     9
100
AcDbSpline
210
0.0
220
0.0
230
1.0
 70
     9
 71
     3
 72
    17
 73
    13
 74
     0
 42
0.0000000001
 43
0.0000000001
 40
0.0
 40
0.0
 40
0.0
 40
0.0
 40
1.0
 40
1.0
 40
1.0
 40
2.0
 40
2.0
 40
2.0
 40
3.0
 40
3.0
 40
3.0
 40
4.0
 40
4.0
 40
4.0
 40
4.0
 10
142.3846238382721
 20
-151.8874145389726
 30
0.0
 10
142.3846238382721
 20
-152.123246483358
 30
0.0
 10
142.053894680043
 20
-152.314416761088
 30
0.0
 10
141.6473535793036
 20
-152.314416761088
 30
0.0
 10
141.2401422008036
 20
-152.314416761088
 30
0.0
 10
140.910118598112
 20
-152.123246483358
 30
0.0
 10
140.910118598112
 20
-151.8874145389726
 30
0.0
 10
140.910118598112
 20
-151.6514414834758
 30
0.0
 10
141.2401422008036
 20
-151.4597067613016
 30
0.0
 10
141.6473535793036
 20
-151.4597067613016
 30
0.0
 10
142.053894680043
 20
-151.4597067613016
 30
0.0
 10
142.3846238382721
 20
-151.6514414834758
 30
0.0
 10
142.3846238382721
 20
-151.8874145389726
 30
0.0
  0
SPLINE
  5
A8
330
79
100
AcDbEntity
  8
レイヤー 1
 62
   250
420
  2299925
370
     9
100
AcDbSpline
210
0.0
220
0.0
230
1.0
 70
     8
 71
     3
 72
    11
 73
     7
 74
     0
 42
0.0000000001
 43
0.0000000001
 40
0.0
 40
0.0
 40
0.0
 40
0.0
 40
1.0
 40
1.0
 40
1.0
 40
2.0
 40
2.0
 40
2.0
 40
2.0
 10
141.0382474837321
 20
-152.1221881500253
 30
0.0
 10
141.0382474837321
 20
-152.1221881500253
 30
0.0
 10
141.016904428721
 20
-151.6088612057089
 30
0.0
 10
141.8506241296733
 20
-151.6521117612538
 30
0.0
 10
141.8506241296733
 20
-151.6521117612538
 30
0.0
 10
142.3419024504731
 20
-151.7158587056819
 30
0.0
 10
142.2564596748751
 20
-152.1008450944746
 30
0.0
  0
SPLINE
  5
A9
330
79
100
AcDbEntity
  8
レイヤー 1
 62
   250
420
  2299925
370
     9
100
AcDbSpline
210
0.0
220
0.0
230
1.0
 70
     9
 71
     3
 72
    17
 73
    13
 74
     0
 42
0.0000000001
 43
0.0000000001
 40
0.0
 40
0.0
 40
0.0
 40
0.0
 40
1.0
 40
1.0
 40
1.0
 40
2.0
 40
2.0
 40
2.0
 40
3.0
 40
3.0
 40
3.0
 40
4.0
 40
4.0
 40
4.0
 40
4.0
 10
144.8437318310905
 20
-152.1755987055671
 30
0.0
 10
144.8437318310905
 20
-152.4117481499521
 30
0.0
 10
144.5136729506222
 20
-152.6031300943492
 30
0.0
 10
144.1071671276597
 20
-152.6031300943492
 30
0.0
 10
143.6999557491596
 20
-152.6031300943492
 30
0.0
 10
143.3692265909305
 20
-152.4117481499521
 30
0.0
 10
143.3692265909305
 20
-152.1755987055671
 30
0.0
 10
143.3692265909305
 20
-151.9395903722928
 30
0.0
 10
143.6999557491596
 20
-151.7478909278962
 30
0.0
 10
144.1071671276597
 20
-151.7478909278962
 30
0.0
 10
144.5136729506222
 20
-151.7478909278962
 30
0.0
 10
144.8437318310905
 20
-151.9395903722928
 30
0.0
 10
144.8437318310905
 20
-152.1755987055671
 30
0.0
  0
SPLINE
  5
AA
330
79
100
AcDbEntity
  8
レイヤー 1
 62
   250
420
  2299925
370
     9
100
AcDbSpline
210
0.0
220
0.0
230
1.0
 70
     8
 71
     3
 72
    11
 73
     7
 74
     0
 42
0.0000000001
 43
0.0000000001
 40
0.0
 40
0.0
 40
0.0
 40
0.0
 40
1.0
 40
1.0
 40
1.0
 40
2.0
 40
2.0
 40
2.0
 40
2.0
 10
143.4980610320882
 20
-152.4103723166192
 30
0.0
 10
143.4980610320882
 20
-152.4103723166192
 30
0.0
 10
143.4767179770771
 20
-151.8969042611921
 30
0.0
 10
144.3090265669542
 20
-151.940295927849
 30
0.0
 10
144.3090265669542
 20
-151.940295927849
 30
0.0
 10
144.8010104432916
 20
-152.0042192611654
 30
0.0
 10
144.7162379454543
 20
-152.3893467610694
 30
0.0
  0
SPLINE
  5
AB
330
79
100
AcDbEntity
  8
レイヤー 1
 62
   250
420
  2299925
370
     9
100
AcDbSpline
210
0.0
220
0.0
230
1.0
 70
     9
 71
     3
 72
    17
 73
    13
 74
     0
 42
0.0000000001
 43
0.0000000001
 40
0.0
 40
0.0
 40
0.0
 40
0.0
 40
1.0
 40
1.0
 40
1.0
 40
2.0
 40
2.0
 40
2.0
 40
3.0
 40
3.0
 40
3.0
 40
4.0
 40
4.0
 40
4.0
 40
4.0
 10
144.8437318310905
 20
-153.498515371903
 30
0.0
 10
144.8437318310905
 20
-153.7350175940658
 30
0.0
 10
144.5136729506222
 20
-153.9260467606851
 30
0.0
 10
144.1071671276597
 20
-153.9260467606851
 30
0.0
 10
143.6999557491596
 20
-153.9260467606851
 30
0.0
 10
143.3692265909305
 20
-153.7350175940658
 30
0.0
 10
143.3692265909305
 20
-153.498515371903
 30
0.0
 10
143.3692265909305
 20
-153.2625070386288
 30
0.0
 10
143.6999557491596
 20
-153.0713367608987
 30
0.0
 10
144.1071671276597
 20
-153.0713367608987
 30
0.0
 10
144.5136729506222
 20
-153.0713367608987
 30
0.0
 10
144.8437318310905
 20
-153.2625070386288
 30
0.0
 10
144.8437318310905
 20
-153.498515371903
 30
0.0
  0
SPLINE
  5
AC
330
79
100
AcDbEntity
  8
レイヤー 1
 62
   250
420
  2299925
370
     9
100
AcDbSpline
210
0.0
220
0.0
230
1.0
 70
     8
 71
     3
 72
    11
 73
     7
 74
     0
 42
0.0000000001
 43
0.0000000001
 40
0.0
 40
0.0
 40
0.0
 40
0.0
 40
1.0
 40
1.0
 40
1.0
 40
2.0
 40
2.0
 40
2.0
 40
2.0
 10
143.4980610320882
 20
-153.7336417607329
 30
0.0
 10
143.4980610320882
 20
-153.7336417607329
 30
0.0
 10
143.4767179770771
 20
-153.2201384275282
 30
0.0
 10
144.3090265669542
 20
-153.2635653719614
 30
0.0
 10
144.3090265669542
 20
-153.2635653719614
 30
0.0
 10
144.8010104432916
 20
-153.3276298163898
 30
0.0
 10
144.7162379454543
 20
-153.7124398162942
 30
0.0
  0
SPLINE
  5
AD
330
79
100
AcDbEntity
  8
レイヤー 1
 62
   250
420
  2299925
370
     9
100
AcDbSpline
210
0.0
220
0.0
230
1.0
 70
     9
 71
     3
 72
    17
 73
    13
 74
     0
 42
0.0000000001
 43
0.0000000001
 40
0.0
 40
0.0
 40
0.0
 40
0.0
 40
1.0
 40
1.0
 40
1.0
 40
2.0
 40
2.0
 40
2.0
 40
3.0
 40
3.0
 40
3.0
 40
4.0
 40
4.0
 40
4.0
 40
4.0
 10
144.8437318310905
 20
-150.9541409280946
 30
0.0
 10
144.8437318310905
 20
-151.1902903724802
 30
0.0
 10
144.5136729506222
 20
-151.3814959279878
 30
0.0
 10
144.1071671276597
 20
-151.3814959279878
 30
0.0
 10
143.6999557491596
 20
-151.3814959279878
 30
0.0
 10
143.3692265909305
 20
-151.1902903724802
 30
0.0
 10
143.3692265909305
 20
-150.9541409280946
 30
0.0
 10
143.3692265909305
 20
-150.7181325948203
 30
0.0
 10
143.6999557491596
 20
-150.5267859282014
 30
0.0
 10
144.1071671276597
 20
-150.5267859282014
 30
0.0
 10
144.5136729506222
 20
-150.5267859282014
 30
0.0
 10
144.8437318310905
 20
-150.7181325948203
 30
0.0
 10
144.8437318310905
 20
-150.9541409280946
 30
0.0
  0
SPLINE
  5
AE
330
79
100
AcDbEntity
  8
レイヤー 1
 62
   250
420
  2299925
370
     9
100
AcDbSpline
210
0.0
220
0.0
230
1.0
 70
     8
 71
     3
 72
    11
 73
     7
 74
     0
 42
0.0000000001
 43
0.0000000001
 40
0.0
 40
0.0
 40
0.0
 40
0.0
 40
1.0
 40
1.0
 40
1.0
 40
2.0
 40
2.0
 40
2.0
 40
2.0
 10
143.4980610320882
 20
-151.1892673169245
 30
0.0
 10
143.4980610320882
 20
-151.1892673169245
 30
0.0
 10
143.4767179770771
 20
-150.6761167614975
 30
0.0
 10
144.3090265669542
 20
-150.7191909281536
 30
0.0
 10
144.3090265669542
 20
-150.7191909281536
 30
0.0
 10
144.8010104432916
 20
-150.783255372582
 30
0.0
 10
144.7162379454543
 20
-151.1680653724858
 30
0.0
  0
SPLINE
  5
AF
330
79
100
AcDbEntity
  8
レイヤー 1
 62
   250
420
  2299925
370
     9
100
AcDbSpline
210
0.0
220
0.0
230
1.0
 70
     9
 71
     3
 72
    17
 73
    13
 74
     0
 42
0.0000000001
 43
0.0000000001
 40
0.0
 40
0.0
 40
0.0
 40
0.0
 40
1.0
 40
1.0
 40
1.0
 40
2.0
 40
2.0
 40
2.0
 40
3.0
 40
3.0
 40
3.0
 40
4.0
 40
4.0
 40
4.0
 40
4.0
 10
147.2187728816093
 20
-152.7182062054314
 30
0.0
 10
147.2187728816093
 20
-152.9545320387065
 30
0.0
 10
146.8880437233802
 20
-153.1457375942135
 30
0.0
 10
146.4815026226409
 20
-153.1457375942135
 30
0.0
 10
146.0742912441408
 20
-153.1457375942135
 30
0.0
 10
145.7442720509946
 20
-152.9545320387065
 30
0.0
 10
145.7442720509946
 20
-152.7182062054314
 30
0.0
 10
145.7442720509946
 20
-152.4820214832682
 30
0.0
 10
146.0742912441408
 20
-152.2909923166495
 30
0.0
 10
146.4815026226409
 20
-152.2909923166495
 30
0.0
 10
146.8880437233802
 20
-152.2909923166495
 30
0.0
 10
147.2187728816093
 20
-152.4820214832682
 30
0.0
 10
147.2187728816093
 20
-152.7182062054314
 30
0.0
  0
SPLINE
  5
B0
330
79
100
AcDbEntity
  8
レイヤー 1
 62
   250
420
  2299925
370
     9
100
AcDbSpline
210
0.0
220
0.0
230
1.0
 70
     8
 71
     3
 72
    11
 73
     7
 74
     0
 42
0.0000000001
 43
0.0000000001
 40
0.0
 40
0.0
 40
0.0
 40
0.0
 40
1.0
 40
1.0
 40
1.0
 40
2.0
 40
2.0
 40
2.0
 40
2.0
 10
145.8724318048462
 20
-152.9531562053724
 30
0.0
 10
145.8724318048462
 20
-152.9531562053724
 30
0.0
 10
145.8510534720583
 20
-152.4398292610565
 30
0.0
 10
146.6847776063154
 20
-152.4832562054904
 30
0.0
 10
146.6847776063154
 20
-152.4832562054904
 30
0.0
 10
147.1760514938104
 20
-152.5471442610299
 30
0.0
 10
147.0899031626748
 20
-152.9319542609337
 30
0.0
  0
SPLINE
  5
B1
330
79
100
AcDbEntity
  8
レイヤー 1
 62
   250
420
  2299925
370
     9
100
AcDbSpline
210
0.0
220
0.0
230
1.0
 70
     9
 71
     3
 72
    17
 73
    13
 74
     0
 42
0.0000000001
 43
0.0000000001
 40
0.0
 40
0.0
 40
0.0
 40
0.0
 40
1.0
 40
1.0
 40
1.0
 40
2.0
 40
2.0
 40
2.0
 40
3.0
 40
3.0
 40
3.0
 40
4.0
 40
4.0
 40
4.0
 40
4.0
 10
147.2187728816093
 20
-151.497242316848
 30
0.0
 10
147.2187728816093
 20
-151.7328978723445
 30
0.0
 10
146.8880437233802
 20
-151.9244562056298
 30
0.0
 10
146.4815026226409
 20
-151.9244562056298
 30
0.0
 10
146.0742912441408
 20
-151.9244562056298
 30
0.0
 10
145.7442720509946
 20
-151.7328978723445
 30
0.0
 10
145.7442720509946
 20
-151.497242316848
 30
0.0
 10
145.7442720509946
 20
-151.2610928724623
 30
0.0
 10
146.0742912441408
 20
-151.0693581502881
 30
0.0
 10
146.4815026226409
 20
-151.0693581502881
 30
0.0
 10
146.8880437233802
 20
-151.0693581502881
 30
0.0
 10
147.2187728816093
 20
-151.2610928724623
 30
0.0
 10
147.2187728816093
 20
-151.497242316848
 30
0.0
  0
SPLINE
  5
B2
330
79
100
AcDbEntity
  8
レイヤー 1
 62
   250
420
  2299925
370
     9
100
AcDbSpline
210
0.0
220
0.0
230
1.0
 70
     8
 71
     3
 72
    11
 73
     7
 74
     0
 42
0.0000000001
 43
0.0000000001
 40
0.0
 40
0.0
 40
0.0
 40
0.0
 40
1.0
 40
1.0
 40
1.0
 40
2.0
 40
2.0
 40
2.0
 40
2.0
 10
145.8724318048462
 20
-151.7318748167894
 30
0.0
 10
145.8724318048462
 20
-151.7318748167894
 30
0.0
 10
145.8510534720583
 20
-151.2185478724735
 30
0.0
 10
146.6847776063154
 20
-151.2619395391292
 30
0.0
 10
146.6847776063154
 20
-151.2619395391292
 30
0.0
 10
147.1760514938104
 20
-151.3256864835573
 30
0.0
 10
147.0899031626748
 20
-151.71067287235
 30
0.0
  0
ENDBLK
  5
7C
330
79
100
AcDbEntity
  8
0
100
AcDbBlockEnd
  0
BLOCK
  5
B5
330
B3
100
AcDbEntity
  8
0
100
AcDbBlockBegin
  2
Block_1
 70
     0
 10
0.0
 20
0.0
 30
0.0
  3
Block_1
  1

  0
LINE
  5
B7
330
B3
100
AcDbEntity
  8
レイヤー 1
  6
AI-Linetype-0
 62
   154
420
    23468
370
    25
100
AcDbLine
 10
67.49942852653068
 20
-148.0256267621603
 30
0.0
 11
77.49933771585618
 21
-148.0256267621603
 31
0.0
  0
LINE
  5
B9
330
B3
100
AcDbEntity
  8
レイヤー 1
  6
AI-Linetype-1
 62
   154
420
    23468
370
    25
100
AcDbLine
 10
105.001539791994
 20
-148.0256267621603
 30
0.0
 11
115.5015114685618
 21
-148.0256267621603
 31
0.0
  0
LINE
  5
BB
330
B3
100
AcDbEntity
  8
レイヤー 1
 62
    18
420
        0
370
    25
100
AcDbLine
 10
95.50098753437362
 20
-152.5028706499298
 30
0.0
 11
87.50079912736431
 21
-152.5028706499298
 31
0.0
  0
LINE
  5
BC
330
B3
100
AcDbEntity
  8
レイヤー 1
 62
    18
420
        0
370
    25
100
AcDbLine
 10
67.49942852653068
 20
-147.0024300957493
 30
0.0
 11
67.49942852653068
 21
-147.502668984513
 31
0.0
  0
LINE
  5
BD
330
B3
100
AcDbEntity
  8
レイヤー 1
 62
    18
420
        0
370
    25
100
AcDbLine
 10
87.50079912736431
 20
-147.502668984513
 30
0.0
 11
67.49942852653068
 21
-147.502668984513
 31
0.0
  0
LINE
  5
BE
330
B3
100
AcDbEntity
  8
レイヤー 1
 62
    18
420
        0
370
    25
100
AcDbLine
 10
67.49942852653068
 20
-147.0024300957493
 30
0.0
 11
68.01342573563974
 21
-147.3848412067648
 31
0.0
  0
LINE
  5
BF
330
B3
100
AcDbEntity
  8
レイヤー 1
 62
    18
420
        0
370
    25
100
AcDbLine
 10
68.01342573563974
 20
-147.3848412067648
 30
0.0
 11
68.49849516770904
 21
-146.9672934290916
 31
0.0
  0
LINE
  5
C0
330
B3
100
AcDbEntity
  8
レイヤー 1
 62
    18
420
        0
370
    25
100
AcDbLine
 10
69.01252765459497
 20
-147.3490342623294
 30
0.0
 11
69.49826736442462
 21
-146.9314864846559
 31
0.0
  0
LINE
  5
C1
330
B3
100
AcDbEntity
  8
レイヤー 1
 62
    18
420
        0
370
    25
100
AcDbLine
 10
68.49849516770904
 20
-146.9672934290916
 30
0.0
 11
69.01252765459497
 21
-147.3490342623294
 31
0.0
  0
LINE
  5
C2
330
B3
100
AcDbEntity
  8
レイヤー 1
 62
    18
420
        0
370
    25
100
AcDbLine
 10
69.49826736442462
 20
-146.9314864846559
 30
0.0
 11
70.01229985131089
 21
-147.3131920401161
 31
0.0
  0
LINE
  5
C3
330
B3
100
AcDbEntity
  8
レイヤー 1
 62
    18
420
        0
370
    25
100
AcDbLine
 10
70.01229985131089
 20
-147.3131920401161
 30
0.0
 11
70.49736928338018
 21
-146.8956442624426
 31
0.0
  0
LINE
  5
C4
330
B3
100
AcDbEntity
  8
レイヤー 1
 62
    18
420
        0
370
    25
100
AcDbLine
 10
70.49736928338018
 20
-146.8956442624426
 30
0.0
 11
71.01136649248923
 21
-147.2773498179028
 31
0.0
  0
LINE
  5
C5
330
B3
100
AcDbEntity
  8
レイヤー 1
 62
    18
420
        0
370
    25
100
AcDbLine
 10
71.01136649248923
 20
-147.2773498179028
 30
0.0
 11
71.4971062023192
 21
-146.8598020402294
 31
0.0
  0
LINE
  5
C6
330
B3
100
AcDbEntity
  8
レイヤー 1
 62
    18
420
        0
370
    25
100
AcDbLine
 10
71.4971062023192
 20
-146.8598020402294
 30
0.0
 11
72.01113868920514
 21
-147.2415428734674
 31
0.0
  0
LINE
  5
C7
330
B3
100
AcDbEntity
  8
レイヤー 1
 62
    18
420
        0
370
    25
100
AcDbLine
 10
72.01113868920514
 20
-147.2415428734674
 30
0.0
 11
72.49620812127443
 21
-146.823995095794
 31
0.0
  0
LINE
  5
C8
330
B3
100
AcDbEntity
  8
レイヤー 1
 62
    18
420
        0
370
    25
100
AcDbLine
 10
72.49620812127443
 20
-146.823995095794
 30
0.0
 11
73.01020533038382
 21
-147.2064062068094
 31
0.0
  0
LINE
  5
C9
330
B3
100
AcDbEntity
  8
レイヤー 1
 62
    18
420
        0
370
    25
100
AcDbLine
 10
73.01020533038382
 20
-147.2064062068094
 30
0.0
 11
73.49598031799067
 21
-146.7888584291359
 31
0.0
  0
LINE
  5
CA
330
B3
100
AcDbEntity
  8
レイヤー 1
 62
    18
420
        0
370
    25
100
AcDbLine
 10
73.49598031799067
 20
-146.7888584291359
 30
0.0
 11
74.00927197156185
 21
-147.1705639845965
 31
0.0
  0
LINE
  5
CB
330
B3
100
AcDbEntity
  8
レイヤー 1
 62
    18
420
        0
370
    25
100
AcDbLine
 10
74.00927197156185
 20
-147.1705639845965
 30
0.0
 11
74.4950469591687
 21
-146.7530162069227
 31
0.0
  0
LINE
  5
CC
330
B3
100
AcDbEntity
  8
レイヤー 1
 62
    18
420
        0
370
    25
100
AcDbLine
 10
75.00904416827776
 20
-147.1347217623829
 30
0.0
 11
75.49411360034705
 21
-146.7171739847094
 31
0.0
  0
LINE
  5
CD
330
B3
100
AcDbEntity
  8
レイヤー 1
 62
    18
420
        0
370
    25
100
AcDbLine
 10
74.4950469591687
 20
-146.7530162069227
 30
0.0
 11
75.00904416827776
 21
-147.1347217623829
 31
0.0
  0
LINE
  5
CE
330
B3
100
AcDbEntity
  8
レイヤー 1
 62
    18
420
        0
370
    25
100
AcDbLine
 10
75.49411360034705
 20
-146.7171739847094
 30
0.0
 11
76.00811080945611
 21
-147.0989148179475
 31
0.0
  0
LINE
  5
CF
330
B3
100
AcDbEntity
  8
レイヤー 1
 62
    18
420
        0
370
    25
100
AcDbLine
 10
76.00811080945611
 20
-147.0989148179475
 30
0.0
 11
76.49388579706296
 21
-146.6813670402737
 31
0.0
  0
LINE
  5
D0
330
B3
100
AcDbEntity
  8
レイヤー 1
 62
    18
420
        0
370
    25
100
AcDbLine
 10
77.00770661728764
 20
-147.0630725957343
 30
0.0
 11
77.49277604935691
 21
-146.6455248180611
 31
0.0
  0
LINE
  5
D1
330
B3
100
AcDbEntity
  8
レイヤー 1
 62
    18
420
        0
370
    25
100
AcDbLine
 10
76.49388579706296
 20
-146.6813670402737
 30
0.0
 11
77.00770661728764
 21
-147.0630725957343
 31
0.0
  0
LINE
  5
D2
330
B3
100
AcDbEntity
  8
レイヤー 1
 62
    18
420
        0
370
    25
100
AcDbLine
 10
78.00680853624285
 20
-147.0279359290762
 30
0.0
 11
78.49254824607251
 21
-146.610388151403
 31
0.0
  0
LINE
  5
D3
330
B3
100
AcDbEntity
  8
レイヤー 1
 62
    18
420
        0
370
    25
100
AcDbLine
 10
77.49277604935691
 20
-146.6455248180611
 30
0.0
 11
78.00680853624285
 21
-147.0279359290762
 31
0.0
  0
LINE
  5
D4
330
B3
100
AcDbEntity
  8
レイヤー 1
 62
    18
420
        0
370
    25
100
AcDbLine
 10
78.49254824607251
 20
-146.610388151403
 30
0.0
 11
79.00658073295876
 21
-146.992093706863
 31
0.0
  0
LINE
  5
D5
330
B3
100
AcDbEntity
  8
レイヤー 1
 62
    18
420
        0
370
    25
100
AcDbLine
 10
79.00658073295876
 20
-146.992093706863
 30
0.0
 11
79.49165016502806
 21
-146.5745459291895
 31
0.0
  0
LINE
  5
D6
330
B3
100
AcDbEntity
  8
レイヤー 1
 62
    18
420
        0
370
    25
100
AcDbLine
 10
79.49165016502806
 20
-146.5745459291895
 30
0.0
 11
80.00564737413712
 21
-146.9562867624276
 31
0.0
  0
LINE
  5
D7
330
B3
100
AcDbEntity
  8
レイヤー 1
 62
    18
420
        0
370
    25
100
AcDbLine
 10
80.00564737413712
 20
-146.9562867624276
 30
0.0
 11
80.49071680620642
 21
-146.538738984754
 31
0.0
  0
LINE
  5
D8
330
B3
100
AcDbEntity
  8
レイヤー 1
 62
    18
420
        0
370
    25
100
AcDbLine
 10
80.49071680620642
 20
-146.538738984754
 30
0.0
 11
81.00471401531548
 21
-146.9204445402143
 31
0.0
  0
LINE
  5
D9
330
B3
100
AcDbEntity
  8
レイヤー 1
 62
    18
420
        0
370
    25
100
AcDbLine
 10
81.00471401531548
 20
-146.9204445402143
 30
0.0
 11
81.49048900292234
 21
-146.5028967625408
 31
0.0
  0
LINE
  5
DA
330
B3
100
AcDbEntity
  8
レイヤー 1
 62
    18
420
        0
370
    25
100
AcDbLine
 10
81.49048900292234
 20
-146.5028967625408
 30
0.0
 11
82.00448621203106
 21
-146.884602318001
 31
0.0
  0
LINE
  5
DB
330
B3
100
AcDbEntity
  8
レイヤー 1
 62
    18
420
        0
370
    25
100
AcDbLine
 10
82.00448621203106
 20
-146.884602318001
 30
0.0
 11
82.48955564410067
 21
-146.4670898181054
 31
0.0
  0
LINE
  5
DC
330
B3
100
AcDbEntity
  8
レイヤー 1
 62
    18
420
        0
370
    25
100
AcDbLine
 10
82.48955564410067
 20
-146.4670898181054
 30
0.0
 11
83.00355285320973
 21
-146.849465651343
 31
0.0
  0
LINE
  5
DD
330
B3
100
AcDbEntity
  8
レイヤー 1
 62
    18
420
        0
370
    25
100
AcDbLine
 10
83.00355285320973
 20
-146.849465651343
 30
0.0
 11
83.48932784081659
 21
-146.4319178736698
 31
0.0
  0
LINE
  5
DE
330
B3
100
AcDbEntity
  8
レイヤー 1
 62
    18
420
        0
370
    25
100
AcDbLine
 10
83.48932784081659
 20
-146.4319178736698
 30
0.0
 11
84.00332504992565
 21
-146.8136587069073
 31
0.0
  0
LINE
  5
DF
330
B3
100
AcDbEntity
  8
レイヤー 1
 62
    18
420
        0
370
    25
100
AcDbLine
 10
84.00332504992565
 20
-146.8136587069073
 30
0.0
 11
84.48839448199494
 21
-146.3961109292341
 31
0.0
  0
LINE
  5
E0
330
B3
100
AcDbEntity
  8
レイヤー 1
 62
    18
420
        0
370
    25
100
AcDbLine
 10
84.48839448199494
 20
-146.3961109292341
 30
0.0
 11
85.00242696888088
 21
-146.7778164846946
 31
0.0
  0
LINE
  5
E1
330
B3
100
AcDbEntity
  8
レイヤー 1
 62
    18
420
        0
370
    25
100
AcDbLine
 10
85.00242696888088
 20
-146.7778164846946
 30
0.0
 11
85.48816667871085
 21
-146.3602687070209
 31
0.0
  0
LINE
  5
E2
330
B3
100
AcDbEntity
  8
レイヤー 1
 62
    18
420
        0
370
    25
100
AcDbLine
 10
85.48816667871085
 20
-146.3602687070209
 30
0.0
 11
86.00216388781992
 21
-146.7419742624814
 31
0.0
  0
LINE
  5
E3
330
B3
100
AcDbEntity
  8
レイヤー 1
 62
    18
420
        0
370
    25
100
AcDbLine
 10
86.00216388781992
 20
-146.7419742624814
 30
0.0
 11
86.4872333198892
 21
-146.3244617625854
 31
0.0
  0
LINE
  5
E4
330
B3
100
AcDbEntity
  8
レイヤー 1
 62
    18
420
        0
370
    25
100
AcDbLine
 10
86.4872333198892
 20
-146.3244617625854
 30
0.0
 11
87.00126580677514
 21
-146.7061673180457
 31
0.0
  0
LINE
  5
E5
330
B3
100
AcDbEntity
  8
レイヤー 1
 62
    18
420
        0
370
    25
100
AcDbLine
 10
87.00126580677514
 20
-146.7061673180457
 30
0.0
 11
87.4870055166051
 21
-146.2886195403725
 31
0.0
  0
LINE
  5
E6
330
B3
100
AcDbEntity
  8
レイヤー 1
 62
    18
420
        0
370
    25
100
AcDbLine
 10
87.55286541084551
 20
-146.2403948181617
 30
0.0
 11
88.50057132408023
 21
-146.2403948181617
 31
0.0
  0
LINE
  5
E7
330
B3
100
AcDbEntity
  8
レイヤー 1
 62
    18
420
        0
370
    25
100
AcDbLine
 10
88.50057132408023
 20
-146.2403948181617
 30
0.0
 11
88.50057132408023
 21
-151.5024281501799
 31
0.0
  0
LINE
  5
E8
330
B3
100
AcDbEntity
  8
レイヤー 1
 62
    18
420
        0
370
    25
100
AcDbLine
 10
87.50079912736431
 20
-147.502668984513
 30
0.0
 11
87.50079912736431
 21
-152.5028706499298
 31
0.0
  0
LINE
  5
E9
330
B3
100
AcDbEntity
  8
レイヤー 1
 62
    18
420
        0
370
    25
100
AcDbLine
 10
94.50054505989703
 20
-151.5024281501799
 30
0.0
 11
88.50057132408023
 21
-151.5024281501799
 31
0.0
  0
LINE
  5
EA
330
B3
100
AcDbEntity
  8
レイヤー 1
 62
    18
420
        0
370
    25
100
AcDbLine
 10
105.5083050568431
 20
-146.6455248180611
 30
0.0
 11
104.9943078477344
 21
-147.0279359290762
 31
0.0
  0
LINE
  5
EB
330
B3
100
AcDbEntity
  8
レイヤー 1
 62
    18
420
        0
370
    25
100
AcDbLine
 10
110.5050846515869
 20
-146.823995095794
 30
0.0
 11
109.9910521647009
 21
-147.2064062068094
 31
0.0
  0
LINE
  5
EC
330
B3
100
AcDbEntity
  8
レイヤー 1
 62
    18
420
        0
370
    25
100
AcDbLine
 10
105.9933744889124
 20
-147.0630725957343
 30
0.0
 11
105.5083050568431
 21
-146.6455248180611
 31
0.0
  0
LINE
  5
ED
330
B3
100
AcDbEntity
  8
レイヤー 1
 62
    18
420
        0
370
    25
100
AcDbLine
 10
106.9931466856283
 20
-147.0989148179475
 30
0.0
 11
106.5073716980215
 21
-146.6813670402737
 31
0.0
  0
LINE
  5
EE
330
B3
100
AcDbEntity
  8
レイヤー 1
 62
    18
420
        0
370
    25
100
AcDbLine
 10
104.9943078477344
 20
-147.0279359290762
 30
0.0
 11
104.5092384156651
 21
-146.610388151403
 31
0.0
  0
LINE
  5
EF
330
B3
100
AcDbEntity
  8
レイヤー 1
 62
    18
420
        0
370
    25
100
AcDbLine
 10
106.5073716980215
 20
-146.6813670402737
 30
0.0
 11
105.9933744889124
 21
-147.0630725957343
 31
0.0
  0
LINE
  5
F0
330
B3
100
AcDbEntity
  8
レイヤー 1
 62
    18
420
        0
370
    25
100
AcDbLine
 10
114.5027623273754
 20
-146.9672934290916
 30
0.0
 11
113.9887651182663
 21
-147.3490342623294
 31
0.0
  0
LINE
  5
F1
330
B3
100
AcDbEntity
  8
レイヤー 1
 62
    18
420
        0
370
    25
100
AcDbLine
 10
107.5071438947374
 20
-146.7171739847094
 30
0.0
 11
106.9931466856283
 21
-147.0989148179475
 31
0.0
  0
LINE
  5
F2
330
B3
100
AcDbEntity
  8
レイヤー 1
 62
    18
420
        0
370
    25
100
AcDbLine
 10
108.5062458136926
 20
-146.7530162069227
 30
0.0
 11
107.9922133268067
 21
-147.1347217623829
 31
0.0
  0
LINE
  5
F3
330
B3
100
AcDbEntity
  8
レイヤー 1
 62
    18
420
        0
370
    25
100
AcDbLine
 10
94.50054505989703
 20
-146.2403948181617
 30
0.0
 11
94.50054505989703
 21
-151.5024281501799
 31
0.0
  0
LINE
  5
F4
330
B3
100
AcDbEntity
  8
レイヤー 1
 62
    18
420
        0
370
    25
100
AcDbLine
 10
107.9922133268067
 20
-147.1347217623829
 30
0.0
 11
107.5071438947374
 21
-146.7171739847094
 31
0.0
  0
LINE
  5
F5
330
B3
100
AcDbEntity
  8
レイヤー 1
 62
    18
420
        0
370
    25
100
AcDbLine
 10
108.9919855235226
 20
-147.1705639845965
 30
0.0
 11
108.5062458136926
 21
-146.7530162069227
 31
0.0
  0
LINE
  5
F6
330
B3
100
AcDbEntity
  8
レイヤー 1
 62
    18
420
        0
370
    25
100
AcDbLine
 10
113.9887651182663
 20
-147.3490342623294
 30
0.0
 11
113.5029901306595
 21
-146.9314864846559
 31
0.0
  0
LINE
  5
F7
330
B3
100
AcDbEntity
  8
レイヤー 1
 62
    18
420
        0
370
    25
100
AcDbLine
 10
109.5059827326316
 20
-146.7888584291359
 30
0.0
 11
108.9919855235226
 21
-147.1705639845965
 31
0.0
  0
LINE
  5
F8
330
B3
100
AcDbEntity
  8
レイヤー 1
 62
    18
420
        0
370
    25
100
AcDbLine
 10
109.9910521647009
 20
-147.2064062068094
 30
0.0
 11
109.5059827326316
 21
-146.7888584291359
 31
0.0
  0
LINE
  5
F9
330
B3
100
AcDbEntity
  8
レイヤー 1
 62
    18
420
        0
370
    25
100
AcDbLine
 10
114.9878317594447
 20
-147.3848412067648
 30
0.0
 11
114.5027623273754
 21
-146.9672934290916
 31
0.0
  0
LINE
  5
FA
330
B3
100
AcDbEntity
  8
レイヤー 1
 62
    18
420
        0
370
    25
100
AcDbLine
 10
111.5041512927652
 20
-146.8598020402294
 30
0.0
 11
110.9908243614168
 21
-147.2415428734674
 31
0.0
  0
LINE
  5
FB
330
B3
100
AcDbEntity
  8
レイヤー 1
 62
    18
420
        0
370
    25
100
AcDbLine
 10
112.5039234894811
 20
-146.8956442624426
 30
0.0
 11
111.9899262803721
 21
-147.2773498179028
 31
0.0
  0
LINE
  5
FC
330
B3
100
AcDbEntity
  8
レイヤー 1
 62
    18
420
        0
370
    25
100
AcDbLine
 10
111.9899262803721
 20
-147.2773498179028
 30
0.0
 11
111.5041512927652
 21
-146.8598020402294
 31
0.0
  0
LINE
  5
FD
330
B3
100
AcDbEntity
  8
レイヤー 1
 62
    18
420
        0
370
    25
100
AcDbLine
 10
115.5018289685537
 20
-147.0024300957493
 30
0.0
 11
114.9878317594447
 21
-147.3848412067648
 31
0.0
  0
LINE
  5
FE
330
B3
100
AcDbEntity
  8
レイヤー 1
 62
    18
420
        0
370
    25
100
AcDbLine
 10
110.9908243614168
 20
-147.2415428734674
 30
0.0
 11
110.5050846515869
 21
-146.823995095794
 31
0.0
  0
LINE
  5
FF
330
B3
100
AcDbEntity
  8
レイヤー 1
 62
    18
420
        0
370
    25
100
AcDbLine
 10
113.5029901306595
 20
-146.9314864846559
 30
0.0
 11
112.9889929215504
 21
-147.3131920401161
 31
0.0
  0
LINE
  5
100
330
B3
100
AcDbEntity
  8
レイヤー 1
 62
    18
420
        0
370
    25
100
AcDbLine
 10
112.9889929215504
 20
-147.3131920401161
 30
0.0
 11
112.5039234894811
 21
-146.8956442624426
 31
0.0
  0
LINE
  5
101
330
B3
100
AcDbEntity
  8
レイヤー 1
 62
    18
420
        0
370
    25
100
AcDbLine
 10
115.5018289685537
 20
-147.0024300957493
 30
0.0
 11
115.5018289685537
 21
-147.502668984513
 31
0.0
  0
LINE
  5
102
330
B3
100
AcDbEntity
  8
レイヤー 1
 62
    18
420
        0
370
    25
100
AcDbLine
 10
95.50098753437362
 20
-147.502668984513
 30
0.0
 11
115.5018289685537
 21
-147.502668984513
 31
0.0
  0
LINE
  5
103
330
B3
100
AcDbEntity
  8
レイヤー 1
 62
    18
420
        0
370
    25
100
AcDbLine
 10
104.5092384156651
 20
-146.610388151403
 30
0.0
 11
103.9952059287791
 21
-146.992093706863
 31
0.0
  0
LINE
  5
104
330
B3
100
AcDbEntity
  8
レイヤー 1
 62
    18
420
        0
370
    25
100
AcDbLine
 10
103.9952059287791
 20
-146.992093706863
 30
0.0
 11
103.5094662189492
 21
-146.5745459291895
 31
0.0
  0
LINE
  5
105
330
B3
100
AcDbEntity
  8
レイヤー 1
 62
    18
420
        0
370
    25
100
AcDbLine
 10
103.5094662189492
 20
-146.5745459291895
 30
0.0
 11
102.9954690098404
 21
-146.9562867624276
 31
0.0
  0
LINE
  5
106
330
B3
100
AcDbEntity
  8
レイヤー 1
 62
    18
420
        0
370
    25
100
AcDbLine
 10
102.9954690098404
 20
-146.9562867624276
 30
0.0
 11
102.5103995777708
 21
-146.538738984754
 31
0.0
  0
LINE
  5
107
330
B3
100
AcDbEntity
  8
レイヤー 1
 62
    18
420
        0
370
    25
100
AcDbLine
 10
102.5103995777708
 20
-146.538738984754
 30
0.0
 11
101.9963670908849
 21
-146.9204445402143
 31
0.0
  0
LINE
  5
108
330
B3
100
AcDbEntity
  8
レイヤー 1
 62
    18
420
        0
370
    25
100
AcDbLine
 10
101.9963670908849
 20
-146.9204445402143
 30
0.0
 11
101.5106273810549
 21
-146.5028967625408
 31
0.0
  0
LINE
  5
109
330
B3
100
AcDbEntity
  8
レイヤー 1
 62
    18
420
        0
370
    25
100
AcDbLine
 10
101.5106273810549
 20
-146.5028967625408
 30
0.0
 11
100.996594894169
 21
-146.884602318001
 31
0.0
  0
LINE
  5
10A
330
B3
100
AcDbEntity
  8
レイヤー 1
 62
    18
420
        0
370
    25
100
AcDbLine
 10
100.996594894169
 20
-146.884602318001
 30
0.0
 11
100.5115254620997
 21
-146.4670898181054
 31
0.0
  0
LINE
  5
10B
330
B3
100
AcDbEntity
  8
レイヤー 1
 62
    18
420
        0
370
    25
100
AcDbLine
 10
100.5115254620997
 20
-146.4670898181054
 30
0.0
 11
99.99752825299065
 21
-146.849465651343
 31
0.0
  0
LINE
  5
10C
330
B3
100
AcDbEntity
  8
レイヤー 1
 62
    18
420
        0
370
    25
100
AcDbLine
 10
99.99752825299065
 20
-146.849465651343
 30
0.0
 11
99.51245882092136
 21
-146.4319178736698
 31
0.0
  0
LINE
  5
10D
330
B3
100
AcDbEntity
  8
レイヤー 1
 62
    18
420
        0
370
    25
100
AcDbLine
 10
99.51245882092136
 20
-146.4319178736698
 30
0.0
 11
98.9984616118123
 21
-146.8136587069073
 31
0.0
  0
LINE
  5
10E
330
B3
100
AcDbEntity
  8
レイヤー 1
 62
    18
420
        0
370
    25
100
AcDbLine
 10
98.9984616118123
 20
-146.8136587069073
 30
0.0
 11
98.51268662420544
 21
-146.3961109292341
 31
0.0
  0
LINE
  5
10F
330
B3
100
AcDbEntity
  8
レイヤー 1
 62
    18
420
        0
370
    25
100
AcDbLine
 10
98.51268662420544
 20
-146.3961109292341
 30
0.0
 11
97.99868941509638
 21
-146.7778164846946
 31
0.0
  0
LINE
  5
110
330
B3
100
AcDbEntity
  8
レイヤー 1
 62
    18
420
        0
370
    25
100
AcDbLine
 10
97.99868941509638
 20
-146.7778164846946
 30
0.0
 11
97.51361998302709
 21
-146.3602687070209
 31
0.0
  0
LINE
  5
111
330
B3
100
AcDbEntity
  8
レイヤー 1
 62
    18
420
        0
370
    25
100
AcDbLine
 10
97.51361998302709
 20
-146.3602687070209
 30
0.0
 11
96.99962277391804
 21
-146.7419742624814
 31
0.0
  0
LINE
  5
112
330
B3
100
AcDbEntity
  8
レイヤー 1
 62
    18
420
        0
370
    25
100
AcDbLine
 10
96.99962277391804
 20
-146.7419742624814
 30
0.0
 11
96.51384778631118
 21
-146.3244617625854
 31
0.0
  0
LINE
  5
113
330
B3
100
AcDbEntity
  8
レイヤー 1
 62
    18
420
        0
370
    25
100
AcDbLine
 10
96.51384778631118
 20
-146.3244617625854
 30
0.0
 11
95.99985057720212
 21
-146.7061673180457
 31
0.0
  0
LINE
  5
114
330
B3
100
AcDbEntity
  8
レイヤー 1
 62
    18
420
        0
370
    25
100
AcDbLine
 10
95.99985057720212
 20
-146.7061673180457
 30
0.0
 11
95.51478114513283
 21
-146.2886195403725
 31
0.0
  0
LINE
  5
115
330
B3
100
AcDbEntity
  8
レイヤー 1
 62
    18
420
        0
370
    25
100
AcDbLine
 10
95.45531879427128
 20
-146.2403948181617
 30
0.0
 11
94.50054505989703
 21
-146.2403948181617
 31
0.0
  0
LINE
  5
116
330
B3
100
AcDbEntity
  8
レイヤー 1
 62
    18
420
        0
370
    25
100
AcDbLine
 10
95.50098753437362
 20
-147.502668984513
 30
0.0
 11
95.50098753437362
 21
-152.5028706499298
 31
0.0
  0
CIRCLE
  5
117
330
B3
100
AcDbEntity
  8
レイヤー 1
 62
    18
420
        0
370
     9
100
AcDbCircle
 10
67.49942852653068
 20
-142.2406356524954
 30
0.0
 40
0.0999066653798568
  0
CIRCLE
  5
118
330
B3
100
AcDbEntity
  8
レイヤー 1
 62
    18
420
        0
370
     9
100
AcDbCircle
 10
63.49966946190637
 20
-147.0024300957493
 30
0.0
 40
0.0999066653797365
  0
CIRCLE
  5
119
330
B3
100
AcDbEntity
  8
レイヤー 1
 62
    18
420
        0
370
     9
100
AcDbCircle
 10
63.49966946190637
 20
-147.5026689845131
 30
0.0
 40
0.0999066653797766
  0
CIRCLE
  5
11A
330
B3
100
AcDbEntity
  8
レイヤー 1
 62
    18
420
        0
370
     9
100
AcDbCircle
 10
63.49966946190637
 20
-152.5028706499298
 30
0.0
 40
0.0999066653797365
  0
CIRCLE
  5
11B
330
B3
100
AcDbEntity
  8
レイヤー 1
 62
    18
420
        0
370
     9
100
AcDbCircle
 10
88.50057132408023
 20
-142.2406356524954
 30
0.0
 40
0.0999066653798568
  0
CIRCLE
  5
11C
330
B3
100
AcDbEntity
  8
レイヤー 1
 62
    18
420
        0
370
     9
100
AcDbCircle
 10
115.5018289685537
 20
-142.2406356524954
 30
0.0
 40
0.0999066653798568
  0
SPLINE
  5
11D
330
B3
100
AcDbEntity
  8
レイヤー 1
 62
    18
420
        0
370
     9
100
AcDbSpline
210
0.0
220
0.0
230
1.0
 70
     9
 71
     3
 72
    17
 73
    13
 74
     0
 42
0.0000000001
 43
0.0000000001
 40
0.0
 40
0.0
 40
0.0
 40
0.0
 40
1.0
 40
1.0
 40
1.0
 40
2.0
 40
2.0
 40
2.0
 40
3.0
 40
3.0
 40
3.0
 40
4.0
 40
4.0
 40
4.0
 40
4.0
 10
94.60045172401487
 20
-142.2406356524955
 30
0.0
 10
94.60045172401487
 20
-142.1854964858424
 30
0.0
 10
94.5556489473801
 20
-142.1407289858535
 30
0.0
 10
94.50054505989703
 20
-142.1407289858535
 30
0.0
 10
94.44540589463676
 20
-142.1407289858535
 30
0.0
 10
94.40064150827494
 20
-142.1854964858424
 30
0.0
 10
94.40064150827494
 20
-142.2406356524955
 30
0.0
 10
94.40064150827494
 20
-142.2957395413704
 30
0.0
 10
94.44540589463676
 20
-142.3405423191371
 30
0.0
 10
94.50054505989703
 20
-142.3405423191371
 30
0.0
 10
94.5556489473801
 20
-142.3405423191371
 30
0.0
 10
94.60045172401487
 20
-142.2957395413704
 30
0.0
 10
94.60045172401487
 20
-142.2406356524955
 30
0.0
  0
LINE
  5
11E
330
B3
100
AcDbEntity
  8
レイヤー 1
 62
    18
420
        0
370
     9
100
AcDbLine
 10
63.49966946190637
 20
-147.0024300957493
 30
0.0
 11
63.49966946190637
 21
-141.7445242637304
 31
0.0
  0
LINE
  5
11F
330
B3
100
AcDbEntity
  8
レイヤー 1
 62
    18
420
        0
370
     9
100
AcDbLine
 10
63.49966946190637
 20
-147.0024300957493
 30
0.0
 11
63.49966946190637
 21
-147.502668984513
 31
0.0
  0
LINE
  5
120
330
B3
100
AcDbEntity
  8
レイヤー 1
 62
    18
420
        0
370
     9
100
AcDbLine
 10
64.9597108135465
 20
-147.0024300957493
 30
0.0
 11
62.49922698742978
 21
-147.0024300957493
 31
0.0
  0
LINE
  5
121
330
B3
100
AcDbEntity
  8
レイヤー 1
 62
    18
420
        0
370
     9
100
AcDbLine
 10
64.9597108135465
 20
-147.502668984513
 30
0.0
 11
62.49922698742978
 21
-147.502668984513
 31
0.0
  0
INSERT
  5
123
330
B3
100
AcDbEntity
  8
レイヤー 1
100
AcDbBlockReference
  2
Block_2
 10
0.0
 20
0.0
 30
0.0
  0
LINE
  5
131
330
B3
100
AcDbEntity
  8
レイヤー 1
 62
    18
420
        0
370
     9
100
AcDbLine
 10
67.49942852653068
 20
-142.2406356524955
 30
0.0
 11
88.50057132408023
 21
-142.2406356524955
 31
0.0
  0
LINE
  5
132
330
B3
100
AcDbEntity
  8
レイヤー 1
 62
    18
420
        0
370
     9
100
AcDbLine
 10
67.49942852653068
 20
-144.4627123186068
 30
0.0
 11
67.49942852653068
 21
-141.2408634305229
 31
0.0
  0
INSERT
  5
134
330
B3
100
AcDbEntity
  8
レイヤー 1
100
AcDbBlockReference
  2
Block_4
 10
0.0
 20
0.0
 30
0.0
  0
LINE
  5
13F
330
B3
100
AcDbEntity
  8
レイヤー 1
 62
    18
420
        0
370
     9
100
AcDbLine
 10
63.49966946190637
 20
-147.502668984513
 30
0.0
 11
63.49966946190637
 21
-152.5028706499298
 31
0.0
  0
LINE
  5
140
330
B3
100
AcDbEntity
  8
レイヤー 1
 62
    18
420
        0
370
     9
100
AcDbLine
 10
84.96108141438012
 20
-152.5028706499298
 30
0.0
 11
62.49922698742978
 21
-152.5028706499298
 31
0.0
  0
INSERT
  5
142
330
B3
100
AcDbEntity
  8
レイヤー 1
100
AcDbBlockReference
  2
Block_6
 10
0.0
 20
0.0
 30
0.0
  0
LINE
  5
147
330
B3
100
AcDbEntity
  8
レイヤー 1
 62
    18
420
        0
370
     9
100
AcDbLine
 10
115.5018289685537
 20
-142.2406356524955
 30
0.0
 11
94.50054505989703
 21
-142.2406356524955
 31
0.0
  0
LINE
  5
148
330
B3
100
AcDbEntity
  8
レイヤー 1
 62
    18
420
        0
370
     9
100
AcDbLine
 10
115.5018289685537
 20
-144.4627123186068
 30
0.0
 11
115.5018289685537
 21
-141.2408634305229
 31
0.0
  0
INSERT
  5
14A
330
B3
100
AcDbEntity
  8
レイヤー 1
100
AcDbBlockReference
  2
Block_7
 10
0.0
 20
0.0
 30
0.0
  0
LINE
  5
155
330
B3
100
AcDbEntity
  8
レイヤー 1
 62
    18
420
        0
370
     9
100
AcDbLine
 10
88.50057132408023
 20
-142.2406356524955
 30
0.0
 11
94.50054505989703
 21
-142.2406356524955
 31
0.0
  0
LINE
  5
156
330
B3
100
AcDbEntity
  8
レイヤー 1
 62
    18
420
        0
370
     9
100
AcDbLine
 10
88.50057132408023
 20
-143.7006770410192
 30
0.0
 11
88.50057132408023
 21
-141.2408634305229
 31
0.0
  0
LINE
  5
157
330
B3
100
AcDbEntity
  8
レイヤー 1
 62
    18
420
        0
370
     9
100
AcDbLine
 10
94.50054505989703
 20
-143.7006770410192
 30
0.0
 11
94.50054505989703
 21
-141.2408634305229
 31
0.0
  0
INSERT
  5
159
330
B3
100
AcDbEntity
  8
レイヤー 1
100
AcDbBlockReference
  2
Block_9
 10
0.0
 20
0.0
 30
0.0
  0
ELLIPSE
  5
15F
330
B3
100
AcDbEntity
  8
レイヤー 1
 62
    18
420
        0
370
     9
100
AcDbEllipse
 10
87.66064273439749
 20
-156.9263864821573
 30
0.0
 11
0.1240366635022277
 21
0.0
 31
0.0
210
0.0
220
0.0
230
1.0
 40
0.8054607712004706
 41
0.0
 42
6.283185307179586
  0
SPLINE
  5
160
330
B3
100
AcDbEntity
  8
レイヤー 1
 62
    18
420
        0
370
     9
100
AcDbSpline
210
0.0
220
0.0
230
1.0
 70
     9
 71
     3
 72
    17
 73
    13
 74
     0
 42
0.0000000001
 43
0.0000000001
 40
0.0
 40
0.0
 40
0.0
 40
0.0
 40
1.0
 40
1.0
 40
1.0
 40
2.0
 40
2.0
 40
2.0
 40
3.0
 40
3.0
 40
3.0
 40
4.0
 40
4.0
 40
4.0
 40
4.0
 10
95.86893474720872
 20
-156.9263864821573
 30
0.0
 10
95.86893474720872
 20
-156.8712473155042
 30
0.0
 10
95.81312530418811
 20
-156.8264798155156
 30
0.0
 10
95.74422780594582
 20
-156.8264798155156
 30
0.0
 10
95.67533030770354
 20
-156.8264798155156
 30
0.0
 10
95.62019428574794
 20
-156.8712473155042
 30
0.0
 10
95.62019428574794
 20
-156.9263864821573
 30
0.0
 10
95.62019428574794
 20
-156.9814903710321
 30
0.0
 10
95.67533030770354
 20
-157.0262931487989
 30
0.0
 10
95.74422780594582
 20
-157.0262931487989
 30
0.0
 10
95.81312530418811
 20
-157.0262931487989
 30
0.0
 10
95.86893474720872
 20
-156.9814903710321
 30
0.0
 10
95.86893474720872
 20
-156.9263864821573
 30
0.0
  0
LINE
  5
161
330
B3
100
AcDbEntity
  8
レイヤー 1
 62
    18
420
        0
370
     9
100
AcDbLine
 10
95.74422780594582
 20
-156.9263864821573
 30
0.0
 11
87.66064273439749
 21
-156.9263864821573
 31
0.0
  0
LINE
  5
162
330
B3
100
AcDbEntity
  8
レイヤー 1
 62
    18
420
        0
370
     9
100
AcDbLine
 10
95.74422780594582
 20
-155.4663450936329
 30
0.0
 11
95.74422780594582
 21
-157.9261587041298
 31
0.0
  0
LINE
  5
163
330
B3
100
AcDbEntity
  8
レイヤー 1
 62
    18
420
        0
370
     9
100
AcDbLine
 10
87.66064273439749
 20
-155.4663450936329
 30
0.0
 11
87.66064273439749
 21
-157.9261587041298
 31
0.0
  0
INSERT
  5
165
330
B3
100
AcDbEntity
  8
レイヤー 1
100
AcDbBlockReference
  2
Block_10
 10
0.0
 20
0.0
 30
0.0
  0
LINE
  5
16C
330
B3
100
AcDbEntity
  8
レイヤー 1
 62
    18
420
        0
370
     9
100
AcDbLine
 10
92.44243955684813
 20
-150.5012800948745
 30
0.0
 11
100.4426279638574
 21
-150.5012800948745
 31
0.0
  0
INSERT
  5
16E
330
B3
100
AcDbEntity
  8
レイヤー 1
100
AcDbBlockReference
  2
Block_11
 10
0.0
 20
0.0
 30
0.0
  0
ENDBLK
  5
B6
330
B3
100
AcDbEntity
  8
0
100
AcDbBlockEnd
  0
BLOCK
  5
124
330
122
100
AcDbEntity
  8
0
100
AcDbBlockBegin
  2
Block_2
 70
     0
 10
0.0
 20
0.0
 30
0.0
  3
Block_2
  1

  0
INSERT
  5
127
330
122
100
AcDbEntity
  8
レイヤー 1
100
AcDbBlockReference
  2
Block_3
 10
0.0
 20
0.0
 30
0.0
  0
ENDBLK
  5
125
330
122
100
AcDbEntity
  8
0
100
AcDbBlockEnd
  0
BLOCK
  5
128
330
126
100
AcDbEntity
  8
0
100
AcDbBlockBegin
  2
Block_3
 70
     0
 10
0.0
 20
0.0
 30
0.0
  3
Block_3
  1

  0
SPLINE
  5
12A
330
126
100
AcDbEntity
  8
レイヤー 1
100
AcDbSpline
210
0.0
220
0.0
230
1.0
 70
     9
 71
     3
 72
    17
 73
    13
 74
     0
 42
0.0000000001
 43
0.0000000001
 40
0.0
 40
0.0
 40
0.0
 40
0.0
 40
1.0
 40
1.0
 40
1.0
 40
2.0
 40
2.0
 40
2.0
 40
3.0
 40
3.0
 40
3.0
 40
4.0
 40
4.0
 40
4.0
 40
4.0
 10
60.65504013240569
 20
-148.1575371265891
 30
0.0
 10
60.65504013240569
 20
-148.4073065492697
 30
0.0
 10
60.93839923606749
 20
-148.4538153383205
 30
0.0
 10
61.28325329414099
 20
-148.4538153383205
 30
0.0
 10
61.60278590039792
 20
-148.4538153383205
 30
0.0
 10
61.91163871065056
 20
-148.4176418357254
 30
0.0
 10
61.91163871065056
 20
-148.1575371265891
 30
0.0
 10
61.91163871065056
 20
-147.9098347611996
 30
0.0
 10
61.63017440950565
 20
-147.8612589148576
 30
0.0
 10
61.28325329414099
 20
-147.8612589148576
 30
0.0
 10
60.96389294265833
 20
-147.8612589148576
 30
0.0
 10
60.65504013240569
 20
-147.8994994747439
 30
0.0
 10
60.65504013240569
 20
-148.1575371265891
 30
0.0
  0
SPLINE
  5
12B
330
126
100
AcDbEntity
  8
レイヤー 1
100
AcDbSpline
210
0.0
220
0.0
230
1.0
 70
     9
 71
     3
 72
    29
 73
    25
 74
     0
 42
0.0000000001
 43
0.0000000001
 40
0.0
 40
0.0
 40
0.0
 40
0.0
 40
1.0
 40
1.0
 40
1.0
 40
2.0
 40
2.0
 40
2.0
 40
3.0
 40
3.0
 40
3.0
 40
4.0
 40
4.0
 40
4.0
 40
5.0
 40
5.0
 40
5.0
 40
6.0
 40
6.0
 40
6.0
 40
7.0
 40
7.0
 40
7.0
 40
8.0
 40
8.0
 40
8.0
 40
8.0
 10
61.87770452012085
 20
-147.7596285980427
 30
0.0
 10
62.08716632562405
 20
-147.8678045962795
 30
0.0
 10
62.10628660556718
 20
-148.0410928991876
 30
0.0
 10
62.10628660556718
 20
-148.1575371265891
 30
0.0
 10
62.10628660556718
 20
-148.3184230857502
 30
0.0
 10
62.05977781651631
 20
-148.460016510194
 30
0.0
 10
61.87770452012085
 20
-148.5551011455869
 30
0.0
 10
61.6832288799785
 20
-148.6587985196929
 30
0.0
 10
61.44620631059331
 20
-148.6780910544103
 30
0.0
 10
61.28325329414099
 20
-148.6780910544103
 30
0.0
 10
61.13942055763182
 20
-148.6780910544103
 30
0.0
 10
60.88775633243431
 20
-148.6608655769841
 30
0.0
 10
60.68880206816114
 20
-148.5551011455869
 30
0.0
 10
60.48571368930566
 20
-148.4472696568986
 30
0.0
 10
60.46245929478022
 20
-148.2863836977374
 30
0.0
 10
60.46245929478022
 20
-148.1575371265891
 30
0.0
 10
60.46245929478022
 20
-147.9987182247191
 30
0.0
 10
60.50690102653994
 20
-147.8550577429841
 30
0.0
 10
60.68880206816114
 20
-147.7596285980427
 30
0.0
 10
60.8813829057866
 20
-147.6604098480675
 30
0.0
 10
61.10979273645867
 20
-147.6369831987678
 30
0.0
 10
61.28325329414099
 20
-147.6369831987678
 30
0.0
 10
61.45464679453217
 20
-147.6369831987678
 30
0.0
 10
61.68529593726965
 20
-147.6583427907764
 30
0.0
 10
61.87770452012085
 20
-147.7596285980427
 30
0.0
  0
HATCH
  5
12C
330
126
100
AcDbEntity
  8
レイヤー 1
 62
    18
420
        0
440
 33554687
100
AcDbHatch
 10
0.0
 20
0.0
 30
0.0
210
0.0
220
0.0
230
1.0
  2
SOLID
 70
     1
 71
     1
 91
        2
 92
        1
 93
        1
 72
     4
 94
        3
 73
     0
 74
     0
 95
       17
 96
       13
 40
0.0
 40
0.0
 40
0.0
 40
0.0
 40
1.0
 40
1.0
 40
1.0
 40
2.0
 40
2.0
 40
2.0
 40
3.0
 40
3.0
 40
3.0
 40
4.0
 40
4.0
 40
4.0
 40
4.0
 10
60.65504013240569
 20
-148.1575371265891
 10
60.65504013240569
 20
-148.4073065492697
 10
60.93839923606749
 20
-148.4538153383205
 10
61.28325329414099
 20
-148.4538153383205
 10
61.60278590039792
 20
-148.4538153383205
 10
61.91163871065056
 20
-148.4176418357254
 10
61.91163871065056
 20
-148.1575371265891
 10
61.91163871065056
 20
-147.9098347611996
 10
61.63017440950565
 20
-147.8612589148576
 10
61.28325329414099
 20
-147.8612589148576
 10
60.96389294265833
 20
-147.8612589148576
 10
60.65504013240569
 20
-147.8994994747439
 10
60.65504013240569
 20
-148.1575371265891
 97
        0
 97
        1
330
12A
 92
        1
 93
        1
 72
     4
 94
        3
 73
     0
 74
     0
 95
       29
 96
       25
 40
0.0
 40
0.0
 40
0.0
 40
0.0
 40
1.0
 40
1.0
 40
1.0
 40
2.0
 40
2.0
 40
2.0
 40
3.0
 40
3.0
 40
3.0
 40
4.0
 40
4.0
 40
4.0
 40
5.0
 40
5.0
 40
5.0
 40
6.0
 40
6.0
 40
6.0
 40
7.0
 40
7.0
 40
7.0
 40
8.0
 40
8.0
 40
8.0
 40
8.0
 10
61.87770452012085
 20
-147.7596285980427
 10
62.08716632562405
 20
-147.8678045962795
 10
62.10628660556718
 20
-148.0410928991876
 10
62.10628660556718
 20
-148.1575371265891
 10
62.10628660556718
 20
-148.3184230857502
 10
62.05977781651631
 20
-148.460016510194
 10
61.87770452012085
 20
-148.5551011455869
 10
61.6832288799785
 20
-148.6587985196929
 10
61.44620631059331
 20
-148.6780910544103
 10
61.28325329414099
 20
-148.6780910544103
 10
61.13942055763182
 20
-148.6780910544103
 10
60.88775633243431
 20
-148.6608655769841
 10
60.68880206816114
 20
-148.5551011455869
 10
60.48571368930566
 20
-148.4472696568986
 10
60.46245929478022
 20
-148.2863836977374
 10
60.46245929478022
 20
-148.1575371265891
 10
60.46245929478022
 20
-147.9987182247191
 10
60.50690102653994
 20
-147.8550577429841
 10
60.68880206816114
 20
-147.7596285980427
 10
60.8813829057866
 20
-147.6604098480675
 10
61.10979273645867
 20
-147.6369831987678
 10
61.28325329414099
 20
-147.6369831987678
 10
61.45464679453217
 20
-147.6369831987678
 10
61.68529593726965
 20
-147.6583427907764
 10
61.87770452012085
 20
-147.7596285980427
 97
        0
 97
        1
330
12B
 75
     2
 76
     1
 98
        1
 10
0.0
 20
0.0
450
        0
451
        0
460
0.0
461
0.0
452
        0
462
0.0
453
        0
470

  0
SPLINE
  5
12D
330
126
100
AcDbEntity
  8
レイヤー 1
100
AcDbSpline
210
0.0
220
0.0
230
1.0
 70
    11
 71
     3
 72
    17
 73
    13
 74
     0
 42
0.0000000001
 43
0.0000000001
 40
0.0
 40
0.0
 40
0.0
 40
0.0
 40
1.0
 40
1.0
 40
1.0
 40
2.0
 40
2.0
 40
2.0
 40
3.0
 40
3.0
 40
3.0
 40
4.0
 40
4.0
 40
4.0
 40
4.0
 10
62.05547144715975
 20
-147.4206312022941
 30
0.0
 10
62.05547144715975
 20
-147.4206312022941
 30
0.0
 10
61.80380722196225
 20
-147.4206312022941
 30
0.0
 10
61.80380722196225
 20
-147.4206312022941
 30
0.0
 10
61.80380722196225
 20
-147.4206312022941
 30
0.0
 10
61.80380722196225
 20
-147.1687947223224
 30
0.0
 10
61.80380722196225
 20
-147.1687947223224
 30
0.0
 10
61.80380722196225
 20
-147.1687947223224
 30
0.0
 10
62.05547144715975
 20
-147.1687947223224
 30
0.0
 10
62.05547144715975
 20
-147.1687947223224
 30
0.0
 10
62.05547144715975
 20
-147.1687947223224
 30
0.0
 10
62.05547144715975
 20
-147.4206312022941
 30
0.0
 10
62.05547144715975
 20
-147.4206312022941
 30
0.0
  0
HATCH
  5
12E
330
126
100
AcDbEntity
  8
レイヤー 1
 62
    18
420
        0
440
 33554687
100
AcDbHatch
 10
0.0
 20
0.0
 30
0.0
210
0.0
220
0.0
230
1.0
  2
SOLID
 70
     1
 71
     1
 91
        1
 92
        1
 93
        1
 72
     4
 94
        3
 73
     0
 74
     0
 95
       17
 96
       13
 40
0.0
 40
0.0
 40
0.0
 40
0.0
 40
1.0
 40
1.0
 40
1.0
 40
2.0
 40
2.0
 40
2.0
 40
3.0
 40
3.0
 40
3.0
 40
4.0
 40
4.0
 40
4.0
 40
4.0
 10
62.05547144715975
 20
-147.4206312022941
 10
62.05547144715975
 20
-147.4206312022941
 10
61.80380722196225
 20
-147.4206312022941
 10
61.80380722196225
 20
-147.4206312022941
 10
61.80380722196225
 20
-147.4206312022941
 10
61.80380722196225
 20
-147.1687947223224
 10
61.80380722196225
 20
-147.1687947223224
 10
61.80380722196225
 20
-147.1687947223224
 10
62.05547144715975
 20
-147.1687947223224
 10
62.05547144715975
 20
-147.1687947223224
 10
62.05547144715975
 20
-147.1687947223224
 10
62.05547144715975
 20
-147.4206312022941
 10
62.05547144715975
 20
-147.4206312022941
 97
        0
 97
        1
330
12D
 75
     2
 76
     1
 98
        1
 10
0.0
 20
0.0
450
        0
451
        0
460
0.0
461
0.0
452
        0
462
0.0
453
        0
470

  0
SPLINE
  5
12F
330
126
100
AcDbEntity
  8
レイヤー 1
100
AcDbSpline
210
0.0
220
0.0
230
1.0
 70
     9
 71
     3
 72
    53
 73
    49
 74
     0
 42
0.0000000001
 43
0.0000000001
 40
0.0
 40
0.0
 40
0.0
 40
0.0
 40
1.0
 40
1.0
 40
1.0
 40
2.0
 40
2.0
 40
2.0
 40
3.0
 40
3.0
 40
3.0
 40
4.0
 40
4.0
 40
4.0
 40
5.0
 40
5.0
 40
5.0
 40
6.0
 40
6.0
 40
6.0
 40
7.0
 40
7.0
 40
7.0
 40
8.0
 40
8.0
 40
8.0
 40
9.0
 40
9.0
 40
9.0
 40
10.0
 40
10.0
 40
10.0
 40
11.0
 40
11.0
 40
11.0
 40
12.0
 40
12.0
 40
12.0
 40
13.0
 40
13.0
 40
13.0
 40
14.0
 40
14.0
 40
14.0
 40
15.0
 40
15.0
 40
15.0
 40
16.0
 40
16.0
 40
16.0
 40
16.0
 10
62.10628660556718
 20
-146.4515258422933
 30
0.0
 10
62.10628660556718
 20
-146.5297295098085
 30
0.0
 10
62.08940563768946
 20
-146.6313598266234
 30
0.0
 10
62.0258436259866
 20
-146.7329901434383
 30
0.0
 10
61.91577282523287
 20
-146.9062784463463
 30
0.0
 10
61.7846869420191
 20
-146.9276380383549
 30
0.0
 10
61.67685545333078
 20
-146.9465860635238
 30
0.0
 10
61.67685545333078
 20
-146.9465860635238
 30
0.0
 10
61.67685545333078
 20
-146.7243774047251
 30
0.0
 10
61.67685545333078
 20
-146.7243774047251
 30
0.0
 10
61.87563746282971
 20
-146.6696003865097
 30
0.0
 10
61.90526528400285
 20
-146.5424763631039
 30
0.0
 10
61.90526528400285
 20
-146.4494587850022
 30
0.0
 10
61.90526528400285
 20
-146.3099324178496
 30
0.0
 10
61.80587427925339
 20
-146.1576591974015
 30
0.0
 10
61.57315807922477
 20
-146.1576591974015
 30
0.0
 10
61.3171874846707
 20
-146.1576591974015
 30
0.0
 10
61.24742430109439
 20
-146.3374931817316
 30
0.0
 10
61.24742430109439
 20
-146.4580715237153
 30
0.0
 10
61.24742430109439
 20
-146.4897664021796
 30
0.0
 10
61.24742430109439
 20
-146.6313598266234
 30
0.0
 10
61.376443127017
 20
-146.7202432901428
 30
0.0
 10
61.376443127017
 20
-146.7202432901428
 30
0.0
 10
61.35732284707387
 20
-146.8959431598906
 30
0.0
 10
61.35732284707387
 20
-146.8959431598906
 30
0.0
 10
61.35732284707387
 20
-146.8959431598906
 30
0.0
 10
60.5112073958965
 20
-146.7753648179068
 30
0.0
 10
60.5112073958965
 20
-146.7753648179068
 30
0.0
 10
60.5112073958965
 20
-146.7753648179068
 30
0.0
 10
60.5112073958965
 20
-145.9967732382404
 30
0.0
 10
60.5112073958965
 20
-145.9967732382404
 30
0.0
 10
60.5112073958965
 20
-145.9967732382404
 30
0.0
 10
60.70585529081312
 20
-145.9967732382404
 30
0.0
 10
60.70585529081312
 20
-145.9967732382404
 30
0.0
 10
60.70585529081312
 20
-145.9967732382404
 30
0.0
 10
60.70585529081312
 20
-146.6124118014545
 30
0.0
 10
60.70585529081312
 20
-146.6124118014545
 30
0.0
 10
60.70585529081312
 20
-146.6124118014545
 30
0.0
 10
61.1289130164018
 20
-146.6778686156743
 30
0.0
 10
61.1289130164018
 20
-146.6778686156743
 30
0.0
 10
61.09497882587209
 20
-146.6165459160368
 30
0.0
 10
61.05484346346893
 20
-146.5342081339393
 30
0.0
 10
61.05484346346893
 20
-146.4156968492468
 30
0.0
 10
61.05484346346893
 20
-146.1617933119838
 30
0.0
 10
61.24105087444668
 20
-145.9247707425986
 30
0.0
 10
61.55403779928163
 20
-145.9247707425986
 30
0.0
 10
61.8715033482474
 20
-145.9247707425986
 30
0.0
 10
62.10628660556718
 20
-146.1490464586884
 30
0.0
 10
62.10628660556718
 20
-146.4515258422933
 30
0.0
  0
HATCH
  5
130
330
126
100
AcDbEntity
  8
レイヤー 1
 62
    18
420
        0
440
 33554687
100
AcDbHatch
 10
0.0
 20
0.0
 30
0.0
210
0.0
220
0.0
230
1.0
  2
SOLID
 70
     1
 71
     1
 91
        1
 92
        1
 93
        1
 72
     4
 94
        3
 73
     0
 74
     0
 95
       53
 96
       49
 40
0.0
 40
0.0
 40
0.0
 40
0.0
 40
1.0
 40
1.0
 40
1.0
 40
2.0
 40
2.0
 40
2.0
 40
3.0
 40
3.0
 40
3.0
 40
4.0
 40
4.0
 40
4.0
 40
5.0
 40
5.0
 40
5.0
 40
6.0
 40
6.0
 40
6.0
 40
7.0
 40
7.0
 40
7.0
 40
8.0
 40
8.0
 40
8.0
 40
9.0
 40
9.0
 40
9.0
 40
10.0
 40
10.0
 40
10.0
 40
11.0
 40
11.0
 40
11.0
 40
12.0
 40
12.0
 40
12.0
 40
13.0
 40
13.0
 40
13.0
 40
14.0
 40
14.0
 40
14.0
 40
15.0
 40
15.0
 40
15.0
 40
16.0
 40
16.0
 40
16.0
 40
16.0
 10
62.10628660556718
 20
-146.4515258422933
 10
62.10628660556718
 20
-146.5297295098085
 10
62.08940563768946
 20
-146.6313598266234
 10
62.0258436259866
 20
-146.7329901434383
 10
61.91577282523287
 20
-146.9062784463463
 10
61.7846869420191
 20
-146.9276380383549
 10
61.67685545333078
 20
-146.9465860635238
 10
61.67685545333078
 20
-146.9465860635238
 10
61.67685545333078
 20
-146.7243774047251
 10
61.67685545333078
 20
-146.7243774047251
 10
61.87563746282971
 20
-146.6696003865097
 10
61.90526528400285
 20
-146.5424763631039
 10
61.90526528400285
 20
-146.4494587850022
 10
61.90526528400285
 20
-146.3099324178496
 10
61.80587427925339
 20
-146.1576591974015
 10
61.57315807922477
 20
-146.1576591974015
 10
61.3171874846707
 20
-146.1576591974015
 10
61.24742430109439
 20
-146.3374931817316
 10
61.24742430109439
 20
-146.4580715237153
 10
61.24742430109439
 20
-146.4897664021796
 10
61.24742430109439
 20
-146.6313598266234
 10
61.376443127017
 20
-146.7202432901428
 10
61.376443127017
 20
-146.7202432901428
 10
61.35732284707387
 20
-146.8959431598906
 10
61.35732284707387
 20
-146.8959431598906
 10
61.35732284707387
 20
-146.8959431598906
 10
60.5112073958965
 20
-146.7753648179068
 10
60.5112073958965
 20
-146.7753648179068
 10
60.5112073958965
 20
-146.7753648179068
 10
60.5112073958965
 20
-145.9967732382404
 10
60.5112073958965
 20
-145.9967732382404
 10
60.5112073958965
 20
-145.9967732382404
 10
60.70585529081312
 20
-145.9967732382404
 10
60.70585529081312
 20
-145.9967732382404
 10
60.70585529081312
 20
-145.9967732382404
 10
60.70585529081312
 20
-146.6124118014545
 10
60.70585529081312
 20
-146.6124118014545
 10
60.70585529081312
 20
-146.6124118014545
 10
61.1289130164018
 20
-146.6778686156743
 10
61.1289130164018
 20
-146.6778686156743
 10
61.09497882587209
 20
-146.6165459160368
 10
61.05484346346893
 20
-146.5342081339393
 10
61.05484346346893
 20
-146.4156968492468
 10
61.05484346346893
 20
-146.1617933119838
 10
61.24105087444668
 20
-145.9247707425986
 10
61.55403779928163
 20
-145.9247707425986
 10
61.8715033482474
 20
-145.9247707425986
 10
62.10628660556718
 20
-146.1490464586884
 10
62.10628660556718
 20
-146.4515258422933
 97
        0
 97
        1
330
12F
 75
     2
 76
     1
 98
        1
 10
0.0
 20
0.0
450
        0
451
        0
460
0.0
461
0.0
452
        0
462
0.0
453
        0
470

  0
ENDBLK
  5
129
330
126
100
AcDbEntity
  8
0
100
AcDbBlockEnd
  0
BLOCK
  5
135
330
133
100
AcDbEntity
  8
0
100
AcDbBlockBegin
  2
Block_4
 70
     0
 10
0.0
 20
0.0
 30
0.0
  3
Block_4
  1

  0
INSERT
  5
138
330
133
100
AcDbEntity
  8
レイヤー 1
100
AcDbBlockReference
  2
Block_5
 10
0.0
 20
0.0
 30
0.0
  0
ENDBLK
  5
136
330
133
100
AcDbEntity
  8
0
100
AcDbBlockEnd
  0
BLOCK
  5
139
330
137
100
AcDbEntity
  8
0
100
AcDbBlockBegin
  2
Block_5
 70
     0
 10
0.0
 20
0.0
 30
0.0
  3
Block_5
  1

  0
SPLINE
  5
13B
330
137
100
AcDbEntity
  8
レイヤー 1
100
AcDbSpline
210
0.0
220
0.0
230
1.0
 70
     9
 71
     3
 72
    44
 73
    40
 74
     0
 42
0.0000000001
 43
0.0000000001
 40
0.0
 40
0.0
 40
0.0
 40
0.0
 40
1.0
 40
1.0
 40
1.0
 40
2.0
 40
2.0
 40
2.0
 40
3.0
 40
3.0
 40
3.0
 40
4.0
 40
4.0
 40
4.0
 40
5.0
 40
5.0
 40
5.0
 40
6.0
 40
6.0
 40
6.0
 40
7.0
 40
7.0
 40
7.0
 40
8.0
 40
8.0
 40
8.0
 40
9.0
 40
9.0
 40
9.0
 40
10.0
 40
10.0
 40
10.0
 40
11.0
 40
11.0
 40
11.0
 40
12.0
 40
12.0
 40
12.0
 40
13.0
 40
13.0
 40
13.0
 40
13.0
 10
77.42869328576436
 20
-140.9452297282185
 30
0.0
 10
77.2107909963223
 20
-141.1038763753143
 30
0.0
 10
77.11760116344629
 20
-141.1779459282472
 30
0.0
 10
77.06902531710428
 20
-141.3217786647564
 30
0.0
 10
77.06902531710428
 20
-141.3217786647564
 30
0.0
 10
77.84744464199647
 20
-141.3217786647564
 30
0.0
 10
77.84744464199647
 20
-141.3217786647564
 30
0.0
 10
77.84744464199647
 20
-141.3217786647564
 30
0.0
 10
77.84744464199647
 20
-141.526934100903
 30
0.0
 10
77.84744464199647
 20
-141.526934100903
 30
0.0
 10
77.84744464199647
 20
-141.526934100903
 30
0.0
 10
76.81942814919792
 20
-141.526934100903
 30
0.0
 10
76.81942814919792
 20
-141.526934100903
 30
0.0
 10
76.85112302766222
 20
-141.169333189534
 30
0.0
 10
76.91657984188196
 20
-141.0911295220189
 30
0.0
 10
77.30174151713289
 20
-140.7927842529962
 30
0.0
 10
77.55771211168696
 20
-140.5940022434973
 30
0.0
 10
77.62316892590671
 20
-140.5263061172122
 30
0.0
 10
77.62316892590671
 20
-140.3888468073507
 30
0.0
 10
77.62316892590671
 20
-140.2703355226581
 30
0.0
 10
77.55133868503925
 20
-140.1390773846701
 30
0.0
 10
77.35462373283148
 20
-140.1390773846701
 30
0.0
 10
77.09434676892086
 20
-140.1390773846701
 30
0.0
 10
77.085906284982
 20
-140.3697265274075
 30
0.0
 10
77.08159991562543
 20
-140.486170754809
 30
0.0
 10
77.08159991562543
 20
-140.486170754809
 30
0.0
 10
76.85749645430994
 20
-140.486170754809
 30
0.0
 10
76.85749645430994
 20
-140.486170754809
 30
0.0
 10
76.86593693824879
 20
-140.3592189861775
 30
0.0
 10
76.87644447947881
 20
-140.2470811281327
 30
0.0
 10
76.95688745905939
 20
-140.1285698434401
 30
0.0
 10
77.06678600503886
 20
-139.9678561390532
 30
0.0
 10
77.25299341601662
 20
-139.9339219485234
 30
0.0
 10
77.36943764341806
 20
-139.9339219485234
 30
0.0
 10
77.64659557520641
 20
-139.9339219485234
 30
0.0
 10
77.85381806864418
 20
-140.11806230221
 30
0.0
 10
77.85381806864418
 20
-140.3909138646419
 30
0.0
 10
77.85381806864418
 20
-140.6193236953139
 30
0.0
 10
77.737546096017
 20
-140.7188869548376
 30
0.0
 10
77.42869328576436
 20
-140.9452297282185
 30
0.0
  0
HATCH
  5
13C
330
137
100
AcDbEntity
  8
レイヤー 1
 62
    18
420
        0
440
 33554687
100
AcDbHatch
 10
0.0
 20
0.0
 30
0.0
210
0.0
220
0.0
230
1.0
  2
SOLID
 70
     1
 71
     1
 91
        1
 92
        1
 93
        1
 72
     4
 94
        3
 73
     0
 74
     0
 95
       44
 96
       40
 40
0.0
 40
0.0
 40
0.0
 40
0.0
 40
1.0
 40
1.0
 40
1.0
 40
2.0
 40
2.0
 40
2.0
 40
3.0
 40
3.0
 40
3.0
 40
4.0
 40
4.0
 40
4.0
 40
5.0
 40
5.0
 40
5.0
 40
6.0
 40
6.0
 40
6.0
 40
7.0
 40
7.0
 40
7.0
 40
8.0
 40
8.0
 40
8.0
 40
9.0
 40
9.0
 40
9.0
 40
10.0
 40
10.0
 40
10.0
 40
11.0
 40
11.0
 40
11.0
 40
12.0
 40
12.0
 40
12.0
 40
13.0
 40
13.0
 40
13.0
 40
13.0
 10
77.42869328576436
 20
-140.9452297282185
 10
77.2107909963223
 20
-141.1038763753143
 10
77.11760116344629
 20
-141.1779459282472
 10
77.06902531710428
 20
-141.3217786647564
 10
77.06902531710428
 20
-141.3217786647564
 10
77.84744464199647
 20
-141.3217786647564
 10
77.84744464199647
 20
-141.3217786647564
 10
77.84744464199647
 20
-141.3217786647564
 10
77.84744464199647
 20
-141.526934100903
 10
77.84744464199647
 20
-141.526934100903
 10
77.84744464199647
 20
-141.526934100903
 10
76.81942814919792
 20
-141.526934100903
 10
76.81942814919792
 20
-141.526934100903
 10
76.85112302766222
 20
-141.169333189534
 10
76.91657984188196
 20
-141.0911295220189
 10
77.30174151713289
 20
-140.7927842529962
 10
77.55771211168696
 20
-140.5940022434973
 10
77.62316892590671
 20
-140.5263061172122
 10
77.62316892590671
 20
-140.3888468073507
 10
77.62316892590671
 20
-140.2703355226581
 10
77.55133868503925
 20
-140.1390773846701
 10
77.35462373283148
 20
-140.1390773846701
 10
77.09434676892086
 20
-140.1390773846701
 10
77.085906284982
 20
-140.3697265274075
 10
77.08159991562543
 20
-140.486170754809
 10
77.08159991562543
 20
-140.486170754809
 10
76.85749645430994
 20
-140.486170754809
 10
76.85749645430994
 20
-140.486170754809
 10
76.86593693824879
 20
-140.3592189861775
 10
76.87644447947881
 20
-140.2470811281327
 10
76.95688745905939
 20
-140.1285698434401
 10
77.06678600503886
 20
-139.9678561390532
 10
77.25299341601662
 20
-139.9339219485234
 10
77.36943764341806
 20
-139.9339219485234
 10
77.64659557520641
 20
-139.9339219485234
 10
77.85381806864418
 20
-140.11806230221
 10
77.85381806864418
 20
-140.3909138646419
 10
77.85381806864418
 20
-140.6193236953139
 10
77.737546096017
 20
-140.7188869548376
 10
77.42869328576436
 20
-140.9452297282185
 97
        0
 97
        1
330
13B
 75
     2
 76
     1
 98
        1
 10
0.0
 20
0.0
450
        0
451
        0
460
0.0
461
0.0
452
        0
462
0.0
453
        0
470

  0
SPLINE
  5
13D
330
137
100
AcDbEntity
  8
レイヤー 1
100
AcDbSpline
210
0.0
220
0.0
230
1.0
 70
    11
 71
     3
 72
    26
 73
    22
 74
     0
 42
0.0000000001
 43
0.0000000001
 40
0.0
 40
0.0
 40
0.0
 40
0.0
 40
1.0
 40
1.0
 40
1.0
 40
2.0
 40
2.0
 40
2.0
 40
3.0
 40
3.0
 40
3.0
 40
4.0
 40
4.0
 40
4.0
 40
5.0
 40
5.0
 40
5.0
 40
6.0
 40
6.0
 40
6.0
 40
7.0
 40
7.0
 40
7.0
 40
7.0
 10
78.46377222430767
 20
-141.526934100903
 30
0.0
 10
78.46377222430767
 20
-141.526934100903
 30
0.0
 10
78.46377222430767
 20
-140.4226087431061
 30
0.0
 10
78.46377222430767
 20
-140.4226087431061
 30
0.0
 10
78.46377222430767
 20
-140.4226087431061
 30
0.0
 10
78.13373207682073
 20
-140.4226087431061
 30
0.0
 10
78.13373207682073
 20
-140.4226087431061
 30
0.0
 10
78.13373207682073
 20
-140.4226087431061
 30
0.0
 10
78.13373207682073
 20
-140.2744696372404
 30
0.0
 10
78.13373207682073
 20
-140.2744696372404
 30
0.0
 10
78.46583928159882
 20
-140.2598279814281
 30
0.0
 10
78.51234807064969
 20
-140.0968749649758
 30
0.0
 10
78.54197589182284
 20
-139.9826700496397
 30
0.0
 10
78.54197589182284
 20
-139.9826700496397
 30
0.0
 10
78.68804794039744
 20
-139.9826700496397
 30
0.0
 10
78.68804794039744
 20
-139.9826700496397
 30
0.0
 10
78.68804794039744
 20
-139.9826700496397
 30
0.0
 10
78.68804794039744
 20
-141.526934100903
 30
0.0
 10
78.68804794039744
 20
-141.526934100903
 30
0.0
 10
78.68804794039744
 20
-141.526934100903
 30
0.0
 10
78.46377222430767
 20
-141.526934100903
 30
0.0
 10
78.46377222430767
 20
-141.526934100903
 30
0.0
  0
HATCH
  5
13E
330
137
100
AcDbEntity
  8
レイヤー 1
 62
    18
420
        0
440
 33554687
100
AcDbHatch
 10
0.0
 20
0.0
 30
0.0
210
0.0
220
0.0
230
1.0
  2
SOLID
 70
     1
 71
     1
 91
        1
 92
        1
 93
        1
 72
     4
 94
        3
 73
     0
 74
     0
 95
       26
 96
       22
 40
0.0
 40
0.0
 40
0.0
 40
0.0
 40
1.0
 40
1.0
 40
1.0
 40
2.0
 40
2.0
 40
2.0
 40
3.0
 40
3.0
 40
3.0
 40
4.0
 40
4.0
 40
4.0
 40
5.0
 40
5.0
 40
5.0
 40
6.0
 40
6.0
 40
6.0
 40
7.0
 40
7.0
 40
7.0
 40
7.0
 10
78.46377222430767
 20
-141.526934100903
 10
78.46377222430767
 20
-141.526934100903
 10
78.46377222430767
 20
-140.4226087431061
 10
78.46377222430767
 20
-140.4226087431061
 10
78.46377222430767
 20
-140.4226087431061
 10
78.13373207682073
 20
-140.4226087431061
 10
78.13373207682073
 20
-140.4226087431061
 10
78.13373207682073
 20
-140.4226087431061
 10
78.13373207682073
 20
-140.2744696372404
 10
78.13373207682073
 20
-140.2744696372404
 10
78.46583928159882
 20
-140.2598279814281
 10
78.51234807064969
 20
-140.0968749649758
 10
78.54197589182284
 20
-139.9826700496397
 10
78.54197589182284
 20
-139.9826700496397
 10
78.68804794039744
 20
-139.9826700496397
 10
78.68804794039744
 20
-139.9826700496397
 10
78.68804794039744
 20
-139.9826700496397
 10
78.68804794039744
 20
-141.526934100903
 10
78.68804794039744
 20
-141.526934100903
 10
78.68804794039744
 20
-141.526934100903
 10
78.46377222430767
 20
-141.526934100903
 10
78.46377222430767
 20
-141.526934100903
 97
        0
 97
        1
330
13D
 75
     2
 76
     1
 98
        1
 10
0.0
 20
0.0
450
        0
451
        0
460
0.0
461
0.0
452
        0
462
0.0
453
        0
470

  0
ENDBLK
  5
13A
330
137
100
AcDbEntity
  8
0
100
AcDbBlockEnd
  0
BLOCK
  5
143
330
141
100
AcDbEntity
  8
0
100
AcDbBlockBegin
  2
Block_6
 70
     0
 10
0.0
 20
0.0
 30
0.0
  3
Block_6
  1

  0
SPLINE
  5
145
330
141
100
AcDbEntity
  8
レイヤー 1
100
AcDbSpline
210
0.0
220
0.0
230
1.0
 70
     9
 71
     3
 72
    53
 73
    49
 74
     0
 42
0.0000000001
 43
0.0000000001
 40
0.0
 40
0.0
 40
0.0
 40
0.0
 40
1.0
 40
1.0
 40
1.0
 40
2.0
 40
2.0
 40
2.0
 40
3.0
 40
3.0
 40
3.0
 40
4.0
 40
4.0
 40
4.0
 40
5.0
 40
5.0
 40
5.0
 40
6.0
 40
6.0
 40
6.0
 40
7.0
 40
7.0
 40
7.0
 40
8.0
 40
8.0
 40
8.0
 40
9.0
 40
9.0
 40
9.0
 40
10.0
 40
10.0
 40
10.0
 40
11.0
 40
11.0
 40
11.0
 40
12.0
 40
12.0
 40
12.0
 40
13.0
 40
13.0
 40
13.0
 40
14.0
 40
14.0
 40
14.0
 40
15.0
 40
15.0
 40
15.0
 40
16.0
 40
16.0
 40
16.0
 40
16.0
 10
62.83664684844015
 20
-150.6392116593888
 30
0.0
 10
62.83664684844015
 20
-150.717415326904
 30
0.0
 10
62.81959362578816
 20
-150.8190456437188
 30
0.0
 10
62.75620386885957
 20
-150.9206759605337
 30
0.0
 10
62.64613306810583
 20
-151.0939642634418
 30
0.0
 10
62.51504718489208
 20
-151.1153238554503
 30
0.0
 10
62.40721569620376
 20
-151.1342718806192
 30
0.0
 10
62.40721569620376
 20
-151.1342718806192
 30
0.0
 10
62.40721569620376
 20
-150.9120632218206
 30
0.0
 10
62.40721569620376
 20
-150.9120632218206
 30
0.0
 10
62.60599770570267
 20
-150.8572862036051
 30
0.0
 10
62.63562552687582
 20
-150.7301621801994
 30
0.0
 10
62.63562552687582
 20
-150.6371446020976
 30
0.0
 10
62.63562552687582
 20
-150.497618234945
 30
0.0
 10
62.53623452212636
 20
-150.345345014497
 30
0.0
 10
62.30351832209773
 20
-150.345345014497
 30
0.0
 10
62.04754772754367
 20
-150.345345014497
 30
0.0
 10
61.97778454396736
 20
-150.525178998827
 30
0.0
 10
61.97778454396736
 20
-150.6457573408108
 30
0.0
 10
61.97778454396736
 20
-150.6774522192751
 30
0.0
 10
61.97778454396736
 20
-150.8190456437188
 30
0.0
 10
62.10680336988996
 20
-150.9079291072383
 30
0.0
 10
62.10680336988996
 20
-150.9079291072383
 30
0.0
 10
62.08768308994683
 20
-151.083628976986
 30
0.0
 10
62.08768308994683
 20
-151.083628976986
 30
0.0
 10
62.08768308994683
 20
-151.083628976986
 30
0.0
 10
61.24156763876947
 20
-150.9630506350023
 30
0.0
 10
61.24156763876947
 20
-150.9630506350023
 30
0.0
 10
61.24156763876947
 20
-150.9630506350023
 30
0.0
 10
61.24156763876947
 20
-150.1844590553358
 30
0.0
 10
61.24156763876947
 20
-150.1844590553358
 30
0.0
 10
61.24156763876947
 20
-150.1844590553358
 30
0.0
 10
61.43621553368609
 20
-150.1844590553358
 30
0.0
 10
61.43621553368609
 20
-150.1844590553358
 30
0.0
 10
61.43621553368609
 20
-150.1844590553358
 30
0.0
 10
61.43621553368609
 20
-150.8000976185499
 30
0.0
 10
61.43621553368609
 20
-150.8000976185499
 30
0.0
 10
61.43621553368609
 20
-150.8000976185499
 30
0.0
 10
61.85927325927476
 20
-150.8655544327697
 30
0.0
 10
61.85927325927476
 20
-150.8655544327697
 30
0.0
 10
61.82533906874506
 20
-150.8042317331322
 30
0.0
 10
61.78520370634189
 20
-150.7218939510348
 30
0.0
 10
61.78520370634189
 20
-150.6033826663422
 30
0.0
 10
61.78520370634189
 20
-150.3494791290793
 30
0.0
 10
61.97141111731965
 20
-150.1124565596941
 30
0.0
 10
62.2843980421546
 20
-150.1124565596941
 30
0.0
 10
62.60186359112037
 20
-150.1124565596941
 30
0.0
 10
62.83664684844015
 20
-150.3367322757839
 30
0.0
 10
62.83664684844015
 20
-150.6392116593888
 30
0.0
  0
HATCH
  5
146
330
141
100
AcDbEntity
  8
レイヤー 1
 62
    18
420
        0
440
 33554687
100
AcDbHatch
 10
0.0
 20
0.0
 30
0.0
210
0.0
220
0.0
230
1.0
  2
SOLID
 70
     1
 71
     1
 91
        1
 92
        1
 93
        1
 72
     4
 94
        3
 73
     0
 74
     0
 95
       53
 96
       49
 40
0.0
 40
0.0
 40
0.0
 40
0.0
 40
1.0
 40
1.0
 40
1.0
 40
2.0
 40
2.0
 40
2.0
 40
3.0
 40
3.0
 40
3.0
 40
4.0
 40
4.0
 40
4.0
 40
5.0
 40
5.0
 40
5.0
 40
6.0
 40
6.0
 40
6.0
 40
7.0
 40
7.0
 40
7.0
 40
8.0
 40
8.0
 40
8.0
 40
9.0
 40
9.0
 40
9.0
 40
10.0
 40
10.0
 40
10.0
 40
11.0
 40
11.0
 40
11.0
 40
12.0
 40
12.0
 40
12.0
 40
13.0
 40
13.0
 40
13.0
 40
14.0
 40
14.0
 40
14.0
 40
15.0
 40
15.0
 40
15.0
 40
16.0
 40
16.0
 40
16.0
 40
16.0
 10
62.83664684844015
 20
-150.6392116593888
 10
62.83664684844015
 20
-150.717415326904
 10
62.81959362578816
 20
-150.8190456437188
 10
62.75620386885957
 20
-150.9206759605337
 10
62.64613306810583
 20
-151.0939642634418
 10
62.51504718489208
 20
-151.1153238554503
 10
62.40721569620376
 20
-151.1342718806192
 10
62.40721569620376
 20
-151.1342718806192
 10
62.40721569620376
 20
-150.9120632218206
 10
62.40721569620376
 20
-150.9120632218206
 10
62.60599770570267
 20
-150.8572862036051
 10
62.63562552687582
 20
-150.7301621801994
 10
62.63562552687582
 20
-150.6371446020976
 10
62.63562552687582
 20
-150.497618234945
 10
62.53623452212636
 20
-150.345345014497
 10
62.30351832209773
 20
-150.345345014497
 10
62.04754772754367
 20
-150.345345014497
 10
61.97778454396736
 20
-150.525178998827
 10
61.97778454396736
 20
-150.6457573408108
 10
61.97778454396736
 20
-150.6774522192751
 10
61.97778454396736
 20
-150.8190456437188
 10
62.10680336988996
 20
-150.9079291072383
 10
62.10680336988996
 20
-150.9079291072383
 10
62.08768308994683
 20
-151.083628976986
 10
62.08768308994683
 20
-151.083628976986
 10
62.08768308994683
 20
-151.083628976986
 10
61.24156763876947
 20
-150.9630506350023
 10
61.24156763876947
 20
-150.9630506350023
 10
61.24156763876947
 20
-150.9630506350023
 10
61.24156763876947
 20
-150.1844590553358
 10
61.24156763876947
 20
-150.1844590553358
 10
61.24156763876947
 20
-150.1844590553358
 10
61.43621553368609
 20
-150.1844590553358
 10
61.43621553368609
 20
-150.1844590553358
 10
61.43621553368609
 20
-150.1844590553358
 10
61.43621553368609
 20
-150.8000976185499
 10
61.43621553368609
 20
-150.8000976185499
 10
61.43621553368609
 20
-150.8000976185499
 10
61.85927325927476
 20
-150.8655544327697
 10
61.85927325927476
 20
-150.8655544327697
 10
61.82533906874506
 20
-150.8042317331322
 10
61.78520370634189
 20
-150.7218939510348
 10
61.78520370634189
 20
-150.6033826663422
 10
61.78520370634189
 20
-150.3494791290793
 10
61.97141111731965
 20
-150.1124565596941
 10
62.2843980421546
 20
-150.1124565596941
 10
62.60186359112037
 20
-150.1124565596941
 10
62.83664684844015
 20
-150.3367322757839
 10
62.83664684844015
 20
-150.6392116593888
 97
        0
 97
        1
330
145
 75
     2
 76
     1
 98
        1
 10
0.0
 20
0.0
450
        0
451
        0
460
0.0
461
0.0
452
        0
462
0.0
453
        0
470

  0
ENDBLK
  5
144
330
141
100
AcDbEntity
  8
0
100
AcDbBlockEnd
  0
BLOCK
  5
14B
330
149
100
AcDbEntity
  8
0
100
AcDbBlockBegin
  2
Block_7
 70
     0
 10
0.0
 20
0.0
 30
0.0
  3
Block_7
  1

  0
INSERT
  5
14E
330
149
100
AcDbEntity
  8
レイヤー 1
100
AcDbBlockReference
  2
Block_8
 10
0.0
 20
0.0
 30
0.0
  0
ENDBLK
  5
14C
330
149
100
AcDbEntity
  8
0
100
AcDbBlockEnd
  0
BLOCK
  5
14F
330
14D
100
AcDbEntity
  8
0
100
AcDbBlockBegin
  2
Block_8
 70
     0
 10
0.0
 20
0.0
 30
0.0
  3
Block_8
  1

  0
SPLINE
  5
151
330
14D
100
AcDbEntity
  8
レイヤー 1
100
AcDbSpline
210
0.0
220
0.0
230
1.0
 70
     9
 71
     3
 72
    44
 73
    40
 74
     0
 42
0.0000000001
 43
0.0000000001
 40
0.0
 40
0.0
 40
0.0
 40
0.0
 40
1.0
 40
1.0
 40
1.0
 40
2.0
 40
2.0
 40
2.0
 40
3.0
 40
3.0
 40
3.0
 40
4.0
 40
4.0
 40
4.0
 40
5.0
 40
5.0
 40
5.0
 40
6.0
 40
6.0
 40
6.0
 40
7.0
 40
7.0
 40
7.0
 40
8.0
 40
8.0
 40
8.0
 40
9.0
 40
9.0
 40
9.0
 40
10.0
 40
10.0
 40
10.0
 40
11.0
 40
11.0
 40
11.0
 40
12.0
 40
12.0
 40
12.0
 40
13.0
 40
13.0
 40
13.0
 40
13.0
 10
104.4299736609584
 20
-140.9452297282185
 30
0.0
 10
104.2122436262907
 20
-141.1038763753143
 30
0.0
 10
104.1192260481889
 20
-141.1779459282472
 30
0.0
 10
104.0703056922984
 20
-141.3217786647564
 30
0.0
 10
104.0703056922984
 20
-141.3217786647564
 30
0.0
 10
104.8488972719648
 20
-141.3217786647564
 30
0.0
 10
104.8488972719648
 20
-141.3217786647564
 30
0.0
 10
104.8488972719648
 20
-141.3217786647564
 30
0.0
 10
104.8488972719648
 20
-141.526934100903
 30
0.0
 10
104.8488972719648
 20
-141.526934100903
 30
0.0
 10
104.8488972719648
 20
-141.526934100903
 30
0.0
 10
103.8208807791663
 20
-141.526934100903
 30
0.0
 10
103.8208807791663
 20
-141.526934100903
 30
0.0
 10
103.8525756576306
 20
-141.169333189534
 30
0.0
 10
103.9180324718503
 20
-141.0911295220189
 30
0.0
 10
104.3031941471013
 20
-140.7927842529962
 30
0.0
 10
104.5591647416553
 20
-140.5940022434973
 30
0.0
 10
104.6246215558751
 20
-140.5263061172122
 30
0.0
 10
104.6246215558751
 20
-140.3888468073507
 30
0.0
 10
104.6246215558751
 20
-140.2703355226581
 30
0.0
 10
104.5526190602334
 20
-140.1390773846701
 30
0.0
 10
104.3559041080256
 20
-140.1390773846701
 30
0.0
 10
104.0957993988892
 20
-140.1390773846701
 30
0.0
 10
104.0875311697246
 20
-140.3697265274075
 30
0.0
 10
104.0830525455938
 20
-140.486170754809
 30
0.0
 10
104.0830525455938
 20
-140.486170754809
 30
0.0
 10
103.858776829504
 20
-140.486170754809
 30
0.0
 10
103.858776829504
 20
-140.486170754809
 30
0.0
 10
103.8673895682172
 20
-140.3592189861775
 30
0.0
 10
103.8780693642214
 20
-140.2470811281327
 30
0.0
 10
103.9583400890278
 20
-140.1285698434401
 30
0.0
 10
104.0682386350072
 20
-139.9678561390532
 30
0.0
 10
104.2546183007592
 20
-139.9339219485234
 30
0.0
 10
104.3707180186121
 20
-139.9339219485234
 30
0.0
 10
104.6480482051748
 20
-139.9339219485234
 30
0.0
 10
104.8554429533868
 20
-140.11806230221
 30
0.0
 10
104.8554429533868
 20
-140.3909138646419
 30
0.0
 10
104.8554429533868
 20
-140.6193236953139
 30
0.0
 10
104.7389987259854
 20
-140.7188869548376
 30
0.0
 10
104.4299736609584
 20
-140.9452297282185
 30
0.0
  0
HATCH
  5
152
330
14D
100
AcDbEntity
  8
レイヤー 1
 62
    18
420
        0
440
 33554687
100
AcDbHatch
 10
0.0
 20
0.0
 30
0.0
210
0.0
220
0.0
230
1.0
  2
SOLID
 70
     1
 71
     1
 91
        1
 92
        1
 93
        1
 72
     4
 94
        3
 73
     0
 74
     0
 95
       44
 96
       40
 40
0.0
 40
0.0
 40
0.0
 40
0.0
 40
1.0
 40
1.0
 40
1.0
 40
2.0
 40
2.0
 40
2.0
 40
3.0
 40
3.0
 40
3.0
 40
4.0
 40
4.0
 40
4.0
 40
5.0
 40
5.0
 40
5.0
 40
6.0
 40
6.0
 40
6.0
 40
7.0
 40
7.0
 40
7.0
 40
8.0
 40
8.0
 40
8.0
 40
9.0
 40
9.0
 40
9.0
 40
10.0
 40
10.0
 40
10.0
 40
11.0
 40
11.0
 40
11.0
 40
12.0
 40
12.0
 40
12.0
 40
13.0
 40
13.0
 40
13.0
 40
13.0
 10
104.4299736609584
 20
-140.9452297282185
 10
104.2122436262907
 20
-141.1038763753143
 10
104.1192260481889
 20
-141.1779459282472
 10
104.0703056922984
 20
-141.3217786647564
 10
104.0703056922984
 20
-141.3217786647564
 10
104.8488972719648
 20
-141.3217786647564
 10
104.8488972719648
 20
-141.3217786647564
 10
104.8488972719648
 20
-141.3217786647564
 10
104.8488972719648
 20
-141.526934100903
 10
104.8488972719648
 20
-141.526934100903
 10
104.8488972719648
 20
-141.526934100903
 10
103.8208807791663
 20
-141.526934100903
 10
103.8208807791663
 20
-141.526934100903
 10
103.8525756576306
 20
-141.169333189534
 10
103.9180324718503
 20
-141.0911295220189
 10
104.3031941471013
 20
-140.7927842529962
 10
104.5591647416553
 20
-140.5940022434973
 10
104.6246215558751
 20
-140.5263061172122
 10
104.6246215558751
 20
-140.3888468073507
 10
104.6246215558751
 20
-140.2703355226581
 10
104.5526190602334
 20
-140.1390773846701
 10
104.3559041080256
 20
-140.1390773846701
 10
104.0957993988892
 20
-140.1390773846701
 10
104.0875311697246
 20
-140.3697265274075
 10
104.0830525455938
 20
-140.486170754809
 10
104.0830525455938
 20
-140.486170754809
 10
103.858776829504
 20
-140.486170754809
 10
103.858776829504
 20
-140.486170754809
 10
103.8673895682172
 20
-140.3592189861775
 10
103.8780693642214
 20
-140.2470811281327
 10
103.9583400890278
 20
-140.1285698434401
 10
104.0682386350072
 20
-139.9678561390532
 10
104.2546183007592
 20
-139.9339219485234
 10
104.3707180186121
 20
-139.9339219485234
 10
104.6480482051748
 20
-139.9339219485234
 10
104.8554429533868
 20
-140.11806230221
 10
104.8554429533868
 20
-140.3909138646419
 10
104.8554429533868
 20
-140.6193236953139
 10
104.7389987259854
 20
-140.7188869548376
 10
104.4299736609584
 20
-140.9452297282185
 97
        0
 97
        1
330
151
 75
     2
 76
     1
 98
        1
 10
0.0
 20
0.0
450
        0
451
        0
460
0.0
461
0.0
452
        0
462
0.0
453
        0
470

  0
SPLINE
  5
153
330
14D
100
AcDbEntity
  8
レイヤー 1
100
AcDbSpline
210
0.0
220
0.0
230
1.0
 70
    11
 71
     3
 72
    26
 73
    22
 74
     0
 42
0.0000000001
 43
0.0000000001
 40
0.0
 40
0.0
 40
0.0
 40
0.0
 40
1.0
 40
1.0
 40
1.0
 40
2.0
 40
2.0
 40
2.0
 40
3.0
 40
3.0
 40
3.0
 40
4.0
 40
4.0
 40
4.0
 40
5.0
 40
5.0
 40
5.0
 40
6.0
 40
6.0
 40
6.0
 40
7.0
 40
7.0
 40
7.0
 40
7.0
 10
105.465224854276
 20
-141.526934100903
 30
0.0
 10
105.465224854276
 20
-141.526934100903
 30
0.0
 10
105.465224854276
 20
-140.4226087431061
 30
0.0
 10
105.465224854276
 20
-140.4226087431061
 30
0.0
 10
105.465224854276
 20
-140.4226087431061
 30
0.0
 10
105.1351847067891
 20
-140.4226087431061
 30
0.0
 10
105.1351847067891
 20
-140.4226087431061
 30
0.0
 10
105.1351847067891
 20
-140.4226087431061
 30
0.0
 10
105.1351847067891
 20
-140.2744696372404
 30
0.0
 10
105.1351847067891
 20
-140.2744696372404
 30
0.0
 10
105.4672919115672
 20
-140.2598279814281
 30
0.0
 10
105.5139729553923
 20
-140.0968749649758
 30
0.0
 10
105.5436007765655
 20
-139.9826700496397
 30
0.0
 10
105.5436007765655
 20
-139.9826700496397
 30
0.0
 10
105.6896728251401
 20
-139.9826700496397
 30
0.0
 10
105.6896728251401
 20
-139.9826700496397
 30
0.0
 10
105.6896728251401
 20
-139.9826700496397
 30
0.0
 10
105.6896728251401
 20
-141.526934100903
 30
0.0
 10
105.6896728251401
 20
-141.526934100903
 30
0.0
 10
105.6896728251401
 20
-141.526934100903
 30
0.0
 10
105.465224854276
 20
-141.526934100903
 30
0.0
 10
105.465224854276
 20
-141.526934100903
 30
0.0
  0
HATCH
  5
154
330
14D
100
AcDbEntity
  8
レイヤー 1
 62
    18
420
        0
440
 33554687
100
AcDbHatch
 10
0.0
 20
0.0
 30
0.0
210
0.0
220
0.0
230
1.0
  2
SOLID
 70
     1
 71
     1
 91
        1
 92
        1
 93
        1
 72
     4
 94
        3
 73
     0
 74
     0
 95
       26
 96
       22
 40
0.0
 40
0.0
 40
0.0
 40
0.0
 40
1.0
 40
1.0
 40
1.0
 40
2.0
 40
2.0
 40
2.0
 40
3.0
 40
3.0
 40
3.0
 40
4.0
 40
4.0
 40
4.0
 40
5.0
 40
5.0
 40
5.0
 40
6.0
 40
6.0
 40
6.0
 40
7.0
 40
7.0
 40
7.0
 40
7.0
 10
105.465224854276
 20
-141.526934100903
 10
105.465224854276
 20
-141.526934100903
 10
105.465224854276
 20
-140.4226087431061
 10
105.465224854276
 20
-140.4226087431061
 10
105.465224854276
 20
-140.4226087431061
 10
105.1351847067891
 20
-140.4226087431061
 10
105.1351847067891
 20
-140.4226087431061
 10
105.1351847067891
 20
-140.4226087431061
 10
105.1351847067891
 20
-140.2744696372404
 10
105.1351847067891
 20
-140.2744696372404
 10
105.4672919115672
 20
-140.2598279814281
 10
105.5139729553923
 20
-140.0968749649758
 10
105.5436007765655
 20
-139.9826700496397
 10
105.5436007765655
 20
-139.9826700496397
 10
105.6896728251401
 20
-139.9826700496397
 10
105.6896728251401
 20
-139.9826700496397
 10
105.6896728251401
 20
-139.9826700496397
 10
105.6896728251401
 20
-141.526934100903
 10
105.6896728251401
 20
-141.526934100903
 10
105.6896728251401
 20
-141.526934100903
 10
105.465224854276
 20
-141.526934100903
 10
105.465224854276
 20
-141.526934100903
 97
        0
 97
        1
330
153
 75
     2
 76
     1
 98
        1
 10
0.0
 20
0.0
450
        0
451
        0
460
0.0
461
0.0
452
        0
462
0.0
453
        0
470

  0
ENDBLK
  5
150
330
14D
100
AcDbEntity
  8
0
100
AcDbBlockEnd
  0
BLOCK
  5
15A
330
158
100
AcDbEntity
  8
0
100
AcDbBlockBegin
  2
Block_9
 70
     0
 10
0.0
 20
0.0
 30
0.0
  3
Block_9
  1

  0
SPLINE
  5
15C
330
158
100
AcDbEntity
  8
レイヤー 1
100
AcDbSpline
210
0.0
220
0.0
230
1.0
 70
     9
 71
     3
 72
    17
 73
    13
 74
     0
 42
0.0000000001
 43
0.0000000001
 40
0.0
 40
0.0
 40
0.0
 40
0.0
 40
1.0
 40
1.0
 40
1.0
 40
2.0
 40
2.0
 40
2.0
 40
3.0
 40
3.0
 40
3.0
 40
4.0
 40
4.0
 40
4.0
 40
4.0
 10
91.52447371843832
 20
-140.7187147000634
 30
0.0
 10
91.26212969723656
 20
-140.7187147000634
 30
0.0
 10
91.22406139212454
 20
-140.9302435628577
 30
0.0
 10
91.22406139212454
 20
-141.0465155354849
 30
0.0
 10
91.22406139212454
 20
-141.2220431504584
 30
0.0
 10
91.3193182822917
 20
-141.3849961669107
 30
0.0
 10
91.50328638120404
 20
-141.3849961669107
 30
0.0
 10
91.62386472318779
 20
-141.3849961669107
 30
0.0
 10
91.79956459293553
 20
-141.3257405245644
 30
0.0
 10
91.79956459293553
 20
-141.0401421088372
 30
0.0
 10
91.79956459293553
 20
-140.8158663927474
 30
0.0
 10
91.65986597100864
 20
-140.7187147000634
 30
0.0
 10
91.52447371843832
 20
-140.7187147000634
 30
0.0
  0
SPLINE
  5
15D
330
158
100
AcDbEntity
  8
レイヤー 1
100
AcDbSpline
210
0.0
220
0.0
230
1.0
 70
     9
 71
     3
 72
    32
 73
    28
 74
     0
 42
0.0000000001
 43
0.0000000001
 40
0.0
 40
0.0
 40
0.0
 40
0.0
 40
1.0
 40
1.0
 40
1.0
 40
2.0
 40
2.0
 40
2.0
 40
3.0
 40
3.0
 40
3.0
 40
4.0
 40
4.0
 40
4.0
 40
5.0
 40
5.0
 40
5.0
 40
6.0
 40
6.0
 40
6.0
 40
7.0
 40
7.0
 40
7.0
 40
8.0
 40
8.0
 40
8.0
 40
9.0
 40
9.0
 40
9.0
 40
9.0
 10
91.5075927505606
 20
-141.5775770045362
 30
0.0
 10
90.99134519209592
 20
-141.5775770045362
 30
0.0
 10
90.98290470815705
 20
-141.0232611409595
 30
0.0
 10
90.98290470815705
 20
-140.8096652208739
 30
0.0
 10
90.98290470815705
 20
-140.5790160781365
 30
0.0
 10
91.00202498810018
 20
-139.931682636458
 30
0.0
 10
91.5456610556726
 20
-139.931682636458
 30
0.0
 10
91.71912161335495
 20
-139.931682636458
 30
0.0
 10
91.96441241190473
 20
-140.0014458200343
 30
0.0
 10
92.002652971791
 20
-140.3335530248124
 30
0.0
 10
92.002652971791
 20
-140.3335530248124
 30
0.0
 10
91.78888479693126
 20
-140.3335530248124
 30
0.0
 10
91.78888479693126
 20
-140.3335530248124
 30
0.0
 10
91.77837725570125
 20
-140.2765366945315
 30
0.0
 10
91.74668237723695
 20
-140.1283975886658
 30
0.0
 10
91.54359399838147
 20
-140.1283975886658
 30
0.0
 10
91.25162215600655
 20
-140.1283975886658
 30
0.0
 10
91.21131453882911
 20
-140.4563706788616
 30
0.0
 10
91.19873994030795
 20
-140.6615261150082
 30
0.0
 10
91.29175751840971
 20
-140.583322447493
 30
0.0
 10
91.35945364469487
 20
-140.5240668051467
 30
0.0
 10
91.54135468631606
 20
-140.5240668051467
 30
0.0
 10
91.72118867064609
 20
-140.5240668051467
 30
0.0
 10
92.02366805425103
 20
-140.6318982938351
 30
0.0
 10
92.02366805425103
 20
-141.038075051546
 30
0.0
 10
92.02366805425103
 20
-141.3574354030287
 30
0.0
 10
91.82488604475212
 20
-141.5775770045362
 30
0.0
 10
91.5075927505606
 20
-141.5775770045362
 30
0.0
  0
HATCH
  5
15E
330
158
100
AcDbEntity
  8
レイヤー 1
 62
    18
420
        0
440
 33554687
100
AcDbHatch
 10
0.0
 20
0.0
 30
0.0
210
0.0
220
0.0
230
1.0
  2
SOLID
 70
     1
 71
     1
 91
        2
 92
        1
 93
        1
 72
     4
 94
        3
 73
     0
 74
     0
 95
       17
 96
       13
 40
0.0
 40
0.0
 40
0.0
 40
0.0
 40
1.0
 40
1.0
 40
1.0
 40
2.0
 40
2.0
 40
2.0
 40
3.0
 40
3.0
 40
3.0
 40
4.0
 40
4.0
 40
4.0
 40
4.0
 10
91.52447371843832
 20
-140.7187147000634
 10
91.26212969723656
 20
-140.7187147000634
 10
91.22406139212454
 20
-140.9302435628577
 10
91.22406139212454
 20
-141.0465155354849
 10
91.22406139212454
 20
-141.2220431504584
 10
91.3193182822917
 20
-141.3849961669107
 10
91.50328638120404
 20
-141.3849961669107
 10
91.62386472318779
 20
-141.3849961669107
 10
91.79956459293553
 20
-141.3257405245644
 10
91.79956459293553
 20
-141.0401421088372
 10
91.79956459293553
 20
-140.8158663927474
 10
91.65986597100864
 20
-140.7187147000634
 10
91.52447371843832
 20
-140.7187147000634
 97
        0
 97
        1
330
15C
 92
        1
 93
        1
 72
     4
 94
        3
 73
     0
 74
     0
 95
       32
 96
       28
 40
0.0
 40
0.0
 40
0.0
 40
0.0
 40
1.0
 40
1.0
 40
1.0
 40
2.0
 40
2.0
 40
2.0
 40
3.0
 40
3.0
 40
3.0
 40
4.0
 40
4.0
 40
4.0
 40
5.0
 40
5.0
 40
5.0
 40
6.0
 40
6.0
 40
6.0
 40
7.0
 40
7.0
 40
7.0
 40
8.0
 40
8.0
 40
8.0
 40
9.0
 40
9.0
 40
9.0
 40
9.0
 10
91.5075927505606
 20
-141.5775770045362
 10
90.99134519209592
 20
-141.5775770045362
 10
90.98290470815705
 20
-141.0232611409595
 10
90.98290470815705
 20
-140.8096652208739
 10
90.98290470815705
 20
-140.5790160781365
 10
91.00202498810018
 20
-139.931682636458
 10
91.5456610556726
 20
-139.931682636458
 10
91.71912161335495
 20
-139.931682636458
 10
91.96441241190473
 20
-140.0014458200343
 10
92.002652971791
 20
-140.3335530248124
 10
92.002652971791
 20
-140.3335530248124
 10
91.78888479693126
 20
-140.3335530248124
 10
91.78888479693126
 20
-140.3335530248124
 10
91.77837725570125
 20
-140.2765366945315
 10
91.74668237723695
 20
-140.1283975886658
 10
91.54359399838147
 20
-140.1283975886658
 10
91.25162215600655
 20
-140.1283975886658
 10
91.21131453882911
 20
-140.4563706788616
 10
91.19873994030795
 20
-140.6615261150082
 10
91.29175751840971
 20
-140.583322447493
 10
91.35945364469487
 20
-140.5240668051467
 10
91.54135468631606
 20
-140.5240668051467
 10
91.72118867064609
 20
-140.5240668051467
 10
92.02366805425103
 20
-140.6318982938351
 10
92.02366805425103
 20
-141.038075051546
 10
92.02366805425103
 20
-141.3574354030287
 10
91.82488604475212
 20
-141.5775770045362
 10
91.5075927505606
 20
-141.5775770045362
 97
        0
 97
        1
330
15D
 75
     2
 76
     1
 98
        1
 10
0.0
 20
0.0
450
        0
451
        0
460
0.0
461
0.0
452
        0
462
0.0
453
        0
470

  0
ENDBLK
  5
15B
330
158
100
AcDbEntity
  8
0
100
AcDbBlockEnd
  0
BLOCK
  5
166
330
164
100
AcDbEntity
  8
0
100
AcDbBlockBegin
  2
Block_10
 70
     0
 10
0.0
 20
0.0
 30
0.0
  3
Block_10
  1

  0
SPLINE
  5
168
330
164
100
AcDbEntity
  8
レイヤー 1
100
AcDbSpline
210
0.0
220
0.0
230
1.0
 70
     9
 71
     3
 72
    17
 73
    13
 74
     0
 42
0.0000000001
 43
0.0000000001
 40
0.0
 40
0.0
 40
0.0
 40
0.0
 40
1.0
 40
1.0
 40
1.0
 40
2.0
 40
2.0
 40
2.0
 40
3.0
 40
3.0
 40
3.0
 40
4.0
 40
4.0
 40
4.0
 40
4.0
 10
91.30605466467349
 20
-154.8119113111234
 30
0.0
 10
91.14103459093001
 20
-154.8119113111234
 30
0.0
 10
91.05628524199287
 20
-154.9069959465163
 30
0.0
 10
91.05628524199287
 20
-155.0423881990866
 30
0.0
 10
91.05628524199287
 20
-155.1650335983615
 30
0.0
 10
91.12828773763459
 20
-155.2835448830541
 30
0.0
 10
91.30605466467349
 20
-155.2835448830541
 30
0.0
 10
91.48382159171239
 20
-155.2835448830541
 30
0.0
 10
91.5558240873541
 20
-155.1650335983615
 30
0.0
 10
91.5558240873541
 20
-155.0423881990866
 30
0.0
 10
91.5558240873541
 20
-154.9069959465163
 30
0.0
 10
91.4690076811258
 20
-154.8119113111234
 30
0.0
 10
91.30605466467349
 20
-154.8119113111234
 30
0.0
  0
SPLINE
  5
169
330
164
100
AcDbEntity
  8
レイヤー 1
100
AcDbSpline
210
0.0
220
0.0
230
1.0
 70
     9
 71
     3
 72
    17
 73
    13
 74
     0
 42
0.0000000001
 43
0.0000000001
 40
0.0
 40
0.0
 40
0.0
 40
0.0
 40
1.0
 40
1.0
 40
1.0
 40
2.0
 40
2.0
 40
2.0
 40
3.0
 40
3.0
 40
3.0
 40
4.0
 40
4.0
 40
4.0
 40
4.0
 10
91.30605466467349
 20
-155.4719916060973
 30
0.0
 10
91.16239418293856
 20
-155.4719916060973
 30
0.0
 10
91.009776452942
 20
-155.5588080123255
 30
0.0
 10
91.009776452942
 20
-155.7617241364068
 30
0.0
 10
91.009776452942
 20
-155.9670518273277
 30
0.0
 10
91.13690047634772
 20
-156.068337634594
 30
0.0
 10
91.30605466467349
 20
-156.068337634594
 30
0.0
 10
91.49208982087698
 20
-156.068337634594
 30
0.0
 10
91.60233287640497
 20
-155.9456922353191
 30
0.0
 10
91.60233287640497
 20
-155.7679253082802
 30
0.0
 10
91.60233287640497
 20
-155.5460611590301
 30
0.0
 10
91.43937985995266
 20
-155.4719916060973
 30
0.0
 10
91.30605466467349
 20
-155.4719916060973
 30
0.0
  0
SPLINE
  5
16A
330
164
100
AcDbEntity
  8
レイヤー 1
100
AcDbSpline
210
0.0
220
0.0
230
1.0
 70
     9
 71
     3
 72
    29
 73
    25
 74
     0
 42
0.0000000001
 43
0.0000000001
 40
0.0
 40
0.0
 40
0.0
 40
0.0
 40
1.0
 40
1.0
 40
1.0
 40
2.0
 40
2.0
 40
2.0
 40
3.0
 40
3.0
 40
3.0
 40
4.0
 40
4.0
 40
4.0
 40
5.0
 40
5.0
 40
5.0
 40
6.0
 40
6.0
 40
6.0
 40
7.0
 40
7.0
 40
7.0
 40
8.0
 40
8.0
 40
8.0
 40
8.0
 10
91.30605466467349
 20
-156.2629855295106
 30
0.0
 10
91.03940427411515
 20
-156.2629855295106
 30
0.0
 10
90.78550073685224
 20
-156.1255262196491
 30
0.0
 10
90.78550073685224
 20
-155.7765380469934
 30
0.0
 10
90.78550073685224
 20
-155.5205674524393
 30
0.0
 10
90.92743867084454
 20
-155.4254828170464
 30
0.0
 10
91.03320310224169
 20
-155.3641601174089
 30
0.0
 10
90.90849064567565
 20
-155.3049044750626
 30
0.0
 10
90.83235403545165
 20
-155.1905273049524
 30
0.0
 10
90.83235403545165
 20
-155.0296413457912
 30
0.0
 10
90.83235403545165
 20
-154.7547227260683
 30
0.0
 10
91.03113604495055
 20
-154.6193304734979
 30
0.0
 10
91.30605466467349
 20
-154.6193304734979
 30
0.0
 10
91.58958602310955
 20
-154.6193304734979
 30
0.0
 10
91.78009980344388
 20
-154.7633354647814
 30
0.0
 10
91.78009980344388
 20
-155.0296413457912
 30
0.0
 10
91.78009980344388
 20
-155.1905273049524
 30
0.0
 10
91.70155162638016
 20
-155.3049044750626
 30
0.0
 10
91.57683916981412
 20
-155.3641601174089
 30
0.0
 10
91.66572263333357
 20
-155.4148030210421
 30
0.0
 10
91.82454153520358
 20
-155.509887656435
 30
0.0
 10
91.82454153520358
 20
-155.772403932411
 30
0.0
 10
91.82454153520358
 20
-156.1468858116577
 30
0.0
 10
91.54514429134982
 20
-156.2629855295106
 30
0.0
 10
91.30605466467349
 20
-156.2629855295106
 30
0.0
  0
HATCH
  5
16B
330
164
100
AcDbEntity
  8
レイヤー 1
 62
    18
420
        0
440
 33554687
100
AcDbHatch
 10
0.0
 20
0.0
 30
0.0
210
0.0
220
0.0
230
1.0
  2
SOLID
 70
     1
 71
     1
 91
        3
 92
        1
 93
        1
 72
     4
 94
        3
 73
     0
 74
     0
 95
       17
 96
       13
 40
0.0
 40
0.0
 40
0.0
 40
0.0
 40
1.0
 40
1.0
 40
1.0
 40
2.0
 40
2.0
 40
2.0
 40
3.0
 40
3.0
 40
3.0
 40
4.0
 40
4.0
 40
4.0
 40
4.0
 10
91.30605466467349
 20
-154.8119113111234
 10
91.14103459093001
 20
-154.8119113111234
 10
91.05628524199287
 20
-154.9069959465163
 10
91.05628524199287
 20
-155.0423881990866
 10
91.05628524199287
 20
-155.1650335983615
 10
91.12828773763459
 20
-155.2835448830541
 10
91.30605466467349
 20
-155.2835448830541
 10
91.48382159171239
 20
-155.2835448830541
 10
91.5558240873541
 20
-155.1650335983615
 10
91.5558240873541
 20
-155.0423881990866
 10
91.5558240873541
 20
-154.9069959465163
 10
91.4690076811258
 20
-154.8119113111234
 10
91.30605466467349
 20
-154.8119113111234
 97
        0
 97
        1
330
168
 92
        1
 93
        1
 72
     4
 94
        3
 73
     0
 74
     0
 95
       17
 96
       13
 40
0.0
 40
0.0
 40
0.0
 40
0.0
 40
1.0
 40
1.0
 40
1.0
 40
2.0
 40
2.0
 40
2.0
 40
3.0
 40
3.0
 40
3.0
 40
4.0
 40
4.0
 40
4.0
 40
4.0
 10
91.30605466467349
 20
-155.4719916060973
 10
91.16239418293856
 20
-155.4719916060973
 10
91.009776452942
 20
-155.5588080123255
 10
91.009776452942
 20
-155.7617241364068
 10
91.009776452942
 20
-155.9670518273277
 10
91.13690047634772
 20
-156.068337634594
 10
91.30605466467349
 20
-156.068337634594
 10
91.49208982087698
 20
-156.068337634594
 10
91.60233287640497
 20
-155.9456922353191
 10
91.60233287640497
 20
-155.7679253082802
 10
91.60233287640497
 20
-155.5460611590301
 10
91.43937985995266
 20
-155.4719916060973
 10
91.30605466467349
 20
-155.4719916060973
 97
        0
 97
        1
330
169
 92
        1
 93
        1
 72
     4
 94
        3
 73
     0
 74
     0
 95
       29
 96
       25
 40
0.0
 40
0.0
 40
0.0
 40
0.0
 40
1.0
 40
1.0
 40
1.0
 40
2.0
 40
2.0
 40
2.0
 40
3.0
 40
3.0
 40
3.0
 40
4.0
 40
4.0
 40
4.0
 40
5.0
 40
5.0
 40
5.0
 40
6.0
 40
6.0
 40
6.0
 40
7.0
 40
7.0
 40
7.0
 40
8.0
 40
8.0
 40
8.0
 40
8.0
 10
91.30605466467349
 20
-156.2629855295106
 10
91.03940427411515
 20
-156.2629855295106
 10
90.78550073685224
 20
-156.1255262196491
 10
90.78550073685224
 20
-155.7765380469934
 10
90.78550073685224
 20
-155.5205674524393
 10
90.92743867084454
 20
-155.4254828170464
 10
91.03320310224169
 20
-155.3641601174089
 10
90.90849064567565
 20
-155.3049044750626
 10
90.83235403545165
 20
-155.1905273049524
 10
90.83235403545165
 20
-155.0296413457912
 10
90.83235403545165
 20
-154.7547227260683
 10
91.03113604495055
 20
-154.6193304734979
 10
91.30605466467349
 20
-154.6193304734979
 10
91.58958602310955
 20
-154.6193304734979
 10
91.78009980344388
 20
-154.7633354647814
 10
91.78009980344388
 20
-155.0296413457912
 10
91.78009980344388
 20
-155.1905273049524
 10
91.70155162638016
 20
-155.3049044750626
 10
91.57683916981412
 20
-155.3641601174089
 10
91.66572263333357
 20
-155.4148030210421
 10
91.82454153520358
 20
-155.509887656435
 10
91.82454153520358
 20
-155.772403932411
 10
91.82454153520358
 20
-156.1468858116577
 10
91.54514429134982
 20
-156.2629855295106
 10
91.30605466467349
 20
-156.2629855295106
 97
        0
 97
        1
330
16A
 75
     2
 76
     1
 98
        1
 10
0.0
 20
0.0
450
        0
451
        0
460
0.0
461
0.0
452
        0
462
0.0
453
        0
470

  0
ENDBLK
  5
167
330
164
100
AcDbEntity
  8
0
100
AcDbBlockEnd
  0
BLOCK
  5
16F
330
16D
100
AcDbEntity
  8
0
100
AcDbBlockBegin
  2
Block_11
 70
     0
 10
0.0
 20
0.0
 30
0.0
  3
Block_11
  1

  0
SPLINE
  5
171
330
16D
100
AcDbEntity
  8
レイヤー 1
100
AcDbSpline
210
0.0
220
0.0
230
1.0
 70
    11
 71
     3
 72
    26
 73
    22
 74
     0
 42
0.0000000001
 43
0.0000000001
 40
0.0
 40
0.0
 40
0.0
 40
0.0
 40
1.0
 40
1.0
 40
1.0
 40
2.0
 40
2.0
 40
2.0
 40
3.0
 40
3.0
 40
3.0
 40
4.0
 40
4.0
 40
4.0
 40
5.0
 40
5.0
 40
5.0
 40
6.0
 40
6.0
 40
6.0
 40
7.0
 40
7.0
 40
7.0
 40
7.0
 10
97.40249563537162
 20
-149.7331515467681
 30
0.0
 10
97.40249563537162
 20
-149.7331515467681
 30
0.0
 10
97.40249563537162
 20
-148.6288261889712
 30
0.0
 10
97.40249563537162
 20
-148.6288261889712
 30
0.0
 10
97.40249563537162
 20
-148.6288261889712
 30
0.0
 10
97.07245548788467
 20
-148.6288261889712
 30
0.0
 10
97.07245548788467
 20
-148.6288261889712
 30
0.0
 10
97.07245548788467
 20
-148.6288261889712
 30
0.0
 10
97.07245548788467
 20
-148.4806870831055
 30
0.0
 10
97.07245548788467
 20
-148.4806870831055
 30
0.0
 10
97.40456269266275
 20
-148.4660454272932
 30
0.0
 10
97.45107148171364
 20
-148.3030924108409
 30
0.0
 10
97.48069930288679
 20
-148.1888874955048
 30
0.0
 10
97.48069930288679
 20
-148.1888874955048
 30
0.0
 10
97.62677135146137
 20
-148.1888874955048
 30
0.0
 10
97.62677135146137
 20
-148.1888874955048
 30
0.0
 10
97.62677135146137
 20
-148.1888874955048
 30
0.0
 10
97.62677135146137
 20
-149.7331515467681
 30
0.0
 10
97.62677135146137
 20
-149.7331515467681
 30
0.0
 10
97.62677135146137
 20
-149.7331515467681
 30
0.0
 10
97.40249563537162
 20
-149.7331515467681
 30
0.0
 10
97.40249563537162
 20
-149.7331515467681
 30
0.0
  0
HATCH
  5
172
330
16D
100
AcDbEntity
  8
レイヤー 1
 62
    18
420
        0
440
 33554687
100
AcDbHatch
 10
0.0
 20
0.0
 30
0.0
210
0.0
220
0.0
230
1.0
  2
SOLID
 70
     1
 71
     1
 91
        1
 92
        1
 93
        1
 72
     4
 94
        3
 73
     0
 74
     0
 95
       26
 96
       22
 40
0.0
 40
0.0
 40
0.0
 40
0.0
 40
1.0
 40
1.0
 40
1.0
 40
2.0
 40
2.0
 40
2.0
 40
3.0
 40
3.0
 40
3.0
 40
4.0
 40
4.0
 40
4.0
 40
5.0
 40
5.0
 40
5.0
 40
6.0
 40
6.0
 40
6.0
 40
7.0
 40
7.0
 40
7.0
 40
7.0
 10
97.40249563537162
 20
-149.7331515467681
 10
97.40249563537162
 20
-149.7331515467681
 10
97.40249563537162
 20
-148.6288261889712
 10
97.40249563537162
 20
-148.6288261889712
 10
97.40249563537162
 20
-148.6288261889712
 10
97.07245548788467
 20
-148.6288261889712
 10
97.07245548788467
 20
-148.6288261889712
 10
97.07245548788467
 20
-148.6288261889712
 10
97.07245548788467
 20
-148.4806870831055
 10
97.07245548788467
 20
-148.4806870831055
 10
97.40456269266275
 20
-148.4660454272932
 10
97.45107148171364
 20
-148.3030924108409
 10
97.48069930288679
 20
-148.1888874955048
 10
97.48069930288679
 20
-148.1888874955048
 10
97.62677135146137
 20
-148.1888874955048
 10
97.62677135146137
 20
-148.1888874955048
 10
97.62677135146137
 20
-148.1888874955048
 10
97.62677135146137
 20
-149.7331515467681
 10
97.62677135146137
 20
-149.7331515467681
 10
97.62677135146137
 20
-149.7331515467681
 10
97.40249563537162
 20
-149.7331515467681
 10
97.40249563537162
 20
-149.7331515467681
 97
        0
 97
        1
330
171
 75
     2
 76
     1
 98
        1
 10
0.0
 20
0.0
450
        0
451
        0
460
0.0
461
0.0
452
        0
462
0.0
453
        0
470

  0
ENDBLK
  5
170
330
16D
100
AcDbEntity
  8
0
100
AcDbBlockEnd
  0
BLOCK
  5
175
330
173
100
AcDbEntity
  8
0
100
AcDbBlockBegin
  2
Block_12
 70
     0
 10
0.0
 20
0.0
 30
0.0
  3
Block_12
  1

  0
INSERT
  5
178
330
173
100
AcDbEntity
  8
レイヤー 1
100
AcDbBlockReference
  2
Block_13
 10
0.0
 20
0.0
 30
0.0
  0
INSERT
  5
17F
330
173
100
AcDbEntity
  8
レイヤー 1
100
AcDbBlockReference
  2
Block_14
 10
0.0
 20
0.0
 30
0.0
  0
ENDBLK
  5
176
330
173
100
AcDbEntity
  8
0
100
AcDbBlockEnd
  0
BLOCK
  5
179
330
177
100
AcDbEntity
  8
0
100
AcDbBlockBegin
  2
Block_13
 70
     0
 10
0.0
 20
0.0
 30
0.0
  3
Block_13
  1

  0
LINE
  5
17B
330
177
100
AcDbEntity
  8
レイヤー 1
 62
    18
420
        0
370
     9
100
AcDbLine
 10
106.8539758558455
 20
-148.4860723176007
 30
0.0
 11
107.6652941684804
 21
-149.0706956507881
 31
0.0
  0
LINE
  5
17C
330
177
100
AcDbEntity
  8
レイヤー 1
 62
    18
420
        0
370
     9
100
AcDbLine
 10
106.8539758558455
 20
-148.4860723176007
 30
0.0
 11
109.4315819011964
 21
-151.6431512057003
 31
0.0
  0
LINE
  5
17D
330
177
100
AcDbEntity
  8
レイヤー 1
 62
    18
420
        0
370
     9
100
AcDbLine
 10
106.8539758558455
 20
-148.4860723176007
 30
0.0
 11
107.2642564009339
 21
-149.398143984039
 31
0.0
  0
ENDBLK
  5
17A
330
177
100
AcDbEntity
  8
0
100
AcDbBlockEnd
  0
BLOCK
  5
180
330
17E
100
AcDbEntity
  8
0
100
AcDbBlockBegin
  2
Block_14
 70
     0
 10
0.0
 20
0.0
 30
0.0
  3
Block_14
  1

  0
INSERT
  5
183
330
17E
100
AcDbEntity
  8
レイヤー 1
100
AcDbBlockReference
  2
Block_15
 10
0.0
 20
0.0
 30
0.0
  0
ENDBLK
  5
181
330
17E
100
AcDbEntity
  8
0
100
AcDbBlockEnd
  0
BLOCK
  5
184
330
182
100
AcDbEntity
  8
0
100
AcDbBlockBegin
  2
Block_15
 70
     0
 10
0.0
 20
0.0
 30
0.0
  3
Block_15
  1

  0
SPLINE
  5
186
330
182
100
AcDbEntity
  8
レイヤー 1
100
AcDbSpline
210
0.0
220
0.0
230
1.0
 70
     9
 71
     3
 72
    17
 73
    13
 74
     0
 42
0.0000000001
 43
0.0000000001
 40
0.0
 40
0.0
 40
0.0
 40
0.0
 40
1.0
 40
1.0
 40
1.0
 40
2.0
 40
2.0
 40
2.0
 40
3.0
 40
3.0
 40
3.0
 40
4.0
 40
4.0
 40
4.0
 40
4.0
 10
111.0984727369823
 20
-152.090285877776
 30
0.0
 10
111.0815917691046
 20
-152.1199136989492
 30
0.0
 10
111.0309488654714
 20
-152.2129312770509
 30
0.0
 10
111.0202690694671
 20
-152.2318793022198
 30
0.0
 10
111.2107828498015
 20
-152.2911349445661
 30
0.0
 10
111.2317979322615
 20
-152.297680625988
 30
0.0
 10
111.3038004279032
 20
-152.3248968803216
 30
0.0
 10
111.3585774461187
 20
-152.2384249836417
 30
0.0
 10
111.3820040954184
 20
-152.1643554307089
 30
0.0
 10
111.3968180060049
 20
-152.090285877776
 30
0.0
 10
111.3968180060049
 20
-152.090285877776
 30
0.0
 10
111.0984727369823
 20
-152.090285877776
 30
0.0
 10
111.0984727369823
 20
-152.090285877776
 30
0.0
  0
SPLINE
  5
187
330
182
100
AcDbEntity
  8
レイヤー 1
100
AcDbSpline
210
0.0
220
0.0
230
1.0
 70
    11
 71
     3
 72
    20
 73
    16
 74
     0
 42
0.0000000001
 43
0.0000000001
 40
0.0
 40
0.0
 40
0.0
 40
0.0
 40
1.0
 40
1.0
 40
1.0
 40
2.0
 40
2.0
 40
2.0
 40
3.0
 40
3.0
 40
3.0
 40
4.0
 40
4.0
 40
4.0
 40
5.0
 40
5.0
 40
5.0
 40
5.0
 10
111.0350829800537
 20
-151.2396918024678
 30
0.0
 10
111.0350829800537
 20
-151.2396918024678
 30
0.0
 10
111.0033881015894
 20
-151.2396918024678
 30
0.0
 10
111.0033881015894
 20
-151.2396918024678
 30
0.0
 10
111.0498968906403
 20
-151.3392550619916
 30
0.0
 10
111.0815917691046
 20
-151.4195257867979
 30
0.0
 10
111.11535370486
 20
-151.5466498102036
 30
0.0
 10
111.11535370486
 20
-151.5466498102036
 30
0.0
 10
111.3227484530721
 20
-151.5466498102036
 30
0.0
 10
111.3227484530721
 20
-151.5466498102036
 30
0.0
 10
111.3544433315364
 20
-151.4536322321019
 30
0.0
 10
111.3778699808361
 20
-151.3688828831647
 30
0.0
 10
111.4009521205872
 20
-151.2396918024678
 30
0.0
 10
111.4009521205872
 20
-151.2396918024678
 30
0.0
 10
111.0350829800537
 20
-151.2396918024678
 30
0.0
 10
111.0350829800537
 20
-151.2396918024678
 30
0.0
  0
SPLINE
  5
188
330
182
100
AcDbEntity
  8
レイヤー 1
100
AcDbSpline
210
0.0
220
0.0
230
1.0
 70
     9
 71
     3
 72
   242
 73
   238
 74
     0
 42
0.0000000001
 43
0.0000000001
 40
0.0
 40
0.0
 40
0.0
 40
0.0
 40
1.0
 40
1.0
 40
1.0
 40
2.0
 40
2.0
 40
2.0
 40
3.0
 40
3.0
 40
3.0
 40
4.0
 40
4.0
 40
4.0
 40
5.0
 40
5.0
 40
5.0
 40
6.0
 40
6.0
 40
6.0
 40
7.0
 40
7.0
 40
7.0
 40
8.0
 40
8.0
 40
8.0
 40
9.0
 40
9.0
 40
9.0
 40
10.0
 40
10.0
 40
10.0
 40
11.0
 40
11.0
 40
11.0
 40
12.0
 40
12.0
 40
12.0
 40
13.0
 40
13.0
 40
13.0
 40
14.0
 40
14.0
 40
14.0
 40
15.0
 40
15.0
 40
15.0
 40
16.0
 40
16.0
 40
16.0
 40
17.0
 40
17.0
 40
17.0
 40
18.0
 40
18.0
 40
18.0
 40
19.0
 40
19.0
 40
19.0
 40
20.0
 40
20.0
 40
20.0
 40
21.0
 40
21.0
 40
21.0
 40
22.0
 40
22.0
 40
22.0
 40
23.0
 40
23.0
 40
23.0
 40
24.0
 40
24.0
 40
24.0
 40
25.0
 40
25.0
 40
25.0
 40
26.0
 40
26.0
 40
26.0
 40
27.0
 40
27.0
 40
27.0
 40
28.0
 40
28.0
 40
28.0
 40
29.0
 40
29.0
 40
29.0
 40
30.0
 40
30.0
 40
30.0
 40
31.0
 40
31.0
 40
31.0
 40
32.0
 40
32.0
 40
32.0
 40
33.0
 40
33.0
 40
33.0
 40
34.0
 40
34.0
 40
34.0
 40
35.0
 40
35.0
 40
35.0
 40
36.0
 40
36.0
 40
36.0
 40
37.0
 40
37.0
 40
37.0
 40
38.0
 40
38.0
 40
38.0
 40
39.0
 40
39.0
 40
39.0
 40
40.0
 40
40.0
 40
40.0
 40
41.0
 40
41.0
 40
41.0
 40
42.0
 40
42.0
 40
42.0
 40
43.0
 40
43.0
 40
43.0
 40
44.0
 40
44.0
 40
44.0
 40
45.0
 40
45.0
 40
45.0
 40
46.0
 40
46.0
 40
46.0
 40
47.0
 40
47.0
 40
47.0
 40
48.0
 40
48.0
 40
48.0
 40
49.0
 40
49.0
 40
49.0
 40
50.0
 40
50.0
 40
50.0
 40
51.0
 40
51.0
 40
51.0
 40
52.0
 40
52.0
 40
52.0
 40
53.0
 40
53.0
 40
53.0
 40
54.0
 40
54.0
 40
54.0
 40
55.0
 40
55.0
 40
55.0
 40
56.0
 40
56.0
 40
56.0
 40
57.0
 40
57.0
 40
57.0
 40
58.0
 40
58.0
 40
58.0
 40
59.0
 40
59.0
 40
59.0
 40
60.0
 40
60.0
 40
60.0
 40
61.0
 40
61.0
 40
61.0
 40
62.0
 40
62.0
 40
62.0
 40
63.0
 40
63.0
 40
63.0
 40
64.0
 40
64.0
 40
64.0
 40
65.0
 40
65.0
 40
65.0
 40
66.0
 40
66.0
 40
66.0
 40
67.0
 40
67.0
 40
67.0
 40
68.0
 40
68.0
 40
68.0
 40
69.0
 40
69.0
 40
69.0
 40
70.0
 40
70.0
 40
70.0
 40
71.0
 40
71.0
 40
71.0
 40
72.0
 40
72.0
 40
72.0
 40
73.0
 40
73.0
 40
73.0
 40
74.0
 40
74.0
 40
74.0
 40
75.0
 40
75.0
 40
75.0
 40
76.0
 40
76.0
 40
76.0
 40
77.0
 40
77.0
 40
77.0
 40
78.0
 40
78.0
 40
78.0
 40
79.0
 40
79.0
 40
79.0
 40
79.0
 10
111.6634683965633
 20
-151.7051242025251
 30
0.0
 10
111.6634683965633
 20
-151.7051242025251
 30
0.0
 10
111.4095648593004
 20
-151.7051242025251
 30
0.0
 10
111.4095648593004
 20
-151.7051242025251
 30
0.0
 10
111.4095648593004
 20
-151.7051242025251
 30
0.0
 10
111.1322346727378
 20
-151.7051242025251
 30
0.0
 10
111.1322346727378
 20
-151.7051242025251
 30
0.0
 10
111.1322346727378
 20
-151.7051242025251
 30
0.0
 10
111.2593586961435
 20
-151.7474988769937
 30
0.0
 10
111.2593586961435
 20
-151.7474988769937
 30
0.0
 10
111.2700384921478
 20
-151.7516329915759
 30
0.0
 10
111.2824408358946
 20
-151.7581786729979
 30
0.0
 10
111.2824408358946
 20
-151.7709255262934
 30
0.0
 10
111.2824408358946
 20
-151.7919406087534
 30
0.0
 10
111.2507459574303
 20
-151.7981417806268
 30
0.0
 10
111.2297308749703
 20
-151.8026204047576
 30
0.0
 10
111.2190510789661
 20
-151.8257025445088
 30
0.0
 10
111.1894232577929
 20
-151.8915038682771
 30
0.0
 10
111.170475232624
 20
-151.9359456000368
 30
0.0
 10
111.170475232624
 20
-151.9359456000368
 30
0.0
 10
111.4412597377647
 20
-151.9359456000368
 30
0.0
 10
111.4412597377647
 20
-151.9359456000368
 30
0.0
 10
111.5322102585753
 20
-151.9359456000368
 30
0.0
 10
111.728925210783
 20
-151.931466975906
 30
0.0
 10
111.8705186352268
 20
-151.9231987467414
 30
0.0
 10
111.8705186352268
 20
-151.9231987467414
 30
0.0
 10
111.8705186352268
 20
-152.1009656737803
 30
0.0
 10
111.8705186352268
 20
-152.1009656737803
 30
0.0
 10
111.7881808531293
 20
-152.0964870496495
 30
0.0
 10
111.7671657706693
 20
-152.0964870496495
 30
0.0
 10
111.5873317863393
 20
-152.0923529350672
 30
0.0
 10
111.5556369078749
 20
-152.2466932128063
 30
0.0
 10
111.5111951761152
 20
-152.3273084471612
 30
0.0
 10
111.4667534443555
 20
-152.3968993759632
 30
0.0
 10
111.5873317863393
 20
-152.4561550183095
 30
0.0
 10
111.6930962177364
 20
-152.524023399369
 30
0.0
 10
111.7967935918424
 20
-152.6063611814664
 30
0.0
 10
111.7967935918424
 20
-152.6063611814664
 30
0.0
 10
111.6782823071499
 20
-152.7734483125011
 30
0.0
 10
111.6782823071499
 20
-152.7734483125011
 30
0.0
 10
111.6548556578502
 20
-152.7545002873322
 30
0.0
 10
111.6421088045547
 20
-152.7458875486191
 30
0.0
 10
111.5301432012841
 20
-152.6614827092305
 30
0.0
 10
111.4815673549421
 20
-152.6232421493442
 30
0.0
 10
111.4223117125958
 20
-152.5874131562976
 30
0.0
 10
111.3416964782409
 20
-152.5429714245379
 30
0.0
 10
111.1301676154466
 20
-152.7290065807413
 30
0.0
 10
110.9251844340742
 20
-152.7524332300411
 30
0.0
 10
110.6351073942162
 20
-152.7820610512142
 30
0.0
 10
110.6351073942162
 20
-152.7820610512142
 30
0.0
 10
110.5314100201102
 20
-152.6022270668842
 30
0.0
 10
110.5314100201102
 20
-152.6022270668842
 30
0.0
 10
110.8490478238502
 20
-152.5980929523018
 30
0.0
 10
111.0244031840494
 20
-152.572599245711
 30
0.0
 10
111.1766764044975
 20
-152.4627006997315
 30
0.0
 10
111.0581651198049
 20
-152.4117132865498
 30
0.0
 10
110.969626165834
 20
-152.3841525226678
 30
0.0
 10
110.9334526632388
 20
-152.3717501789209
 30
0.0
 10
110.9145046380699
 20
-152.3989664332544
 30
0.0
 10
110.8996907274834
 20
-152.4182589679718
 30
0.0
 10
110.8721299636014
 20
-152.4520209037273
 30
0.0
 10
110.8721299636014
 20
-152.4520209037273
 30
0.0
 10
110.6754150113936
 20
-152.3693386120813
 30
0.0
 10
110.6754150113936
 20
-152.3693386120813
 30
0.0
 10
110.7577527934911
 20
-152.2890678872749
 30
0.0
 10
110.8194200026771
 20
-152.193983251882
 30
0.0
 10
110.8762640781837
 20
-152.0923529350672
 30
0.0
 10
110.6860948073979
 20
-152.0964870496495
 30
0.0
 10
110.6647352153893
 20
-152.0964870496495
 30
0.0
 10
110.5823974332919
 20
-152.1009656737803
 30
0.0
 10
110.5823974332919
 20
-152.1009656737803
 30
0.0
 10
110.5823974332919
 20
-151.9231987467414
 30
0.0
 10
110.5823974332919
 20
-151.9231987467414
 30
0.0
 10
110.7219238004445
 20
-151.9293999186148
 30
0.0
 10
110.9313856059477
 20
-151.9335340331972
 30
0.0
 10
110.9568793125385
 20
-151.9335340331972
 30
0.0
 10
110.9737602804163
 20
-151.8997720974417
 30
0.0
 10
111.0285372986317
 20
-151.779193755458
 30
0.0
 10
111.0478298333491
 20
-151.7051242025251
 30
0.0
 10
111.0285372986317
 20
-151.7051242025251
 30
0.0
 10
110.8511148811414
 20
-151.7116698839471
 30
0.0
 10
110.6564669862247
 20
-151.7244167372425
 30
0.0
 10
110.6564669862247
 20
-151.7244167372425
 30
0.0
 10
110.6564669862247
 20
-151.8573974229731
 30
0.0
 10
110.6564669862247
 20
-151.8573974229731
 30
0.0
 10
110.6078911398827
 20
-151.882891129564
 30
0.0
 10
110.5486354975364
 20
-151.9145860080283
 30
0.0
 10
110.4153103022573
 20
-151.9803873317965
 30
0.0
 10
110.4153103022573
 20
-151.9803873317965
 30
0.0
 10
110.4153103022573
 20
-152.1261148708226
 30
0.0
 10
110.4153103022573
 20
-152.1261148708226
 30
0.0
 10
110.4153103022573
 20
-152.1261148708226
 30
0.0
 10
110.4153103022573
 20
-152.593614328171
 30
0.0
 10
110.4153103022573
 20
-152.593614328171
 30
0.0
 10
110.4153103022573
 20
-152.7207383515767
 30
0.0
 10
110.3791367996621
 20
-152.779993993923
 30
0.0
 10
110.0956054412261
 20
-152.7713812552099
 30
0.0
 10
110.0956054412261
 20
-152.7713812552099
 30
0.0
 10
109.9922525766686
 20
-152.5639865069979
 30
0.0
 10
109.9922525766686
 20
-152.5639865069979
 30
0.0
 10
110.0556423335972
 20
-152.5767333602933
 30
0.0
 10
110.1042181799392
 20
-152.5812119844241
 30
0.0
 10
110.1445257971166
 20
-152.5812119844241
 30
0.0
 10
110.2206624073406
 20
-152.5812119844241
 30
0.0
 10
110.2309976937964
 20
-152.5577853351244
 30
0.0
 10
110.2309976937964
 20
-152.4923285209047
 30
0.0
 10
110.2309976937964
 20
-152.4923285209047
 30
0.0
 10
110.2309976937964
 20
-152.062725113894
 30
0.0
 10
110.2309976937964
 20
-152.062725113894
 30
0.0
 10
110.1338460011124
 20
-152.1030327310714
 30
0.0
 10
110.1169650332346
 20
-152.1092339029449
 30
0.0
 10
110.0704562441837
 20
-152.1281819281138
 30
0.0
 10
110.0663221296015
 20
-152.1495415201223
 30
0.0
 10
110.0618435054706
 20
-152.1791693412955
 30
0.0
 10
110.0428954803017
 20
-152.1791693412955
 30
0.0
 10
110.0342827415886
 20
-152.1791693412955
 30
0.0
 10
110.0239474551329
 20
-152.1746907171646
 30
0.0
 10
110.0174017737109
 20
-152.1516085774135
 30
0.0
 10
110.0174017737109
 20
-152.1516085774135
 30
0.0
 10
109.9646918127866
 20
-151.959027739788
 30
0.0
 10
109.9646918127866
 20
-151.959027739788
 30
0.0
 10
110.1104193518127
 20
-151.9125189507371
 30
0.0
 10
110.1762206755809
 20
-151.889436810986
 30
0.0
 10
110.2309976937964
 20
-151.8680772189774
 30
0.0
 10
110.2309976937964
 20
-151.8680772189774
 30
0.0
 10
110.2309976937964
 20
-151.455699289393
 30
0.0
 10
110.2309976937964
 20
-151.455699289393
 30
0.0
 10
110.2309976937964
 20
-151.455699289393
 30
0.0
 10
110.1782877328721
 20
-151.455699289393
 30
0.0
 10
110.1782877328721
 20
-151.455699289393
 30
0.0
 10
110.1782877328721
 20
-151.455699289393
 30
0.0
 10
110.1000840653569
 20
-151.455699289393
 30
0.0
 10
110.1000840653569
 20
-151.455699289393
 30
0.0
 10
110.0322156842975
 20
-151.455699289393
 30
0.0
 10
110.0239474551329
 20
-151.455699289393
 30
0.0
 10
109.9877739525378
 20
-151.4619004612665
 30
0.0
 10
109.9877739525378
 20
-151.4619004612665
 30
0.0
 10
109.9877739525378
 20
-151.2672525663498
 30
0.0
 10
109.9877739525378
 20
-151.2672525663498
 30
0.0
 10
110.0153347164198
 20
-151.2737982477718
 30
0.0
 10
110.0239474551329
 20
-151.2737982477718
 30
0.0
 10
110.0935383839349
 20
-151.2737982477718
 30
0.0
 10
110.0935383839349
 20
-151.2737982477718
 30
0.0
 10
110.2268635792141
 20
-151.2737982477718
 30
0.0
 10
110.2268635792141
 20
-151.2737982477718
 30
0.0
 10
110.2268635792141
 20
-151.2038628094212
 30
0.0
 10
110.2268635792141
 20
-151.1211805177752
 30
0.0
 10
110.2247965219229
 20
-151.1170464031929
 30
0.0
 10
110.2161837832098
 20
-150.9372124188629
 30
0.0
 10
110.2161837832098
 20
-150.918264393694
 30
0.0
 10
110.2141167259187
 20
-150.8717556046431
 30
0.0
 10
110.2141167259187
 20
-150.8717556046431
 30
0.0
 10
110.4301242128438
 20
-150.8800238338077
 30
0.0
 10
110.4301242128438
 20
-150.8800238338077
 30
0.0
 10
110.4404594992996
 20
-150.8800238338077
 30
0.0
 10
110.4618190913081
 20
-150.8824354006474
 30
0.0
 10
110.4618190913081
 20
-150.8993163685252
 30
0.0
 10
110.4618190913081
 20
-150.918264393694
 30
0.0
 10
110.4470051807216
 20
-150.9289441896983
 30
0.0
 10
110.4215114741307
 20
-150.9478922148672
 30
0.0
 10
110.4215114741307
 20
-150.9985351185003
 30
0.0
 10
110.4153103022573
 20
-151.2272894587209
 30
0.0
 10
110.4173773595484
 20
-151.2737982477718
 30
0.0
 10
110.5462239306968
 20
-151.2737982477718
 30
0.0
 10
110.5589707839922
 20
-151.2737982477718
 30
0.0
 10
110.6564669862247
 20
-151.2651855090587
 30
0.0
 10
110.6564669862247
 20
-151.2651855090587
 30
0.0
 10
110.6564669862247
 20
-151.4598334039753
 30
0.0
 10
110.6564669862247
 20
-151.4598334039753
 30
0.0
 10
110.6182264263385
 20
-151.4577663466841
 30
0.0
 10
110.5507025548276
 20
-151.4536322321019
 30
0.0
 10
110.4153103022573
 20
-151.455699289393
 30
0.0
 10
110.4153103022573
 20
-151.455699289393
 30
0.0
 10
110.4153103022573
 20
-151.7940076660445
 30
0.0
 10
110.4153103022573
 20
-151.7940076660445
 30
0.0
 10
110.4700873204727
 20
-151.7709255262934
 30
0.0
 10
110.535888644241
 20
-151.7433647624113
 30
0.0
 10
110.584464490583
 20
-151.7199381131117
 30
0.0
 10
110.584464490583
 20
-151.7199381131117
 30
0.0
 10
110.584464490583
 20
-151.5421711860728
 30
0.0
 10
110.584464490583
 20
-151.5421711860728
 30
0.0
 10
110.6988416606933
 20
-151.5549180393682
 30
0.0
 10
110.8170084358374
 20
-151.5549180393682
 30
0.0
 10
110.9334526632388
 20
-151.5549180393682
 30
0.0
 10
110.9103705234877
 20
-151.4598334039753
 30
0.0
 10
110.8828097596057
 20
-151.3771511123293
 30
0.0
 10
110.8194200026771
 20
-151.2441704265986
 30
0.0
 10
110.7749782709174
 20
-151.2462374838898
 30
0.0
 10
110.6922959792713
 20
-151.2503715984721
 30
0.0
 10
110.6543999289336
 20
-151.2524386557633
 30
0.0
 10
110.6543999289336
 20
-151.2524386557633
 30
0.0
 10
110.6543999289336
 20
-151.0726046714332
 30
0.0
 10
110.6543999289336
 20
-151.0726046714332
 30
0.0
 10
110.7791123854996
 20
-151.0812174101463
 30
0.0
 10
110.9524006884077
 20
-151.0853515247287
 30
0.0
 10
111.0350829800537
 20
-151.0853515247287
 30
0.0
 10
111.0350829800537
 20
-151.0853515247287
 30
0.0
 10
111.1174207621512
 20
-151.0853515247287
 30
0.0
 10
111.1174207621512
 20
-151.0853515247287
 30
0.0
 10
111.1174207621512
 20
-150.9223985082763
 30
0.0
 10
111.1174207621512
 20
-150.9120632218206
 30
0.0
 10
111.11535370486
 20
-150.8569416940566
 30
0.0
 10
111.11535370486
 20
-150.8569416940566
 30
0.0
 10
111.3396294209498
 20
-150.8824354006474
 30
0.0
 10
111.3396294209498
 20
-150.8824354006474
 30
0.0
 10
111.3437635355321
 20
-150.8824354006474
 30
0.0
 10
111.3651231275406
 20
-150.8845024579386
 30
0.0
 10
111.3651231275406
 20
-150.9013834258163
 30
0.0
 10
111.3651231275406
 20
-150.9161973364029
 30
0.0
 10
111.3544433315364
 20
-150.9244655655675
 30
0.0
 10
111.3268825676544
 20
-150.939279476154
 30
0.0
 10
111.3206813957809
 20
-151.0050807999223
 30
0.0
 10
111.3186143384898
 20
-151.0260958823824
 30
0.0
 10
111.3186143384898
 20
-151.0853515247287
 30
0.0
 10
111.3186143384898
 20
-151.0853515247287
 30
0.0
 10
111.4136989738827
 20
-151.0853515247287
 30
0.0
 10
111.4136989738827
 20
-151.0853515247287
 30
0.0
 10
111.4963812655286
 20
-151.0853515247287
 30
0.0
 10
111.6696695684367
 20
-151.0812174101463
 30
0.0
 10
111.7943820250028
 20
-151.0726046714332
 30
0.0
 10
111.7943820250028
 20
-151.0726046714332
 30
0.0
 10
111.7943820250028
 20
-151.2524386557633
 30
0.0
 10
111.7943820250028
 20
-151.2524386557633
 30
0.0
 10
111.7647542038296
 20
-151.2503715984721
 30
0.0
 10
111.6465874286856
 20
-151.2462374838898
 30
0.0
 10
111.6062798115081
 20
-151.2441704265986
 30
0.0
 10
111.5914659009215
 20
-151.2948133302318
 30
0.0
 10
111.5577039651661
 20
-151.4067789335024
 30
0.0
 10
111.4919026413978
 20
-151.5466498102036
 30
0.0
 10
111.5342773158664
 20
-151.5466498102036
 30
0.0
 10
111.811607502429
 20
-151.5273572754862
 30
0.0
 10
111.8729302020665
 20
-151.525290218195
 30
0.0
 10
111.8729302020665
 20
-151.525290218195
 30
0.0
 10
111.8729302020665
 20
-151.7096028266559
 30
0.0
 10
111.8729302020665
 20
-151.7096028266559
 30
0.0
 10
111.8433023808933
 20
-151.7096028266559
 30
0.0
 10
111.8264214130156
 20
-151.7051242025251
 30
0.0
 10
111.6634683965633
 20
-151.7051242025251
 30
0.0
  0
HATCH
  5
189
330
182
100
AcDbEntity
  8
レイヤー 1
 62
    18
420
        0
440
 33554687
100
AcDbHatch
 10
0.0
 20
0.0
 30
0.0
210
0.0
220
0.0
230
1.0
  2
SOLID
 70
     1
 71
     1
 91
        3
 92
        1
 93
        1
 72
     4
 94
        3
 73
     0
 74
     0
 95
       17
 96
       13
 40
0.0
 40
0.0
 40
0.0
 40
0.0
 40
1.0
 40
1.0
 40
1.0
 40
2.0
 40
2.0
 40
2.0
 40
3.0
 40
3.0
 40
3.0
 40
4.0
 40
4.0
 40
4.0
 40
4.0
 10
111.0984727369823
 20
-152.090285877776
 10
111.0815917691046
 20
-152.1199136989492
 10
111.0309488654714
 20
-152.2129312770509
 10
111.0202690694671
 20
-152.2318793022198
 10
111.2107828498015
 20
-152.2911349445661
 10
111.2317979322615
 20
-152.297680625988
 10
111.3038004279032
 20
-152.3248968803216
 10
111.3585774461187
 20
-152.2384249836417
 10
111.3820040954184
 20
-152.1643554307089
 10
111.3968180060049
 20
-152.090285877776
 10
111.3968180060049
 20
-152.090285877776
 10
111.0984727369823
 20
-152.090285877776
 10
111.0984727369823
 20
-152.090285877776
 97
        0
 97
        1
330
186
 92
        1
 93
        1
 72
     4
 94
        3
 73
     0
 74
     0
 95
       20
 96
       16
 40
0.0
 40
0.0
 40
0.0
 40
0.0
 40
1.0
 40
1.0
 40
1.0
 40
2.0
 40
2.0
 40
2.0
 40
3.0
 40
3.0
 40
3.0
 40
4.0
 40
4.0
 40
4.0
 40
5.0
 40
5.0
 40
5.0
 40
5.0
 10
111.0350829800537
 20
-151.2396918024678
 10
111.0350829800537
 20
-151.2396918024678
 10
111.0033881015894
 20
-151.2396918024678
 10
111.0033881015894
 20
-151.2396918024678
 10
111.0498968906403
 20
-151.3392550619916
 10
111.0815917691046
 20
-151.4195257867979
 10
111.11535370486
 20
-151.5466498102036
 10
111.11535370486
 20
-151.5466498102036
 10
111.3227484530721
 20
-151.5466498102036
 10
111.3227484530721
 20
-151.5466498102036
 10
111.3544433315364
 20
-151.4536322321019
 10
111.3778699808361
 20
-151.3688828831647
 10
111.4009521205872
 20
-151.2396918024678
 10
111.4009521205872
 20
-151.2396918024678
 10
111.0350829800537
 20
-151.2396918024678
 10
111.0350829800537
 20
-151.2396918024678
 97
        0
 97
        1
330
187
 92
        1
 93
        1
 72
     4
 94
        3
 73
     0
 74
     0
 95
      242
 96
      238
 40
0.0
 40
0.0
 40
0.0
 40
0.0
 40
1.0
 40
1.0
 40
1.0
 40
2.0
 40
2.0
 40
2.0
 40
3.0
 40
3.0
 40
3.0
 40
4.0
 40
4.0
 40
4.0
 40
5.0
 40
5.0
 40
5.0
 40
6.0
 40
6.0
 40
6.0
 40
7.0
 40
7.0
 40
7.0
 40
8.0
 40
8.0
 40
8.0
 40
9.0
 40
9.0
 40
9.0
 40
10.0
 40
10.0
 40
10.0
 40
11.0
 40
11.0
 40
11.0
 40
12.0
 40
12.0
 40
12.0
 40
13.0
 40
13.0
 40
13.0
 40
14.0
 40
14.0
 40
14.0
 40
15.0
 40
15.0
 40
15.0
 40
16.0
 40
16.0
 40
16.0
 40
17.0
 40
17.0
 40
17.0
 40
18.0
 40
18.0
 40
18.0
 40
19.0
 40
19.0
 40
19.0
 40
20.0
 40
20.0
 40
20.0
 40
21.0
 40
21.0
 40
21.0
 40
22.0
 40
22.0
 40
22.0
 40
23.0
 40
23.0
 40
23.0
 40
24.0
 40
24.0
 40
24.0
 40
25.0
 40
25.0
 40
25.0
 40
26.0
 40
26.0
 40
26.0
 40
27.0
 40
27.0
 40
27.0
 40
28.0
 40
28.0
 40
28.0
 40
29.0
 40
29.0
 40
29.0
 40
30.0
 40
30.0
 40
30.0
 40
31.0
 40
31.0
 40
31.0
 40
32.0
 40
32.0
 40
32.0
 40
33.0
 40
33.0
 40
33.0
 40
34.0
 40
34.0
 40
34.0
 40
35.0
 40
35.0
 40
35.0
 40
36.0
 40
36.0
 40
36.0
 40
37.0
 40
37.0
 40
37.0
 40
38.0
 40
38.0
 40
38.0
 40
39.0
 40
39.0
 40
39.0
 40
40.0
 40
40.0
 40
40.0
 40
41.0
 40
41.0
 40
41.0
 40
42.0
 40
42.0
 40
42.0
 40
43.0
 40
43.0
 40
43.0
 40
44.0
 40
44.0
 40
44.0
 40
45.0
 40
45.0
 40
45.0
 40
46.0
 40
46.0
 40
46.0
 40
47.0
 40
47.0
 40
47.0
 40
48.0
 40
48.0
 40
48.0
 40
49.0
 40
49.0
 40
49.0
 40
50.0
 40
50.0
 40
50.0
 40
51.0
 40
51.0
 40
51.0
 40
52.0
 40
52.0
 40
52.0
 40
53.0
 40
53.0
 40
53.0
 40
54.0
 40
54.0
 40
54.0
 40
55.0
 40
55.0
 40
55.0
 40
56.0
 40
56.0
 40
56.0
 40
57.0
 40
57.0
 40
57.0
 40
58.0
 40
58.0
 40
58.0
 40
59.0
 40
59.0
 40
59.0
 40
60.0
 40
60.0
 40
60.0
 40
61.0
 40
61.0
 40
61.0
 40
62.0
 40
62.0
 40
62.0
 40
63.0
 40
63.0
 40
63.0
 40
64.0
 40
64.0
 40
64.0
 40
65.0
 40
65.0
 40
65.0
 40
66.0
 40
66.0
 40
66.0
 40
67.0
 40
67.0
 40
67.0
 40
68.0
 40
68.0
 40
68.0
 40
69.0
 40
69.0
 40
69.0
 40
70.0
 40
70.0
 40
70.0
 40
71.0
 40
71.0
 40
71.0
 40
72.0
 40
72.0
 40
72.0
 40
73.0
 40
73.0
 40
73.0
 40
74.0
 40
74.0
 40
74.0
 40
75.0
 40
75.0
 40
75.0
 40
76.0
 40
76.0
 40
76.0
 40
77.0
 40
77.0
 40
77.0
 40
78.0
 40
78.0
 40
78.0
 40
79.0
 40
79.0
 40
79.0
 40
79.0
 10
111.6634683965633
 20
-151.7051242025251
 10
111.6634683965633
 20
-151.7051242025251
 10
111.4095648593004
 20
-151.7051242025251
 10
111.4095648593004
 20
-151.7051242025251
 10
111.4095648593004
 20
-151.7051242025251
 10
111.1322346727378
 20
-151.7051242025251
 10
111.1322346727378
 20
-151.7051242025251
 10
111.1322346727378
 20
-151.7051242025251
 10
111.2593586961435
 20
-151.7474988769937
 10
111.2593586961435
 20
-151.7474988769937
 10
111.2700384921478
 20
-151.7516329915759
 10
111.2824408358946
 20
-151.7581786729979
 10
111.2824408358946
 20
-151.7709255262934
 10
111.2824408358946
 20
-151.7919406087534
 10
111.2507459574303
 20
-151.7981417806268
 10
111.2297308749703
 20
-151.8026204047576
 10
111.2190510789661
 20
-151.8257025445088
 10
111.1894232577929
 20
-151.8915038682771
 10
111.170475232624
 20
-151.9359456000368
 10
111.170475232624
 20
-151.9359456000368
 10
111.4412597377647
 20
-151.9359456000368
 10
111.4412597377647
 20
-151.9359456000368
 10
111.5322102585753
 20
-151.9359456000368
 10
111.728925210783
 20
-151.931466975906
 10
111.8705186352268
 20
-151.9231987467414
 10
111.8705186352268
 20
-151.9231987467414
 10
111.8705186352268
 20
-152.1009656737803
 10
111.8705186352268
 20
-152.1009656737803
 10
111.7881808531293
 20
-152.0964870496495
 10
111.7671657706693
 20
-152.0964870496495
 10
111.5873317863393
 20
-152.0923529350672
 10
111.5556369078749
 20
-152.2466932128063
 10
111.5111951761152
 20
-152.3273084471612
 10
111.4667534443555
 20
-152.3968993759632
 10
111.5873317863393
 20
-152.4561550183095
 10
111.6930962177364
 20
-152.524023399369
 10
111.7967935918424
 20
-152.6063611814664
 10
111.7967935918424
 20
-152.6063611814664
 10
111.6782823071499
 20
-152.7734483125011
 10
111.6782823071499
 20
-152.7734483125011
 10
111.6548556578502
 20
-152.7545002873322
 10
111.6421088045547
 20
-152.7458875486191
 10
111.5301432012841
 20
-152.6614827092305
 10
111.4815673549421
 20
-152.6232421493442
 10
111.4223117125958
 20
-152.5874131562976
 10
111.3416964782409
 20
-152.5429714245379
 10
111.1301676154466
 20
-152.7290065807413
 10
110.9251844340742
 20
-152.7524332300411
 10
110.6351073942162
 20
-152.7820610512142
 10
110.6351073942162
 20
-152.7820610512142
 10
110.5314100201102
 20
-152.6022270668842
 10
110.5314100201102
 20
-152.6022270668842
 10
110.8490478238502
 20
-152.5980929523018
 10
111.0244031840494
 20
-152.572599245711
 10
111.1766764044975
 20
-152.4627006997315
 10
111.0581651198049
 20
-152.4117132865498
 10
110.969626165834
 20
-152.3841525226678
 10
110.9334526632388
 20
-152.3717501789209
 10
110.9145046380699
 20
-152.3989664332544
 10
110.8996907274834
 20
-152.4182589679718
 10
110.8721299636014
 20
-152.4520209037273
 10
110.8721299636014
 20
-152.4520209037273
 10
110.6754150113936
 20
-152.3693386120813
 10
110.6754150113936
 20
-152.3693386120813
 10
110.7577527934911
 20
-152.2890678872749
 10
110.8194200026771
 20
-152.193983251882
 10
110.8762640781837
 20
-152.0923529350672
 10
110.6860948073979
 20
-152.0964870496495
 10
110.6647352153893
 20
-152.0964870496495
 10
110.5823974332919
 20
-152.1009656737803
 10
110.5823974332919
 20
-152.1009656737803
 10
110.5823974332919
 20
-151.9231987467414
 10
110.5823974332919
 20
-151.9231987467414
 10
110.7219238004445
 20
-151.9293999186148
 10
110.9313856059477
 20
-151.9335340331972
 10
110.9568793125385
 20
-151.9335340331972
 10
110.9737602804163
 20
-151.8997720974417
 10
111.0285372986317
 20
-151.779193755458
 10
111.0478298333491
 20
-151.7051242025251
 10
111.0285372986317
 20
-151.7051242025251
 10
110.8511148811414
 20
-151.7116698839471
 10
110.6564669862247
 20
-151.7244167372425
 10
110.6564669862247
 20
-151.7244167372425
 10
110.6564669862247
 20
-151.8573974229731
 10
110.6564669862247
 20
-151.8573974229731
 10
110.6078911398827
 20
-151.882891129564
 10
110.5486354975364
 20
-151.9145860080283
 10
110.4153103022573
 20
-151.9803873317965
 10
110.4153103022573
 20
-151.9803873317965
 10
110.4153103022573
 20
-152.1261148708226
 10
110.4153103022573
 20
-152.1261148708226
 10
110.4153103022573
 20
-152.1261148708226
 10
110.4153103022573
 20
-152.593614328171
 10
110.4153103022573
 20
-152.593614328171
 10
110.4153103022573
 20
-152.7207383515767
 10
110.3791367996621
 20
-152.779993993923
 10
110.0956054412261
 20
-152.7713812552099
 10
110.0956054412261
 20
-152.7713812552099
 10
109.9922525766686
 20
-152.5639865069979
 10
109.9922525766686
 20
-152.5639865069979
 10
110.0556423335972
 20
-152.5767333602933
 10
110.1042181799392
 20
-152.5812119844241
 10
110.1445257971166
 20
-152.5812119844241
 10
110.2206624073406
 20
-152.5812119844241
 10
110.2309976937964
 20
-152.5577853351244
 10
110.2309976937964
 20
-152.4923285209047
 10
110.2309976937964
 20
-152.4923285209047
 10
110.2309976937964
 20
-152.062725113894
 10
110.2309976937964
 20
-152.062725113894
 10
110.1338460011124
 20
-152.1030327310714
 10
110.1169650332346
 20
-152.1092339029449
 10
110.0704562441837
 20
-152.1281819281138
 10
110.0663221296015
 20
-152.1495415201223
 10
110.0618435054706
 20
-152.1791693412955
 10
110.0428954803017
 20
-152.1791693412955
 10
110.0342827415886
 20
-152.1791693412955
 10
110.0239474551329
 20
-152.1746907171646
 10
110.0174017737109
 20
-152.1516085774135
 10
110.0174017737109
 20
-152.1516085774135
 10
109.9646918127866
 20
-151.959027739788
 10
109.9646918127866
 20
-151.959027739788
 10
110.1104193518127
 20
-151.9125189507371
 10
110.1762206755809
 20
-151.889436810986
 10
110.2309976937964
 20
-151.8680772189774
 10
110.2309976937964
 20
-151.8680772189774
 10
110.2309976937964
 20
-151.455699289393
 10
110.2309976937964
 20
-151.455699289393
 10
110.2309976937964
 20
-151.455699289393
 10
110.1782877328721
 20
-151.455699289393
 10
110.1782877328721
 20
-151.455699289393
 10
110.1782877328721
 20
-151.455699289393
 10
110.1000840653569
 20
-151.455699289393
 10
110.1000840653569
 20
-151.455699289393
 10
110.0322156842975
 20
-151.455699289393
 10
110.0239474551329
 20
-151.455699289393
 10
109.9877739525378
 20
-151.4619004612665
 10
109.9877739525378
 20
-151.4619004612665
 10
109.9877739525378
 20
-151.2672525663498
 10
109.9877739525378
 20
-151.2672525663498
 10
110.0153347164198
 20
-151.2737982477718
 10
110.0239474551329
 20
-151.2737982477718
 10
110.0935383839349
 20
-151.2737982477718
 10
110.0935383839349
 20
-151.2737982477718
 10
110.2268635792141
 20
-151.2737982477718
 10
110.2268635792141
 20
-151.2737982477718
 10
110.2268635792141
 20
-151.2038628094212
 10
110.2268635792141
 20
-151.1211805177752
 10
110.2247965219229
 20
-151.1170464031929
 10
110.2161837832098
 20
-150.9372124188629
 10
110.2161837832098
 20
-150.918264393694
 10
110.2141167259187
 20
-150.8717556046431
 10
110.2141167259187
 20
-150.8717556046431
 10
110.4301242128438
 20
-150.8800238338077
 10
110.4301242128438
 20
-150.8800238338077
 10
110.4404594992996
 20
-150.8800238338077
 10
110.4618190913081
 20
-150.8824354006474
 10
110.4618190913081
 20
-150.8993163685252
 10
110.4618190913081
 20
-150.918264393694
 10
110.4470051807216
 20
-150.9289441896983
 10
110.4215114741307
 20
-150.9478922148672
 10
110.4215114741307
 20
-150.9985351185003
 10
110.4153103022573
 20
-151.2272894587209
 10
110.4173773595484
 20
-151.2737982477718
 10
110.5462239306968
 20
-151.2737982477718
 10
110.5589707839922
 20
-151.2737982477718
 10
110.6564669862247
 20
-151.2651855090587
 10
110.6564669862247
 20
-151.2651855090587
 10
110.6564669862247
 20
-151.4598334039753
 10
110.6564669862247
 20
-151.4598334039753
 10
110.6182264263385
 20
-151.4577663466841
 10
110.5507025548276
 20
-151.4536322321019
 10
110.4153103022573
 20
-151.455699289393
 10
110.4153103022573
 20
-151.455699289393
 10
110.4153103022573
 20
-151.7940076660445
 10
110.4153103022573
 20
-151.7940076660445
 10
110.4700873204727
 20
-151.7709255262934
 10
110.535888644241
 20
-151.7433647624113
 10
110.584464490583
 20
-151.7199381131117
 10
110.584464490583
 20
-151.7199381131117
 10
110.584464490583
 20
-151.5421711860728
 10
110.584464490583
 20
-151.5421711860728
 10
110.6988416606933
 20
-151.5549180393682
 10
110.8170084358374
 20
-151.5549180393682
 10
110.9334526632388
 20
-151.5549180393682
 10
110.9103705234877
 20
-151.4598334039753
 10
110.8828097596057
 20
-151.3771511123293
 10
110.8194200026771
 20
-151.2441704265986
 10
110.7749782709174
 20
-151.2462374838898
 10
110.6922959792713
 20
-151.2503715984721
 10
110.6543999289336
 20
-151.2524386557633
 10
110.6543999289336
 20
-151.2524386557633
 10
110.6543999289336
 20
-151.0726046714332
 10
110.6543999289336
 20
-151.0726046714332
 10
110.7791123854996
 20
-151.0812174101463
 10
110.9524006884077
 20
-151.0853515247287
 10
111.0350829800537
 20
-151.0853515247287
 10
111.0350829800537
 20
-151.0853515247287
 10
111.1174207621512
 20
-151.0853515247287
 10
111.1174207621512
 20
-151.0853515247287
 10
111.1174207621512
 20
-150.9223985082763
 10
111.1174207621512
 20
-150.9120632218206
 10
111.11535370486
 20
-150.8569416940566
 10
111.11535370486
 20
-150.8569416940566
 10
111.3396294209498
 20
-150.8824354006474
 10
111.3396294209498
 20
-150.8824354006474
 10
111.3437635355321
 20
-150.8824354006474
 10
111.3651231275406
 20
-150.8845024579386
 10
111.3651231275406
 20
-150.9013834258163
 10
111.3651231275406
 20
-150.9161973364029
 10
111.3544433315364
 20
-150.9244655655675
 10
111.3268825676544
 20
-150.939279476154
 10
111.3206813957809
 20
-151.0050807999223
 10
111.3186143384898
 20
-151.0260958823824
 10
111.3186143384898
 20
-151.0853515247287
 10
111.3186143384898
 20
-151.0853515247287
 10
111.4136989738827
 20
-151.0853515247287
 10
111.4136989738827
 20
-151.0853515247287
 10
111.4963812655286
 20
-151.0853515247287
 10
111.6696695684367
 20
-151.0812174101463
 10
111.7943820250028
 20
-151.0726046714332
 10
111.7943820250028
 20
-151.0726046714332
 10
111.7943820250028
 20
-151.2524386557633
 10
111.7943820250028
 20
-151.2524386557633
 10
111.7647542038296
 20
-151.2503715984721
 10
111.6465874286856
 20
-151.2462374838898
 10
111.6062798115081
 20
-151.2441704265986
 10
111.5914659009215
 20
-151.2948133302318
 10
111.5577039651661
 20
-151.4067789335024
 10
111.4919026413978
 20
-151.5466498102036
 10
111.5342773158664
 20
-151.5466498102036
 10
111.811607502429
 20
-151.5273572754862
 10
111.8729302020665
 20
-151.525290218195
 10
111.8729302020665
 20
-151.525290218195
 10
111.8729302020665
 20
-151.7096028266559
 10
111.8729302020665
 20
-151.7096028266559
 10
111.8433023808933
 20
-151.7096028266559
 10
111.8264214130156
 20
-151.7051242025251
 10
111.6634683965633
 20
-151.7051242025251
 97
        0
 97
        1
330
188
 75
     2
 76
     1
 98
        1
 10
0.0
 20
0.0
450
        0
451
        0
460
0.0
461
0.0
452
        0
462
0.0
453
        0
470

  0
SPLINE
  5
18A
330
182
100
AcDbEntity
  8
レイヤー 1
100
AcDbSpline
210
0.0
220
0.0
230
1.0
 70
    11
 71
     3
 72
    17
 73
    13
 74
     0
 42
0.0000000001
 43
0.0000000001
 40
0.0
 40
0.0
 40
0.0
 40
0.0
 40
1.0
 40
1.0
 40
1.0
 40
2.0
 40
2.0
 40
2.0
 40
3.0
 40
3.0
 40
3.0
 40
4.0
 40
4.0
 40
4.0
 40
4.0
 10
113.5196858440159
 20
-152.5047308646516
 30
0.0
 10
113.5196858440159
 20
-152.5047308646516
 30
0.0
 10
112.8130967599911
 20
-152.5047308646516
 30
0.0
 10
112.8130967599911
 20
-152.5047308646516
 30
0.0
 10
112.8130967599911
 20
-152.5047308646516
 30
0.0
 10
112.8130967599911
 20
-152.6191080347619
 30
0.0
 10
112.8130967599911
 20
-152.6191080347619
 30
0.0
 10
112.8130967599911
 20
-152.6191080347619
 30
0.0
 10
113.5196858440159
 20
-152.6191080347619
 30
0.0
 10
113.5196858440159
 20
-152.6191080347619
 30
0.0
 10
113.5196858440159
 20
-152.6191080347619
 30
0.0
 10
113.5196858440159
 20
-152.5047308646516
 30
0.0
 10
113.5196858440159
 20
-152.5047308646516
 30
0.0
  0
SPLINE
  5
18B
330
182
100
AcDbEntity
  8
レイヤー 1
100
AcDbSpline
210
0.0
220
0.0
230
1.0
 70
    11
 71
     3
 72
    17
 73
    13
 74
     0
 42
0.0000000001
 43
0.0000000001
 40
0.0
 40
0.0
 40
0.0
 40
0.0
 40
1.0
 40
1.0
 40
1.0
 40
2.0
 40
2.0
 40
2.0
 40
3.0
 40
3.0
 40
3.0
 40
4.0
 40
4.0
 40
4.0
 40
4.0
 10
113.5196858440159
 20
-152.2615071233929
 30
0.0
 10
113.5196858440159
 20
-152.2615071233929
 30
0.0
 10
112.8130967599911
 20
-152.2615071233929
 30
0.0
 10
112.8130967599911
 20
-152.2615071233929
 30
0.0
 10
112.8130967599911
 20
-152.2615071233929
 30
0.0
 10
112.8130967599911
 20
-152.3758842935032
 30
0.0
 10
112.8130967599911
 20
-152.3758842935032
 30
0.0
 10
112.8130967599911
 20
-152.3758842935032
 30
0.0
 10
113.5196858440159
 20
-152.3758842935032
 30
0.0
 10
113.5196858440159
 20
-152.3758842935032
 30
0.0
 10
113.5196858440159
 20
-152.3758842935032
 30
0.0
 10
113.5196858440159
 20
-152.2615071233929
 30
0.0
 10
113.5196858440159
 20
-152.2615071233929
 30
0.0
  0
SPLINE
  5
18C
330
182
100
AcDbEntity
  8
レイヤー 1
100
AcDbSpline
210
0.0
220
0.0
230
1.0
 70
    11
 71
     3
 72
    17
 73
    13
 74
     0
 42
0.0000000001
 43
0.0000000001
 40
0.0
 40
0.0
 40
0.0
 40
0.0
 40
1.0
 40
1.0
 40
1.0
 40
2.0
 40
2.0
 40
2.0
 40
3.0
 40
3.0
 40
3.0
 40
4.0
 40
4.0
 40
4.0
 40
4.0
 10
113.5196858440159
 20
-152.0289631781386
 30
0.0
 10
113.5196858440159
 20
-152.0289631781386
 30
0.0
 10
112.8130967599911
 20
-152.0289631781386
 30
0.0
 10
112.8130967599911
 20
-152.0289631781386
 30
0.0
 10
112.8130967599911
 20
-152.0289631781386
 30
0.0
 10
112.8130967599911
 20
-152.1367946668269
 30
0.0
 10
112.8130967599911
 20
-152.1367946668269
 30
0.0
 10
112.8130967599911
 20
-152.1367946668269
 30
0.0
 10
113.5196858440159
 20
-152.1367946668269
 30
0.0
 10
113.5196858440159
 20
-152.1367946668269
 30
0.0
 10
113.5196858440159
 20
-152.1367946668269
 30
0.0
 10
113.5196858440159
 20
-152.0289631781386
 30
0.0
 10
113.5196858440159
 20
-152.0289631781386
 30
0.0
  0
SPLINE
  5
18D
330
182
100
AcDbEntity
  8
レイヤー 1
100
AcDbSpline
210
0.0
220
0.0
230
1.0
 70
     9
 71
     3
 72
   203
 73
   199
 74
     0
 42
0.0000000001
 43
0.0000000001
 40
0.0
 40
0.0
 40
0.0
 40
0.0
 40
1.0
 40
1.0
 40
1.0
 40
2.0
 40
2.0
 40
2.0
 40
3.0
 40
3.0
 40
3.0
 40
4.0
 40
4.0
 40
4.0
 40
5.0
 40
5.0
 40
5.0
 40
6.0
 40
6.0
 40
6.0
 40
7.0
 40
7.0
 40
7.0
 40
8.0
 40
8.0
 40
8.0
 40
9.0
 40
9.0
 40
9.0
 40
10.0
 40
10.0
 40
10.0
 40
11.0
 40
11.0
 40
11.0
 40
12.0
 40
12.0
 40
12.0
 40
13.0
 40
13.0
 40
13.0
 40
14.0
 40
14.0
 40
14.0
 40
15.0
 40
15.0
 40
15.0
 40
16.0
 40
16.0
 40
16.0
 40
17.0
 40
17.0
 40
17.0
 40
18.0
 40
18.0
 40
18.0
 40
19.0
 40
19.0
 40
19.0
 40
20.0
 40
20.0
 40
20.0
 40
21.0
 40
21.0
 40
21.0
 40
22.0
 40
22.0
 40
22.0
 40
23.0
 40
23.0
 40
23.0
 40
24.0
 40
24.0
 40
24.0
 40
25.0
 40
25.0
 40
25.0
 40
26.0
 40
26.0
 40
26.0
 40
27.0
 40
27.0
 40
27.0
 40
28.0
 40
28.0
 40
28.0
 40
29.0
 40
29.0
 40
29.0
 40
30.0
 40
30.0
 40
30.0
 40
31.0
 40
31.0
 40
31.0
 40
32.0
 40
32.0
 40
32.0
 40
33.0
 40
33.0
 40
33.0
 40
34.0
 40
34.0
 40
34.0
 40
35.0
 40
35.0
 40
35.0
 40
36.0
 40
36.0
 40
36.0
 40
37.0
 40
37.0
 40
37.0
 40
38.0
 40
38.0
 40
38.0
 40
39.0
 40
39.0
 40
39.0
 40
40.0
 40
40.0
 40
40.0
 40
41.0
 40
41.0
 40
41.0
 40
42.0
 40
42.0
 40
42.0
 40
43.0
 40
43.0
 40
43.0
 40
44.0
 40
44.0
 40
44.0
 40
45.0
 40
45.0
 40
45.0
 40
46.0
 40
46.0
 40
46.0
 40
47.0
 40
47.0
 40
47.0
 40
48.0
 40
48.0
 40
48.0
 40
49.0
 40
49.0
 40
49.0
 40
50.0
 40
50.0
 40
50.0
 40
51.0
 40
51.0
 40
51.0
 40
52.0
 40
52.0
 40
52.0
 40
53.0
 40
53.0
 40
53.0
 40
54.0
 40
54.0
 40
54.0
 40
55.0
 40
55.0
 40
55.0
 40
56.0
 40
56.0
 40
56.0
 40
57.0
 40
57.0
 40
57.0
 40
58.0
 40
58.0
 40
58.0
 40
59.0
 40
59.0
 40
59.0
 40
60.0
 40
60.0
 40
60.0
 40
61.0
 40
61.0
 40
61.0
 40
62.0
 40
62.0
 40
62.0
 40
63.0
 40
63.0
 40
63.0
 40
64.0
 40
64.0
 40
64.0
 40
65.0
 40
65.0
 40
65.0
 40
66.0
 40
66.0
 40
66.0
 40
66.0
 10
113.3546657702724
 20
-151.7729925835845
 30
0.0
 10
113.3546657702724
 20
-151.7729925835845
 30
0.0
 10
112.7962157921134
 20
-151.7729925835845
 30
0.0
 10
112.7962157921134
 20
-151.7729925835845
 30
0.0
 10
112.7858805056577
 20
-151.8174343153442
 30
0.0
 10
112.7772677669446
 20
-151.8491291938085
 30
0.0
 10
112.7645209136491
 20
-151.8870252441463
 30
0.0
 10
112.79001462024
 20
-151.8870252441463
 30
0.0
 10
112.8048285308265
 20
-151.889436810986
 30
0.0
 10
112.8110297027
 20
-151.889436810986
 30
0.0
 10
112.8110297027
 20
-151.889436810986
 30
0.0
 10
112.9994764257432
 20
-151.889436810986
 30
0.0
 10
112.9994764257432
 20
-151.889436810986
 30
0.0
 10
112.9994764257432
 20
-151.889436810986
 30
0.0
 10
113.3739583049898
 20
-151.889436810986
 30
0.0
 10
113.3739583049898
 20
-151.889436810986
 30
0.0
 10
113.424601208623
 20
-151.889436810986
 30
0.0
 10
113.7081325670591
 20
-151.8766899576905
 30
0.0
 10
113.7398274455234
 20
-151.8766899576905
 30
0.0
 10
113.7377603882322
 20
-151.903906212024
 30
0.0
 10
113.735693330941
 20
-151.9231987467414
 30
0.0
 10
113.735693330941
 20
-151.9528265679146
 30
0.0
 10
113.7336262736499
 20
-151.9845214463788
 30
0.0
 10
113.7336262736499
 20
-152.1199136989492
 30
0.0
 10
113.7336262736499
 20
-152.1474744628312
 30
0.0
 10
113.7336262736499
 20
-152.1474744628312
 30
0.0
 10
113.7336262736499
 20
-152.392765261381
 30
0.0
 10
113.7336262736499
 20
-152.392765261381
 30
0.0
 10
113.7336262736499
 20
-152.4372069931407
 30
0.0
 10
113.7377603882322
 20
-152.6339219453485
 30
0.0
 10
113.7418945028145
 20
-152.7861951657965
 30
0.0
 10
113.7418945028145
 20
-152.7861951657965
 30
0.0
 10
113.5155517294336
 20
-152.7861951657965
 30
0.0
 10
113.5155517294336
 20
-152.7861951657965
 30
0.0
 10
113.5155517294336
 20
-152.7861951657965
 30
0.0
 10
113.5176187867247
 20
-152.7524332300411
 30
0.0
 10
113.5176187867247
 20
-152.7524332300411
 30
0.0
 10
113.5176187867247
 20
-152.7524332300411
 30
0.0
 10
112.8155083268308
 20
-152.7524332300411
 30
0.0
 10
112.8155083268308
 20
-152.7524332300411
 30
0.0
 10
112.8155083268308
 20
-152.7524332300411
 30
0.0
 10
112.817575384122
 20
-152.7861951657965
 30
0.0
 10
112.817575384122
 20
-152.7861951657965
 30
0.0
 10
112.817575384122
 20
-152.7861951657965
 30
0.0
 10
112.5995008399057
 20
-152.7861951657965
 30
0.0
 10
112.5995008399057
 20
-152.7861951657965
 30
0.0
 10
112.603634954488
 20
-152.7310736380325
 30
0.0
 10
112.603634954488
 20
-152.7186712942856
 30
0.0
 10
112.6101806359099
 20
-152.6042941241753
 30
0.0
 10
112.6122476932011
 20
-152.5767333602933
 30
0.0
 10
112.6143147504922
 20
-152.4434081650141
 30
0.0
 10
112.6143147504922
 20
-152.4244601398453
 30
0.0
 10
112.6143147504922
 20
-152.4244601398453
 30
0.0
 10
112.6143147504922
 20
-152.221544015764
 30
0.0
 10
112.6143147504922
 20
-152.221544015764
 30
0.0
 10
112.4747883833396
 20
-152.4709689288961
 30
0.0
 10
112.3056341950139
 20
-152.6022270668842
 30
0.0
 10
112.1998697636167
 20
-152.6676838811039
 30
0.0
 10
112.1998697636167
 20
-152.6676838811039
 30
0.0
 10
112.0262369511601
 20
-152.5281575139513
 30
0.0
 10
112.0262369511601
 20
-152.5281575139513
 30
0.0
 10
112.1151204146795
 20
-152.4775146103181
 30
0.0
 10
112.259125405963
 20
-152.3906982040898
 30
0.0
 10
112.3965847158244
 20
-152.1960503091732
 30
0.0
 10
112.487535236635
 20
-152.0689262857675
 30
0.0
 10
112.5529920508548
 20
-151.9252658040326
 30
0.0
 10
112.5867539866102
 20
-151.7729925835845
 30
0.0
 10
112.3583441559382
 20
-151.7750596408757
 30
0.0
 10
112.1785101716081
 20
-151.7812608127491
 30
0.0
 10
112.0834255362152
 20
-151.7833278700403
 30
0.0
 10
112.0834255362152
 20
-151.7833278700403
 30
0.0
 10
112.0834255362152
 20
-151.6059054525499
 30
0.0
 10
112.0834255362152
 20
-151.6059054525499
 30
0.0
 10
112.280140488423
 20
-151.6121066244233
 30
0.0
 10
112.5636718468591
 20
-151.6162407390056
 30
0.0
 10
112.7138780100159
 20
-151.6162407390056
 30
0.0
 10
112.7138780100159
 20
-151.6162407390056
 30
0.0
 10
112.9274739301014
 20
-151.6162407390056
 30
0.0
 10
112.9274739301014
 20
-151.6162407390056
 30
0.0
 10
112.9274739301014
 20
-151.6162407390056
 30
0.0
 10
112.9274739301014
 20
-151.5084092503173
 30
0.0
 10
112.9274739301014
 20
-151.5084092503173
 30
0.0
 10
112.9274739301014
 20
-151.5084092503173
 30
0.0
 10
112.7814018815268
 20
-151.5084092503173
 30
0.0
 10
112.7814018815268
 20
-151.5084092503173
 30
0.0
 10
112.6122476932011
 20
-151.5084092503173
 30
0.0
 10
112.4430935048753
 20
-151.5125433648996
 30
0.0
 10
112.2760063738407
 20
-151.5190890463216
 30
0.0
 10
112.2760063738407
 20
-151.5190890463216
 30
0.0
 10
112.2760063738407
 20
-151.3478678007047
 30
0.0
 10
112.2760063738407
 20
-151.3478678007047
 30
0.0
 10
112.4303466515799
 20
-151.3582030871604
 30
0.0
 10
112.6163818077834
 20
-151.3582030871604
 30
0.0
 10
112.7814018815268
 20
-151.3582030871604
 30
0.0
 10
112.7814018815268
 20
-151.3582030871604
 30
0.0
 10
112.9274739301014
 20
-151.3582030871604
 30
0.0
 10
112.9274739301014
 20
-151.3582030871604
 30
0.0
 10
112.9274739301014
 20
-151.3582030871604
 30
0.0
 10
112.9274739301014
 20
-151.2396918024678
 30
0.0
 10
112.9274739301014
 20
-151.2396918024678
 30
0.0
 10
112.9274739301014
 20
-151.2396918024678
 30
0.0
 10
112.7962157921134
 20
-151.2396918024678
 30
0.0
 10
112.7962157921134
 20
-151.2396918024678
 30
0.0
 10
112.7497070030626
 20
-151.2396918024678
 30
0.0
 10
112.5467908789813
 20
-151.248304541181
 30
0.0
 10
112.5044162045128
 20
-151.248304541181
 30
0.0
 10
112.301155570883
 20
-151.2524386557633
 30
0.0
 10
112.225018960659
 20
-151.2545057130544
 30
0.0
 10
112.1468152931438
 20
-151.2565727703456
 30
0.0
 10
112.1468152931438
 20
-151.2565727703456
 30
0.0
 10
112.1468152931438
 20
-151.0726046714332
 30
0.0
 10
112.1468152931438
 20
-151.0726046714332
 30
0.0
 10
112.2611924632541
 20
-151.0812174101463
 30
0.0
 10
112.3056341950139
 20
-151.0812174101463
 30
0.0
 10
112.6883843034251
 20
-151.0894856393109
 30
0.0
 10
112.6249945464965
 20
-150.9944010039181
 30
0.0
 10
112.5974337826145
 20
-150.9668402400361
 30
0.0
 10
112.5616047895679
 20
-150.9310112469894
 30
0.0
 10
112.5616047895679
 20
-150.9310112469894
 30
0.0
 10
112.7369601497671
 20
-150.8483289553435
 30
0.0
 10
112.7369601497671
 20
-150.8483289553435
 30
0.0
 10
112.7772677669446
 20
-150.8845024579386
 30
0.0
 10
112.8217094987043
 20
-150.9268771324071
 30
0.0
 10
112.8957790516372
 20
-151.0367756783866
 30
0.0
 10
112.8957790516372
 20
-151.0367756783866
 30
0.0
 10
112.7814018815268
 20
-151.0915526966021
 30
0.0
 10
112.7814018815268
 20
-151.0915526966021
 30
0.0
 10
112.7814018815268
 20
-151.0915526966021
 30
0.0
 10
112.7920816775311
 20
-151.0915526966021
 30
0.0
 10
112.7920816775311
 20
-151.0915526966021
 30
0.0
 10
112.7920816775311
 20
-151.0915526966021
 30
0.0
 10
113.3147026626435
 20
-151.0915526966021
 30
0.0
 10
113.3147026626435
 20
-151.0915526966021
 30
0.0
 10
113.3147026626435
 20
-151.0915526966021
 30
0.0
 10
113.2192735177021
 20
-151.0474554743909
 30
0.0
 10
113.2192735177021
 20
-151.0474554743909
 30
0.0
 10
113.2468342815841
 20
-151.0092149145046
 30
0.0
 10
113.3040228666392
 20
-150.9289441896983
 30
0.0
 10
113.3188367772258
 20
-150.8548746367654
 30
0.0
 10
113.3188367772258
 20
-150.8548746367654
 30
0.0
 10
113.5324326973113
 20
-150.918264393694
 30
0.0
 10
113.5324326973113
 20
-150.918264393694
 30
0.0
 10
113.5410454360244
 20
-150.9203314509852
 30
0.0
 10
113.5620605184845
 20
-150.9310112469894
 30
0.0
 10
113.5620605184845
 20
-150.9520263294495
 30
0.0
 10
113.5620605184845
 20
-150.9902668893357
 30
0.0
 10
113.4966037042647
 20
-150.9902668893357
 30
0.0
 10
113.4776556790958
 20
-150.9902668893357
 30
0.0
 10
113.4669758830916
 20
-151.0092149145046
 30
0.0
 10
113.4435492337919
 20
-151.049522531682
 30
0.0
 10
113.4139214126187
 20
-151.0894856393109
 30
0.0
 10
113.8138969984562
 20
-151.0832844674375
 30
0.0
 10
113.8435248196294
 20
-151.0812174101463
 30
0.0
 10
113.9196614298534
 20
-151.0746717287244
 30
0.0
 10
113.9196614298534
 20
-151.0746717287244
 30
0.0
 10
113.9196614298534
 20
-151.2565727703456
 30
0.0
 10
113.9196614298534
 20
-151.2565727703456
 30
0.0
 10
113.9007134046845
 20
-151.2565727703456
 30
0.0
 10
113.8752196980937
 20
-151.2545057130544
 30
0.0
 10
113.6550780965862
 20
-151.2462374838898
 30
0.0
 10
113.604435192953
 20
-151.2441704265986
 30
0.0
 10
113.3842935914456
 20
-151.2396918024678
 30
0.0
 10
113.3398518596859
 20
-151.2396918024678
 30
0.0
 10
113.3398518596859
 20
-151.2396918024678
 30
0.0
 10
113.1241888823092
 20
-151.2396918024678
 30
0.0
 10
113.1241888823092
 20
-151.2396918024678
 30
0.0
 10
113.1241888823092
 20
-151.2396918024678
 30
0.0
 10
113.1241888823092
 20
-151.3582030871604
 30
0.0
 10
113.1241888823092
 20
-151.3582030871604
 30
0.0
 10
113.1241888823092
 20
-151.3582030871604
 30
0.0
 10
113.2978216947658
 20
-151.3582030871604
 30
0.0
 10
113.2978216947658
 20
-151.3582030871604
 30
0.0
 10
113.4604302016696
 20
-151.3582030871604
 30
0.0
 10
113.6509439820039
 20
-151.3582030871604
 30
0.0
 10
113.8076958265828
 20
-151.3478678007047
 30
0.0
 10
113.8076958265828
 20
-151.3478678007047
 30
0.0
 10
113.8076958265828
 20
-151.5190890463216
 30
0.0
 10
113.8076958265828
 20
-151.5190890463216
 30
0.0
 10
113.5982340210796
 20
-151.5104763076085
 30
0.0
 10
113.4015190688718
 20
-151.5084092503173
 30
0.0
 10
113.2978216947658
 20
-151.5084092503173
 30
0.0
 10
113.2978216947658
 20
-151.5084092503173
 30
0.0
 10
113.1241888823092
 20
-151.5084092503173
 30
0.0
 10
113.1241888823092
 20
-151.5084092503173
 30
0.0
 10
113.1241888823092
 20
-151.5084092503173
 30
0.0
 10
113.1241888823092
 20
-151.6162407390056
 30
0.0
 10
113.1241888823092
 20
-151.6162407390056
 30
0.0
 10
113.1241888823092
 20
-151.6162407390056
 30
0.0
 10
113.3546657702724
 20
-151.6162407390056
 30
0.0
 10
113.3546657702724
 20
-151.6162407390056
 30
0.0
 10
113.4879909655516
 20
-151.6162407390056
 30
0.0
 10
113.77565643857
 20
-151.6121066244233
 30
0.0
 10
113.9851182440731
 20
-151.6059054525499
 30
0.0
 10
113.9851182440731
 20
-151.6059054525499
 30
0.0
 10
113.9851182440731
 20
-151.7833278700403
 30
0.0
 10
113.9851182440731
 20
-151.7833278700403
 30
0.0
 10
113.7928819159962
 20
-151.7771266981668
 30
0.0
 10
113.479722736387
 20
-151.7729925835845
 30
0.0
 10
113.3546657702724
 20
-151.7729925835845
 30
0.0
  0
HATCH
  5
18E
330
182
100
AcDbEntity
  8
レイヤー 1
 62
    18
420
        0
440
 33554687
100
AcDbHatch
 10
0.0
 20
0.0
 30
0.0
210
0.0
220
0.0
230
1.0
  2
SOLID
 70
     1
 71
     1
 91
        4
 92
        1
 93
        1
 72
     4
 94
        3
 73
     0
 74
     0
 95
       17
 96
       13
 40
0.0
 40
0.0
 40
0.0
 40
0.0
 40
1.0
 40
1.0
 40
1.0
 40
2.0
 40
2.0
 40
2.0
 40
3.0
 40
3.0
 40
3.0
 40
4.0
 40
4.0
 40
4.0
 40
4.0
 10
113.5196858440159
 20
-152.5047308646516
 10
113.5196858440159
 20
-152.5047308646516
 10
112.8130967599911
 20
-152.5047308646516
 10
112.8130967599911
 20
-152.5047308646516
 10
112.8130967599911
 20
-152.5047308646516
 10
112.8130967599911
 20
-152.6191080347619
 10
112.8130967599911
 20
-152.6191080347619
 10
112.8130967599911
 20
-152.6191080347619
 10
113.5196858440159
 20
-152.6191080347619
 10
113.5196858440159
 20
-152.6191080347619
 10
113.5196858440159
 20
-152.6191080347619
 10
113.5196858440159
 20
-152.5047308646516
 10
113.5196858440159
 20
-152.5047308646516
 97
        0
 97
        1
330
18A
 92
        1
 93
        1
 72
     4
 94
        3
 73
     0
 74
     0
 95
       17
 96
       13
 40
0.0
 40
0.0
 40
0.0
 40
0.0
 40
1.0
 40
1.0
 40
1.0
 40
2.0
 40
2.0
 40
2.0
 40
3.0
 40
3.0
 40
3.0
 40
4.0
 40
4.0
 40
4.0
 40
4.0
 10
113.5196858440159
 20
-152.2615071233929
 10
113.5196858440159
 20
-152.2615071233929
 10
112.8130967599911
 20
-152.2615071233929
 10
112.8130967599911
 20
-152.2615071233929
 10
112.8130967599911
 20
-152.2615071233929
 10
112.8130967599911
 20
-152.3758842935032
 10
112.8130967599911
 20
-152.3758842935032
 10
112.8130967599911
 20
-152.3758842935032
 10
113.5196858440159
 20
-152.3758842935032
 10
113.5196858440159
 20
-152.3758842935032
 10
113.5196858440159
 20
-152.3758842935032
 10
113.5196858440159
 20
-152.2615071233929
 10
113.5196858440159
 20
-152.2615071233929
 97
        0
 97
        1
330
18B
 92
        1
 93
        1
 72
     4
 94
        3
 73
     0
 74
     0
 95
       17
 96
       13
 40
0.0
 40
0.0
 40
0.0
 40
0.0
 40
1.0
 40
1.0
 40
1.0
 40
2.0
 40
2.0
 40
2.0
 40
3.0
 40
3.0
 40
3.0
 40
4.0
 40
4.0
 40
4.0
 40
4.0
 10
113.5196858440159
 20
-152.0289631781386
 10
113.5196858440159
 20
-152.0289631781386
 10
112.8130967599911
 20
-152.0289631781386
 10
112.8130967599911
 20
-152.0289631781386
 10
112.8130967599911
 20
-152.0289631781386
 10
112.8130967599911
 20
-152.1367946668269
 10
112.8130967599911
 20
-152.1367946668269
 10
112.8130967599911
 20
-152.1367946668269
 10
113.5196858440159
 20
-152.1367946668269
 10
113.5196858440159
 20
-152.1367946668269
 10
113.5196858440159
 20
-152.1367946668269
 10
113.5196858440159
 20
-152.0289631781386
 10
113.5196858440159
 20
-152.0289631781386
 97
        0
 97
        1
330
18C
 92
        1
 93
        1
 72
     4
 94
        3
 73
     0
 74
     0
 95
      203
 96
      199
 40
0.0
 40
0.0
 40
0.0
 40
0.0
 40
1.0
 40
1.0
 40
1.0
 40
2.0
 40
2.0
 40
2.0
 40
3.0
 40
3.0
 40
3.0
 40
4.0
 40
4.0
 40
4.0
 40
5.0
 40
5.0
 40
5.0
 40
6.0
 40
6.0
 40
6.0
 40
7.0
 40
7.0
 40
7.0
 40
8.0
 40
8.0
 40
8.0
 40
9.0
 40
9.0
 40
9.0
 40
10.0
 40
10.0
 40
10.0
 40
11.0
 40
11.0
 40
11.0
 40
12.0
 40
12.0
 40
12.0
 40
13.0
 40
13.0
 40
13.0
 40
14.0
 40
14.0
 40
14.0
 40
15.0
 40
15.0
 40
15.0
 40
16.0
 40
16.0
 40
16.0
 40
17.0
 40
17.0
 40
17.0
 40
18.0
 40
18.0
 40
18.0
 40
19.0
 40
19.0
 40
19.0
 40
20.0
 40
20.0
 40
20.0
 40
21.0
 40
21.0
 40
21.0
 40
22.0
 40
22.0
 40
22.0
 40
23.0
 40
23.0
 40
23.0
 40
24.0
 40
24.0
 40
24.0
 40
25.0
 40
25.0
 40
25.0
 40
26.0
 40
26.0
 40
26.0
 40
27.0
 40
27.0
 40
27.0
 40
28.0
 40
28.0
 40
28.0
 40
29.0
 40
29.0
 40
29.0
 40
30.0
 40
30.0
 40
30.0
 40
31.0
 40
31.0
 40
31.0
 40
32.0
 40
32.0
 40
32.0
 40
33.0
 40
33.0
 40
33.0
 40
34.0
 40
34.0
 40
34.0
 40
35.0
 40
35.0
 40
35.0
 40
36.0
 40
36.0
 40
36.0
 40
37.0
 40
37.0
 40
37.0
 40
38.0
 40
38.0
 40
38.0
 40
39.0
 40
39.0
 40
39.0
 40
40.0
 40
40.0
 40
40.0
 40
41.0
 40
41.0
 40
41.0
 40
42.0
 40
42.0
 40
42.0
 40
43.0
 40
43.0
 40
43.0
 40
44.0
 40
44.0
 40
44.0
 40
45.0
 40
45.0
 40
45.0
 40
46.0
 40
46.0
 40
46.0
 40
47.0
 40
47.0
 40
47.0
 40
48.0
 40
48.0
 40
48.0
 40
49.0
 40
49.0
 40
49.0
 40
50.0
 40
50.0
 40
50.0
 40
51.0
 40
51.0
 40
51.0
 40
52.0
 40
52.0
 40
52.0
 40
53.0
 40
53.0
 40
53.0
 40
54.0
 40
54.0
 40
54.0
 40
55.0
 40
55.0
 40
55.0
 40
56.0
 40
56.0
 40
56.0
 40
57.0
 40
57.0
 40
57.0
 40
58.0
 40
58.0
 40
58.0
 40
59.0
 40
59.0
 40
59.0
 40
60.0
 40
60.0
 40
60.0
 40
61.0
 40
61.0
 40
61.0
 40
62.0
 40
62.0
 40
62.0
 40
63.0
 40
63.0
 40
63.0
 40
64.0
 40
64.0
 40
64.0
 40
65.0
 40
65.0
 40
65.0
 40
66.0
 40
66.0
 40
66.0
 40
66.0
 10
113.3546657702724
 20
-151.7729925835845
 10
113.3546657702724
 20
-151.7729925835845
 10
112.7962157921134
 20
-151.7729925835845
 10
112.7962157921134
 20
-151.7729925835845
 10
112.7858805056577
 20
-151.8174343153442
 10
112.7772677669446
 20
-151.8491291938085
 10
112.7645209136491
 20
-151.8870252441463
 10
112.79001462024
 20
-151.8870252441463
 10
112.8048285308265
 20
-151.889436810986
 10
112.8110297027
 20
-151.889436810986
 10
112.8110297027
 20
-151.889436810986
 10
112.9994764257432
 20
-151.889436810986
 10
112.9994764257432
 20
-151.889436810986
 10
112.9994764257432
 20
-151.889436810986
 10
113.3739583049898
 20
-151.889436810986
 10
113.3739583049898
 20
-151.889436810986
 10
113.424601208623
 20
-151.889436810986
 10
113.7081325670591
 20
-151.8766899576905
 10
113.7398274455234
 20
-151.8766899576905
 10
113.7377603882322
 20
-151.903906212024
 10
113.735693330941
 20
-151.9231987467414
 10
113.735693330941
 20
-151.9528265679146
 10
113.7336262736499
 20
-151.9845214463788
 10
113.7336262736499
 20
-152.1199136989492
 10
113.7336262736499
 20
-152.1474744628312
 10
113.7336262736499
 20
-152.1474744628312
 10
113.7336262736499
 20
-152.392765261381
 10
113.7336262736499
 20
-152.392765261381
 10
113.7336262736499
 20
-152.4372069931407
 10
113.7377603882322
 20
-152.6339219453485
 10
113.7418945028145
 20
-152.7861951657965
 10
113.7418945028145
 20
-152.7861951657965
 10
113.5155517294336
 20
-152.7861951657965
 10
113.5155517294336
 20
-152.7861951657965
 10
113.5155517294336
 20
-152.7861951657965
 10
113.5176187867247
 20
-152.7524332300411
 10
113.5176187867247
 20
-152.7524332300411
 10
113.5176187867247
 20
-152.7524332300411
 10
112.8155083268308
 20
-152.7524332300411
 10
112.8155083268308
 20
-152.7524332300411
 10
112.8155083268308
 20
-152.7524332300411
 10
112.817575384122
 20
-152.7861951657965
 10
112.817575384122
 20
-152.7861951657965
 10
112.817575384122
 20
-152.7861951657965
 10
112.5995008399057
 20
-152.7861951657965
 10
112.5995008399057
 20
-152.7861951657965
 10
112.603634954488
 20
-152.7310736380325
 10
112.603634954488
 20
-152.7186712942856
 10
112.6101806359099
 20
-152.6042941241753
 10
112.6122476932011
 20
-152.5767333602933
 10
112.6143147504922
 20
-152.4434081650141
 10
112.6143147504922
 20
-152.4244601398453
 10
112.6143147504922
 20
-152.4244601398453
 10
112.6143147504922
 20
-152.221544015764
 10
112.6143147504922
 20
-152.221544015764
 10
112.4747883833396
 20
-152.4709689288961
 10
112.3056341950139
 20
-152.6022270668842
 10
112.1998697636167
 20
-152.6676838811039
 10
112.1998697636167
 20
-152.6676838811039
 10
112.0262369511601
 20
-152.5281575139513
 10
112.0262369511601
 20
-152.5281575139513
 10
112.1151204146795
 20
-152.4775146103181
 10
112.259125405963
 20
-152.3906982040898
 10
112.3965847158244
 20
-152.1960503091732
 10
112.487535236635
 20
-152.0689262857675
 10
112.5529920508548
 20
-151.9252658040326
 10
112.5867539866102
 20
-151.7729925835845
 10
112.3583441559382
 20
-151.7750596408757
 10
112.1785101716081
 20
-151.7812608127491
 10
112.0834255362152
 20
-151.7833278700403
 10
112.0834255362152
 20
-151.7833278700403
 10
112.0834255362152
 20
-151.6059054525499
 10
112.0834255362152
 20
-151.6059054525499
 10
112.280140488423
 20
-151.6121066244233
 10
112.5636718468591
 20
-151.6162407390056
 10
112.7138780100159
 20
-151.6162407390056
 10
112.7138780100159
 20
-151.6162407390056
 10
112.9274739301014
 20
-151.6162407390056
 10
112.9274739301014
 20
-151.6162407390056
 10
112.9274739301014
 20
-151.6162407390056
 10
112.9274739301014
 20
-151.5084092503173
 10
112.9274739301014
 20
-151.5084092503173
 10
112.9274739301014
 20
-151.5084092503173
 10
112.7814018815268
 20
-151.5084092503173
 10
112.7814018815268
 20
-151.5084092503173
 10
112.6122476932011
 20
-151.5084092503173
 10
112.4430935048753
 20
-151.5125433648996
 10
112.2760063738407
 20
-151.5190890463216
 10
112.2760063738407
 20
-151.5190890463216
 10
112.2760063738407
 20
-151.3478678007047
 10
112.2760063738407
 20
-151.3478678007047
 10
112.4303466515799
 20
-151.3582030871604
 10
112.6163818077834
 20
-151.3582030871604
 10
112.7814018815268
 20
-151.3582030871604
 10
112.7814018815268
 20
-151.3582030871604
 10
112.9274739301014
 20
-151.3582030871604
 10
112.9274739301014
 20
-151.3582030871604
 10
112.9274739301014
 20
-151.3582030871604
 10
112.9274739301014
 20
-151.2396918024678
 10
112.9274739301014
 20
-151.2396918024678
 10
112.9274739301014
 20
-151.2396918024678
 10
112.7962157921134
 20
-151.2396918024678
 10
112.7962157921134
 20
-151.2396918024678
 10
112.7497070030626
 20
-151.2396918024678
 10
112.5467908789813
 20
-151.248304541181
 10
112.5044162045128
 20
-151.248304541181
 10
112.301155570883
 20
-151.2524386557633
 10
112.225018960659
 20
-151.2545057130544
 10
112.1468152931438
 20
-151.2565727703456
 10
112.1468152931438
 20
-151.2565727703456
 10
112.1468152931438
 20
-151.0726046714332
 10
112.1468152931438
 20
-151.0726046714332
 10
112.2611924632541
 20
-151.0812174101463
 10
112.3056341950139
 20
-151.0812174101463
 10
112.6883843034251
 20
-151.0894856393109
 10
112.6249945464965
 20
-150.9944010039181
 10
112.5974337826145
 20
-150.9668402400361
 10
112.5616047895679
 20
-150.9310112469894
 10
112.5616047895679
 20
-150.9310112469894
 10
112.7369601497671
 20
-150.8483289553435
 10
112.7369601497671
 20
-150.8483289553435
 10
112.7772677669446
 20
-150.8845024579386
 10
112.8217094987043
 20
-150.9268771324071
 10
112.8957790516372
 20
-151.0367756783866
 10
112.8957790516372
 20
-151.0367756783866
 10
112.7814018815268
 20
-151.0915526966021
 10
112.7814018815268
 20
-151.0915526966021
 10
112.7814018815268
 20
-151.0915526966021
 10
112.7920816775311
 20
-151.0915526966021
 10
112.7920816775311
 20
-151.0915526966021
 10
112.7920816775311
 20
-151.0915526966021
 10
113.3147026626435
 20
-151.0915526966021
 10
113.3147026626435
 20
-151.0915526966021
 10
113.3147026626435
 20
-151.0915526966021
 10
113.2192735177021
 20
-151.0474554743909
 10
113.2192735177021
 20
-151.0474554743909
 10
113.2468342815841
 20
-151.0092149145046
 10
113.3040228666392
 20
-150.9289441896983
 10
113.3188367772258
 20
-150.8548746367654
 10
113.3188367772258
 20
-150.8548746367654
 10
113.5324326973113
 20
-150.918264393694
 10
113.5324326973113
 20
-150.918264393694
 10
113.5410454360244
 20
-150.9203314509852
 10
113.5620605184845
 20
-150.9310112469894
 10
113.5620605184845
 20
-150.9520263294495
 10
113.5620605184845
 20
-150.9902668893357
 10
113.4966037042647
 20
-150.9902668893357
 10
113.4776556790958
 20
-150.9902668893357
 10
113.4669758830916
 20
-151.0092149145046
 10
113.4435492337919
 20
-151.049522531682
 10
113.4139214126187
 20
-151.0894856393109
 10
113.8138969984562
 20
-151.0832844674375
 10
113.8435248196294
 20
-151.0812174101463
 10
113.9196614298534
 20
-151.0746717287244
 10
113.9196614298534
 20
-151.0746717287244
 10
113.9196614298534
 20
-151.2565727703456
 10
113.9196614298534
 20
-151.2565727703456
 10
113.9007134046845
 20
-151.2565727703456
 10
113.8752196980937
 20
-151.2545057130544
 10
113.6550780965862
 20
-151.2462374838898
 10
113.604435192953
 20
-151.2441704265986
 10
113.3842935914456
 20
-151.2396918024678
 10
113.3398518596859
 20
-151.2396918024678
 10
113.3398518596859
 20
-151.2396918024678
 10
113.1241888823092
 20
-151.2396918024678
 10
113.1241888823092
 20
-151.2396918024678
 10
113.1241888823092
 20
-151.2396918024678
 10
113.1241888823092
 20
-151.3582030871604
 10
113.1241888823092
 20
-151.3582030871604
 10
113.1241888823092
 20
-151.3582030871604
 10
113.2978216947658
 20
-151.3582030871604
 10
113.2978216947658
 20
-151.3582030871604
 10
113.4604302016696
 20
-151.3582030871604
 10
113.6509439820039
 20
-151.3582030871604
 10
113.8076958265828
 20
-151.3478678007047
 10
113.8076958265828
 20
-151.3478678007047
 10
113.8076958265828
 20
-151.5190890463216
 10
113.8076958265828
 20
-151.5190890463216
 10
113.5982340210796
 20
-151.5104763076085
 10
113.4015190688718
 20
-151.5084092503173
 10
113.2978216947658
 20
-151.5084092503173
 10
113.2978216947658
 20
-151.5084092503173
 10
113.1241888823092
 20
-151.5084092503173
 10
113.1241888823092
 20
-151.5084092503173
 10
113.1241888823092
 20
-151.5084092503173
 10
113.1241888823092
 20
-151.6162407390056
 10
113.1241888823092
 20
-151.6162407390056
 10
113.1241888823092
 20
-151.6162407390056
 10
113.3546657702724
 20
-151.6162407390056
 10
113.3546657702724
 20
-151.6162407390056
 10
113.4879909655516
 20
-151.6162407390056
 10
113.77565643857
 20
-151.6121066244233
 10
113.9851182440731
 20
-151.6059054525499
 10
113.9851182440731
 20
-151.6059054525499
 10
113.9851182440731
 20
-151.7833278700403
 10
113.9851182440731
 20
-151.7833278700403
 10
113.7928819159962
 20
-151.7771266981668
 10
113.479722736387
 20
-151.7729925835845
 10
113.3546657702724
 20
-151.7729925835845
 97
        0
 97
        1
330
18D
 75
     2
 76
     1
 98
        1
 10
0.0
 20
0.0
450
        0
451
        0
460
0.0
461
0.0
452
        0
462
0.0
453
        0
470

  0
SPLINE
  5
18F
330
182
100
AcDbEntity
  8
レイヤー 1
100
AcDbSpline
210
0.0
220
0.0
230
1.0
 70
     9
 71
     3
 72
    29
 73
    25
 74
     0
 42
0.0000000001
 43
0.0000000001
 40
0.0
 40
0.0
 40
0.0
 40
0.0
 40
1.0
 40
1.0
 40
1.0
 40
2.0
 40
2.0
 40
2.0
 40
3.0
 40
3.0
 40
3.0
 40
4.0
 40
4.0
 40
4.0
 40
5.0
 40
5.0
 40
5.0
 40
6.0
 40
6.0
 40
6.0
 40
7.0
 40
7.0
 40
7.0
 40
8.0
 40
8.0
 40
8.0
 40
8.0
 10
115.2301757524424
 20
-151.220743777299
 30
0.0
 10
115.2301757524424
 20
-151.220743777299
 30
0.0
 10
114.8770534652043
 20
-151.220743777299
 30
0.0
 10
114.8770534652043
 20
-151.220743777299
 30
0.0
 10
114.7647433523852
 20
-151.220743777299
 30
0.0
 10
114.6252169852326
 20
-151.2272894587209
 30
0.0
 10
114.5173854965442
 20
-151.2396918024678
 30
0.0
 10
114.5173854965442
 20
-151.2396918024678
 30
0.0
 10
114.5173854965442
 20
-151.0050807999223
 30
0.0
 10
114.5173854965442
 20
-151.0050807999223
 30
0.0
 10
114.6358967812368
 20
-151.0198947105089
 30
0.0
 10
114.8198648801492
 20
-151.0240288250912
 30
0.0
 10
114.8770534652043
 20
-151.0240288250912
 30
0.0
 10
114.8770534652043
 20
-151.0240288250912
 30
0.0
 10
115.2301757524424
 20
-151.0240288250912
 30
0.0
 10
115.2301757524424
 20
-151.0240288250912
 30
0.0
 10
115.2494682871598
 20
-151.0240288250912
 30
0.0
 10
115.4523844112411
 20
-151.0240288250912
 30
0.0
 10
115.5939778356848
 20
-151.0050807999223
 30
0.0
 10
115.5939778356848
 20
-151.0050807999223
 30
0.0
 10
115.5939778356848
 20
-151.2396918024678
 30
0.0
 10
115.5939778356848
 20
-151.2396918024678
 30
0.0
 10
115.4375705006545
 20
-151.220743777299
 30
0.0
 10
115.2470567203202
 20
-151.220743777299
 30
0.0
 10
115.2301757524424
 20
-151.220743777299
 30
0.0
  0
SPLINE
  5
190
330
182
100
AcDbEntity
  8
レイヤー 1
100
AcDbSpline
210
0.0
220
0.0
230
1.0
 70
     9
 71
     3
 72
    47
 73
    43
 74
     0
 42
0.0000000001
 43
0.0000000001
 40
0.0
 40
0.0
 40
0.0
 40
0.0
 40
1.0
 40
1.0
 40
1.0
 40
2.0
 40
2.0
 40
2.0
 40
3.0
 40
3.0
 40
3.0
 40
4.0
 40
4.0
 40
4.0
 40
5.0
 40
5.0
 40
5.0
 40
6.0
 40
6.0
 40
6.0
 40
7.0
 40
7.0
 40
7.0
 40
8.0
 40
8.0
 40
8.0
 40
9.0
 40
9.0
 40
9.0
 40
10.0
 40
10.0
 40
10.0
 40
11.0
 40
11.0
 40
11.0
 40
12.0
 40
12.0
 40
12.0
 40
13.0
 40
13.0
 40
13.0
 40
14.0
 40
14.0
 40
14.0
 40
14.0
 10
115.3318060692573
 20
-151.7495659342848
 30
0.0
 10
115.3318060692573
 20
-151.7495659342848
 30
0.0
 10
115.2301757524424
 20
-151.7495659342848
 30
0.0
 10
115.2301757524424
 20
-151.7495659342848
 30
0.0
 10
115.2301757524424
 20
-151.8363823405131
 30
0.0
 10
115.2091606699824
 20
-152.2256781303463
 30
0.0
 10
115.0124457177746
 20
-152.4454752223053
 30
0.0
 10
114.8601724973266
 20
-152.6149739201796
 30
0.0
 10
114.6527777491146
 20
-152.6845648489816
 30
0.0
 10
114.5680284001774
 20
-152.7121256128636
 30
0.0
 10
114.5680284001774
 20
-152.7121256128636
 30
0.0
 10
114.3733805052608
 20
-152.545038481829
 30
0.0
 10
114.3733805052608
 20
-152.545038481829
 30
0.0
 10
114.4708767074934
 20
-152.5322916285336
 30
0.0
 10
114.6462320676926
 20
-152.5092094887824
 30
0.0
 10
114.8346787907358
 20
-152.3207627657392
 30
0.0
 10
114.9087483436686
 20
-152.2487602700975
 30
0.0
 10
115.0124457177746
 20
-152.1092339029449
 30
0.0
 10
115.0124457177746
 20
-151.7495659342848
 30
0.0
 10
115.0124457177746
 20
-151.7495659342848
 30
0.0
 10
114.7816243202629
 20
-151.7495659342848
 30
0.0
 10
114.7816243202629
 20
-151.7495659342848
 30
0.0
 10
114.5955891640594
 20
-151.7495659342848
 30
0.0
 10
114.4095540078559
 20
-151.7540445584157
 30
0.0
 10
114.2231743421039
 20
-151.7688584690022
 30
0.0
 10
114.2231743421039
 20
-151.7688584690022
 30
0.0
 10
114.2231743421039
 20
-151.5487168674947
 30
0.0
 10
114.2231743421039
 20
-151.5487168674947
 30
0.0
 10
114.4116210651471
 20
-151.5635307780813
 30
0.0
 10
114.6972194808743
 20
-151.5676648926636
 30
0.0
 10
114.7816243202629
 20
-151.5676648926636
 30
0.0
 10
114.7816243202629
 20
-151.5676648926636
 30
0.0
 10
115.3318060692573
 20
-151.5676648926636
 30
0.0
 10
115.3318060692573
 20
-151.5676648926636
 30
0.0
 10
115.3507540944262
 20
-151.5676648926636
 30
0.0
 10
115.6680473886177
 20
-151.5676648926636
 30
0.0
 10
115.8968017288383
 20
-151.5487168674947
 30
0.0
 10
115.8968017288383
 20
-151.5487168674947
 30
0.0
 10
115.8968017288383
 20
-151.7688584690022
 30
0.0
 10
115.8968017288383
 20
-151.7688584690022
 30
0.0
 10
115.7083550057951
 20
-151.7540445584157
 30
0.0
 10
115.5202527923005
 20
-151.7495659342848
 30
0.0
 10
115.3318060692573
 20
-151.7495659342848
 30
0.0
  0
HATCH
  5
191
330
182
100
AcDbEntity
  8
レイヤー 1
 62
    18
420
        0
440
 33554687
100
AcDbHatch
 10
0.0
 20
0.0
 30
0.0
210
0.0
220
0.0
230
1.0
  2
SOLID
 70
     1
 71
     1
 91
        2
 92
        1
 93
        1
 72
     4
 94
        3
 73
     0
 74
     0
 95
       29
 96
       25
 40
0.0
 40
0.0
 40
0.0
 40
0.0
 40
1.0
 40
1.0
 40
1.0
 40
2.0
 40
2.0
 40
2.0
 40
3.0
 40
3.0
 40
3.0
 40
4.0
 40
4.0
 40
4.0
 40
5.0
 40
5.0
 40
5.0
 40
6.0
 40
6.0
 40
6.0
 40
7.0
 40
7.0
 40
7.0
 40
8.0
 40
8.0
 40
8.0
 40
8.0
 10
115.2301757524424
 20
-151.220743777299
 10
115.2301757524424
 20
-151.220743777299
 10
114.8770534652043
 20
-151.220743777299
 10
114.8770534652043
 20
-151.220743777299
 10
114.7647433523852
 20
-151.220743777299
 10
114.6252169852326
 20
-151.2272894587209
 10
114.5173854965442
 20
-151.2396918024678
 10
114.5173854965442
 20
-151.2396918024678
 10
114.5173854965442
 20
-151.0050807999223
 10
114.5173854965442
 20
-151.0050807999223
 10
114.6358967812368
 20
-151.0198947105089
 10
114.8198648801492
 20
-151.0240288250912
 10
114.8770534652043
 20
-151.0240288250912
 10
114.8770534652043
 20
-151.0240288250912
 10
115.2301757524424
 20
-151.0240288250912
 10
115.2301757524424
 20
-151.0240288250912
 10
115.2494682871598
 20
-151.0240288250912
 10
115.4523844112411
 20
-151.0240288250912
 10
115.5939778356848
 20
-151.0050807999223
 10
115.5939778356848
 20
-151.0050807999223
 10
115.5939778356848
 20
-151.2396918024678
 10
115.5939778356848
 20
-151.2396918024678
 10
115.4375705006545
 20
-151.220743777299
 10
115.2470567203202
 20
-151.220743777299
 10
115.2301757524424
 20
-151.220743777299
 97
        0
 97
        1
330
18F
 92
        1
 93
        1
 72
     4
 94
        3
 73
     0
 74
     0
 95
       47
 96
       43
 40
0.0
 40
0.0
 40
0.0
 40
0.0
 40
1.0
 40
1.0
 40
1.0
 40
2.0
 40
2.0
 40
2.0
 40
3.0
 40
3.0
 40
3.0
 40
4.0
 40
4.0
 40
4.0
 40
5.0
 40
5.0
 40
5.0
 40
6.0
 40
6.0
 40
6.0
 40
7.0
 40
7.0
 40
7.0
 40
8.0
 40
8.0
 40
8.0
 40
9.0
 40
9.0
 40
9.0
 40
10.0
 40
10.0
 40
10.0
 40
11.0
 40
11.0
 40
11.0
 40
12.0
 40
12.0
 40
12.0
 40
13.0
 40
13.0
 40
13.0
 40
14.0
 40
14.0
 40
14.0
 40
14.0
 10
115.3318060692573
 20
-151.7495659342848
 10
115.3318060692573
 20
-151.7495659342848
 10
115.2301757524424
 20
-151.7495659342848
 10
115.2301757524424
 20
-151.7495659342848
 10
115.2301757524424
 20
-151.8363823405131
 10
115.2091606699824
 20
-152.2256781303463
 10
115.0124457177746
 20
-152.4454752223053
 10
114.8601724973266
 20
-152.6149739201796
 10
114.6527777491146
 20
-152.6845648489816
 10
114.5680284001774
 20
-152.7121256128636
 10
114.5680284001774
 20
-152.7121256128636
 10
114.3733805052608
 20
-152.545038481829
 10
114.3733805052608
 20
-152.545038481829
 10
114.4708767074934
 20
-152.5322916285336
 10
114.6462320676926
 20
-152.5092094887824
 10
114.8346787907358
 20
-152.3207627657392
 10
114.9087483436686
 20
-152.2487602700975
 10
115.0124457177746
 20
-152.1092339029449
 10
115.0124457177746
 20
-151.7495659342848
 10
115.0124457177746
 20
-151.7495659342848
 10
114.7816243202629
 20
-151.7495659342848
 10
114.7816243202629
 20
-151.7495659342848
 10
114.5955891640594
 20
-151.7495659342848
 10
114.4095540078559
 20
-151.7540445584157
 10
114.2231743421039
 20
-151.7688584690022
 10
114.2231743421039
 20
-151.7688584690022
 10
114.2231743421039
 20
-151.5487168674947
 10
114.2231743421039
 20
-151.5487168674947
 10
114.4116210651471
 20
-151.5635307780813
 10
114.6972194808743
 20
-151.5676648926636
 10
114.7816243202629
 20
-151.5676648926636
 10
114.7816243202629
 20
-151.5676648926636
 10
115.3318060692573
 20
-151.5676648926636
 10
115.3318060692573
 20
-151.5676648926636
 10
115.3507540944262
 20
-151.5676648926636
 10
115.6680473886177
 20
-151.5676648926636
 10
115.8968017288383
 20
-151.5487168674947
 10
115.8968017288383
 20
-151.5487168674947
 10
115.8968017288383
 20
-151.7688584690022
 10
115.8968017288383
 20
-151.7688584690022
 10
115.7083550057951
 20
-151.7540445584157
 10
115.5202527923005
 20
-151.7495659342848
 10
115.3318060692573
 20
-151.7495659342848
 97
        0
 97
        1
330
190
 75
     2
 76
     1
 98
        1
 10
0.0
 20
0.0
450
        0
451
        0
460
0.0
461
0.0
452
        0
462
0.0
453
        0
470

  0
SPLINE
  5
192
330
182
100
AcDbEntity
  8
レイヤー 1
100
AcDbSpline
210
0.0
220
0.0
230
1.0
 70
     9
 71
     3
 72
    29
 73
    25
 74
     0
 42
0.0000000001
 43
0.0000000001
 40
0.0
 40
0.0
 40
0.0
 40
0.0
 40
1.0
 40
1.0
 40
1.0
 40
2.0
 40
2.0
 40
2.0
 40
3.0
 40
3.0
 40
3.0
 40
4.0
 40
4.0
 40
4.0
 40
5.0
 40
5.0
 40
5.0
 40
6.0
 40
6.0
 40
6.0
 40
7.0
 40
7.0
 40
7.0
 40
8.0
 40
8.0
 40
8.0
 40
8.0
 10
117.1776882302542
 20
-151.9125189507371
 30
0.0
 10
117.1776882302542
 20
-151.9125189507371
 30
0.0
 10
116.693307805028
 20
-151.9125189507371
 30
0.0
 10
116.693307805028
 20
-151.9125189507371
 30
0.0
 10
116.665747041146
 20
-151.9125189507371
 30
0.0
 10
116.3484537469545
 20
-151.9125189507371
 30
0.0
 10
116.1369248841602
 20
-151.938012657328
 30
0.0
 10
116.1369248841602
 20
-151.938012657328
 30
0.0
 10
116.1369248841602
 20
-151.7071912598162
 30
0.0
 10
116.1369248841602
 20
-151.7071912598162
 30
0.0
 10
116.2953992764817
 20
-151.7306179091159
 30
0.0
 10
116.485913056816
 20
-151.7326849664071
 30
0.0
 10
116.693307805028
 20
-151.7326849664071
 30
0.0
 10
116.693307805028
 20
-151.7326849664071
 30
0.0
 10
117.1776882302542
 20
-151.7326849664071
 30
0.0
 10
117.1776882302542
 20
-151.7326849664071
 30
0.0
 10
117.3637233864577
 20
-151.7326849664071
 30
0.0
 10
117.5497585426612
 20
-151.7306179091159
 30
0.0
 10
117.734071151122
 20
-151.7071912598162
 30
0.0
 10
117.734071151122
 20
-151.7071912598162
 30
0.0
 10
117.734071151122
 20
-151.938012657328
 30
0.0
 10
117.734071151122
 20
-151.938012657328
 30
0.0
 10
117.5497585426612
 20
-151.9145860080283
 30
0.0
 10
117.3024006868202
 20
-151.9125189507371
 30
0.0
 10
117.1776882302542
 20
-151.9125189507371
 30
0.0
  0
HATCH
  5
193
330
182
100
AcDbEntity
  8
レイヤー 1
 62
    18
420
        0
440
 33554687
100
AcDbHatch
 10
0.0
 20
0.0
 30
0.0
210
0.0
220
0.0
230
1.0
  2
SOLID
 70
     1
 71
     1
 91
        1
 92
        1
 93
        1
 72
     4
 94
        3
 73
     0
 74
     0
 95
       29
 96
       25
 40
0.0
 40
0.0
 40
0.0
 40
0.0
 40
1.0
 40
1.0
 40
1.0
 40
2.0
 40
2.0
 40
2.0
 40
3.0
 40
3.0
 40
3.0
 40
4.0
 40
4.0
 40
4.0
 40
5.0
 40
5.0
 40
5.0
 40
6.0
 40
6.0
 40
6.0
 40
7.0
 40
7.0
 40
7.0
 40
8.0
 40
8.0
 40
8.0
 40
8.0
 10
117.1776882302542
 20
-151.9125189507371
 10
117.1776882302542
 20
-151.9125189507371
 10
116.693307805028
 20
-151.9125189507371
 10
116.693307805028
 20
-151.9125189507371
 10
116.665747041146
 20
-151.9125189507371
 10
116.3484537469545
 20
-151.9125189507371
 10
116.1369248841602
 20
-151.938012657328
 10
116.1369248841602
 20
-151.938012657328
 10
116.1369248841602
 20
-151.7071912598162
 10
116.1369248841602
 20
-151.7071912598162
 10
116.2953992764817
 20
-151.7306179091159
 10
116.485913056816
 20
-151.7326849664071
 10
116.693307805028
 20
-151.7326849664071
 10
116.693307805028
 20
-151.7326849664071
 10
117.1776882302542
 20
-151.7326849664071
 10
117.1776882302542
 20
-151.7326849664071
 10
117.3637233864577
 20
-151.7326849664071
 10
117.5497585426612
 20
-151.7306179091159
 10
117.734071151122
 20
-151.7071912598162
 10
117.734071151122
 20
-151.7071912598162
 10
117.734071151122
 20
-151.938012657328
 10
117.734071151122
 20
-151.938012657328
 10
117.5497585426612
 20
-151.9145860080283
 10
117.3024006868202
 20
-151.9125189507371
 10
117.1776882302542
 20
-151.9125189507371
 97
        0
 97
        1
330
192
 75
     2
 76
     1
 98
        1
 10
0.0
 20
0.0
450
        0
451
        0
460
0.0
461
0.0
452
        0
462
0.0
453
        0
470

  0
SPLINE
  5
194
330
182
100
AcDbEntity
  8
レイヤー 1
100
AcDbSpline
210
0.0
220
0.0
230
1.0
 70
     9
 71
     3
 72
    47
 73
    43
 74
     0
 42
0.0000000001
 43
0.0000000001
 40
0.0
 40
0.0
 40
0.0
 40
0.0
 40
1.0
 40
1.0
 40
1.0
 40
2.0
 40
2.0
 40
2.0
 40
3.0
 40
3.0
 40
3.0
 40
4.0
 40
4.0
 40
4.0
 40
5.0
 40
5.0
 40
5.0
 40
6.0
 40
6.0
 40
6.0
 40
7.0
 40
7.0
 40
7.0
 40
8.0
 40
8.0
 40
8.0
 40
9.0
 40
9.0
 40
9.0
 40
10.0
 40
10.0
 40
10.0
 40
11.0
 40
11.0
 40
11.0
 40
12.0
 40
12.0
 40
12.0
 40
13.0
 40
13.0
 40
13.0
 40
14.0
 40
14.0
 40
14.0
 40
14.0
 10
119.3977077609492
 20
-151.3182399795315
 30
0.0
 10
119.3277723225986
 20
-151.5972927138368
 30
0.0
 10
119.2516357123746
 20
-151.9018391547328
 30
0.0
 10
118.9388210423139
 20
-152.2339463595109
 30
0.0
 10
118.7017984729287
 20
-152.4837157821916
 30
0.0
 10
118.4565076743789
 20
-152.5832790417153
 30
0.0
 10
118.3507432429817
 20
-152.6253092066353
 30
0.0
 10
118.3507432429817
 20
-152.6253092066353
 30
0.0
 10
118.1560953480651
 20
-152.4434081650141
 30
0.0
 10
118.1560953480651
 20
-152.4434081650141
 30
0.0
 10
118.3421305042686
 20
-152.3968993759632
 30
0.0
 10
118.7038655302198
 20
-152.3038817978615
 30
0.0
 10
119.0001437419513
 20
-151.8088215766311
 30
0.0
 10
119.160685191564
 20
-151.5421711860728
 30
0.0
 10
119.1734320448594
 20
-151.3688828831647
 30
0.0
 10
119.1820447835725
 20
-151.2779323623541
 30
0.0
 10
119.1820447835725
 20
-151.2779323623541
 30
0.0
 10
118.6763047663379
 20
-151.2779323623541
 30
0.0
 10
118.6763047663379
 20
-151.2779323623541
 30
0.0
 10
118.5577934816453
 20
-151.2779323623541
 30
0.0
 10
118.1368028133477
 20
-151.296880387523
 30
0.0
 10
117.9845295928997
 20
-151.3075601835272
 30
0.0
 10
117.9845295928997
 20
-151.3075601835272
 30
0.0
 10
117.9845295928997
 20
-151.0980983780241
 30
0.0
 10
117.9845295928997
 20
-151.0980983780241
 30
0.0
 10
118.126467526892
 20
-151.1108452313195
 30
0.0
 10
118.4034532039061
 20
-151.1149793459018
 30
0.0
 10
118.5198974313075
 20
-151.1149793459018
 30
0.0
 10
118.5198974313075
 20
-151.1149793459018
 30
0.0
 10
118.8750867758368
 20
-151.1149793459018
 30
0.0
 10
118.8750867758368
 20
-151.1149793459018
 30
0.0
 10
118.9026475397188
 20
-151.1149793459018
 30
0.0
 10
119.0635334988799
 20
-151.1129122886106
 30
0.0
 10
119.1734320448594
 20
-151.0980983780241
 30
0.0
 10
119.2306206299145
 20
-151.0915526966021
 30
0.0
 10
119.2475015977923
 20
-151.0726046714332
 30
0.0
 10
119.270928247092
 20
-151.049522531682
 30
0.0
 10
119.270928247092
 20
-151.049522531682
 30
0.0
 10
119.4590304605866
 20
-151.1997286948389
 30
0.0
 10
119.4590304605866
 20
-151.1997286948389
 30
0.0
 10
119.44421655
 20
-151.2293565160121
 30
0.0
 10
119.4338812635443
 20
-151.248304541181
 30
0.0
 10
119.3977077609492
 20
-151.3182399795315
 30
0.0
  0
HATCH
  5
195
330
182
100
AcDbEntity
  8
レイヤー 1
 62
    18
420
        0
440
 33554687
100
AcDbHatch
 10
0.0
 20
0.0
 30
0.0
210
0.0
220
0.0
230
1.0
  2
SOLID
 70
     1
 71
     1
 91
        1
 92
        1
 93
        1
 72
     4
 94
        3
 73
     0
 74
     0
 95
       47
 96
       43
 40
0.0
 40
0.0
 40
0.0
 40
0.0
 40
1.0
 40
1.0
 40
1.0
 40
2.0
 40
2.0
 40
2.0
 40
3.0
 40
3.0
 40
3.0
 40
4.0
 40
4.0
 40
4.0
 40
5.0
 40
5.0
 40
5.0
 40
6.0
 40
6.0
 40
6.0
 40
7.0
 40
7.0
 40
7.0
 40
8.0
 40
8.0
 40
8.0
 40
9.0
 40
9.0
 40
9.0
 40
10.0
 40
10.0
 40
10.0
 40
11.0
 40
11.0
 40
11.0
 40
12.0
 40
12.0
 40
12.0
 40
13.0
 40
13.0
 40
13.0
 40
14.0
 40
14.0
 40
14.0
 40
14.0
 10
119.3977077609492
 20
-151.3182399795315
 10
119.3277723225986
 20
-151.5972927138368
 10
119.2516357123746
 20
-151.9018391547328
 10
118.9388210423139
 20
-152.2339463595109
 10
118.7017984729287
 20
-152.4837157821916
 10
118.4565076743789
 20
-152.5832790417153
 10
118.3507432429817
 20
-152.6253092066353
 10
118.3507432429817
 20
-152.6253092066353
 10
118.1560953480651
 20
-152.4434081650141
 10
118.1560953480651
 20
-152.4434081650141
 10
118.3421305042686
 20
-152.3968993759632
 10
118.7038655302198
 20
-152.3038817978615
 10
119.0001437419513
 20
-151.8088215766311
 10
119.160685191564
 20
-151.5421711860728
 10
119.1734320448594
 20
-151.3688828831647
 10
119.1820447835725
 20
-151.2779323623541
 10
119.1820447835725
 20
-151.2779323623541
 10
118.6763047663379
 20
-151.2779323623541
 10
118.6763047663379
 20
-151.2779323623541
 10
118.5577934816453
 20
-151.2779323623541
 10
118.1368028133477
 20
-151.296880387523
 10
117.9845295928997
 20
-151.3075601835272
 10
117.9845295928997
 20
-151.3075601835272
 10
117.9845295928997
 20
-151.0980983780241
 10
117.9845295928997
 20
-151.0980983780241
 10
118.126467526892
 20
-151.1108452313195
 10
118.4034532039061
 20
-151.1149793459018
 10
118.5198974313075
 20
-151.1149793459018
 10
118.5198974313075
 20
-151.1149793459018
 10
118.8750867758368
 20
-151.1149793459018
 10
118.8750867758368
 20
-151.1149793459018
 10
118.9026475397188
 20
-151.1149793459018
 10
119.0635334988799
 20
-151.1129122886106
 10
119.1734320448594
 20
-151.0980983780241
 10
119.2306206299145
 20
-151.0915526966021
 10
119.2475015977923
 20
-151.0726046714332
 10
119.270928247092
 20
-151.049522531682
 10
119.270928247092
 20
-151.049522531682
 10
119.4590304605866
 20
-151.1997286948389
 10
119.4590304605866
 20
-151.1997286948389
 10
119.44421655
 20
-151.2293565160121
 10
119.4338812635443
 20
-151.248304541181
 10
119.3977077609492
 20
-151.3182399795315
 97
        0
 97
        1
330
194
 75
     2
 76
     1
 98
        1
 10
0.0
 20
0.0
450
        0
451
        0
460
0.0
461
0.0
452
        0
462
0.0
453
        0
470

  0
SPLINE
  5
196
330
182
100
AcDbEntity
  8
レイヤー 1
100
AcDbSpline
210
0.0
220
0.0
230
1.0
 70
    11
 71
     3
 72
    17
 73
    13
 74
     0
 42
0.0000000001
 43
0.0000000001
 40
0.0
 40
0.0
 40
0.0
 40
0.0
 40
1.0
 40
1.0
 40
1.0
 40
2.0
 40
2.0
 40
2.0
 40
3.0
 40
3.0
 40
3.0
 40
4.0
 40
4.0
 40
4.0
 40
4.0
 10
119.788037079428
 20
-151.1001654353152
 30
0.0
 10
119.788037079428
 20
-151.1594210776615
 30
0.0
 10
119.8345458684789
 20
-151.2059298667124
 30
0.0
 10
119.8938015108252
 20
-151.2059298667124
 30
0.0
 10
119.9530571531714
 20
-151.2059298667124
 30
0.0
 10
120.0016329995135
 20
-151.1594210776615
 30
0.0
 10
120.0016329995135
 20
-151.1001654353152
 30
0.0
 10
120.0016329995135
 20
-151.0409097929689
 30
0.0
 10
119.9530571531714
 20
-150.9923339466269
 30
0.0
 10
119.8938015108252
 20
-150.9923339466269
 30
0.0
 10
119.8345458684789
 20
-150.9923339466269
 30
0.0
 10
119.788037079428
 20
-151.0409097929689
 30
0.0
 10
119.788037079428
 20
-151.1001654353152
 30
0.0
  0
SPLINE
  5
197
330
182
100
AcDbEntity
  8
レイヤー 1
100
AcDbSpline
210
0.0
220
0.0
230
1.0
 70
     9
 71
     3
 72
    17
 73
    13
 74
     0
 42
0.0000000001
 43
0.0000000001
 40
0.0
 40
0.0
 40
0.0
 40
0.0
 40
1.0
 40
1.0
 40
1.0
 40
2.0
 40
2.0
 40
2.0
 40
3.0
 40
3.0
 40
3.0
 40
4.0
 40
4.0
 40
4.0
 40
4.0
 10
120.1032633163283
 20
-151.1001654353152
 30
0.0
 10
120.1032633163283
 20
-151.2145426054255
 30
0.0
 10
120.0102457382266
 20
-151.3096272408184
 30
0.0
 10
119.8938015108252
 20
-151.3096272408184
 30
0.0
 10
119.7794243407148
 20
-151.3096272408184
 30
0.0
 10
119.6843397053219
 20
-151.2145426054255
 30
0.0
 10
119.6843397053219
 20
-151.1001654353152
 30
0.0
 10
119.6843397053219
 20
-150.9837212079138
 30
0.0
 10
119.7794243407148
 20
-150.890703629812
 30
0.0
 10
119.8938015108252
 20
-150.890703629812
 30
0.0
 10
120.0081786809354
 20
-150.890703629812
 30
0.0
 10
120.1032633163283
 20
-150.9837212079138
 30
0.0
 10
120.1032633163283
 20
-151.1001654353152
 30
0.0
  0
HATCH
  5
198
330
182
100
AcDbEntity
  8
レイヤー 1
 62
    18
420
        0
440
 33554687
100
AcDbHatch
 10
0.0
 20
0.0
 30
0.0
210
0.0
220
0.0
230
1.0
  2
SOLID
 70
     1
 71
     1
 91
        2
 92
        1
 93
        1
 72
     4
 94
        3
 73
     0
 74
     0
 95
       17
 96
       13
 40
0.0
 40
0.0
 40
0.0
 40
0.0
 40
1.0
 40
1.0
 40
1.0
 40
2.0
 40
2.0
 40
2.0
 40
3.0
 40
3.0
 40
3.0
 40
4.0
 40
4.0
 40
4.0
 40
4.0
 10
119.788037079428
 20
-151.1001654353152
 10
119.788037079428
 20
-151.1594210776615
 10
119.8345458684789
 20
-151.2059298667124
 10
119.8938015108252
 20
-151.2059298667124
 10
119.9530571531714
 20
-151.2059298667124
 10
120.0016329995135
 20
-151.1594210776615
 10
120.0016329995135
 20
-151.1001654353152
 10
120.0016329995135
 20
-151.0409097929689
 10
119.9530571531714
 20
-150.9923339466269
 10
119.8938015108252
 20
-150.9923339466269
 10
119.8345458684789
 20
-150.9923339466269
 10
119.788037079428
 20
-151.0409097929689
 10
119.788037079428
 20
-151.1001654353152
 97
        0
 97
        1
330
196
 92
        1
 93
        1
 72
     4
 94
        3
 73
     0
 74
     0
 95
       17
 96
       13
 40
0.0
 40
0.0
 40
0.0
 40
0.0
 40
1.0
 40
1.0
 40
1.0
 40
2.0
 40
2.0
 40
2.0
 40
3.0
 40
3.0
 40
3.0
 40
4.0
 40
4.0
 40
4.0
 40
4.0
 10
120.1032633163283
 20
-151.1001654353152
 10
120.1032633163283
 20
-151.2145426054255
 10
120.0102457382266
 20
-151.3096272408184
 10
119.8938015108252
 20
-151.3096272408184
 10
119.7794243407148
 20
-151.3096272408184
 10
119.6843397053219
 20
-151.2145426054255
 10
119.6843397053219
 20
-151.1001654353152
 10
119.6843397053219
 20
-150.9837212079138
 10
119.7794243407148
 20
-150.890703629812
 10
119.8938015108252
 20
-150.890703629812
 10
120.0081786809354
 20
-150.890703629812
 10
120.1032633163283
 20
-150.9837212079138
 10
120.1032633163283
 20
-151.1001654353152
 97
        0
 97
        1
330
197
 75
     2
 76
     1
 98
        1
 10
0.0
 20
0.0
450
        0
451
        0
460
0.0
461
0.0
452
        0
462
0.0
453
        0
470

  0
ENDBLK
  5
185
330
182
100
AcDbEntity
  8
0
100
AcDbBlockEnd
  0
ENDSEC
  0
SECTION
  2
ENTITIES
  0
INSERT
  5
7A
330
70
100
AcDbEntity
  8
レイヤー 1
100
AcDbBlockReference
  2
Block_0
 10
0.0
 20
0.0
 30
0.0
  0
INSERT
  5
B4
330
70
100
AcDbEntity
  8
レイヤー 1
100
AcDbBlockReference
  2
Block_1
 10
0.0
 20
0.0
 30
0.0
  0
INSERT
  5
174
330
70
100
AcDbEntity
  8
レイヤー 1
100
AcDbBlockReference
  2
Block_12
 10
0.0
 20
0.0
 30
0.0
  0
ENDSEC
  0
SECTION
  2
OBJECTS
  0
DICTIONARY
  5
C
330
0
100
AcDbDictionary
281
     1
  3
ACAD_COLOR
350
63
  3
ACAD_DETAILVIEWSTYLE
350
6A
  3
ACAD_GROUP
350
D
  3
ACAD_LAYOUT
350
62
  3
ACAD_MATERIAL
350
10
  3
ACAD_MLEADERSTYLE
350
66
  3
ACAD_MLINESTYLE
350
5F
  3
ACAD_PLOTSETTINGS
350
61
  3
ACAD_PLOTSTYLENAME
350
E
  3
ACAD_SCALELIST
350
42
  3
ACAD_SECTIONVIEWSTYLE
350
68
  3
ACAD_TABLESTYLE
350
64
  3
ACAD_VISUALSTYLE
350
29
  3
ACDB_RECOMPOSE_DATA
350
1A1
  3
AcDbVariableDictionary
350
199
  0
DICTIONARY
  5
63
102
{ACAD_REACTORS
330
C
102
}
330
C
100
AcDbDictionary
281
     1
  0
DICTIONARY
  5
6A
102
{ACAD_REACTORS
330
C
102
}
330
C
100
AcDbDictionary
281
     1
  3
Imperial24
350
6B
  0
DICTIONARY
  5
D
102
{ACAD_REACTORS
330
C
102
}
330
C
100
AcDbDictionary
281
     1
  0
DICTIONARY
  5
62
102
{ACAD_REACTORS
330
C
102
}
330
C
100
AcDbDictionary
281
     1
  3
Layout1
350
6F
  3
Layout2
350
77
  3
Model
350
73
  0
DICTIONARY
  5
10
102
{ACAD_REACTORS
330
C
102
}
330
C
100
AcDbDictionary
281
     1
  3
ByBlock
350
19
  3
ByLayer
350
11
  3
Global
350
21
  0
DICTIONARY
  5
66
102
{ACAD_REACTORS
330
C
102
}
330
C
100
AcDbDictionary
281
     1
  3
Standard
350
67
  0
DICTIONARY
  5
5F
102
{ACAD_REACTORS
330
C
102
}
330
C
100
AcDbDictionary
281
     1
  3
Standard
350
60
  0
DICTIONARY
  5
61
102
{ACAD_REACTORS
330
C
102
}
330
C
100
AcDbDictionary
281
     1
  0
ACDBDICTIONARYWDFLT
  5
E
102
{ACAD_REACTORS
330
C
102
}
330
C
100
AcDbDictionary
281
     1
  3
Normal
350
F
100
AcDbDictionaryWithDefault
340
F
  0
DICTIONARY
  5
42
102
{ACAD_REACTORS
330
C
102
}
330
C
100
AcDbDictionary
281
     1
  3
A0
350
43
  3
A1
350
44
  3
A2
350
45
  3
A3
350
46
  3
A4
350
47
  3
A5
350
48
  3
A6
350
49
  3
A7
350
4A
  3
A8
350
4B
  3
A9
350
4C
  3
B0
350
4D
  3
B1
350
4E
  3
B2
350
4F
  3
B3
350
50
  3
B4
350
51
  3
B5
350
52
  3
B6
350
53
  0
DICTIONARY
  5
68
102
{ACAD_REACTORS
330
C
102
}
330
C
100
AcDbDictionary
281
     1
  3
Imperial24
350
69
  0
DICTIONARY
  5
64
102
{ACAD_REACTORS
330
C
102
}
330
C
100
AcDbDictionary
281
     1
  3
Standard
350
65
  0
DICTIONARY
  5
29
102
{ACAD_REACTORS
330
C
102
}
330
C
100
AcDbDictionary
281
     1
  3
2dWireframe
350
2F
  3
Basic
350
2E
  3
Brighten
350
35
  3
ColorChange
350
39
  3
Conceptual
350
32
  3
Dim
350
34
  3
EdgeColorOff
350
41
  3
Facepattern
350
38
  3
Flat
350
2A
  3
FlatWithEdges
350
2B
  3
Gouraud
350
2C
  3
GouraudWithEdges
350
2D
  3
Hidden
350
31
  3
JitterOff
350
3F
  3
Linepattern
350
37
  3
OverhangOff
350
40
  3
Realistic
350
33
  3
Shaded
350
3E
  3
Shaded with edges
350
3D
  3
Shades of Gray
350
3A
  3
Sketchy
350
3B
  3
Thicken
350
36
  3
Wireframe
350
30
  3
X-Ray
350
3C
  0
XRECORD
  5
1A1
102
{ACAD_REACTORS
330
C
102
}
330
C
100
AcDbXrecord
280
     1
 90
        1
330
65
  0
DICTIONARY
  5
199
102
{ACAD_REACTORS
330
C
102
}
330
C
100
AcDbDictionary
281
     1
  3
CANNOSCALE
350
19E
  3
CMLEADERSTYLE
350
19B
  3
CTABLESTYLE
350
19A
  3
CVIEWDETAILSTYLE
350
19C
  3
CVIEWSECTIONSTYLE
350
19D
  0
ACDBDETAILVIEWSTYLE
  5
6B
102
{ACAD_XDICTIONARY
360
1D6
102
}
102
{ACAD_REACTORS
330
6A
102
}
330
6A
100
AcDbModelDocViewStyle
 70
     0
  3
Imperial24
290
     0
100
AcDbDetailViewStyle
 70
     0
 71
     0
 90
        3
 71
     1
340
55
 62
   256
 40
0.24
340
0
 62
   256
 40
0.24
300

 40
0.36
280
     3
 71
     2
340
5D
 90
       25
 62
   256
 71
     3
340
55
 62
   256
 40
0.24
 90
        1
 40
0.75
 90
        1
300
%<\AcVar ViewType \f "%tc1">% %<\AcVar ViewDetailId>%\PSCALE %<\AcVar ViewScale \f "%sn">%
 71
     4
340
5D
 90
       25
 62
   256
340
5D
 90
       25
 62
   256
280
     0
  0
LAYOUT
  5
6F
102
{ACAD_REACTORS
330
62
102
}
330
62
100
AcDbPlotSettings
  1

  2

  4

  6

 40
0.0
 41
0.0
 42
0.0
 43
0.0
 44
0.0
 45
0.0
 46
0.0
 47
0.0
 48
0.0
 49
0.0
140
0.0
141
0.0
142
1.0
143
1.0
 70
   688
 72
     0
 73
     0
 74
     5
  7

 75
    16
147
1.0
 76
     0
 77
     2
 78
   300
148
0.0
149
0.0
100
AcDbLayout
  1
Layout1
 70
     1
 71
     1
 10
0.0
 20
0.0
 11
12.0
 21
9.0
 12
0.0
 22
0.0
 32
0.0
 14
0.0
 24
0.0
 34
0.0
 15
0.0
 25
0.0
 35
0.0
146
0.0
 13
0.0
 23
0.0
 33
0.0
 16
1.0
 26
0.0
 36
0.0
 17
0.0
 27
1.0
 37
0.0
 76
     0
330
6C
  0
LAYOUT
  5
77
102
{ACAD_REACTORS
330
62
102
}
330
62
100
AcDbPlotSettings
  1

  2

  4

  6

 40
0.0
 41
0.0
 42
0.0
 43
0.0
 44
0.0
 45
0.0
 46
0.0
 47
0.0
 48
0.0
 49
0.0
140
0.0
141
0.0
142
1.0
143
1.0
 70
   688
 72
     0
 73
     0
 74
     5
  7

 75
    16
147
1.0
 76
     0
 77
     2
 78
   300
148
0.0
149
0.0
100
AcDbLayout
  1
Layout2
 70
     1
 71
     2
 10
0.0
 20
0.0
 11
12.0
 21
9.0
 12
0.0
 22
0.0
 32
0.0
 14
0.0
 24
0.0
 34
0.0
 15
0.0
 25
0.0
 35
0.0
146
0.0
 13
0.0
 23
0.0
 33
0.0
 16
1.0
 26
0.0
 36
0.0
 17
0.0
 27
1.0
 37
0.0
 76
     0
330
74
  0
LAYOUT
  5
73
102
{ACAD_REACTORS
330
62
102
}
330
62
100
AcDbPlotSettings
  1

  2

  4

  6

 40
0.0
 41
0.0
 42
0.0
 43
0.0
 44
0.0
 45
0.0
 46
0.0
 47
0.0
 48
0.0
 49
0.0
140
0.0
141
0.0
142
1.0
143
1.0
 70
  1712
 72
     0
 73
     0
 74
     0
  7

 75
     0
147
1.0
 76
     0
 77
     2
 78
   300
148
0.0
149
0.0
100
AcDbLayout
  1
Model
 70
     1
 71
     0
 10
0.0
 20
0.0
 11
12.0
 21
9.0
 12
0.0
 22
0.0
 32
0.0
 14
0.0
 24
0.0
 34
0.0
 15
0.0
 25
0.0
 35
0.0
146
0.0
 13
0.0
 23
0.0
 33
0.0
 16
1.0
 26
0.0
 36
0.0
 17
0.0
 27
1.0
 37
0.0
 76
     0
330
70
  0
MATERIAL
  5
19
102
{ACAD_XDICTIONARY
360
1A
102
}
102
{ACAD_REACTORS
330
10
102
}
330
10
100
AcDbMaterial
  1
ByBlock
 72
     0
 43
0.0208333333333333
 43
0.0
 43
0.0
 43
0.0
 43
0.0
 43
0.0208333333333333
 43
0.0
 43
0.0
 43
0.0
 43
0.0
 43
1.0
 43
0.0
 43
0.0
 43
0.0
 43
0.0
 43
1.0
 77
     0
 47
0.0208333333333333
 47
0.0
 47
0.0
 47
0.0
 47
0.0
 47
0.0208333333333333
 47
0.0
 47
0.0
 47
0.0
 47
0.0
 47
1.0
 47
0.0
 47
0.0
 47
0.0
 47
0.0
 47
1.0
171
     0
 49
0.0208333333333333
 49
0.0
 49
0.0
 49
0.0
 49
0.0
 49
0.0208333333333333
 49
0.0
 49
0.0
 49
0.0
 49
0.0
 49
1.0
 49
0.0
 49
0.0
 49
0.0
 49
0.0
 49
1.0
175
     0
142
0.0208333333333333
142
0.0
142
0.0
142
0.0
142
0.0
142
0.0208333333333333
142
0.0
142
0.0
142
0.0
142
0.0
142
1.0
142
0.0
142
0.0
142
0.0
142
0.0
142
1.0
179
     0
144
0.0208333333333333
144
0.0
144
0.0
144
0.0
144
0.0
144
0.0208333333333333
144
0.0
144
0.0
144
0.0
144
0.0
144
1.0
144
0.0
144
0.0
144
0.0
144
0.0
144
1.0
147
0.0208333333333333
147
0.0
147
0.0
147
0.0
147
0.0
147
0.0208333333333333
147
0.0
147
0.0
147
0.0
147
0.0
147
1.0
147
0.0
147
0.0
147
0.0
147
0.0
147
1.0
  0
MATERIAL
  5
11
102
{ACAD_XDICTIONARY
360
12
102
}
102
{ACAD_REACTORS
330
10
102
}
330
10
100
AcDbMaterial
  1
ByLayer
 72
     0
 43
0.0208333333333333
 43
0.0
 43
0.0
 43
0.0
 43
0.0
 43
0.0208333333333333
 43
0.0
 43
0.0
 43
0.0
 43
0.0
 43
1.0
 43
0.0
 43
0.0
 43
0.0
 43
0.0
 43
1.0
 77
     0
 47
0.0208333333333333
 47
0.0
 47
0.0
 47
0.0
 47
0.0
 47
0.0208333333333333
 47
0.0
 47
0.0
 47
0.0
 47
0.0
 47
1.0
 47
0.0
 47
0.0
 47
0.0
 47
0.0
 47
1.0
171
     0
 49
0.0208333333333333
 49
0.0
 49
0.0
 49
0.0
 49
0.0
 49
0.0208333333333333
 49
0.0
 49
0.0
 49
0.0
 49
0.0
 49
1.0
 49
0.0
 49
0.0
 49
0.0
 49
0.0
 49
1.0
175
     0
142
0.0208333333333333
142
0.0
142
0.0
142
0.0
142
0.0
142
0.0208333333333333
142
0.0
142
0.0
142
0.0
142
0.0
142
1.0
142
0.0
142
0.0
142
0.0
142
0.0
142
1.0
179
     0
144
0.0208333333333333
144
0.0
144
0.0
144
0.0
144
0.0
144
0.0208333333333333
144
0.0
144
0.0
144
0.0
144
0.0
144
1.0
144
0.0
144
0.0
144
0.0
144
0.0
144
1.0
147
0.0208333333333333
147
0.0
147
0.0
147
0.0
147
0.0
147
0.0208333333333333
147
0.0
147
0.0
147
0.0
147
0.0
147
1.0
147
0.0
147
0.0
147
0.0
147
0.0
147
1.0
  0
MATERIAL
  5
21
102
{ACAD_XDICTIONARY
360
22
102
}
102
{ACAD_REACTORS
330
10
102
}
330
10
100
AcDbMaterial
  1
Global
 72
     0
 43
0.0208333333333333
 43
0.0
 43
0.0
 43
0.0
 43
0.0
 43
0.0208333333333333
 43
0.0
 43
0.0
 43
0.0
 43
0.0
 43
1.0
 43
0.0
 43
0.0
 43
0.0
 43
0.0
 43
1.0
 77
     0
 47
0.0208333333333333
 47
0.0
 47
0.0
 47
0.0
 47
0.0
 47
0.0208333333333333
 47
0.0
 47
0.0
 47
0.0
 47
0.0
 47
1.0
 47
0.0
 47
0.0
 47
0.0
 47
0.0
 47
1.0
171
     0
 49
0.0208333333333333
 49
0.0
 49
0.0
 49
0.0
 49
0.0
 49
0.0208333333333333
 49
0.0
 49
0.0
 49
0.0
 49
0.0
 49
1.0
 49
0.0
 49
0.0
 49
0.0
 49
0.0
 49
1.0
175
     0
142
0.0208333333333333
142
0.0
142
0.0
142
0.0
142
0.0
142
0.0208333333333333
142
0.0
142
0.0
142
0.0
142
0.0
142
1.0
142
0.0
142
0.0
142
0.0
142
0.0
142
1.0
179
     0
144
0.0208333333333333
144
0.0
144
0.0
144
0.0
144
0.0
144
0.0208333333333333
144
0.0
144
0.0
144
0.0
144
0.0
144
1.0
144
0.0
144
0.0
144
0.0
144
0.0
144
1.0
147
0.0208333333333333
147
0.0
147
0.0
147
0.0
147
0.0
147
0.0208333333333333
147
0.0
147
0.0
147
0.0
147
0.0
147
1.0
147
0.0
147
0.0
147
0.0
147
0.0
147
1.0
  0
MLEADERSTYLE
  5
67
102
{ACAD_XDICTIONARY
360
1D2
102
}
102
{ACAD_REACTORS
330
66
102
}
330
66
100
AcDbMLeaderStyle
179
     2
170
     2
171
     1
172
     0
 90
        2
 40
0.0
 41
0.0
173
     1
 91
-1056964608
340
5B
 92
       -2
290
     1
 42
0.09
291
     1
 43
0.36
  3
Standard
 44
0.18
300

342
55
174
     1
178
     6
175
     1
176
     0
 93
-1056964608
 45
0.18
292
     0
297
     0
 46
0.18
 94
-1056964608
 47
1.0
 49
1.0
140
1.0
293
     1
141
0.0
294
     1
177
     0
142
1.0
295
     0
296
     0
143
0.125
271
     0
272
     9
273
     9
  0
MLINESTYLE
  5
60
102
{ACAD_REACTORS
330
5F
102
}
330
5F
100
AcDbMlineStyle
  2
STANDARD
 70
     0
  3

 62
   256
 51
90.0
 52
90.0
 71
     2
 49
0.5
 62
   256
  6
BYLAYER
 49
-0.5
 62
   256
  6
BYLAYER
  0
ACDBPLACEHOLDER
  5
F
102
{ACAD_REACTORS
330
E
102
}
330
E
  0
SCALE
  5
43
102
{ACAD_REACTORS
330
42
102
}
330
42
100
AcDbScale
 70
     0
300
1:1
140
1.0
141
1.0
290
     1
  0
SCALE
  5
44
102
{ACAD_REACTORS
330
42
102
}
330
42
100
AcDbScale
 70
     0
300
1/128" = 1'-0"
140
0.0078125
141
12.0
290
     0
  0
SCALE
  5
45
102
{ACAD_REACTORS
330
42
102
}
330
42
100
AcDbScale
 70
     0
300
1/64" = 1'-0"
140
0.015625
141
12.0
290
     0
  0
SCALE
  5
46
102
{ACAD_REACTORS
330
42
102
}
330
42
100
AcDbScale
 70
     0
300
1/32" = 1'-0"
140
0.03125
141
12.0
290
     0
  0
SCALE
  5
47
102
{ACAD_REACTORS
330
42
102
}
330
42
100
AcDbScale
 70
     0
300
1/16" = 1'-0"
140
0.0625
141
12.0
290
     0
  0
SCALE
  5
48
102
{ACAD_REACTORS
330
42
102
}
330
42
100
AcDbScale
 70
     0
300
3/32" = 1'-0"
140
0.09375
141
12.0
290
     0
  0
SCALE
  5
49
102
{ACAD_REACTORS
330
42
102
}
330
42
100
AcDbScale
 70
     0
300
1/8" = 1'-0"
140
0.125
141
12.0
290
     0
  0
SCALE
  5
4A
102
{ACAD_REACTORS
330
42
102
}
330
42
100
AcDbScale
 70
     0
300
3/16" = 1'-0"
140
0.1875
141
12.0
290
     0
  0
SCALE
  5
4B
102
{ACAD_REACTORS
330
42
102
}
330
42
100
AcDbScale
 70
     0
300
1/4" = 1'-0"
140
0.25
141
12.0
290
     0
  0
SCALE
  5
4C
102
{ACAD_REACTORS
330
42
102
}
330
42
100
AcDbScale
 70
     0
300
3/8" = 1'-0"
140
0.375
141
12.0
290
     0
  0
SCALE
  5
4D
102
{ACAD_REACTORS
330
42
102
}
330
42
100
AcDbScale
 70
     0
300
1/2" = 1'-0"
140
0.5
141
12.0
290
     0
  0
SCALE
  5
4E
102
{ACAD_REACTORS
330
42
102
}
330
42
100
AcDbScale
 70
     0
300
3/4" = 1'-0"
140
0.75
141
12.0
290
     0
  0
SCALE
  5
4F
102
{ACAD_REACTORS
330
42
102
}
330
42
100
AcDbScale
 70
     0
300
1" = 1'-0"
140
1.0
141
12.0
290
     0
  0
SCALE
  5
50
102
{ACAD_REACTORS
330
42
102
}
330
42
100
AcDbScale
 70
     0
300
1-1/2" = 1'-0"
140
1.5
141
12.0
290
     0
  0
SCALE
  5
51
102
{ACAD_REACTORS
330
42
102
}
330
42
100
AcDbScale
 70
     0
300
3" = 1'-0"
140
3.0
141
12.0
290
     0
  0
SCALE
  5
52
102
{ACAD_REACTORS
330
42
102
}
330
42
100
AcDbScale
 70
     0
300
6" = 1'-0"
140
6.0
141
12.0
290
     0
  0
SCALE
  5
53
102
{ACAD_REACTORS
330
42
102
}
330
42
100
AcDbScale
 70
     0
300
1'-0" = 1'-0"
140
12.0
141
12.0
290
     0
  0
ACDBSECTIONVIEWSTYLE
  5
69
102
{ACAD_XDICTIONARY
360
1D4
102
}
102
{ACAD_REACTORS
330
68
102
}
330
68
100
AcDbModelDocViewStyle
 70
     0
  3
Imperial24
290
     0
100
AcDbSectionViewStyle
 70
     0
 71
     0
 90
       78
 71
     1
340
55
 62
   256
 40
0.24
340
0
340
0
 62
   256
 40
0.24
300
I, O, Q, S, X, Z
 40
0.48
 90
        3
 40
0.18
 90
        1
 71
     2
340
5D
 90
       25
 62
   256
340
5D
 90
       50
 62
   256
 40
0.24
 40
0.0
 40
0.24
 71
     3
340
55
 62
   256
 40
0.24
 90
        1
 40
0.75
 90
        1
300
%<\AcVar ViewType \f "%tc1">% %<\AcVar ViewSectionStartId>%-%<\AcVar ViewSectionEndId>%\PSCALE %<\AcVar ViewScale \f "%sn">%
 71
     4
 62
   256
 62
   257
300
ANSI31
 40
1.0
 90
        0
290
     0
290
     0
 90
        6
 40
0.0
 40
1.570796326794896
 40
0.2617993877991494
 40
1.308996938995747
 40
-0.2617993877991494
 40
1.832595714594046
  0
TABLESTYLE
  5
65
102
{ACAD_XDICTIONARY
360
19F
102
}
102
{ACAD_REACTORS
330
64
102
}
330
64
100
AcDbTableStyle
280
     0
  3
Standard
 70
     0
 71
     0
 40
0.06
 41
0.06
280
     0
281
     0
  7
Standard
140
0.18
170
     2
 62
     0
 63
     7
283
     0
 90
      512
 91
        0
  1

274
    -2
284
     1
 64
     0
275
    -2
285
     1
 65
     0
276
    -2
286
     1
 66
     0
277
    -2
287
     1
 67
     0
278
    -2
288
     1
 68
     0
279
    -2
289
     1
 69
     0
  7
Standard
140
0.25
170
     5
 62
     0
 63
     7
283
     0
 90
      512
 91
        0
  1

274
    -2
284
     1
 64
     0
275
    -2
285
     1
 65
     0
276
    -2
286
     1
 66
     0
277
    -2
287
     1
 67
     0
278
    -2
288
     1
 68
     0
279
    -2
289
     1
 69
     0
  7
Standard
140
0.18
170
     5
 62
     0
 63
     7
283
     0
 90
      512
 91
        0
  1

274
    -2
284
     1
 64
     0
275
    -2
285
     1
 65
     0
276
    -2
286
     1
 66
     0
277
    -2
287
     1
 67
     0
278
    -2
288
     1
 68
     0
279
    -2
289
     1
 69
     0
  0
VISUALSTYLE
  5
2F
102
{ACAD_XDICTIONARY
360
1AC
102
}
102
{ACAD_REACTORS
330
29
102
}
330
29
100
AcDbVisualStyle
  2
2dWireframe
 70
     4
177
     2
291
     0
 71
     0
176
     1
 72
     2
176
     1
 73
     0
176
     1
 90
        0
176
     1
 40
0.6
176
     1
 41
30.0
176
     1
 63
     7
421
 16777215
176
     1
 74
     1
176
     1
 91
        4
176
     1
 64
     7
176
     1
 65
   257
176
     1
 75
     1
176
     1
175
     1
176
     1
 42
1.0
176
     1
 92
        0
176
     1
 66
   257
176
     1
 43
1.0
176
     1
 76
     1
176
     1
 77
     6
176
     1
 78
     2
176
     1
 67
     7
176
     1
 79
     5
176
     1
170
     0
176
     1
171
     0
176
     1
290
     0
176
     1
 93
        1
176
     1
 44
0.0
176
     1
173
     0
176
     1
1001
ACAD
1000
AcDbSavedByObjectVersion
1070
     0
  0
VISUALSTYLE
  5
2E
102
{ACAD_XDICTIONARY
360
1AA
102
}
102
{ACAD_REACTORS
330
29
102
}
330
29
100
AcDbVisualStyle
  2
Basic
 70
     7
177
     2
291
     1
 71
     1
176
     1
 72
     0
176
     1
 73
     1
176
     1
 90
        0
176
     1
 40
0.6
176
     1
 41
30.0
176
     1
 63
     7
421
 16777215
176
     1
 74
     0
176
     1
 91
        4
176
     1
 64
     7
176
     1
 65
   257
176
     1
 75
     1
176
     1
175
     1
176
     1
 42
1.0
176
     1
 92
        8
176
     1
 66
     7
176
     1
 43
1.0
176
     1
 76
     1
176
     1
 77
     6
176
     1
 78
     2
176
     1
 67
     7
176
     1
 79
     5
176
     1
170
     0
176
     1
171
     0
176
     1
290
     0
176
     1
 93
        1
176
     1
 44
0.0
176
     1
173
     0
176
     1
1001
ACAD
1000
AcDbSavedByObjectVersion
1070
     0
  0
VISUALSTYLE
  5
35
102
{ACAD_XDICTIONARY
360
1B8
102
}
102
{ACAD_REACTORS
330
29
102
}
330
29
100
AcDbVisualStyle
  2
Brighten
 70
    12
177
     2
291
     1
 71
     2
176
     1
 72
     2
176
     1
 73
     0
176
     1
 90
        0
176
     1
 40
0.6
176
     1
 41
30.0
176
     1
 63
     7
421
 16777215
176
     1
 74
     1
176
     1
 91
        4
176
     1
 64
     7
176
     1
 65
   257
176
     1
 75
     1
176
     1
175
     1
176
     1
 42
1.0
176
     1
 92
        8
176
     1
 66
     7
176
     1
 43
1.0
176
     1
 76
     1
176
     1
 77
     6
176
     1
 78
     2
176
     1
 67
     7
176
     1
 79
     5
176
     1
170
     0
176
     1
171
     0
176
     1
290
     0
176
     1
 93
        1
176
     1
 44
50.0
176
     1
173
     0
176
     1
1001
ACAD
1000
AcDbSavedByObjectVersion
1070
     0
  0
VISUALSTYLE
  5
39
102
{ACAD_XDICTIONARY
360
1C0
102
}
102
{ACAD_REACTORS
330
29
102
}
330
29
100
AcDbVisualStyle
  2
ColorChange
 70
    16
177
     2
291
     1
 71
     2
176
     1
 72
     2
176
     1
 73
     3
176
     1
 90
        0
176
     1
 40
0.6
176
     1
 41
30.0
176
     1
 63
     8
421
  8421504
176
     1
 74
     1
176
     1
 91
        4
176
     1
 64
     7
176
     1
 65
   257
176
     1
 75
     1
176
     1
175
     1
176
     1
 42
1.0
176
     1
 92
        8
176
     1
 66
     8
424
  8421504
176
     1
 43
1.0
176
     1
 76
     1
176
     1
 77
     6
176
     1
 78
     2
176
     1
 67
     7
176
     1
 79
     5
176
     1
170
     0
176
     1
171
     0
176
     1
290
     0
176
     1
 93
        1
176
     1
 44
0.0
176
     1
173
     0
176
     1
1001
ACAD
1000
AcDbSavedByObjectVersion
1070
     0
  0
VISUALSTYLE
  5
32
102
{ACAD_XDICTIONARY
360
1B2
102
}
102
{ACAD_REACTORS
330
29
102
}
330
29
100
AcDbVisualStyle
  2
Conceptual
 70
     9
177
     2
291
     0
 71
     3
176
     1
 72
     2
176
     1
 73
     0
176
     1
 90
        0
176
     1
 40
0.6
176
     1
 41
30.0
176
     1
 63
     7
421
 16777215
176
     1
 74
     2
176
     1
 91
        2
176
     1
 64
     7
176
     1
 65
   257
176
     1
 75
     1
176
     1
175
     1
176
     1
 42
179.0
176
     1
 92
        8
176
     1
 66
     7
176
     1
 43
1.0
176
     1
 76
     1
176
     1
 77
     6
176
     1
 78
     2
176
     1
 67
     7
176
     1
 79
     3
176
     1
170
     0
176
     1
171
     0
176
     1
290
     0
176
     1
 93
        1
176
     1
 44
0.0
176
     1
173
     0
176
     1
1001
ACAD
1000
AcDbSavedByObjectVersion
1070
     0
  0
VISUALSTYLE
  5
34
102
{ACAD_XDICTIONARY
360
1B6
102
}
102
{ACAD_REACTORS
330
29
102
}
330
29
100
AcDbVisualStyle
  2
Dim
 70
    11
177
     2
291
     1
 71
     2
176
     1
 72
     2
176
     1
 73
     0
176
     1
 90
        0
176
     1
 40
0.6
176
     1
 41
30.0
176
     1
 63
     7
421
 16777215
176
     1
 74
     1
176
     1
 91
        4
176
     1
 64
     7
176
     1
 65
   257
176
     1
 75
     1
176
     1
175
     1
176
     1
 42
1.0
176
     1
 92
        8
176
     1
 66
     7
176
     1
 43
1.0
176
     1
 76
     1
176
     1
 77
     6
176
     1
 78
     2
176
     1
 67
     7
176
     1
 79
     5
176
     1
170
     0
176
     1
171
     0
176
     1
290
     0
176
     1
 93
        1
176
     1
 44
-50.0
176
     1
173
     0
176
     1
1001
ACAD
1000
AcDbSavedByObjectVersion
1070
     0
  0
VISUALSTYLE
  5
41
102
{ACAD_XDICTIONARY
360
1D0
102
}
102
{ACAD_REACTORS
330
29
102
}
330
29
100
AcDbVisualStyle
  2
EdgeColorOff
 70
    22
177
     2
291
     1
 71
     2
176
     0
 72
     2
176
     0
 73
     0
176
     0
 90
        0
176
     0
 40
0.6
176
     0
 41
30.0
176
     0
 63
     7
421
 16777215
176
     0
 74
     1
176
     0
 91
        4
176
     0
 64
     7
176
     0
 65
   257
176
     0
 75
     1
176
     0
175
     1
176
     0
 42
1.0
176
     0
 92
        8
176
     2
 66
     7
176
     0
 43
1.0
176
     0
 76
     1
176
     0
 77
     6
176
     0
 78
     2
176
     0
 67
     7
176
     0
 79
     5
176
     0
170
     0
176
     0
171
     0
176
     0
290
     0
176
     0
 93
        1
176
     0
 44
0.0
176
     0
173
     0
176
     0
1001
ACAD
1000
AcDbSavedByObjectVersion
1070
     0
  0
VISUALSTYLE
  5
38
102
{ACAD_XDICTIONARY
360
1BE
102
}
102
{ACAD_REACTORS
330
29
102
}
330
29
100
AcDbVisualStyle
  2
Facepattern
 70
    15
177
     2
291
     1
 71
     2
176
     1
 72
     2
176
     1
 73
     0
176
     1
 90
        0
176
     1
 40
0.6
176
     1
 41
30.0
176
     1
 63
     7
421
 16777215
176
     1
 74
     1
176
     1
 91
        4
176
     1
 64
     7
176
     1
 65
   257
176
     1
 75
     1
176
     1
175
     1
176
     1
 42
1.0
176
     1
 92
        8
176
     1
 66
     7
176
     1
 43
1.0
176
     1
 76
     1
176
     1
 77
     6
176
     1
 78
     2
176
     1
 67
     7
176
     1
 79
     5
176
     1
170
     0
176
     1
171
     0
176
     1
290
     0
176
     1
 93
        1
176
     1
 44
0.0
176
     1
173
     0
176
     1
1001
ACAD
1000
AcDbSavedByObjectVersion
1070
     0
  0
VISUALSTYLE
  5
2A
102
{ACAD_XDICTIONARY
360
1A2
102
}
102
{ACAD_REACTORS
330
29
102
}
330
29
100
AcDbVisualStyle
  2
Flat
 70
     0
177
     2
291
     1
 71
     2
176
     1
 72
     1
176
     1
 73
     1
176
     1
 90
        2
176
     1
 40
0.6
176
     1
 41
30.0
176
     1
 63
     7
421
 16777215
176
     1
 74
     0
176
     1
 91
        0
176
     1
 64
     7
176
     1
 65
   257
176
     1
 75
     1
176
     1
175
     1
176
     1
 42
1.0
176
     1
 92
        8
176
     1
 66
     7
176
     1
 43
1.0
176
     1
 76
     1
176
     1
 77
     6
176
     1
 78
     2
176
     1
 67
     7
176
     1
 79
     5
176
     1
170
     0
176
     1
171
     0
176
     1
290
     0
176
     1
 93
       13
176
     1
 44
0.0
176
     1
173
     0
176
     1
1001
ACAD
1000
AcDbSavedByObjectVersion
1070
     0
  0
VISUALSTYLE
  5
2B
102
{ACAD_XDICTIONARY
360
1A4
102
}
102
{ACAD_REACTORS
330
29
102
}
330
29
100
AcDbVisualStyle
  2
FlatWithEdges
 70
     1
177
     2
291
     1
 71
     2
176
     1
 72
     1
176
     1
 73
     1
176
     1
 90
        2
176
     1
 40
0.6
176
     1
 41
30.0
176
     1
 63
     7
421
 16777215
176
     1
 74
     1
176
     1
 91
        0
176
     1
 64
     7
176
     1
 65
   257
176
     1
 75
     1
176
     1
175
     1
176
     1
 42
1.0
176
     1
 92
        0
176
     1
 66
   257
176
     1
 43
1.0
176
     1
 76
     1
176
     1
 77
     6
176
     1
 78
     2
176
     1
 67
     7
176
     1
 79
     5
176
     1
170
     0
176
     1
171
     0
176
     1
290
     0
176
     1
 93
       13
176
     1
 44
0.0
176
     1
173
     0
176
     1
1001
ACAD
1000
AcDbSavedByObjectVersion
1070
     0
  0
VISUALSTYLE
  5
2C
102
{ACAD_XDICTIONARY
360
1A6
102
}
102
{ACAD_REACTORS
330
29
102
}
330
29
100
AcDbVisualStyle
  2
Gouraud
 70
     2
177
     2
291
     1
 71
     2
176
     1
 72
     2
176
     1
 73
     1
176
     1
 90
        2
176
     1
 40
0.6
176
     1
 41
30.0
176
     1
 63
     7
421
 16777215
176
     1
 74
     0
176
     1
 91
        0
176
     1
 64
     7
176
     1
 65
   257
176
     1
 75
     1
176
     1
175
     1
176
     1
 42
1.0
176
     1
 92
        0
176
     1
 66
     7
176
     1
 43
1.0
176
     1
 76
     1
176
     1
 77
     6
176
     1
 78
     2
176
     1
 67
     7
176
     1
 79
     5
176
     1
170
     0
176
     1
171
     0
176
     1
290
     0
176
     1
 93
       13
176
     1
 44
0.0
176
     1
173
     0
176
     1
1001
ACAD
1000
AcDbSavedByObjectVersion
1070
     0
  0
VISUALSTYLE
  5
2D
102
{ACAD_XDICTIONARY
360
1A8
102
}
102
{ACAD_REACTORS
330
29
102
}
330
29
100
AcDbVisualStyle
  2
GouraudWithEdges
 70
     3
177
     2
291
     1
 71
     2
176
     1
 72
     2
176
     1
 73
     1
176
     1
 90
        2
176
     1
 40
0.6
176
     1
 41
30.0
176
     1
 63
     7
421
 16777215
176
     1
 74
     1
176
     1
 91
        0
176
     1
 64
     7
176
     1
 65
   257
176
     1
 75
     1
176
     1
175
     1
176
     1
 42
1.0
176
     1
 92
        0
176
     1
 66
   257
176
     1
 43
1.0
176
     1
 76
     1
176
     1
 77
     6
176
     1
 78
     2
176
     1
 67
     7
176
     1
 79
     5
176
     1
170
     0
176
     1
171
     0
176
     1
290
     0
176
     1
 93
       13
176
     1
 44
0.0
176
     1
173
     0
176
     1
1001
ACAD
1000
AcDbSavedByObjectVersion
1070
     0
  0
VISUALSTYLE
  5
31
102
{ACAD_XDICTIONARY
360
1B0
102
}
102
{ACAD_REACTORS
330
29
102
}
330
29
100
AcDbVisualStyle
  2
Hidden
 70
     6
177
     2
291
     0
 71
     1
176
     1
 72
     2
176
     1
 73
     2
176
     1
 90
        0
176
     1
 40
0.6
176
     1
 41
30.0
176
     1
 63
     7
421
 16777215
176
     1
 74
     2
176
     1
 91
        2
176
     1
 64
     7
176
     1
 65
   257
176
     1
 75
     2
176
     1
175
     1
176
     1
 42
40.0
176
     1
 92
        0
176
     1
 66
   257
176
     1
 43
1.0
176
     1
 76
     1
176
     1
 77
     6
176
     1
 78
     2
176
     1
 67
     7
176
     1
 79
     3
176
     1
170
     0
176
     1
171
     0
176
     1
290
     0
176
     1
 93
        1
176
     1
 44
0.0
176
     1
173
     0
176
     1
1001
ACAD
1000
AcDbSavedByObjectVersion
1070
     0
  0
VISUALSTYLE
  5
3F
102
{ACAD_XDICTIONARY
360
1CC
102
}
102
{ACAD_REACTORS
330
29
102
}
330
29
100
AcDbVisualStyle
  2
JitterOff
 70
    20
177
     2
291
     1
 71
     2
176
     0
 72
     2
176
     0
 73
     0
176
     0
 90
        0
176
     0
 40
0.6
176
     0
 41
30.0
176
     0
 63
     7
421
 16777215
176
     0
 74
     1
176
     0
 91
        4
176
     0
 64
     7
176
     0
 65
   257
176
     0
 75
     1
176
     0
175
     1
176
     0
 42
1.0
176
     0
 92
       10
176
     2
 66
     7
176
     0
 43
1.0
176
     0
 76
     1
176
     0
 77
     6
176
     0
 78
     2
176
     0
 67
     7
176
     0
 79
     5
176
     0
170
     0
176
     0
171
     0
176
     0
290
     0
176
     0
 93
        1
176
     0
 44
0.0
176
     0
173
     0
176
     0
1001
ACAD
1000
AcDbSavedByObjectVersion
1070
     0
  0
VISUALSTYLE
  5
37
102
{ACAD_XDICTIONARY
360
1BC
102
}
102
{ACAD_REACTORS
330
29
102
}
330
29
100
AcDbVisualStyle
  2
Linepattern
 70
    14
177
     2
291
     1
 71
     2
176
     1
 72
     2
176
     1
 73
     0
176
     1
 90
        0
176
     1
 40
0.6
176
     1
 41
30.0
176
     1
 63
     7
421
 16777215
176
     1
 74
     1
176
     1
 91
        4
176
     1
 64
     7
176
     1
 65
   257
176
     1
 75
     7
176
     1
175
     7
176
     1
 42
1.0
176
     1
 92
        8
176
     1
 66
     7
176
     1
 43
1.0
176
     1
 76
     1
176
     1
 77
     6
176
     1
 78
     2
176
     1
 67
     7
176
     1
 79
     5
176
     1
170
     0
176
     1
171
     0
176
     1
290
     0
176
     1
 93
        1
176
     1
 44
0.0
176
     1
173
     0
176
     1
1001
ACAD
1000
AcDbSavedByObjectVersion
1070
     0
  0
VISUALSTYLE
  5
40
102
{ACAD_XDICTIONARY
360
1CE
102
}
102
{ACAD_REACTORS
330
29
102
}
330
29
100
AcDbVisualStyle
  2
OverhangOff
 70
    21
177
     2
291
     1
 71
     2
176
     0
 72
     2
176
     0
 73
     0
176
     0
 90
        0
176
     0
 40
0.6
176
     0
 41
30.0
176
     0
 63
     7
421
 16777215
176
     0
 74
     1
176
     0
 91
        4
176
     0
 64
     7
176
     0
 65
   257
176
     0
 75
     1
176
     0
175
     1
176
     0
 42
1.0
176
     0
 92
        9
176
     2
 66
     7
176
     0
 43
1.0
176
     0
 76
     1
176
     0
 77
     6
176
     0
 78
     2
176
     0
 67
     7
176
     0
 79
     5
176
     0
170
     0
176
     0
171
     0
176
     0
290
     0
176
     0
 93
        1
176
     0
 44
0.0
176
     0
173
     0
176
     0
1001
ACAD
1000
AcDbSavedByObjectVersion
1070
     0
  0
VISUALSTYLE
  5
33
102
{ACAD_XDICTIONARY
360
1B4
102
}
102
{ACAD_REACTORS
330
29
102
}
330
29
100
AcDbVisualStyle
  2
Realistic
 70
     8
177
     2
291
     0
 71
     2
176
     1
 72
     3
176
     1
 73
     0
176
     1
 90
        2
176
     1
 40
0.6
176
     1
 41
30.0
176
     1
 63
     7
421
 16777215
176
     1
 74
     0
176
     1
 91
        0
176
     1
 64
     7
176
     1
 65
   257
176
     1
 75
     1
176
     1
175
     1
176
     1
 42
1.0
176
     1
 92
        8
176
     1
 66
   257
176
     1
 43
1.0
176
     1
 76
     1
176
     1
 77
     6
176
     1
 78
     2
176
     1
 67
     7
176
     1
 79
     3
176
     1
170
     0
176
     1
171
     0
176
     1
290
     0
176
     1
 93
       13
176
     1
 44
0.0
176
     1
173
     0
176
     1
1001
ACAD
1000
AcDbSavedByObjectVersion
1070
     0
  0
VISUALSTYLE
  5
3E
102
{ACAD_XDICTIONARY
360
1CA
102
}
102
{ACAD_REACTORS
330
29
102
}
330
29
100
AcDbVisualStyle
  2
Shaded
 70
    27
177
     2
291
     0
 71
     2
176
     1
 72
     2
176
     1
 73
     1
176
     1
 90
        2
176
     1
 40
0.6
176
     1
 41
30.0
176
     1
 63
     7
421
 16777215
176
     1
 74
     0
176
     1
 91
        4
176
     1
 64
     7
176
     1
 65
   257
176
     1
 75
     1
176
     1
175
     1
176
     1
 42
1.0
176
     1
 92
        8
176
     1
 66
   257
176
     1
 43
1.0
176
     1
 76
     1
176
     1
 77
     6
176
     1
 78
     2
176
     1
 67
     8
425
  7895160
176
     1
 79
     3
176
     1
170
     0
176
     1
171
     0
176
     1
290
     0
176
     1
 93
        5
176
     1
 44
0.0
176
     1
173
     0
176
     1
1001
ACAD
1000
AcDbSavedByObjectVersion
1070
     0
  0
VISUALSTYLE
  5
3D
102
{ACAD_XDICTIONARY
360
1C8
102
}
102
{ACAD_REACTORS
330
29
102
}
330
29
100
AcDbVisualStyle
  2
Shaded with edges
 70
    26
177
     2
291
     0
 71
     2
176
     1
 72
     2
176
     1
 73
     1
176
     1
 90
        2
176
     1
 40
0.6
176
     1
 41
30.0
176
     1
 63
     7
421
 16777215
176
     1
 74
     1
176
     1
 91
        2
176
     1
 64
     7
176
     1
 65
   257
176
     1
 75
     2
176
     1
175
     1
176
     1
 42
1.0
176
     1
 92
        8
176
     1
 66
   257
176
     1
 43
1.0
176
     1
 76
     1
176
     1
 77
     6
176
     1
 78
     2
176
     1
 67
     7
176
     1
 79
     3
176
     1
170
     0
176
     1
171
     0
176
     1
290
     0
176
     1
 93
        5
176
     1
 44
0.0
176
     1
173
     0
176
     1
1001
ACAD
1000
AcDbSavedByObjectVersion
1070
     0
  0
VISUALSTYLE
  5
3A
102
{ACAD_XDICTIONARY
360
1C2
102
}
102
{ACAD_REACTORS
330
29
102
}
330
29
100
AcDbVisualStyle
  2
Shades of Gray
 70
    23
177
     2
291
     0
 71
     2
176
     1
 72
     2
176
     1
 73
     3
176
     1
 90
        0
176
     1
 40
0.6
176
     1
 41
30.0
176
     1
 63
     7
421
 16777215
176
     1
 74
     2
176
     1
 91
        2
176
     1
 64
     7
176
     1
 65
     7
176
     1
 75
     1
176
     1
175
     1
176
     1
 42
40.0
176
     1
 92
        8
176
     1
 66
     7
176
     1
 43
1.0
176
     1
 76
     1
176
     1
 77
     6
176
     1
 78
     2
176
     1
 67
     7
176
     1
 79
     3
176
     1
170
     0
176
     1
171
     0
176
     1
290
     0
176
     1
 93
        1
176
     1
 44
0.0
176
     1
173
     0
176
     1
1001
ACAD
1000
AcDbSavedByObjectVersion
1070
     0
  0
VISUALSTYLE
  5
3B
102
{ACAD_XDICTIONARY
360
1C4
102
}
102
{ACAD_REACTORS
330
29
102
}
330
29
100
AcDbVisualStyle
  2
Sketchy
 70
    24
177
     2
291
     0
 71
     1
176
     1
 72
     2
176
     1
 73
     2
176
     1
 90
        0
176
     1
 40
0.6
176
     1
 41
30.0
176
     1
 63
     7
421
 16777215
176
     1
 74
     2
176
     1
 91
        2
176
     1
 64
     7
176
     1
 65
     7
176
     1
 75
     1
176
     1
175
     1
176
     1
 42
40.0
176
     1
 92
       11
176
     1
 66
     7
176
     1
 43
1.0
176
     1
 76
     1
176
     1
 77
     6
176
     1
 78
     2
176
     1
 67
     7
176
     1
 79
     6
176
     1
170
     0
176
     1
171
     0
176
     1
290
     0
176
     1
 93
        1
176
     1
 44
0.0
176
     1
173
     0
176
     1
1001
ACAD
1000
AcDbSavedByObjectVersion
1070
     0
  0
VISUALSTYLE
  5
36
102
{ACAD_XDICTIONARY
360
1BA
102
}
102
{ACAD_REACTORS
330
29
102
}
330
29
100
AcDbVisualStyle
  2
Thicken
 70
    13
177
     2
291
     1
 71
     2
176
     1
 72
     2
176
     1
 73
     0
176
     1
 90
        0
176
     1
 40
0.6
176
     1
 41
30.0
176
     1
 63
     7
421
 16777215
176
     1
 74
     1
176
     1
 91
        4
176
     1
 64
     7
176
     1
 65
   257
176
     1
 75
     1
176
     1
175
     1
176
     1
 42
1.0
176
     1
 92
       12
176
     1
 66
     7
176
     1
 43
1.0
176
     1
 76
     1
176
     1
 77
     6
176
     1
 78
     2
176
     1
 67
     7
176
     1
 79
     5
176
     1
170
     0
176
     1
171
     0
176
     1
290
     0
176
     1
 93
        1
176
     1
 44
0.0
176
     1
173
     0
176
     1
1001
ACAD
1000
AcDbSavedByObjectVersion
1070
     0
  0
VISUALSTYLE
  5
30
102
{ACAD_XDICTIONARY
360
1AE
102
}
102
{ACAD_REACTORS
330
29
102
}
330
29
100
AcDbVisualStyle
  2
Wireframe
 70
     5
177
     2
291
     0
 71
     0
176
     1
 72
     2
176
     1
 73
     0
176
     1
 90
        0
176
     1
 40
0.6
176
     1
 41
30.0
176
     1
 63
     7
421
 16777215
176
     1
 74
     1
176
     1
 91
        4
176
     1
 64
     7
176
     1
 65
   257
176
     1
 75
     1
176
     1
175
     1
176
     1
 42
1.0
176
     1
 92
        0
176
     1
 66
   257
176
     1
 43
1.0
176
     1
 76
     1
176
     1
 77
     6
176
     1
 78
     2
176
     1
 67
     7
176
     1
 79
     3
176
     1
170
     0
176
     1
171
     0
176
     1
290
     0
176
     1
 93
        1
176
     1
 44
0.0
176
     1
173
     0
176
     1
1001
ACAD
1000
AcDbSavedByObjectVersion
1070
     0
  0
VISUALSTYLE
  5
3C
102
{ACAD_XDICTIONARY
360
1C6
102
}
102
{ACAD_REACTORS
330
29
102
}
330
29
100
AcDbVisualStyle
  2
X-Ray
 70
    25
177
     2
291
     0
 71
     2
176
     1
 72
     2
176
     1
 73
     1
176
     1
 90
        1
176
     1
 40
0.5
176
     1
 41
30.0
176
     1
 63
     7
421
 16777215
176
     1
 74
     1
176
     1
 91
        0
176
     1
 64
     7
176
     1
 65
   257
176
     1
 75
     1
176
     1
175
     1
176
     1
 42
1.0
176
     1
 92
        8
176
     1
 66
     7
176
     1
 43
1.0
176
     1
 76
     1
176
     1
 77
     6
176
     1
 78
     2
176
     1
 67
     7
176
     1
 79
     3
176
     1
170
     0
176
     1
171
     0
176
     1
290
     0
176
     1
 93
       13
176
     1
 44
0.0
176
     1
173
     0
176
     1
1001
ACAD
1000
AcDbSavedByObjectVersion
1070
     0
  0
DICTIONARYVAR
  5
19E
102
{ACAD_REACTORS
330
199
102
}
330
199
100
DictionaryVariables
280
     0
  1
1:1
  0
DICTIONARYVAR
  5
19B
102
{ACAD_REACTORS
330
199
102
}
330
199
100
DictionaryVariables
280
     0
  1
STANDARD
  0
DICTIONARYVAR
  5
19A
102
{ACAD_REACTORS
330
199
102
}
330
199
100
DictionaryVariables
280
     0
  1
STANDARD
  0
DICTIONARYVAR
  5
19C
102
{ACAD_REACTORS
330
199
102
}
330
199
100
DictionaryVariables
280
     0
  1
Imperial24
  0
DICTIONARYVAR
  5
19D
102
{ACAD_REACTORS
330
199
102
}
330
199
100
DictionaryVariables
280
     0
  1
Imperial24
  0
DICTIONARY
  5
1D6
330
6B
100
AcDbDictionary
280
     1
281
     1
  3
ACAD_XREC_ROUNDTRIP
360
1D7
  0
DICTIONARY
  5
1A
330
19
100
AcDbDictionary
280
     1
281
     1
  3
BUMPTILE
360
1C
  3
DIFFUSETILE
360
1B
  3
OPACITYTILE
360
1F
  3
REFLECTIONTILE
360
1E
  3
REFRACTIONTILE
360
20
  3
SPECULARTILE
360
1D
  0
DICTIONARY
  5
12
330
11
100
AcDbDictionary
280
     1
281
     1
  3
BUMPTILE
360
14
  3
DIFFUSETILE
360
13
  3
OPACITYTILE
360
17
  3
REFLECTIONTILE
360
16
  3
REFRACTIONTILE
360
18
  3
SPECULARTILE
360
15
  0
DICTIONARY
  5
22
330
21
100
AcDbDictionary
280
     1
281
     1
  3
BUMPTILE
360
24
  3
DIFFUSETILE
360
23
  3
OPACITYTILE
360
27
  3
REFLECTIONTILE
360
26
  3
REFRACTIONTILE
360
28
  3
SPECULARTILE
360
25
  0
DICTIONARY
  5
1D2
330
67
100
AcDbDictionary
280
     1
281
     1
  3
ACAD_XREC_ROUNDTRIP
360
1D3
  0
DICTIONARY
  5
1D4
330
69
100
AcDbDictionary
280
     1
281
     1
  3
ACAD_XREC_ROUNDTRIP
360
1D5
  0
DICTIONARY
  5
19F
330
65
100
AcDbDictionary
280
     1
281
     1
  3
ACAD_ROUNDTRIP_2008_TABLESTYLE_CELLSTYLEMAP
360
1A0
  0
DICTIONARY
  5
1AC
330
2F
100
AcDbDictionary
280
     1
281
     1
  3
ACAD_XREC_ROUNDTRIP
360
1AD
  0
DICTIONARY
  5
1AA
330
2E
100
AcDbDictionary
280
     1
281
     1
  3
ACAD_XREC_ROUNDTRIP
360
1AB
  0
DICTIONARY
  5
1B8
330
35
100
AcDbDictionary
280
     1
281
     1
  3
ACAD_XREC_ROUNDTRIP
360
1B9
  0
DICTIONARY
  5
1C0
330
39
100
AcDbDictionary
280
     1
281
     1
  3
ACAD_XREC_ROUNDTRIP
360
1C1
  0
DICTIONARY
  5
1B2
330
32
100
AcDbDictionary
280
     1
281
     1
  3
ACAD_XREC_ROUNDTRIP
360
1B3
  0
DICTIONARY
  5
1B6
330
34
100
AcDbDictionary
280
     1
281
     1
  3
ACAD_XREC_ROUNDTRIP
360
1B7
  0
DICTIONARY
  5
1D0
330
41
100
AcDbDictionary
280
     1
281
     1
  3
ACAD_XREC_ROUNDTRIP
360
1D1
  0
DICTIONARY
  5
1BE
330
38
100
AcDbDictionary
280
     1
281
     1
  3
ACAD_XREC_ROUNDTRIP
360
1BF
  0
DICTIONARY
  5
1A2
330
2A
100
AcDbDictionary
280
     1
281
     1
  3
ACAD_XREC_ROUNDTRIP
360
1A3
  0
DICTIONARY
  5
1A4
330
2B
100
AcDbDictionary
280
     1
281
     1
  3
ACAD_XREC_ROUNDTRIP
360
1A5
  0
DICTIONARY
  5
1A6
330
2C
100
AcDbDictionary
280
     1
281
     1
  3
ACAD_XREC_ROUNDTRIP
360
1A7
  0
DICTIONARY
  5
1A8
330
2D
100
AcDbDictionary
280
     1
281
     1
  3
ACAD_XREC_ROUNDTRIP
360
1A9
  0
DICTIONARY
  5
1B0
330
31
100
AcDbDictionary
280
     1
281
     1
  3
ACAD_XREC_ROUNDTRIP
360
1B1
  0
DICTIONARY
  5
1CC
330
3F
100
AcDbDictionary
280
     1
281
     1
  3
ACAD_XREC_ROUNDTRIP
360
1CD
  0
DICTIONARY
  5
1BC
330
37
100
AcDbDictionary
280
     1
281
     1
  3
ACAD_XREC_ROUNDTRIP
360
1BD
  0
DICTIONARY
  5
1CE
330
40
100
AcDbDictionary
280
     1
281
     1
  3
ACAD_XREC_ROUNDTRIP
360
1CF
  0
DICTIONARY
  5
1B4
330
33
100
AcDbDictionary
280
     1
281
     1
  3
ACAD_XREC_ROUNDTRIP
360
1B5
  0
DICTIONARY
  5
1CA
330
3E
100
AcDbDictionary
280
     1
281
     1
  3
ACAD_XREC_ROUNDTRIP
360
1CB
  0
DICTIONARY
  5
1C8
330
3D
100
AcDbDictionary
280
     1
281
     1
  3
ACAD_XREC_ROUNDTRIP
360
1C9
  0
DICTIONARY
  5
1C2
330
3A
100
AcDbDictionary
280
     1
281
     1
  3
ACAD_XREC_ROUNDTRIP
360
1C3
  0
DICTIONARY
  5
1C4
330
3B
100
AcDbDictionary
280
     1
281
     1
  3
ACAD_XREC_ROUNDTRIP
360
1C5
  0
DICTIONARY
  5
1BA
330
36
100
AcDbDictionary
280
     1
281
     1
  3
ACAD_XREC_ROUNDTRIP
360
1BB
  0
DICTIONARY
  5
1AE
330
30
100
AcDbDictionary
280
     1
281
     1
  3
ACAD_XREC_ROUNDTRIP
360
1AF
  0
DICTIONARY
  5
1C6
330
3C
100
AcDbDictionary
280
     1
281
     1
  3
ACAD_XREC_ROUNDTRIP
360
1C7
  0
XRECORD
  5
1D7
102
{ACAD_REACTORS
330
1D6
102
}
330
1D6
100
AcDbXrecord
280
     1
102
DISPLAYNAME
  1
Imperial24
102
FLAGS
 90
        0
  0
XRECORD
  5
1C
102
{ACAD_REACTORS
330
1A
102
}
330
1A
100
AcDbXrecord
280
     1
270
     1
271
     1
  0
XRECORD
  5
1B
102
{ACAD_REACTORS
330
1A
102
}
330
1A
100
AcDbXrecord
280
     1
270
     1
271
     1
  0
XRECORD
  5
1F
102
{ACAD_REACTORS
330
1A
102
}
330
1A
100
AcDbXrecord
280
     1
270
     1
271
     1
  0
XRECORD
  5
1E
102
{ACAD_REACTORS
330
1A
102
}
330
1A
100
AcDbXrecord
280
     1
270
     1
271
     1
  0
XRECORD
  5
20
102
{ACAD_REACTORS
330
1A
102
}
330
1A
100
AcDbXrecord
280
     1
270
     1
271
     1
  0
XRECORD
  5
1D
102
{ACAD_REACTORS
330
1A
102
}
330
1A
100
AcDbXrecord
280
     1
270
     1
271
     1
  0
XRECORD
  5
14
102
{ACAD_REACTORS
330
12
102
}
330
12
100
AcDbXrecord
280
     1
270
     1
271
     1
  0
XRECORD
  5
13
102
{ACAD_REACTORS
330
12
102
}
330
12
100
AcDbXrecord
280
     1
270
     1
271
     1
  0
XRECORD
  5
17
102
{ACAD_REACTORS
330
12
102
}
330
12
100
AcDbXrecord
280
     1
270
     1
271
     1
  0
XRECORD
  5
16
102
{ACAD_REACTORS
330
12
102
}
330
12
100
AcDbXrecord
280
     1
270
     1
271
     1
  0
XRECORD
  5
18
102
{ACAD_REACTORS
330
12
102
}
330
12
100
AcDbXrecord
280
     1
270
     1
271
     1
  0
XRECORD
  5
15
102
{ACAD_REACTORS
330
12
102
}
330
12
100
AcDbXrecord
280
     1
270
     1
271
     1
  0
XRECORD
  5
24
102
{ACAD_REACTORS
330
22
102
}
330
22
100
AcDbXrecord
280
     1
270
     1
271
     1
  0
XRECORD
  5
23
102
{ACAD_REACTORS
330
22
102
}
330
22
100
AcDbXrecord
280
     1
270
     1
271
     1
  0
XRECORD
  5
27
102
{ACAD_REACTORS
330
22
102
}
330
22
100
AcDbXrecord
280
     1
270
     1
271
     1
  0
XRECORD
  5
26
102
{ACAD_REACTORS
330
22
102
}
330
22
100
AcDbXrecord
280
     1
270
     1
271
     1
  0
XRECORD
  5
28
102
{ACAD_REACTORS
330
22
102
}
330
22
100
AcDbXrecord
280
     1
270
     1
271
     1
  0
XRECORD
  5
25
102
{ACAD_REACTORS
330
22
102
}
330
22
100
AcDbXrecord
280
     1
270
     1
271
     1
  0
XRECORD
  5
1D3
102
{ACAD_REACTORS
330
1D2
102
}
330
1D2
100
AcDbXrecord
280
     1
102
ACAD_ROUNDTRIP_2012_MLEADER_STYLE
298
     1
  0
XRECORD
  5
1D5
102
{ACAD_REACTORS
330
1D4
102
}
330
1D4
100
AcDbXrecord
280
     1
102
DISPLAYNAME
  1
Imperial24
102
FLAGS
 90
        0
  0
CELLSTYLEMAP
  5
1A0
102
{ACAD_REACTORS
330
19F
102
}
330
19F
100
AcDbCellStyleMap
 90
        3
300
CELLSTYLE
  1
TABLEFORMAT_BEGIN
 90
        5
170
     1
 91
        0
 92
    32768
 62
   257
 93
        1
300
CONTENTFORMAT
  1
CONTENTFORMAT_BEGIN
 90
        0
 91
        0
 92
      512
 93
        0
300

 40
0.0
140
1.0
 94
        5
 62
     0
340
55
144
0.25
309
CONTENTFORMAT_END
171
     0
 94
        0
309
TABLEFORMAT_END
  1
CELLSTYLE_BEGIN
 90
        1
 91
        1
300
_TITLE
309
CELLSTYLE_END
300
CELLSTYLE
  1
TABLEFORMAT_BEGIN
 90
        5
170
     1
 91
        0
 92
        0
 62
   257
 93
        1
300
CONTENTFORMAT
  1
CONTENTFORMAT_BEGIN
 90
        0
 91
        0
 92
      512
 93
        0
300

 40
0.0
140
1.0
 94
        5
 62
     0
340
55
144
0.18
309
CONTENTFORMAT_END
171
     0
 94
        0
309
TABLEFORMAT_END
  1
CELLSTYLE_BEGIN
 90
        2
 91
        1
300
_HEADER
309
CELLSTYLE_END
300
CELLSTYLE
  1
TABLEFORMAT_BEGIN
 90
        5
170
     1
 91
        0
 92
        0
 62
   257
 93
        1
300
CONTENTFORMAT
  1
CONTENTFORMAT_BEGIN
 90
        0
 91
        0
 92
      512
 93
        0
300

 40
0.0
140
1.0
 94
        2
 62
     0
340
55
144
0.18
309
CONTENTFORMAT_END
171
     0
 94
        0
309
TABLEFORMAT_END
  1
CELLSTYLE_BEGIN
 90
        3
 91
        2
300
_DATA
309
CELLSTYLE_END
  0
XRECORD
  5
1AD
102
{ACAD_REACTORS
330
1AC
102
}
330
1AC
100
AcDbXrecord
280
     1
102
RTVSPost2010Prop28
280
     1
102
RTVSPost2010PropOp28
 70
     1
102
RTVSPost2010Prop29
280
     1
102
RTVSPost2010PropOp29
 70
     1
102
RTVSPost2010Prop30
280
     0
102
RTVSPost2010PropOp30
 70
     1
102
RTVSPost2010Prop31
280
     0
102
RTVSPost2010PropOp31
 70
     1
102
RTVSPost2010Prop32
280
     0
102
RTVSPost2010PropOp32
 70
     1
102
RTVSPost2010Prop33
280
     0
102
RTVSPost2010PropOp33
 70
     1
102
RTVSPost2010Prop34
280
     0
102
RTVSPost2010PropOp34
 70
     1
102
RTVSPost2010Prop35
280
     0
102
RTVSPost2010PropOp35
 70
     1
102
RTVSPost2010Prop36
280
     0
102
RTVSPost2010PropOp36
 70
     1
102
RTVSPost2010Prop37
 90
       50
102
RTVSPost2010PropOp37
 70
     1
102
RTVSPost2010Prop38
140
0.0
102
RTVSPost2010PropOp38
 70
     1
102
RTVSPost2010Prop39
140
1.0
102
RTVSPost2010PropOp39
 70
     1
102
RTVSPost2010Prop40
 90
        0
102
RTVSPost2010PropOp40
 70
     1
102
RTVSPost2010Prop41ColorIndex
 90
       18
102
RTVSPost2010Prop41ColorRGB
 90
        0
102
RTVSPost2010PropOp41
 70
     1
102
RTVSPost2010Prop42
 90
       50
102
RTVSPost2010PropOp42
 70
     1
102
RTVSPost2010Prop43
 90
        3
102
RTVSPost2010PropOp43
 70
     1
102
RTVSPost2010Prop44ColorIndex
 90
        5
102
RTVSPost2010Prop44ColorRGB
 90
      255
102
RTVSPost2010PropOp44
 70
     1
102
RTVSPost2010Prop45
280
     0
102
RTVSPost2010PropOp45
 70
     1
102
RTVSPost2010Prop46
 90
       50
102
RTVSPost2010PropOp46
 70
     1
102
RTVSPost2010Prop47
 90
       50
102
RTVSPost2010PropOp47
 70
     1
102
RTVSPost2010Prop48
 90
       50
102
RTVSPost2010PropOp48
 70
     1
102
RTVSPost2010Prop49
280
     0
102
RTVSPost2010PropOp49
 70
     1
102
RTVSPost2010Prop50
 90
       50
102
RTVSPost2010PropOp50
 70
     1
102
RTVSPost2010Prop51ColorIndex
 90
      256
102
RTVSPost2010Prop51ColorRGB
 90
-16777216
102
RTVSPost2010PropOp51
 70
     0
102
RTVSPost2010Prop52
140
1.0
102
RTVSPost2010PropOp52
 70
     0
102
RTVSPost2010Prop53
 90
        2
102
RTVSPost2010PropOp53
 70
     1
102
RTVSPost2010Prop54
  1
strokes_ogs.tif
102
RTVSPost2010PropOp54
 70
     1
102
RTVSPost2010Prop55
280
     0
102
RTVSPost2010PropOp55
 70
     1
102
RTVSPost2010Prop56
140
1.0
102
RTVSPost2010PropOp56
 70
     1
102
RTVSPost2010Prop57
140
1.0
102
RTVSPost2010PropOp57
 70
     1
  0
XRECORD
  5
1AB
102
{ACAD_REACTORS
330
1AA
102
}
330
1AA
100
AcDbXrecord
280
     1
102
RTVSPost2010Prop28
280
     0
102
RTVSPost2010PropOp28
 70
     1
102
RTVSPost2010Prop29
280
     1
102
RTVSPost2010PropOp29
 70
     1
102
RTVSPost2010Prop30
280
     1
102
RTVSPost2010PropOp30
 70
     1
102
RTVSPost2010Prop31
280
     0
102
RTVSPost2010PropOp31
 70
     1
102
RTVSPost2010Prop32
280
     0
102
RTVSPost2010PropOp32
 70
     1
102
RTVSPost2010Prop33
280
     0
102
RTVSPost2010PropOp33
 70
     1
102
RTVSPost2010Prop34
280
     0
102
RTVSPost2010PropOp34
 70
     1
102
RTVSPost2010Prop35
280
     0
102
RTVSPost2010PropOp35
 70
     1
102
RTVSPost2010Prop36
280
     0
102
RTVSPost2010PropOp36
 70
     1
102
RTVSPost2010Prop37
 90
       50
102
RTVSPost2010PropOp37
 70
     1
102
RTVSPost2010Prop38
140
0.0
102
RTVSPost2010PropOp38
 70
     1
102
RTVSPost2010Prop39
140
1.0
102
RTVSPost2010PropOp39
 70
     1
102
RTVSPost2010Prop40
 90
        0
102
RTVSPost2010PropOp40
 70
     1
102
RTVSPost2010Prop41ColorIndex
 90
       18
102
RTVSPost2010Prop41ColorRGB
 90
        0
102
RTVSPost2010PropOp41
 70
     1
102
RTVSPost2010Prop42
 90
       50
102
RTVSPost2010PropOp42
 70
     1
102
RTVSPost2010Prop43
 90
        3
102
RTVSPost2010PropOp43
 70
     1
102
RTVSPost2010Prop44ColorIndex
 90
        5
102
RTVSPost2010Prop44ColorRGB
 90
      255
102
RTVSPost2010PropOp44
 70
     1
102
RTVSPost2010Prop45
280
     0
102
RTVSPost2010PropOp45
 70
     1
102
RTVSPost2010Prop46
 90
       50
102
RTVSPost2010PropOp46
 70
     1
102
RTVSPost2010Prop47
 90
       50
102
RTVSPost2010PropOp47
 70
     1
102
RTVSPost2010Prop48
 90
       50
102
RTVSPost2010PropOp48
 70
     1
102
RTVSPost2010Prop49
280
     0
102
RTVSPost2010PropOp49
 70
     1
102
RTVSPost2010Prop50
 90
       50
102
RTVSPost2010PropOp50
 70
     1
102
RTVSPost2010Prop51ColorIndex
 90
      256
102
RTVSPost2010Prop51ColorRGB
 90
-16777216
102
RTVSPost2010PropOp51
 70
     0
102
RTVSPost2010Prop52
140
1.0
102
RTVSPost2010PropOp52
 70
     0
102
RTVSPost2010Prop53
 90
        2
102
RTVSPost2010PropOp53
 70
     1
102
RTVSPost2010Prop54
  1
strokes_ogs.tif
102
RTVSPost2010PropOp54
 70
     1
102
RTVSPost2010Prop55
280
     0
102
RTVSPost2010PropOp55
 70
     1
102
RTVSPost2010Prop56
140
1.0
102
RTVSPost2010PropOp56
 70
     1
102
RTVSPost2010Prop57
140
1.0
102
RTVSPost2010PropOp57
 70
     1
  0
XRECORD
  5
1B9
102
{ACAD_REACTORS
330
1B8
102
}
330
1B8
100
AcDbXrecord
280
     1
102
RTVSPost2010Prop28
280
     0
102
RTVSPost2010PropOp28
 70
     1
102
RTVSPost2010Prop29
280
     1
102
RTVSPost2010PropOp29
 70
     1
102
RTVSPost2010Prop30
280
     1
102
RTVSPost2010PropOp30
 70
     1
102
RTVSPost2010Prop31
280
     0
102
RTVSPost2010PropOp31
 70
     1
102
RTVSPost2010Prop32
280
     0
102
RTVSPost2010PropOp32
 70
     1
102
RTVSPost2010Prop33
280
     0
102
RTVSPost2010PropOp33
 70
     1
102
RTVSPost2010Prop34
280
     0
102
RTVSPost2010PropOp34
 70
     1
102
RTVSPost2010Prop35
280
     0
102
RTVSPost2010PropOp35
 70
     1
102
RTVSPost2010Prop36
280
     0
102
RTVSPost2010PropOp36
 70
     1
102
RTVSPost2010Prop37
 90
       50
102
RTVSPost2010PropOp37
 70
     1
102
RTVSPost2010Prop38
140
0.0
102
RTVSPost2010PropOp38
 70
     1
102
RTVSPost2010Prop39
140
1.0
102
RTVSPost2010PropOp39
 70
     1
102
RTVSPost2010Prop40
 90
        0
102
RTVSPost2010PropOp40
 70
     1
102
RTVSPost2010Prop41ColorIndex
 90
       18
102
RTVSPost2010Prop41ColorRGB
 90
        0
102
RTVSPost2010PropOp41
 70
     1
102
RTVSPost2010Prop42
 90
       50
102
RTVSPost2010PropOp42
 70
     1
102
RTVSPost2010Prop43
 90
        3
102
RTVSPost2010PropOp43
 70
     1
102
RTVSPost2010Prop44ColorIndex
 90
        5
102
RTVSPost2010Prop44ColorRGB
 90
      255
102
RTVSPost2010PropOp44
 70
     1
102
RTVSPost2010Prop45
280
     0
102
RTVSPost2010PropOp45
 70
     1
102
RTVSPost2010Prop46
 90
       50
102
RTVSPost2010PropOp46
 70
     1
102
RTVSPost2010Prop47
 90
       50
102
RTVSPost2010PropOp47
 70
     1
102
RTVSPost2010Prop48
 90
       50
102
RTVSPost2010PropOp48
 70
     1
102
RTVSPost2010Prop49
280
     0
102
RTVSPost2010PropOp49
 70
     1
102
RTVSPost2010Prop50
 90
       50
102
RTVSPost2010PropOp50
 70
     1
102
RTVSPost2010Prop51ColorIndex
 90
      256
102
RTVSPost2010Prop51ColorRGB
 90
-16777216
102
RTVSPost2010PropOp51
 70
     0
102
RTVSPost2010Prop52
140
1.0
102
RTVSPost2010PropOp52
 70
     0
102
RTVSPost2010Prop53
 90
        2
102
RTVSPost2010PropOp53
 70
     1
102
RTVSPost2010Prop54
  1
strokes_ogs.tif
102
RTVSPost2010PropOp54
 70
     1
102
RTVSPost2010Prop55
280
     0
102
RTVSPost2010PropOp55
 70
     1
102
RTVSPost2010Prop56
140
1.0
102
RTVSPost2010PropOp56
 70
     1
102
RTVSPost2010Prop57
140
1.0
102
RTVSPost2010PropOp57
 70
     1
  0
XRECORD
  5
1C1
102
{ACAD_REACTORS
330
1C0
102
}
330
1C0
100
AcDbXrecord
280
     1
102
RTVSPost2010Prop28
280
     0
102
RTVSPost2010PropOp28
 70
     1
102
RTVSPost2010Prop29
280
     1
102
RTVSPost2010PropOp29
 70
     1
102
RTVSPost2010Prop30
280
     1
102
RTVSPost2010PropOp30
 70
     1
102
RTVSPost2010Prop31
280
     0
102
RTVSPost2010PropOp31
 70
     1
102
RTVSPost2010Prop32
280
     0
102
RTVSPost2010PropOp32
 70
     1
102
RTVSPost2010Prop33
280
     0
102
RTVSPost2010PropOp33
 70
     1
102
RTVSPost2010Prop34
280
     0
102
RTVSPost2010PropOp34
 70
     1
102
RTVSPost2010Prop35
280
     0
102
RTVSPost2010PropOp35
 70
     1
102
RTVSPost2010Prop36
280
     0
102
RTVSPost2010PropOp36
 70
     1
102
RTVSPost2010Prop37
 90
       50
102
RTVSPost2010PropOp37
 70
     1
102
RTVSPost2010Prop38
140
0.0
102
RTVSPost2010PropOp38
 70
     1
102
RTVSPost2010Prop39
140
1.0
102
RTVSPost2010PropOp39
 70
     1
102
RTVSPost2010Prop40
 90
        0
102
RTVSPost2010PropOp40
 70
     1
102
RTVSPost2010Prop41ColorIndex
 90
       18
102
RTVSPost2010Prop41ColorRGB
 90
        0
102
RTVSPost2010PropOp41
 70
     1
102
RTVSPost2010Prop42
 90
       50
102
RTVSPost2010PropOp42
 70
     1
102
RTVSPost2010Prop43
 90
        3
102
RTVSPost2010PropOp43
 70
     1
102
RTVSPost2010Prop44ColorIndex
 90
        5
102
RTVSPost2010Prop44ColorRGB
 90
      255
102
RTVSPost2010PropOp44
 70
     1
102
RTVSPost2010Prop45
280
     0
102
RTVSPost2010PropOp45
 70
     1
102
RTVSPost2010Prop46
 90
       50
102
RTVSPost2010PropOp46
 70
     1
102
RTVSPost2010Prop47
 90
       50
102
RTVSPost2010PropOp47
 70
     1
102
RTVSPost2010Prop48
 90
       50
102
RTVSPost2010PropOp48
 70
     1
102
RTVSPost2010Prop49
280
     0
102
RTVSPost2010PropOp49
 70
     1
102
RTVSPost2010Prop50
 90
       50
102
RTVSPost2010PropOp50
 70
     1
102
RTVSPost2010Prop51ColorIndex
 90
      256
102
RTVSPost2010Prop51ColorRGB
 90
-16777216
102
RTVSPost2010PropOp51
 70
     0
102
RTVSPost2010Prop52
140
1.0
102
RTVSPost2010PropOp52
 70
     0
102
RTVSPost2010Prop53
 90
        2
102
RTVSPost2010PropOp53
 70
     1
102
RTVSPost2010Prop54
  1
strokes_ogs.tif
102
RTVSPost2010PropOp54
 70
     1
102
RTVSPost2010Prop55
280
     0
102
RTVSPost2010PropOp55
 70
     1
102
RTVSPost2010Prop56
140
1.0
102
RTVSPost2010PropOp56
 70
     1
102
RTVSPost2010Prop57
140
1.0
102
RTVSPost2010PropOp57
 70
     1
  0
XRECORD
  5
1B3
102
{ACAD_REACTORS
330
1B2
102
}
330
1B2
100
AcDbXrecord
280
     1
102
RTVSPost2010Prop28
280
     0
102
RTVSPost2010PropOp28
 70
     1
102
RTVSPost2010Prop29
280
     1
102
RTVSPost2010PropOp29
 70
     1
102
RTVSPost2010Prop30
280
     1
102
RTVSPost2010PropOp30
 70
     1
102
RTVSPost2010Prop31
280
     0
102
RTVSPost2010PropOp31
 70
     1
102
RTVSPost2010Prop32
280
     0
102
RTVSPost2010PropOp32
 70
     1
102
RTVSPost2010Prop33
280
     0
102
RTVSPost2010PropOp33
 70
     1
102
RTVSPost2010Prop34
280
     0
102
RTVSPost2010PropOp34
 70
     1
102
RTVSPost2010Prop35
280
     0
102
RTVSPost2010PropOp35
 70
     1
102
RTVSPost2010Prop36
280
     0
102
RTVSPost2010PropOp36
 70
     1
102
RTVSPost2010Prop37
 90
       50
102
RTVSPost2010PropOp37
 70
     1
102
RTVSPost2010Prop38
140
0.0
102
RTVSPost2010PropOp38
 70
     1
102
RTVSPost2010Prop39
140
1.0
102
RTVSPost2010PropOp39
 70
     1
102
RTVSPost2010Prop40
 90
        0
102
RTVSPost2010PropOp40
 70
     1
102
RTVSPost2010Prop41ColorIndex
 90
       18
102
RTVSPost2010Prop41ColorRGB
 90
        0
102
RTVSPost2010PropOp41
 70
     1
102
RTVSPost2010Prop42
 90
       50
102
RTVSPost2010PropOp42
 70
     1
102
RTVSPost2010Prop43
 90
        3
102
RTVSPost2010PropOp43
 70
     1
102
RTVSPost2010Prop44ColorIndex
 90
        5
102
RTVSPost2010Prop44ColorRGB
 90
      255
102
RTVSPost2010PropOp44
 70
     1
102
RTVSPost2010Prop45
280
     0
102
RTVSPost2010PropOp45
 70
     1
102
RTVSPost2010Prop46
 90
       50
102
RTVSPost2010PropOp46
 70
     1
102
RTVSPost2010Prop47
 90
       50
102
RTVSPost2010PropOp47
 70
     1
102
RTVSPost2010Prop48
 90
       50
102
RTVSPost2010PropOp48
 70
     1
102
RTVSPost2010Prop49
280
     0
102
RTVSPost2010PropOp49
 70
     1
102
RTVSPost2010Prop50
 90
       50
102
RTVSPost2010PropOp50
 70
     1
102
RTVSPost2010Prop51ColorIndex
 90
      256
102
RTVSPost2010Prop51ColorRGB
 90
-16777216
102
RTVSPost2010PropOp51
 70
     0
102
RTVSPost2010Prop52
140
1.0
102
RTVSPost2010PropOp52
 70
     0
102
RTVSPost2010Prop53
 90
        2
102
RTVSPost2010PropOp53
 70
     1
102
RTVSPost2010Prop54
  1
strokes_ogs.tif
102
RTVSPost2010PropOp54
 70
     1
102
RTVSPost2010Prop55
280
     0
102
RTVSPost2010PropOp55
 70
     1
102
RTVSPost2010Prop56
140
1.0
102
RTVSPost2010PropOp56
 70
     1
102
RTVSPost2010Prop57
140
1.0
102
RTVSPost2010PropOp57
 70
     1
  0
XRECORD
  5
1B7
102
{ACAD_REACTORS
330
1B6
102
}
330
1B6
100
AcDbXrecord
280
     1
102
RTVSPost2010Prop28
280
     0
102
RTVSPost2010PropOp28
 70
     1
102
RTVSPost2010Prop29
280
     1
102
RTVSPost2010PropOp29
 70
     1
102
RTVSPost2010Prop30
280
     1
102
RTVSPost2010PropOp30
 70
     1
102
RTVSPost2010Prop31
280
     0
102
RTVSPost2010PropOp31
 70
     1
102
RTVSPost2010Prop32
280
     0
102
RTVSPost2010PropOp32
 70
     1
102
RTVSPost2010Prop33
280
     0
102
RTVSPost2010PropOp33
 70
     1
102
RTVSPost2010Prop34
280
     0
102
RTVSPost2010PropOp34
 70
     1
102
RTVSPost2010Prop35
280
     0
102
RTVSPost2010PropOp35
 70
     1
102
RTVSPost2010Prop36
280
     0
102
RTVSPost2010PropOp36
 70
     1
102
RTVSPost2010Prop37
 90
       50
102
RTVSPost2010PropOp37
 70
     1
102
RTVSPost2010Prop38
140
0.0
102
RTVSPost2010PropOp38
 70
     1
102
RTVSPost2010Prop39
140
1.0
102
RTVSPost2010PropOp39
 70
     1
102
RTVSPost2010Prop40
 90
        0
102
RTVSPost2010PropOp40
 70
     1
102
RTVSPost2010Prop41ColorIndex
 90
       18
102
RTVSPost2010Prop41ColorRGB
 90
        0
102
RTVSPost2010PropOp41
 70
     1
102
RTVSPost2010Prop42
 90
       50
102
RTVSPost2010PropOp42
 70
     1
102
RTVSPost2010Prop43
 90
        3
102
RTVSPost2010PropOp43
 70
     1
102
RTVSPost2010Prop44ColorIndex
 90
        5
102
RTVSPost2010Prop44ColorRGB
 90
      255
102
RTVSPost2010PropOp44
 70
     1
102
RTVSPost2010Prop45
280
     0
102
RTVSPost2010PropOp45
 70
     1
102
RTVSPost2010Prop46
 90
       50
102
RTVSPost2010PropOp46
 70
     1
102
RTVSPost2010Prop47
 90
       50
102
RTVSPost2010PropOp47
 70
     1
102
RTVSPost2010Prop48
 90
       50
102
RTVSPost2010PropOp48
 70
     1
102
RTVSPost2010Prop49
280
     0
102
RTVSPost2010PropOp49
 70
     1
102
RTVSPost2010Prop50
 90
       50
102
RTVSPost2010PropOp50
 70
     1
102
RTVSPost2010Prop51ColorIndex
 90
      256
102
RTVSPost2010Prop51ColorRGB
 90
-16777216
102
RTVSPost2010PropOp51
 70
     0
102
RTVSPost2010Prop52
140
1.0
102
RTVSPost2010PropOp52
 70
     0
102
RTVSPost2010Prop53
 90
        2
102
RTVSPost2010PropOp53
 70
     1
102
RTVSPost2010Prop54
  1
strokes_ogs.tif
102
RTVSPost2010PropOp54
 70
     1
102
RTVSPost2010Prop55
280
     0
102
RTVSPost2010PropOp55
 70
     1
102
RTVSPost2010Prop56
140
1.0
102
RTVSPost2010PropOp56
 70
     1
102
RTVSPost2010Prop57
140
1.0
102
RTVSPost2010PropOp57
 70
     1
  0
XRECORD
  5
1D1
102
{ACAD_REACTORS
330
1D0
102
}
330
1D0
100
AcDbXrecord
280
     1
102
RTVSPost2010Prop28
280
     0
102
RTVSPost2010PropOp28
 70
     0
102
RTVSPost2010Prop29
280
     1
102
RTVSPost2010PropOp29
 70
     0
102
RTVSPost2010Prop30
280
     1
102
RTVSPost2010PropOp30
 70
     0
102
RTVSPost2010Prop31
280
     0
102
RTVSPost2010PropOp31
 70
     0
102
RTVSPost2010Prop32
280
     0
102
RTVSPost2010PropOp32
 70
     0
102
RTVSPost2010Prop33
280
     0
102
RTVSPost2010PropOp33
 70
     0
102
RTVSPost2010Prop34
280
     0
102
RTVSPost2010PropOp34
 70
     0
102
RTVSPost2010Prop35
280
     0
102
RTVSPost2010PropOp35
 70
     0
102
RTVSPost2010Prop36
280
     0
102
RTVSPost2010PropOp36
 70
     0
102
RTVSPost2010Prop37
 90
       50
102
RTVSPost2010PropOp37
 70
     0
102
RTVSPost2010Prop38
140
0.0
102
RTVSPost2010PropOp38
 70
     0
102
RTVSPost2010Prop39
140
1.0
102
RTVSPost2010PropOp39
 70
     0
102
RTVSPost2010Prop40
 90
        0
102
RTVSPost2010PropOp40
 70
     0
102
RTVSPost2010Prop41ColorIndex
 90
       18
102
RTVSPost2010Prop41ColorRGB
 90
        0
102
RTVSPost2010PropOp41
 70
     0
102
RTVSPost2010Prop42
 90
       50
102
RTVSPost2010PropOp42
 70
     0
102
RTVSPost2010Prop43
 90
        3
102
RTVSPost2010PropOp43
 70
     0
102
RTVSPost2010Prop44ColorIndex
 90
        5
102
RTVSPost2010Prop44ColorRGB
 90
      255
102
RTVSPost2010PropOp44
 70
     0
102
RTVSPost2010Prop45
280
     0
102
RTVSPost2010PropOp45
 70
     0
102
RTVSPost2010Prop46
 90
       50
102
RTVSPost2010PropOp46
 70
     0
102
RTVSPost2010Prop47
 90
       50
102
RTVSPost2010PropOp47
 70
     0
102
RTVSPost2010Prop48
 90
       50
102
RTVSPost2010PropOp48
 70
     0
102
RTVSPost2010Prop49
280
     0
102
RTVSPost2010PropOp49
 70
     0
102
RTVSPost2010Prop50
 90
       50
102
RTVSPost2010PropOp50
 70
     0
102
RTVSPost2010Prop51ColorIndex
 90
      256
102
RTVSPost2010Prop51ColorRGB
 90
-16777216
102
RTVSPost2010PropOp51
 70
     0
102
RTVSPost2010Prop52
140
1.0
102
RTVSPost2010PropOp52
 70
     0
102
RTVSPost2010Prop53
 90
        2
102
RTVSPost2010PropOp53
 70
     0
102
RTVSPost2010Prop54
  1
strokes_ogs.tif
102
RTVSPost2010PropOp54
 70
     0
102
RTVSPost2010Prop55
280
     0
102
RTVSPost2010PropOp55
 70
     0
102
RTVSPost2010Prop56
140
1.0
102
RTVSPost2010PropOp56
 70
     0
102
RTVSPost2010Prop57
140
1.0
102
RTVSPost2010PropOp57
 70
     0
  0
XRECORD
  5
1BF
102
{ACAD_REACTORS
330
1BE
102
}
330
1BE
100
AcDbXrecord
280
     1
102
RTVSPost2010Prop28
280
     0
102
RTVSPost2010PropOp28
 70
     1
102
RTVSPost2010Prop29
280
     1
102
RTVSPost2010PropOp29
 70
     1
102
RTVSPost2010Prop30
280
     1
102
RTVSPost2010PropOp30
 70
     1
102
RTVSPost2010Prop31
280
     0
102
RTVSPost2010PropOp31
 70
     1
102
RTVSPost2010Prop32
280
     0
102
RTVSPost2010PropOp32
 70
     1
102
RTVSPost2010Prop33
280
     0
102
RTVSPost2010PropOp33
 70
     1
102
RTVSPost2010Prop34
280
     0
102
RTVSPost2010PropOp34
 70
     1
102
RTVSPost2010Prop35
280
     0
102
RTVSPost2010PropOp35
 70
     1
102
RTVSPost2010Prop36
280
     0
102
RTVSPost2010PropOp36
 70
     1
102
RTVSPost2010Prop37
 90
       50
102
RTVSPost2010PropOp37
 70
     1
102
RTVSPost2010Prop38
140
0.0
102
RTVSPost2010PropOp38
 70
     1
102
RTVSPost2010Prop39
140
1.0
102
RTVSPost2010PropOp39
 70
     1
102
RTVSPost2010Prop40
 90
        0
102
RTVSPost2010PropOp40
 70
     1
102
RTVSPost2010Prop41ColorIndex
 90
       18
102
RTVSPost2010Prop41ColorRGB
 90
        0
102
RTVSPost2010PropOp41
 70
     1
102
RTVSPost2010Prop42
 90
       50
102
RTVSPost2010PropOp42
 70
     1
102
RTVSPost2010Prop43
 90
        3
102
RTVSPost2010PropOp43
 70
     1
102
RTVSPost2010Prop44ColorIndex
 90
        5
102
RTVSPost2010Prop44ColorRGB
 90
      255
102
RTVSPost2010PropOp44
 70
     1
102
RTVSPost2010Prop45
280
     0
102
RTVSPost2010PropOp45
 70
     1
102
RTVSPost2010Prop46
 90
       50
102
RTVSPost2010PropOp46
 70
     1
102
RTVSPost2010Prop47
 90
       50
102
RTVSPost2010PropOp47
 70
     1
102
RTVSPost2010Prop48
 90
       50
102
RTVSPost2010PropOp48
 70
     1
102
RTVSPost2010Prop49
280
     0
102
RTVSPost2010PropOp49
 70
     1
102
RTVSPost2010Prop50
 90
       50
102
RTVSPost2010PropOp50
 70
     1
102
RTVSPost2010Prop51ColorIndex
 90
      256
102
RTVSPost2010Prop51ColorRGB
 90
-16777216
102
RTVSPost2010PropOp51
 70
     0
102
RTVSPost2010Prop52
140
1.0
102
RTVSPost2010PropOp52
 70
     0
102
RTVSPost2010Prop53
 90
        2
102
RTVSPost2010PropOp53
 70
     1
102
RTVSPost2010Prop54
  1
strokes_ogs.tif
102
RTVSPost2010PropOp54
 70
     1
102
RTVSPost2010Prop55
280
     0
102
RTVSPost2010PropOp55
 70
     1
102
RTVSPost2010Prop56
140
1.0
102
RTVSPost2010PropOp56
 70
     1
102
RTVSPost2010Prop57
140
1.0
102
RTVSPost2010PropOp57
 70
     1
  0
XRECORD
  5
1A3
102
{ACAD_REACTORS
330
1A2
102
}
330
1A2
100
AcDbXrecord
280
     1
102
RTVSPost2010Prop28
280
     0
102
RTVSPost2010PropOp28
 70
     1
102
RTVSPost2010Prop29
280
     1
102
RTVSPost2010PropOp29
 70
     1
102
RTVSPost2010Prop30
280
     1
102
RTVSPost2010PropOp30
 70
     1
102
RTVSPost2010Prop31
280
     0
102
RTVSPost2010PropOp31
 70
     1
102
RTVSPost2010Prop32
280
     0
102
RTVSPost2010PropOp32
 70
     1
102
RTVSPost2010Prop33
280
     0
102
RTVSPost2010PropOp33
 70
     1
102
RTVSPost2010Prop34
280
     0
102
RTVSPost2010PropOp34
 70
     1
102
RTVSPost2010Prop35
280
     0
102
RTVSPost2010PropOp35
 70
     1
102
RTVSPost2010Prop36
280
     0
102
RTVSPost2010PropOp36
 70
     1
102
RTVSPost2010Prop37
 90
       50
102
RTVSPost2010PropOp37
 70
     1
102
RTVSPost2010Prop38
140
0.0
102
RTVSPost2010PropOp38
 70
     1
102
RTVSPost2010Prop39
140
1.0
102
RTVSPost2010PropOp39
 70
     1
102
RTVSPost2010Prop40
 90
        0
102
RTVSPost2010PropOp40
 70
     1
102
RTVSPost2010Prop41ColorIndex
 90
       18
102
RTVSPost2010Prop41ColorRGB
 90
        0
102
RTVSPost2010PropOp41
 70
     1
102
RTVSPost2010Prop42
 90
       50
102
RTVSPost2010PropOp42
 70
     1
102
RTVSPost2010Prop43
 90
        3
102
RTVSPost2010PropOp43
 70
     1
102
RTVSPost2010Prop44ColorIndex
 90
        5
102
RTVSPost2010Prop44ColorRGB
 90
      255
102
RTVSPost2010PropOp44
 70
     1
102
RTVSPost2010Prop45
280
     0
102
RTVSPost2010PropOp45
 70
     1
102
RTVSPost2010Prop46
 90
       50
102
RTVSPost2010PropOp46
 70
     1
102
RTVSPost2010Prop47
 90
       50
102
RTVSPost2010PropOp47
 70
     1
102
RTVSPost2010Prop48
 90
       50
102
RTVSPost2010PropOp48
 70
     1
102
RTVSPost2010Prop49
280
     0
102
RTVSPost2010PropOp49
 70
     1
102
RTVSPost2010Prop50
 90
       50
102
RTVSPost2010PropOp50
 70
     1
102
RTVSPost2010Prop51ColorIndex
 90
      256
102
RTVSPost2010Prop51ColorRGB
 90
-16777216
102
RTVSPost2010PropOp51
 70
     0
102
RTVSPost2010Prop52
140
1.0
102
RTVSPost2010PropOp52
 70
     0
102
RTVSPost2010Prop53
 90
        2
102
RTVSPost2010PropOp53
 70
     1
102
RTVSPost2010Prop54
  1
strokes_ogs.tif
102
RTVSPost2010PropOp54
 70
     1
102
RTVSPost2010Prop55
280
     0
102
RTVSPost2010PropOp55
 70
     1
102
RTVSPost2010Prop56
140
1.0
102
RTVSPost2010PropOp56
 70
     1
102
RTVSPost2010Prop57
140
1.0
102
RTVSPost2010PropOp57
 70
     1
  0
XRECORD
  5
1A5
102
{ACAD_REACTORS
330
1A4
102
}
330
1A4
100
AcDbXrecord
280
     1
102
RTVSPost2010Prop28
280
     0
102
RTVSPost2010PropOp28
 70
     1
102
RTVSPost2010Prop29
280
     1
102
RTVSPost2010PropOp29
 70
     1
102
RTVSPost2010Prop30
280
     1
102
RTVSPost2010PropOp30
 70
     1
102
RTVSPost2010Prop31
280
     0
102
RTVSPost2010PropOp31
 70
     1
102
RTVSPost2010Prop32
280
     0
102
RTVSPost2010PropOp32
 70
     1
102
RTVSPost2010Prop33
280
     0
102
RTVSPost2010PropOp33
 70
     1
102
RTVSPost2010Prop34
280
     0
102
RTVSPost2010PropOp34
 70
     1
102
RTVSPost2010Prop35
280
     0
102
RTVSPost2010PropOp35
 70
     1
102
RTVSPost2010Prop36
280
     0
102
RTVSPost2010PropOp36
 70
     1
102
RTVSPost2010Prop37
 90
       50
102
RTVSPost2010PropOp37
 70
     1
102
RTVSPost2010Prop38
140
0.0
102
RTVSPost2010PropOp38
 70
     1
102
RTVSPost2010Prop39
140
1.0
102
RTVSPost2010PropOp39
 70
     1
102
RTVSPost2010Prop40
 90
        0
102
RTVSPost2010PropOp40
 70
     1
102
RTVSPost2010Prop41ColorIndex
 90
       18
102
RTVSPost2010Prop41ColorRGB
 90
        0
102
RTVSPost2010PropOp41
 70
     1
102
RTVSPost2010Prop42
 90
       50
102
RTVSPost2010PropOp42
 70
     1
102
RTVSPost2010Prop43
 90
        3
102
RTVSPost2010PropOp43
 70
     1
102
RTVSPost2010Prop44ColorIndex
 90
        5
102
RTVSPost2010Prop44ColorRGB
 90
      255
102
RTVSPost2010PropOp44
 70
     1
102
RTVSPost2010Prop45
280
     0
102
RTVSPost2010PropOp45
 70
     1
102
RTVSPost2010Prop46
 90
       50
102
RTVSPost2010PropOp46
 70
     1
102
RTVSPost2010Prop47
 90
       50
102
RTVSPost2010PropOp47
 70
     1
102
RTVSPost2010Prop48
 90
       50
102
RTVSPost2010PropOp48
 70
     1
102
RTVSPost2010Prop49
280
     0
102
RTVSPost2010PropOp49
 70
     1
102
RTVSPost2010Prop50
 90
       50
102
RTVSPost2010PropOp50
 70
     1
102
RTVSPost2010Prop51ColorIndex
 90
      256
102
RTVSPost2010Prop51ColorRGB
 90
-16777216
102
RTVSPost2010PropOp51
 70
     0
102
RTVSPost2010Prop52
140
1.0
102
RTVSPost2010PropOp52
 70
     0
102
RTVSPost2010Prop53
 90
        2
102
RTVSPost2010PropOp53
 70
     1
102
RTVSPost2010Prop54
  1
strokes_ogs.tif
102
RTVSPost2010PropOp54
 70
     1
102
RTVSPost2010Prop55
280
     0
102
RTVSPost2010PropOp55
 70
     1
102
RTVSPost2010Prop56
140
1.0
102
RTVSPost2010PropOp56
 70
     1
102
RTVSPost2010Prop57
140
1.0
102
RTVSPost2010PropOp57
 70
     1
  0
XRECORD
  5
1A7
102
{ACAD_REACTORS
330
1A6
102
}
330
1A6
100
AcDbXrecord
280
     1
102
RTVSPost2010Prop28
280
     0
102
RTVSPost2010PropOp28
 70
     1
102
RTVSPost2010Prop29
280
     1
102
RTVSPost2010PropOp29
 70
     1
102
RTVSPost2010Prop30
280
     1
102
RTVSPost2010PropOp30
 70
     1
102
RTVSPost2010Prop31
280
     0
102
RTVSPost2010PropOp31
 70
     1
102
RTVSPost2010Prop32
280
     0
102
RTVSPost2010PropOp32
 70
     1
102
RTVSPost2010Prop33
280
     0
102
RTVSPost2010PropOp33
 70
     1
102
RTVSPost2010Prop34
280
     0
102
RTVSPost2010PropOp34
 70
     1
102
RTVSPost2010Prop35
280
     0
102
RTVSPost2010PropOp35
 70
     1
102
RTVSPost2010Prop36
280
     0
102
RTVSPost2010PropOp36
 70
     1
102
RTVSPost2010Prop37
 90
       50
102
RTVSPost2010PropOp37
 70
     1
102
RTVSPost2010Prop38
140
0.0
102
RTVSPost2010PropOp38
 70
     1
102
RTVSPost2010Prop39
140
1.0
102
RTVSPost2010PropOp39
 70
     1
102
RTVSPost2010Prop40
 90
        0
102
RTVSPost2010PropOp40
 70
     1
102
RTVSPost2010Prop41ColorIndex
 90
       18
102
RTVSPost2010Prop41ColorRGB
 90
        0
102
RTVSPost2010PropOp41
 70
     1
102
RTVSPost2010Prop42
 90
       50
102
RTVSPost2010PropOp42
 70
     1
102
RTVSPost2010Prop43
 90
        3
102
RTVSPost2010PropOp43
 70
     1
102
RTVSPost2010Prop44ColorIndex
 90
        5
102
RTVSPost2010Prop44ColorRGB
 90
      255
102
RTVSPost2010PropOp44
 70
     1
102
RTVSPost2010Prop45
280
     0
102
RTVSPost2010PropOp45
 70
     1
102
RTVSPost2010Prop46
 90
       50
102
RTVSPost2010PropOp46
 70
     1
102
RTVSPost2010Prop47
 90
       50
102
RTVSPost2010PropOp47
 70
     1
102
RTVSPost2010Prop48
 90
       50
102
RTVSPost2010PropOp48
 70
     1
102
RTVSPost2010Prop49
280
     0
102
RTVSPost2010PropOp49
 70
     1
102
RTVSPost2010Prop50
 90
       50
102
RTVSPost2010PropOp50
 70
     1
102
RTVSPost2010Prop51ColorIndex
 90
      256
102
RTVSPost2010Prop51ColorRGB
 90
-16777216
102
RTVSPost2010PropOp51
 70
     0
102
RTVSPost2010Prop52
140
1.0
102
RTVSPost2010PropOp52
 70
     0
102
RTVSPost2010Prop53
 90
        2
102
RTVSPost2010PropOp53
 70
     1
102
RTVSPost2010Prop54
  1
strokes_ogs.tif
102
RTVSPost2010PropOp54
 70
     1
102
RTVSPost2010Prop55
280
     0
102
RTVSPost2010PropOp55
 70
     1
102
RTVSPost2010Prop56
140
1.0
102
RTVSPost2010PropOp56
 70
     1
102
RTVSPost2010Prop57
140
1.0
102
RTVSPost2010PropOp57
 70
     1
  0
XRECORD
  5
1A9
102
{ACAD_REACTORS
330
1A8
102
}
330
1A8
100
AcDbXrecord
280
     1
102
RTVSPost2010Prop28
280
     0
102
RTVSPost2010PropOp28
 70
     1
102
RTVSPost2010Prop29
280
     1
102
RTVSPost2010PropOp29
 70
     1
102
RTVSPost2010Prop30
280
     1
102
RTVSPost2010PropOp30
 70
     1
102
RTVSPost2010Prop31
280
     0
102
RTVSPost2010PropOp31
 70
     1
102
RTVSPost2010Prop32
280
     0
102
RTVSPost2010PropOp32
 70
     1
102
RTVSPost2010Prop33
280
     0
102
RTVSPost2010PropOp33
 70
     1
102
RTVSPost2010Prop34
280
     0
102
RTVSPost2010PropOp34
 70
     1
102
RTVSPost2010Prop35
280
     0
102
RTVSPost2010PropOp35
 70
     1
102
RTVSPost2010Prop36
280
     0
102
RTVSPost2010PropOp36
 70
     1
102
RTVSPost2010Prop37
 90
       50
102
RTVSPost2010PropOp37
 70
     1
102
RTVSPost2010Prop38
140
0.0
102
RTVSPost2010PropOp38
 70
     1
102
RTVSPost2010Prop39
140
1.0
102
RTVSPost2010PropOp39
 70
     1
102
RTVSPost2010Prop40
 90
        0
102
RTVSPost2010PropOp40
 70
     1
102
RTVSPost2010Prop41ColorIndex
 90
       18
102
RTVSPost2010Prop41ColorRGB
 90
        0
102
RTVSPost2010PropOp41
 70
     1
102
RTVSPost2010Prop42
 90
       50
102
RTVSPost2010PropOp42
 70
     1
102
RTVSPost2010Prop43
 90
        3
102
RTVSPost2010PropOp43
 70
     1
102
RTVSPost2010Prop44ColorIndex
 90
        5
102
RTVSPost2010Prop44ColorRGB
 90
      255
102
RTVSPost2010PropOp44
 70
     1
102
RTVSPost2010Prop45
280
     0
102
RTVSPost2010PropOp45
 70
     1
102
RTVSPost2010Prop46
 90
       50
102
RTVSPost2010PropOp46
 70
     1
102
RTVSPost2010Prop47
 90
       50
102
RTVSPost2010PropOp47
 70
     1
102
RTVSPost2010Prop48
 90
       50
102
RTVSPost2010PropOp48
 70
     1
102
RTVSPost2010Prop49
280
     0
102
RTVSPost2010PropOp49
 70
     1
102
RTVSPost2010Prop50
 90
       50
102
RTVSPost2010PropOp50
 70
     1
102
RTVSPost2010Prop51ColorIndex
 90
      256
102
RTVSPost2010Prop51ColorRGB
 90
-16777216
102
RTVSPost2010PropOp51
 70
     0
102
RTVSPost2010Prop52
140
1.0
102
RTVSPost2010PropOp52
 70
     0
102
RTVSPost2010Prop53
 90
        2
102
RTVSPost2010PropOp53
 70
     1
102
RTVSPost2010Prop54
  1
strokes_ogs.tif
102
RTVSPost2010PropOp54
 70
     1
102
RTVSPost2010Prop55
280
     0
102
RTVSPost2010PropOp55
 70
     1
102
RTVSPost2010Prop56
140
1.0
102
RTVSPost2010PropOp56
 70
     1
102
RTVSPost2010Prop57
140
1.0
102
RTVSPost2010PropOp57
 70
     1
  0
XRECORD
  5
1B1
102
{ACAD_REACTORS
330
1B0
102
}
330
1B0
100
AcDbXrecord
280
     1
102
RTVSPost2010Prop28
280
     0
102
RTVSPost2010PropOp28
 70
     1
102
RTVSPost2010Prop29
280
     1
102
RTVSPost2010PropOp29
 70
     1
102
RTVSPost2010Prop30
280
     1
102
RTVSPost2010PropOp30
 70
     1
102
RTVSPost2010Prop31
280
     0
102
RTVSPost2010PropOp31
 70
     1
102
RTVSPost2010Prop32
280
     0
102
RTVSPost2010PropOp32
 70
     1
102
RTVSPost2010Prop33
280
     0
102
RTVSPost2010PropOp33
 70
     1
102
RTVSPost2010Prop34
280
     0
102
RTVSPost2010PropOp34
 70
     1
102
RTVSPost2010Prop35
280
     0
102
RTVSPost2010PropOp35
 70
     1
102
RTVSPost2010Prop36
280
     0
102
RTVSPost2010PropOp36
 70
     1
102
RTVSPost2010Prop37
 90
       50
102
RTVSPost2010PropOp37
 70
     1
102
RTVSPost2010Prop38
140
0.0
102
RTVSPost2010PropOp38
 70
     1
102
RTVSPost2010Prop39
140
1.0
102
RTVSPost2010PropOp39
 70
     1
102
RTVSPost2010Prop40
 90
        0
102
RTVSPost2010PropOp40
 70
     1
102
RTVSPost2010Prop41ColorIndex
 90
       18
102
RTVSPost2010Prop41ColorRGB
 90
        0
102
RTVSPost2010PropOp41
 70
     1
102
RTVSPost2010Prop42
 90
       50
102
RTVSPost2010PropOp42
 70
     1
102
RTVSPost2010Prop43
 90
        3
102
RTVSPost2010PropOp43
 70
     1
102
RTVSPost2010Prop44ColorIndex
 90
        5
102
RTVSPost2010Prop44ColorRGB
 90
      255
102
RTVSPost2010PropOp44
 70
     1
102
RTVSPost2010Prop45
280
     0
102
RTVSPost2010PropOp45
 70
     1
102
RTVSPost2010Prop46
 90
       50
102
RTVSPost2010PropOp46
 70
     1
102
RTVSPost2010Prop47
 90
       50
102
RTVSPost2010PropOp47
 70
     1
102
RTVSPost2010Prop48
 90
       50
102
RTVSPost2010PropOp48
 70
     1
102
RTVSPost2010Prop49
280
     0
102
RTVSPost2010PropOp49
 70
     1
102
RTVSPost2010Prop50
 90
       50
102
RTVSPost2010PropOp50
 70
     1
102
RTVSPost2010Prop51ColorIndex
 90
      256
102
RTVSPost2010Prop51ColorRGB
 90
-16777216
102
RTVSPost2010PropOp51
 70
     0
102
RTVSPost2010Prop52
140
1.0
102
RTVSPost2010PropOp52
 70
     0
102
RTVSPost2010Prop53
 90
        2
102
RTVSPost2010PropOp53
 70
     1
102
RTVSPost2010Prop54
  1
strokes_ogs.tif
102
RTVSPost2010PropOp54
 70
     1
102
RTVSPost2010Prop55
280
     0
102
RTVSPost2010PropOp55
 70
     1
102
RTVSPost2010Prop56
140
1.0
102
RTVSPost2010PropOp56
 70
     1
102
RTVSPost2010Prop57
140
1.0
102
RTVSPost2010PropOp57
 70
     1
  0
XRECORD
  5
1CD
102
{ACAD_REACTORS
330
1CC
102
}
330
1CC
100
AcDbXrecord
280
     1
102
RTVSPost2010Prop28
280
     0
102
RTVSPost2010PropOp28
 70
     0
102
RTVSPost2010Prop29
280
     1
102
RTVSPost2010PropOp29
 70
     0
102
RTVSPost2010Prop30
280
     1
102
RTVSPost2010PropOp30
 70
     0
102
RTVSPost2010Prop31
280
     0
102
RTVSPost2010PropOp31
 70
     0
102
RTVSPost2010Prop32
280
     0
102
RTVSPost2010PropOp32
 70
     0
102
RTVSPost2010Prop33
280
     0
102
RTVSPost2010PropOp33
 70
     0
102
RTVSPost2010Prop34
280
     0
102
RTVSPost2010PropOp34
 70
     0
102
RTVSPost2010Prop35
280
     0
102
RTVSPost2010PropOp35
 70
     0
102
RTVSPost2010Prop36
280
     0
102
RTVSPost2010PropOp36
 70
     0
102
RTVSPost2010Prop37
 90
       50
102
RTVSPost2010PropOp37
 70
     0
102
RTVSPost2010Prop38
140
0.0
102
RTVSPost2010PropOp38
 70
     0
102
RTVSPost2010Prop39
140
1.0
102
RTVSPost2010PropOp39
 70
     0
102
RTVSPost2010Prop40
 90
        0
102
RTVSPost2010PropOp40
 70
     0
102
RTVSPost2010Prop41ColorIndex
 90
       18
102
RTVSPost2010Prop41ColorRGB
 90
        0
102
RTVSPost2010PropOp41
 70
     0
102
RTVSPost2010Prop42
 90
       50
102
RTVSPost2010PropOp42
 70
     0
102
RTVSPost2010Prop43
 90
        3
102
RTVSPost2010PropOp43
 70
     0
102
RTVSPost2010Prop44ColorIndex
 90
        5
102
RTVSPost2010Prop44ColorRGB
 90
      255
102
RTVSPost2010PropOp44
 70
     0
102
RTVSPost2010Prop45
280
     0
102
RTVSPost2010PropOp45
 70
     0
102
RTVSPost2010Prop46
 90
       50
102
RTVSPost2010PropOp46
 70
     0
102
RTVSPost2010Prop47
 90
       50
102
RTVSPost2010PropOp47
 70
     0
102
RTVSPost2010Prop48
 90
       50
102
RTVSPost2010PropOp48
 70
     0
102
RTVSPost2010Prop49
280
     0
102
RTVSPost2010PropOp49
 70
     0
102
RTVSPost2010Prop50
 90
       50
102
RTVSPost2010PropOp50
 70
     0
102
RTVSPost2010Prop51ColorIndex
 90
      256
102
RTVSPost2010Prop51ColorRGB
 90
-16777216
102
RTVSPost2010PropOp51
 70
     0
102
RTVSPost2010Prop52
140
1.0
102
RTVSPost2010PropOp52
 70
     0
102
RTVSPost2010Prop53
 90
        2
102
RTVSPost2010PropOp53
 70
     0
102
RTVSPost2010Prop54
  1
strokes_ogs.tif
102
RTVSPost2010PropOp54
 70
     0
102
RTVSPost2010Prop55
280
     0
102
RTVSPost2010PropOp55
 70
     0
102
RTVSPost2010Prop56
140
1.0
102
RTVSPost2010PropOp56
 70
     0
102
RTVSPost2010Prop57
140
1.0
102
RTVSPost2010PropOp57
 70
     0
  0
XRECORD
  5
1BD
102
{ACAD_REACTORS
330
1BC
102
}
330
1BC
100
AcDbXrecord
280
     1
102
RTVSPost2010Prop28
280
     0
102
RTVSPost2010PropOp28
 70
     1
102
RTVSPost2010Prop29
280
     1
102
RTVSPost2010PropOp29
 70
     1
102
RTVSPost2010Prop30
280
     1
102
RTVSPost2010PropOp30
 70
     1
102
RTVSPost2010Prop31
280
     0
102
RTVSPost2010PropOp31
 70
     1
102
RTVSPost2010Prop32
280
     0
102
RTVSPost2010PropOp32
 70
     1
102
RTVSPost2010Prop33
280
     0
102
RTVSPost2010PropOp33
 70
     1
102
RTVSPost2010Prop34
280
     0
102
RTVSPost2010PropOp34
 70
     1
102
RTVSPost2010Prop35
280
     0
102
RTVSPost2010PropOp35
 70
     1
102
RTVSPost2010Prop36
280
     0
102
RTVSPost2010PropOp36
 70
     1
102
RTVSPost2010Prop37
 90
       50
102
RTVSPost2010PropOp37
 70
     1
102
RTVSPost2010Prop38
140
0.0
102
RTVSPost2010PropOp38
 70
     1
102
RTVSPost2010Prop39
140
1.0
102
RTVSPost2010PropOp39
 70
     1
102
RTVSPost2010Prop40
 90
        0
102
RTVSPost2010PropOp40
 70
     1
102
RTVSPost2010Prop41ColorIndex
 90
       18
102
RTVSPost2010Prop41ColorRGB
 90
        0
102
RTVSPost2010PropOp41
 70
     1
102
RTVSPost2010Prop42
 90
       50
102
RTVSPost2010PropOp42
 70
     1
102
RTVSPost2010Prop43
 90
        3
102
RTVSPost2010PropOp43
 70
     1
102
RTVSPost2010Prop44ColorIndex
 90
        5
102
RTVSPost2010Prop44ColorRGB
 90
      255
102
RTVSPost2010PropOp44
 70
     1
102
RTVSPost2010Prop45
280
     0
102
RTVSPost2010PropOp45
 70
     1
102
RTVSPost2010Prop46
 90
       50
102
RTVSPost2010PropOp46
 70
     1
102
RTVSPost2010Prop47
 90
       50
102
RTVSPost2010PropOp47
 70
     1
102
RTVSPost2010Prop48
 90
       50
102
RTVSPost2010PropOp48
 70
     1
102
RTVSPost2010Prop49
280
     0
102
RTVSPost2010PropOp49
 70
     1
102
RTVSPost2010Prop50
 90
       50
102
RTVSPost2010PropOp50
 70
     1
102
RTVSPost2010Prop51ColorIndex
 90
      256
102
RTVSPost2010Prop51ColorRGB
 90
-16777216
102
RTVSPost2010PropOp51
 70
     0
102
RTVSPost2010Prop52
140
1.0
102
RTVSPost2010PropOp52
 70
     0
102
RTVSPost2010Prop53
 90
        2
102
RTVSPost2010PropOp53
 70
     1
102
RTVSPost2010Prop54
  1
strokes_ogs.tif
102
RTVSPost2010PropOp54
 70
     1
102
RTVSPost2010Prop55
280
     0
102
RTVSPost2010PropOp55
 70
     1
102
RTVSPost2010Prop56
140
1.0
102
RTVSPost2010PropOp56
 70
     1
102
RTVSPost2010Prop57
140
1.0
102
RTVSPost2010PropOp57
 70
     1
  0
XRECORD
  5
1CF
102
{ACAD_REACTORS
330
1CE
102
}
330
1CE
100
AcDbXrecord
280
     1
102
RTVSPost2010Prop28
280
     0
102
RTVSPost2010PropOp28
 70
     0
102
RTVSPost2010Prop29
280
     1
102
RTVSPost2010PropOp29
 70
     0
102
RTVSPost2010Prop30
280
     1
102
RTVSPost2010PropOp30
 70
     0
102
RTVSPost2010Prop31
280
     0
102
RTVSPost2010PropOp31
 70
     0
102
RTVSPost2010Prop32
280
     0
102
RTVSPost2010PropOp32
 70
     0
102
RTVSPost2010Prop33
280
     0
102
RTVSPost2010PropOp33
 70
     0
102
RTVSPost2010Prop34
280
     0
102
RTVSPost2010PropOp34
 70
     0
102
RTVSPost2010Prop35
280
     0
102
RTVSPost2010PropOp35
 70
     0
102
RTVSPost2010Prop36
280
     0
102
RTVSPost2010PropOp36
 70
     0
102
RTVSPost2010Prop37
 90
       50
102
RTVSPost2010PropOp37
 70
     0
102
RTVSPost2010Prop38
140
0.0
102
RTVSPost2010PropOp38
 70
     0
102
RTVSPost2010Prop39
140
1.0
102
RTVSPost2010PropOp39
 70
     0
102
RTVSPost2010Prop40
 90
        0
102
RTVSPost2010PropOp40
 70
     0
102
RTVSPost2010Prop41ColorIndex
 90
       18
102
RTVSPost2010Prop41ColorRGB
 90
        0
102
RTVSPost2010PropOp41
 70
     0
102
RTVSPost2010Prop42
 90
       50
102
RTVSPost2010PropOp42
 70
     0
102
RTVSPost2010Prop43
 90
        3
102
RTVSPost2010PropOp43
 70
     0
102
RTVSPost2010Prop44ColorIndex
 90
        5
102
RTVSPost2010Prop44ColorRGB
 90
      255
102
RTVSPost2010PropOp44
 70
     0
102
RTVSPost2010Prop45
280
     0
102
RTVSPost2010PropOp45
 70
     0
102
RTVSPost2010Prop46
 90
       50
102
RTVSPost2010PropOp46
 70
     0
102
RTVSPost2010Prop47
 90
       50
102
RTVSPost2010PropOp47
 70
     0
102
RTVSPost2010Prop48
 90
       50
102
RTVSPost2010PropOp48
 70
     0
102
RTVSPost2010Prop49
280
     0
102
RTVSPost2010PropOp49
 70
     0
102
RTVSPost2010Prop50
 90
       50
102
RTVSPost2010PropOp50
 70
     0
102
RTVSPost2010Prop51ColorIndex
 90
      256
102
RTVSPost2010Prop51ColorRGB
 90
-16777216
102
RTVSPost2010PropOp51
 70
     0
102
RTVSPost2010Prop52
140
1.0
102
RTVSPost2010PropOp52
 70
     0
102
RTVSPost2010Prop53
 90
        2
102
RTVSPost2010PropOp53
 70
     0
102
RTVSPost2010Prop54
  1
strokes_ogs.tif
102
RTVSPost2010PropOp54
 70
     0
102
RTVSPost2010Prop55
280
     0
102
RTVSPost2010PropOp55
 70
     0
102
RTVSPost2010Prop56
140
1.0
102
RTVSPost2010PropOp56
 70
     0
102
RTVSPost2010Prop57
140
1.0
102
RTVSPost2010PropOp57
 70
     0
  0
XRECORD
  5
1B5
102
{ACAD_REACTORS
330
1B4
102
}
330
1B4
100
AcDbXrecord
280
     1
102
RTVSPost2010Prop28
280
     0
102
RTVSPost2010PropOp28
 70
     1
102
RTVSPost2010Prop29
280
     1
102
RTVSPost2010PropOp29
 70
     1
102
RTVSPost2010Prop30
280
     1
102
RTVSPost2010PropOp30
 70
     1
102
RTVSPost2010Prop31
280
     0
102
RTVSPost2010PropOp31
 70
     1
102
RTVSPost2010Prop32
280
     0
102
RTVSPost2010PropOp32
 70
     1
102
RTVSPost2010Prop33
280
     0
102
RTVSPost2010PropOp33
 70
     1
102
RTVSPost2010Prop34
280
     0
102
RTVSPost2010PropOp34
 70
     1
102
RTVSPost2010Prop35
280
     0
102
RTVSPost2010PropOp35
 70
     1
102
RTVSPost2010Prop36
280
     0
102
RTVSPost2010PropOp36
 70
     1
102
RTVSPost2010Prop37
 90
       50
102
RTVSPost2010PropOp37
 70
     1
102
RTVSPost2010Prop38
140
0.0
102
RTVSPost2010PropOp38
 70
     1
102
RTVSPost2010Prop39
140
1.0
102
RTVSPost2010PropOp39
 70
     1
102
RTVSPost2010Prop40
 90
        0
102
RTVSPost2010PropOp40
 70
     1
102
RTVSPost2010Prop41ColorIndex
 90
       18
102
RTVSPost2010Prop41ColorRGB
 90
        0
102
RTVSPost2010PropOp41
 70
     1
102
RTVSPost2010Prop42
 90
       50
102
RTVSPost2010PropOp42
 70
     1
102
RTVSPost2010Prop43
 90
        3
102
RTVSPost2010PropOp43
 70
     1
102
RTVSPost2010Prop44ColorIndex
 90
        5
102
RTVSPost2010Prop44ColorRGB
 90
      255
102
RTVSPost2010PropOp44
 70
     1
102
RTVSPost2010Prop45
280
     0
102
RTVSPost2010PropOp45
 70
     1
102
RTVSPost2010Prop46
 90
       50
102
RTVSPost2010PropOp46
 70
     1
102
RTVSPost2010Prop47
 90
       50
102
RTVSPost2010PropOp47
 70
     1
102
RTVSPost2010Prop48
 90
       50
102
RTVSPost2010PropOp48
 70
     1
102
RTVSPost2010Prop49
280
     0
102
RTVSPost2010PropOp49
 70
     1
102
RTVSPost2010Prop50
 90
       50
102
RTVSPost2010PropOp50
 70
     1
102
RTVSPost2010Prop51ColorIndex
 90
      256
102
RTVSPost2010Prop51ColorRGB
 90
-16777216
102
RTVSPost2010PropOp51
 70
     0
102
RTVSPost2010Prop52
140
1.0
102
RTVSPost2010PropOp52
 70
     0
102
RTVSPost2010Prop53
 90
        2
102
RTVSPost2010PropOp53
 70
     1
102
RTVSPost2010Prop54
  1
strokes_ogs.tif
102
RTVSPost2010PropOp54
 70
     1
102
RTVSPost2010Prop55
280
     0
102
RTVSPost2010PropOp55
 70
     1
102
RTVSPost2010Prop56
140
1.0
102
RTVSPost2010PropOp56
 70
     1
102
RTVSPost2010Prop57
140
1.0
102
RTVSPost2010PropOp57
 70
     1
  0
XRECORD
  5
1CB
102
{ACAD_REACTORS
330
1CA
102
}
330
1CA
100
AcDbXrecord
280
     1
102
RTVSPost2010Prop28
280
     0
102
RTVSPost2010PropOp28
 70
     1
102
RTVSPost2010Prop29
280
     1
102
RTVSPost2010PropOp29
 70
     1
102
RTVSPost2010Prop30
280
     1
102
RTVSPost2010PropOp30
 70
     1
102
RTVSPost2010Prop31
280
     0
102
RTVSPost2010PropOp31
 70
     1
102
RTVSPost2010Prop32
280
     0
102
RTVSPost2010PropOp32
 70
     1
102
RTVSPost2010Prop33
280
     0
102
RTVSPost2010PropOp33
 70
     1
102
RTVSPost2010Prop34
280
     0
102
RTVSPost2010PropOp34
 70
     1
102
RTVSPost2010Prop35
280
     0
102
RTVSPost2010PropOp35
 70
     1
102
RTVSPost2010Prop36
280
     0
102
RTVSPost2010PropOp36
 70
     1
102
RTVSPost2010Prop37
 90
       50
102
RTVSPost2010PropOp37
 70
     1
102
RTVSPost2010Prop38
140
0.0
102
RTVSPost2010PropOp38
 70
     1
102
RTVSPost2010Prop39
140
1.0
102
RTVSPost2010PropOp39
 70
     1
102
RTVSPost2010Prop40
 90
        0
102
RTVSPost2010PropOp40
 70
     1
102
RTVSPost2010Prop41ColorIndex
 90
       18
102
RTVSPost2010Prop41ColorRGB
 90
        0
102
RTVSPost2010PropOp41
 70
     1
102
RTVSPost2010Prop42
 90
       50
102
RTVSPost2010PropOp42
 70
     1
102
RTVSPost2010Prop43
 90
        3
102
RTVSPost2010PropOp43
 70
     1
102
RTVSPost2010Prop44ColorIndex
 90
        5
102
RTVSPost2010Prop44ColorRGB
 90
      255
102
RTVSPost2010PropOp44
 70
     1
102
RTVSPost2010Prop45
280
     0
102
RTVSPost2010PropOp45
 70
     1
102
RTVSPost2010Prop46
 90
       50
102
RTVSPost2010PropOp46
 70
     1
102
RTVSPost2010Prop47
 90
       50
102
RTVSPost2010PropOp47
 70
     1
102
RTVSPost2010Prop48
 90
       50
102
RTVSPost2010PropOp48
 70
     1
102
RTVSPost2010Prop49
280
     0
102
RTVSPost2010PropOp49
 70
     1
102
RTVSPost2010Prop50
 90
       50
102
RTVSPost2010PropOp50
 70
     1
102
RTVSPost2010Prop51ColorIndex
 90
      256
102
RTVSPost2010Prop51ColorRGB
 90
-16777216
102
RTVSPost2010PropOp51
 70
     0
102
RTVSPost2010Prop52
140
1.0
102
RTVSPost2010PropOp52
 70
     0
102
RTVSPost2010Prop53
 90
        2
102
RTVSPost2010PropOp53
 70
     1
102
RTVSPost2010Prop54
  1
strokes_ogs.tif
102
RTVSPost2010PropOp54
 70
     1
102
RTVSPost2010Prop55
280
     0
102
RTVSPost2010PropOp55
 70
     1
102
RTVSPost2010Prop56
140
1.0
102
RTVSPost2010PropOp56
 70
     1
102
RTVSPost2010Prop57
140
1.0
102
RTVSPost2010PropOp57
 70
     1
  0
XRECORD
  5
1C9
102
{ACAD_REACTORS
330
1C8
102
}
330
1C8
100
AcDbXrecord
280
     1
102
RTVSPost2010Prop28
280
     0
102
RTVSPost2010PropOp28
 70
     1
102
RTVSPost2010Prop29
280
     1
102
RTVSPost2010PropOp29
 70
     1
102
RTVSPost2010Prop30
280
     1
102
RTVSPost2010PropOp30
 70
     1
102
RTVSPost2010Prop31
280
     0
102
RTVSPost2010PropOp31
 70
     1
102
RTVSPost2010Prop32
280
     0
102
RTVSPost2010PropOp32
 70
     1
102
RTVSPost2010Prop33
280
     0
102
RTVSPost2010PropOp33
 70
     1
102
RTVSPost2010Prop34
280
     0
102
RTVSPost2010PropOp34
 70
     1
102
RTVSPost2010Prop35
280
     0
102
RTVSPost2010PropOp35
 70
     1
102
RTVSPost2010Prop36
280
     0
102
RTVSPost2010PropOp36
 70
     1
102
RTVSPost2010Prop37
 90
       50
102
RTVSPost2010PropOp37
 70
     1
102
RTVSPost2010Prop38
140
0.0
102
RTVSPost2010PropOp38
 70
     1
102
RTVSPost2010Prop39
140
1.0
102
RTVSPost2010PropOp39
 70
     1
102
RTVSPost2010Prop40
 90
        0
102
RTVSPost2010PropOp40
 70
     1
102
RTVSPost2010Prop41ColorIndex
 90
       18
102
RTVSPost2010Prop41ColorRGB
 90
        0
102
RTVSPost2010PropOp41
 70
     1
102
RTVSPost2010Prop42
 90
       50
102
RTVSPost2010PropOp42
 70
     1
102
RTVSPost2010Prop43
 90
        3
102
RTVSPost2010PropOp43
 70
     1
102
RTVSPost2010Prop44ColorIndex
 90
        5
102
RTVSPost2010Prop44ColorRGB
 90
      255
102
RTVSPost2010PropOp44
 70
     1
102
RTVSPost2010Prop45
280
     0
102
RTVSPost2010PropOp45
 70
     1
102
RTVSPost2010Prop46
 90
       50
102
RTVSPost2010PropOp46
 70
     1
102
RTVSPost2010Prop47
 90
       50
102
RTVSPost2010PropOp47
 70
     1
102
RTVSPost2010Prop48
 90
       50
102
RTVSPost2010PropOp48
 70
     1
102
RTVSPost2010Prop49
280
     0
102
RTVSPost2010PropOp49
 70
     1
102
RTVSPost2010Prop50
 90
       50
102
RTVSPost2010PropOp50
 70
     1
102
RTVSPost2010Prop51ColorIndex
 90
      256
102
RTVSPost2010Prop51ColorRGB
 90
-16777216
102
RTVSPost2010PropOp51
 70
     0
102
RTVSPost2010Prop52
140
1.0
102
RTVSPost2010PropOp52
 70
     0
102
RTVSPost2010Prop53
 90
        2
102
RTVSPost2010PropOp53
 70
     1
102
RTVSPost2010Prop54
  1
strokes_ogs.tif
102
RTVSPost2010PropOp54
 70
     1
102
RTVSPost2010Prop55
280
     0
102
RTVSPost2010PropOp55
 70
     1
102
RTVSPost2010Prop56
140
1.0
102
RTVSPost2010PropOp56
 70
     1
102
RTVSPost2010Prop57
140
1.0
102
RTVSPost2010PropOp57
 70
     1
  0
XRECORD
  5
1C3
102
{ACAD_REACTORS
330
1C2
102
}
330
1C2
100
AcDbXrecord
280
     1
102
RTVSPost2010Prop28
280
     0
102
RTVSPost2010PropOp28
 70
     1
102
RTVSPost2010Prop29
280
     1
102
RTVSPost2010PropOp29
 70
     1
102
RTVSPost2010Prop30
280
     1
102
RTVSPost2010PropOp30
 70
     1
102
RTVSPost2010Prop31
280
     0
102
RTVSPost2010PropOp31
 70
     1
102
RTVSPost2010Prop32
280
     0
102
RTVSPost2010PropOp32
 70
     1
102
RTVSPost2010Prop33
280
     0
102
RTVSPost2010PropOp33
 70
     1
102
RTVSPost2010Prop34
280
     0
102
RTVSPost2010PropOp34
 70
     1
102
RTVSPost2010Prop35
280
     0
102
RTVSPost2010PropOp35
 70
     1
102
RTVSPost2010Prop36
280
     0
102
RTVSPost2010PropOp36
 70
     1
102
RTVSPost2010Prop37
 90
       50
102
RTVSPost2010PropOp37
 70
     1
102
RTVSPost2010Prop38
140
0.0
102
RTVSPost2010PropOp38
 70
     1
102
RTVSPost2010Prop39
140
1.0
102
RTVSPost2010PropOp39
 70
     1
102
RTVSPost2010Prop40
 90
        0
102
RTVSPost2010PropOp40
 70
     1
102
RTVSPost2010Prop41ColorIndex
 90
       18
102
RTVSPost2010Prop41ColorRGB
 90
        0
102
RTVSPost2010PropOp41
 70
     1
102
RTVSPost2010Prop42
 90
       50
102
RTVSPost2010PropOp42
 70
     1
102
RTVSPost2010Prop43
 90
        3
102
RTVSPost2010PropOp43
 70
     1
102
RTVSPost2010Prop44ColorIndex
 90
        5
102
RTVSPost2010Prop44ColorRGB
 90
      255
102
RTVSPost2010PropOp44
 70
     1
102
RTVSPost2010Prop45
280
     0
102
RTVSPost2010PropOp45
 70
     1
102
RTVSPost2010Prop46
 90
       50
102
RTVSPost2010PropOp46
 70
     1
102
RTVSPost2010Prop47
 90
       50
102
RTVSPost2010PropOp47
 70
     1
102
RTVSPost2010Prop48
 90
       50
102
RTVSPost2010PropOp48
 70
     1
102
RTVSPost2010Prop49
280
     0
102
RTVSPost2010PropOp49
 70
     1
102
RTVSPost2010Prop50
 90
       50
102
RTVSPost2010PropOp50
 70
     1
102
RTVSPost2010Prop51ColorIndex
 90
      256
102
RTVSPost2010Prop51ColorRGB
 90
-16777216
102
RTVSPost2010PropOp51
 70
     0
102
RTVSPost2010Prop52
140
1.0
102
RTVSPost2010PropOp52
 70
     0
102
RTVSPost2010Prop53
 90
        2
102
RTVSPost2010PropOp53
 70
     1
102
RTVSPost2010Prop54
  1
strokes_ogs.tif
102
RTVSPost2010PropOp54
 70
     1
102
RTVSPost2010Prop55
280
     0
102
RTVSPost2010PropOp55
 70
     1
102
RTVSPost2010Prop56
140
1.0
102
RTVSPost2010PropOp56
 70
     1
102
RTVSPost2010Prop57
140
1.0
102
RTVSPost2010PropOp57
 70
     1
  0
XRECORD
  5
1C5
102
{ACAD_REACTORS
330
1C4
102
}
330
1C4
100
AcDbXrecord
280
     1
102
RTVSPost2010Prop28
280
     0
102
RTVSPost2010PropOp28
 70
     1
102
RTVSPost2010Prop29
280
     1
102
RTVSPost2010PropOp29
 70
     1
102
RTVSPost2010Prop30
280
     1
102
RTVSPost2010PropOp30
 70
     1
102
RTVSPost2010Prop31
280
     0
102
RTVSPost2010PropOp31
 70
     1
102
RTVSPost2010Prop32
280
     0
102
RTVSPost2010PropOp32
 70
     1
102
RTVSPost2010Prop33
280
     0
102
RTVSPost2010PropOp33
 70
     1
102
RTVSPost2010Prop34
280
     0
102
RTVSPost2010PropOp34
 70
     1
102
RTVSPost2010Prop35
280
     0
102
RTVSPost2010PropOp35
 70
     1
102
RTVSPost2010Prop36
280
     0
102
RTVSPost2010PropOp36
 70
     1
102
RTVSPost2010Prop37
 90
       50
102
RTVSPost2010PropOp37
 70
     1
102
RTVSPost2010Prop38
140
0.0
102
RTVSPost2010PropOp38
 70
     1
102
RTVSPost2010Prop39
140
1.0
102
RTVSPost2010PropOp39
 70
     1
102
RTVSPost2010Prop40
 90
        0
102
RTVSPost2010PropOp40
 70
     1
102
RTVSPost2010Prop41ColorIndex
 90
       18
102
RTVSPost2010Prop41ColorRGB
 90
        0
102
RTVSPost2010PropOp41
 70
     1
102
RTVSPost2010Prop42
 90
       50
102
RTVSPost2010PropOp42
 70
     1
102
RTVSPost2010Prop43
 90
        3
102
RTVSPost2010PropOp43
 70
     1
102
RTVSPost2010Prop44ColorIndex
 90
        5
102
RTVSPost2010Prop44ColorRGB
 90
      255
102
RTVSPost2010PropOp44
 70
     1
102
RTVSPost2010Prop45
280
     0
102
RTVSPost2010PropOp45
 70
     1
102
RTVSPost2010Prop46
 90
       50
102
RTVSPost2010PropOp46
 70
     1
102
RTVSPost2010Prop47
 90
       50
102
RTVSPost2010PropOp47
 70
     1
102
RTVSPost2010Prop48
 90
       50
102
RTVSPost2010PropOp48
 70
     1
102
RTVSPost2010Prop49
280
     0
102
RTVSPost2010PropOp49
 70
     1
102
RTVSPost2010Prop50
 90
       50
102
RTVSPost2010PropOp50
 70
     1
102
RTVSPost2010Prop51ColorIndex
 90
      256
102
RTVSPost2010Prop51ColorRGB
 90
-16777216
102
RTVSPost2010PropOp51
 70
     0
102
RTVSPost2010Prop52
140
1.0
102
RTVSPost2010PropOp52
 70
     0
102
RTVSPost2010Prop53
 90
        2
102
RTVSPost2010PropOp53
 70
     1
102
RTVSPost2010Prop54
  1
strokes_ogs.tif
102
RTVSPost2010PropOp54
 70
     1
102
RTVSPost2010Prop55
280
     0
102
RTVSPost2010PropOp55
 70
     1
102
RTVSPost2010Prop56
140
1.0
102
RTVSPost2010PropOp56
 70
     1
102
RTVSPost2010Prop57
140
1.0
102
RTVSPost2010PropOp57
 70
     1
  0
XRECORD
  5
1BB
102
{ACAD_REACTORS
330
1BA
102
}
330
1BA
100
AcDbXrecord
280
     1
102
RTVSPost2010Prop28
280
     0
102
RTVSPost2010PropOp28
 70
     1
102
RTVSPost2010Prop29
280
     1
102
RTVSPost2010PropOp29
 70
     1
102
RTVSPost2010Prop30
280
     1
102
RTVSPost2010PropOp30
 70
     1
102
RTVSPost2010Prop31
280
     0
102
RTVSPost2010PropOp31
 70
     1
102
RTVSPost2010Prop32
280
     0
102
RTVSPost2010PropOp32
 70
     1
102
RTVSPost2010Prop33
280
     0
102
RTVSPost2010PropOp33
 70
     1
102
RTVSPost2010Prop34
280
     0
102
RTVSPost2010PropOp34
 70
     1
102
RTVSPost2010Prop35
280
     0
102
RTVSPost2010PropOp35
 70
     1
102
RTVSPost2010Prop36
280
     0
102
RTVSPost2010PropOp36
 70
     1
102
RTVSPost2010Prop37
 90
       50
102
RTVSPost2010PropOp37
 70
     1
102
RTVSPost2010Prop38
140
0.0
102
RTVSPost2010PropOp38
 70
     1
102
RTVSPost2010Prop39
140
1.0
102
RTVSPost2010PropOp39
 70
     1
102
RTVSPost2010Prop40
 90
        0
102
RTVSPost2010PropOp40
 70
     1
102
RTVSPost2010Prop41ColorIndex
 90
       18
102
RTVSPost2010Prop41ColorRGB
 90
        0
102
RTVSPost2010PropOp41
 70
     1
102
RTVSPost2010Prop42
 90
       50
102
RTVSPost2010PropOp42
 70
     1
102
RTVSPost2010Prop43
 90
        3
102
RTVSPost2010PropOp43
 70
     1
102
RTVSPost2010Prop44ColorIndex
 90
        5
102
RTVSPost2010Prop44ColorRGB
 90
      255
102
RTVSPost2010PropOp44
 70
     1
102
RTVSPost2010Prop45
280
     0
102
RTVSPost2010PropOp45
 70
     1
102
RTVSPost2010Prop46
 90
       50
102
RTVSPost2010PropOp46
 70
     1
102
RTVSPost2010Prop47
 90
       50
102
RTVSPost2010PropOp47
 70
     1
102
RTVSPost2010Prop48
 90
       50
102
RTVSPost2010PropOp48
 70
     1
102
RTVSPost2010Prop49
280
     0
102
RTVSPost2010PropOp49
 70
     1
102
RTVSPost2010Prop50
 90
       50
102
RTVSPost2010PropOp50
 70
     1
102
RTVSPost2010Prop51ColorIndex
 90
      256
102
RTVSPost2010Prop51ColorRGB
 90
-16777216
102
RTVSPost2010PropOp51
 70
     0
102
RTVSPost2010Prop52
140
1.0
102
RTVSPost2010PropOp52
 70
     0
102
RTVSPost2010Prop53
 90
        2
102
RTVSPost2010PropOp53
 70
     1
102
RTVSPost2010Prop54
  1
strokes_ogs.tif
102
RTVSPost2010PropOp54
 70
     1
102
RTVSPost2010Prop55
280
     0
102
RTVSPost2010PropOp55
 70
     1
102
RTVSPost2010Prop56
140
1.0
102
RTVSPost2010PropOp56
 70
     1
102
RTVSPost2010Prop57
140
1.0
102
RTVSPost2010PropOp57
 70
     1
  0
XRECORD
  5
1AF
102
{ACAD_REACTORS
330
1AE
102
}
330
1AE
100
AcDbXrecord
280
     1
102
RTVSPost2010Prop28
280
     0
102
RTVSPost2010PropOp28
 70
     1
102
RTVSPost2010Prop29
280
     1
102
RTVSPost2010PropOp29
 70
     1
102
RTVSPost2010Prop30
280
     1
102
RTVSPost2010PropOp30
 70
     1
102
RTVSPost2010Prop31
280
     0
102
RTVSPost2010PropOp31
 70
     1
102
RTVSPost2010Prop32
280
     0
102
RTVSPost2010PropOp32
 70
     1
102
RTVSPost2010Prop33
280
     0
102
RTVSPost2010PropOp33
 70
     1
102
RTVSPost2010Prop34
280
     0
102
RTVSPost2010PropOp34
 70
     1
102
RTVSPost2010Prop35
280
     0
102
RTVSPost2010PropOp35
 70
     1
102
RTVSPost2010Prop36
280
     0
102
RTVSPost2010PropOp36
 70
     1
102
RTVSPost2010Prop37
 90
       50
102
RTVSPost2010PropOp37
 70
     1
102
RTVSPost2010Prop38
140
0.0
102
RTVSPost2010PropOp38
 70
     1
102
RTVSPost2010Prop39
140
1.0
102
RTVSPost2010PropOp39
 70
     1
102
RTVSPost2010Prop40
 90
        0
102
RTVSPost2010PropOp40
 70
     1
102
RTVSPost2010Prop41ColorIndex
 90
       18
102
RTVSPost2010Prop41ColorRGB
 90
        0
102
RTVSPost2010PropOp41
 70
     1
102
RTVSPost2010Prop42
 90
       50
102
RTVSPost2010PropOp42
 70
     1
102
RTVSPost2010Prop43
 90
        3
102
RTVSPost2010PropOp43
 70
     1
102
RTVSPost2010Prop44ColorIndex
 90
        5
102
RTVSPost2010Prop44ColorRGB
 90
      255
102
RTVSPost2010PropOp44
 70
     1
102
RTVSPost2010Prop45
280
     0
102
RTVSPost2010PropOp45
 70
     1
102
RTVSPost2010Prop46
 90
       50
102
RTVSPost2010PropOp46
 70
     1
102
RTVSPost2010Prop47
 90
       50
102
RTVSPost2010PropOp47
 70
     1
102
RTVSPost2010Prop48
 90
       50
102
RTVSPost2010PropOp48
 70
     1
102
RTVSPost2010Prop49
280
     0
102
RTVSPost2010PropOp49
 70
     1
102
RTVSPost2010Prop50
 90
       50
102
RTVSPost2010PropOp50
 70
     1
102
RTVSPost2010Prop51ColorIndex
 90
      256
102
RTVSPost2010Prop51ColorRGB
 90
-16777216
102
RTVSPost2010PropOp51
 70
     0
102
RTVSPost2010Prop52
140
1.0
102
RTVSPost2010PropOp52
 70
     0
102
RTVSPost2010Prop53
 90
        2
102
RTVSPost2010PropOp53
 70
     1
102
RTVSPost2010Prop54
  1
strokes_ogs.tif
102
RTVSPost2010PropOp54
 70
     1
102
RTVSPost2010Prop55
280
     0
102
RTVSPost2010PropOp55
 70
     1
102
RTVSPost2010Prop56
140
1.0
102
RTVSPost2010PropOp56
 70
     1
102
RTVSPost2010Prop57
140
1.0
102
RTVSPost2010PropOp57
 70
     1
  0
XRECORD
  5
1C7
102
{ACAD_REACTORS
330
1C6
102
}
330
1C6
100
AcDbXrecord
280
     1
102
RTVSPost2010Prop28
280
     0
102
RTVSPost2010PropOp28
 70
     1
102
RTVSPost2010Prop29
280
     1
102
RTVSPost2010PropOp29
 70
     1
102
RTVSPost2010Prop30
280
     1
102
RTVSPost2010PropOp30
 70
     1
102
RTVSPost2010Prop31
280
     0
102
RTVSPost2010PropOp31
 70
     1
102
RTVSPost2010Prop32
280
     0
102
RTVSPost2010PropOp32
 70
     1
102
RTVSPost2010Prop33
280
     0
102
RTVSPost2010PropOp33
 70
     1
102
RTVSPost2010Prop34
280
     0
102
RTVSPost2010PropOp34
 70
     1
102
RTVSPost2010Prop35
280
     0
102
RTVSPost2010PropOp35
 70
     1
102
RTVSPost2010Prop36
280
     0
102
RTVSPost2010PropOp36
 70
     1
102
RTVSPost2010Prop37
 90
       50
102
RTVSPost2010PropOp37
 70
     1
102
RTVSPost2010Prop38
140
0.0
102
RTVSPost2010PropOp38
 70
     1
102
RTVSPost2010Prop39
140
1.0
102
RTVSPost2010PropOp39
 70
     1
102
RTVSPost2010Prop40
 90
        0
102
RTVSPost2010PropOp40
 70
     1
102
RTVSPost2010Prop41ColorIndex
 90
       18
102
RTVSPost2010Prop41ColorRGB
 90
        0
102
RTVSPost2010PropOp41
 70
     1
102
RTVSPost2010Prop42
 90
       50
102
RTVSPost2010PropOp42
 70
     1
102
RTVSPost2010Prop43
 90
        3
102
RTVSPost2010PropOp43
 70
     1
102
RTVSPost2010Prop44ColorIndex
 90
        5
102
RTVSPost2010Prop44ColorRGB
 90
      255
102
RTVSPost2010PropOp44
 70
     1
102
RTVSPost2010Prop45
280
     0
102
RTVSPost2010PropOp45
 70
     1
102
RTVSPost2010Prop46
 90
       50
102
RTVSPost2010PropOp46
 70
     1
102
RTVSPost2010Prop47
 90
       50
102
RTVSPost2010PropOp47
 70
     1
102
RTVSPost2010Prop48
 90
       50
102
RTVSPost2010PropOp48
 70
     1
102
RTVSPost2010Prop49
280
     0
102
RTVSPost2010PropOp49
 70
     1
102
RTVSPost2010Prop50
 90
       50
102
RTVSPost2010PropOp50
 70
     1
102
RTVSPost2010Prop51ColorIndex
 90
      256
102
RTVSPost2010Prop51ColorRGB
 90
-16777216
102
RTVSPost2010PropOp51
 70
     0
102
RTVSPost2010Prop52
140
1.0
102
RTVSPost2010PropOp52
 70
     0
102
RTVSPost2010Prop53
 90
        2
102
RTVSPost2010PropOp53
 70
     1
102
RTVSPost2010Prop54
  1
strokes_ogs.tif
102
RTVSPost2010PropOp54
 70
     1
102
RTVSPost2010Prop55
280
     0
102
RTVSPost2010PropOp55
 70
     1
102
RTVSPost2010Prop56
140
1.0
102
RTVSPost2010PropOp56
 70
     1
102
RTVSPost2010Prop57
140
1.0
102
RTVSPost2010PropOp57
 70
     1
  0
ENDSEC
  0
EOF
