  0
SECTION
  2
HEADER
  9
$ACADVER
  1
AC1024
  9
$ACADMAINTVER
 70
   226
  9
$DWGCODEPAGE
  3
ANSI_932
  9
$INSBASE
 10
0.0
 20
0.0
 30
0.0
  9
$EXTMIN
 10
1.000000000000000E+20
 20
1.000000000000000E+20
 30
1.000000000000000E+20
  9
$EXTMAX
 10
-1.000000000000000E+20
 20
-1.000000000000000E+20
 30
-1.000000000000000E+20
  9
$LIMMIN
 10
0.0
 20
0.0
  9
$LIMMAX
 10
12.0
 20
9.0
  9
$ORTHOMODE
 70
     0
  9
$REGENMODE
 70
     1
  9
$FILLMODE
 70
     1
  9
$QTEXTMODE
 70
     0
  9
$MIRRTEXT
 70
     0
  9
$LTSCALE
 40
1.0
  9
$ATTMODE
 70
     1
  9
$TEXTSIZE
 40
0.2
  9
$TRACEWID
 40
0.05
  9
$TEXTSTYLE
  7
Standard
  9
$CLAYER
  8
0
  9
$CELTYPE
  6
ByLayer
  9
$CECOLOR
 62
   256
  9
$CELTSCALE
 40
1.0
  9
$DISPSILH
 70
     0
  9
$DIMSCALE
 40
1.0
  9
$DIMASZ
 40
0.18
  9
$DIMEXO
 40
0.0625
  9
$DIMDLI
 40
0.38
  9
$DIMRND
 40
0.0
  9
$DIMDLE
 40
0.0
  9
$DIMEXE
 40
0.18
  9
$DIMTP
 40
0.0
  9
$DIMTM
 40
0.0
  9
$DIMTXT
 40
0.18
  9
$DIMCEN
 40
0.09
  9
$DIMTSZ
 40
0.0
  9
$DIMTOL
 70
     0
  9
$DIMLIM
 70
     0
  9
$DIMTIH
 70
     1
  9
$DIMTOH
 70
     1
  9
$DIMSE1
 70
     0
  9
$DIMSE2
 70
     0
  9
$DIMTAD
 70
     0
  9
$DIMZIN
 70
     0
  9
$DIMBLK
  1

  9
$DIMASO
 70
     1
  9
$DIMSHO
 70
     1
  9
$DIMPOST
  1

  9
$DIMAPOST
  1

  9
$DIMALT
 70
     0
  9
$DIMALTD
 70
     2
  9
$DIMALTF
 40
25.4
  9
$DIMLFAC
 40
1.0
  9
$DIMTOFL
 70
     0
  9
$DIMTVP
 40
0.0
  9
$DIMTIX
 70
     0
  9
$DIMSOXD
 70
     0
  9
$DIMSAH
 70
     0
  9
$DIMBLK1
  1

  9
$DIMBLK2
  1

  9
$DIMSTYLE
  2
Standard
  9
$DIMCLRD
 70
     0
  9
$DIMCLRE
 70
     0
  9
$DIMCLRT
 70
     0
  9
$DIMTFAC
 40
1.0
  9
$DIMGAP
 40
0.09
  9
$DIMJUST
 70
     0
  9
$DIMSD1
 70
     0
  9
$DIMSD2
 70
     0
  9
$DIMTOLJ
 70
     1
  9
$DIMTZIN
 70
     0
  9
$DIMALTZ
 70
     0
  9
$DIMALTTZ
 70
     0
  9
$DIMUPT
 70
     0
  9
$DIMDEC
 70
     4
  9
$DIMTDEC
 70
     4
  9
$DIMALTU
 70
     2
  9
$DIMALTTD
 70
     2
  9
$DIMTXSTY
  7
Standard
  9
$DIMAUNIT
 70
     0
  9
$DIMADEC
 70
     0
  9
$DIMALTRND
 40
0.0
  9
$DIMAZIN
 70
     0
  9
$DIMDSEP
 70
    46
  9
$DIMATFIT
 70
     3
  9
$DIMFRAC
 70
     0
  9
$DIMLDRBLK
  1

  9
$DIMLUNIT
 70
     2
  9
$DIMLWD
 70
    -2
  9
$DIMLWE
 70
    -2
  9
$DIMTMOVE
 70
     0
  9
$DIMFXL
 40
1.0
  9
$DIMFXLON
 70
     0
  9
$DIMJOGANG
 40
0.7853981633974483
  9
$DIMTFILL
 70
     0
  9
$DIMTFILLCLR
 70
     0
  9
$DIMARCSYM
 70
     0
  9
$DIMLTYPE
  6

  9
$DIMLTEX1
  6

  9
$DIMLTEX2
  6

  9
$DIMTXTDIRECTION
 70
     0
  9
$LUNITS
 70
     2
  9
$LUPREC
 70
     4
  9
$SKETCHINC
 40
0.1
  9
$FILLETRAD
 40
0.0
  9
$AUNITS
 70
     0
  9
$AUPREC
 70
     0
  9
$MENU
  1
.
  9
$ELEVATION
 40
0.0
  9
$PELEVATION
 40
0.0
  9
$THICKNESS
 40
0.0
  9
$LIMCHECK
 70
     0
  9
$CHAMFERA
 40
0.0
  9
$CHAMFERB
 40
0.0
  9
$CHAMFERC
 40
0.0
  9
$CHAMFERD
 40
0.0
  9
$SKPOLY
 70
     0
  9
$TDCREATE
 40
2459569.503078704
  9
$TDUCREATE
 40
2459569.128078704
  9
$TDUPDATE
 40
2459569.503078704
  9
$TDUUPDATE
 40
2459569.128078704
  9
$TDINDWG
 40
0.0000000000
  9
$TDUSRTIMER
 40
0.0000000000
  9
$USRTIMER
 70
     1
  9
$ANGBASE
 50
0.0
  9
$ANGDIR
 70
     0
  9
$PDMODE
 70
     0
  9
$PDSIZE
 40
0.0
  9
$PLINEWID
 40
0.0
  9
$SPLFRAME
 70
     0
  9
$SPLINETYPE
 70
     6
  9
$SPLINESEGS
 70
     8
  9
$HANDSEED
  5
19E
  9
$SURFTAB1
 70
     6
  9
$SURFTAB2
 70
     6
  9
$SURFTYPE
 70
     6
  9
$SURFU
 70
     6
  9
$SURFV
 70
     6
  9
$UCSBASE
  2

  9
$UCSNAME
  2

  9
$UCSORG
 10
0.0
 20
0.0
 30
0.0
  9
$UCSXDIR
 10
1.0
 20
0.0
 30
0.0
  9
$UCSYDIR
 10
0.0
 20
1.0
 30
0.0
  9
$UCSORTHOREF
  2

  9
$UCSORTHOVIEW
 70
     0
  9
$UCSORGTOP
 10
0.0
 20
0.0
 30
0.0
  9
$UCSORGBOTTOM
 10
0.0
 20
0.0
 30
0.0
  9
$UCSORGLEFT
 10
0.0
 20
0.0
 30
0.0
  9
$UCSORGRIGHT
 10
0.0
 20
0.0
 30
0.0
  9
$UCSORGFRONT
 10
0.0
 20
0.0
 30
0.0
  9
$UCSORGBACK
 10
0.0
 20
0.0
 30
0.0
  9
$PUCSBASE
  2

  9
$PUCSNAME
  2

  9
$PUCSORG
 10
0.0
 20
0.0
 30
0.0
  9
$PUCSXDIR
 10
1.0
 20
0.0
 30
0.0
  9
$PUCSYDIR
 10
0.0
 20
1.0
 30
0.0
  9
$PUCSORTHOREF
  2

  9
$PUCSORTHOVIEW
 70
     0
  9
$PUCSORGTOP
 10
0.0
 20
0.0
 30
0.0
  9
$PUCSORGBOTTOM
 10
0.0
 20
0.0
 30
0.0
  9
$PUCSORGLEFT
 10
0.0
 20
0.0
 30
0.0
  9
$PUCSORGRIGHT
 10
0.0
 20
0.0
 30
0.0
  9
$PUCSORGFRONT
 10
0.0
 20
0.0
 30
0.0
  9
$PUCSORGBACK
 10
0.0
 20
0.0
 30
0.0
  9
$USERI1
 70
     0
  9
$USERI2
 70
     0
  9
$USERI3
 70
     0
  9
$USERI4
 70
     0
  9
$USERI5
 70
     0
  9
$USERR1
 40
0.0
  9
$USERR2
 40
0.0
  9
$USERR3
 40
0.0
  9
$USERR4
 40
0.0
  9
$USERR5
 40
0.0
  9
$WORLDVIEW
 70
     1
  9
$SHADEDGE
 70
     3
  9
$SHADEDIF
 70
    70
  9
$TILEMODE
 70
     1
  9
$MAXACTVP
 70
    64
  9
$PINSBASE
 10
0.0
 20
0.0
 30
0.0
  9
$PLIMCHECK
 70
     0
  9
$PEXTMIN
 10
1.000000000000000E+20
 20
1.000000000000000E+20
 30
1.000000000000000E+20
  9
$PEXTMAX
 10
-1.000000000000000E+20
 20
-1.000000000000000E+20
 30
-1.000000000000000E+20
  9
$PLIMMIN
 10
0.0
 20
0.0
  9
$PLIMMAX
 10
12.0
 20
9.0
  9
$UNITMODE
 70
     0
  9
$VISRETAIN
 70
     1
  9
$PLINEGEN
 70
     0
  9
$PSLTSCALE
 70
     1
  9
$TREEDEPTH
 70
  3020
  9
$CMLSTYLE
  2
Standard
  9
$CMLJUST
 70
     0
  9
$CMLSCALE
 40
1.0
  9
$PROXYGRAPHICS
 70
     1
  9
$MEASUREMENT
 70
     0
  9
$CELWEIGHT
370
    -1
  9
$ENDCAPS
280
     0
  9
$JOINSTYLE
280
     0
  9
$LWDISPLAY
290
     1
  9
$INSUNITS
 70
     4
  9
$HYPERLINKBASE
  1

  9
$STYLESHEET
  1

  9
$XEDIT
290
     1
  9
$CEPSNTYPE
380
     0
  9
$PSTYLEMODE
290
     1
  9
$FINGERPRINTGUID
  2
{82742371-0F5E-794F-9EF7-E4B663A547CE}
  9
$VERSIONGUID
  2
{1A7E7A23-CD96-4A4D-B771-A232E50FE1ED}
  9
$EXTNAMES
290
     1
  9
$PSVPSCALE
 40
0.0
  9
$OLESTARTUP
290
     0
  9
$SORTENTS
280
   127
  9
$INDEXCTL
280
     0
  9
$HIDETEXT
280
     1
  9
$XCLIPFRAME
280
     2
  9
$HALOGAP
280
     0
  9
$OBSCOLOR
 70
   257
  9
$OBSLTYPE
280
     0
  9
$INTERSECTIONDISPLAY
280
     0
  9
$INTERSECTIONCOLOR
 70
   257
  9
$DIMASSOC
280
     2
  9
$PROJECTNAME
  1

  9
$CAMERADISPLAY
290
     0
  9
$LENSLENGTH
 40
50.0
  9
$CAMERAHEIGHT
 40
0.0
  9
$STEPSPERSEC
 40
2.0
  9
$STEPSIZE
 40
6.0
  9
$3DDWFPREC
 40
2.0
  9
$PSOLWIDTH
 40
0.25
  9
$PSOLHEIGHT
 40
4.0
  9
$LOFTANG1
 40
1.570796326794896
  9
$LOFTANG2
 40
1.570796326794896
  9
$LOFTMAG1
 40
0.0
  9
$LOFTMAG2
 40
0.0
  9
$LOFTPARAM
 70
     7
  9
$LOFTNORMALS
280
     1
  9
$LATITUDE
 40
37.795
  9
$LONGITUDE
 40
-122.394
  9
$NORTHDIRECTION
 40
0.0
  9
$TIMEZONE
 70
 -8000
  9
$LIGHTGLYPHDISPLAY
280
     1
  9
$TILEMODELIGHTSYNCH
280
     1
  9
$CMATERIAL
347
11
  9
$SOLIDHIST
280
     0
  9
$SHOWHIST
280
     1
  9
$DWFFRAME
280
     2
  9
$DGNFRAME
280
     0
  9
$REALWORLDSCALE
290
     1
  9
$INTERFERECOLOR
 62
     1
  9
$INTERFEREOBJVS
345
33
  9
$INTERFEREVPVS
346
30
  9
$CSHADOW
280
     0
  9
$SHADOWPLANELOCATION
 40
0.0
  0
ENDSEC
  0
SECTION
  2
CLASSES
  0
CLASS
  1
ACDBDICTIONARYWDFLT
  2
AcDbDictionaryWithDefault
  3
ObjectDBX Classes
 90
        0
 91
        1
280
     0
281
     0
  0
CLASS
  1
MATERIAL
  2
AcDbMaterial
  3
ObjectDBX Classes
 90
     1153
 91
        3
280
     0
281
     0
  0
CLASS
  1
VISUALSTYLE
  2
AcDbVisualStyle
  3
ObjectDBX Classes
 90
     4095
 91
       24
280
     0
281
     0
  0
CLASS
  1
SCALE
  2
AcDbScale
  3
ObjectDBX Classes
 90
     1153
 91
       17
280
     0
281
     0
  0
CLASS
  1
TABLESTYLE
  2
AcDbTableStyle
  3
ObjectDBX Classes
 90
     4095
 91
        1
280
     0
281
     0
  0
CLASS
  1
MLEADERSTYLE
  2
AcDbMLeaderStyle
  3
ACDB_MLEADERSTYLE_CLASS
 90
     4095
 91
        1
280
     0
281
     0
  0
CLASS
  1
ACDBSECTIONVIEWSTYLE
  2
AcDbSectionViewStyle
  3
ObjectDBX Classes
 90
     1025
 91
        1
280
     0
281
     0
  0
CLASS
  1
ACDBDETAILVIEWSTYLE
  2
AcDbDetailViewStyle
  3
ObjectDBX Classes
 90
     1025
 91
        1
280
     0
281
     0
  0
CLASS
  1
DICTIONARYVAR
  2
AcDbDictionaryVar
  3
ObjectDBX Classes
 90
        0
 91
        5
280
     0
281
     0
  0
CLASS
  1
CELLSTYLEMAP
  2
AcDbCellStyleMap
  3
ObjectDBX Classes
 90
     1152
 91
        1
280
     0
281
     0
  0
ENDSEC
  0
SECTION
  2
TABLES
  0
TABLE
  2
VPORT
  5
8
330
0
100
AcDbSymbolTable
 70
     1
  0
VPORT
  5
57
330
8
100
AcDbSymbolTableRecord
100
AcDbViewportTableRecord
  2
*Active
 70
     0
 10
0.0
 20
0.0
 11
1.0
 21
1.0
 12
0.0
 22
0.0
 13
0.0
 23
0.0
 14
1.0
 24
1.0
 15
0.0
 25
0.0
 16
0.0
 26
0.0
 36
1.0
 17
104.9999999737534
 27
-148.4999999628701
 37
0.0
 40
302.939999924255
 41
0.7070707070707534
 42
50.0
 43
0.0
 44
0.0
 50
0.0
 51
0.0
 71
     0
 72
   100
 73
     1
 74
     0
 75
     1
 76
     0
 77
     0
 78
     0
281
     0
 65
     1
110
0.0
120
0.0
130
0.0
111
1.0
121
0.0
131
0.0
112
0.0
122
1.0
132
0.0
 79
     0
146
0.0
 60
     3
 61
     5
292
     1
282
     1
141
0.0
142
0.0
 63
   250
421
  3355443
  0
ENDTAB
  0
TABLE
  2
LTYPE
  5
5
330
0
100
AcDbSymbolTable
 70
     3
  0
LTYPE
  5
5B
330
5
100
AcDbSymbolTableRecord
100
AcDbLinetypeTableRecord
  2
ByBlock
 70
     0
  3

 72
    65
 73
     0
 40
0.0
  0
LTYPE
  5
5C
330
5
100
AcDbSymbolTableRecord
100
AcDbLinetypeTableRecord
  2
ByLayer
 70
     0
  3

 72
    65
 73
     0
 40
0.0
  0
LTYPE
  5
5D
330
5
100
AcDbSymbolTableRecord
100
AcDbLinetypeTableRecord
  2
Continuous
 70
     0
  3
Solid line
 72
    65
 73
     0
 40
0.0
  0
LTYPE
  5
7E
330
5
100
AcDbSymbolTableRecord
100
AcDbLinetypeTableRecord
  2
AI-Linetype-0
 70
     0
  3
Adobe Illustrator Linetype No. 0
 72
    65
 73
     2
 40
1.411111110758333
 49
0.7055555553791667
 74
     0
 49
-0.7055555553791667
 74
     0
  0
LTYPE
  5
80
330
5
100
AcDbSymbolTableRecord
100
AcDbLinetypeTableRecord
  2
AI-Linetype-1
 70
     0
  3
Adobe Illustrator Linetype No. 1
 72
    65
 73
     2
 40
1.411111110758333
 49
0.7055555553791667
 74
     0
 49
-0.7055555553791667
 74
     0
  0
ENDTAB
  0
TABLE
  2
LAYER
  5
2
330
0
100
AcDbSymbolTable
 70
     2
  0
LAYER
  5
54
330
2
100
AcDbSymbolTableRecord
100
AcDbLayerTableRecord
  2
0
 70
     0
 62
     7
  6
Continuous
370
    -3
390
F
347
21
  0
LAYER
  5
78
330
2
100
AcDbSymbolTableRecord
100
AcDbLayerTableRecord
  2
レイヤー 1
 70
     0
 62
     7
  6
Continuous
370
     0
390
F
347
21
  0
ENDTAB
  0
TABLE
  2
STYLE
  5
3
330
0
100
AcDbSymbolTable
 70
     2
  0
STYLE
  5
55
330
3
100
AcDbSymbolTableRecord
100
AcDbTextStyleTableRecord
  2
Standard
 70
     0
 40
0.0
 41
1.0
 50
0.0
 71
     0
 42
0.2
  3
txt
  4

  0
STYLE
  5
5A
330
3
100
AcDbSymbolTableRecord
100
AcDbTextStyleTableRecord
  2
Annotative
 70
     0
 40
0.0
 41
1.0
 50
0.0
 71
     0
 42
0.2
  3
txt
  4

1001
AcadAnnotative
1000
AnnotativeData
1002
{
1070
     1
1070
     1
1002
}
  0
ENDTAB
  0
TABLE
  2
VIEW
  5
6
330
0
100
AcDbSymbolTable
 70
     0
  0
ENDTAB
  0
TABLE
  2
UCS
  5
7
330
0
100
AcDbSymbolTable
 70
     0
  0
ENDTAB
  0
TABLE
  2
APPID
  5
9
330
0
100
AcDbSymbolTable
 70
     2
  0
APPID
  5
56
330
9
100
AcDbSymbolTableRecord
100
AcDbRegAppTableRecord
  2
ACAD
 70
     0
  0
APPID
  5
5E
330
9
100
AcDbSymbolTableRecord
100
AcDbRegAppTableRecord
  2
AcadAnnotative
 70
     0
  0
ENDTAB
  0
TABLE
  2
DIMSTYLE
  5
A
330
0
100
AcDbSymbolTable
 70
     2
100
AcDbDimStyleTable
 71
     0
  0
DIMSTYLE
105
58
330
A
100
AcDbSymbolTableRecord
100
AcDbDimStyleTableRecord
  2
Standard
 70
     0
340
55
  0
DIMSTYLE
105
59
330
A
100
AcDbSymbolTableRecord
100
AcDbDimStyleTableRecord
  2
Annotative
 70
     0
340
55
1001
AcadAnnotative
1000
AnnotativeData
1002
{
1070
     1
1070
     1
1002
}
  0
ENDTAB
  0
TABLE
  2
BLOCK_RECORD
  5
1
330
0
100
AcDbSymbolTable
 70
    16
  0
BLOCK_RECORD
  5
70
330
1
100
AcDbSymbolTableRecord
100
AcDbBlockTableRecord
  2
*Model_Space
340
73
 70
     0
280
     1
281
     0
  0
BLOCK_RECORD
  5
6C
330
1
100
AcDbSymbolTableRecord
100
AcDbBlockTableRecord
  2
*Paper_Space
340
6F
 70
     0
280
     1
281
     0
  0
BLOCK_RECORD
  5
74
330
1
100
AcDbSymbolTableRecord
100
AcDbBlockTableRecord
  2
*Paper_Space0
340
77
 70
     0
280
     1
281
     0
  0
BLOCK_RECORD
  5
79
330
1
100
AcDbSymbolTableRecord
100
AcDbBlockTableRecord
  2
Block_0
340
0
102
{BLKREFS
331
7A
102
}
 70
     0
280
     1
281
     0
  0
BLOCK_RECORD
  5
E8
330
1
100
AcDbSymbolTableRecord
100
AcDbBlockTableRecord
  2
Block_1
340
0
102
{BLKREFS
331
E9
102
}
 70
     0
280
     1
281
     0
  0
BLOCK_RECORD
  5
EC
330
1
100
AcDbSymbolTableRecord
100
AcDbBlockTableRecord
  2
Block_2
340
0
102
{BLKREFS
331
ED
102
}
 70
     0
280
     1
281
     0
  0
BLOCK_RECORD
  5
F9
330
1
100
AcDbSymbolTableRecord
100
AcDbBlockTableRecord
  2
Block_3
340
0
102
{BLKREFS
331
FA
102
}
 70
     0
280
     1
281
     0
  0
BLOCK_RECORD
  5
FD
330
1
100
AcDbSymbolTableRecord
100
AcDbBlockTableRecord
  2
Block_4
340
0
102
{BLKREFS
331
FE
102
}
 70
     0
280
     1
281
     0
  0
BLOCK_RECORD
  5
107
330
1
100
AcDbSymbolTableRecord
100
AcDbBlockTableRecord
  2
Block_5
340
0
102
{BLKREFS
331
108
102
}
 70
     0
280
     1
281
     0
  0
BLOCK_RECORD
  5
10F
330
1
100
AcDbSymbolTableRecord
100
AcDbBlockTableRecord
  2
Block_6
340
0
102
{BLKREFS
331
110
102
}
 70
     0
280
     1
281
     0
  0
BLOCK_RECORD
  5
113
330
1
100
AcDbSymbolTableRecord
100
AcDbBlockTableRecord
  2
Block_7
340
0
102
{BLKREFS
331
114
102
}
 70
     0
280
     1
281
     0
  0
BLOCK_RECORD
  5
11E
330
1
100
AcDbSymbolTableRecord
100
AcDbBlockTableRecord
  2
Block_8
340
0
102
{BLKREFS
331
11F
102
}
 70
     0
280
     1
281
     0
  0
BLOCK_RECORD
  5
12A
330
1
100
AcDbSymbolTableRecord
100
AcDbBlockTableRecord
  2
Block_9
340
0
102
{BLKREFS
331
12B
102
}
 70
     0
280
     1
281
     0
  0
BLOCK_RECORD
  5
133
330
1
100
AcDbSymbolTableRecord
100
AcDbBlockTableRecord
  2
Block_10
340
0
102
{BLKREFS
331
134
102
}
 70
     0
280
     1
281
     0
  0
BLOCK_RECORD
  5
139
330
1
100
AcDbSymbolTableRecord
100
AcDbBlockTableRecord
  2
Block_11
340
0
102
{BLKREFS
331
13A
102
}
 70
     0
280
     1
281
     0
  0
BLOCK_RECORD
  5
13D
330
1
100
AcDbSymbolTableRecord
100
AcDbBlockTableRecord
  2
Block_12
340
0
102
{BLKREFS
331
13E
102
}
 70
     0
280
     1
281
     0
  0
BLOCK_RECORD
  5
144
330
1
100
AcDbSymbolTableRecord
100
AcDbBlockTableRecord
  2
Block_13
340
0
102
{BLKREFS
331
145
102
}
 70
     0
280
     1
281
     0
  0
BLOCK_RECORD
  5
148
330
1
100
AcDbSymbolTableRecord
100
AcDbBlockTableRecord
  2
Block_14
340
0
102
{BLKREFS
331
149
102
}
 70
     0
280
     1
281
     0
  0
ENDTAB
  0
ENDSEC
  0
SECTION
  2
BLOCKS
  0
BLOCK
  5
71
330
70
100
AcDbEntity
  8
0
100
AcDbBlockBegin
  2
*Model_Space
 70
     0
 10
0.0
 20
0.0
 30
0.0
  3
*Model_Space
  1

  0
ENDBLK
  5
72
330
70
100
AcDbEntity
  8
0
100
AcDbBlockEnd
  0
BLOCK
  5
6D
330
6C
100
AcDbEntity
 67
     1
  8
0
100
AcDbBlockBegin
  2
*Paper_Space
 70
     0
 10
0.0
 20
0.0
 30
0.0
  3
*Paper_Space
  1

  0
ENDBLK
  5
6E
330
6C
100
AcDbEntity
 67
     1
  8
0
100
AcDbBlockEnd
  0
BLOCK
  5
75
330
74
100
AcDbEntity
 67
     1
  8
0
100
AcDbBlockBegin
  2
*Paper_Space0
 70
     0
 10
0.0
 20
0.0
 30
0.0
  3
*Paper_Space0
  1

  0
ENDBLK
  5
76
330
74
100
AcDbEntity
 67
     1
  8
0
100
AcDbBlockEnd
  0
BLOCK
  5
7B
330
79
100
AcDbEntity
  8
0
100
AcDbBlockBegin
  2
Block_0
 70
     0
 10
0.0
 20
0.0
 30
0.0
  3
Block_0
  1

  0
LINE
  5
7D
330
79
100
AcDbEntity
  8
レイヤー 1
  6
AI-Linetype-0
 62
   154
420
    23468
370
    25
100
AcDbLine
 10
79.31947915219679
 20
-148.3781675172805
 30
0.0
 11
89.3193883415223
 21
-148.3781675172805
 31
0.0
  0
LINE
  5
7F
330
79
100
AcDbEntity
  8
レイヤー 1
  6
AI-Linetype-1
 62
   154
420
    23468
370
    25
100
AcDbLine
 10
116.8219431954289
 20
-148.3781675172805
 30
0.0
 11
127.3219148719967
 21
-148.3781675172805
 31
0.0
  0
LINE
  5
81
330
79
100
AcDbEntity
  8
レイヤー 1
 62
    18
420
        0
370
    25
100
AcDbLine
 10
107.3210381600394
 20
-152.5028100162496
 30
0.0
 11
99.32084975303043
 21
-152.5028100162496
 31
0.0
  0
LINE
  5
82
330
79
100
AcDbEntity
  8
レイヤー 1
 62
    18
420
        0
370
    25
100
AcDbLine
 10
79.31947915219679
 20
-147.0026869620687
 30
0.0
 11
79.31947915219679
 21
-147.5029258508324
 31
0.0
  0
LINE
  5
83
330
79
100
AcDbEntity
  8
レイヤー 1
 62
    18
420
        0
370
    25
100
AcDbLine
 10
99.32084975303043
 20
-147.5029258508324
 30
0.0
 11
79.31947915219679
 21
-147.5029258508324
 31
0.0
  0
LINE
  5
84
330
79
100
AcDbEntity
  8
レイヤー 1
 62
    18
420
        0
370
    25
100
AcDbLine
 10
79.31947915219679
 20
-147.0026869620687
 30
0.0
 11
79.83351163908242
 21
-147.3847452953064
 31
0.0
  0
LINE
  5
85
330
79
100
AcDbEntity
  8
レイヤー 1
 62
    18
420
        0
370
    25
100
AcDbLine
 10
79.83351163908242
 20
-147.3847452953064
 30
0.0
 11
80.3192513489127
 21
-146.9672327954107
 31
0.0
  0
LINE
  5
86
330
79
100
AcDbEntity
  8
レイヤー 1
 62
    18
420
        0
370
    25
100
AcDbLine
 10
80.83324855802176
 20
-147.3492911286487
 30
0.0
 11
81.31831799009106
 21
-146.9313905731975
 31
0.0
  0
LINE
  5
87
330
79
100
AcDbEntity
  8
レイヤー 1
 62
    18
420
        0
370
    25
100
AcDbLine
 10
80.3192513489127
 20
-146.9672327954107
 30
0.0
 11
80.83324855802176
 21
-147.3492911286487
 31
0.0
  0
LINE
  5
88
330
79
100
AcDbEntity
  8
レイヤー 1
 62
    18
420
        0
370
    25
100
AcDbLine
 10
81.31831799009106
 20
-146.9313905731975
 30
0.0
 11
81.83235047697699
 21
-147.3134489064355
 31
0.0
  0
LINE
  5
89
330
79
100
AcDbEntity
  8
レイヤー 1
 62
    18
420
        0
370
    25
100
AcDbLine
 10
81.83235047697699
 20
-147.3134489064355
 30
0.0
 11
82.31809018680698
 21
-146.895901128762
 31
0.0
  0
LINE
  5
8A
330
79
100
AcDbEntity
  8
レイヤー 1
 62
    18
420
        0
370
    25
100
AcDbLine
 10
82.31809018680698
 20
-146.895901128762
 30
0.0
 11
82.83141711815535
 21
-147.2776066842222
 31
0.0
  0
LINE
  5
8B
330
79
100
AcDbEntity
  8
レイヤー 1
 62
    18
420
        0
370
    25
100
AcDbLine
 10
82.83141711815535
 20
-147.2776066842222
 30
0.0
 11
83.31719210576221
 21
-146.8600589065488
 31
0.0
  0
LINE
  5
8C
330
79
100
AcDbEntity
  8
レイヤー 1
 62
    18
420
        0
370
    25
100
AcDbLine
 10
83.31719210576221
 20
-146.8600589065488
 30
0.0
 11
83.83118931487159
 21
-147.2417997397869
 31
0.0
  0
LINE
  5
8D
330
79
100
AcDbEntity
  8
レイヤー 1
 62
    18
420
        0
370
    25
100
AcDbLine
 10
83.83118931487159
 20
-147.2417997397869
 30
0.0
 11
84.31625874694054
 21
-146.8242519621133
 31
0.0
  0
LINE
  5
8E
330
79
100
AcDbEntity
  8
レイヤー 1
 62
    18
420
        0
370
    25
100
AcDbLine
 10
84.31625874694054
 20
-146.8242519621133
 30
0.0
 11
84.83025595604962
 21
-147.206310295351
 31
0.0
  0
LINE
  5
8F
330
79
100
AcDbEntity
  8
レイヤー 1
 62
    18
420
        0
370
    25
100
AcDbLine
 10
84.83025595604962
 20
-147.206310295351
 30
0.0
 11
85.31603094365646
 21
-146.7887625176778
 31
0.0
  0
LINE
  5
90
330
79
100
AcDbEntity
  8
レイヤー 1
 62
    18
420
        0
370
    25
100
AcDbLine
 10
85.31603094365646
 20
-146.7887625176778
 30
0.0
 11
85.83002815276552
 21
-147.1708208509159
 31
0.0
  0
LINE
  5
91
330
79
100
AcDbEntity
  8
レイヤー 1
 62
    18
420
        0
370
    25
100
AcDbLine
 10
85.83002815276552
 20
-147.1708208509159
 30
0.0
 11
86.31509758483449
 21
-146.7529202954646
 31
0.0
  0
LINE
  5
92
330
79
100
AcDbEntity
  8
レイヤー 1
 62
    18
420
        0
370
    25
100
AcDbLine
 10
86.82909479394419
 20
-147.1349786287023
 30
0.0
 11
87.31486978155073
 21
-146.7174308510288
 31
0.0
  0
LINE
  5
93
330
79
100
AcDbEntity
  8
レイヤー 1
 62
    18
420
        0
370
    25
100
AcDbLine
 10
86.31509758483449
 20
-146.7529202954646
 30
0.0
 11
86.82909479394419
 21
-147.1349786287023
 31
0.0
  0
LINE
  5
94
330
79
100
AcDbEntity
  8
レイヤー 1
 62
    18
420
        0
370
    25
100
AcDbLine
 10
87.31486978155073
 20
-146.7174308510288
 30
0.0
 11
87.82886699065977
 21
-147.0991716842669
 31
0.0
  0
LINE
  5
95
330
79
100
AcDbEntity
  8
レイヤー 1
 62
    18
420
        0
370
    25
100
AcDbLine
 10
87.82886699065977
 20
-147.0991716842669
 30
0.0
 11
88.31393642272907
 21
-146.6816239065937
 31
0.0
  0
LINE
  5
96
330
79
100
AcDbEntity
  8
レイヤー 1
 62
    18
420
        0
370
    25
100
AcDbLine
 10
88.82779252073062
 20
-147.0633294620536
 30
0.0
 11
89.31286195279993
 21
-146.6457816843805
 31
0.0
  0
LINE
  5
97
330
79
100
AcDbEntity
  8
レイヤー 1
 62
    18
420
        0
370
    25
100
AcDbLine
 10
88.31393642272907
 20
-146.6816239065937
 30
0.0
 11
88.82779252073062
 21
-147.0633294620536
 31
0.0
  0
LINE
  5
98
330
79
100
AcDbEntity
  8
レイヤー 1
 62
    18
420
        0
370
    25
100
AcDbLine
 10
89.82685916190897
 20
-147.0278400176178
 30
0.0
 11
90.31263414951583
 21
-146.6102922399446
 31
0.0
  0
LINE
  5
99
330
79
100
AcDbEntity
  8
レイヤー 1
 62
    18
420
        0
370
    25
100
AcDbLine
 10
89.31286195279993
 20
-146.6457816843805
 30
0.0
 11
89.82685916190897
 21
-147.0278400176178
 31
0.0
  0
LINE
  5
9A
330
79
100
AcDbEntity
  8
レイヤー 1
 62
    18
420
        0
370
    25
100
AcDbLine
 10
90.31263414951583
 20
-146.6102922399446
 30
0.0
 11
90.82663135862487
 21
-146.9923505731823
 31
0.0
  0
LINE
  5
9B
330
79
100
AcDbEntity
  8
レイヤー 1
 62
    18
420
        0
370
    25
100
AcDbLine
 10
90.82663135862487
 20
-146.9923505731823
 30
0.0
 11
91.31170079069418
 21
-146.5744852955089
 31
0.0
  0
LINE
  5
9C
330
79
100
AcDbEntity
  8
レイヤー 1
 62
    18
420
        0
370
    25
100
AcDbLine
 10
91.31170079069418
 20
-146.5744852955089
 30
0.0
 11
91.82569799980324
 21
-146.9565436287469
 31
0.0
  0
LINE
  5
9D
330
79
100
AcDbEntity
  8
レイヤー 1
 62
    18
420
        0
370
    25
100
AcDbLine
 10
91.82569799980324
 20
-146.9565436287469
 30
0.0
 11
92.31147298741008
 21
-146.5389958510734
 31
0.0
  0
LINE
  5
9E
330
79
100
AcDbEntity
  8
レイヤー 1
 62
    18
420
        0
370
    25
100
AcDbLine
 10
92.31147298741008
 20
-146.5389958510734
 30
0.0
 11
92.82547019651914
 21
-146.9207014065337
 31
0.0
  0
LINE
  5
9F
330
79
100
AcDbEntity
  8
レイヤー 1
 62
    18
420
        0
370
    25
100
AcDbLine
 10
92.82547019651914
 20
-146.9207014065337
 30
0.0
 11
93.31053962858844
 21
-146.5031536288602
 31
0.0
  0
LINE
  5
A0
330
79
100
AcDbEntity
  8
レイヤー 1
 62
    18
420
        0
370
    25
100
AcDbLine
 10
93.31053962858844
 20
-146.5031536288602
 30
0.0
 11
93.8245368376975
 21
-146.8848944620983
 31
0.0
  0
LINE
  5
A1
330
79
100
AcDbEntity
  8
レイヤー 1
 62
    18
420
        0
370
    25
100
AcDbLine
 10
93.8245368376975
 20
-146.8848944620983
 30
0.0
 11
94.31031182530436
 21
-146.4673466844248
 31
0.0
  0
LINE
  5
A2
330
79
100
AcDbEntity
  8
レイヤー 1
 62
    18
420
        0
370
    25
100
AcDbLine
 10
94.31031182530436
 20
-146.4673466844248
 30
0.0
 11
94.82363875665273
 21
-146.8494050176625
 31
0.0
  0
LINE
  5
A3
330
79
100
AcDbEntity
  8
レイヤー 1
 62
    18
420
        0
370
    25
100
AcDbLine
 10
94.82363875665273
 20
-146.8494050176625
 30
0.0
 11
95.30937846648269
 21
-146.4318572399893
 31
0.0
  0
LINE
  5
A4
330
79
100
AcDbEntity
  8
レイヤー 1
 62
    18
420
        0
370
    25
100
AcDbLine
 10
95.30937846648269
 20
-146.4318572399893
 30
0.0
 11
95.82337567559209
 21
-146.8139155732273
 31
0.0
  0
LINE
  5
A5
330
79
100
AcDbEntity
  8
レイヤー 1
 62
    18
420
        0
370
    25
100
AcDbLine
 10
95.82337567559209
 20
-146.8139155732273
 30
0.0
 11
96.30844510766106
 21
-146.3960150177761
 31
0.0
  0
LINE
  5
A6
330
79
100
AcDbEntity
  8
レイヤー 1
 62
    18
420
        0
370
    25
100
AcDbLine
 10
96.30844510766106
 20
-146.3960150177761
 30
0.0
 11
96.822477594547
 21
-146.7780733510141
 31
0.0
  0
LINE
  5
A7
330
79
100
AcDbEntity
  8
レイヤー 1
 62
    18
420
        0
370
    25
100
AcDbLine
 10
96.822477594547
 20
-146.7780733510141
 30
0.0
 11
97.30821730437696
 21
-146.3605255733402
 31
0.0
  0
LINE
  5
A8
330
79
100
AcDbEntity
  8
レイヤー 1
 62
    18
420
        0
370
    25
100
AcDbLine
 10
97.30821730437696
 20
-146.3605255733402
 30
0.0
 11
97.8222497912629
 21
-146.7422664065783
 31
0.0
  0
LINE
  5
A9
330
79
100
AcDbEntity
  8
レイヤー 1
 62
    18
420
        0
370
    25
100
AcDbLine
 10
97.8222497912629
 20
-146.7422664065783
 30
0.0
 11
98.30731922333221
 21
-146.3247186289048
 31
0.0
  0
LINE
  5
AA
330
79
100
AcDbEntity
  8
レイヤー 1
 62
    18
420
        0
370
    25
100
AcDbLine
 10
98.30731922333221
 20
-146.3247186289048
 30
0.0
 11
98.82131643244093
 21
-146.7064241843651
 31
0.0
  0
LINE
  5
AB
330
79
100
AcDbEntity
  8
レイヤー 1
 62
    18
420
        0
370
    25
100
AcDbLine
 10
98.82131643244093
 20
-146.7064241843651
 30
0.0
 11
99.30705614227122
 21
-146.2888764066919
 31
0.0
  0
LINE
  5
AC
330
79
100
AcDbEntity
  8
レイヤー 1
 62
    18
420
        0
370
    25
100
AcDbLine
 10
99.37154766714925
 20
-146.2406516844817
 30
0.0
 11
100.3206219497463
 21
-146.2406516844817
 31
0.0
  0
LINE
  5
AD
330
79
100
AcDbEntity
  8
レイヤー 1
 62
    18
420
        0
370
    25
100
AcDbLine
 10
100.3206219497463
 20
-146.2406516844817
 30
0.0
 11
100.3206219497463
 21
-151.5026850164993
 31
0.0
  0
LINE
  5
AE
330
79
100
AcDbEntity
  8
レイヤー 1
 62
    18
420
        0
370
    25
100
AcDbLine
 10
99.32084975303043
 20
-147.5029258508324
 30
0.0
 11
99.32084975303043
 21
-152.5028100162496
 31
0.0
  0
LINE
  5
AF
330
79
100
AcDbEntity
  8
レイヤー 1
 62
    18
420
        0
370
    25
100
AcDbLine
 10
106.3205956855628
 20
-151.5026850164993
 30
0.0
 11
100.3206219497463
 21
-151.5026850164993
 31
0.0
  0
LINE
  5
B0
330
79
100
AcDbEntity
  8
レイヤー 1
 62
    18
420
        0
370
    25
100
AcDbLine
 10
117.3283556825092
 20
-146.6457816843805
 30
0.0
 11
116.8143584734002
 21
-147.0278400176178
 31
0.0
  0
LINE
  5
B1
330
79
100
AcDbEntity
  8
レイヤー 1
 62
    18
420
        0
370
    25
100
AcDbLine
 10
122.325135277253
 20
-146.8242519621133
 30
0.0
 11
121.8111380681439
 21
-147.206310295351
 31
0.0
  0
LINE
  5
B2
330
79
100
AcDbEntity
  8
レイヤー 1
 62
    18
420
        0
370
    25
100
AcDbLine
 10
117.8134251145785
 20
-147.0633294620536
 30
0.0
 11
117.3283556825092
 21
-146.6457816843805
 31
0.0
  0
LINE
  5
B3
330
79
100
AcDbEntity
  8
レイヤー 1
 62
    18
420
        0
370
    25
100
AcDbLine
 10
118.8131973112944
 20
-147.0991716842669
 30
0.0
 11
118.3274576014645
 21
-146.6816239065937
 31
0.0
  0
LINE
  5
B4
330
79
100
AcDbEntity
  8
レイヤー 1
 62
    18
420
        0
370
    25
100
AcDbLine
 10
116.8143584734002
 20
-147.0278400176178
 30
0.0
 11
116.3292890413309
 21
-146.6102922399446
 31
0.0
  0
LINE
  5
B5
330
79
100
AcDbEntity
  8
レイヤー 1
 62
    18
420
        0
370
    25
100
AcDbLine
 10
118.3274576014645
 20
-146.6816239065937
 30
0.0
 11
117.8134251145785
 21
-147.0633294620536
 31
0.0
  0
LINE
  5
B6
330
79
100
AcDbEntity
  8
レイヤー 1
 62
    18
420
        0
370
    25
100
AcDbLine
 10
126.3228129530415
 20
-146.9672327954107
 30
0.0
 11
125.8088157439325
 21
-147.3492911286487
 31
0.0
  0
LINE
  5
B7
330
79
100
AcDbEntity
  8
レイヤー 1
 62
    18
420
        0
370
    25
100
AcDbLine
 10
119.3271945204035
 20
-146.7174308510288
 30
0.0
 11
118.8131973112944
 21
-147.0991716842669
 31
0.0
  0
LINE
  5
B8
330
79
100
AcDbEntity
  8
レイヤー 1
 62
    18
420
        0
370
    25
100
AcDbLine
 10
120.3262964393587
 20
-146.7529202954646
 30
0.0
 11
119.8122639524728
 21
-147.1349786287023
 31
0.0
  0
LINE
  5
B9
330
79
100
AcDbEntity
  8
レイヤー 1
 62
    18
420
        0
370
    25
100
AcDbLine
 10
106.3205956855628
 20
-146.2406516844817
 30
0.0
 11
106.3205956855628
 21
-151.5026850164993
 31
0.0
  0
LINE
  5
BA
330
79
100
AcDbEntity
  8
レイヤー 1
 62
    18
420
        0
370
    25
100
AcDbLine
 10
119.8122639524728
 20
-147.1349786287023
 30
0.0
 11
119.3271945204035
 21
-146.7174308510288
 31
0.0
  0
LINE
  5
BB
330
79
100
AcDbEntity
  8
レイヤー 1
 62
    18
420
        0
370
    25
100
AcDbLine
 10
120.8120361491887
 20
-147.1708208509159
 30
0.0
 11
120.3262964393587
 21
-146.7529202954646
 31
0.0
  0
LINE
  5
BC
330
79
100
AcDbEntity
  8
レイヤー 1
 62
    18
420
        0
370
    25
100
AcDbLine
 10
125.8088157439325
 20
-147.3492911286487
 30
0.0
 11
125.3230407563256
 21
-146.9313905731975
 31
0.0
  0
LINE
  5
BD
330
79
100
AcDbEntity
  8
レイヤー 1
 62
    18
420
        0
370
    25
100
AcDbLine
 10
121.3260686360746
 20
-146.7887625176778
 30
0.0
 11
120.8120361491887
 21
-147.1708208509159
 31
0.0
  0
LINE
  5
BE
330
79
100
AcDbEntity
  8
レイヤー 1
 62
    18
420
        0
370
    25
100
AcDbLine
 10
121.8111380681439
 20
-147.206310295351
 30
0.0
 11
121.3260686360746
 21
-146.7887625176778
 31
0.0
  0
LINE
  5
BF
330
79
100
AcDbEntity
  8
レイヤー 1
 62
    18
420
        0
370
    25
100
AcDbLine
 10
126.8078823851108
 20
-147.3847452953064
 30
0.0
 11
126.3228129530415
 21
-146.9672327954107
 31
0.0
  0
LINE
  5
C0
330
79
100
AcDbEntity
  8
レイヤー 1
 62
    18
420
        0
370
    25
100
AcDbLine
 10
123.3242019184313
 20
-146.8600589065488
 30
0.0
 11
122.8108749870829
 21
-147.2417997397869
 31
0.0
  0
LINE
  5
C1
330
79
100
AcDbEntity
  8
レイヤー 1
 62
    18
420
        0
370
    25
100
AcDbLine
 10
124.3239741151472
 20
-146.895901128762
 30
0.0
 11
123.8099769060382
 21
-147.2776066842222
 31
0.0
  0
LINE
  5
C2
330
79
100
AcDbEntity
  8
レイヤー 1
 62
    18
420
        0
370
    25
100
AcDbLine
 10
123.8099769060382
 20
-147.2776066842222
 30
0.0
 11
123.3242019184313
 21
-146.8600589065488
 31
0.0
  0
LINE
  5
C3
330
79
100
AcDbEntity
  8
レイヤー 1
 62
    18
420
        0
370
    25
100
AcDbLine
 10
127.3219148719967
 20
-147.0026869620687
 30
0.0
 11
126.8078823851108
 21
-147.3847452953064
 31
0.0
  0
LINE
  5
C4
330
79
100
AcDbEntity
  8
レイヤー 1
 62
    18
420
        0
370
    25
100
AcDbLine
 10
122.8108749870829
 20
-147.2417997397869
 30
0.0
 11
122.325135277253
 21
-146.8242519621133
 31
0.0
  0
LINE
  5
C5
330
79
100
AcDbEntity
  8
レイヤー 1
 62
    18
420
        0
370
    25
100
AcDbLine
 10
125.3230407563256
 20
-146.9313905731975
 30
0.0
 11
124.8090435472165
 21
-147.3134489064355
 31
0.0
  0
LINE
  5
C6
330
79
100
AcDbEntity
  8
レイヤー 1
 62
    18
420
        0
370
    25
100
AcDbLine
 10
124.8090435472165
 20
-147.3134489064355
 30
0.0
 11
124.3239741151472
 21
-146.895901128762
 31
0.0
  0
LINE
  5
C7
330
79
100
AcDbEntity
  8
レイヤー 1
 62
    18
420
        0
370
    25
100
AcDbLine
 10
127.3219148719967
 20
-147.0026869620687
 30
0.0
 11
127.3219148719967
 21
-147.5029258508324
 31
0.0
  0
LINE
  5
C8
330
79
100
AcDbEntity
  8
レイヤー 1
 62
    18
420
        0
370
    25
100
AcDbLine
 10
107.3210381600394
 20
-147.5029258508324
 30
0.0
 11
127.3219148719967
 21
-147.5029258508324
 31
0.0
  0
LINE
  5
C9
330
79
100
AcDbEntity
  8
レイヤー 1
 62
    18
420
        0
370
    25
100
AcDbLine
 10
116.3292890413309
 20
-146.6102922399446
 30
0.0
 11
115.8152918322218
 21
-146.9923505731823
 31
0.0
  0
LINE
  5
CA
330
79
100
AcDbEntity
  8
レイヤー 1
 62
    18
420
        0
370
    25
100
AcDbLine
 10
115.8152918322218
 20
-146.9923505731823
 30
0.0
 11
115.329516844615
 21
-146.5744852955089
 31
0.0
  0
LINE
  5
CB
330
79
100
AcDbEntity
  8
レイヤー 1
 62
    18
420
        0
370
    25
100
AcDbLine
 10
115.329516844615
 20
-146.5744852955089
 30
0.0
 11
114.8155196355059
 21
-146.9565436287469
 31
0.0
  0
LINE
  5
CC
330
79
100
AcDbEntity
  8
レイヤー 1
 62
    18
420
        0
370
    25
100
AcDbLine
 10
114.8155196355059
 20
-146.9565436287469
 30
0.0
 11
114.3304502034366
 21
-146.5389958510734
 31
0.0
  0
LINE
  5
CD
330
79
100
AcDbEntity
  8
レイヤー 1
 62
    18
420
        0
370
    25
100
AcDbLine
 10
114.3304502034366
 20
-146.5389958510734
 30
0.0
 11
113.8164529943276
 21
-146.9207014065337
 31
0.0
  0
LINE
  5
CE
330
79
100
AcDbEntity
  8
レイヤー 1
 62
    18
420
        0
370
    25
100
AcDbLine
 10
113.8164529943276
 20
-146.9207014065337
 30
0.0
 11
113.3306780067207
 21
-146.5031536288602
 31
0.0
  0
LINE
  5
CF
330
79
100
AcDbEntity
  8
レイヤー 1
 62
    18
420
        0
370
    25
100
AcDbLine
 10
113.3306780067207
 20
-146.5031536288602
 30
0.0
 11
112.8166807976116
 21
-146.8848944620983
 31
0.0
  0
LINE
  5
D0
330
79
100
AcDbEntity
  8
レイヤー 1
 62
    18
420
        0
370
    25
100
AcDbLine
 10
112.8166807976116
 20
-146.8848944620983
 30
0.0
 11
112.3316113655423
 21
-146.4673466844248
 31
0.0
  0
LINE
  5
D1
330
79
100
AcDbEntity
  8
レイヤー 1
 62
    18
420
        0
370
    25
100
AcDbLine
 10
112.3316113655423
 20
-146.4673466844248
 30
0.0
 11
111.8175788786564
 21
-146.8494050176625
 31
0.0
  0
LINE
  5
D2
330
79
100
AcDbEntity
  8
レイヤー 1
 62
    18
420
        0
370
    25
100
AcDbLine
 10
111.8175788786564
 20
-146.8494050176625
 30
0.0
 11
111.3325094465871
 21
-146.4318572399893
 31
0.0
  0
LINE
  5
D3
330
79
100
AcDbEntity
  8
レイヤー 1
 62
    18
420
        0
370
    25
100
AcDbLine
 10
111.3325094465871
 20
-146.4318572399893
 30
0.0
 11
110.818512237478
 21
-146.8139155732273
 31
0.0
  0
LINE
  5
D4
330
79
100
AcDbEntity
  8
レイヤー 1
 62
    18
420
        0
370
    25
100
AcDbLine
 10
110.818512237478
 20
-146.8139155732273
 30
0.0
 11
110.3327725276481
 21
-146.3960150177761
 31
0.0
  0
LINE
  5
D5
330
79
100
AcDbEntity
  8
レイヤー 1
 62
    18
420
        0
370
    25
100
AcDbLine
 10
110.3327725276481
 20
-146.3960150177761
 30
0.0
 11
109.8187400407621
 21
-146.7780733510141
 31
0.0
  0
LINE
  5
D6
330
79
100
AcDbEntity
  8
レイヤー 1
 62
    18
420
        0
370
    25
100
AcDbLine
 10
109.8187400407621
 20
-146.7780733510141
 30
0.0
 11
109.3336706086929
 21
-146.3605255733402
 31
0.0
  0
LINE
  5
D7
330
79
100
AcDbEntity
  8
レイヤー 1
 62
    18
420
        0
370
    25
100
AcDbLine
 10
109.3336706086929
 20
-146.3605255733402
 30
0.0
 11
108.8196733995838
 21
-146.7422664065783
 31
0.0
  0
LINE
  5
D8
330
79
100
AcDbEntity
  8
レイヤー 1
 62
    18
420
        0
370
    25
100
AcDbLine
 10
108.8196733995838
 20
-146.7422664065783
 30
0.0
 11
108.333898411977
 21
-146.3247186289048
 31
0.0
  0
LINE
  5
D9
330
79
100
AcDbEntity
  8
レイヤー 1
 62
    18
420
        0
370
    25
100
AcDbLine
 10
108.333898411977
 20
-146.3247186289048
 30
0.0
 11
107.8199012028679
 21
-146.7064241843651
 31
0.0
  0
LINE
  5
DA
330
79
100
AcDbEntity
  8
レイヤー 1
 62
    18
420
        0
370
    25
100
AcDbLine
 10
107.8199012028679
 20
-146.7064241843651
 30
0.0
 11
107.3348317707986
 21
-146.2888764066919
 31
0.0
  0
LINE
  5
DB
330
79
100
AcDbEntity
  8
レイヤー 1
 62
    18
420
        0
370
    25
100
AcDbLine
 10
107.285168038163
 20
-146.2406516844817
 30
0.0
 11
106.3205956855628
 21
-146.2406516844817
 31
0.0
  0
LINE
  5
DC
330
79
100
AcDbEntity
  8
レイヤー 1
 62
    18
420
        0
370
    25
100
AcDbLine
 10
107.3210381600394
 20
-147.5029258508324
 30
0.0
 11
107.3210381600394
 21
-152.5028100162496
 31
0.0
  0
SPLINE
  5
DD
330
79
100
AcDbEntity
  8
レイヤー 1
 62
    18
420
        0
370
     9
100
AcDbSpline
210
0.0
220
0.0
230
1.0
 70
     9
 71
     3
 72
    17
 73
    13
 74
     0
 42
0.0000000001
 43
0.0000000001
 40
0.0
 40
0.0
 40
0.0
 40
0.0
 40
1.0
 40
1.0
 40
1.0
 40
2.0
 40
2.0
 40
2.0
 40
3.0
 40
3.0
 40
3.0
 40
4.0
 40
4.0
 40
4.0
 40
4.0
 10
79.41938581631463
 20
-142.2408925188148
 30
0.0
 10
79.41938581631463
 20
-142.1854358521619
 30
0.0
 10
79.37461831745675
 20
-142.1406330743955
 30
0.0
 10
79.31947915219679
 20
-142.1406330743955
 30
0.0
 10
79.26437526471372
 20
-142.1406330743955
 30
0.0
 10
79.21957248807896
 20
-142.1854358521619
 30
0.0
 10
79.21957248807896
 20
-142.2408925188148
 30
0.0
 10
79.21957248807896
 20
-142.2959964076898
 30
0.0
 10
79.26437526471372
 20
-142.3407991854565
 30
0.0
 10
79.31947915219679
 20
-142.3407991854565
 30
0.0
 10
79.37461831745675
 20
-142.3407991854565
 30
0.0
 10
79.41938581631463
 20
-142.2959964076898
 30
0.0
 10
79.41938581631463
 20
-142.2408925188148
 30
0.0
  0
CIRCLE
  5
DE
330
79
100
AcDbEntity
  8
レイヤー 1
 62
    18
420
        0
370
     9
100
AcDbCircle
 10
75.31972008757247
 20
-147.0026869620687
 30
0.0
 40
0.0999066653797365
  0
CIRCLE
  5
DF
330
79
100
AcDbEntity
  8
レイヤー 1
 62
    18
420
        0
370
     9
100
AcDbCircle
 10
75.31972008757247
 20
-147.5029258508324
 30
0.0
 40
0.0999066653797365
  0
CIRCLE
  5
E0
330
79
100
AcDbEntity
  8
レイヤー 1
 62
    18
420
        0
370
     9
100
AcDbCircle
 10
75.31972008757247
 20
-152.5028100162493
 30
0.0
 40
0.0999066653798969
  0
SPLINE
  5
E1
330
79
100
AcDbEntity
  8
レイヤー 1
 62
    18
420
        0
370
     9
100
AcDbSpline
210
0.0
220
0.0
230
1.0
 70
     9
 71
     3
 72
    17
 73
    13
 74
     0
 42
0.0000000001
 43
0.0000000001
 40
0.0
 40
0.0
 40
0.0
 40
0.0
 40
1.0
 40
1.0
 40
1.0
 40
2.0
 40
2.0
 40
2.0
 40
3.0
 40
3.0
 40
3.0
 40
4.0
 40
4.0
 40
4.0
 40
4.0
 10
100.4205286138642
 20
-142.2408925188148
 30
0.0
 10
100.4205286138642
 20
-142.1854358521619
 30
0.0
 10
100.3757258372291
 20
-142.1406330743955
 30
0.0
 10
100.3206219497463
 20
-142.1406330743955
 30
0.0
 10
100.2654827844864
 20
-142.1406330743955
 30
0.0
 10
100.2207152856285
 20
-142.1854358521619
 30
0.0
 10
100.2207152856285
 20
-142.2408925188148
 30
0.0
 10
100.2207152856285
 20
-142.2959964076898
 30
0.0
 10
100.2654827844864
 20
-142.3407991854565
 30
0.0
 10
100.3206219497463
 20
-142.3407991854565
 30
0.0
 10
100.3757258372291
 20
-142.3407991854565
 30
0.0
 10
100.4205286138642
 20
-142.2959964076898
 30
0.0
 10
100.4205286138642
 20
-142.2408925188148
 30
0.0
  0
SPLINE
  5
E2
330
79
100
AcDbEntity
  8
レイヤー 1
 62
    18
420
        0
370
     9
100
AcDbSpline
210
0.0
220
0.0
230
1.0
 70
     9
 71
     3
 72
    17
 73
    13
 74
     0
 42
0.0000000001
 43
0.0000000001
 40
0.0
 40
0.0
 40
0.0
 40
0.0
 40
1.0
 40
1.0
 40
1.0
 40
2.0
 40
2.0
 40
2.0
 40
3.0
 40
3.0
 40
3.0
 40
4.0
 40
4.0
 40
4.0
 40
4.0
 10
127.4218215361146
 20
-142.2408925188148
 30
0.0
 10
127.4218215361146
 20
-142.1854358521619
 30
0.0
 10
127.3770187594798
 20
-142.1406330743955
 30
0.0
 10
127.3219148719967
 20
-142.1406330743955
 30
0.0
 10
127.2667757067368
 20
-142.1406330743955
 30
0.0
 10
127.2220082078789
 20
-142.1854358521619
 30
0.0
 10
127.2220082078789
 20
-142.2408925188148
 30
0.0
 10
127.2220082078789
 20
-142.2959964076898
 30
0.0
 10
127.2667757067368
 20
-142.3407991854565
 30
0.0
 10
127.3219148719967
 20
-142.3407991854565
 30
0.0
 10
127.3770187594798
 20
-142.3407991854565
 30
0.0
 10
127.4218215361146
 20
-142.2959964076898
 30
0.0
 10
127.4218215361146
 20
-142.2408925188148
 30
0.0
  0
SPLINE
  5
E3
330
79
100
AcDbEntity
  8
レイヤー 1
 62
    18
420
        0
370
     9
100
AcDbSpline
210
0.0
220
0.0
230
1.0
 70
     9
 71
     3
 72
    17
 73
    13
 74
     0
 42
0.0000000001
 43
0.0000000001
 40
0.0
 40
0.0
 40
0.0
 40
0.0
 40
1.0
 40
1.0
 40
1.0
 40
2.0
 40
2.0
 40
2.0
 40
3.0
 40
3.0
 40
3.0
 40
4.0
 40
4.0
 40
4.0
 40
4.0
 10
106.4205023496806
 20
-142.2408925188148
 30
0.0
 10
106.4205023496806
 20
-142.1854358521619
 30
0.0
 10
106.3757348508228
 20
-142.1406330743955
 30
0.0
 10
106.3205956855628
 20
-142.1406330743955
 30
0.0
 10
106.2654949116984
 20
-142.1406330743955
 30
0.0
 10
106.2206921339317
 20
-142.1854358521619
 30
0.0
 10
106.2206921339317
 20
-142.2408925188148
 30
0.0
 10
106.2206921339317
 20
-142.2959964076898
 30
0.0
 10
106.2654949116984
 20
-142.3407991854565
 30
0.0
 10
106.3205956855628
 20
-142.3407991854565
 30
0.0
 10
106.3757348508228
 20
-142.3407991854565
 30
0.0
 10
106.4205023496806
 20
-142.2959964076898
 30
0.0
 10
106.4205023496806
 20
-142.2408925188148
 30
0.0
  0
LINE
  5
E4
330
79
100
AcDbEntity
  8
レイヤー 1
 62
    18
420
        0
370
     9
100
AcDbLine
 10
75.31972008757247
 20
-147.0026869620687
 30
0.0
 11
75.31972008757247
 21
-141.7447811300498
 31
0.0
  0
LINE
  5
E5
330
79
100
AcDbEntity
  8
レイヤー 1
 62
    18
420
        0
370
     9
100
AcDbLine
 10
75.31972008757247
 20
-147.0026869620687
 30
0.0
 11
75.31972008757247
 21
-147.5029258508324
 31
0.0
  0
LINE
  5
E6
330
79
100
AcDbEntity
  8
レイヤー 1
 62
    18
420
        0
370
     9
100
AcDbLine
 10
76.77976143921262
 20
-147.0026869620687
 30
0.0
 11
74.31998316863346
 21
-147.0026869620687
 31
0.0
  0
LINE
  5
E7
330
79
100
AcDbEntity
  8
レイヤー 1
 62
    18
420
        0
370
     9
100
AcDbLine
 10
76.77976143921262
 20
-147.5029258508324
 30
0.0
 11
74.31998316863346
 21
-147.5029258508324
 31
0.0
  0
INSERT
  5
E9
330
79
100
AcDbEntity
  8
レイヤー 1
100
AcDbBlockReference
  2
Block_1
 10
0.0
 20
0.0
 30
0.0
  0
LINE
  5
F7
330
79
100
AcDbEntity
  8
レイヤー 1
 62
    18
420
        0
370
     9
100
AcDbLine
 10
79.31947915219679
 20
-142.2408925188148
 30
0.0
 11
100.3206219497463
 21
-142.2408925188148
 31
0.0
  0
LINE
  5
F8
330
79
100
AcDbEntity
  8
レイヤー 1
 62
    18
420
        0
370
     9
100
AcDbLine
 10
79.31947915219679
 20
-144.4629691849262
 30
0.0
 11
79.31947915219679
 21
-141.2407675190649
 31
0.0
  0
INSERT
  5
FA
330
79
100
AcDbEntity
  8
レイヤー 1
100
AcDbBlockReference
  2
Block_3
 10
0.0
 20
0.0
 30
0.0
  0
LINE
  5
105
330
79
100
AcDbEntity
  8
レイヤー 1
 62
    18
420
        0
370
     9
100
AcDbLine
 10
75.31972008757247
 20
-147.5029258508324
 30
0.0
 11
75.31972008757247
 21
-152.5028100162496
 31
0.0
  0
LINE
  5
106
330
79
100
AcDbEntity
  8
レイヤー 1
 62
    18
420
        0
370
     9
100
AcDbLine
 10
96.78113204004624
 20
-152.5028100162496
 30
0.0
 11
74.31998316863346
 21
-152.5028100162496
 31
0.0
  0
INSERT
  5
108
330
79
100
AcDbEntity
  8
レイヤー 1
100
AcDbBlockReference
  2
Block_5
 10
0.0
 20
0.0
 30
0.0
  0
LINE
  5
10D
330
79
100
AcDbEntity
  8
レイヤー 1
 62
    18
420
        0
370
     9
100
AcDbLine
 10
127.3219148719967
 20
-142.2408925188148
 30
0.0
 11
106.3205956855628
 21
-142.2408925188148
 31
0.0
  0
LINE
  5
10E
330
79
100
AcDbEntity
  8
レイヤー 1
 62
    18
420
        0
370
     9
100
AcDbLine
 10
127.3219148719967
 20
-144.4629691849262
 30
0.0
 11
127.3219148719967
 21
-141.2407675190649
 31
0.0
  0
INSERT
  5
110
330
79
100
AcDbEntity
  8
レイヤー 1
100
AcDbBlockReference
  2
Block_6
 10
0.0
 20
0.0
 30
0.0
  0
LINE
  5
11B
330
79
100
AcDbEntity
  8
レイヤー 1
 62
    18
420
        0
370
     9
100
AcDbLine
 10
100.3206219497463
 20
-142.2408925188148
 30
0.0
 11
106.3205956855628
 21
-142.2408925188148
 31
0.0
  0
LINE
  5
11C
330
79
100
AcDbEntity
  8
レイヤー 1
 62
    18
420
        0
370
     9
100
AcDbLine
 10
100.3206219497463
 20
-143.7009339073386
 30
0.0
 11
100.3206219497463
 21
-141.2407675190649
 31
0.0
  0
LINE
  5
11D
330
79
100
AcDbEntity
  8
レイヤー 1
 62
    18
420
        0
370
     9
100
AcDbLine
 10
106.3205956855628
 20
-143.7009339073386
 30
0.0
 11
106.3205956855628
 21
-141.2407675190649
 31
0.0
  0
INSERT
  5
11F
330
79
100
AcDbEntity
  8
レイヤー 1
100
AcDbBlockReference
  2
Block_8
 10
0.0
 20
0.0
 30
0.0
  0
SPLINE
  5
125
330
79
100
AcDbEntity
  8
レイヤー 1
 62
    18
420
        0
370
     9
100
AcDbSpline
210
0.0
220
0.0
230
1.0
 70
     9
 71
     3
 72
    17
 73
    13
 74
     0
 42
0.0000000001
 43
0.0000000001
 40
0.0
 40
0.0
 40
0.0
 40
0.0
 40
1.0
 40
1.0
 40
1.0
 40
2.0
 40
2.0
 40
2.0
 40
3.0
 40
3.0
 40
3.0
 40
4.0
 40
4.0
 40
4.0
 40
4.0
 10
99.60540324669686
 20
-156.9262905706989
 30
0.0
 10
99.60540324669686
 20
-156.8711866818239
 30
0.0
 10
99.54959085830587
 20
-156.8263839040572
 30
0.0
 10
99.4806933600636
 20
-156.8263839040572
 30
0.0
 10
99.41250141735887
 20
-156.8263839040572
 30
0.0
 10
99.35669491342572
 20
-156.8711866818239
 30
0.0
 10
99.35669491342572
 20
-156.9262905706989
 30
0.0
 10
99.35669491342572
 20
-156.981429737352
 30
0.0
 10
99.41250141735887
 20
-157.0261972373405
 30
0.0
 10
99.4806933600636
 20
-157.0261972373405
 30
0.0
 10
99.54959085830587
 20
-157.0261972373405
 30
0.0
 10
99.60540324669686
 20
-156.981429737352
 30
0.0
 10
99.60540324669686
 20
-156.9262905706989
 30
0.0
  0
SPLINE
  5
126
330
79
100
AcDbEntity
  8
レイヤー 1
 62
    18
420
        0
370
     9
100
AcDbSpline
210
0.0
220
0.0
230
1.0
 70
     9
 71
     3
 72
    17
 73
    13
 74
     0
 42
0.0000000001
 43
0.0000000001
 40
0.0
 40
0.0
 40
0.0
 40
0.0
 40
1.0
 40
1.0
 40
1.0
 40
2.0
 40
2.0
 40
2.0
 40
3.0
 40
3.0
 40
3.0
 40
4.0
 40
4.0
 40
4.0
 40
4.0
 10
107.6889853728745
 20
-156.9262905706989
 30
0.0
 10
107.6889853728745
 20
-156.8711866818239
 30
0.0
 10
107.6331759298539
 20
-156.8263839040572
 30
0.0
 10
107.5649487093723
 20
-156.8263839040572
 30
0.0
 10
107.4953809333693
 20
-156.8263839040572
 30
0.0
 10
107.4402449114054
 20
-156.8711866818239
 30
0.0
 10
107.4402449114054
 20
-156.9262905706989
 30
0.0
 10
107.4402449114054
 20
-156.981429737352
 30
0.0
 10
107.4953809333693
 20
-157.0261972373405
 30
0.0
 10
107.5649487093723
 20
-157.0261972373405
 30
0.0
 10
107.6331759298539
 20
-157.0261972373405
 30
0.0
 10
107.6889853728745
 20
-156.981429737352
 30
0.0
 10
107.6889853728745
 20
-156.9262905706989
 30
0.0
  0
LINE
  5
127
330
79
100
AcDbEntity
  8
レイヤー 1
 62
    18
420
        0
370
     9
100
AcDbLine
 10
107.5649487093723
 20
-156.9262905706989
 30
0.0
 11
99.4806933600636
 21
-156.9262905706989
 31
0.0
  0
LINE
  5
128
330
79
100
AcDbEntity
  8
レイヤー 1
 62
    18
420
        0
370
     9
100
AcDbLine
 10
107.5649487093723
 20
-155.4662491821752
 30
0.0
 11
107.5649487093723
 21
-157.9264155704492
 31
0.0
  0
LINE
  5
129
330
79
100
AcDbEntity
  8
レイヤー 1
 62
    18
420
        0
370
     9
100
AcDbLine
 10
99.4806933600636
 20
-155.4662491821752
 30
0.0
 11
99.4806933600636
 21
-157.9264155704492
 31
0.0
  0
INSERT
  5
12B
330
79
100
AcDbEntity
  8
レイヤー 1
100
AcDbBlockReference
  2
Block_9
 10
0.0
 20
0.0
 30
0.0
  0
LINE
  5
132
330
79
100
AcDbEntity
  8
レイヤー 1
 62
    18
420
        0
370
     9
100
AcDbLine
 10
104.2624901825145
 20
-150.5015369611939
 30
0.0
 11
112.2627171324214
 21
-150.5015369611939
 31
0.0
  0
INSERT
  5
134
330
79
100
AcDbEntity
  8
レイヤー 1
100
AcDbBlockReference
  2
Block_10
 10
0.0
 20
0.0
 30
0.0
  0
ENDBLK
  5
7C
330
79
100
AcDbEntity
  8
0
100
AcDbBlockEnd
  0
BLOCK
  5
EA
330
E8
100
AcDbEntity
  8
0
100
AcDbBlockBegin
  2
Block_1
 70
     0
 10
0.0
 20
0.0
 30
0.0
  3
Block_1
  1

  0
INSERT
  5
ED
330
E8
100
AcDbEntity
  8
レイヤー 1
100
AcDbBlockReference
  2
Block_2
 10
0.0
 20
0.0
 30
0.0
  0
ENDBLK
  5
EB
330
E8
100
AcDbEntity
  8
0
100
AcDbBlockEnd
  0
BLOCK
  5
EE
330
EC
100
AcDbEntity
  8
0
100
AcDbBlockBegin
  2
Block_2
 70
     0
 10
0.0
 20
0.0
 30
0.0
  3
Block_2
  1

  0
SPLINE
  5
F0
330
EC
100
AcDbEntity
  8
レイヤー 1
100
AcDbSpline
210
0.0
220
0.0
230
1.0
 70
     9
 71
     3
 72
    17
 73
    13
 74
     0
 42
0.0000000001
 43
0.0000000001
 40
0.0
 40
0.0
 40
0.0
 40
0.0
 40
1.0
 40
1.0
 40
1.0
 40
2.0
 40
2.0
 40
2.0
 40
3.0
 40
3.0
 40
3.0
 40
4.0
 40
4.0
 40
4.0
 40
4.0
 10
72.47550725184641
 20
-148.1577093813633
 30
0.0
 10
72.47550725184641
 20
-148.4074788040439
 30
0.0
 10
72.7588663555082
 20
-148.4539875930948
 30
0.0
 10
73.10372041358171
 20
-148.4539875930948
 30
0.0
 10
73.42325301983864
 20
-148.4539875930948
 30
0.0
 10
73.73210583009129
 20
-148.4178140904997
 30
0.0
 10
73.73210583009129
 20
-148.1577093813633
 30
0.0
 10
73.73210583009129
 20
-147.9100070159739
 30
0.0
 10
73.45064152894638
 20
-147.8614311696319
 30
0.0
 10
73.10372041358171
 20
-147.8614311696319
 30
0.0
 10
72.78436006209905
 20
-147.8614311696319
 30
0.0
 10
72.47550725184641
 20
-147.8996717295181
 30
0.0
 10
72.47550725184641
 20
-148.1577093813633
 30
0.0
  0
SPLINE
  5
F1
330
EC
100
AcDbEntity
  8
レイヤー 1
100
AcDbSpline
210
0.0
220
0.0
230
1.0
 70
     9
 71
     3
 72
    29
 73
    25
 74
     0
 42
0.0000000001
 43
0.0000000001
 40
0.0
 40
0.0
 40
0.0
 40
0.0
 40
1.0
 40
1.0
 40
1.0
 40
2.0
 40
2.0
 40
2.0
 40
3.0
 40
3.0
 40
3.0
 40
4.0
 40
4.0
 40
4.0
 40
5.0
 40
5.0
 40
5.0
 40
6.0
 40
6.0
 40
6.0
 40
7.0
 40
7.0
 40
7.0
 40
8.0
 40
8.0
 40
8.0
 40
8.0
 10
73.69817163956156
 20
-147.759800852817
 30
0.0
 10
73.90763344506476
 20
-147.8679768510538
 30
0.0
 10
73.92675372500789
 20
-148.0412651539619
 30
0.0
 10
73.92675372500789
 20
-148.1577093813633
 30
0.0
 10
73.92675372500789
 20
-148.3185953405245
 30
0.0
 10
73.88024493595702
 20
-148.4601887649683
 30
0.0
 10
73.69817163956156
 20
-148.5552734003612
 30
0.0
 10
73.50369599941922
 20
-148.6589707744672
 30
0.0
 10
73.26667343003403
 20
-148.6782633091846
 30
0.0
 10
73.10372041358171
 20
-148.6782633091846
 30
0.0
 10
72.95988767707253
 20
-148.6782633091846
 30
0.0
 10
72.70822345187503
 20
-148.6610378317583
 30
0.0
 10
72.50926918760185
 20
-148.5552734003612
 30
0.0
 10
72.30618080874638
 20
-148.4474419116729
 30
0.0
 10
72.28292641422093
 20
-148.2865559525117
 30
0.0
 10
72.28292641422093
 20
-148.1577093813633
 30
0.0
 10
72.28292641422093
 20
-147.9988904794933
 30
0.0
 10
72.32736814598066
 20
-147.8552299977584
 30
0.0
 10
72.50926918760185
 20
-147.759800852817
 30
0.0
 10
72.70185002522731
 20
-147.6605821028418
 30
0.0
 10
72.93025985589938
 20
-147.6371554535421
 30
0.0
 10
73.10372041358171
 20
-147.6371554535421
 30
0.0
 10
73.27511391397289
 20
-147.6371554535421
 30
0.0
 10
73.50576305671037
 20
-147.6585150455506
 30
0.0
 10
73.69817163956156
 20
-147.759800852817
 30
0.0
  0
HATCH
  5
F2
330
EC
100
AcDbEntity
  8
レイヤー 1
 62
    18
420
        0
440
 33554687
100
AcDbHatch
 10
0.0
 20
0.0
 30
0.0
210
0.0
220
0.0
230
1.0
  2
SOLID
 70
     1
 71
     1
 91
        2
 92
        1
 93
        1
 72
     4
 94
        3
 73
     0
 74
     0
 95
       17
 96
       13
 40
0.0
 40
0.0
 40
0.0
 40
0.0
 40
1.0
 40
1.0
 40
1.0
 40
2.0
 40
2.0
 40
2.0
 40
3.0
 40
3.0
 40
3.0
 40
4.0
 40
4.0
 40
4.0
 40
4.0
 10
72.47550725184641
 20
-148.1577093813633
 10
72.47550725184641
 20
-148.4074788040439
 10
72.7588663555082
 20
-148.4539875930948
 10
73.10372041358171
 20
-148.4539875930948
 10
73.42325301983864
 20
-148.4539875930948
 10
73.73210583009129
 20
-148.4178140904997
 10
73.73210583009129
 20
-148.1577093813633
 10
73.73210583009129
 20
-147.9100070159739
 10
73.45064152894638
 20
-147.8614311696319
 10
73.10372041358171
 20
-147.8614311696319
 10
72.78436006209905
 20
-147.8614311696319
 10
72.47550725184641
 20
-147.8996717295181
 10
72.47550725184641
 20
-148.1577093813633
 97
        0
 97
        1
330
F0
 92
        1
 93
        1
 72
     4
 94
        3
 73
     0
 74
     0
 95
       29
 96
       25
 40
0.0
 40
0.0
 40
0.0
 40
0.0
 40
1.0
 40
1.0
 40
1.0
 40
2.0
 40
2.0
 40
2.0
 40
3.0
 40
3.0
 40
3.0
 40
4.0
 40
4.0
 40
4.0
 40
5.0
 40
5.0
 40
5.0
 40
6.0
 40
6.0
 40
6.0
 40
7.0
 40
7.0
 40
7.0
 40
8.0
 40
8.0
 40
8.0
 40
8.0
 10
73.69817163956156
 20
-147.759800852817
 10
73.90763344506476
 20
-147.8679768510538
 10
73.92675372500789
 20
-148.0412651539619
 10
73.92675372500789
 20
-148.1577093813633
 10
73.92675372500789
 20
-148.3185953405245
 10
73.88024493595702
 20
-148.4601887649683
 10
73.69817163956156
 20
-148.5552734003612
 10
73.50369599941922
 20
-148.6589707744672
 10
73.26667343003403
 20
-148.6782633091846
 10
73.10372041358171
 20
-148.6782633091846
 10
72.95988767707253
 20
-148.6782633091846
 10
72.70822345187503
 20
-148.6610378317583
 10
72.50926918760185
 20
-148.5552734003612
 10
72.30618080874638
 20
-148.4474419116729
 10
72.28292641422093
 20
-148.2865559525117
 10
72.28292641422093
 20
-148.1577093813633
 10
72.28292641422093
 20
-147.9988904794933
 10
72.32736814598066
 20
-147.8552299977584
 10
72.50926918760185
 20
-147.759800852817
 10
72.70185002522731
 20
-147.6605821028418
 10
72.93025985589938
 20
-147.6371554535421
 10
73.10372041358171
 20
-147.6371554535421
 10
73.27511391397289
 20
-147.6371554535421
 10
73.50576305671037
 20
-147.6585150455506
 10
73.69817163956156
 20
-147.759800852817
 97
        0
 97
        1
330
F1
 75
     2
 76
     1
 98
        1
 10
0.0
 20
0.0
450
        0
451
        0
460
0.0
461
0.0
452
        0
462
0.0
453
        0
470

  0
SPLINE
  5
F3
330
EC
100
AcDbEntity
  8
レイヤー 1
100
AcDbSpline
210
0.0
220
0.0
230
1.0
 70
    11
 71
     3
 72
    17
 73
    13
 74
     0
 42
0.0000000001
 43
0.0000000001
 40
0.0
 40
0.0
 40
0.0
 40
0.0
 40
1.0
 40
1.0
 40
1.0
 40
2.0
 40
2.0
 40
2.0
 40
3.0
 40
3.0
 40
3.0
 40
4.0
 40
4.0
 40
4.0
 40
4.0
 10
73.87593856660046
 20
-147.4208034570684
 30
0.0
 10
73.87593856660046
 20
-147.4208034570684
 30
0.0
 10
73.62427434140297
 20
-147.4208034570684
 30
0.0
 10
73.62427434140297
 20
-147.4208034570684
 30
0.0
 10
73.62427434140297
 20
-147.4208034570684
 30
0.0
 10
73.62427434140297
 20
-147.1689669770966
 30
0.0
 10
73.62427434140297
 20
-147.1689669770966
 30
0.0
 10
73.62427434140297
 20
-147.1689669770966
 30
0.0
 10
73.87593856660046
 20
-147.1689669770966
 30
0.0
 10
73.87593856660046
 20
-147.1689669770966
 30
0.0
 10
73.87593856660046
 20
-147.1689669770966
 30
0.0
 10
73.87593856660046
 20
-147.4208034570684
 30
0.0
 10
73.87593856660046
 20
-147.4208034570684
 30
0.0
  0
HATCH
  5
F4
330
EC
100
AcDbEntity
  8
レイヤー 1
 62
    18
420
        0
440
 33554687
100
AcDbHatch
 10
0.0
 20
0.0
 30
0.0
210
0.0
220
0.0
230
1.0
  2
SOLID
 70
     1
 71
     1
 91
        1
 92
        1
 93
        1
 72
     4
 94
        3
 73
     0
 74
     0
 95
       17
 96
       13
 40
0.0
 40
0.0
 40
0.0
 40
0.0
 40
1.0
 40
1.0
 40
1.0
 40
2.0
 40
2.0
 40
2.0
 40
3.0
 40
3.0
 40
3.0
 40
4.0
 40
4.0
 40
4.0
 40
4.0
 10
73.87593856660046
 20
-147.4208034570684
 10
73.87593856660046
 20
-147.4208034570684
 10
73.62427434140297
 20
-147.4208034570684
 10
73.62427434140297
 20
-147.4208034570684
 10
73.62427434140297
 20
-147.4208034570684
 10
73.62427434140297
 20
-147.1689669770966
 10
73.62427434140297
 20
-147.1689669770966
 10
73.62427434140297
 20
-147.1689669770966
 10
73.87593856660046
 20
-147.1689669770966
 10
73.87593856660046
 20
-147.1689669770966
 10
73.87593856660046
 20
-147.1689669770966
 10
73.87593856660046
 20
-147.4208034570684
 10
73.87593856660046
 20
-147.4208034570684
 97
        0
 97
        1
330
F3
 75
     2
 76
     1
 98
        1
 10
0.0
 20
0.0
450
        0
451
        0
460
0.0
461
0.0
452
        0
462
0.0
453
        0
470

  0
SPLINE
  5
F5
330
EC
100
AcDbEntity
  8
レイヤー 1
100
AcDbSpline
210
0.0
220
0.0
230
1.0
 70
     9
 71
     3
 72
    53
 73
    49
 74
     0
 42
0.0000000001
 43
0.0000000001
 40
0.0
 40
0.0
 40
0.0
 40
0.0
 40
1.0
 40
1.0
 40
1.0
 40
2.0
 40
2.0
 40
2.0
 40
3.0
 40
3.0
 40
3.0
 40
4.0
 40
4.0
 40
4.0
 40
5.0
 40
5.0
 40
5.0
 40
6.0
 40
6.0
 40
6.0
 40
7.0
 40
7.0
 40
7.0
 40
8.0
 40
8.0
 40
8.0
 40
9.0
 40
9.0
 40
9.0
 40
10.0
 40
10.0
 40
10.0
 40
11.0
 40
11.0
 40
11.0
 40
12.0
 40
12.0
 40
12.0
 40
13.0
 40
13.0
 40
13.0
 40
14.0
 40
14.0
 40
14.0
 40
15.0
 40
15.0
 40
15.0
 40
16.0
 40
16.0
 40
16.0
 40
16.0
 10
73.92675372500789
 20
-146.4516980970676
 30
0.0
 10
73.92675372500789
 20
-146.5299017645828
 30
0.0
 10
73.90987275713017
 20
-146.6315320813976
 30
0.0
 10
73.84631074542731
 20
-146.7331623982125
 30
0.0
 10
73.73623994467358
 20
-146.9064507011206
 30
0.0
 10
73.60515406145982
 20
-146.9278102931292
 30
0.0
 10
73.49732257277151
 20
-146.946758318298
 30
0.0
 10
73.49732257277151
 20
-146.946758318298
 30
0.0
 10
73.49732257277151
 20
-146.7245496594994
 30
0.0
 10
73.49732257277151
 20
-146.7245496594994
 30
0.0
 10
73.69610458227042
 20
-146.6697726412839
 30
0.0
 10
73.72573240344357
 20
-146.5426486178782
 30
0.0
 10
73.72573240344357
 20
-146.4496310397765
 30
0.0
 10
73.72573240344357
 20
-146.3101046726239
 30
0.0
 10
73.62634139869411
 20
-146.1578314521758
 30
0.0
 10
73.39362519866549
 20
-146.1578314521758
 30
0.0
 10
73.13765460411142
 20
-146.1578314521758
 30
0.0
 10
73.06789142053512
 20
-146.3376654365058
 30
0.0
 10
73.06789142053512
 20
-146.4582437784896
 30
0.0
 10
73.06789142053512
 20
-146.4899386569539
 30
0.0
 10
73.06789142053512
 20
-146.6315320813976
 30
0.0
 10
73.19691024645772
 20
-146.7204155449171
 30
0.0
 10
73.19691024645772
 20
-146.7204155449171
 30
0.0
 10
73.17778996651458
 20
-146.8961154146648
 30
0.0
 10
73.17778996651458
 20
-146.8961154146648
 30
0.0
 10
73.17778996651458
 20
-146.8961154146648
 30
0.0
 10
72.33167451533723
 20
-146.7755370726811
 30
0.0
 10
72.33167451533723
 20
-146.7755370726811
 30
0.0
 10
72.33167451533723
 20
-146.7755370726811
 30
0.0
 10
72.33167451533723
 20
-145.9969454930146
 30
0.0
 10
72.33167451533723
 20
-145.9969454930146
 30
0.0
 10
72.33167451533723
 20
-145.9969454930146
 30
0.0
 10
72.52632241025384
 20
-145.9969454930146
 30
0.0
 10
72.52632241025384
 20
-145.9969454930146
 30
0.0
 10
72.52632241025384
 20
-145.9969454930146
 30
0.0
 10
72.52632241025384
 20
-146.6125840562288
 30
0.0
 10
72.52632241025384
 20
-146.6125840562288
 30
0.0
 10
72.52632241025384
 20
-146.6125840562288
 30
0.0
 10
72.94938013584252
 20
-146.6780408704485
 30
0.0
 10
72.94938013584252
 20
-146.6780408704485
 30
0.0
 10
72.91544594531281
 20
-146.6167181708111
 30
0.0
 10
72.87531058290965
 20
-146.5343803887136
 30
0.0
 10
72.87531058290965
 20
-146.415869104021
 30
0.0
 10
72.87531058290965
 20
-146.1619655667581
 30
0.0
 10
73.0615179938874
 20
-145.9249429973729
 30
0.0
 10
73.37450491872235
 20
-145.9249429973729
 30
0.0
 10
73.69197046768812
 20
-145.9249429973729
 30
0.0
 10
73.92675372500789
 20
-146.1492187134627
 30
0.0
 10
73.92675372500789
 20
-146.4516980970676
 30
0.0
  0
HATCH
  5
F6
330
EC
100
AcDbEntity
  8
レイヤー 1
 62
    18
420
        0
440
 33554687
100
AcDbHatch
 10
0.0
 20
0.0
 30
0.0
210
0.0
220
0.0
230
1.0
  2
SOLID
 70
     1
 71
     1
 91
        1
 92
        1
 93
        1
 72
     4
 94
        3
 73
     0
 74
     0
 95
       53
 96
       49
 40
0.0
 40
0.0
 40
0.0
 40
0.0
 40
1.0
 40
1.0
 40
1.0
 40
2.0
 40
2.0
 40
2.0
 40
3.0
 40
3.0
 40
3.0
 40
4.0
 40
4.0
 40
4.0
 40
5.0
 40
5.0
 40
5.0
 40
6.0
 40
6.0
 40
6.0
 40
7.0
 40
7.0
 40
7.0
 40
8.0
 40
8.0
 40
8.0
 40
9.0
 40
9.0
 40
9.0
 40
10.0
 40
10.0
 40
10.0
 40
11.0
 40
11.0
 40
11.0
 40
12.0
 40
12.0
 40
12.0
 40
13.0
 40
13.0
 40
13.0
 40
14.0
 40
14.0
 40
14.0
 40
15.0
 40
15.0
 40
15.0
 40
16.0
 40
16.0
 40
16.0
 40
16.0
 10
73.92675372500789
 20
-146.4516980970676
 10
73.92675372500789
 20
-146.5299017645828
 10
73.90987275713017
 20
-146.6315320813976
 10
73.84631074542731
 20
-146.7331623982125
 10
73.73623994467358
 20
-146.9064507011206
 10
73.60515406145982
 20
-146.9278102931292
 10
73.49732257277151
 20
-146.946758318298
 10
73.49732257277151
 20
-146.946758318298
 10
73.49732257277151
 20
-146.7245496594994
 10
73.49732257277151
 20
-146.7245496594994
 10
73.69610458227042
 20
-146.6697726412839
 10
73.72573240344357
 20
-146.5426486178782
 10
73.72573240344357
 20
-146.4496310397765
 10
73.72573240344357
 20
-146.3101046726239
 10
73.62634139869411
 20
-146.1578314521758
 10
73.39362519866549
 20
-146.1578314521758
 10
73.13765460411142
 20
-146.1578314521758
 10
73.06789142053512
 20
-146.3376654365058
 10
73.06789142053512
 20
-146.4582437784896
 10
73.06789142053512
 20
-146.4899386569539
 10
73.06789142053512
 20
-146.6315320813976
 10
73.19691024645772
 20
-146.7204155449171
 10
73.19691024645772
 20
-146.7204155449171
 10
73.17778996651458
 20
-146.8961154146648
 10
73.17778996651458
 20
-146.8961154146648
 10
73.17778996651458
 20
-146.8961154146648
 10
72.33167451533723
 20
-146.7755370726811
 10
72.33167451533723
 20
-146.7755370726811
 10
72.33167451533723
 20
-146.7755370726811
 10
72.33167451533723
 20
-145.9969454930146
 10
72.33167451533723
 20
-145.9969454930146
 10
72.33167451533723
 20
-145.9969454930146
 10
72.52632241025384
 20
-145.9969454930146
 10
72.52632241025384
 20
-145.9969454930146
 10
72.52632241025384
 20
-145.9969454930146
 10
72.52632241025384
 20
-146.6125840562288
 10
72.52632241025384
 20
-146.6125840562288
 10
72.52632241025384
 20
-146.6125840562288
 10
72.94938013584252
 20
-146.6780408704485
 10
72.94938013584252
 20
-146.6780408704485
 10
72.91544594531281
 20
-146.6167181708111
 10
72.87531058290965
 20
-146.5343803887136
 10
72.87531058290965
 20
-146.415869104021
 10
72.87531058290965
 20
-146.1619655667581
 10
73.0615179938874
 20
-145.9249429973729
 10
73.37450491872235
 20
-145.9249429973729
 10
73.69197046768812
 20
-145.9249429973729
 10
73.92675372500789
 20
-146.1492187134627
 10
73.92675372500789
 20
-146.4516980970676
 97
        0
 97
        1
330
F5
 75
     2
 76
     1
 98
        1
 10
0.0
 20
0.0
450
        0
451
        0
460
0.0
461
0.0
452
        0
462
0.0
453
        0
470

  0
ENDBLK
  5
EF
330
EC
100
AcDbEntity
  8
0
100
AcDbBlockEnd
  0
BLOCK
  5
FB
330
F9
100
AcDbEntity
  8
0
100
AcDbBlockBegin
  2
Block_3
 70
     0
 10
0.0
 20
0.0
 30
0.0
  3
Block_3
  1

  0
INSERT
  5
FE
330
F9
100
AcDbEntity
  8
レイヤー 1
100
AcDbBlockReference
  2
Block_4
 10
0.0
 20
0.0
 30
0.0
  0
ENDBLK
  5
FC
330
F9
100
AcDbEntity
  8
0
100
AcDbBlockEnd
  0
BLOCK
  5
FF
330
FD
100
AcDbEntity
  8
0
100
AcDbBlockBegin
  2
Block_4
 70
     0
 10
0.0
 20
0.0
 30
0.0
  3
Block_4
  1

  0
SPLINE
  5
101
330
FD
100
AcDbEntity
  8
レイヤー 1
100
AcDbSpline
210
0.0
220
0.0
230
1.0
 70
     9
 71
     3
 72
    44
 73
    40
 74
     0
 42
0.0000000001
 43
0.0000000001
 40
0.0
 40
0.0
 40
0.0
 40
0.0
 40
1.0
 40
1.0
 40
1.0
 40
2.0
 40
2.0
 40
2.0
 40
3.0
 40
3.0
 40
3.0
 40
4.0
 40
4.0
 40
4.0
 40
5.0
 40
5.0
 40
5.0
 40
6.0
 40
6.0
 40
6.0
 40
7.0
 40
7.0
 40
7.0
 40
8.0
 40
8.0
 40
8.0
 40
9.0
 40
9.0
 40
9.0
 40
10.0
 40
10.0
 40
10.0
 40
11.0
 40
11.0
 40
11.0
 40
12.0
 40
12.0
 40
12.0
 40
13.0
 40
13.0
 40
13.0
 40
13.0
 10
89.24916040520507
 20
-140.9454019829928
 30
0.0
 10
89.03125811576302
 20
-141.1040486300886
 30
0.0
 10
88.93806828288701
 20
-141.1781181830214
 30
0.0
 10
88.88949243654499
 20
-141.3219509195306
 30
0.0
 10
88.88949243654499
 20
-141.3219509195306
 30
0.0
 10
89.6679117614372
 20
-141.3219509195306
 30
0.0
 10
89.6679117614372
 20
-141.3219509195306
 30
0.0
 10
89.6679117614372
 20
-141.3219509195306
 30
0.0
 10
89.6679117614372
 20
-141.5271063556772
 30
0.0
 10
89.6679117614372
 20
-141.5271063556772
 30
0.0
 10
89.6679117614372
 20
-141.5271063556772
 30
0.0
 10
88.63989526863864
 20
-141.5271063556772
 30
0.0
 10
88.63989526863864
 20
-141.5271063556772
 30
0.0
 10
88.67159014710294
 20
-141.1695054443083
 30
0.0
 10
88.7370469613227
 20
-141.0913017767931
 30
0.0
 10
89.12220863657362
 20
-140.7929565077705
 30
0.0
 10
89.37817923112767
 20
-140.5941744982716
 30
0.0
 10
89.44363604534743
 20
-140.5264783719864
 30
0.0
 10
89.44363604534743
 20
-140.389019062125
 30
0.0
 10
89.44363604534743
 20
-140.2705077774324
 30
0.0
 10
89.37180580447998
 20
-140.1392496394443
 30
0.0
 10
89.17509085227221
 20
-140.1392496394443
 30
0.0
 10
88.91481388836158
 20
-140.1392496394443
 30
0.0
 10
88.90637340442273
 20
-140.3698987821818
 30
0.0
 10
88.90206703506615
 20
-140.4863430095833
 30
0.0
 10
88.90206703506615
 20
-140.4863430095833
 30
0.0
 10
88.67796357375064
 20
-140.4863430095833
 30
0.0
 10
88.67796357375064
 20
-140.4863430095833
 30
0.0
 10
88.68640405768951
 20
-140.3593912409518
 30
0.0
 10
88.69691159891953
 20
-140.2472533829069
 30
0.0
 10
88.77735457850011
 20
-140.1287420982143
 30
0.0
 10
88.88725312447958
 20
-139.9680283938274
 30
0.0
 10
89.07346053545733
 20
-139.9340942032977
 30
0.0
 10
89.18990476285877
 20
-139.9340942032977
 30
0.0
 10
89.46706269464712
 20
-139.9340942032977
 30
0.0
 10
89.67428518808491
 20
-140.1182345569843
 30
0.0
 10
89.67428518808491
 20
-140.3910861194161
 30
0.0
 10
89.67428518808491
 20
-140.6194959500882
 30
0.0
 10
89.55801321545772
 20
-140.7190592096119
 30
0.0
 10
89.24916040520507
 20
-140.9454019829928
 30
0.0
  0
HATCH
  5
102
330
FD
100
AcDbEntity
  8
レイヤー 1
 62
    18
420
        0
440
 33554687
100
AcDbHatch
 10
0.0
 20
0.0
 30
0.0
210
0.0
220
0.0
230
1.0
  2
SOLID
 70
     1
 71
     1
 91
        1
 92
        1
 93
        1
 72
     4
 94
        3
 73
     0
 74
     0
 95
       44
 96
       40
 40
0.0
 40
0.0
 40
0.0
 40
0.0
 40
1.0
 40
1.0
 40
1.0
 40
2.0
 40
2.0
 40
2.0
 40
3.0
 40
3.0
 40
3.0
 40
4.0
 40
4.0
 40
4.0
 40
5.0
 40
5.0
 40
5.0
 40
6.0
 40
6.0
 40
6.0
 40
7.0
 40
7.0
 40
7.0
 40
8.0
 40
8.0
 40
8.0
 40
9.0
 40
9.0
 40
9.0
 40
10.0
 40
10.0
 40
10.0
 40
11.0
 40
11.0
 40
11.0
 40
12.0
 40
12.0
 40
12.0
 40
13.0
 40
13.0
 40
13.0
 40
13.0
 10
89.24916040520507
 20
-140.9454019829928
 10
89.03125811576302
 20
-141.1040486300886
 10
88.93806828288701
 20
-141.1781181830214
 10
88.88949243654499
 20
-141.3219509195306
 10
88.88949243654499
 20
-141.3219509195306
 10
89.6679117614372
 20
-141.3219509195306
 10
89.6679117614372
 20
-141.3219509195306
 10
89.6679117614372
 20
-141.3219509195306
 10
89.6679117614372
 20
-141.5271063556772
 10
89.6679117614372
 20
-141.5271063556772
 10
89.6679117614372
 20
-141.5271063556772
 10
88.63989526863864
 20
-141.5271063556772
 10
88.63989526863864
 20
-141.5271063556772
 10
88.67159014710294
 20
-141.1695054443083
 10
88.7370469613227
 20
-141.0913017767931
 10
89.12220863657362
 20
-140.7929565077705
 10
89.37817923112767
 20
-140.5941744982716
 10
89.44363604534743
 20
-140.5264783719864
 10
89.44363604534743
 20
-140.389019062125
 10
89.44363604534743
 20
-140.2705077774324
 10
89.37180580447998
 20
-140.1392496394443
 10
89.17509085227221
 20
-140.1392496394443
 10
88.91481388836158
 20
-140.1392496394443
 10
88.90637340442273
 20
-140.3698987821818
 10
88.90206703506615
 20
-140.4863430095833
 10
88.90206703506615
 20
-140.4863430095833
 10
88.67796357375064
 20
-140.4863430095833
 10
88.67796357375064
 20
-140.4863430095833
 10
88.68640405768951
 20
-140.3593912409518
 10
88.69691159891953
 20
-140.2472533829069
 10
88.77735457850011
 20
-140.1287420982143
 10
88.88725312447958
 20
-139.9680283938274
 10
89.07346053545733
 20
-139.9340942032977
 10
89.18990476285877
 20
-139.9340942032977
 10
89.46706269464712
 20
-139.9340942032977
 10
89.67428518808491
 20
-140.1182345569843
 10
89.67428518808491
 20
-140.3910861194161
 10
89.67428518808491
 20
-140.6194959500882
 10
89.55801321545772
 20
-140.7190592096119
 10
89.24916040520507
 20
-140.9454019829928
 97
        0
 97
        1
330
101
 75
     2
 76
     1
 98
        1
 10
0.0
 20
0.0
450
        0
451
        0
460
0.0
461
0.0
452
        0
462
0.0
453
        0
470

  0
SPLINE
  5
103
330
FD
100
AcDbEntity
  8
レイヤー 1
100
AcDbSpline
210
0.0
220
0.0
230
1.0
 70
    11
 71
     3
 72
    26
 73
    22
 74
     0
 42
0.0000000001
 43
0.0000000001
 40
0.0
 40
0.0
 40
0.0
 40
0.0
 40
1.0
 40
1.0
 40
1.0
 40
2.0
 40
2.0
 40
2.0
 40
3.0
 40
3.0
 40
3.0
 40
4.0
 40
4.0
 40
4.0
 40
5.0
 40
5.0
 40
5.0
 40
6.0
 40
6.0
 40
6.0
 40
7.0
 40
7.0
 40
7.0
 40
7.0
 10
90.28423934374838
 20
-141.5271063556772
 30
0.0
 10
90.28423934374838
 20
-141.5271063556772
 30
0.0
 10
90.28423934374838
 20
-140.4227809978804
 30
0.0
 10
90.28423934374838
 20
-140.4227809978804
 30
0.0
 10
90.28423934374838
 20
-140.4227809978804
 30
0.0
 10
89.95419919626145
 20
-140.4227809978804
 30
0.0
 10
89.95419919626145
 20
-140.4227809978804
 30
0.0
 10
89.95419919626145
 20
-140.4227809978804
 30
0.0
 10
89.95419919626145
 20
-140.2746418920147
 30
0.0
 10
89.95419919626145
 20
-140.2746418920147
 30
0.0
 10
90.28630640103953
 20
-140.2600002362023
 30
0.0
 10
90.33281519009042
 20
-140.09704721975
 30
0.0
 10
90.36244301126357
 20
-139.982842304414
 30
0.0
 10
90.36244301126357
 20
-139.982842304414
 30
0.0
 10
90.50851505983814
 20
-139.982842304414
 30
0.0
 10
90.50851505983814
 20
-139.982842304414
 30
0.0
 10
90.50851505983814
 20
-139.982842304414
 30
0.0
 10
90.50851505983814
 20
-141.5271063556772
 30
0.0
 10
90.50851505983814
 20
-141.5271063556772
 30
0.0
 10
90.50851505983814
 20
-141.5271063556772
 30
0.0
 10
90.28423934374838
 20
-141.5271063556772
 30
0.0
 10
90.28423934374838
 20
-141.5271063556772
 30
0.0
  0
HATCH
  5
104
330
FD
100
AcDbEntity
  8
レイヤー 1
 62
    18
420
        0
440
 33554687
100
AcDbHatch
 10
0.0
 20
0.0
 30
0.0
210
0.0
220
0.0
230
1.0
  2
SOLID
 70
     1
 71
     1
 91
        1
 92
        1
 93
        1
 72
     4
 94
        3
 73
     0
 74
     0
 95
       26
 96
       22
 40
0.0
 40
0.0
 40
0.0
 40
0.0
 40
1.0
 40
1.0
 40
1.0
 40
2.0
 40
2.0
 40
2.0
 40
3.0
 40
3.0
 40
3.0
 40
4.0
 40
4.0
 40
4.0
 40
5.0
 40
5.0
 40
5.0
 40
6.0
 40
6.0
 40
6.0
 40
7.0
 40
7.0
 40
7.0
 40
7.0
 10
90.28423934374838
 20
-141.5271063556772
 10
90.28423934374838
 20
-141.5271063556772
 10
90.28423934374838
 20
-140.4227809978804
 10
90.28423934374838
 20
-140.4227809978804
 10
90.28423934374838
 20
-140.4227809978804
 10
89.95419919626145
 20
-140.4227809978804
 10
89.95419919626145
 20
-140.4227809978804
 10
89.95419919626145
 20
-140.4227809978804
 10
89.95419919626145
 20
-140.2746418920147
 10
89.95419919626145
 20
-140.2746418920147
 10
90.28630640103953
 20
-140.2600002362023
 10
90.33281519009042
 20
-140.09704721975
 10
90.36244301126357
 20
-139.982842304414
 10
90.36244301126357
 20
-139.982842304414
 10
90.50851505983814
 20
-139.982842304414
 10
90.50851505983814
 20
-139.982842304414
 10
90.50851505983814
 20
-139.982842304414
 10
90.50851505983814
 20
-141.5271063556772
 10
90.50851505983814
 20
-141.5271063556772
 10
90.50851505983814
 20
-141.5271063556772
 10
90.28423934374838
 20
-141.5271063556772
 10
90.28423934374838
 20
-141.5271063556772
 97
        0
 97
        1
330
103
 75
     2
 76
     1
 98
        1
 10
0.0
 20
0.0
450
        0
451
        0
460
0.0
461
0.0
452
        0
462
0.0
453
        0
470

  0
ENDBLK
  5
100
330
FD
100
AcDbEntity
  8
0
100
AcDbBlockEnd
  0
BLOCK
  5
109
330
107
100
AcDbEntity
  8
0
100
AcDbBlockBegin
  2
Block_5
 70
     0
 10
0.0
 20
0.0
 30
0.0
  3
Block_5
  1

  0
SPLINE
  5
10B
330
107
100
AcDbEntity
  8
レイヤー 1
100
AcDbSpline
210
0.0
220
0.0
230
1.0
 70
     9
 71
     3
 72
    53
 73
    49
 74
     0
 42
0.0000000001
 43
0.0000000001
 40
0.0
 40
0.0
 40
0.0
 40
0.0
 40
1.0
 40
1.0
 40
1.0
 40
2.0
 40
2.0
 40
2.0
 40
3.0
 40
3.0
 40
3.0
 40
4.0
 40
4.0
 40
4.0
 40
5.0
 40
5.0
 40
5.0
 40
6.0
 40
6.0
 40
6.0
 40
7.0
 40
7.0
 40
7.0
 40
8.0
 40
8.0
 40
8.0
 40
9.0
 40
9.0
 40
9.0
 40
10.0
 40
10.0
 40
10.0
 40
11.0
 40
11.0
 40
11.0
 40
12.0
 40
12.0
 40
12.0
 40
13.0
 40
13.0
 40
13.0
 40
14.0
 40
14.0
 40
14.0
 40
15.0
 40
15.0
 40
15.0
 40
16.0
 40
16.0
 40
16.0
 40
16.0
 10
74.65745847742939
 20
-150.6388671498403
 30
0.0
 10
74.65745847742939
 20
-150.7170708173554
 30
0.0
 10
74.64040525477741
 20
-150.8187011341703
 30
0.0
 10
74.5770154978488
 20
-150.9203314509852
 30
0.0
 10
74.46694469709507
 20
-151.0936197538933
 30
0.0
 10
74.33585881388132
 20
-151.1149793459018
 30
0.0
 10
74.228027325193
 20
-151.1339273710707
 30
0.0
 10
74.228027325193
 20
-151.1339273710707
 30
0.0
 10
74.228027325193
 20
-150.9117187122721
 30
0.0
 10
74.228027325193
 20
-150.9117187122721
 30
0.0
 10
74.42680933469191
 20
-150.8569416940566
 30
0.0
 10
74.45643715586506
 20
-150.7298176706509
 30
0.0
 10
74.45643715586506
 20
-150.6368000925491
 30
0.0
 10
74.45643715586506
 20
-150.4972737253965
 30
0.0
 10
74.3570461511156
 20
-150.3450005049485
 30
0.0
 10
74.12432995108698
 20
-150.3450005049485
 30
0.0
 10
73.86835935653292
 20
-150.3450005049485
 30
0.0
 10
73.79859617295661
 20
-150.5248344892785
 30
0.0
 10
73.79859617295661
 20
-150.6454128312622
 30
0.0
 10
73.79859617295661
 20
-150.6771077097265
 30
0.0
 10
73.79859617295661
 20
-150.8187011341703
 30
0.0
 10
73.92761499887921
 20
-150.9075845976898
 30
0.0
 10
73.92761499887921
 20
-150.9075845976898
 30
0.0
 10
73.90849471893607
 20
-151.0832844674375
 30
0.0
 10
73.90849471893607
 20
-151.0832844674375
 30
0.0
 10
73.90849471893607
 20
-151.0832844674375
 30
0.0
 10
73.06237926775871
 20
-150.9627061254537
 30
0.0
 10
73.06237926775871
 20
-150.9627061254537
 30
0.0
 10
73.06237926775871
 20
-150.9627061254537
 30
0.0
 10
73.06237926775871
 20
-150.1841145457873
 30
0.0
 10
73.06237926775871
 20
-150.1841145457873
 30
0.0
 10
73.06237926775871
 20
-150.1841145457873
 30
0.0
 10
73.25702716267532
 20
-150.1841145457873
 30
0.0
 10
73.25702716267532
 20
-150.1841145457873
 30
0.0
 10
73.25702716267532
 20
-150.1841145457873
 30
0.0
 10
73.25702716267532
 20
-150.7997531090014
 30
0.0
 10
73.25702716267532
 20
-150.7997531090014
 30
0.0
 10
73.25702716267532
 20
-150.7997531090014
 30
0.0
 10
73.68008488826401
 20
-150.8652099232212
 30
0.0
 10
73.68008488826401
 20
-150.8652099232212
 30
0.0
 10
73.6461506977343
 20
-150.8038872235837
 30
0.0
 10
73.60601533533113
 20
-150.7215494414863
 30
0.0
 10
73.60601533533113
 20
-150.6030381567937
 30
0.0
 10
73.60601533533113
 20
-150.3491346195308
 30
0.0
 10
73.79222274630889
 20
-150.1121120501456
 30
0.0
 10
74.10520967114384
 20
-150.1121120501456
 30
0.0
 10
74.42267522010961
 20
-150.1121120501456
 30
0.0
 10
74.65745847742939
 20
-150.3363877662353
 30
0.0
 10
74.65745847742939
 20
-150.6388671498403
 30
0.0
  0
HATCH
  5
10C
330
107
100
AcDbEntity
  8
レイヤー 1
 62
    18
420
        0
440
 33554687
100
AcDbHatch
 10
0.0
 20
0.0
 30
0.0
210
0.0
220
0.0
230
1.0
  2
SOLID
 70
     1
 71
     1
 91
        1
 92
        1
 93
        1
 72
     4
 94
        3
 73
     0
 74
     0
 95
       53
 96
       49
 40
0.0
 40
0.0
 40
0.0
 40
0.0
 40
1.0
 40
1.0
 40
1.0
 40
2.0
 40
2.0
 40
2.0
 40
3.0
 40
3.0
 40
3.0
 40
4.0
 40
4.0
 40
4.0
 40
5.0
 40
5.0
 40
5.0
 40
6.0
 40
6.0
 40
6.0
 40
7.0
 40
7.0
 40
7.0
 40
8.0
 40
8.0
 40
8.0
 40
9.0
 40
9.0
 40
9.0
 40
10.0
 40
10.0
 40
10.0
 40
11.0
 40
11.0
 40
11.0
 40
12.0
 40
12.0
 40
12.0
 40
13.0
 40
13.0
 40
13.0
 40
14.0
 40
14.0
 40
14.0
 40
15.0
 40
15.0
 40
15.0
 40
16.0
 40
16.0
 40
16.0
 40
16.0
 10
74.65745847742939
 20
-150.6388671498403
 10
74.65745847742939
 20
-150.7170708173554
 10
74.64040525477741
 20
-150.8187011341703
 10
74.5770154978488
 20
-150.9203314509852
 10
74.46694469709507
 20
-151.0936197538933
 10
74.33585881388132
 20
-151.1149793459018
 10
74.228027325193
 20
-151.1339273710707
 10
74.228027325193
 20
-151.1339273710707
 10
74.228027325193
 20
-150.9117187122721
 10
74.228027325193
 20
-150.9117187122721
 10
74.42680933469191
 20
-150.8569416940566
 10
74.45643715586506
 20
-150.7298176706509
 10
74.45643715586506
 20
-150.6368000925491
 10
74.45643715586506
 20
-150.4972737253965
 10
74.3570461511156
 20
-150.3450005049485
 10
74.12432995108698
 20
-150.3450005049485
 10
73.86835935653292
 20
-150.3450005049485
 10
73.79859617295661
 20
-150.5248344892785
 10
73.79859617295661
 20
-150.6454128312622
 10
73.79859617295661
 20
-150.6771077097265
 10
73.79859617295661
 20
-150.8187011341703
 10
73.92761499887921
 20
-150.9075845976898
 10
73.92761499887921
 20
-150.9075845976898
 10
73.90849471893607
 20
-151.0832844674375
 10
73.90849471893607
 20
-151.0832844674375
 10
73.90849471893607
 20
-151.0832844674375
 10
73.06237926775871
 20
-150.9627061254537
 10
73.06237926775871
 20
-150.9627061254537
 10
73.06237926775871
 20
-150.9627061254537
 10
73.06237926775871
 20
-150.1841145457873
 10
73.06237926775871
 20
-150.1841145457873
 10
73.06237926775871
 20
-150.1841145457873
 10
73.25702716267532
 20
-150.1841145457873
 10
73.25702716267532
 20
-150.1841145457873
 10
73.25702716267532
 20
-150.1841145457873
 10
73.25702716267532
 20
-150.7997531090014
 10
73.25702716267532
 20
-150.7997531090014
 10
73.25702716267532
 20
-150.7997531090014
 10
73.68008488826401
 20
-150.8652099232212
 10
73.68008488826401
 20
-150.8652099232212
 10
73.6461506977343
 20
-150.8038872235837
 10
73.60601533533113
 20
-150.7215494414863
 10
73.60601533533113
 20
-150.6030381567937
 10
73.60601533533113
 20
-150.3491346195308
 10
73.79222274630889
 20
-150.1121120501456
 10
74.10520967114384
 20
-150.1121120501456
 10
74.42267522010961
 20
-150.1121120501456
 10
74.65745847742939
 20
-150.3363877662353
 10
74.65745847742939
 20
-150.6388671498403
 97
        0
 97
        1
330
10B
 75
     2
 76
     1
 98
        1
 10
0.0
 20
0.0
450
        0
451
        0
460
0.0
461
0.0
452
        0
462
0.0
453
        0
470

  0
ENDBLK
  5
10A
330
107
100
AcDbEntity
  8
0
100
AcDbBlockEnd
  0
BLOCK
  5
111
330
10F
100
AcDbEntity
  8
0
100
AcDbBlockBegin
  2
Block_6
 70
     0
 10
0.0
 20
0.0
 30
0.0
  3
Block_6
  1

  0
INSERT
  5
114
330
10F
100
AcDbEntity
  8
レイヤー 1
100
AcDbBlockReference
  2
Block_7
 10
0.0
 20
0.0
 30
0.0
  0
ENDBLK
  5
112
330
10F
100
AcDbEntity
  8
0
100
AcDbBlockEnd
  0
BLOCK
  5
115
330
113
100
AcDbEntity
  8
0
100
AcDbBlockBegin
  2
Block_7
 70
     0
 10
0.0
 20
0.0
 30
0.0
  3
Block_7
  1

  0
SPLINE
  5
117
330
113
100
AcDbEntity
  8
レイヤー 1
100
AcDbSpline
210
0.0
220
0.0
230
1.0
 70
     9
 71
     3
 72
    44
 73
    40
 74
     0
 42
0.0000000001
 43
0.0000000001
 40
0.0
 40
0.0
 40
0.0
 40
0.0
 40
1.0
 40
1.0
 40
1.0
 40
2.0
 40
2.0
 40
2.0
 40
3.0
 40
3.0
 40
3.0
 40
4.0
 40
4.0
 40
4.0
 40
5.0
 40
5.0
 40
5.0
 40
6.0
 40
6.0
 40
6.0
 40
7.0
 40
7.0
 40
7.0
 40
8.0
 40
8.0
 40
8.0
 40
9.0
 40
9.0
 40
9.0
 40
10.0
 40
10.0
 40
10.0
 40
11.0
 40
11.0
 40
11.0
 40
12.0
 40
12.0
 40
12.0
 40
13.0
 40
13.0
 40
13.0
 40
13.0
 10
116.2502685256249
 20
-140.9454019829928
 30
0.0
 10
116.0325384909571
 20
-141.1040486300886
 30
0.0
 10
115.9395209128554
 20
-141.1781181830214
 30
0.0
 10
115.8906005569648
 20
-141.3219509195306
 30
0.0
 10
115.8906005569648
 20
-141.3219509195306
 30
0.0
 10
116.6691921366313
 20
-141.3219509195306
 30
0.0
 10
116.6691921366313
 20
-141.3219509195306
 30
0.0
 10
116.6691921366313
 20
-141.3219509195306
 30
0.0
 10
116.6691921366313
 20
-141.5271063556772
 30
0.0
 10
116.6691921366313
 20
-141.5271063556772
 30
0.0
 10
116.6691921366313
 20
-141.5271063556772
 30
0.0
 10
115.6411756438327
 20
-141.5271063556772
 30
0.0
 10
115.6411756438327
 20
-141.5271063556772
 30
0.0
 10
115.672870522297
 20
-141.1695054443083
 30
0.0
 10
115.7383273365168
 20
-141.0913017767931
 30
0.0
 10
116.1234890117677
 20
-140.7929565077705
 30
0.0
 10
116.3794596063218
 20
-140.5941744982716
 30
0.0
 10
116.4449164205415
 20
-140.5264783719864
 30
0.0
 10
116.4449164205415
 20
-140.389019062125
 30
0.0
 10
116.4449164205415
 20
-140.2705077774324
 30
0.0
 10
116.3729139248998
 20
-140.1392496394443
 30
0.0
 10
116.176198972692
 20
-140.1392496394443
 30
0.0
 10
115.9160942635557
 20
-140.1392496394443
 30
0.0
 10
115.9078260343911
 20
-140.3698987821818
 30
0.0
 10
115.9033474102603
 20
-140.4863430095833
 30
0.0
 10
115.9033474102603
 20
-140.4863430095833
 30
0.0
 10
115.6790716941705
 20
-140.4863430095833
 30
0.0
 10
115.6790716941705
 20
-140.4863430095833
 30
0.0
 10
115.6876844328836
 20
-140.3593912409518
 30
0.0
 10
115.6983642288879
 20
-140.2472533829069
 30
0.0
 10
115.7786349536942
 20
-140.1287420982143
 30
0.0
 10
115.8885334996737
 20
-139.9680283938274
 30
0.0
 10
116.0749131654257
 20
-139.9340942032977
 30
0.0
 10
116.1910128832786
 20
-139.9340942032977
 30
0.0
 10
116.4683430698412
 20
-139.9340942032977
 30
0.0
 10
116.6757378180533
 20
-140.1182345569843
 30
0.0
 10
116.6757378180533
 20
-140.3910861194161
 30
0.0
 10
116.6757378180533
 20
-140.6194959500882
 30
0.0
 10
116.5592935906518
 20
-140.7190592096119
 30
0.0
 10
116.2502685256249
 20
-140.9454019829928
 30
0.0
  0
HATCH
  5
118
330
113
100
AcDbEntity
  8
レイヤー 1
 62
    18
420
        0
440
 33554687
100
AcDbHatch
 10
0.0
 20
0.0
 30
0.0
210
0.0
220
0.0
230
1.0
  2
SOLID
 70
     1
 71
     1
 91
        1
 92
        1
 93
        1
 72
     4
 94
        3
 73
     0
 74
     0
 95
       44
 96
       40
 40
0.0
 40
0.0
 40
0.0
 40
0.0
 40
1.0
 40
1.0
 40
1.0
 40
2.0
 40
2.0
 40
2.0
 40
3.0
 40
3.0
 40
3.0
 40
4.0
 40
4.0
 40
4.0
 40
5.0
 40
5.0
 40
5.0
 40
6.0
 40
6.0
 40
6.0
 40
7.0
 40
7.0
 40
7.0
 40
8.0
 40
8.0
 40
8.0
 40
9.0
 40
9.0
 40
9.0
 40
10.0
 40
10.0
 40
10.0
 40
11.0
 40
11.0
 40
11.0
 40
12.0
 40
12.0
 40
12.0
 40
13.0
 40
13.0
 40
13.0
 40
13.0
 10
116.2502685256249
 20
-140.9454019829928
 10
116.0325384909571
 20
-141.1040486300886
 10
115.9395209128554
 20
-141.1781181830214
 10
115.8906005569648
 20
-141.3219509195306
 10
115.8906005569648
 20
-141.3219509195306
 10
116.6691921366313
 20
-141.3219509195306
 10
116.6691921366313
 20
-141.3219509195306
 10
116.6691921366313
 20
-141.3219509195306
 10
116.6691921366313
 20
-141.5271063556772
 10
116.6691921366313
 20
-141.5271063556772
 10
116.6691921366313
 20
-141.5271063556772
 10
115.6411756438327
 20
-141.5271063556772
 10
115.6411756438327
 20
-141.5271063556772
 10
115.672870522297
 20
-141.1695054443083
 10
115.7383273365168
 20
-141.0913017767931
 10
116.1234890117677
 20
-140.7929565077705
 10
116.3794596063218
 20
-140.5941744982716
 10
116.4449164205415
 20
-140.5264783719864
 10
116.4449164205415
 20
-140.389019062125
 10
116.4449164205415
 20
-140.2705077774324
 10
116.3729139248998
 20
-140.1392496394443
 10
116.176198972692
 20
-140.1392496394443
 10
115.9160942635557
 20
-140.1392496394443
 10
115.9078260343911
 20
-140.3698987821818
 10
115.9033474102603
 20
-140.4863430095833
 10
115.9033474102603
 20
-140.4863430095833
 10
115.6790716941705
 20
-140.4863430095833
 10
115.6790716941705
 20
-140.4863430095833
 10
115.6876844328836
 20
-140.3593912409518
 10
115.6983642288879
 20
-140.2472533829069
 10
115.7786349536942
 20
-140.1287420982143
 10
115.8885334996737
 20
-139.9680283938274
 10
116.0749131654257
 20
-139.9340942032977
 10
116.1910128832786
 20
-139.9340942032977
 10
116.4683430698412
 20
-139.9340942032977
 10
116.6757378180533
 20
-140.1182345569843
 10
116.6757378180533
 20
-140.3910861194161
 10
116.6757378180533
 20
-140.6194959500882
 10
116.5592935906518
 20
-140.7190592096119
 10
116.2502685256249
 20
-140.9454019829928
 97
        0
 97
        1
330
117
 75
     2
 76
     1
 98
        1
 10
0.0
 20
0.0
450
        0
451
        0
460
0.0
461
0.0
452
        0
462
0.0
453
        0
470

  0
SPLINE
  5
119
330
113
100
AcDbEntity
  8
レイヤー 1
100
AcDbSpline
210
0.0
220
0.0
230
1.0
 70
    11
 71
     3
 72
    26
 73
    22
 74
     0
 42
0.0000000001
 43
0.0000000001
 40
0.0
 40
0.0
 40
0.0
 40
0.0
 40
1.0
 40
1.0
 40
1.0
 40
2.0
 40
2.0
 40
2.0
 40
3.0
 40
3.0
 40
3.0
 40
4.0
 40
4.0
 40
4.0
 40
5.0
 40
5.0
 40
5.0
 40
6.0
 40
6.0
 40
6.0
 40
7.0
 40
7.0
 40
7.0
 40
7.0
 10
117.2855197189425
 20
-141.5271063556772
 30
0.0
 10
117.2855197189425
 20
-141.5271063556772
 30
0.0
 10
117.2855197189425
 20
-140.4227809978804
 30
0.0
 10
117.2855197189425
 20
-140.4227809978804
 30
0.0
 10
117.2855197189425
 20
-140.4227809978804
 30
0.0
 10
116.9554795714556
 20
-140.4227809978804
 30
0.0
 10
116.9554795714556
 20
-140.4227809978804
 30
0.0
 10
116.9554795714556
 20
-140.4227809978804
 30
0.0
 10
116.9554795714556
 20
-140.2746418920147
 30
0.0
 10
116.9554795714556
 20
-140.2746418920147
 30
0.0
 10
117.2875867762336
 20
-140.2600002362023
 30
0.0
 10
117.3340955652845
 20
-140.09704721975
 30
0.0
 10
117.3637233864577
 20
-139.982842304414
 30
0.0
 10
117.3637233864577
 20
-139.982842304414
 30
0.0
 10
117.5097954350323
 20
-139.982842304414
 30
0.0
 10
117.5097954350323
 20
-139.982842304414
 30
0.0
 10
117.5097954350323
 20
-139.982842304414
 30
0.0
 10
117.5097954350323
 20
-141.5271063556772
 30
0.0
 10
117.5097954350323
 20
-141.5271063556772
 30
0.0
 10
117.5097954350323
 20
-141.5271063556772
 30
0.0
 10
117.2855197189425
 20
-141.5271063556772
 30
0.0
 10
117.2855197189425
 20
-141.5271063556772
 30
0.0
  0
HATCH
  5
11A
330
113
100
AcDbEntity
  8
レイヤー 1
 62
    18
420
        0
440
 33554687
100
AcDbHatch
 10
0.0
 20
0.0
 30
0.0
210
0.0
220
0.0
230
1.0
  2
SOLID
 70
     1
 71
     1
 91
        1
 92
        1
 93
        1
 72
     4
 94
        3
 73
     0
 74
     0
 95
       26
 96
       22
 40
0.0
 40
0.0
 40
0.0
 40
0.0
 40
1.0
 40
1.0
 40
1.0
 40
2.0
 40
2.0
 40
2.0
 40
3.0
 40
3.0
 40
3.0
 40
4.0
 40
4.0
 40
4.0
 40
5.0
 40
5.0
 40
5.0
 40
6.0
 40
6.0
 40
6.0
 40
7.0
 40
7.0
 40
7.0
 40
7.0
 10
117.2855197189425
 20
-141.5271063556772
 10
117.2855197189425
 20
-141.5271063556772
 10
117.2855197189425
 20
-140.4227809978804
 10
117.2855197189425
 20
-140.4227809978804
 10
117.2855197189425
 20
-140.4227809978804
 10
116.9554795714556
 20
-140.4227809978804
 10
116.9554795714556
 20
-140.4227809978804
 10
116.9554795714556
 20
-140.4227809978804
 10
116.9554795714556
 20
-140.2746418920147
 10
116.9554795714556
 20
-140.2746418920147
 10
117.2875867762336
 20
-140.2600002362023
 10
117.3340955652845
 20
-140.09704721975
 10
117.3637233864577
 20
-139.982842304414
 10
117.3637233864577
 20
-139.982842304414
 10
117.5097954350323
 20
-139.982842304414
 10
117.5097954350323
 20
-139.982842304414
 10
117.5097954350323
 20
-139.982842304414
 10
117.5097954350323
 20
-141.5271063556772
 10
117.5097954350323
 20
-141.5271063556772
 10
117.5097954350323
 20
-141.5271063556772
 10
117.2855197189425
 20
-141.5271063556772
 10
117.2855197189425
 20
-141.5271063556772
 97
        0
 97
        1
330
119
 75
     2
 76
     1
 98
        1
 10
0.0
 20
0.0
450
        0
451
        0
460
0.0
461
0.0
452
        0
462
0.0
453
        0
470

  0
ENDBLK
  5
116
330
113
100
AcDbEntity
  8
0
100
AcDbBlockEnd
  0
BLOCK
  5
120
330
11E
100
AcDbEntity
  8
0
100
AcDbBlockBegin
  2
Block_8
 70
     0
 10
0.0
 20
0.0
 30
0.0
  3
Block_8
  1

  0
SPLINE
  5
122
330
11E
100
AcDbEntity
  8
レイヤー 1
100
AcDbSpline
210
0.0
220
0.0
230
1.0
 70
     9
 71
     3
 72
    17
 73
    13
 74
     0
 42
0.0000000001
 43
0.0000000001
 40
0.0
 40
0.0
 40
0.0
 40
0.0
 40
1.0
 40
1.0
 40
1.0
 40
2.0
 40
2.0
 40
2.0
 40
3.0
 40
3.0
 40
3.0
 40
4.0
 40
4.0
 40
4.0
 40
4.0
 10
103.344940837879
 20
-140.7187147000634
 30
0.0
 10
103.0825968166772
 20
-140.7187147000634
 30
0.0
 10
103.0445285115652
 20
-140.9302435628577
 30
0.0
 10
103.0445285115652
 20
-141.0465155354849
 30
0.0
 10
103.0445285115652
 20
-141.2220431504584
 30
0.0
 10
103.1397854017324
 20
-141.3849961669107
 30
0.0
 10
103.3237535006447
 20
-141.3849961669107
 30
0.0
 10
103.4443318426285
 20
-141.3849961669107
 30
0.0
 10
103.6200317123762
 20
-141.3257405245644
 30
0.0
 10
103.6200317123762
 20
-141.0401421088372
 30
0.0
 10
103.6200317123762
 20
-140.8158663927474
 30
0.0
 10
103.4803330904493
 20
-140.7187147000634
 30
0.0
 10
103.344940837879
 20
-140.7187147000634
 30
0.0
  0
SPLINE
  5
123
330
11E
100
AcDbEntity
  8
レイヤー 1
100
AcDbSpline
210
0.0
220
0.0
230
1.0
 70
     9
 71
     3
 72
    32
 73
    28
 74
     0
 42
0.0000000001
 43
0.0000000001
 40
0.0
 40
0.0
 40
0.0
 40
0.0
 40
1.0
 40
1.0
 40
1.0
 40
2.0
 40
2.0
 40
2.0
 40
3.0
 40
3.0
 40
3.0
 40
4.0
 40
4.0
 40
4.0
 40
5.0
 40
5.0
 40
5.0
 40
6.0
 40
6.0
 40
6.0
 40
7.0
 40
7.0
 40
7.0
 40
8.0
 40
8.0
 40
8.0
 40
9.0
 40
9.0
 40
9.0
 40
9.0
 10
103.3280598700013
 20
-141.5775770045362
 30
0.0
 10
102.8118123115366
 20
-141.5775770045362
 30
0.0
 10
102.8033718275978
 20
-141.0232611409595
 30
0.0
 10
102.8033718275978
 20
-140.8096652208739
 30
0.0
 10
102.8033718275978
 20
-140.5790160781365
 30
0.0
 10
102.8224921075409
 20
-139.931682636458
 30
0.0
 10
103.3661281751133
 20
-139.931682636458
 30
0.0
 10
103.5395887327956
 20
-139.931682636458
 30
0.0
 10
103.7848795313454
 20
-140.0014458200343
 30
0.0
 10
103.8231200912317
 20
-140.3335530248124
 30
0.0
 10
103.8231200912317
 20
-140.3335530248124
 30
0.0
 10
103.6093519163719
 20
-140.3335530248124
 30
0.0
 10
103.6093519163719
 20
-140.3335530248124
 30
0.0
 10
103.5988443751419
 20
-140.2765366945315
 30
0.0
 10
103.5671494966776
 20
-140.1283975886658
 30
0.0
 10
103.3640611178222
 20
-140.1283975886658
 30
0.0
 10
103.0720892754472
 20
-140.1283975886658
 30
0.0
 10
103.0317816582698
 20
-140.4563706788616
 30
0.0
 10
103.0192070597486
 20
-140.6615261150082
 30
0.0
 10
103.1122246378504
 20
-140.583322447493
 30
0.0
 10
103.1799207641356
 20
-140.5240668051467
 30
0.0
 10
103.3618218057567
 20
-140.5240668051467
 30
0.0
 10
103.5416557900868
 20
-140.5240668051467
 30
0.0
 10
103.8441351736917
 20
-140.6318982938351
 30
0.0
 10
103.8441351736917
 20
-141.038075051546
 30
0.0
 10
103.8441351736917
 20
-141.3574354030287
 30
0.0
 10
103.6453531641928
 20
-141.5775770045362
 30
0.0
 10
103.3280598700013
 20
-141.5775770045362
 30
0.0
  0
HATCH
  5
124
330
11E
100
AcDbEntity
  8
レイヤー 1
 62
    18
420
        0
440
 33554687
100
AcDbHatch
 10
0.0
 20
0.0
 30
0.0
210
0.0
220
0.0
230
1.0
  2
SOLID
 70
     1
 71
     1
 91
        2
 92
        1
 93
        1
 72
     4
 94
        3
 73
     0
 74
     0
 95
       17
 96
       13
 40
0.0
 40
0.0
 40
0.0
 40
0.0
 40
1.0
 40
1.0
 40
1.0
 40
2.0
 40
2.0
 40
2.0
 40
3.0
 40
3.0
 40
3.0
 40
4.0
 40
4.0
 40
4.0
 40
4.0
 10
103.344940837879
 20
-140.7187147000634
 10
103.0825968166772
 20
-140.7187147000634
 10
103.0445285115652
 20
-140.9302435628577
 10
103.0445285115652
 20
-141.0465155354849
 10
103.0445285115652
 20
-141.2220431504584
 10
103.1397854017324
 20
-141.3849961669107
 10
103.3237535006447
 20
-141.3849961669107
 10
103.4443318426285
 20
-141.3849961669107
 10
103.6200317123762
 20
-141.3257405245644
 10
103.6200317123762
 20
-141.0401421088372
 10
103.6200317123762
 20
-140.8158663927474
 10
103.4803330904493
 20
-140.7187147000634
 10
103.344940837879
 20
-140.7187147000634
 97
        0
 97
        1
330
122
 92
        1
 93
        1
 72
     4
 94
        3
 73
     0
 74
     0
 95
       32
 96
       28
 40
0.0
 40
0.0
 40
0.0
 40
0.0
 40
1.0
 40
1.0
 40
1.0
 40
2.0
 40
2.0
 40
2.0
 40
3.0
 40
3.0
 40
3.0
 40
4.0
 40
4.0
 40
4.0
 40
5.0
 40
5.0
 40
5.0
 40
6.0
 40
6.0
 40
6.0
 40
7.0
 40
7.0
 40
7.0
 40
8.0
 40
8.0
 40
8.0
 40
9.0
 40
9.0
 40
9.0
 40
9.0
 10
103.3280598700013
 20
-141.5775770045362
 10
102.8118123115366
 20
-141.5775770045362
 10
102.8033718275978
 20
-141.0232611409595
 10
102.8033718275978
 20
-140.8096652208739
 10
102.8033718275978
 20
-140.5790160781365
 10
102.8224921075409
 20
-139.931682636458
 10
103.3661281751133
 20
-139.931682636458
 10
103.5395887327956
 20
-139.931682636458
 10
103.7848795313454
 20
-140.0014458200343
 10
103.8231200912317
 20
-140.3335530248124
 10
103.8231200912317
 20
-140.3335530248124
 10
103.6093519163719
 20
-140.3335530248124
 10
103.6093519163719
 20
-140.3335530248124
 10
103.5988443751419
 20
-140.2765366945315
 10
103.5671494966776
 20
-140.1283975886658
 10
103.3640611178222
 20
-140.1283975886658
 10
103.0720892754472
 20
-140.1283975886658
 10
103.0317816582698
 20
-140.4563706788616
 10
103.0192070597486
 20
-140.6615261150082
 10
103.1122246378504
 20
-140.583322447493
 10
103.1799207641356
 20
-140.5240668051467
 10
103.3618218057567
 20
-140.5240668051467
 10
103.5416557900868
 20
-140.5240668051467
 10
103.8441351736917
 20
-140.6318982938351
 10
103.8441351736917
 20
-141.038075051546
 10
103.8441351736917
 20
-141.3574354030287
 10
103.6453531641928
 20
-141.5775770045362
 10
103.3280598700013
 20
-141.5775770045362
 97
        0
 97
        1
330
123
 75
     2
 76
     1
 98
        1
 10
0.0
 20
0.0
450
        0
451
        0
460
0.0
461
0.0
452
        0
462
0.0
453
        0
470

  0
ENDBLK
  5
121
330
11E
100
AcDbEntity
  8
0
100
AcDbBlockEnd
  0
BLOCK
  5
12C
330
12A
100
AcDbEntity
  8
0
100
AcDbBlockBegin
  2
Block_9
 70
     0
 10
0.0
 20
0.0
 30
0.0
  3
Block_9
  1

  0
SPLINE
  5
12E
330
12A
100
AcDbEntity
  8
レイヤー 1
100
AcDbSpline
210
0.0
220
0.0
230
1.0
 70
     9
 71
     3
 72
    17
 73
    13
 74
     0
 42
0.0000000001
 43
0.0000000001
 40
0.0
 40
0.0
 40
0.0
 40
0.0
 40
1.0
 40
1.0
 40
1.0
 40
2.0
 40
2.0
 40
2.0
 40
3.0
 40
3.0
 40
3.0
 40
4.0
 40
4.0
 40
4.0
 40
4.0
 10
103.1265217841142
 20
-154.8119113111234
 30
0.0
 10
102.9615017103707
 20
-154.8119113111234
 30
0.0
 10
102.8767523614336
 20
-154.9069959465163
 30
0.0
 10
102.8767523614336
 20
-155.0423881990866
 30
0.0
 10
102.8767523614336
 20
-155.1650335983615
 30
0.0
 10
102.9487548570753
 20
-155.2835448830541
 30
0.0
 10
103.1265217841142
 20
-155.2835448830541
 30
0.0
 10
103.3042887111531
 20
-155.2835448830541
 30
0.0
 10
103.3762912067948
 20
-155.1650335983615
 30
0.0
 10
103.3762912067948
 20
-155.0423881990866
 30
0.0
 10
103.3762912067948
 20
-154.9069959465163
 30
0.0
 10
103.2894748005665
 20
-154.8119113111234
 30
0.0
 10
103.1265217841142
 20
-154.8119113111234
 30
0.0
  0
SPLINE
  5
12F
330
12A
100
AcDbEntity
  8
レイヤー 1
100
AcDbSpline
210
0.0
220
0.0
230
1.0
 70
     9
 71
     3
 72
    17
 73
    13
 74
     0
 42
0.0000000001
 43
0.0000000001
 40
0.0
 40
0.0
 40
0.0
 40
0.0
 40
1.0
 40
1.0
 40
1.0
 40
2.0
 40
2.0
 40
2.0
 40
3.0
 40
3.0
 40
3.0
 40
4.0
 40
4.0
 40
4.0
 40
4.0
 10
103.1265217841142
 20
-155.4719916060973
 30
0.0
 10
102.9828613023793
 20
-155.4719916060973
 30
0.0
 10
102.8302435723827
 20
-155.5588080123255
 30
0.0
 10
102.8302435723827
 20
-155.7617241364068
 30
0.0
 10
102.8302435723827
 20
-155.9670518273277
 30
0.0
 10
102.9573675957884
 20
-156.068337634594
 30
0.0
 10
103.1265217841142
 20
-156.068337634594
 30
0.0
 10
103.3125569403177
 20
-156.068337634594
 30
0.0
 10
103.4227999958457
 20
-155.9456922353191
 30
0.0
 10
103.4227999958457
 20
-155.7679253082802
 30
0.0
 10
103.4227999958457
 20
-155.5460611590301
 30
0.0
 10
103.2598469793933
 20
-155.4719916060973
 30
0.0
 10
103.1265217841142
 20
-155.4719916060973
 30
0.0
  0
SPLINE
  5
130
330
12A
100
AcDbEntity
  8
レイヤー 1
100
AcDbSpline
210
0.0
220
0.0
230
1.0
 70
     9
 71
     3
 72
    29
 73
    25
 74
     0
 42
0.0000000001
 43
0.0000000001
 40
0.0
 40
0.0
 40
0.0
 40
0.0
 40
1.0
 40
1.0
 40
1.0
 40
2.0
 40
2.0
 40
2.0
 40
3.0
 40
3.0
 40
3.0
 40
4.0
 40
4.0
 40
4.0
 40
5.0
 40
5.0
 40
5.0
 40
6.0
 40
6.0
 40
6.0
 40
7.0
 40
7.0
 40
7.0
 40
8.0
 40
8.0
 40
8.0
 40
8.0
 10
103.1265217841142
 20
-156.2629855295106
 30
0.0
 10
102.8598713935558
 20
-156.2629855295106
 30
0.0
 10
102.6059678562929
 20
-156.1255262196491
 30
0.0
 10
102.6059678562929
 20
-155.7765380469934
 30
0.0
 10
102.6059678562929
 20
-155.5205674524393
 30
0.0
 10
102.7479057902852
 20
-155.4254828170464
 30
0.0
 10
102.8536702216824
 20
-155.3641601174089
 30
0.0
 10
102.7289577651163
 20
-155.3049044750626
 30
0.0
 10
102.6528211548923
 20
-155.1905273049524
 30
0.0
 10
102.6528211548923
 20
-155.0296413457912
 30
0.0
 10
102.6528211548923
 20
-154.7547227260683
 30
0.0
 10
102.8516031643912
 20
-154.6193304734979
 30
0.0
 10
103.1265217841142
 20
-154.6193304734979
 30
0.0
 10
103.4100531425502
 20
-154.6193304734979
 30
0.0
 10
103.6005669228845
 20
-154.7633354647814
 30
0.0
 10
103.6005669228845
 20
-155.0296413457912
 30
0.0
 10
103.6005669228845
 20
-155.1905273049524
 30
0.0
 10
103.5220187458209
 20
-155.3049044750626
 30
0.0
 10
103.3973062892548
 20
-155.3641601174089
 30
0.0
 10
103.4861897527743
 20
-155.4148030210421
 30
0.0
 10
103.6450086546443
 20
-155.509887656435
 30
0.0
 10
103.6450086546443
 20
-155.772403932411
 30
0.0
 10
103.6450086546443
 20
-156.1468858116577
 30
0.0
 10
103.3656114107905
 20
-156.2629855295106
 30
0.0
 10
103.1265217841142
 20
-156.2629855295106
 30
0.0
  0
HATCH
  5
131
330
12A
100
AcDbEntity
  8
レイヤー 1
 62
    18
420
        0
440
 33554687
100
AcDbHatch
 10
0.0
 20
0.0
 30
0.0
210
0.0
220
0.0
230
1.0
  2
SOLID
 70
     1
 71
     1
 91
        3
 92
        1
 93
        1
 72
     4
 94
        3
 73
     0
 74
     0
 95
       17
 96
       13
 40
0.0
 40
0.0
 40
0.0
 40
0.0
 40
1.0
 40
1.0
 40
1.0
 40
2.0
 40
2.0
 40
2.0
 40
3.0
 40
3.0
 40
3.0
 40
4.0
 40
4.0
 40
4.0
 40
4.0
 10
103.1265217841142
 20
-154.8119113111234
 10
102.9615017103707
 20
-154.8119113111234
 10
102.8767523614336
 20
-154.9069959465163
 10
102.8767523614336
 20
-155.0423881990866
 10
102.8767523614336
 20
-155.1650335983615
 10
102.9487548570753
 20
-155.2835448830541
 10
103.1265217841142
 20
-155.2835448830541
 10
103.3042887111531
 20
-155.2835448830541
 10
103.3762912067948
 20
-155.1650335983615
 10
103.3762912067948
 20
-155.0423881990866
 10
103.3762912067948
 20
-154.9069959465163
 10
103.2894748005665
 20
-154.8119113111234
 10
103.1265217841142
 20
-154.8119113111234
 97
        0
 97
        1
330
12E
 92
        1
 93
        1
 72
     4
 94
        3
 73
     0
 74
     0
 95
       17
 96
       13
 40
0.0
 40
0.0
 40
0.0
 40
0.0
 40
1.0
 40
1.0
 40
1.0
 40
2.0
 40
2.0
 40
2.0
 40
3.0
 40
3.0
 40
3.0
 40
4.0
 40
4.0
 40
4.0
 40
4.0
 10
103.1265217841142
 20
-155.4719916060973
 10
102.9828613023793
 20
-155.4719916060973
 10
102.8302435723827
 20
-155.5588080123255
 10
102.8302435723827
 20
-155.7617241364068
 10
102.8302435723827
 20
-155.9670518273277
 10
102.9573675957884
 20
-156.068337634594
 10
103.1265217841142
 20
-156.068337634594
 10
103.3125569403177
 20
-156.068337634594
 10
103.4227999958457
 20
-155.9456922353191
 10
103.4227999958457
 20
-155.7679253082802
 10
103.4227999958457
 20
-155.5460611590301
 10
103.2598469793933
 20
-155.4719916060973
 10
103.1265217841142
 20
-155.4719916060973
 97
        0
 97
        1
330
12F
 92
        1
 93
        1
 72
     4
 94
        3
 73
     0
 74
     0
 95
       29
 96
       25
 40
0.0
 40
0.0
 40
0.0
 40
0.0
 40
1.0
 40
1.0
 40
1.0
 40
2.0
 40
2.0
 40
2.0
 40
3.0
 40
3.0
 40
3.0
 40
4.0
 40
4.0
 40
4.0
 40
5.0
 40
5.0
 40
5.0
 40
6.0
 40
6.0
 40
6.0
 40
7.0
 40
7.0
 40
7.0
 40
8.0
 40
8.0
 40
8.0
 40
8.0
 10
103.1265217841142
 20
-156.2629855295106
 10
102.8598713935558
 20
-156.2629855295106
 10
102.6059678562929
 20
-156.1255262196491
 10
102.6059678562929
 20
-155.7765380469934
 10
102.6059678562929
 20
-155.5205674524393
 10
102.7479057902852
 20
-155.4254828170464
 10
102.8536702216824
 20
-155.3641601174089
 10
102.7289577651163
 20
-155.3049044750626
 10
102.6528211548923
 20
-155.1905273049524
 10
102.6528211548923
 20
-155.0296413457912
 10
102.6528211548923
 20
-154.7547227260683
 10
102.8516031643912
 20
-154.6193304734979
 10
103.1265217841142
 20
-154.6193304734979
 10
103.4100531425502
 20
-154.6193304734979
 10
103.6005669228845
 20
-154.7633354647814
 10
103.6005669228845
 20
-155.0296413457912
 10
103.6005669228845
 20
-155.1905273049524
 10
103.5220187458209
 20
-155.3049044750626
 10
103.3973062892548
 20
-155.3641601174089
 10
103.4861897527743
 20
-155.4148030210421
 10
103.6450086546443
 20
-155.509887656435
 10
103.6450086546443
 20
-155.772403932411
 10
103.6450086546443
 20
-156.1468858116577
 10
103.3656114107905
 20
-156.2629855295106
 10
103.1265217841142
 20
-156.2629855295106
 97
        0
 97
        1
330
130
 75
     2
 76
     1
 98
        1
 10
0.0
 20
0.0
450
        0
451
        0
460
0.0
461
0.0
452
        0
462
0.0
453
        0
470

  0
ENDBLK
  5
12D
330
12A
100
AcDbEntity
  8
0
100
AcDbBlockEnd
  0
BLOCK
  5
135
330
133
100
AcDbEntity
  8
0
100
AcDbBlockBegin
  2
Block_10
 70
     0
 10
0.0
 20
0.0
 30
0.0
  3
Block_10
  1

  0
SPLINE
  5
137
330
133
100
AcDbEntity
  8
レイヤー 1
100
AcDbSpline
210
0.0
220
0.0
230
1.0
 70
    11
 71
     3
 72
    26
 73
    22
 74
     0
 42
0.0000000001
 43
0.0000000001
 40
0.0
 40
0.0
 40
0.0
 40
0.0
 40
1.0
 40
1.0
 40
1.0
 40
2.0
 40
2.0
 40
2.0
 40
3.0
 40
3.0
 40
3.0
 40
4.0
 40
4.0
 40
4.0
 40
5.0
 40
5.0
 40
5.0
 40
6.0
 40
6.0
 40
6.0
 40
7.0
 40
7.0
 40
7.0
 40
7.0
 10
109.2229627548123
 20
-149.7331515467681
 30
0.0
 10
109.2229627548123
 20
-149.7331515467681
 30
0.0
 10
109.2229627548123
 20
-148.6289984437455
 30
0.0
 10
109.2229627548123
 20
-148.6289984437455
 30
0.0
 10
109.2229627548123
 20
-148.6289984437455
 30
0.0
 10
108.8929226073254
 20
-148.6289984437455
 30
0.0
 10
108.8929226073254
 20
-148.6289984437455
 30
0.0
 10
108.8929226073254
 20
-148.6289984437455
 30
0.0
 10
108.8929226073254
 20
-148.4808593378798
 30
0.0
 10
108.8929226073254
 20
-148.4808593378798
 30
0.0
 10
109.2250298121034
 20
-148.4662176820675
 30
0.0
 10
109.2715386011543
 20
-148.3032646656151
 30
0.0
 10
109.3011664223275
 20
-148.1890597502791
 30
0.0
 10
109.3011664223275
 20
-148.1890597502791
 30
0.0
 10
109.447238470902
 20
-148.1890597502791
 30
0.0
 10
109.447238470902
 20
-148.1890597502791
 30
0.0
 10
109.447238470902
 20
-148.1890597502791
 30
0.0
 10
109.447238470902
 20
-149.7331515467681
 30
0.0
 10
109.447238470902
 20
-149.7331515467681
 30
0.0
 10
109.447238470902
 20
-149.7331515467681
 30
0.0
 10
109.2229627548123
 20
-149.7331515467681
 30
0.0
 10
109.2229627548123
 20
-149.7331515467681
 30
0.0
  0
HATCH
  5
138
330
133
100
AcDbEntity
  8
レイヤー 1
 62
    18
420
        0
440
 33554687
100
AcDbHatch
 10
0.0
 20
0.0
 30
0.0
210
0.0
220
0.0
230
1.0
  2
SOLID
 70
     1
 71
     1
 91
        1
 92
        1
 93
        1
 72
     4
 94
        3
 73
     0
 74
     0
 95
       26
 96
       22
 40
0.0
 40
0.0
 40
0.0
 40
0.0
 40
1.0
 40
1.0
 40
1.0
 40
2.0
 40
2.0
 40
2.0
 40
3.0
 40
3.0
 40
3.0
 40
4.0
 40
4.0
 40
4.0
 40
5.0
 40
5.0
 40
5.0
 40
6.0
 40
6.0
 40
6.0
 40
7.0
 40
7.0
 40
7.0
 40
7.0
 10
109.2229627548123
 20
-149.7331515467681
 10
109.2229627548123
 20
-149.7331515467681
 10
109.2229627548123
 20
-148.6289984437455
 10
109.2229627548123
 20
-148.6289984437455
 10
109.2229627548123
 20
-148.6289984437455
 10
108.8929226073254
 20
-148.6289984437455
 10
108.8929226073254
 20
-148.6289984437455
 10
108.8929226073254
 20
-148.6289984437455
 10
108.8929226073254
 20
-148.4808593378798
 10
108.8929226073254
 20
-148.4808593378798
 10
109.2250298121034
 20
-148.4662176820675
 10
109.2715386011543
 20
-148.3032646656151
 10
109.3011664223275
 20
-148.1890597502791
 10
109.3011664223275
 20
-148.1890597502791
 10
109.447238470902
 20
-148.1890597502791
 10
109.447238470902
 20
-148.1890597502791
 10
109.447238470902
 20
-148.1890597502791
 10
109.447238470902
 20
-149.7331515467681
 10
109.447238470902
 20
-149.7331515467681
 10
109.447238470902
 20
-149.7331515467681
 10
109.2229627548123
 20
-149.7331515467681
 10
109.2229627548123
 20
-149.7331515467681
 97
        0
 97
        1
330
137
 75
     2
 76
     1
 98
        1
 10
0.0
 20
0.0
450
        0
451
        0
460
0.0
461
0.0
452
        0
462
0.0
453
        0
470

  0
ENDBLK
  5
136
330
133
100
AcDbEntity
  8
0
100
AcDbBlockEnd
  0
BLOCK
  5
13B
330
139
100
AcDbEntity
  8
0
100
AcDbBlockBegin
  2
Block_11
 70
     0
 10
0.0
 20
0.0
 30
0.0
  3
Block_11
  1

  0
INSERT
  5
13E
330
139
100
AcDbEntity
  8
レイヤー 1
100
AcDbBlockReference
  2
Block_12
 10
0.0
 20
0.0
 30
0.0
  0
INSERT
  5
145
330
139
100
AcDbEntity
  8
レイヤー 1
100
AcDbBlockReference
  2
Block_13
 10
0.0
 20
0.0
 30
0.0
  0
ENDBLK
  5
13C
330
139
100
AcDbEntity
  8
0
100
AcDbBlockEnd
  0
BLOCK
  5
13F
330
13D
100
AcDbEntity
  8
0
100
AcDbBlockBegin
  2
Block_12
 70
     0
 10
0.0
 20
0.0
 30
0.0
  3
Block_12
  1

  0
LINE
  5
141
330
13D
100
AcDbEntity
  8
レイヤー 1
 62
    18
420
        0
370
     9
100
AcDbLine
 10
121.3260686360746
 20
-148.7531702949642
 30
0.0
 11
122.1373869487095
 21
-149.3377936281513
 31
0.0
  0
LINE
  5
142
330
13D
100
AcDbEntity
  8
レイヤー 1
 62
    18
420
        0
370
     9
100
AcDbLine
 10
121.3260686360746
 20
-148.7531702949642
 30
0.0
 11
123.9036782406221
 21
-151.9102491830642
 31
0.0
  0
LINE
  5
143
330
13D
100
AcDbEntity
  8
レイヤー 1
 62
    18
420
        0
370
     9
100
AcDbLine
 10
121.3260686360746
 20
-148.7531702949642
 30
0.0
 11
121.736349181163
 21
-149.6652419614035
 31
0.0
  0
ENDBLK
  5
140
330
13D
100
AcDbEntity
  8
0
100
AcDbBlockEnd
  0
BLOCK
  5
146
330
144
100
AcDbEntity
  8
0
100
AcDbBlockBegin
  2
Block_13
 70
     0
 10
0.0
 20
0.0
 30
0.0
  3
Block_13
  1

  0
INSERT
  5
149
330
144
100
AcDbEntity
  8
レイヤー 1
100
AcDbBlockReference
  2
Block_14
 10
0.0
 20
0.0
 30
0.0
  0
ENDBLK
  5
147
330
144
100
AcDbEntity
  8
0
100
AcDbBlockEnd
  0
BLOCK
  5
14A
330
148
100
AcDbEntity
  8
0
100
AcDbBlockBegin
  2
Block_14
 70
     0
 10
0.0
 20
0.0
 30
0.0
  3
Block_14
  1

  0
SPLINE
  5
14C
330
148
100
AcDbEntity
  8
レイヤー 1
100
AcDbSpline
210
0.0
220
0.0
230
1.0
 70
     9
 71
     3
 72
    17
 73
    13
 74
     0
 42
0.0000000001
 43
0.0000000001
 40
0.0
 40
0.0
 40
0.0
 40
0.0
 40
1.0
 40
1.0
 40
1.0
 40
2.0
 40
2.0
 40
2.0
 40
3.0
 40
3.0
 40
3.0
 40
4.0
 40
4.0
 40
4.0
 40
4.0
 10
125.5699408323228
 20
-152.3572807778829
 30
0.0
 10
125.553059864445
 20
-152.386908599056
 30
0.0
 10
125.5024169608119
 20
-152.4799261771578
 30
0.0
 10
125.4917371648076
 20
-152.4988742023267
 30
0.0
 10
125.6822509451419
 20
-152.558129844673
 30
0.0
 10
125.703266027602
 20
-152.5646755260949
 30
0.0
 10
125.7752685232436
 20
-152.5918917804284
 30
0.0
 10
125.8300455414591
 20
-152.5054198837486
 30
0.0
 10
125.8534721907588
 20
-152.4313503308158
 30
0.0
 10
125.8682861013454
 20
-152.3572807778829
 30
0.0
 10
125.8682861013454
 20
-152.3572807778829
 30
0.0
 10
125.5699408323228
 20
-152.3572807778829
 30
0.0
 10
125.5699408323228
 20
-152.3572807778829
 30
0.0
  0
SPLINE
  5
14D
330
148
100
AcDbEntity
  8
レイヤー 1
100
AcDbSpline
210
0.0
220
0.0
230
1.0
 70
    11
 71
     3
 72
    20
 73
    16
 74
     0
 42
0.0000000001
 43
0.0000000001
 40
0.0
 40
0.0
 40
0.0
 40
0.0
 40
1.0
 40
1.0
 40
1.0
 40
2.0
 40
2.0
 40
2.0
 40
3.0
 40
3.0
 40
3.0
 40
4.0
 40
4.0
 40
4.0
 40
5.0
 40
5.0
 40
5.0
 40
5.0
 10
125.5065510753942
 20
-151.5066867025747
 30
0.0
 10
125.5065510753942
 20
-151.5066867025747
 30
0.0
 10
125.4748561969299
 20
-151.5066867025747
 30
0.0
 10
125.4748561969299
 20
-151.5066867025747
 30
0.0
 10
125.5213649859808
 20
-151.6062499620984
 30
0.0
 10
125.553059864445
 20
-151.6865206869048
 30
0.0
 10
125.5868218002005
 20
-151.8136447103105
 30
0.0
 10
125.5868218002005
 20
-151.8136447103105
 30
0.0
 10
125.7942165484125
 20
-151.8136447103105
 30
0.0
 10
125.7942165484125
 20
-151.8136447103105
 30
0.0
 10
125.8259114268768
 20
-151.7206271322087
 30
0.0
 10
125.8493380761765
 20
-151.6358777832716
 30
0.0
 10
125.8724202159277
 20
-151.5066867025747
 30
0.0
 10
125.8724202159277
 20
-151.5066867025747
 30
0.0
 10
125.5065510753942
 20
-151.5066867025747
 30
0.0
 10
125.5065510753942
 20
-151.5066867025747
 30
0.0
  0
SPLINE
  5
14E
330
148
100
AcDbEntity
  8
レイヤー 1
100
AcDbSpline
210
0.0
220
0.0
230
1.0
 70
     9
 71
     3
 72
   242
 73
   238
 74
     0
 42
0.0000000001
 43
0.0000000001
 40
0.0
 40
0.0
 40
0.0
 40
0.0
 40
1.0
 40
1.0
 40
1.0
 40
2.0
 40
2.0
 40
2.0
 40
3.0
 40
3.0
 40
3.0
 40
4.0
 40
4.0
 40
4.0
 40
5.0
 40
5.0
 40
5.0
 40
6.0
 40
6.0
 40
6.0
 40
7.0
 40
7.0
 40
7.0
 40
8.0
 40
8.0
 40
8.0
 40
9.0
 40
9.0
 40
9.0
 40
10.0
 40
10.0
 40
10.0
 40
11.0
 40
11.0
 40
11.0
 40
12.0
 40
12.0
 40
12.0
 40
13.0
 40
13.0
 40
13.0
 40
14.0
 40
14.0
 40
14.0
 40
15.0
 40
15.0
 40
15.0
 40
16.0
 40
16.0
 40
16.0
 40
17.0
 40
17.0
 40
17.0
 40
18.0
 40
18.0
 40
18.0
 40
19.0
 40
19.0
 40
19.0
 40
20.0
 40
20.0
 40
20.0
 40
21.0
 40
21.0
 40
21.0
 40
22.0
 40
22.0
 40
22.0
 40
23.0
 40
23.0
 40
23.0
 40
24.0
 40
24.0
 40
24.0
 40
25.0
 40
25.0
 40
25.0
 40
26.0
 40
26.0
 40
26.0
 40
27.0
 40
27.0
 40
27.0
 40
28.0
 40
28.0
 40
28.0
 40
29.0
 40
29.0
 40
29.0
 40
30.0
 40
30.0
 40
30.0
 40
31.0
 40
31.0
 40
31.0
 40
32.0
 40
32.0
 40
32.0
 40
33.0
 40
33.0
 40
33.0
 40
34.0
 40
34.0
 40
34.0
 40
35.0
 40
35.0
 40
35.0
 40
36.0
 40
36.0
 40
36.0
 40
37.0
 40
37.0
 40
37.0
 40
38.0
 40
38.0
 40
38.0
 40
39.0
 40
39.0
 40
39.0
 40
40.0
 40
40.0
 40
40.0
 40
41.0
 40
41.0
 40
41.0
 40
42.0
 40
42.0
 40
42.0
 40
43.0
 40
43.0
 40
43.0
 40
44.0
 40
44.0
 40
44.0
 40
45.0
 40
45.0
 40
45.0
 40
46.0
 40
46.0
 40
46.0
 40
47.0
 40
47.0
 40
47.0
 40
48.0
 40
48.0
 40
48.0
 40
49.0
 40
49.0
 40
49.0
 40
50.0
 40
50.0
 40
50.0
 40
51.0
 40
51.0
 40
51.0
 40
52.0
 40
52.0
 40
52.0
 40
53.0
 40
53.0
 40
53.0
 40
54.0
 40
54.0
 40
54.0
 40
55.0
 40
55.0
 40
55.0
 40
56.0
 40
56.0
 40
56.0
 40
57.0
 40
57.0
 40
57.0
 40
58.0
 40
58.0
 40
58.0
 40
59.0
 40
59.0
 40
59.0
 40
60.0
 40
60.0
 40
60.0
 40
61.0
 40
61.0
 40
61.0
 40
62.0
 40
62.0
 40
62.0
 40
63.0
 40
63.0
 40
63.0
 40
64.0
 40
64.0
 40
64.0
 40
65.0
 40
65.0
 40
65.0
 40
66.0
 40
66.0
 40
66.0
 40
67.0
 40
67.0
 40
67.0
 40
68.0
 40
68.0
 40
68.0
 40
69.0
 40
69.0
 40
69.0
 40
70.0
 40
70.0
 40
70.0
 40
71.0
 40
71.0
 40
71.0
 40
72.0
 40
72.0
 40
72.0
 40
73.0
 40
73.0
 40
73.0
 40
74.0
 40
74.0
 40
74.0
 40
75.0
 40
75.0
 40
75.0
 40
76.0
 40
76.0
 40
76.0
 40
77.0
 40
77.0
 40
77.0
 40
78.0
 40
78.0
 40
78.0
 40
79.0
 40
79.0
 40
79.0
 40
79.0
 10
126.1349364919037
 20
-151.9721191026319
 30
0.0
 10
126.1349364919037
 20
-151.9721191026319
 30
0.0
 10
125.8810329546408
 20
-151.9721191026319
 30
0.0
 10
125.8810329546408
 20
-151.9721191026319
 30
0.0
 10
125.8810329546408
 20
-151.9721191026319
 30
0.0
 10
125.6037027680782
 20
-151.9721191026319
 30
0.0
 10
125.6037027680782
 20
-151.9721191026319
 30
0.0
 10
125.6037027680782
 20
-151.9721191026319
 30
0.0
 10
125.7308267914839
 20
-152.0144937771005
 30
0.0
 10
125.7308267914839
 20
-152.0144937771005
 30
0.0
 10
125.7415065874882
 20
-152.0186278916828
 30
0.0
 10
125.7539089312351
 20
-152.0251735731048
 30
0.0
 10
125.7539089312351
 20
-152.0379204264003
 30
0.0
 10
125.7539089312351
 20
-152.0589355088603
 30
0.0
 10
125.7222140527708
 20
-152.0651366807337
 30
0.0
 10
125.7011989703108
 20
-152.0696153048645
 30
0.0
 10
125.6905191743065
 20
-152.0926974446157
 30
0.0
 10
125.6608913531334
 20
-152.158498768384
 30
0.0
 10
125.6419433279645
 20
-152.2029405001437
 30
0.0
 10
125.6419433279645
 20
-152.2029405001437
 30
0.0
 10
125.9127278331051
 20
-152.2029405001437
 30
0.0
 10
125.9127278331051
 20
-152.2029405001437
 30
0.0
 10
126.0036783539157
 20
-152.2029405001437
 30
0.0
 10
126.2003933061235
 20
-152.1984618760129
 30
0.0
 10
126.3419867305673
 20
-152.1901936468483
 30
0.0
 10
126.3419867305673
 20
-152.1901936468483
 30
0.0
 10
126.3419867305673
 20
-152.3679605738872
 30
0.0
 10
126.3419867305673
 20
-152.3679605738872
 30
0.0
 10
126.2596489484698
 20
-152.3634819497563
 30
0.0
 10
126.2386338660098
 20
-152.3634819497563
 30
0.0
 10
126.0587998816797
 20
-152.359347835174
 30
0.0
 10
126.0271050032154
 20
-152.5136881129132
 30
0.0
 10
125.9826632714557
 20
-152.5943033472681
 30
0.0
 10
125.938221539696
 20
-152.6638942760701
 30
0.0
 10
126.0587998816797
 20
-152.7231499184164
 30
0.0
 10
126.1645643130769
 20
-152.7910182994759
 30
0.0
 10
126.2682616871829
 20
-152.8733560815733
 30
0.0
 10
126.2682616871829
 20
-152.8733560815733
 30
0.0
 10
126.1497504024903
 20
-153.0404432126079
 30
0.0
 10
126.1497504024903
 20
-153.0404432126079
 30
0.0
 10
126.1263237531906
 20
-153.0214951874391
 30
0.0
 10
126.1135768998952
 20
-153.0128824487259
 30
0.0
 10
126.0016112966246
 20
-152.9284776093373
 30
0.0
 10
125.9530354502826
 20
-152.890237049451
 30
0.0
 10
125.8937798079363
 20
-152.8544080564044
 30
0.0
 10
125.8131645735814
 20
-152.8099663246447
 30
0.0
 10
125.6016357107871
 20
-152.9960014808482
 30
0.0
 10
125.3966525294147
 20
-153.0194281301479
 30
0.0
 10
125.1065754895567
 20
-153.0490559513211
 30
0.0
 10
125.1065754895567
 20
-153.0490559513211
 30
0.0
 10
125.0028781154506
 20
-152.869221966991
 30
0.0
 10
125.0028781154506
 20
-152.869221966991
 30
0.0
 10
125.3205159191907
 20
-152.8650878524087
 30
0.0
 10
125.4958712793899
 20
-152.8395941458179
 30
0.0
 10
125.6481444998379
 20
-152.7296955998384
 30
0.0
 10
125.5296332151454
 20
-152.6787081866567
 30
0.0
 10
125.4410942611744
 20
-152.6511474227747
 30
0.0
 10
125.4049207585793
 20
-152.6387450790278
 30
0.0
 10
125.3859727334104
 20
-152.6659613333612
 30
0.0
 10
125.3711588228239
 20
-152.6852538680787
 30
0.0
 10
125.3435980589419
 20
-152.7190158038341
 30
0.0
 10
125.3435980589419
 20
-152.7190158038341
 30
0.0
 10
125.1468831067341
 20
-152.6363335121881
 30
0.0
 10
125.1468831067341
 20
-152.6363335121881
 30
0.0
 10
125.2292208888316
 20
-152.5560627873818
 30
0.0
 10
125.2908880980175
 20
-152.4609781519889
 30
0.0
 10
125.3477321735241
 20
-152.359347835174
 30
0.0
 10
125.1575629027384
 20
-152.3634819497563
 30
0.0
 10
125.1362033107298
 20
-152.3634819497563
 30
0.0
 10
125.0538655286324
 20
-152.3679605738872
 30
0.0
 10
125.0538655286324
 20
-152.3679605738872
 30
0.0
 10
125.0538655286324
 20
-152.1901936468483
 30
0.0
 10
125.0538655286324
 20
-152.1901936468483
 30
0.0
 10
125.193391895785
 20
-152.1963948187217
 30
0.0
 10
125.4028537012882
 20
-152.200528933304
 30
0.0
 10
125.428347407879
 20
-152.200528933304
 30
0.0
 10
125.4452283757567
 20
-152.1667669975486
 30
0.0
 10
125.5000053939722
 20
-152.0461886555648
 30
0.0
 10
125.5192979286896
 20
-151.9721191026319
 30
0.0
 10
125.5000053939722
 20
-151.9721191026319
 30
0.0
 10
125.3225829764818
 20
-151.978664784054
 30
0.0
 10
125.1279350815652
 20
-151.9914116373494
 30
0.0
 10
125.1279350815652
 20
-151.9914116373494
 30
0.0
 10
125.1279350815652
 20
-152.12439232308
 30
0.0
 10
125.1279350815652
 20
-152.12439232308
 30
0.0
 10
125.0793592352232
 20
-152.1498860296708
 30
0.0
 10
125.0201035928769
 20
-152.1815809081352
 30
0.0
 10
124.8867783975977
 20
-152.2473822319034
 30
0.0
 10
124.8867783975977
 20
-152.2473822319034
 30
0.0
 10
124.8867783975977
 20
-152.3931097709295
 30
0.0
 10
124.8867783975977
 20
-152.3931097709295
 30
0.0
 10
124.8867783975977
 20
-152.3931097709295
 30
0.0
 10
124.8867783975977
 20
-152.8606092282779
 30
0.0
 10
124.8867783975977
 20
-152.8606092282779
 30
0.0
 10
124.8867783975977
 20
-152.9877332516836
 30
0.0
 10
124.8506048950026
 20
-153.0469888940299
 30
0.0
 10
124.5670735365665
 20
-153.0383761553168
 30
0.0
 10
124.5670735365665
 20
-153.0383761553168
 30
0.0
 10
124.4637206720091
 20
-152.8309814071047
 30
0.0
 10
124.4637206720091
 20
-152.8309814071047
 30
0.0
 10
124.5271104289376
 20
-152.8437282604001
 30
0.0
 10
124.5756862752797
 20
-152.8478623749825
 30
0.0
 10
124.6159938924571
 20
-152.8478623749825
 30
0.0
 10
124.6921305026811
 20
-152.8478623749825
 30
0.0
 10
124.7024657891369
 20
-152.8247802352313
 30
0.0
 10
124.7024657891369
 20
-152.7593234210115
 30
0.0
 10
124.7024657891369
 20
-152.7593234210115
 30
0.0
 10
124.7024657891369
 20
-152.3297200140009
 30
0.0
 10
124.7024657891369
 20
-152.3297200140009
 30
0.0
 10
124.6053140964528
 20
-152.3700276311783
 30
0.0
 10
124.5884331285751
 20
-152.3762288030518
 30
0.0
 10
124.5419243395242
 20
-152.3951768282206
 30
0.0
 10
124.5377902249419
 20
-152.4165364202292
 30
0.0
 10
124.5333116008111
 20
-152.4461642414023
 30
0.0
 10
124.5143635756422
 20
-152.4461642414023
 30
0.0
 10
124.5057508369291
 20
-152.4461642414023
 30
0.0
 10
124.4954155504733
 20
-152.44203012682
 30
0.0
 10
124.4888698690514
 20
-152.4186034775203
 30
0.0
 10
124.4888698690514
 20
-152.4186034775203
 30
0.0
 10
124.4361599081271
 20
-152.2260226398949
 30
0.0
 10
124.4361599081271
 20
-152.2260226398949
 30
0.0
 10
124.5818874471531
 20
-152.179513850844
 30
0.0
 10
124.6476887709214
 20
-152.1564317110928
 30
0.0
 10
124.7024657891369
 20
-152.1350721190843
 30
0.0
 10
124.7024657891369
 20
-152.1350721190843
 30
0.0
 10
124.7024657891369
 20
-151.7226941894999
 30
0.0
 10
124.7024657891369
 20
-151.7226941894999
 30
0.0
 10
124.7024657891369
 20
-151.7226941894999
 30
0.0
 10
124.6497558282125
 20
-151.7226941894999
 30
0.0
 10
124.6497558282125
 20
-151.7226941894999
 30
0.0
 10
124.6497558282125
 20
-151.7226941894999
 30
0.0
 10
124.5715521606974
 20
-151.7226941894999
 30
0.0
 10
124.5715521606974
 20
-151.7226941894999
 30
0.0
 10
124.5036837796379
 20
-151.7226941894999
 30
0.0
 10
124.4954155504733
 20
-151.7226941894999
 30
0.0
 10
124.4592420478782
 20
-151.7288953613733
 30
0.0
 10
124.4592420478782
 20
-151.7288953613733
 30
0.0
 10
124.4592420478782
 20
-151.5342474664567
 30
0.0
 10
124.4592420478782
 20
-151.5342474664567
 30
0.0
 10
124.4868028117602
 20
-151.5407931478787
 30
0.0
 10
124.4954155504733
 20
-151.5407931478787
 30
0.0
 10
124.5650064792754
 20
-151.5407931478787
 30
0.0
 10
124.5650064792754
 20
-151.5407931478787
 30
0.0
 10
124.6983316745546
 20
-151.5407931478787
 30
0.0
 10
124.6983316745546
 20
-151.5407931478787
 30
0.0
 10
124.6983316745546
 20
-151.4708577095281
 30
0.0
 10
124.6983316745546
 20
-151.3881754178821
 30
0.0
 10
124.6962646172634
 20
-151.3840413032998
 30
0.0
 10
124.6876518785503
 20
-151.2042073189698
 30
0.0
 10
124.6876518785503
 20
-151.1852592938009
 30
0.0
 10
124.6855848212591
 20
-151.13875050475
 30
0.0
 10
124.6855848212591
 20
-151.13875050475
 30
0.0
 10
124.9015923081843
 20
-151.1470187339146
 30
0.0
 10
124.9015923081843
 20
-151.1470187339146
 30
0.0
 10
124.91192759464
 20
-151.1470187339146
 30
0.0
 10
124.9332871866486
 20
-151.1494303007543
 30
0.0
 10
124.9332871866486
 20
-151.166311268632
 30
0.0
 10
124.9332871866486
 20
-151.1852592938009
 30
0.0
 10
124.918473276062
 20
-151.1959390898052
 30
0.0
 10
124.8929795694712
 20
-151.214887114974
 30
0.0
 10
124.8929795694712
 20
-151.2655300186072
 30
0.0
 10
124.8867783975977
 20
-151.4939398492793
 30
0.0
 10
124.8888454548889
 20
-151.5407931478787
 30
0.0
 10
125.0176920260372
 20
-151.5407931478787
 30
0.0
 10
125.0304388793326
 20
-151.5407931478787
 30
0.0
 10
125.1279350815652
 20
-151.5321804091655
 30
0.0
 10
125.1279350815652
 20
-151.5321804091655
 30
0.0
 10
125.1279350815652
 20
-151.7268283040821
 30
0.0
 10
125.1279350815652
 20
-151.7268283040821
 30
0.0
 10
125.0896945216789
 20
-151.724761246791
 30
0.0
 10
125.022170650168
 20
-151.7206271322087
 30
0.0
 10
124.8867783975977
 20
-151.7226941894999
 30
0.0
 10
124.8867783975977
 20
-151.7226941894999
 30
0.0
 10
124.8867783975977
 20
-152.0610025661514
 30
0.0
 10
124.8867783975977
 20
-152.0610025661514
 30
0.0
 10
124.9415554158132
 20
-152.0379204264003
 30
0.0
 10
125.0073567395815
 20
-152.0103596625182
 30
0.0
 10
125.0559325859235
 20
-151.9869330132185
 30
0.0
 10
125.0559325859235
 20
-151.9869330132185
 30
0.0
 10
125.0559325859235
 20
-151.8091660861796
 30
0.0
 10
125.0559325859235
 20
-151.8091660861796
 30
0.0
 10
125.1703097560338
 20
-151.8219129394751
 30
0.0
 10
125.2884765311779
 20
-151.8219129394751
 30
0.0
 10
125.4049207585793
 20
-151.8219129394751
 30
0.0
 10
125.3818386188281
 20
-151.7268283040821
 30
0.0
 10
125.3542778549461
 20
-151.6441460124362
 30
0.0
 10
125.2908880980175
 20
-151.5111653267055
 30
0.0
 10
125.2464463662578
 20
-151.5132323839967
 30
0.0
 10
125.1637640746118
 20
-151.517366498579
 30
0.0
 10
125.1258680242741
 20
-151.5194335558701
 30
0.0
 10
125.1258680242741
 20
-151.5194335558701
 30
0.0
 10
125.1258680242741
 20
-151.3395995715401
 30
0.0
 10
125.1258680242741
 20
-151.3395995715401
 30
0.0
 10
125.2505804808401
 20
-151.3482123102532
 30
0.0
 10
125.4238687837482
 20
-151.3523464248355
 30
0.0
 10
125.5065510753942
 20
-151.3523464248355
 30
0.0
 10
125.5065510753942
 20
-151.3523464248355
 30
0.0
 10
125.5888888574916
 20
-151.3523464248355
 30
0.0
 10
125.5888888574916
 20
-151.3523464248355
 30
0.0
 10
125.5888888574916
 20
-151.1893934083832
 30
0.0
 10
125.5888888574916
 20
-151.1790581219274
 30
0.0
 10
125.5868218002005
 20
-151.1239365941634
 30
0.0
 10
125.5868218002005
 20
-151.1239365941634
 30
0.0
 10
125.8110975162903
 20
-151.1494303007543
 30
0.0
 10
125.8110975162903
 20
-151.1494303007543
 30
0.0
 10
125.8152316308726
 20
-151.1494303007543
 30
0.0
 10
125.8365912228811
 20
-151.1514973580454
 30
0.0
 10
125.8365912228811
 20
-151.1683783259232
 30
0.0
 10
125.8365912228811
 20
-151.1831922365098
 30
0.0
 10
125.8259114268768
 20
-151.1914604656744
 30
0.0
 10
125.7983506629948
 20
-151.2062743762609
 30
0.0
 10
125.7921494911214
 20
-151.2720757000292
 30
0.0
 10
125.7900824338302
 20
-151.2930907824892
 30
0.0
 10
125.7900824338302
 20
-151.3523464248355
 30
0.0
 10
125.7900824338302
 20
-151.3523464248355
 30
0.0
 10
125.8851670692231
 20
-151.3523464248355
 30
0.0
 10
125.8851670692231
 20
-151.3523464248355
 30
0.0
 10
125.9678493608691
 20
-151.3523464248355
 30
0.0
 10
126.1411376637772
 20
-151.3482123102532
 30
0.0
 10
126.2658501203432
 20
-151.3395995715401
 30
0.0
 10
126.2658501203432
 20
-151.3395995715401
 30
0.0
 10
126.2658501203432
 20
-151.5194335558701
 30
0.0
 10
126.2658501203432
 20
-151.5194335558701
 30
0.0
 10
126.2362222991701
 20
-151.517366498579
 30
0.0
 10
126.118055524026
 20
-151.5132323839967
 30
0.0
 10
126.0777479068486
 20
-151.5111653267055
 30
0.0
 10
126.062933996262
 20
-151.5618082303387
 30
0.0
 10
126.0291720605066
 20
-151.6737738336093
 30
0.0
 10
125.9633707367383
 20
-151.8136447103105
 30
0.0
 10
126.0057454112069
 20
-151.8136447103105
 30
0.0
 10
126.2830755977695
 20
-151.794352175593
 30
0.0
 10
126.344398297407
 20
-151.7922851183019
 30
0.0
 10
126.344398297407
 20
-151.7922851183019
 30
0.0
 10
126.344398297407
 20
-151.9765977267628
 30
0.0
 10
126.344398297407
 20
-151.9765977267628
 30
0.0
 10
126.3147704762338
 20
-151.9765977267628
 30
0.0
 10
126.2978895083561
 20
-151.9721191026319
 30
0.0
 10
126.1349364919037
 20
-151.9721191026319
 30
0.0
  0
HATCH
  5
14F
330
148
100
AcDbEntity
  8
レイヤー 1
 62
    18
420
        0
440
 33554687
100
AcDbHatch
 10
0.0
 20
0.0
 30
0.0
210
0.0
220
0.0
230
1.0
  2
SOLID
 70
     1
 71
     1
 91
        3
 92
        1
 93
        1
 72
     4
 94
        3
 73
     0
 74
     0
 95
       17
 96
       13
 40
0.0
 40
0.0
 40
0.0
 40
0.0
 40
1.0
 40
1.0
 40
1.0
 40
2.0
 40
2.0
 40
2.0
 40
3.0
 40
3.0
 40
3.0
 40
4.0
 40
4.0
 40
4.0
 40
4.0
 10
125.5699408323228
 20
-152.3572807778829
 10
125.553059864445
 20
-152.386908599056
 10
125.5024169608119
 20
-152.4799261771578
 10
125.4917371648076
 20
-152.4988742023267
 10
125.6822509451419
 20
-152.558129844673
 10
125.703266027602
 20
-152.5646755260949
 10
125.7752685232436
 20
-152.5918917804284
 10
125.8300455414591
 20
-152.5054198837486
 10
125.8534721907588
 20
-152.4313503308158
 10
125.8682861013454
 20
-152.3572807778829
 10
125.8682861013454
 20
-152.3572807778829
 10
125.5699408323228
 20
-152.3572807778829
 10
125.5699408323228
 20
-152.3572807778829
 97
        0
 97
        1
330
14C
 92
        1
 93
        1
 72
     4
 94
        3
 73
     0
 74
     0
 95
       20
 96
       16
 40
0.0
 40
0.0
 40
0.0
 40
0.0
 40
1.0
 40
1.0
 40
1.0
 40
2.0
 40
2.0
 40
2.0
 40
3.0
 40
3.0
 40
3.0
 40
4.0
 40
4.0
 40
4.0
 40
5.0
 40
5.0
 40
5.0
 40
5.0
 10
125.5065510753942
 20
-151.5066867025747
 10
125.5065510753942
 20
-151.5066867025747
 10
125.4748561969299
 20
-151.5066867025747
 10
125.4748561969299
 20
-151.5066867025747
 10
125.5213649859808
 20
-151.6062499620984
 10
125.553059864445
 20
-151.6865206869048
 10
125.5868218002005
 20
-151.8136447103105
 10
125.5868218002005
 20
-151.8136447103105
 10
125.7942165484125
 20
-151.8136447103105
 10
125.7942165484125
 20
-151.8136447103105
 10
125.8259114268768
 20
-151.7206271322087
 10
125.8493380761765
 20
-151.6358777832716
 10
125.8724202159277
 20
-151.5066867025747
 10
125.8724202159277
 20
-151.5066867025747
 10
125.5065510753942
 20
-151.5066867025747
 10
125.5065510753942
 20
-151.5066867025747
 97
        0
 97
        1
330
14D
 92
        1
 93
        1
 72
     4
 94
        3
 73
     0
 74
     0
 95
      242
 96
      238
 40
0.0
 40
0.0
 40
0.0
 40
0.0
 40
1.0
 40
1.0
 40
1.0
 40
2.0
 40
2.0
 40
2.0
 40
3.0
 40
3.0
 40
3.0
 40
4.0
 40
4.0
 40
4.0
 40
5.0
 40
5.0
 40
5.0
 40
6.0
 40
6.0
 40
6.0
 40
7.0
 40
7.0
 40
7.0
 40
8.0
 40
8.0
 40
8.0
 40
9.0
 40
9.0
 40
9.0
 40
10.0
 40
10.0
 40
10.0
 40
11.0
 40
11.0
 40
11.0
 40
12.0
 40
12.0
 40
12.0
 40
13.0
 40
13.0
 40
13.0
 40
14.0
 40
14.0
 40
14.0
 40
15.0
 40
15.0
 40
15.0
 40
16.0
 40
16.0
 40
16.0
 40
17.0
 40
17.0
 40
17.0
 40
18.0
 40
18.0
 40
18.0
 40
19.0
 40
19.0
 40
19.0
 40
20.0
 40
20.0
 40
20.0
 40
21.0
 40
21.0
 40
21.0
 40
22.0
 40
22.0
 40
22.0
 40
23.0
 40
23.0
 40
23.0
 40
24.0
 40
24.0
 40
24.0
 40
25.0
 40
25.0
 40
25.0
 40
26.0
 40
26.0
 40
26.0
 40
27.0
 40
27.0
 40
27.0
 40
28.0
 40
28.0
 40
28.0
 40
29.0
 40
29.0
 40
29.0
 40
30.0
 40
30.0
 40
30.0
 40
31.0
 40
31.0
 40
31.0
 40
32.0
 40
32.0
 40
32.0
 40
33.0
 40
33.0
 40
33.0
 40
34.0
 40
34.0
 40
34.0
 40
35.0
 40
35.0
 40
35.0
 40
36.0
 40
36.0
 40
36.0
 40
37.0
 40
37.0
 40
37.0
 40
38.0
 40
38.0
 40
38.0
 40
39.0
 40
39.0
 40
39.0
 40
40.0
 40
40.0
 40
40.0
 40
41.0
 40
41.0
 40
41.0
 40
42.0
 40
42.0
 40
42.0
 40
43.0
 40
43.0
 40
43.0
 40
44.0
 40
44.0
 40
44.0
 40
45.0
 40
45.0
 40
45.0
 40
46.0
 40
46.0
 40
46.0
 40
47.0
 40
47.0
 40
47.0
 40
48.0
 40
48.0
 40
48.0
 40
49.0
 40
49.0
 40
49.0
 40
50.0
 40
50.0
 40
50.0
 40
51.0
 40
51.0
 40
51.0
 40
52.0
 40
52.0
 40
52.0
 40
53.0
 40
53.0
 40
53.0
 40
54.0
 40
54.0
 40
54.0
 40
55.0
 40
55.0
 40
55.0
 40
56.0
 40
56.0
 40
56.0
 40
57.0
 40
57.0
 40
57.0
 40
58.0
 40
58.0
 40
58.0
 40
59.0
 40
59.0
 40
59.0
 40
60.0
 40
60.0
 40
60.0
 40
61.0
 40
61.0
 40
61.0
 40
62.0
 40
62.0
 40
62.0
 40
63.0
 40
63.0
 40
63.0
 40
64.0
 40
64.0
 40
64.0
 40
65.0
 40
65.0
 40
65.0
 40
66.0
 40
66.0
 40
66.0
 40
67.0
 40
67.0
 40
67.0
 40
68.0
 40
68.0
 40
68.0
 40
69.0
 40
69.0
 40
69.0
 40
70.0
 40
70.0
 40
70.0
 40
71.0
 40
71.0
 40
71.0
 40
72.0
 40
72.0
 40
72.0
 40
73.0
 40
73.0
 40
73.0
 40
74.0
 40
74.0
 40
74.0
 40
75.0
 40
75.0
 40
75.0
 40
76.0
 40
76.0
 40
76.0
 40
77.0
 40
77.0
 40
77.0
 40
78.0
 40
78.0
 40
78.0
 40
79.0
 40
79.0
 40
79.0
 40
79.0
 10
126.1349364919037
 20
-151.9721191026319
 10
126.1349364919037
 20
-151.9721191026319
 10
125.8810329546408
 20
-151.9721191026319
 10
125.8810329546408
 20
-151.9721191026319
 10
125.8810329546408
 20
-151.9721191026319
 10
125.6037027680782
 20
-151.9721191026319
 10
125.6037027680782
 20
-151.9721191026319
 10
125.6037027680782
 20
-151.9721191026319
 10
125.7308267914839
 20
-152.0144937771005
 10
125.7308267914839
 20
-152.0144937771005
 10
125.7415065874882
 20
-152.0186278916828
 10
125.7539089312351
 20
-152.0251735731048
 10
125.7539089312351
 20
-152.0379204264003
 10
125.7539089312351
 20
-152.0589355088603
 10
125.7222140527708
 20
-152.0651366807337
 10
125.7011989703108
 20
-152.0696153048645
 10
125.6905191743065
 20
-152.0926974446157
 10
125.6608913531334
 20
-152.158498768384
 10
125.6419433279645
 20
-152.2029405001437
 10
125.6419433279645
 20
-152.2029405001437
 10
125.9127278331051
 20
-152.2029405001437
 10
125.9127278331051
 20
-152.2029405001437
 10
126.0036783539157
 20
-152.2029405001437
 10
126.2003933061235
 20
-152.1984618760129
 10
126.3419867305673
 20
-152.1901936468483
 10
126.3419867305673
 20
-152.1901936468483
 10
126.3419867305673
 20
-152.3679605738872
 10
126.3419867305673
 20
-152.3679605738872
 10
126.2596489484698
 20
-152.3634819497563
 10
126.2386338660098
 20
-152.3634819497563
 10
126.0587998816797
 20
-152.359347835174
 10
126.0271050032154
 20
-152.5136881129132
 10
125.9826632714557
 20
-152.5943033472681
 10
125.938221539696
 20
-152.6638942760701
 10
126.0587998816797
 20
-152.7231499184164
 10
126.1645643130769
 20
-152.7910182994759
 10
126.2682616871829
 20
-152.8733560815733
 10
126.2682616871829
 20
-152.8733560815733
 10
126.1497504024903
 20
-153.0404432126079
 10
126.1497504024903
 20
-153.0404432126079
 10
126.1263237531906
 20
-153.0214951874391
 10
126.1135768998952
 20
-153.0128824487259
 10
126.0016112966246
 20
-152.9284776093373
 10
125.9530354502826
 20
-152.890237049451
 10
125.8937798079363
 20
-152.8544080564044
 10
125.8131645735814
 20
-152.8099663246447
 10
125.6016357107871
 20
-152.9960014808482
 10
125.3966525294147
 20
-153.0194281301479
 10
125.1065754895567
 20
-153.0490559513211
 10
125.1065754895567
 20
-153.0490559513211
 10
125.0028781154506
 20
-152.869221966991
 10
125.0028781154506
 20
-152.869221966991
 10
125.3205159191907
 20
-152.8650878524087
 10
125.4958712793899
 20
-152.8395941458179
 10
125.6481444998379
 20
-152.7296955998384
 10
125.5296332151454
 20
-152.6787081866567
 10
125.4410942611744
 20
-152.6511474227747
 10
125.4049207585793
 20
-152.6387450790278
 10
125.3859727334104
 20
-152.6659613333612
 10
125.3711588228239
 20
-152.6852538680787
 10
125.3435980589419
 20
-152.7190158038341
 10
125.3435980589419
 20
-152.7190158038341
 10
125.1468831067341
 20
-152.6363335121881
 10
125.1468831067341
 20
-152.6363335121881
 10
125.2292208888316
 20
-152.5560627873818
 10
125.2908880980175
 20
-152.4609781519889
 10
125.3477321735241
 20
-152.359347835174
 10
125.1575629027384
 20
-152.3634819497563
 10
125.1362033107298
 20
-152.3634819497563
 10
125.0538655286324
 20
-152.3679605738872
 10
125.0538655286324
 20
-152.3679605738872
 10
125.0538655286324
 20
-152.1901936468483
 10
125.0538655286324
 20
-152.1901936468483
 10
125.193391895785
 20
-152.1963948187217
 10
125.4028537012882
 20
-152.200528933304
 10
125.428347407879
 20
-152.200528933304
 10
125.4452283757567
 20
-152.1667669975486
 10
125.5000053939722
 20
-152.0461886555648
 10
125.5192979286896
 20
-151.9721191026319
 10
125.5000053939722
 20
-151.9721191026319
 10
125.3225829764818
 20
-151.978664784054
 10
125.1279350815652
 20
-151.9914116373494
 10
125.1279350815652
 20
-151.9914116373494
 10
125.1279350815652
 20
-152.12439232308
 10
125.1279350815652
 20
-152.12439232308
 10
125.0793592352232
 20
-152.1498860296708
 10
125.0201035928769
 20
-152.1815809081352
 10
124.8867783975977
 20
-152.2473822319034
 10
124.8867783975977
 20
-152.2473822319034
 10
124.8867783975977
 20
-152.3931097709295
 10
124.8867783975977
 20
-152.3931097709295
 10
124.8867783975977
 20
-152.3931097709295
 10
124.8867783975977
 20
-152.8606092282779
 10
124.8867783975977
 20
-152.8606092282779
 10
124.8867783975977
 20
-152.9877332516836
 10
124.8506048950026
 20
-153.0469888940299
 10
124.5670735365665
 20
-153.0383761553168
 10
124.5670735365665
 20
-153.0383761553168
 10
124.4637206720091
 20
-152.8309814071047
 10
124.4637206720091
 20
-152.8309814071047
 10
124.5271104289376
 20
-152.8437282604001
 10
124.5756862752797
 20
-152.8478623749825
 10
124.6159938924571
 20
-152.8478623749825
 10
124.6921305026811
 20
-152.8478623749825
 10
124.7024657891369
 20
-152.8247802352313
 10
124.7024657891369
 20
-152.7593234210115
 10
124.7024657891369
 20
-152.7593234210115
 10
124.7024657891369
 20
-152.3297200140009
 10
124.7024657891369
 20
-152.3297200140009
 10
124.6053140964528
 20
-152.3700276311783
 10
124.5884331285751
 20
-152.3762288030518
 10
124.5419243395242
 20
-152.3951768282206
 10
124.5377902249419
 20
-152.4165364202292
 10
124.5333116008111
 20
-152.4461642414023
 10
124.5143635756422
 20
-152.4461642414023
 10
124.5057508369291
 20
-152.4461642414023
 10
124.4954155504733
 20
-152.44203012682
 10
124.4888698690514
 20
-152.4186034775203
 10
124.4888698690514
 20
-152.4186034775203
 10
124.4361599081271
 20
-152.2260226398949
 10
124.4361599081271
 20
-152.2260226398949
 10
124.5818874471531
 20
-152.179513850844
 10
124.6476887709214
 20
-152.1564317110928
 10
124.7024657891369
 20
-152.1350721190843
 10
124.7024657891369
 20
-152.1350721190843
 10
124.7024657891369
 20
-151.7226941894999
 10
124.7024657891369
 20
-151.7226941894999
 10
124.7024657891369
 20
-151.7226941894999
 10
124.6497558282125
 20
-151.7226941894999
 10
124.6497558282125
 20
-151.7226941894999
 10
124.6497558282125
 20
-151.7226941894999
 10
124.5715521606974
 20
-151.7226941894999
 10
124.5715521606974
 20
-151.7226941894999
 10
124.5036837796379
 20
-151.7226941894999
 10
124.4954155504733
 20
-151.7226941894999
 10
124.4592420478782
 20
-151.7288953613733
 10
124.4592420478782
 20
-151.7288953613733
 10
124.4592420478782
 20
-151.5342474664567
 10
124.4592420478782
 20
-151.5342474664567
 10
124.4868028117602
 20
-151.5407931478787
 10
124.4954155504733
 20
-151.5407931478787
 10
124.5650064792754
 20
-151.5407931478787
 10
124.5650064792754
 20
-151.5407931478787
 10
124.6983316745546
 20
-151.5407931478787
 10
124.6983316745546
 20
-151.5407931478787
 10
124.6983316745546
 20
-151.4708577095281
 10
124.6983316745546
 20
-151.3881754178821
 10
124.6962646172634
 20
-151.3840413032998
 10
124.6876518785503
 20
-151.2042073189698
 10
124.6876518785503
 20
-151.1852592938009
 10
124.6855848212591
 20
-151.13875050475
 10
124.6855848212591
 20
-151.13875050475
 10
124.9015923081843
 20
-151.1470187339146
 10
124.9015923081843
 20
-151.1470187339146
 10
124.91192759464
 20
-151.1470187339146
 10
124.9332871866486
 20
-151.1494303007543
 10
124.9332871866486
 20
-151.166311268632
 10
124.9332871866486
 20
-151.1852592938009
 10
124.918473276062
 20
-151.1959390898052
 10
124.8929795694712
 20
-151.214887114974
 10
124.8929795694712
 20
-151.2655300186072
 10
124.8867783975977
 20
-151.4939398492793
 10
124.8888454548889
 20
-151.5407931478787
 10
125.0176920260372
 20
-151.5407931478787
 10
125.0304388793326
 20
-151.5407931478787
 10
125.1279350815652
 20
-151.5321804091655
 10
125.1279350815652
 20
-151.5321804091655
 10
125.1279350815652
 20
-151.7268283040821
 10
125.1279350815652
 20
-151.7268283040821
 10
125.0896945216789
 20
-151.724761246791
 10
125.022170650168
 20
-151.7206271322087
 10
124.8867783975977
 20
-151.7226941894999
 10
124.8867783975977
 20
-151.7226941894999
 10
124.8867783975977
 20
-152.0610025661514
 10
124.8867783975977
 20
-152.0610025661514
 10
124.9415554158132
 20
-152.0379204264003
 10
125.0073567395815
 20
-152.0103596625182
 10
125.0559325859235
 20
-151.9869330132185
 10
125.0559325859235
 20
-151.9869330132185
 10
125.0559325859235
 20
-151.8091660861796
 10
125.0559325859235
 20
-151.8091660861796
 10
125.1703097560338
 20
-151.8219129394751
 10
125.2884765311779
 20
-151.8219129394751
 10
125.4049207585793
 20
-151.8219129394751
 10
125.3818386188281
 20
-151.7268283040821
 10
125.3542778549461
 20
-151.6441460124362
 10
125.2908880980175
 20
-151.5111653267055
 10
125.2464463662578
 20
-151.5132323839967
 10
125.1637640746118
 20
-151.517366498579
 10
125.1258680242741
 20
-151.5194335558701
 10
125.1258680242741
 20
-151.5194335558701
 10
125.1258680242741
 20
-151.3395995715401
 10
125.1258680242741
 20
-151.3395995715401
 10
125.2505804808401
 20
-151.3482123102532
 10
125.4238687837482
 20
-151.3523464248355
 10
125.5065510753942
 20
-151.3523464248355
 10
125.5065510753942
 20
-151.3523464248355
 10
125.5888888574916
 20
-151.3523464248355
 10
125.5888888574916
 20
-151.3523464248355
 10
125.5888888574916
 20
-151.1893934083832
 10
125.5888888574916
 20
-151.1790581219274
 10
125.5868218002005
 20
-151.1239365941634
 10
125.5868218002005
 20
-151.1239365941634
 10
125.8110975162903
 20
-151.1494303007543
 10
125.8110975162903
 20
-151.1494303007543
 10
125.8152316308726
 20
-151.1494303007543
 10
125.8365912228811
 20
-151.1514973580454
 10
125.8365912228811
 20
-151.1683783259232
 10
125.8365912228811
 20
-151.1831922365098
 10
125.8259114268768
 20
-151.1914604656744
 10
125.7983506629948
 20
-151.2062743762609
 10
125.7921494911214
 20
-151.2720757000292
 10
125.7900824338302
 20
-151.2930907824892
 10
125.7900824338302
 20
-151.3523464248355
 10
125.7900824338302
 20
-151.3523464248355
 10
125.8851670692231
 20
-151.3523464248355
 10
125.8851670692231
 20
-151.3523464248355
 10
125.9678493608691
 20
-151.3523464248355
 10
126.1411376637772
 20
-151.3482123102532
 10
126.2658501203432
 20
-151.3395995715401
 10
126.2658501203432
 20
-151.3395995715401
 10
126.2658501203432
 20
-151.5194335558701
 10
126.2658501203432
 20
-151.5194335558701
 10
126.2362222991701
 20
-151.517366498579
 10
126.118055524026
 20
-151.5132323839967
 10
126.0777479068486
 20
-151.5111653267055
 10
126.062933996262
 20
-151.5618082303387
 10
126.0291720605066
 20
-151.6737738336093
 10
125.9633707367383
 20
-151.8136447103105
 10
126.0057454112069
 20
-151.8136447103105
 10
126.2830755977695
 20
-151.794352175593
 10
126.344398297407
 20
-151.7922851183019
 10
126.344398297407
 20
-151.7922851183019
 10
126.344398297407
 20
-151.9765977267628
 10
126.344398297407
 20
-151.9765977267628
 10
126.3147704762338
 20
-151.9765977267628
 10
126.2978895083561
 20
-151.9721191026319
 10
126.1349364919037
 20
-151.9721191026319
 97
        0
 97
        1
330
14E
 75
     2
 76
     1
 98
        1
 10
0.0
 20
0.0
450
        0
451
        0
460
0.0
461
0.0
452
        0
462
0.0
453
        0
470

  0
SPLINE
  5
150
330
148
100
AcDbEntity
  8
レイヤー 1
100
AcDbSpline
210
0.0
220
0.0
230
1.0
 70
    11
 71
     3
 72
    17
 73
    13
 74
     0
 42
0.0000000001
 43
0.0000000001
 40
0.0
 40
0.0
 40
0.0
 40
0.0
 40
1.0
 40
1.0
 40
1.0
 40
2.0
 40
2.0
 40
2.0
 40
3.0
 40
3.0
 40
3.0
 40
4.0
 40
4.0
 40
4.0
 40
4.0
 10
127.9911539393564
 20
-152.7717257647584
 30
0.0
 10
127.9911539393564
 20
-152.7717257647584
 30
0.0
 10
127.2845648553316
 20
-152.7717257647584
 30
0.0
 10
127.2845648553316
 20
-152.7717257647584
 30
0.0
 10
127.2845648553316
 20
-152.7717257647584
 30
0.0
 10
127.2845648553316
 20
-152.8861029348687
 30
0.0
 10
127.2845648553316
 20
-152.8861029348687
 30
0.0
 10
127.2845648553316
 20
-152.8861029348687
 30
0.0
 10
127.9911539393564
 20
-152.8861029348687
 30
0.0
 10
127.9911539393564
 20
-152.8861029348687
 30
0.0
 10
127.9911539393564
 20
-152.8861029348687
 30
0.0
 10
127.9911539393564
 20
-152.7717257647584
 30
0.0
 10
127.9911539393564
 20
-152.7717257647584
 30
0.0
  0
SPLINE
  5
151
330
148
100
AcDbEntity
  8
レイヤー 1
100
AcDbSpline
210
0.0
220
0.0
230
1.0
 70
    11
 71
     3
 72
    17
 73
    13
 74
     0
 42
0.0000000001
 43
0.0000000001
 40
0.0
 40
0.0
 40
0.0
 40
0.0
 40
1.0
 40
1.0
 40
1.0
 40
2.0
 40
2.0
 40
2.0
 40
3.0
 40
3.0
 40
3.0
 40
4.0
 40
4.0
 40
4.0
 40
4.0
 10
127.9911539393564
 20
-152.5285020234998
 30
0.0
 10
127.9911539393564
 20
-152.5285020234998
 30
0.0
 10
127.2845648553316
 20
-152.5285020234998
 30
0.0
 10
127.2845648553316
 20
-152.5285020234998
 30
0.0
 10
127.2845648553316
 20
-152.5285020234998
 30
0.0
 10
127.2845648553316
 20
-152.6428791936101
 30
0.0
 10
127.2845648553316
 20
-152.6428791936101
 30
0.0
 10
127.2845648553316
 20
-152.6428791936101
 30
0.0
 10
127.9911539393564
 20
-152.6428791936101
 30
0.0
 10
127.9911539393564
 20
-152.6428791936101
 30
0.0
 10
127.9911539393564
 20
-152.6428791936101
 30
0.0
 10
127.9911539393564
 20
-152.5285020234998
 30
0.0
 10
127.9911539393564
 20
-152.5285020234998
 30
0.0
  0
SPLINE
  5
152
330
148
100
AcDbEntity
  8
レイヤー 1
100
AcDbSpline
210
0.0
220
0.0
230
1.0
 70
    11
 71
     3
 72
    17
 73
    13
 74
     0
 42
0.0000000001
 43
0.0000000001
 40
0.0
 40
0.0
 40
0.0
 40
0.0
 40
1.0
 40
1.0
 40
1.0
 40
2.0
 40
2.0
 40
2.0
 40
3.0
 40
3.0
 40
3.0
 40
4.0
 40
4.0
 40
4.0
 40
4.0
 10
127.9911539393564
 20
-152.2959580782455
 30
0.0
 10
127.9911539393564
 20
-152.2959580782455
 30
0.0
 10
127.2845648553316
 20
-152.2959580782455
 30
0.0
 10
127.2845648553316
 20
-152.2959580782455
 30
0.0
 10
127.2845648553316
 20
-152.2959580782455
 30
0.0
 10
127.2845648553316
 20
-152.4037895669338
 30
0.0
 10
127.2845648553316
 20
-152.4037895669338
 30
0.0
 10
127.2845648553316
 20
-152.4037895669338
 30
0.0
 10
127.9911539393564
 20
-152.4037895669338
 30
0.0
 10
127.9911539393564
 20
-152.4037895669338
 30
0.0
 10
127.9911539393564
 20
-152.4037895669338
 30
0.0
 10
127.9911539393564
 20
-152.2959580782455
 30
0.0
 10
127.9911539393564
 20
-152.2959580782455
 30
0.0
  0
SPLINE
  5
153
330
148
100
AcDbEntity
  8
レイヤー 1
100
AcDbSpline
210
0.0
220
0.0
230
1.0
 70
     9
 71
     3
 72
   203
 73
   199
 74
     0
 42
0.0000000001
 43
0.0000000001
 40
0.0
 40
0.0
 40
0.0
 40
0.0
 40
1.0
 40
1.0
 40
1.0
 40
2.0
 40
2.0
 40
2.0
 40
3.0
 40
3.0
 40
3.0
 40
4.0
 40
4.0
 40
4.0
 40
5.0
 40
5.0
 40
5.0
 40
6.0
 40
6.0
 40
6.0
 40
7.0
 40
7.0
 40
7.0
 40
8.0
 40
8.0
 40
8.0
 40
9.0
 40
9.0
 40
9.0
 40
10.0
 40
10.0
 40
10.0
 40
11.0
 40
11.0
 40
11.0
 40
12.0
 40
12.0
 40
12.0
 40
13.0
 40
13.0
 40
13.0
 40
14.0
 40
14.0
 40
14.0
 40
15.0
 40
15.0
 40
15.0
 40
16.0
 40
16.0
 40
16.0
 40
17.0
 40
17.0
 40
17.0
 40
18.0
 40
18.0
 40
18.0
 40
19.0
 40
19.0
 40
19.0
 40
20.0
 40
20.0
 40
20.0
 40
21.0
 40
21.0
 40
21.0
 40
22.0
 40
22.0
 40
22.0
 40
23.0
 40
23.0
 40
23.0
 40
24.0
 40
24.0
 40
24.0
 40
25.0
 40
25.0
 40
25.0
 40
26.0
 40
26.0
 40
26.0
 40
27.0
 40
27.0
 40
27.0
 40
28.0
 40
28.0
 40
28.0
 40
29.0
 40
29.0
 40
29.0
 40
30.0
 40
30.0
 40
30.0
 40
31.0
 40
31.0
 40
31.0
 40
32.0
 40
32.0
 40
32.0
 40
33.0
 40
33.0
 40
33.0
 40
34.0
 40
34.0
 40
34.0
 40
35.0
 40
35.0
 40
35.0
 40
36.0
 40
36.0
 40
36.0
 40
37.0
 40
37.0
 40
37.0
 40
38.0
 40
38.0
 40
38.0
 40
39.0
 40
39.0
 40
39.0
 40
40.0
 40
40.0
 40
40.0
 40
41.0
 40
41.0
 40
41.0
 40
42.0
 40
42.0
 40
42.0
 40
43.0
 40
43.0
 40
43.0
 40
44.0
 40
44.0
 40
44.0
 40
45.0
 40
45.0
 40
45.0
 40
46.0
 40
46.0
 40
46.0
 40
47.0
 40
47.0
 40
47.0
 40
48.0
 40
48.0
 40
48.0
 40
49.0
 40
49.0
 40
49.0
 40
50.0
 40
50.0
 40
50.0
 40
51.0
 40
51.0
 40
51.0
 40
52.0
 40
52.0
 40
52.0
 40
53.0
 40
53.0
 40
53.0
 40
54.0
 40
54.0
 40
54.0
 40
55.0
 40
55.0
 40
55.0
 40
56.0
 40
56.0
 40
56.0
 40
57.0
 40
57.0
 40
57.0
 40
58.0
 40
58.0
 40
58.0
 40
59.0
 40
59.0
 40
59.0
 40
60.0
 40
60.0
 40
60.0
 40
61.0
 40
61.0
 40
61.0
 40
62.0
 40
62.0
 40
62.0
 40
63.0
 40
63.0
 40
63.0
 40
64.0
 40
64.0
 40
64.0
 40
65.0
 40
65.0
 40
65.0
 40
66.0
 40
66.0
 40
66.0
 40
66.0
 10
127.8261338656129
 20
-152.0399874836914
 30
0.0
 10
127.8261338656129
 20
-152.0399874836914
 30
0.0
 10
127.2676838874539
 20
-152.0399874836914
 30
0.0
 10
127.2676838874539
 20
-152.0399874836914
 30
0.0
 10
127.2573486009981
 20
-152.0844292154511
 30
0.0
 10
127.248735862285
 20
-152.1161240939154
 30
0.0
 10
127.2359890089896
 20
-152.1540201442531
 30
0.0
 10
127.2614827155804
 20
-152.1540201442531
 30
0.0
 10
127.276296626167
 20
-152.1564317110928
 30
0.0
 10
127.2824977980405
 20
-152.1564317110928
 30
0.0
 10
127.2824977980405
 20
-152.1564317110928
 30
0.0
 10
127.4709445210836
 20
-152.1564317110928
 30
0.0
 10
127.4709445210836
 20
-152.1564317110928
 30
0.0
 10
127.4709445210836
 20
-152.1564317110928
 30
0.0
 10
127.8454264003303
 20
-152.1564317110928
 30
0.0
 10
127.8454264003303
 20
-152.1564317110928
 30
0.0
 10
127.8960693039635
 20
-152.1564317110928
 30
0.0
 10
128.1796006623995
 20
-152.1436848577974
 30
0.0
 10
128.2112955408638
 20
-152.1436848577974
 30
0.0
 10
128.2092284835727
 20
-152.1712456216794
 30
0.0
 10
128.2071614262815
 20
-152.1901936468483
 30
0.0
 10
128.2071614262815
 20
-152.2198214680214
 30
0.0
 10
128.2050943689904
 20
-152.2515163464857
 30
0.0
 10
128.2050943689904
 20
-152.386908599056
 30
0.0
 10
128.2050943689904
 20
-152.4144693629381
 30
0.0
 10
128.2050943689904
 20
-152.4144693629381
 30
0.0
 10
128.2050943689904
 20
-152.6597601614878
 30
0.0
 10
128.2050943689904
 20
-152.6597601614878
 30
0.0
 10
128.2050943689904
 20
-152.7042018932475
 30
0.0
 10
128.2092284835727
 20
-152.9009168454553
 30
0.0
 10
128.213362598155
 20
-153.0531900659034
 30
0.0
 10
128.213362598155
 20
-153.0531900659034
 30
0.0
 10
127.987019824774
 20
-153.0531900659034
 30
0.0
 10
127.987019824774
 20
-153.0531900659034
 30
0.0
 10
127.987019824774
 20
-153.0531900659034
 30
0.0
 10
127.9890868820652
 20
-153.0194281301479
 30
0.0
 10
127.9890868820652
 20
-153.0194281301479
 30
0.0
 10
127.9890868820652
 20
-153.0194281301479
 30
0.0
 10
127.2869764221713
 20
-153.0194281301479
 30
0.0
 10
127.2869764221713
 20
-153.0194281301479
 30
0.0
 10
127.2869764221713
 20
-153.0194281301479
 30
0.0
 10
127.2890434794624
 20
-153.0531900659034
 30
0.0
 10
127.2890434794624
 20
-153.0531900659034
 30
0.0
 10
127.2890434794624
 20
-153.0531900659034
 30
0.0
 10
127.0709689352461
 20
-153.0531900659034
 30
0.0
 10
127.0709689352461
 20
-153.0531900659034
 30
0.0
 10
127.0751030498284
 20
-152.9980685381394
 30
0.0
 10
127.0751030498284
 20
-152.9856661943925
 30
0.0
 10
127.0816487312504
 20
-152.8712890242822
 30
0.0
 10
127.0837157885416
 20
-152.8437282604001
 30
0.0
 10
127.0857828458327
 20
-152.710403065121
 30
0.0
 10
127.0857828458327
 20
-152.6914550399521
 30
0.0
 10
127.0857828458327
 20
-152.6914550399521
 30
0.0
 10
127.0857828458327
 20
-152.4885389158709
 30
0.0
 10
127.0857828458327
 20
-152.4885389158709
 30
0.0
 10
126.9462564786801
 20
-152.737963829003
 30
0.0
 10
126.7771022903543
 20
-152.869221966991
 30
0.0
 10
126.6713378589571
 20
-152.9346787812108
 30
0.0
 10
126.6713378589571
 20
-152.9346787812108
 30
0.0
 10
126.4977050465006
 20
-152.7951524140581
 30
0.0
 10
126.4977050465006
 20
-152.7951524140581
 30
0.0
 10
126.58658851002
 20
-152.744509510425
 30
0.0
 10
126.7305935013034
 20
-152.6576931041967
 30
0.0
 10
126.8680528111649
 20
-152.46304520928
 30
0.0
 10
126.9590033319755
 20
-152.3359211858743
 30
0.0
 10
127.0244601461953
 20
-152.1922607041394
 30
0.0
 10
127.0582220819507
 20
-152.0399874836914
 30
0.0
 10
126.8298122512786
 20
-152.0420545409825
 30
0.0
 10
126.6499782669486
 20
-152.048255712856
 30
0.0
 10
126.5548936315557
 20
-152.0503227701471
 30
0.0
 10
126.5548936315557
 20
-152.0503227701471
 30
0.0
 10
126.5548936315557
 20
-151.8729003526568
 30
0.0
 10
126.5548936315557
 20
-151.8729003526568
 30
0.0
 10
126.7516085837635
 20
-151.8791015245302
 30
0.0
 10
127.0351399421995
 20
-151.8832356391125
 30
0.0
 10
127.1853461053564
 20
-151.8832356391125
 30
0.0
 10
127.1853461053564
 20
-151.8832356391125
 30
0.0
 10
127.3989420254419
 20
-151.8832356391125
 30
0.0
 10
127.3989420254419
 20
-151.8832356391125
 30
0.0
 10
127.3989420254419
 20
-151.8832356391125
 30
0.0
 10
127.3989420254419
 20
-151.7754041504242
 30
0.0
 10
127.3989420254419
 20
-151.7754041504242
 30
0.0
 10
127.3989420254419
 20
-151.7754041504242
 30
0.0
 10
127.2528699768673
 20
-151.7754041504242
 30
0.0
 10
127.2528699768673
 20
-151.7754041504242
 30
0.0
 10
127.0837157885416
 20
-151.7754041504242
 30
0.0
 10
126.9145616002158
 20
-151.7795382650065
 30
0.0
 10
126.7474744691812
 20
-151.7860839464284
 30
0.0
 10
126.7474744691812
 20
-151.7860839464284
 30
0.0
 10
126.7474744691812
 20
-151.6148627008115
 30
0.0
 10
126.7474744691812
 20
-151.6148627008115
 30
0.0
 10
126.9018147469203
 20
-151.6251979872673
 30
0.0
 10
127.0878499031239
 20
-151.6251979872673
 30
0.0
 10
127.2528699768673
 20
-151.6251979872673
 30
0.0
 10
127.2528699768673
 20
-151.6251979872673
 30
0.0
 10
127.3989420254419
 20
-151.6251979872673
 30
0.0
 10
127.3989420254419
 20
-151.6251979872673
 30
0.0
 10
127.3989420254419
 20
-151.6251979872673
 30
0.0
 10
127.3989420254419
 20
-151.5066867025747
 30
0.0
 10
127.3989420254419
 20
-151.5066867025747
 30
0.0
 10
127.3989420254419
 20
-151.5066867025747
 30
0.0
 10
127.2676838874539
 20
-151.5066867025747
 30
0.0
 10
127.2676838874539
 20
-151.5066867025747
 30
0.0
 10
127.221175098403
 20
-151.5066867025747
 30
0.0
 10
127.0182589743218
 20
-151.5152994412878
 30
0.0
 10
126.9758842998532
 20
-151.5152994412878
 30
0.0
 10
126.7726236662235
 20
-151.5194335558701
 30
0.0
 10
126.6964870559995
 20
-151.5215006131613
 30
0.0
 10
126.6182833884843
 20
-151.5235676704524
 30
0.0
 10
126.6182833884843
 20
-151.5235676704524
 30
0.0
 10
126.6182833884843
 20
-151.3395995715401
 30
0.0
 10
126.6182833884843
 20
-151.3395995715401
 30
0.0
 10
126.7326605585946
 20
-151.3482123102532
 30
0.0
 10
126.7771022903543
 20
-151.3482123102532
 30
0.0
 10
127.1598523987656
 20
-151.3564805394178
 30
0.0
 10
127.096462641837
 20
-151.2613959040249
 30
0.0
 10
127.068901877955
 20
-151.2338351401429
 30
0.0
 10
127.0330728849084
 20
-151.1980061470963
 30
0.0
 10
127.0330728849084
 20
-151.1980061470963
 30
0.0
 10
127.2084282451076
 20
-151.1153238554503
 30
0.0
 10
127.2084282451076
 20
-151.1153238554503
 30
0.0
 10
127.248735862285
 20
-151.1514973580454
 30
0.0
 10
127.2931775940447
 20
-151.193872032514
 30
0.0
 10
127.3672471469776
 20
-151.3037705784935
 30
0.0
 10
127.3672471469776
 20
-151.3037705784935
 30
0.0
 10
127.2528699768673
 20
-151.3588921062575
 30
0.0
 10
127.2528699768673
 20
-151.3588921062575
 30
0.0
 10
127.2528699768673
 20
-151.3588921062575
 30
0.0
 10
127.2635497728716
 20
-151.3588921062575
 30
0.0
 10
127.2635497728716
 20
-151.3588921062575
 30
0.0
 10
127.2635497728716
 20
-151.3588921062575
 30
0.0
 10
127.786170757984
 20
-151.3588921062575
 30
0.0
 10
127.786170757984
 20
-151.3588921062575
 30
0.0
 10
127.786170757984
 20
-151.3588921062575
 30
0.0
 10
127.6907416130426
 20
-151.3144503744978
 30
0.0
 10
127.6907416130426
 20
-151.3144503744978
 30
0.0
 10
127.7183023769246
 20
-151.2762098146115
 30
0.0
 10
127.7754909619797
 20
-151.1959390898052
 30
0.0
 10
127.7903048725663
 20
-151.1218695368723
 30
0.0
 10
127.7903048725663
 20
-151.1218695368723
 30
0.0
 10
128.0039007926518
 20
-151.1852592938009
 30
0.0
 10
128.0039007926518
 20
-151.1852592938009
 30
0.0
 10
128.0125135313649
 20
-151.187326351092
 30
0.0
 10
128.0335286138249
 20
-151.1980061470963
 30
0.0
 10
128.0335286138249
 20
-151.2190212295563
 30
0.0
 10
128.0335286138249
 20
-151.2572617894426
 30
0.0
 10
127.9680717996052
 20
-151.2572617894426
 30
0.0
 10
127.9491237744363
 20
-151.2572617894426
 30
0.0
 10
127.938443978432
 20
-151.2762098146115
 30
0.0
 10
127.9150173291323
 20
-151.3165174317889
 30
0.0
 10
127.8853895079592
 20
-151.3564805394178
 30
0.0
 10
128.2853650937967
 20
-151.3502793675443
 30
0.0
 10
128.3149929149699
 20
-151.3482123102532
 30
0.0
 10
128.3911295251939
 20
-151.3416666288312
 30
0.0
 10
128.3911295251939
 20
-151.3416666288312
 30
0.0
 10
128.3911295251939
 20
-151.5235676704524
 30
0.0
 10
128.3911295251939
 20
-151.5235676704524
 30
0.0
 10
128.372181500025
 20
-151.5235676704524
 30
0.0
 10
128.3466877934341
 20
-151.5215006131613
 30
0.0
 10
128.1265461919267
 20
-151.5132323839967
 30
0.0
 10
128.0759032882935
 20
-151.5111653267055
 30
0.0
 10
127.855761686786
 20
-151.5066867025747
 30
0.0
 10
127.8113199550263
 20
-151.5066867025747
 30
0.0
 10
127.8113199550263
 20
-151.5066867025747
 30
0.0
 10
127.5956569776497
 20
-151.5066867025747
 30
0.0
 10
127.5956569776497
 20
-151.5066867025747
 30
0.0
 10
127.5956569776497
 20
-151.5066867025747
 30
0.0
 10
127.5956569776497
 20
-151.6251979872673
 30
0.0
 10
127.5956569776497
 20
-151.6251979872673
 30
0.0
 10
127.5956569776497
 20
-151.6251979872673
 30
0.0
 10
127.7692897901063
 20
-151.6251979872673
 30
0.0
 10
127.7692897901063
 20
-151.6251979872673
 30
0.0
 10
127.9318982970101
 20
-151.6251979872673
 30
0.0
 10
128.1224120773444
 20
-151.6251979872673
 30
0.0
 10
128.2791639219232
 20
-151.6148627008115
 30
0.0
 10
128.2791639219232
 20
-151.6148627008115
 30
0.0
 10
128.2791639219232
 20
-151.7860839464284
 30
0.0
 10
128.2791639219232
 20
-151.7860839464284
 30
0.0
 10
128.0697021164201
 20
-151.7774712077153
 30
0.0
 10
127.8729871642123
 20
-151.7754041504242
 30
0.0
 10
127.7692897901063
 20
-151.7754041504242
 30
0.0
 10
127.7692897901063
 20
-151.7754041504242
 30
0.0
 10
127.5956569776497
 20
-151.7754041504242
 30
0.0
 10
127.5956569776497
 20
-151.7754041504242
 30
0.0
 10
127.5956569776497
 20
-151.7754041504242
 30
0.0
 10
127.5956569776497
 20
-151.8832356391125
 30
0.0
 10
127.5956569776497
 20
-151.8832356391125
 30
0.0
 10
127.5956569776497
 20
-151.8832356391125
 30
0.0
 10
127.8261338656129
 20
-151.8832356391125
 30
0.0
 10
127.8261338656129
 20
-151.8832356391125
 30
0.0
 10
127.9594590608921
 20
-151.8832356391125
 30
0.0
 10
128.2471245339104
 20
-151.8791015245302
 30
0.0
 10
128.4565863394136
 20
-151.8729003526568
 30
0.0
 10
128.4565863394136
 20
-151.8729003526568
 30
0.0
 10
128.4565863394136
 20
-152.0503227701471
 30
0.0
 10
128.4565863394136
 20
-152.0503227701471
 30
0.0
 10
128.2643500113367
 20
-152.0441215982737
 30
0.0
 10
127.9511908317275
 20
-152.0399874836914
 30
0.0
 10
127.8261338656129
 20
-152.0399874836914
 30
0.0
  0
HATCH
  5
154
330
148
100
AcDbEntity
  8
レイヤー 1
 62
    18
420
        0
440
 33554687
100
AcDbHatch
 10
0.0
 20
0.0
 30
0.0
210
0.0
220
0.0
230
1.0
  2
SOLID
 70
     1
 71
     1
 91
        4
 92
        1
 93
        1
 72
     4
 94
        3
 73
     0
 74
     0
 95
       17
 96
       13
 40
0.0
 40
0.0
 40
0.0
 40
0.0
 40
1.0
 40
1.0
 40
1.0
 40
2.0
 40
2.0
 40
2.0
 40
3.0
 40
3.0
 40
3.0
 40
4.0
 40
4.0
 40
4.0
 40
4.0
 10
127.9911539393564
 20
-152.7717257647584
 10
127.9911539393564
 20
-152.7717257647584
 10
127.2845648553316
 20
-152.7717257647584
 10
127.2845648553316
 20
-152.7717257647584
 10
127.2845648553316
 20
-152.7717257647584
 10
127.2845648553316
 20
-152.8861029348687
 10
127.2845648553316
 20
-152.8861029348687
 10
127.2845648553316
 20
-152.8861029348687
 10
127.9911539393564
 20
-152.8861029348687
 10
127.9911539393564
 20
-152.8861029348687
 10
127.9911539393564
 20
-152.8861029348687
 10
127.9911539393564
 20
-152.7717257647584
 10
127.9911539393564
 20
-152.7717257647584
 97
        0
 97
        1
330
150
 92
        1
 93
        1
 72
     4
 94
        3
 73
     0
 74
     0
 95
       17
 96
       13
 40
0.0
 40
0.0
 40
0.0
 40
0.0
 40
1.0
 40
1.0
 40
1.0
 40
2.0
 40
2.0
 40
2.0
 40
3.0
 40
3.0
 40
3.0
 40
4.0
 40
4.0
 40
4.0
 40
4.0
 10
127.9911539393564
 20
-152.5285020234998
 10
127.9911539393564
 20
-152.5285020234998
 10
127.2845648553316
 20
-152.5285020234998
 10
127.2845648553316
 20
-152.5285020234998
 10
127.2845648553316
 20
-152.5285020234998
 10
127.2845648553316
 20
-152.6428791936101
 10
127.2845648553316
 20
-152.6428791936101
 10
127.2845648553316
 20
-152.6428791936101
 10
127.9911539393564
 20
-152.6428791936101
 10
127.9911539393564
 20
-152.6428791936101
 10
127.9911539393564
 20
-152.6428791936101
 10
127.9911539393564
 20
-152.5285020234998
 10
127.9911539393564
 20
-152.5285020234998
 97
        0
 97
        1
330
151
 92
        1
 93
        1
 72
     4
 94
        3
 73
     0
 74
     0
 95
       17
 96
       13
 40
0.0
 40
0.0
 40
0.0
 40
0.0
 40
1.0
 40
1.0
 40
1.0
 40
2.0
 40
2.0
 40
2.0
 40
3.0
 40
3.0
 40
3.0
 40
4.0
 40
4.0
 40
4.0
 40
4.0
 10
127.9911539393564
 20
-152.2959580782455
 10
127.9911539393564
 20
-152.2959580782455
 10
127.2845648553316
 20
-152.2959580782455
 10
127.2845648553316
 20
-152.2959580782455
 10
127.2845648553316
 20
-152.2959580782455
 10
127.2845648553316
 20
-152.4037895669338
 10
127.2845648553316
 20
-152.4037895669338
 10
127.2845648553316
 20
-152.4037895669338
 10
127.9911539393564
 20
-152.4037895669338
 10
127.9911539393564
 20
-152.4037895669338
 10
127.9911539393564
 20
-152.4037895669338
 10
127.9911539393564
 20
-152.2959580782455
 10
127.9911539393564
 20
-152.2959580782455
 97
        0
 97
        1
330
152
 92
        1
 93
        1
 72
     4
 94
        3
 73
     0
 74
     0
 95
      203
 96
      199
 40
0.0
 40
0.0
 40
0.0
 40
0.0
 40
1.0
 40
1.0
 40
1.0
 40
2.0
 40
2.0
 40
2.0
 40
3.0
 40
3.0
 40
3.0
 40
4.0
 40
4.0
 40
4.0
 40
5.0
 40
5.0
 40
5.0
 40
6.0
 40
6.0
 40
6.0
 40
7.0
 40
7.0
 40
7.0
 40
8.0
 40
8.0
 40
8.0
 40
9.0
 40
9.0
 40
9.0
 40
10.0
 40
10.0
 40
10.0
 40
11.0
 40
11.0
 40
11.0
 40
12.0
 40
12.0
 40
12.0
 40
13.0
 40
13.0
 40
13.0
 40
14.0
 40
14.0
 40
14.0
 40
15.0
 40
15.0
 40
15.0
 40
16.0
 40
16.0
 40
16.0
 40
17.0
 40
17.0
 40
17.0
 40
18.0
 40
18.0
 40
18.0
 40
19.0
 40
19.0
 40
19.0
 40
20.0
 40
20.0
 40
20.0
 40
21.0
 40
21.0
 40
21.0
 40
22.0
 40
22.0
 40
22.0
 40
23.0
 40
23.0
 40
23.0
 40
24.0
 40
24.0
 40
24.0
 40
25.0
 40
25.0
 40
25.0
 40
26.0
 40
26.0
 40
26.0
 40
27.0
 40
27.0
 40
27.0
 40
28.0
 40
28.0
 40
28.0
 40
29.0
 40
29.0
 40
29.0
 40
30.0
 40
30.0
 40
30.0
 40
31.0
 40
31.0
 40
31.0
 40
32.0
 40
32.0
 40
32.0
 40
33.0
 40
33.0
 40
33.0
 40
34.0
 40
34.0
 40
34.0
 40
35.0
 40
35.0
 40
35.0
 40
36.0
 40
36.0
 40
36.0
 40
37.0
 40
37.0
 40
37.0
 40
38.0
 40
38.0
 40
38.0
 40
39.0
 40
39.0
 40
39.0
 40
40.0
 40
40.0
 40
40.0
 40
41.0
 40
41.0
 40
41.0
 40
42.0
 40
42.0
 40
42.0
 40
43.0
 40
43.0
 40
43.0
 40
44.0
 40
44.0
 40
44.0
 40
45.0
 40
45.0
 40
45.0
 40
46.0
 40
46.0
 40
46.0
 40
47.0
 40
47.0
 40
47.0
 40
48.0
 40
48.0
 40
48.0
 40
49.0
 40
49.0
 40
49.0
 40
50.0
 40
50.0
 40
50.0
 40
51.0
 40
51.0
 40
51.0
 40
52.0
 40
52.0
 40
52.0
 40
53.0
 40
53.0
 40
53.0
 40
54.0
 40
54.0
 40
54.0
 40
55.0
 40
55.0
 40
55.0
 40
56.0
 40
56.0
 40
56.0
 40
57.0
 40
57.0
 40
57.0
 40
58.0
 40
58.0
 40
58.0
 40
59.0
 40
59.0
 40
59.0
 40
60.0
 40
60.0
 40
60.0
 40
61.0
 40
61.0
 40
61.0
 40
62.0
 40
62.0
 40
62.0
 40
63.0
 40
63.0
 40
63.0
 40
64.0
 40
64.0
 40
64.0
 40
65.0
 40
65.0
 40
65.0
 40
66.0
 40
66.0
 40
66.0
 40
66.0
 10
127.8261338656129
 20
-152.0399874836914
 10
127.8261338656129
 20
-152.0399874836914
 10
127.2676838874539
 20
-152.0399874836914
 10
127.2676838874539
 20
-152.0399874836914
 10
127.2573486009981
 20
-152.0844292154511
 10
127.248735862285
 20
-152.1161240939154
 10
127.2359890089896
 20
-152.1540201442531
 10
127.2614827155804
 20
-152.1540201442531
 10
127.276296626167
 20
-152.1564317110928
 10
127.2824977980405
 20
-152.1564317110928
 10
127.2824977980405
 20
-152.1564317110928
 10
127.4709445210836
 20
-152.1564317110928
 10
127.4709445210836
 20
-152.1564317110928
 10
127.4709445210836
 20
-152.1564317110928
 10
127.8454264003303
 20
-152.1564317110928
 10
127.8454264003303
 20
-152.1564317110928
 10
127.8960693039635
 20
-152.1564317110928
 10
128.1796006623995
 20
-152.1436848577974
 10
128.2112955408638
 20
-152.1436848577974
 10
128.2092284835727
 20
-152.1712456216794
 10
128.2071614262815
 20
-152.1901936468483
 10
128.2071614262815
 20
-152.2198214680214
 10
128.2050943689904
 20
-152.2515163464857
 10
128.2050943689904
 20
-152.386908599056
 10
128.2050943689904
 20
-152.4144693629381
 10
128.2050943689904
 20
-152.4144693629381
 10
128.2050943689904
 20
-152.6597601614878
 10
128.2050943689904
 20
-152.6597601614878
 10
128.2050943689904
 20
-152.7042018932475
 10
128.2092284835727
 20
-152.9009168454553
 10
128.213362598155
 20
-153.0531900659034
 10
128.213362598155
 20
-153.0531900659034
 10
127.987019824774
 20
-153.0531900659034
 10
127.987019824774
 20
-153.0531900659034
 10
127.987019824774
 20
-153.0531900659034
 10
127.9890868820652
 20
-153.0194281301479
 10
127.9890868820652
 20
-153.0194281301479
 10
127.9890868820652
 20
-153.0194281301479
 10
127.2869764221713
 20
-153.0194281301479
 10
127.2869764221713
 20
-153.0194281301479
 10
127.2869764221713
 20
-153.0194281301479
 10
127.2890434794624
 20
-153.0531900659034
 10
127.2890434794624
 20
-153.0531900659034
 10
127.2890434794624
 20
-153.0531900659034
 10
127.0709689352461
 20
-153.0531900659034
 10
127.0709689352461
 20
-153.0531900659034
 10
127.0751030498284
 20
-152.9980685381394
 10
127.0751030498284
 20
-152.9856661943925
 10
127.0816487312504
 20
-152.8712890242822
 10
127.0837157885416
 20
-152.8437282604001
 10
127.0857828458327
 20
-152.710403065121
 10
127.0857828458327
 20
-152.6914550399521
 10
127.0857828458327
 20
-152.6914550399521
 10
127.0857828458327
 20
-152.4885389158709
 10
127.0857828458327
 20
-152.4885389158709
 10
126.9462564786801
 20
-152.737963829003
 10
126.7771022903543
 20
-152.869221966991
 10
126.6713378589571
 20
-152.9346787812108
 10
126.6713378589571
 20
-152.9346787812108
 10
126.4977050465006
 20
-152.7951524140581
 10
126.4977050465006
 20
-152.7951524140581
 10
126.58658851002
 20
-152.744509510425
 10
126.7305935013034
 20
-152.6576931041967
 10
126.8680528111649
 20
-152.46304520928
 10
126.9590033319755
 20
-152.3359211858743
 10
127.0244601461953
 20
-152.1922607041394
 10
127.0582220819507
 20
-152.0399874836914
 10
126.8298122512786
 20
-152.0420545409825
 10
126.6499782669486
 20
-152.048255712856
 10
126.5548936315557
 20
-152.0503227701471
 10
126.5548936315557
 20
-152.0503227701471
 10
126.5548936315557
 20
-151.8729003526568
 10
126.5548936315557
 20
-151.8729003526568
 10
126.7516085837635
 20
-151.8791015245302
 10
127.0351399421995
 20
-151.8832356391125
 10
127.1853461053564
 20
-151.8832356391125
 10
127.1853461053564
 20
-151.8832356391125
 10
127.3989420254419
 20
-151.8832356391125
 10
127.3989420254419
 20
-151.8832356391125
 10
127.3989420254419
 20
-151.8832356391125
 10
127.3989420254419
 20
-151.7754041504242
 10
127.3989420254419
 20
-151.7754041504242
 10
127.3989420254419
 20
-151.7754041504242
 10
127.2528699768673
 20
-151.7754041504242
 10
127.2528699768673
 20
-151.7754041504242
 10
127.0837157885416
 20
-151.7754041504242
 10
126.9145616002158
 20
-151.7795382650065
 10
126.7474744691812
 20
-151.7860839464284
 10
126.7474744691812
 20
-151.7860839464284
 10
126.7474744691812
 20
-151.6148627008115
 10
126.7474744691812
 20
-151.6148627008115
 10
126.9018147469203
 20
-151.6251979872673
 10
127.0878499031239
 20
-151.6251979872673
 10
127.2528699768673
 20
-151.6251979872673
 10
127.2528699768673
 20
-151.6251979872673
 10
127.3989420254419
 20
-151.6251979872673
 10
127.3989420254419
 20
-151.6251979872673
 10
127.3989420254419
 20
-151.6251979872673
 10
127.3989420254419
 20
-151.5066867025747
 10
127.3989420254419
 20
-151.5066867025747
 10
127.3989420254419
 20
-151.5066867025747
 10
127.2676838874539
 20
-151.5066867025747
 10
127.2676838874539
 20
-151.5066867025747
 10
127.221175098403
 20
-151.5066867025747
 10
127.0182589743218
 20
-151.5152994412878
 10
126.9758842998532
 20
-151.5152994412878
 10
126.7726236662235
 20
-151.5194335558701
 10
126.6964870559995
 20
-151.5215006131613
 10
126.6182833884843
 20
-151.5235676704524
 10
126.6182833884843
 20
-151.5235676704524
 10
126.6182833884843
 20
-151.3395995715401
 10
126.6182833884843
 20
-151.3395995715401
 10
126.7326605585946
 20
-151.3482123102532
 10
126.7771022903543
 20
-151.3482123102532
 10
127.1598523987656
 20
-151.3564805394178
 10
127.096462641837
 20
-151.2613959040249
 10
127.068901877955
 20
-151.2338351401429
 10
127.0330728849084
 20
-151.1980061470963
 10
127.0330728849084
 20
-151.1980061470963
 10
127.2084282451076
 20
-151.1153238554503
 10
127.2084282451076
 20
-151.1153238554503
 10
127.248735862285
 20
-151.1514973580454
 10
127.2931775940447
 20
-151.193872032514
 10
127.3672471469776
 20
-151.3037705784935
 10
127.3672471469776
 20
-151.3037705784935
 10
127.2528699768673
 20
-151.3588921062575
 10
127.2528699768673
 20
-151.3588921062575
 10
127.2528699768673
 20
-151.3588921062575
 10
127.2635497728716
 20
-151.3588921062575
 10
127.2635497728716
 20
-151.3588921062575
 10
127.2635497728716
 20
-151.3588921062575
 10
127.786170757984
 20
-151.3588921062575
 10
127.786170757984
 20
-151.3588921062575
 10
127.786170757984
 20
-151.3588921062575
 10
127.6907416130426
 20
-151.3144503744978
 10
127.6907416130426
 20
-151.3144503744978
 10
127.7183023769246
 20
-151.2762098146115
 10
127.7754909619797
 20
-151.1959390898052
 10
127.7903048725663
 20
-151.1218695368723
 10
127.7903048725663
 20
-151.1218695368723
 10
128.0039007926518
 20
-151.1852592938009
 10
128.0039007926518
 20
-151.1852592938009
 10
128.0125135313649
 20
-151.187326351092
 10
128.0335286138249
 20
-151.1980061470963
 10
128.0335286138249
 20
-151.2190212295563
 10
128.0335286138249
 20
-151.2572617894426
 10
127.9680717996052
 20
-151.2572617894426
 10
127.9491237744363
 20
-151.2572617894426
 10
127.938443978432
 20
-151.2762098146115
 10
127.9150173291323
 20
-151.3165174317889
 10
127.8853895079592
 20
-151.3564805394178
 10
128.2853650937967
 20
-151.3502793675443
 10
128.3149929149699
 20
-151.3482123102532
 10
128.3911295251939
 20
-151.3416666288312
 10
128.3911295251939
 20
-151.3416666288312
 10
128.3911295251939
 20
-151.5235676704524
 10
128.3911295251939
 20
-151.5235676704524
 10
128.372181500025
 20
-151.5235676704524
 10
128.3466877934341
 20
-151.5215006131613
 10
128.1265461919267
 20
-151.5132323839967
 10
128.0759032882935
 20
-151.5111653267055
 10
127.855761686786
 20
-151.5066867025747
 10
127.8113199550263
 20
-151.5066867025747
 10
127.8113199550263
 20
-151.5066867025747
 10
127.5956569776497
 20
-151.5066867025747
 10
127.5956569776497
 20
-151.5066867025747
 10
127.5956569776497
 20
-151.5066867025747
 10
127.5956569776497
 20
-151.6251979872673
 10
127.5956569776497
 20
-151.6251979872673
 10
127.5956569776497
 20
-151.6251979872673
 10
127.7692897901063
 20
-151.6251979872673
 10
127.7692897901063
 20
-151.6251979872673
 10
127.9318982970101
 20
-151.6251979872673
 10
128.1224120773444
 20
-151.6251979872673
 10
128.2791639219232
 20
-151.6148627008115
 10
128.2791639219232
 20
-151.6148627008115
 10
128.2791639219232
 20
-151.7860839464284
 10
128.2791639219232
 20
-151.7860839464284
 10
128.0697021164201
 20
-151.7774712077153
 10
127.8729871642123
 20
-151.7754041504242
 10
127.7692897901063
 20
-151.7754041504242
 10
127.7692897901063
 20
-151.7754041504242
 10
127.5956569776497
 20
-151.7754041504242
 10
127.5956569776497
 20
-151.7754041504242
 10
127.5956569776497
 20
-151.7754041504242
 10
127.5956569776497
 20
-151.8832356391125
 10
127.5956569776497
 20
-151.8832356391125
 10
127.5956569776497
 20
-151.8832356391125
 10
127.8261338656129
 20
-151.8832356391125
 10
127.8261338656129
 20
-151.8832356391125
 10
127.9594590608921
 20
-151.8832356391125
 10
128.2471245339104
 20
-151.8791015245302
 10
128.4565863394136
 20
-151.8729003526568
 10
128.4565863394136
 20
-151.8729003526568
 10
128.4565863394136
 20
-152.0503227701471
 10
128.4565863394136
 20
-152.0503227701471
 10
128.2643500113367
 20
-152.0441215982737
 10
127.9511908317275
 20
-152.0399874836914
 10
127.8261338656129
 20
-152.0399874836914
 97
        0
 97
        1
330
153
 75
     2
 76
     1
 98
        1
 10
0.0
 20
0.0
450
        0
451
        0
460
0.0
461
0.0
452
        0
462
0.0
453
        0
470

  0
SPLINE
  5
155
330
148
100
AcDbEntity
  8
レイヤー 1
100
AcDbSpline
210
0.0
220
0.0
230
1.0
 70
     9
 71
     3
 72
    29
 73
    25
 74
     0
 42
0.0000000001
 43
0.0000000001
 40
0.0
 40
0.0
 40
0.0
 40
0.0
 40
1.0
 40
1.0
 40
1.0
 40
2.0
 40
2.0
 40
2.0
 40
3.0
 40
3.0
 40
3.0
 40
4.0
 40
4.0
 40
4.0
 40
5.0
 40
5.0
 40
5.0
 40
6.0
 40
6.0
 40
6.0
 40
7.0
 40
7.0
 40
7.0
 40
8.0
 40
8.0
 40
8.0
 40
8.0
 10
129.7016438477829
 20
-151.4877386774058
 30
0.0
 10
129.7016438477829
 20
-151.4877386774058
 30
0.0
 10
129.3485215605448
 20
-151.4877386774058
 30
0.0
 10
129.3485215605448
 20
-151.4877386774058
 30
0.0
 10
129.2362114477257
 20
-151.4877386774058
 30
0.0
 10
129.096685080573
 20
-151.4939398492793
 30
0.0
 10
128.9888535918847
 20
-151.5066867025747
 30
0.0
 10
128.9888535918847
 20
-151.5066867025747
 30
0.0
 10
128.9888535918847
 20
-151.2720757000292
 30
0.0
 10
128.9888535918847
 20
-151.2720757000292
 30
0.0
 10
129.1073648765773
 20
-151.2868896106158
 30
0.0
 10
129.2913329754896
 20
-151.291023725198
 30
0.0
 10
129.3485215605448
 20
-151.291023725198
 30
0.0
 10
129.3485215605448
 20
-151.291023725198
 30
0.0
 10
129.7016438477829
 20
-151.291023725198
 30
0.0
 10
129.7016438477829
 20
-151.291023725198
 30
0.0
 10
129.7209363825003
 20
-151.291023725198
 30
0.0
 10
129.9238525065815
 20
-151.291023725198
 30
0.0
 10
130.0654459310253
 20
-151.2720757000292
 30
0.0
 10
130.0654459310253
 20
-151.2720757000292
 30
0.0
 10
130.0654459310253
 20
-151.5066867025747
 30
0.0
 10
130.0654459310253
 20
-151.5066867025747
 30
0.0
 10
129.9090385959949
 20
-151.4877386774058
 30
0.0
 10
129.7185248156606
 20
-151.4877386774058
 30
0.0
 10
129.7016438477829
 20
-151.4877386774058
 30
0.0
  0
SPLINE
  5
156
330
148
100
AcDbEntity
  8
レイヤー 1
100
AcDbSpline
210
0.0
220
0.0
230
1.0
 70
     9
 71
     3
 72
    47
 73
    43
 74
     0
 42
0.0000000001
 43
0.0000000001
 40
0.0
 40
0.0
 40
0.0
 40
0.0
 40
1.0
 40
1.0
 40
1.0
 40
2.0
 40
2.0
 40
2.0
 40
3.0
 40
3.0
 40
3.0
 40
4.0
 40
4.0
 40
4.0
 40
5.0
 40
5.0
 40
5.0
 40
6.0
 40
6.0
 40
6.0
 40
7.0
 40
7.0
 40
7.0
 40
8.0
 40
8.0
 40
8.0
 40
9.0
 40
9.0
 40
9.0
 40
10.0
 40
10.0
 40
10.0
 40
11.0
 40
11.0
 40
11.0
 40
12.0
 40
12.0
 40
12.0
 40
13.0
 40
13.0
 40
13.0
 40
14.0
 40
14.0
 40
14.0
 40
14.0
 10
129.8032741645978
 20
-152.0165608343917
 30
0.0
 10
129.8032741645978
 20
-152.0165608343917
 30
0.0
 10
129.7016438477829
 20
-152.0165608343917
 30
0.0
 10
129.7016438477829
 20
-152.0165608343917
 30
0.0
 10
129.7016438477829
 20
-152.10337724062
 30
0.0
 10
129.6806287653229
 20
-152.4926730304532
 30
0.0
 10
129.4839138131151
 20
-152.7128146319607
 30
0.0
 10
129.3316405926671
 20
-152.8819688202864
 30
0.0
 10
129.124245844455
 20
-152.9515597490885
 30
0.0
 10
129.0394964955179
 20
-152.9791205129705
 30
0.0
 10
129.0394964955179
 20
-152.9791205129705
 30
0.0
 10
128.8448486006013
 20
-152.8120333819359
 30
0.0
 10
128.8448486006013
 20
-152.8120333819359
 30
0.0
 10
128.9423448028339
 20
-152.7992865286404
 30
0.0
 10
129.117700163033
 20
-152.7762043888893
 30
0.0
 10
129.3061468860762
 20
-152.5877576658461
 30
0.0
 10
129.3802164390091
 20
-152.5157551702044
 30
0.0
 10
129.4839138131151
 20
-152.3762288030518
 30
0.0
 10
129.4839138131151
 20
-152.0165608343917
 30
0.0
 10
129.4839138131151
 20
-152.0165608343917
 30
0.0
 10
129.2530924156034
 20
-152.0165608343917
 30
0.0
 10
129.2530924156034
 20
-152.0165608343917
 30
0.0
 10
129.0670572593999
 20
-152.0165608343917
 30
0.0
 10
128.8810221031964
 20
-152.0210394585225
 30
0.0
 10
128.6946424374444
 20
-152.0355088595605
 30
0.0
 10
128.6946424374444
 20
-152.0355088595605
 30
0.0
 10
128.6946424374444
 20
-151.8157117676016
 30
0.0
 10
128.6946424374444
 20
-151.8157117676016
 30
0.0
 10
128.8830891604876
 20
-151.8305256781882
 30
0.0
 10
129.1686875762148
 20
-151.8346597927705
 30
0.0
 10
129.2530924156034
 20
-151.8346597927705
 30
0.0
 10
129.2530924156034
 20
-151.8346597927705
 30
0.0
 10
129.8032741645978
 20
-151.8346597927705
 30
0.0
 10
129.8032741645978
 20
-151.8346597927705
 30
0.0
 10
129.8222221897667
 20
-151.8346597927705
 30
0.0
 10
130.1395154839582
 20
-151.8346597927705
 30
0.0
 10
130.3682698241788
 20
-151.8157117676016
 30
0.0
 10
130.3682698241788
 20
-151.8157117676016
 30
0.0
 10
130.3682698241788
 20
-152.0355088595605
 30
0.0
 10
130.3682698241788
 20
-152.0355088595605
 30
0.0
 10
130.1798231011356
 20
-152.0210394585225
 30
0.0
 10
129.9917208876409
 20
-152.0165608343917
 30
0.0
 10
129.8032741645978
 20
-152.0165608343917
 30
0.0
  0
HATCH
  5
157
330
148
100
AcDbEntity
  8
レイヤー 1
 62
    18
420
        0
440
 33554687
100
AcDbHatch
 10
0.0
 20
0.0
 30
0.0
210
0.0
220
0.0
230
1.0
  2
SOLID
 70
     1
 71
     1
 91
        2
 92
        1
 93
        1
 72
     4
 94
        3
 73
     0
 74
     0
 95
       29
 96
       25
 40
0.0
 40
0.0
 40
0.0
 40
0.0
 40
1.0
 40
1.0
 40
1.0
 40
2.0
 40
2.0
 40
2.0
 40
3.0
 40
3.0
 40
3.0
 40
4.0
 40
4.0
 40
4.0
 40
5.0
 40
5.0
 40
5.0
 40
6.0
 40
6.0
 40
6.0
 40
7.0
 40
7.0
 40
7.0
 40
8.0
 40
8.0
 40
8.0
 40
8.0
 10
129.7016438477829
 20
-151.4877386774058
 10
129.7016438477829
 20
-151.4877386774058
 10
129.3485215605448
 20
-151.4877386774058
 10
129.3485215605448
 20
-151.4877386774058
 10
129.2362114477257
 20
-151.4877386774058
 10
129.096685080573
 20
-151.4939398492793
 10
128.9888535918847
 20
-151.5066867025747
 10
128.9888535918847
 20
-151.5066867025747
 10
128.9888535918847
 20
-151.2720757000292
 10
128.9888535918847
 20
-151.2720757000292
 10
129.1073648765773
 20
-151.2868896106158
 10
129.2913329754896
 20
-151.291023725198
 10
129.3485215605448
 20
-151.291023725198
 10
129.3485215605448
 20
-151.291023725198
 10
129.7016438477829
 20
-151.291023725198
 10
129.7016438477829
 20
-151.291023725198
 10
129.7209363825003
 20
-151.291023725198
 10
129.9238525065815
 20
-151.291023725198
 10
130.0654459310253
 20
-151.2720757000292
 10
130.0654459310253
 20
-151.2720757000292
 10
130.0654459310253
 20
-151.5066867025747
 10
130.0654459310253
 20
-151.5066867025747
 10
129.9090385959949
 20
-151.4877386774058
 10
129.7185248156606
 20
-151.4877386774058
 10
129.7016438477829
 20
-151.4877386774058
 97
        0
 97
        1
330
155
 92
        1
 93
        1
 72
     4
 94
        3
 73
     0
 74
     0
 95
       47
 96
       43
 40
0.0
 40
0.0
 40
0.0
 40
0.0
 40
1.0
 40
1.0
 40
1.0
 40
2.0
 40
2.0
 40
2.0
 40
3.0
 40
3.0
 40
3.0
 40
4.0
 40
4.0
 40
4.0
 40
5.0
 40
5.0
 40
5.0
 40
6.0
 40
6.0
 40
6.0
 40
7.0
 40
7.0
 40
7.0
 40
8.0
 40
8.0
 40
8.0
 40
9.0
 40
9.0
 40
9.0
 40
10.0
 40
10.0
 40
10.0
 40
11.0
 40
11.0
 40
11.0
 40
12.0
 40
12.0
 40
12.0
 40
13.0
 40
13.0
 40
13.0
 40
14.0
 40
14.0
 40
14.0
 40
14.0
 10
129.8032741645978
 20
-152.0165608343917
 10
129.8032741645978
 20
-152.0165608343917
 10
129.7016438477829
 20
-152.0165608343917
 10
129.7016438477829
 20
-152.0165608343917
 10
129.7016438477829
 20
-152.10337724062
 10
129.6806287653229
 20
-152.4926730304532
 10
129.4839138131151
 20
-152.7128146319607
 10
129.3316405926671
 20
-152.8819688202864
 10
129.124245844455
 20
-152.9515597490885
 10
129.0394964955179
 20
-152.9791205129705
 10
129.0394964955179
 20
-152.9791205129705
 10
128.8448486006013
 20
-152.8120333819359
 10
128.8448486006013
 20
-152.8120333819359
 10
128.9423448028339
 20
-152.7992865286404
 10
129.117700163033
 20
-152.7762043888893
 10
129.3061468860762
 20
-152.5877576658461
 10
129.3802164390091
 20
-152.5157551702044
 10
129.4839138131151
 20
-152.3762288030518
 10
129.4839138131151
 20
-152.0165608343917
 10
129.4839138131151
 20
-152.0165608343917
 10
129.2530924156034
 20
-152.0165608343917
 10
129.2530924156034
 20
-152.0165608343917
 10
129.0670572593999
 20
-152.0165608343917
 10
128.8810221031964
 20
-152.0210394585225
 10
128.6946424374444
 20
-152.0355088595605
 10
128.6946424374444
 20
-152.0355088595605
 10
128.6946424374444
 20
-151.8157117676016
 10
128.6946424374444
 20
-151.8157117676016
 10
128.8830891604876
 20
-151.8305256781882
 10
129.1686875762148
 20
-151.8346597927705
 10
129.2530924156034
 20
-151.8346597927705
 10
129.2530924156034
 20
-151.8346597927705
 10
129.8032741645978
 20
-151.8346597927705
 10
129.8032741645978
 20
-151.8346597927705
 10
129.8222221897667
 20
-151.8346597927705
 10
130.1395154839582
 20
-151.8346597927705
 10
130.3682698241788
 20
-151.8157117676016
 10
130.3682698241788
 20
-151.8157117676016
 10
130.3682698241788
 20
-152.0355088595605
 10
130.3682698241788
 20
-152.0355088595605
 10
130.1798231011356
 20
-152.0210394585225
 10
129.9917208876409
 20
-152.0165608343917
 10
129.8032741645978
 20
-152.0165608343917
 97
        0
 97
        1
330
156
 75
     2
 76
     1
 98
        1
 10
0.0
 20
0.0
450
        0
451
        0
460
0.0
461
0.0
452
        0
462
0.0
453
        0
470

  0
SPLINE
  5
158
330
148
100
AcDbEntity
  8
レイヤー 1
100
AcDbSpline
210
0.0
220
0.0
230
1.0
 70
     9
 71
     3
 72
    29
 73
    25
 74
     0
 42
0.0000000001
 43
0.0000000001
 40
0.0
 40
0.0
 40
0.0
 40
0.0
 40
1.0
 40
1.0
 40
1.0
 40
2.0
 40
2.0
 40
2.0
 40
3.0
 40
3.0
 40
3.0
 40
4.0
 40
4.0
 40
4.0
 40
5.0
 40
5.0
 40
5.0
 40
6.0
 40
6.0
 40
6.0
 40
7.0
 40
7.0
 40
7.0
 40
8.0
 40
8.0
 40
8.0
 40
8.0
 10
131.6491563255947
 20
-152.179513850844
 30
0.0
 10
131.6491563255947
 20
-152.179513850844
 30
0.0
 10
131.1647759003685
 20
-152.179513850844
 30
0.0
 10
131.1647759003685
 20
-152.179513850844
 30
0.0
 10
131.1372151364865
 20
-152.179513850844
 30
0.0
 10
130.819921842295
 20
-152.179513850844
 30
0.0
 10
130.6083929795007
 20
-152.2050075574348
 30
0.0
 10
130.6083929795007
 20
-152.2050075574348
 30
0.0
 10
130.6083929795007
 20
-151.9741861599231
 30
0.0
 10
130.6083929795007
 20
-151.9741861599231
 30
0.0
 10
130.7668673718221
 20
-151.9976128092228
 30
0.0
 10
130.9573811521565
 20
-151.999679866514
 30
0.0
 10
131.1647759003685
 20
-151.999679866514
 30
0.0
 10
131.1647759003685
 20
-151.999679866514
 30
0.0
 10
131.6491563255947
 20
-151.999679866514
 30
0.0
 10
131.6491563255947
 20
-151.999679866514
 30
0.0
 10
131.8351914817981
 20
-151.999679866514
 30
0.0
 10
132.0212266380016
 20
-151.9976128092228
 30
0.0
 10
132.2055392464625
 20
-151.9741861599231
 30
0.0
 10
132.2055392464625
 20
-151.9741861599231
 30
0.0
 10
132.2055392464625
 20
-152.2050075574348
 30
0.0
 10
132.2055392464625
 20
-152.2050075574348
 30
0.0
 10
132.0212266380016
 20
-152.1815809081352
 30
0.0
 10
131.7738687821607
 20
-152.179513850844
 30
0.0
 10
131.6491563255947
 20
-152.179513850844
 30
0.0
  0
HATCH
  5
159
330
148
100
AcDbEntity
  8
レイヤー 1
 62
    18
420
        0
440
 33554687
100
AcDbHatch
 10
0.0
 20
0.0
 30
0.0
210
0.0
220
0.0
230
1.0
  2
SOLID
 70
     1
 71
     1
 91
        1
 92
        1
 93
        1
 72
     4
 94
        3
 73
     0
 74
     0
 95
       29
 96
       25
 40
0.0
 40
0.0
 40
0.0
 40
0.0
 40
1.0
 40
1.0
 40
1.0
 40
2.0
 40
2.0
 40
2.0
 40
3.0
 40
3.0
 40
3.0
 40
4.0
 40
4.0
 40
4.0
 40
5.0
 40
5.0
 40
5.0
 40
6.0
 40
6.0
 40
6.0
 40
7.0
 40
7.0
 40
7.0
 40
8.0
 40
8.0
 40
8.0
 40
8.0
 10
131.6491563255947
 20
-152.179513850844
 10
131.6491563255947
 20
-152.179513850844
 10
131.1647759003685
 20
-152.179513850844
 10
131.1647759003685
 20
-152.179513850844
 10
131.1372151364865
 20
-152.179513850844
 10
130.819921842295
 20
-152.179513850844
 10
130.6083929795007
 20
-152.2050075574348
 10
130.6083929795007
 20
-152.2050075574348
 10
130.6083929795007
 20
-151.9741861599231
 10
130.6083929795007
 20
-151.9741861599231
 10
130.7668673718221
 20
-151.9976128092228
 10
130.9573811521565
 20
-151.999679866514
 10
131.1647759003685
 20
-151.999679866514
 10
131.1647759003685
 20
-151.999679866514
 10
131.6491563255947
 20
-151.999679866514
 10
131.6491563255947
 20
-151.999679866514
 10
131.8351914817981
 20
-151.999679866514
 10
132.0212266380016
 20
-151.9976128092228
 10
132.2055392464625
 20
-151.9741861599231
 10
132.2055392464625
 20
-151.9741861599231
 10
132.2055392464625
 20
-152.2050075574348
 10
132.2055392464625
 20
-152.2050075574348
 10
132.0212266380016
 20
-152.1815809081352
 10
131.7738687821607
 20
-152.179513850844
 10
131.6491563255947
 20
-152.179513850844
 97
        0
 97
        1
330
158
 75
     2
 76
     1
 98
        1
 10
0.0
 20
0.0
450
        0
451
        0
460
0.0
461
0.0
452
        0
462
0.0
453
        0
470

  0
SPLINE
  5
15A
330
148
100
AcDbEntity
  8
レイヤー 1
100
AcDbSpline
210
0.0
220
0.0
230
1.0
 70
     9
 71
     3
 72
    47
 73
    43
 74
     0
 42
0.0000000001
 43
0.0000000001
 40
0.0
 40
0.0
 40
0.0
 40
0.0
 40
1.0
 40
1.0
 40
1.0
 40
2.0
 40
2.0
 40
2.0
 40
3.0
 40
3.0
 40
3.0
 40
4.0
 40
4.0
 40
4.0
 40
5.0
 40
5.0
 40
5.0
 40
6.0
 40
6.0
 40
6.0
 40
7.0
 40
7.0
 40
7.0
 40
8.0
 40
8.0
 40
8.0
 40
9.0
 40
9.0
 40
9.0
 40
10.0
 40
10.0
 40
10.0
 40
11.0
 40
11.0
 40
11.0
 40
12.0
 40
12.0
 40
12.0
 40
13.0
 40
13.0
 40
13.0
 40
14.0
 40
14.0
 40
14.0
 40
14.0
 10
133.8691758562896
 20
-151.5852348796384
 30
0.0
 10
133.799240417939
 20
-151.8642876139436
 30
0.0
 10
133.723103807715
 20
-152.1688340548397
 30
0.0
 10
133.4102891376544
 20
-152.5009412596178
 30
0.0
 10
133.1732665682691
 20
-152.7507106822984
 30
0.0
 10
132.9279757697194
 20
-152.8502739418222
 30
0.0
 10
132.8222113383222
 20
-152.8923041067422
 30
0.0
 10
132.8222113383222
 20
-152.8923041067422
 30
0.0
 10
132.6275634434056
 20
-152.710403065121
 30
0.0
 10
132.6275634434056
 20
-152.710403065121
 30
0.0
 10
132.8135985996091
 20
-152.6638942760701
 30
0.0
 10
133.1753336255603
 20
-152.5708766979684
 30
0.0
 10
133.4716118372918
 20
-152.075816476738
 30
0.0
 10
133.6321532869044
 20
-151.8091660861796
 30
0.0
 10
133.6449001401999
 20
-151.6358777832716
 30
0.0
 10
133.653512878913
 20
-151.544927262461
 30
0.0
 10
133.653512878913
 20
-151.544927262461
 30
0.0
 10
133.1477728616783
 20
-151.544927262461
 30
0.0
 10
133.1477728616783
 20
-151.544927262461
 30
0.0
 10
133.0292615769857
 20
-151.544927262461
 30
0.0
 10
132.6082709086882
 20
-151.5638752876299
 30
0.0
 10
132.4559976882401
 20
-151.5745550836341
 30
0.0
 10
132.4559976882401
 20
-151.5745550836341
 30
0.0
 10
132.4559976882401
 20
-151.3650932781309
 30
0.0
 10
132.4559976882401
 20
-151.3650932781309
 30
0.0
 10
132.5979356222324
 20
-151.3778401314264
 30
0.0
 10
132.8749212992465
 20
-151.3819742460086
 30
0.0
 10
132.991365526648
 20
-151.3819742460086
 30
0.0
 10
132.991365526648
 20
-151.3819742460086
 30
0.0
 10
133.3465548711772
 20
-151.3819742460086
 30
0.0
 10
133.3465548711772
 20
-151.3819742460086
 30
0.0
 10
133.3741156350592
 20
-151.3819742460086
 30
0.0
 10
133.5350015942204
 20
-151.3799071887175
 30
0.0
 10
133.6449001401999
 20
-151.3650932781309
 30
0.0
 10
133.702088725255
 20
-151.3588921062575
 30
0.0
 10
133.7189696931327
 20
-151.3395995715401
 30
0.0
 10
133.7423963424325
 20
-151.3165174317889
 30
0.0
 10
133.7423963424325
 20
-151.3165174317889
 30
0.0
 10
133.9304985559271
 20
-151.4667235949458
 30
0.0
 10
133.9304985559271
 20
-151.4667235949458
 30
0.0
 10
133.9156846453405
 20
-151.496351416119
 30
0.0
 10
133.9053493588848
 20
-151.5152994412878
 30
0.0
 10
133.8691758562896
 20
-151.5852348796384
 30
0.0
  0
HATCH
  5
15B
330
148
100
AcDbEntity
  8
レイヤー 1
 62
    18
420
        0
440
 33554687
100
AcDbHatch
 10
0.0
 20
0.0
 30
0.0
210
0.0
220
0.0
230
1.0
  2
SOLID
 70
     1
 71
     1
 91
        1
 92
        1
 93
        1
 72
     4
 94
        3
 73
     0
 74
     0
 95
       47
 96
       43
 40
0.0
 40
0.0
 40
0.0
 40
0.0
 40
1.0
 40
1.0
 40
1.0
 40
2.0
 40
2.0
 40
2.0
 40
3.0
 40
3.0
 40
3.0
 40
4.0
 40
4.0
 40
4.0
 40
5.0
 40
5.0
 40
5.0
 40
6.0
 40
6.0
 40
6.0
 40
7.0
 40
7.0
 40
7.0
 40
8.0
 40
8.0
 40
8.0
 40
9.0
 40
9.0
 40
9.0
 40
10.0
 40
10.0
 40
10.0
 40
11.0
 40
11.0
 40
11.0
 40
12.0
 40
12.0
 40
12.0
 40
13.0
 40
13.0
 40
13.0
 40
14.0
 40
14.0
 40
14.0
 40
14.0
 10
133.8691758562896
 20
-151.5852348796384
 10
133.799240417939
 20
-151.8642876139436
 10
133.723103807715
 20
-152.1688340548397
 10
133.4102891376544
 20
-152.5009412596178
 10
133.1732665682691
 20
-152.7507106822984
 10
132.9279757697194
 20
-152.8502739418222
 10
132.8222113383222
 20
-152.8923041067422
 10
132.8222113383222
 20
-152.8923041067422
 10
132.6275634434056
 20
-152.710403065121
 10
132.6275634434056
 20
-152.710403065121
 10
132.8135985996091
 20
-152.6638942760701
 10
133.1753336255603
 20
-152.5708766979684
 10
133.4716118372918
 20
-152.075816476738
 10
133.6321532869044
 20
-151.8091660861796
 10
133.6449001401999
 20
-151.6358777832716
 10
133.653512878913
 20
-151.544927262461
 10
133.653512878913
 20
-151.544927262461
 10
133.1477728616783
 20
-151.544927262461
 10
133.1477728616783
 20
-151.544927262461
 10
133.0292615769857
 20
-151.544927262461
 10
132.6082709086882
 20
-151.5638752876299
 10
132.4559976882401
 20
-151.5745550836341
 10
132.4559976882401
 20
-151.5745550836341
 10
132.4559976882401
 20
-151.3650932781309
 10
132.4559976882401
 20
-151.3650932781309
 10
132.5979356222324
 20
-151.3778401314264
 10
132.8749212992465
 20
-151.3819742460086
 10
132.991365526648
 20
-151.3819742460086
 10
132.991365526648
 20
-151.3819742460086
 10
133.3465548711772
 20
-151.3819742460086
 10
133.3465548711772
 20
-151.3819742460086
 10
133.3741156350592
 20
-151.3819742460086
 10
133.5350015942204
 20
-151.3799071887175
 10
133.6449001401999
 20
-151.3650932781309
 10
133.702088725255
 20
-151.3588921062575
 10
133.7189696931327
 20
-151.3395995715401
 10
133.7423963424325
 20
-151.3165174317889
 10
133.7423963424325
 20
-151.3165174317889
 10
133.9304985559271
 20
-151.4667235949458
 10
133.9304985559271
 20
-151.4667235949458
 10
133.9156846453405
 20
-151.496351416119
 10
133.9053493588848
 20
-151.5152994412878
 10
133.8691758562896
 20
-151.5852348796384
 97
        0
 97
        1
330
15A
 75
     2
 76
     1
 98
        1
 10
0.0
 20
0.0
450
        0
451
        0
460
0.0
461
0.0
452
        0
462
0.0
453
        0
470

  0
SPLINE
  5
15C
330
148
100
AcDbEntity
  8
レイヤー 1
100
AcDbSpline
210
0.0
220
0.0
230
1.0
 70
    11
 71
     3
 72
    17
 73
    13
 74
     0
 42
0.0000000001
 43
0.0000000001
 40
0.0
 40
0.0
 40
0.0
 40
0.0
 40
1.0
 40
1.0
 40
1.0
 40
2.0
 40
2.0
 40
2.0
 40
3.0
 40
3.0
 40
3.0
 40
4.0
 40
4.0
 40
4.0
 40
4.0
 10
134.2595051747684
 20
-151.3671603354221
 30
0.0
 10
134.2595051747684
 20
-151.4264159777684
 30
0.0
 10
134.3060139638193
 20
-151.4729247668193
 30
0.0
 10
134.3652696061656
 20
-151.4729247668193
 30
0.0
 10
134.4245252485119
 20
-151.4729247668193
 30
0.0
 10
134.4731010948539
 20
-151.4264159777684
 30
0.0
 10
134.4731010948539
 20
-151.3671603354221
 30
0.0
 10
134.4731010948539
 20
-151.3079046930758
 30
0.0
 10
134.4245252485119
 20
-151.2593288467338
 30
0.0
 10
134.3652696061656
 20
-151.2593288467338
 30
0.0
 10
134.3060139638193
 20
-151.2593288467338
 30
0.0
 10
134.2595051747684
 20
-151.3079046930758
 30
0.0
 10
134.2595051747684
 20
-151.3671603354221
 30
0.0
  0
SPLINE
  5
15D
330
148
100
AcDbEntity
  8
レイヤー 1
100
AcDbSpline
210
0.0
220
0.0
230
1.0
 70
     9
 71
     3
 72
    17
 73
    13
 74
     0
 42
0.0000000001
 43
0.0000000001
 40
0.0
 40
0.0
 40
0.0
 40
0.0
 40
1.0
 40
1.0
 40
1.0
 40
2.0
 40
2.0
 40
2.0
 40
3.0
 40
3.0
 40
3.0
 40
4.0
 40
4.0
 40
4.0
 40
4.0
 10
134.5747314116688
 20
-151.3671603354221
 30
0.0
 10
134.5747314116688
 20
-151.4815375055324
 30
0.0
 10
134.4817138335671
 20
-151.5766221409253
 30
0.0
 10
134.3652696061656
 20
-151.5766221409253
 30
0.0
 10
134.2508924360553
 20
-151.5766221409253
 30
0.0
 10
134.1558078006624
 20
-151.4815375055324
 30
0.0
 10
134.1558078006624
 20
-151.3671603354221
 30
0.0
 10
134.1558078006624
 20
-151.2507161080207
 30
0.0
 10
134.2508924360553
 20
-151.1576985299189
 30
0.0
 10
134.3652696061656
 20
-151.1576985299189
 30
0.0
 10
134.4796467762759
 20
-151.1576985299189
 30
0.0
 10
134.5747314116688
 20
-151.2507161080207
 30
0.0
 10
134.5747314116688
 20
-151.3671603354221
 30
0.0
  0
HATCH
  5
15E
330
148
100
AcDbEntity
  8
レイヤー 1
 62
    18
420
        0
440
 33554687
100
AcDbHatch
 10
0.0
 20
0.0
 30
0.0
210
0.0
220
0.0
230
1.0
  2
SOLID
 70
     1
 71
     1
 91
        2
 92
        1
 93
        1
 72
     4
 94
        3
 73
     0
 74
     0
 95
       17
 96
       13
 40
0.0
 40
0.0
 40
0.0
 40
0.0
 40
1.0
 40
1.0
 40
1.0
 40
2.0
 40
2.0
 40
2.0
 40
3.0
 40
3.0
 40
3.0
 40
4.0
 40
4.0
 40
4.0
 40
4.0
 10
134.2595051747684
 20
-151.3671603354221
 10
134.2595051747684
 20
-151.4264159777684
 10
134.3060139638193
 20
-151.4729247668193
 10
134.3652696061656
 20
-151.4729247668193
 10
134.4245252485119
 20
-151.4729247668193
 10
134.4731010948539
 20
-151.4264159777684
 10
134.4731010948539
 20
-151.3671603354221
 10
134.4731010948539
 20
-151.3079046930758
 10
134.4245252485119
 20
-151.2593288467338
 10
134.3652696061656
 20
-151.2593288467338
 10
134.3060139638193
 20
-151.2593288467338
 10
134.2595051747684
 20
-151.3079046930758
 10
134.2595051747684
 20
-151.3671603354221
 97
        0
 97
        1
330
15C
 92
        1
 93
        1
 72
     4
 94
        3
 73
     0
 74
     0
 95
       17
 96
       13
 40
0.0
 40
0.0
 40
0.0
 40
0.0
 40
1.0
 40
1.0
 40
1.0
 40
2.0
 40
2.0
 40
2.0
 40
3.0
 40
3.0
 40
3.0
 40
4.0
 40
4.0
 40
4.0
 40
4.0
 10
134.5747314116688
 20
-151.3671603354221
 10
134.5747314116688
 20
-151.4815375055324
 10
134.4817138335671
 20
-151.5766221409253
 10
134.3652696061656
 20
-151.5766221409253
 10
134.2508924360553
 20
-151.5766221409253
 10
134.1558078006624
 20
-151.4815375055324
 10
134.1558078006624
 20
-151.3671603354221
 10
134.1558078006624
 20
-151.2507161080207
 10
134.2508924360553
 20
-151.1576985299189
 10
134.3652696061656
 20
-151.1576985299189
 10
134.4796467762759
 20
-151.1576985299189
 10
134.5747314116688
 20
-151.2507161080207
 10
134.5747314116688
 20
-151.3671603354221
 97
        0
 97
        1
330
15D
 75
     2
 76
     1
 98
        1
 10
0.0
 20
0.0
450
        0
451
        0
460
0.0
461
0.0
452
        0
462
0.0
453
        0
470

  0
ENDBLK
  5
14B
330
148
100
AcDbEntity
  8
0
100
AcDbBlockEnd
  0
ENDSEC
  0
SECTION
  2
ENTITIES
  0
INSERT
  5
7A
330
70
100
AcDbEntity
  8
レイヤー 1
100
AcDbBlockReference
  2
Block_0
 10
0.0
 20
0.0
 30
0.0
  0
INSERT
  5
13A
330
70
100
AcDbEntity
  8
レイヤー 1
100
AcDbBlockReference
  2
Block_11
 10
0.0
 20
0.0
 30
0.0
  0
ENDSEC
  0
SECTION
  2
OBJECTS
  0
DICTIONARY
  5
C
330
0
100
AcDbDictionary
281
     1
  3
ACAD_COLOR
350
63
  3
ACAD_DETAILVIEWSTYLE
350
6A
  3
ACAD_GROUP
350
D
  3
ACAD_LAYOUT
350
62
  3
ACAD_MATERIAL
350
10
  3
ACAD_MLEADERSTYLE
350
66
  3
ACAD_MLINESTYLE
350
5F
  3
ACAD_PLOTSETTINGS
350
61
  3
ACAD_PLOTSTYLENAME
350
E
  3
ACAD_SCALELIST
350
42
  3
ACAD_SECTIONVIEWSTYLE
350
68
  3
ACAD_TABLESTYLE
350
64
  3
ACAD_VISUALSTYLE
350
29
  3
ACDB_RECOMPOSE_DATA
350
167
  3
AcDbVariableDictionary
350
15F
  0
DICTIONARY
  5
63
102
{ACAD_REACTORS
330
C
102
}
330
C
100
AcDbDictionary
281
     1
  0
DICTIONARY
  5
6A
102
{ACAD_REACTORS
330
C
102
}
330
C
100
AcDbDictionary
281
     1
  3
Imperial24
350
6B
  0
DICTIONARY
  5
D
102
{ACAD_REACTORS
330
C
102
}
330
C
100
AcDbDictionary
281
     1
  0
DICTIONARY
  5
62
102
{ACAD_REACTORS
330
C
102
}
330
C
100
AcDbDictionary
281
     1
  3
Layout1
350
6F
  3
Layout2
350
77
  3
Model
350
73
  0
DICTIONARY
  5
10
102
{ACAD_REACTORS
330
C
102
}
330
C
100
AcDbDictionary
281
     1
  3
ByBlock
350
19
  3
ByLayer
350
11
  3
Global
350
21
  0
DICTIONARY
  5
66
102
{ACAD_REACTORS
330
C
102
}
330
C
100
AcDbDictionary
281
     1
  3
Standard
350
67
  0
DICTIONARY
  5
5F
102
{ACAD_REACTORS
330
C
102
}
330
C
100
AcDbDictionary
281
     1
  3
Standard
350
60
  0
DICTIONARY
  5
61
102
{ACAD_REACTORS
330
C
102
}
330
C
100
AcDbDictionary
281
     1
  0
ACDBDICTIONARYWDFLT
  5
E
102
{ACAD_REACTORS
330
C
102
}
330
C
100
AcDbDictionary
281
     1
  3
Normal
350
F
100
AcDbDictionaryWithDefault
340
F
  0
DICTIONARY
  5
42
102
{ACAD_REACTORS
330
C
102
}
330
C
100
AcDbDictionary
281
     1
  3
A0
350
43
  3
A1
350
44
  3
A2
350
45
  3
A3
350
46
  3
A4
350
47
  3
A5
350
48
  3
A6
350
49
  3
A7
350
4A
  3
A8
350
4B
  3
A9
350
4C
  3
B0
350
4D
  3
B1
350
4E
  3
B2
350
4F
  3
B3
350
50
  3
B4
350
51
  3
B5
350
52
  3
B6
350
53
  0
DICTIONARY
  5
68
102
{ACAD_REACTORS
330
C
102
}
330
C
100
AcDbDictionary
281
     1
  3
Imperial24
350
69
  0
DICTIONARY
  5
64
102
{ACAD_REACTORS
330
C
102
}
330
C
100
AcDbDictionary
281
     1
  3
Standard
350
65
  0
DICTIONARY
  5
29
102
{ACAD_REACTORS
330
C
102
}
330
C
100
AcDbDictionary
281
     1
  3
2dWireframe
350
2F
  3
Basic
350
2E
  3
Brighten
350
35
  3
ColorChange
350
39
  3
Conceptual
350
32
  3
Dim
350
34
  3
EdgeColorOff
350
41
  3
Facepattern
350
38
  3
Flat
350
2A
  3
FlatWithEdges
350
2B
  3
Gouraud
350
2C
  3
GouraudWithEdges
350
2D
  3
Hidden
350
31
  3
JitterOff
350
3F
  3
Linepattern
350
37
  3
OverhangOff
350
40
  3
Realistic
350
33
  3
Shaded
350
3E
  3
Shaded with edges
350
3D
  3
Shades of Gray
350
3A
  3
Sketchy
350
3B
  3
Thicken
350
36
  3
Wireframe
350
30
  3
X-Ray
350
3C
  0
XRECORD
  5
167
102
{ACAD_REACTORS
330
C
102
}
330
C
100
AcDbXrecord
280
     1
 90
        1
330
65
  0
DICTIONARY
  5
15F
102
{ACAD_REACTORS
330
C
102
}
330
C
100
AcDbDictionary
281
     1
  3
CANNOSCALE
350
164
  3
CMLEADERSTYLE
350
161
  3
CTABLESTYLE
350
160
  3
CVIEWDETAILSTYLE
350
162
  3
CVIEWSECTIONSTYLE
350
163
  0
ACDBDETAILVIEWSTYLE
  5
6B
102
{ACAD_XDICTIONARY
360
19C
102
}
102
{ACAD_REACTORS
330
6A
102
}
330
6A
100
AcDbModelDocViewStyle
 70
     0
  3
Imperial24
290
     0
100
AcDbDetailViewStyle
 70
     0
 71
     0
 90
        3
 71
     1
340
55
 62
   256
 40
0.24
340
0
 62
   256
 40
0.24
300

 40
0.36
280
     3
 71
     2
340
5D
 90
       25
 62
   256
 71
     3
340
55
 62
   256
 40
0.24
 90
        1
 40
0.75
 90
        1
300
%<\AcVar ViewType \f "%tc1">% %<\AcVar ViewDetailId>%\PSCALE %<\AcVar ViewScale \f "%sn">%
 71
     4
340
5D
 90
       25
 62
   256
340
5D
 90
       25
 62
   256
280
     0
  0
LAYOUT
  5
6F
102
{ACAD_REACTORS
330
62
102
}
330
62
100
AcDbPlotSettings
  1

  2

  4

  6

 40
0.0
 41
0.0
 42
0.0
 43
0.0
 44
0.0
 45
0.0
 46
0.0
 47
0.0
 48
0.0
 49
0.0
140
0.0
141
0.0
142
1.0
143
1.0
 70
   688
 72
     0
 73
     0
 74
     5
  7

 75
    16
147
1.0
 76
     0
 77
     2
 78
   300
148
0.0
149
0.0
100
AcDbLayout
  1
Layout1
 70
     1
 71
     1
 10
0.0
 20
0.0
 11
12.0
 21
9.0
 12
0.0
 22
0.0
 32
0.0
 14
0.0
 24
0.0
 34
0.0
 15
0.0
 25
0.0
 35
0.0
146
0.0
 13
0.0
 23
0.0
 33
0.0
 16
1.0
 26
0.0
 36
0.0
 17
0.0
 27
1.0
 37
0.0
 76
     0
330
6C
  0
LAYOUT
  5
77
102
{ACAD_REACTORS
330
62
102
}
330
62
100
AcDbPlotSettings
  1

  2

  4

  6

 40
0.0
 41
0.0
 42
0.0
 43
0.0
 44
0.0
 45
0.0
 46
0.0
 47
0.0
 48
0.0
 49
0.0
140
0.0
141
0.0
142
1.0
143
1.0
 70
   688
 72
     0
 73
     0
 74
     5
  7

 75
    16
147
1.0
 76
     0
 77
     2
 78
   300
148
0.0
149
0.0
100
AcDbLayout
  1
Layout2
 70
     1
 71
     2
 10
0.0
 20
0.0
 11
12.0
 21
9.0
 12
0.0
 22
0.0
 32
0.0
 14
0.0
 24
0.0
 34
0.0
 15
0.0
 25
0.0
 35
0.0
146
0.0
 13
0.0
 23
0.0
 33
0.0
 16
1.0
 26
0.0
 36
0.0
 17
0.0
 27
1.0
 37
0.0
 76
     0
330
74
  0
LAYOUT
  5
73
102
{ACAD_REACTORS
330
62
102
}
330
62
100
AcDbPlotSettings
  1

  2

  4

  6

 40
0.0
 41
0.0
 42
0.0
 43
0.0
 44
0.0
 45
0.0
 46
0.0
 47
0.0
 48
0.0
 49
0.0
140
0.0
141
0.0
142
1.0
143
1.0
 70
  1712
 72
     0
 73
     0
 74
     0
  7

 75
     0
147
1.0
 76
     0
 77
     2
 78
   300
148
0.0
149
0.0
100
AcDbLayout
  1
Model
 70
     1
 71
     0
 10
0.0
 20
0.0
 11
12.0
 21
9.0
 12
0.0
 22
0.0
 32
0.0
 14
0.0
 24
0.0
 34
0.0
 15
0.0
 25
0.0
 35
0.0
146
0.0
 13
0.0
 23
0.0
 33
0.0
 16
1.0
 26
0.0
 36
0.0
 17
0.0
 27
1.0
 37
0.0
 76
     0
330
70
  0
MATERIAL
  5
19
102
{ACAD_XDICTIONARY
360
1A
102
}
102
{ACAD_REACTORS
330
10
102
}
330
10
100
AcDbMaterial
  1
ByBlock
 72
     0
 43
0.0208333333333333
 43
0.0
 43
0.0
 43
0.0
 43
0.0
 43
0.0208333333333333
 43
0.0
 43
0.0
 43
0.0
 43
0.0
 43
1.0
 43
0.0
 43
0.0
 43
0.0
 43
0.0
 43
1.0
 77
     0
 47
0.0208333333333333
 47
0.0
 47
0.0
 47
0.0
 47
0.0
 47
0.0208333333333333
 47
0.0
 47
0.0
 47
0.0
 47
0.0
 47
1.0
 47
0.0
 47
0.0
 47
0.0
 47
0.0
 47
1.0
171
     0
 49
0.0208333333333333
 49
0.0
 49
0.0
 49
0.0
 49
0.0
 49
0.0208333333333333
 49
0.0
 49
0.0
 49
0.0
 49
0.0
 49
1.0
 49
0.0
 49
0.0
 49
0.0
 49
0.0
 49
1.0
175
     0
142
0.0208333333333333
142
0.0
142
0.0
142
0.0
142
0.0
142
0.0208333333333333
142
0.0
142
0.0
142
0.0
142
0.0
142
1.0
142
0.0
142
0.0
142
0.0
142
0.0
142
1.0
179
     0
144
0.0208333333333333
144
0.0
144
0.0
144
0.0
144
0.0
144
0.0208333333333333
144
0.0
144
0.0
144
0.0
144
0.0
144
1.0
144
0.0
144
0.0
144
0.0
144
0.0
144
1.0
147
0.0208333333333333
147
0.0
147
0.0
147
0.0
147
0.0
147
0.0208333333333333
147
0.0
147
0.0
147
0.0
147
0.0
147
1.0
147
0.0
147
0.0
147
0.0
147
0.0
147
1.0
  0
MATERIAL
  5
11
102
{ACAD_XDICTIONARY
360
12
102
}
102
{ACAD_REACTORS
330
10
102
}
330
10
100
AcDbMaterial
  1
ByLayer
 72
     0
 43
0.0208333333333333
 43
0.0
 43
0.0
 43
0.0
 43
0.0
 43
0.0208333333333333
 43
0.0
 43
0.0
 43
0.0
 43
0.0
 43
1.0
 43
0.0
 43
0.0
 43
0.0
 43
0.0
 43
1.0
 77
     0
 47
0.0208333333333333
 47
0.0
 47
0.0
 47
0.0
 47
0.0
 47
0.0208333333333333
 47
0.0
 47
0.0
 47
0.0
 47
0.0
 47
1.0
 47
0.0
 47
0.0
 47
0.0
 47
0.0
 47
1.0
171
     0
 49
0.0208333333333333
 49
0.0
 49
0.0
 49
0.0
 49
0.0
 49
0.0208333333333333
 49
0.0
 49
0.0
 49
0.0
 49
0.0
 49
1.0
 49
0.0
 49
0.0
 49
0.0
 49
0.0
 49
1.0
175
     0
142
0.0208333333333333
142
0.0
142
0.0
142
0.0
142
0.0
142
0.0208333333333333
142
0.0
142
0.0
142
0.0
142
0.0
142
1.0
142
0.0
142
0.0
142
0.0
142
0.0
142
1.0
179
     0
144
0.0208333333333333
144
0.0
144
0.0
144
0.0
144
0.0
144
0.0208333333333333
144
0.0
144
0.0
144
0.0
144
0.0
144
1.0
144
0.0
144
0.0
144
0.0
144
0.0
144
1.0
147
0.0208333333333333
147
0.0
147
0.0
147
0.0
147
0.0
147
0.0208333333333333
147
0.0
147
0.0
147
0.0
147
0.0
147
1.0
147
0.0
147
0.0
147
0.0
147
0.0
147
1.0
  0
MATERIAL
  5
21
102
{ACAD_XDICTIONARY
360
22
102
}
102
{ACAD_REACTORS
330
10
102
}
330
10
100
AcDbMaterial
  1
Global
 72
     0
 43
0.0208333333333333
 43
0.0
 43
0.0
 43
0.0
 43
0.0
 43
0.0208333333333333
 43
0.0
 43
0.0
 43
0.0
 43
0.0
 43
1.0
 43
0.0
 43
0.0
 43
0.0
 43
0.0
 43
1.0
 77
     0
 47
0.0208333333333333
 47
0.0
 47
0.0
 47
0.0
 47
0.0
 47
0.0208333333333333
 47
0.0
 47
0.0
 47
0.0
 47
0.0
 47
1.0
 47
0.0
 47
0.0
 47
0.0
 47
0.0
 47
1.0
171
     0
 49
0.0208333333333333
 49
0.0
 49
0.0
 49
0.0
 49
0.0
 49
0.0208333333333333
 49
0.0
 49
0.0
 49
0.0
 49
0.0
 49
1.0
 49
0.0
 49
0.0
 49
0.0
 49
0.0
 49
1.0
175
     0
142
0.0208333333333333
142
0.0
142
0.0
142
0.0
142
0.0
142
0.0208333333333333
142
0.0
142
0.0
142
0.0
142
0.0
142
1.0
142
0.0
142
0.0
142
0.0
142
0.0
142
1.0
179
     0
144
0.0208333333333333
144
0.0
144
0.0
144
0.0
144
0.0
144
0.0208333333333333
144
0.0
144
0.0
144
0.0
144
0.0
144
1.0
144
0.0
144
0.0
144
0.0
144
0.0
144
1.0
147
0.0208333333333333
147
0.0
147
0.0
147
0.0
147
0.0
147
0.0208333333333333
147
0.0
147
0.0
147
0.0
147
0.0
147
1.0
147
0.0
147
0.0
147
0.0
147
0.0
147
1.0
  0
MLEADERSTYLE
  5
67
102
{ACAD_XDICTIONARY
360
198
102
}
102
{ACAD_REACTORS
330
66
102
}
330
66
100
AcDbMLeaderStyle
179
     2
170
     2
171
     1
172
     0
 90
        2
 40
0.0
 41
0.0
173
     1
 91
-1056964608
340
5B
 92
       -2
290
     1
 42
0.09
291
     1
 43
0.36
  3
Standard
 44
0.18
300

342
55
174
     1
178
     6
175
     1
176
     0
 93
-1056964608
 45
0.18
292
     0
297
     0
 46
0.18
 94
-1056964608
 47
1.0
 49
1.0
140
1.0
293
     1
141
0.0
294
     1
177
     0
142
1.0
295
     0
296
     0
143
0.125
271
     0
272
     9
273
     9
  0
MLINESTYLE
  5
60
102
{ACAD_REACTORS
330
5F
102
}
330
5F
100
AcDbMlineStyle
  2
STANDARD
 70
     0
  3

 62
   256
 51
90.0
 52
90.0
 71
     2
 49
0.5
 62
   256
  6
BYLAYER
 49
-0.5
 62
   256
  6
BYLAYER
  0
ACDBPLACEHOLDER
  5
F
102
{ACAD_REACTORS
330
E
102
}
330
E
  0
SCALE
  5
43
102
{ACAD_REACTORS
330
42
102
}
330
42
100
AcDbScale
 70
     0
300
1:1
140
1.0
141
1.0
290
     1
  0
SCALE
  5
44
102
{ACAD_REACTORS
330
42
102
}
330
42
100
AcDbScale
 70
     0
300
1/128" = 1'-0"
140
0.0078125
141
12.0
290
     0
  0
SCALE
  5
45
102
{ACAD_REACTORS
330
42
102
}
330
42
100
AcDbScale
 70
     0
300
1/64" = 1'-0"
140
0.015625
141
12.0
290
     0
  0
SCALE
  5
46
102
{ACAD_REACTORS
330
42
102
}
330
42
100
AcDbScale
 70
     0
300
1/32" = 1'-0"
140
0.03125
141
12.0
290
     0
  0
SCALE
  5
47
102
{ACAD_REACTORS
330
42
102
}
330
42
100
AcDbScale
 70
     0
300
1/16" = 1'-0"
140
0.0625
141
12.0
290
     0
  0
SCALE
  5
48
102
{ACAD_REACTORS
330
42
102
}
330
42
100
AcDbScale
 70
     0
300
3/32" = 1'-0"
140
0.09375
141
12.0
290
     0
  0
SCALE
  5
49
102
{ACAD_REACTORS
330
42
102
}
330
42
100
AcDbScale
 70
     0
300
1/8" = 1'-0"
140
0.125
141
12.0
290
     0
  0
SCALE
  5
4A
102
{ACAD_REACTORS
330
42
102
}
330
42
100
AcDbScale
 70
     0
300
3/16" = 1'-0"
140
0.1875
141
12.0
290
     0
  0
SCALE
  5
4B
102
{ACAD_REACTORS
330
42
102
}
330
42
100
AcDbScale
 70
     0
300
1/4" = 1'-0"
140
0.25
141
12.0
290
     0
  0
SCALE
  5
4C
102
{ACAD_REACTORS
330
42
102
}
330
42
100
AcDbScale
 70
     0
300
3/8" = 1'-0"
140
0.375
141
12.0
290
     0
  0
SCALE
  5
4D
102
{ACAD_REACTORS
330
42
102
}
330
42
100
AcDbScale
 70
     0
300
1/2" = 1'-0"
140
0.5
141
12.0
290
     0
  0
SCALE
  5
4E
102
{ACAD_REACTORS
330
42
102
}
330
42
100
AcDbScale
 70
     0
300
3/4" = 1'-0"
140
0.75
141
12.0
290
     0
  0
SCALE
  5
4F
102
{ACAD_REACTORS
330
42
102
}
330
42
100
AcDbScale
 70
     0
300
1" = 1'-0"
140
1.0
141
12.0
290
     0
  0
SCALE
  5
50
102
{ACAD_REACTORS
330
42
102
}
330
42
100
AcDbScale
 70
     0
300
1-1/2" = 1'-0"
140
1.5
141
12.0
290
     0
  0
SCALE
  5
51
102
{ACAD_REACTORS
330
42
102
}
330
42
100
AcDbScale
 70
     0
300
3" = 1'-0"
140
3.0
141
12.0
290
     0
  0
SCALE
  5
52
102
{ACAD_REACTORS
330
42
102
}
330
42
100
AcDbScale
 70
     0
300
6" = 1'-0"
140
6.0
141
12.0
290
     0
  0
SCALE
  5
53
102
{ACAD_REACTORS
330
42
102
}
330
42
100
AcDbScale
 70
     0
300
1'-0" = 1'-0"
140
12.0
141
12.0
290
     0
  0
ACDBSECTIONVIEWSTYLE
  5
69
102
{ACAD_XDICTIONARY
360
19A
102
}
102
{ACAD_REACTORS
330
68
102
}
330
68
100
AcDbModelDocViewStyle
 70
     0
  3
Imperial24
290
     0
100
AcDbSectionViewStyle
 70
     0
 71
     0
 90
       78
 71
     1
340
55
 62
   256
 40
0.24
340
0
340
0
 62
   256
 40
0.24
300
I, O, Q, S, X, Z
 40
0.48
 90
        3
 40
0.18
 90
        1
 71
     2
340
5D
 90
       25
 62
   256
340
5D
 90
       50
 62
   256
 40
0.24
 40
0.0
 40
0.24
 71
     3
340
55
 62
   256
 40
0.24
 90
        1
 40
0.75
 90
        1
300
%<\AcVar ViewType \f "%tc1">% %<\AcVar ViewSectionStartId>%-%<\AcVar ViewSectionEndId>%\PSCALE %<\AcVar ViewScale \f "%sn">%
 71
     4
 62
   256
 62
   257
300
ANSI31
 40
1.0
 90
        0
290
     0
290
     0
 90
        6
 40
0.0
 40
1.570796326794896
 40
0.2617993877991494
 40
1.308996938995747
 40
-0.2617993877991494
 40
1.832595714594046
  0
TABLESTYLE
  5
65
102
{ACAD_XDICTIONARY
360
165
102
}
102
{ACAD_REACTORS
330
64
102
}
330
64
100
AcDbTableStyle
280
     0
  3
Standard
 70
     0
 71
     0
 40
0.06
 41
0.06
280
     0
281
     0
  7
Standard
140
0.18
170
     2
 62
     0
 63
     7
283
     0
 90
      512
 91
        0
  1

274
    -2
284
     1
 64
     0
275
    -2
285
     1
 65
     0
276
    -2
286
     1
 66
     0
277
    -2
287
     1
 67
     0
278
    -2
288
     1
 68
     0
279
    -2
289
     1
 69
     0
  7
Standard
140
0.25
170
     5
 62
     0
 63
     7
283
     0
 90
      512
 91
        0
  1

274
    -2
284
     1
 64
     0
275
    -2
285
     1
 65
     0
276
    -2
286
     1
 66
     0
277
    -2
287
     1
 67
     0
278
    -2
288
     1
 68
     0
279
    -2
289
     1
 69
     0
  7
Standard
140
0.18
170
     5
 62
     0
 63
     7
283
     0
 90
      512
 91
        0
  1

274
    -2
284
     1
 64
     0
275
    -2
285
     1
 65
     0
276
    -2
286
     1
 66
     0
277
    -2
287
     1
 67
     0
278
    -2
288
     1
 68
     0
279
    -2
289
     1
 69
     0
  0
VISUALSTYLE
  5
2F
102
{ACAD_XDICTIONARY
360
172
102
}
102
{ACAD_REACTORS
330
29
102
}
330
29
100
AcDbVisualStyle
  2
2dWireframe
 70
     4
177
     2
291
     0
 71
     0
176
     1
 72
     2
176
     1
 73
     0
176
     1
 90
        0
176
     1
 40
0.6
176
     1
 41
30.0
176
     1
 63
     7
421
 16777215
176
     1
 74
     1
176
     1
 91
        4
176
     1
 64
     7
176
     1
 65
   257
176
     1
 75
     1
176
     1
175
     1
176
     1
 42
1.0
176
     1
 92
        0
176
     1
 66
   257
176
     1
 43
1.0
176
     1
 76
     1
176
     1
 77
     6
176
     1
 78
     2
176
     1
 67
     7
176
     1
 79
     5
176
     1
170
     0
176
     1
171
     0
176
     1
290
     0
176
     1
 93
        1
176
     1
 44
0.0
176
     1
173
     0
176
     1
1001
ACAD
1000
AcDbSavedByObjectVersion
1070
     0
  0
VISUALSTYLE
  5
2E
102
{ACAD_XDICTIONARY
360
170
102
}
102
{ACAD_REACTORS
330
29
102
}
330
29
100
AcDbVisualStyle
  2
Basic
 70
     7
177
     2
291
     1
 71
     1
176
     1
 72
     0
176
     1
 73
     1
176
     1
 90
        0
176
     1
 40
0.6
176
     1
 41
30.0
176
     1
 63
     7
421
 16777215
176
     1
 74
     0
176
     1
 91
        4
176
     1
 64
     7
176
     1
 65
   257
176
     1
 75
     1
176
     1
175
     1
176
     1
 42
1.0
176
     1
 92
        8
176
     1
 66
     7
176
     1
 43
1.0
176
     1
 76
     1
176
     1
 77
     6
176
     1
 78
     2
176
     1
 67
     7
176
     1
 79
     5
176
     1
170
     0
176
     1
171
     0
176
     1
290
     0
176
     1
 93
        1
176
     1
 44
0.0
176
     1
173
     0
176
     1
1001
ACAD
1000
AcDbSavedByObjectVersion
1070
     0
  0
VISUALSTYLE
  5
35
102
{ACAD_XDICTIONARY
360
17E
102
}
102
{ACAD_REACTORS
330
29
102
}
330
29
100
AcDbVisualStyle
  2
Brighten
 70
    12
177
     2
291
     1
 71
     2
176
     1
 72
     2
176
     1
 73
     0
176
     1
 90
        0
176
     1
 40
0.6
176
     1
 41
30.0
176
     1
 63
     7
421
 16777215
176
     1
 74
     1
176
     1
 91
        4
176
     1
 64
     7
176
     1
 65
   257
176
     1
 75
     1
176
     1
175
     1
176
     1
 42
1.0
176
     1
 92
        8
176
     1
 66
     7
176
     1
 43
1.0
176
     1
 76
     1
176
     1
 77
     6
176
     1
 78
     2
176
     1
 67
     7
176
     1
 79
     5
176
     1
170
     0
176
     1
171
     0
176
     1
290
     0
176
     1
 93
        1
176
     1
 44
50.0
176
     1
173
     0
176
     1
1001
ACAD
1000
AcDbSavedByObjectVersion
1070
     0
  0
VISUALSTYLE
  5
39
102
{ACAD_XDICTIONARY
360
186
102
}
102
{ACAD_REACTORS
330
29
102
}
330
29
100
AcDbVisualStyle
  2
ColorChange
 70
    16
177
     2
291
     1
 71
     2
176
     1
 72
     2
176
     1
 73
     3
176
     1
 90
        0
176
     1
 40
0.6
176
     1
 41
30.0
176
     1
 63
     8
421
  8421504
176
     1
 74
     1
176
     1
 91
        4
176
     1
 64
     7
176
     1
 65
   257
176
     1
 75
     1
176
     1
175
     1
176
     1
 42
1.0
176
     1
 92
        8
176
     1
 66
     8
424
  8421504
176
     1
 43
1.0
176
     1
 76
     1
176
     1
 77
     6
176
     1
 78
     2
176
     1
 67
     7
176
     1
 79
     5
176
     1
170
     0
176
     1
171
     0
176
     1
290
     0
176
     1
 93
        1
176
     1
 44
0.0
176
     1
173
     0
176
     1
1001
ACAD
1000
AcDbSavedByObjectVersion
1070
     0
  0
VISUALSTYLE
  5
32
102
{ACAD_XDICTIONARY
360
178
102
}
102
{ACAD_REACTORS
330
29
102
}
330
29
100
AcDbVisualStyle
  2
Conceptual
 70
     9
177
     2
291
     0
 71
     3
176
     1
 72
     2
176
     1
 73
     0
176
     1
 90
        0
176
     1
 40
0.6
176
     1
 41
30.0
176
     1
 63
     7
421
 16777215
176
     1
 74
     2
176
     1
 91
        2
176
     1
 64
     7
176
     1
 65
   257
176
     1
 75
     1
176
     1
175
     1
176
     1
 42
179.0
176
     1
 92
        8
176
     1
 66
     7
176
     1
 43
1.0
176
     1
 76
     1
176
     1
 77
     6
176
     1
 78
     2
176
     1
 67
     7
176
     1
 79
     3
176
     1
170
     0
176
     1
171
     0
176
     1
290
     0
176
     1
 93
        1
176
     1
 44
0.0
176
     1
173
     0
176
     1
1001
ACAD
1000
AcDbSavedByObjectVersion
1070
     0
  0
VISUALSTYLE
  5
34
102
{ACAD_XDICTIONARY
360
17C
102
}
102
{ACAD_REACTORS
330
29
102
}
330
29
100
AcDbVisualStyle
  2
Dim
 70
    11
177
     2
291
     1
 71
     2
176
     1
 72
     2
176
     1
 73
     0
176
     1
 90
        0
176
     1
 40
0.6
176
     1
 41
30.0
176
     1
 63
     7
421
 16777215
176
     1
 74
     1
176
     1
 91
        4
176
     1
 64
     7
176
     1
 65
   257
176
     1
 75
     1
176
     1
175
     1
176
     1
 42
1.0
176
     1
 92
        8
176
     1
 66
     7
176
     1
 43
1.0
176
     1
 76
     1
176
     1
 77
     6
176
     1
 78
     2
176
     1
 67
     7
176
     1
 79
     5
176
     1
170
     0
176
     1
171
     0
176
     1
290
     0
176
     1
 93
        1
176
     1
 44
-50.0
176
     1
173
     0
176
     1
1001
ACAD
1000
AcDbSavedByObjectVersion
1070
     0
  0
VISUALSTYLE
  5
41
102
{ACAD_XDICTIONARY
360
196
102
}
102
{ACAD_REACTORS
330
29
102
}
330
29
100
AcDbVisualStyle
  2
EdgeColorOff
 70
    22
177
     2
291
     1
 71
     2
176
     0
 72
     2
176
     0
 73
     0
176
     0
 90
        0
176
     0
 40
0.6
176
     0
 41
30.0
176
     0
 63
     7
421
 16777215
176
     0
 74
     1
176
     0
 91
        4
176
     0
 64
     7
176
     0
 65
   257
176
     0
 75
     1
176
     0
175
     1
176
     0
 42
1.0
176
     0
 92
        8
176
     2
 66
     7
176
     0
 43
1.0
176
     0
 76
     1
176
     0
 77
     6
176
     0
 78
     2
176
     0
 67
     7
176
     0
 79
     5
176
     0
170
     0
176
     0
171
     0
176
     0
290
     0
176
     0
 93
        1
176
     0
 44
0.0
176
     0
173
     0
176
     0
1001
ACAD
1000
AcDbSavedByObjectVersion
1070
     0
  0
VISUALSTYLE
  5
38
102
{ACAD_XDICTIONARY
360
184
102
}
102
{ACAD_REACTORS
330
29
102
}
330
29
100
AcDbVisualStyle
  2
Facepattern
 70
    15
177
     2
291
     1
 71
     2
176
     1
 72
     2
176
     1
 73
     0
176
     1
 90
        0
176
     1
 40
0.6
176
     1
 41
30.0
176
     1
 63
     7
421
 16777215
176
     1
 74
     1
176
     1
 91
        4
176
     1
 64
     7
176
     1
 65
   257
176
     1
 75
     1
176
     1
175
     1
176
     1
 42
1.0
176
     1
 92
        8
176
     1
 66
     7
176
     1
 43
1.0
176
     1
 76
     1
176
     1
 77
     6
176
     1
 78
     2
176
     1
 67
     7
176
     1
 79
     5
176
     1
170
     0
176
     1
171
     0
176
     1
290
     0
176
     1
 93
        1
176
     1
 44
0.0
176
     1
173
     0
176
     1
1001
ACAD
1000
AcDbSavedByObjectVersion
1070
     0
  0
VISUALSTYLE
  5
2A
102
{ACAD_XDICTIONARY
360
168
102
}
102
{ACAD_REACTORS
330
29
102
}
330
29
100
AcDbVisualStyle
  2
Flat
 70
     0
177
     2
291
     1
 71
     2
176
     1
 72
     1
176
     1
 73
     1
176
     1
 90
        2
176
     1
 40
0.6
176
     1
 41
30.0
176
     1
 63
     7
421
 16777215
176
     1
 74
     0
176
     1
 91
        0
176
     1
 64
     7
176
     1
 65
   257
176
     1
 75
     1
176
     1
175
     1
176
     1
 42
1.0
176
     1
 92
        8
176
     1
 66
     7
176
     1
 43
1.0
176
     1
 76
     1
176
     1
 77
     6
176
     1
 78
     2
176
     1
 67
     7
176
     1
 79
     5
176
     1
170
     0
176
     1
171
     0
176
     1
290
     0
176
     1
 93
       13
176
     1
 44
0.0
176
     1
173
     0
176
     1
1001
ACAD
1000
AcDbSavedByObjectVersion
1070
     0
  0
VISUALSTYLE
  5
2B
102
{ACAD_XDICTIONARY
360
16A
102
}
102
{ACAD_REACTORS
330
29
102
}
330
29
100
AcDbVisualStyle
  2
FlatWithEdges
 70
     1
177
     2
291
     1
 71
     2
176
     1
 72
     1
176
     1
 73
     1
176
     1
 90
        2
176
     1
 40
0.6
176
     1
 41
30.0
176
     1
 63
     7
421
 16777215
176
     1
 74
     1
176
     1
 91
        0
176
     1
 64
     7
176
     1
 65
   257
176
     1
 75
     1
176
     1
175
     1
176
     1
 42
1.0
176
     1
 92
        0
176
     1
 66
   257
176
     1
 43
1.0
176
     1
 76
     1
176
     1
 77
     6
176
     1
 78
     2
176
     1
 67
     7
176
     1
 79
     5
176
     1
170
     0
176
     1
171
     0
176
     1
290
     0
176
     1
 93
       13
176
     1
 44
0.0
176
     1
173
     0
176
     1
1001
ACAD
1000
AcDbSavedByObjectVersion
1070
     0
  0
VISUALSTYLE
  5
2C
102
{ACAD_XDICTIONARY
360
16C
102
}
102
{ACAD_REACTORS
330
29
102
}
330
29
100
AcDbVisualStyle
  2
Gouraud
 70
     2
177
     2
291
     1
 71
     2
176
     1
 72
     2
176
     1
 73
     1
176
     1
 90
        2
176
     1
 40
0.6
176
     1
 41
30.0
176
     1
 63
     7
421
 16777215
176
     1
 74
     0
176
     1
 91
        0
176
     1
 64
     7
176
     1
 65
   257
176
     1
 75
     1
176
     1
175
     1
176
     1
 42
1.0
176
     1
 92
        0
176
     1
 66
     7
176
     1
 43
1.0
176
     1
 76
     1
176
     1
 77
     6
176
     1
 78
     2
176
     1
 67
     7
176
     1
 79
     5
176
     1
170
     0
176
     1
171
     0
176
     1
290
     0
176
     1
 93
       13
176
     1
 44
0.0
176
     1
173
     0
176
     1
1001
ACAD
1000
AcDbSavedByObjectVersion
1070
     0
  0
VISUALSTYLE
  5
2D
102
{ACAD_XDICTIONARY
360
16E
102
}
102
{ACAD_REACTORS
330
29
102
}
330
29
100
AcDbVisualStyle
  2
GouraudWithEdges
 70
     3
177
     2
291
     1
 71
     2
176
     1
 72
     2
176
     1
 73
     1
176
     1
 90
        2
176
     1
 40
0.6
176
     1
 41
30.0
176
     1
 63
     7
421
 16777215
176
     1
 74
     1
176
     1
 91
        0
176
     1
 64
     7
176
     1
 65
   257
176
     1
 75
     1
176
     1
175
     1
176
     1
 42
1.0
176
     1
 92
        0
176
     1
 66
   257
176
     1
 43
1.0
176
     1
 76
     1
176
     1
 77
     6
176
     1
 78
     2
176
     1
 67
     7
176
     1
 79
     5
176
     1
170
     0
176
     1
171
     0
176
     1
290
     0
176
     1
 93
       13
176
     1
 44
0.0
176
     1
173
     0
176
     1
1001
ACAD
1000
AcDbSavedByObjectVersion
1070
     0
  0
VISUALSTYLE
  5
31
102
{ACAD_XDICTIONARY
360
176
102
}
102
{ACAD_REACTORS
330
29
102
}
330
29
100
AcDbVisualStyle
  2
Hidden
 70
     6
177
     2
291
     0
 71
     1
176
     1
 72
     2
176
     1
 73
     2
176
     1
 90
        0
176
     1
 40
0.6
176
     1
 41
30.0
176
     1
 63
     7
421
 16777215
176
     1
 74
     2
176
     1
 91
        2
176
     1
 64
     7
176
     1
 65
   257
176
     1
 75
     2
176
     1
175
     1
176
     1
 42
40.0
176
     1
 92
        0
176
     1
 66
   257
176
     1
 43
1.0
176
     1
 76
     1
176
     1
 77
     6
176
     1
 78
     2
176
     1
 67
     7
176
     1
 79
     3
176
     1
170
     0
176
     1
171
     0
176
     1
290
     0
176
     1
 93
        1
176
     1
 44
0.0
176
     1
173
     0
176
     1
1001
ACAD
1000
AcDbSavedByObjectVersion
1070
     0
  0
VISUALSTYLE
  5
3F
102
{ACAD_XDICTIONARY
360
192
102
}
102
{ACAD_REACTORS
330
29
102
}
330
29
100
AcDbVisualStyle
  2
JitterOff
 70
    20
177
     2
291
     1
 71
     2
176
     0
 72
     2
176
     0
 73
     0
176
     0
 90
        0
176
     0
 40
0.6
176
     0
 41
30.0
176
     0
 63
     7
421
 16777215
176
     0
 74
     1
176
     0
 91
        4
176
     0
 64
     7
176
     0
 65
   257
176
     0
 75
     1
176
     0
175
     1
176
     0
 42
1.0
176
     0
 92
       10
176
     2
 66
     7
176
     0
 43
1.0
176
     0
 76
     1
176
     0
 77
     6
176
     0
 78
     2
176
     0
 67
     7
176
     0
 79
     5
176
     0
170
     0
176
     0
171
     0
176
     0
290
     0
176
     0
 93
        1
176
     0
 44
0.0
176
     0
173
     0
176
     0
1001
ACAD
1000
AcDbSavedByObjectVersion
1070
     0
  0
VISUALSTYLE
  5
37
102
{ACAD_XDICTIONARY
360
182
102
}
102
{ACAD_REACTORS
330
29
102
}
330
29
100
AcDbVisualStyle
  2
Linepattern
 70
    14
177
     2
291
     1
 71
     2
176
     1
 72
     2
176
     1
 73
     0
176
     1
 90
        0
176
     1
 40
0.6
176
     1
 41
30.0
176
     1
 63
     7
421
 16777215
176
     1
 74
     1
176
     1
 91
        4
176
     1
 64
     7
176
     1
 65
   257
176
     1
 75
     7
176
     1
175
     7
176
     1
 42
1.0
176
     1
 92
        8
176
     1
 66
     7
176
     1
 43
1.0
176
     1
 76
     1
176
     1
 77
     6
176
     1
 78
     2
176
     1
 67
     7
176
     1
 79
     5
176
     1
170
     0
176
     1
171
     0
176
     1
290
     0
176
     1
 93
        1
176
     1
 44
0.0
176
     1
173
     0
176
     1
1001
ACAD
1000
AcDbSavedByObjectVersion
1070
     0
  0
VISUALSTYLE
  5
40
102
{ACAD_XDICTIONARY
360
194
102
}
102
{ACAD_REACTORS
330
29
102
}
330
29
100
AcDbVisualStyle
  2
OverhangOff
 70
    21
177
     2
291
     1
 71
     2
176
     0
 72
     2
176
     0
 73
     0
176
     0
 90
        0
176
     0
 40
0.6
176
     0
 41
30.0
176
     0
 63
     7
421
 16777215
176
     0
 74
     1
176
     0
 91
        4
176
     0
 64
     7
176
     0
 65
   257
176
     0
 75
     1
176
     0
175
     1
176
     0
 42
1.0
176
     0
 92
        9
176
     2
 66
     7
176
     0
 43
1.0
176
     0
 76
     1
176
     0
 77
     6
176
     0
 78
     2
176
     0
 67
     7
176
     0
 79
     5
176
     0
170
     0
176
     0
171
     0
176
     0
290
     0
176
     0
 93
        1
176
     0
 44
0.0
176
     0
173
     0
176
     0
1001
ACAD
1000
AcDbSavedByObjectVersion
1070
     0
  0
VISUALSTYLE
  5
33
102
{ACAD_XDICTIONARY
360
17A
102
}
102
{ACAD_REACTORS
330
29
102
}
330
29
100
AcDbVisualStyle
  2
Realistic
 70
     8
177
     2
291
     0
 71
     2
176
     1
 72
     3
176
     1
 73
     0
176
     1
 90
        2
176
     1
 40
0.6
176
     1
 41
30.0
176
     1
 63
     7
421
 16777215
176
     1
 74
     0
176
     1
 91
        0
176
     1
 64
     7
176
     1
 65
   257
176
     1
 75
     1
176
     1
175
     1
176
     1
 42
1.0
176
     1
 92
        8
176
     1
 66
   257
176
     1
 43
1.0
176
     1
 76
     1
176
     1
 77
     6
176
     1
 78
     2
176
     1
 67
     7
176
     1
 79
     3
176
     1
170
     0
176
     1
171
     0
176
     1
290
     0
176
     1
 93
       13
176
     1
 44
0.0
176
     1
173
     0
176
     1
1001
ACAD
1000
AcDbSavedByObjectVersion
1070
     0
  0
VISUALSTYLE
  5
3E
102
{ACAD_XDICTIONARY
360
190
102
}
102
{ACAD_REACTORS
330
29
102
}
330
29
100
AcDbVisualStyle
  2
Shaded
 70
    27
177
     2
291
     0
 71
     2
176
     1
 72
     2
176
     1
 73
     1
176
     1
 90
        2
176
     1
 40
0.6
176
     1
 41
30.0
176
     1
 63
     7
421
 16777215
176
     1
 74
     0
176
     1
 91
        4
176
     1
 64
     7
176
     1
 65
   257
176
     1
 75
     1
176
     1
175
     1
176
     1
 42
1.0
176
     1
 92
        8
176
     1
 66
   257
176
     1
 43
1.0
176
     1
 76
     1
176
     1
 77
     6
176
     1
 78
     2
176
     1
 67
     8
425
  7895160
176
     1
 79
     3
176
     1
170
     0
176
     1
171
     0
176
     1
290
     0
176
     1
 93
        5
176
     1
 44
0.0
176
     1
173
     0
176
     1
1001
ACAD
1000
AcDbSavedByObjectVersion
1070
     0
  0
VISUALSTYLE
  5
3D
102
{ACAD_XDICTIONARY
360
18E
102
}
102
{ACAD_REACTORS
330
29
102
}
330
29
100
AcDbVisualStyle
  2
Shaded with edges
 70
    26
177
     2
291
     0
 71
     2
176
     1
 72
     2
176
     1
 73
     1
176
     1
 90
        2
176
     1
 40
0.6
176
     1
 41
30.0
176
     1
 63
     7
421
 16777215
176
     1
 74
     1
176
     1
 91
        2
176
     1
 64
     7
176
     1
 65
   257
176
     1
 75
     2
176
     1
175
     1
176
     1
 42
1.0
176
     1
 92
        8
176
     1
 66
   257
176
     1
 43
1.0
176
     1
 76
     1
176
     1
 77
     6
176
     1
 78
     2
176
     1
 67
     7
176
     1
 79
     3
176
     1
170
     0
176
     1
171
     0
176
     1
290
     0
176
     1
 93
        5
176
     1
 44
0.0
176
     1
173
     0
176
     1
1001
ACAD
1000
AcDbSavedByObjectVersion
1070
     0
  0
VISUALSTYLE
  5
3A
102
{ACAD_XDICTIONARY
360
188
102
}
102
{ACAD_REACTORS
330
29
102
}
330
29
100
AcDbVisualStyle
  2
Shades of Gray
 70
    23
177
     2
291
     0
 71
     2
176
     1
 72
     2
176
     1
 73
     3
176
     1
 90
        0
176
     1
 40
0.6
176
     1
 41
30.0
176
     1
 63
     7
421
 16777215
176
     1
 74
     2
176
     1
 91
        2
176
     1
 64
     7
176
     1
 65
     7
176
     1
 75
     1
176
     1
175
     1
176
     1
 42
40.0
176
     1
 92
        8
176
     1
 66
     7
176
     1
 43
1.0
176
     1
 76
     1
176
     1
 77
     6
176
     1
 78
     2
176
     1
 67
     7
176
     1
 79
     3
176
     1
170
     0
176
     1
171
     0
176
     1
290
     0
176
     1
 93
        1
176
     1
 44
0.0
176
     1
173
     0
176
     1
1001
ACAD
1000
AcDbSavedByObjectVersion
1070
     0
  0
VISUALSTYLE
  5
3B
102
{ACAD_XDICTIONARY
360
18A
102
}
102
{ACAD_REACTORS
330
29
102
}
330
29
100
AcDbVisualStyle
  2
Sketchy
 70
    24
177
     2
291
     0
 71
     1
176
     1
 72
     2
176
     1
 73
     2
176
     1
 90
        0
176
     1
 40
0.6
176
     1
 41
30.0
176
     1
 63
     7
421
 16777215
176
     1
 74
     2
176
     1
 91
        2
176
     1
 64
     7
176
     1
 65
     7
176
     1
 75
     1
176
     1
175
     1
176
     1
 42
40.0
176
     1
 92
       11
176
     1
 66
     7
176
     1
 43
1.0
176
     1
 76
     1
176
     1
 77
     6
176
     1
 78
     2
176
     1
 67
     7
176
     1
 79
     6
176
     1
170
     0
176
     1
171
     0
176
     1
290
     0
176
     1
 93
        1
176
     1
 44
0.0
176
     1
173
     0
176
     1
1001
ACAD
1000
AcDbSavedByObjectVersion
1070
     0
  0
VISUALSTYLE
  5
36
102
{ACAD_XDICTIONARY
360
180
102
}
102
{ACAD_REACTORS
330
29
102
}
330
29
100
AcDbVisualStyle
  2
Thicken
 70
    13
177
     2
291
     1
 71
     2
176
     1
 72
     2
176
     1
 73
     0
176
     1
 90
        0
176
     1
 40
0.6
176
     1
 41
30.0
176
     1
 63
     7
421
 16777215
176
     1
 74
     1
176
     1
 91
        4
176
     1
 64
     7
176
     1
 65
   257
176
     1
 75
     1
176
     1
175
     1
176
     1
 42
1.0
176
     1
 92
       12
176
     1
 66
     7
176
     1
 43
1.0
176
     1
 76
     1
176
     1
 77
     6
176
     1
 78
     2
176
     1
 67
     7
176
     1
 79
     5
176
     1
170
     0
176
     1
171
     0
176
     1
290
     0
176
     1
 93
        1
176
     1
 44
0.0
176
     1
173
     0
176
     1
1001
ACAD
1000
AcDbSavedByObjectVersion
1070
     0
  0
VISUALSTYLE
  5
30
102
{ACAD_XDICTIONARY
360
174
102
}
102
{ACAD_REACTORS
330
29
102
}
330
29
100
AcDbVisualStyle
  2
Wireframe
 70
     5
177
     2
291
     0
 71
     0
176
     1
 72
     2
176
     1
 73
     0
176
     1
 90
        0
176
     1
 40
0.6
176
     1
 41
30.0
176
     1
 63
     7
421
 16777215
176
     1
 74
     1
176
     1
 91
        4
176
     1
 64
     7
176
     1
 65
   257
176
     1
 75
     1
176
     1
175
     1
176
     1
 42
1.0
176
     1
 92
        0
176
     1
 66
   257
176
     1
 43
1.0
176
     1
 76
     1
176
     1
 77
     6
176
     1
 78
     2
176
     1
 67
     7
176
     1
 79
     3
176
     1
170
     0
176
     1
171
     0
176
     1
290
     0
176
     1
 93
        1
176
     1
 44
0.0
176
     1
173
     0
176
     1
1001
ACAD
1000
AcDbSavedByObjectVersion
1070
     0
  0
VISUALSTYLE
  5
3C
102
{ACAD_XDICTIONARY
360
18C
102
}
102
{ACAD_REACTORS
330
29
102
}
330
29
100
AcDbVisualStyle
  2
X-Ray
 70
    25
177
     2
291
     0
 71
     2
176
     1
 72
     2
176
     1
 73
     1
176
     1
 90
        1
176
     1
 40
0.5
176
     1
 41
30.0
176
     1
 63
     7
421
 16777215
176
     1
 74
     1
176
     1
 91
        0
176
     1
 64
     7
176
     1
 65
   257
176
     1
 75
     1
176
     1
175
     1
176
     1
 42
1.0
176
     1
 92
        8
176
     1
 66
     7
176
     1
 43
1.0
176
     1
 76
     1
176
     1
 77
     6
176
     1
 78
     2
176
     1
 67
     7
176
     1
 79
     3
176
     1
170
     0
176
     1
171
     0
176
     1
290
     0
176
     1
 93
       13
176
     1
 44
0.0
176
     1
173
     0
176
     1
1001
ACAD
1000
AcDbSavedByObjectVersion
1070
     0
  0
DICTIONARYVAR
  5
164
102
{ACAD_REACTORS
330
15F
102
}
330
15F
100
DictionaryVariables
280
     0
  1
1:1
  0
DICTIONARYVAR
  5
161
102
{ACAD_REACTORS
330
15F
102
}
330
15F
100
DictionaryVariables
280
     0
  1
STANDARD
  0
DICTIONARYVAR
  5
160
102
{ACAD_REACTORS
330
15F
102
}
330
15F
100
DictionaryVariables
280
     0
  1
STANDARD
  0
DICTIONARYVAR
  5
162
102
{ACAD_REACTORS
330
15F
102
}
330
15F
100
DictionaryVariables
280
     0
  1
Imperial24
  0
DICTIONARYVAR
  5
163
102
{ACAD_REACTORS
330
15F
102
}
330
15F
100
DictionaryVariables
280
     0
  1
Imperial24
  0
DICTIONARY
  5
19C
330
6B
100
AcDbDictionary
280
     1
281
     1
  3
ACAD_XREC_ROUNDTRIP
360
19D
  0
DICTIONARY
  5
1A
330
19
100
AcDbDictionary
280
     1
281
     1
  3
BUMPTILE
360
1C
  3
DIFFUSETILE
360
1B
  3
OPACITYTILE
360
1F
  3
REFLECTIONTILE
360
1E
  3
REFRACTIONTILE
360
20
  3
SPECULARTILE
360
1D
  0
DICTIONARY
  5
12
330
11
100
AcDbDictionary
280
     1
281
     1
  3
BUMPTILE
360
14
  3
DIFFUSETILE
360
13
  3
OPACITYTILE
360
17
  3
REFLECTIONTILE
360
16
  3
REFRACTIONTILE
360
18
  3
SPECULARTILE
360
15
  0
DICTIONARY
  5
22
330
21
100
AcDbDictionary
280
     1
281
     1
  3
BUMPTILE
360
24
  3
DIFFUSETILE
360
23
  3
OPACITYTILE
360
27
  3
REFLECTIONTILE
360
26
  3
REFRACTIONTILE
360
28
  3
SPECULARTILE
360
25
  0
DICTIONARY
  5
198
330
67
100
AcDbDictionary
280
     1
281
     1
  3
ACAD_XREC_ROUNDTRIP
360
199
  0
DICTIONARY
  5
19A
330
69
100
AcDbDictionary
280
     1
281
     1
  3
ACAD_XREC_ROUNDTRIP
360
19B
  0
DICTIONARY
  5
165
330
65
100
AcDbDictionary
280
     1
281
     1
  3
ACAD_ROUNDTRIP_2008_TABLESTYLE_CELLSTYLEMAP
360
166
  0
DICTIONARY
  5
172
330
2F
100
AcDbDictionary
280
     1
281
     1
  3
ACAD_XREC_ROUNDTRIP
360
173
  0
DICTIONARY
  5
170
330
2E
100
AcDbDictionary
280
     1
281
     1
  3
ACAD_XREC_ROUNDTRIP
360
171
  0
DICTIONARY
  5
17E
330
35
100
AcDbDictionary
280
     1
281
     1
  3
ACAD_XREC_ROUNDTRIP
360
17F
  0
DICTIONARY
  5
186
330
39
100
AcDbDictionary
280
     1
281
     1
  3
ACAD_XREC_ROUNDTRIP
360
187
  0
DICTIONARY
  5
178
330
32
100
AcDbDictionary
280
     1
281
     1
  3
ACAD_XREC_ROUNDTRIP
360
179
  0
DICTIONARY
  5
17C
330
34
100
AcDbDictionary
280
     1
281
     1
  3
ACAD_XREC_ROUNDTRIP
360
17D
  0
DICTIONARY
  5
196
330
41
100
AcDbDictionary
280
     1
281
     1
  3
ACAD_XREC_ROUNDTRIP
360
197
  0
DICTIONARY
  5
184
330
38
100
AcDbDictionary
280
     1
281
     1
  3
ACAD_XREC_ROUNDTRIP
360
185
  0
DICTIONARY
  5
168
330
2A
100
AcDbDictionary
280
     1
281
     1
  3
ACAD_XREC_ROUNDTRIP
360
169
  0
DICTIONARY
  5
16A
330
2B
100
AcDbDictionary
280
     1
281
     1
  3
ACAD_XREC_ROUNDTRIP
360
16B
  0
DICTIONARY
  5
16C
330
2C
100
AcDbDictionary
280
     1
281
     1
  3
ACAD_XREC_ROUNDTRIP
360
16D
  0
DICTIONARY
  5
16E
330
2D
100
AcDbDictionary
280
     1
281
     1
  3
ACAD_XREC_ROUNDTRIP
360
16F
  0
DICTIONARY
  5
176
330
31
100
AcDbDictionary
280
     1
281
     1
  3
ACAD_XREC_ROUNDTRIP
360
177
  0
DICTIONARY
  5
192
330
3F
100
AcDbDictionary
280
     1
281
     1
  3
ACAD_XREC_ROUNDTRIP
360
193
  0
DICTIONARY
  5
182
330
37
100
AcDbDictionary
280
     1
281
     1
  3
ACAD_XREC_ROUNDTRIP
360
183
  0
DICTIONARY
  5
194
330
40
100
AcDbDictionary
280
     1
281
     1
  3
ACAD_XREC_ROUNDTRIP
360
195
  0
DICTIONARY
  5
17A
330
33
100
AcDbDictionary
280
     1
281
     1
  3
ACAD_XREC_ROUNDTRIP
360
17B
  0
DICTIONARY
  5
190
330
3E
100
AcDbDictionary
280
     1
281
     1
  3
ACAD_XREC_ROUNDTRIP
360
191
  0
DICTIONARY
  5
18E
330
3D
100
AcDbDictionary
280
     1
281
     1
  3
ACAD_XREC_ROUNDTRIP
360
18F
  0
DICTIONARY
  5
188
330
3A
100
AcDbDictionary
280
     1
281
     1
  3
ACAD_XREC_ROUNDTRIP
360
189
  0
DICTIONARY
  5
18A
330
3B
100
AcDbDictionary
280
     1
281
     1
  3
ACAD_XREC_ROUNDTRIP
360
18B
  0
DICTIONARY
  5
180
330
36
100
AcDbDictionary
280
     1
281
     1
  3
ACAD_XREC_ROUNDTRIP
360
181
  0
DICTIONARY
  5
174
330
30
100
AcDbDictionary
280
     1
281
     1
  3
ACAD_XREC_ROUNDTRIP
360
175
  0
DICTIONARY
  5
18C
330
3C
100
AcDbDictionary
280
     1
281
     1
  3
ACAD_XREC_ROUNDTRIP
360
18D
  0
XRECORD
  5
19D
102
{ACAD_REACTORS
330
19C
102
}
330
19C
100
AcDbXrecord
280
     1
102
DISPLAYNAME
  1
Imperial24
102
FLAGS
 90
        0
  0
XRECORD
  5
1C
102
{ACAD_REACTORS
330
1A
102
}
330
1A
100
AcDbXrecord
280
     1
270
     1
271
     1
  0
XRECORD
  5
1B
102
{ACAD_REACTORS
330
1A
102
}
330
1A
100
AcDbXrecord
280
     1
270
     1
271
     1
  0
XRECORD
  5
1F
102
{ACAD_REACTORS
330
1A
102
}
330
1A
100
AcDbXrecord
280
     1
270
     1
271
     1
  0
XRECORD
  5
1E
102
{ACAD_REACTORS
330
1A
102
}
330
1A
100
AcDbXrecord
280
     1
270
     1
271
     1
  0
XRECORD
  5
20
102
{ACAD_REACTORS
330
1A
102
}
330
1A
100
AcDbXrecord
280
     1
270
     1
271
     1
  0
XRECORD
  5
1D
102
{ACAD_REACTORS
330
1A
102
}
330
1A
100
AcDbXrecord
280
     1
270
     1
271
     1
  0
XRECORD
  5
14
102
{ACAD_REACTORS
330
12
102
}
330
12
100
AcDbXrecord
280
     1
270
     1
271
     1
  0
XRECORD
  5
13
102
{ACAD_REACTORS
330
12
102
}
330
12
100
AcDbXrecord
280
     1
270
     1
271
     1
  0
XRECORD
  5
17
102
{ACAD_REACTORS
330
12
102
}
330
12
100
AcDbXrecord
280
     1
270
     1
271
     1
  0
XRECORD
  5
16
102
{ACAD_REACTORS
330
12
102
}
330
12
100
AcDbXrecord
280
     1
270
     1
271
     1
  0
XRECORD
  5
18
102
{ACAD_REACTORS
330
12
102
}
330
12
100
AcDbXrecord
280
     1
270
     1
271
     1
  0
XRECORD
  5
15
102
{ACAD_REACTORS
330
12
102
}
330
12
100
AcDbXrecord
280
     1
270
     1
271
     1
  0
XRECORD
  5
24
102
{ACAD_REACTORS
330
22
102
}
330
22
100
AcDbXrecord
280
     1
270
     1
271
     1
  0
XRECORD
  5
23
102
{ACAD_REACTORS
330
22
102
}
330
22
100
AcDbXrecord
280
     1
270
     1
271
     1
  0
XRECORD
  5
27
102
{ACAD_REACTORS
330
22
102
}
330
22
100
AcDbXrecord
280
     1
270
     1
271
     1
  0
XRECORD
  5
26
102
{ACAD_REACTORS
330
22
102
}
330
22
100
AcDbXrecord
280
     1
270
     1
271
     1
  0
XRECORD
  5
28
102
{ACAD_REACTORS
330
22
102
}
330
22
100
AcDbXrecord
280
     1
270
     1
271
     1
  0
XRECORD
  5
25
102
{ACAD_REACTORS
330
22
102
}
330
22
100
AcDbXrecord
280
     1
270
     1
271
     1
  0
XRECORD
  5
199
102
{ACAD_REACTORS
330
198
102
}
330
198
100
AcDbXrecord
280
     1
102
ACAD_ROUNDTRIP_2012_MLEADER_STYLE
298
     1
  0
XRECORD
  5
19B
102
{ACAD_REACTORS
330
19A
102
}
330
19A
100
AcDbXrecord
280
     1
102
DISPLAYNAME
  1
Imperial24
102
FLAGS
 90
        0
  0
CELLSTYLEMAP
  5
166
102
{ACAD_REACTORS
330
165
102
}
330
165
100
AcDbCellStyleMap
 90
        3
300
CELLSTYLE
  1
TABLEFORMAT_BEGIN
 90
        5
170
     1
 91
        0
 92
    32768
 62
   257
 93
        1
300
CONTENTFORMAT
  1
CONTENTFORMAT_BEGIN
 90
        0
 91
        0
 92
      512
 93
        0
300

 40
0.0
140
1.0
 94
        5
 62
     0
340
55
144
0.25
309
CONTENTFORMAT_END
171
     0
 94
        0
309
TABLEFORMAT_END
  1
CELLSTYLE_BEGIN
 90
        1
 91
        1
300
_TITLE
309
CELLSTYLE_END
300
CELLSTYLE
  1
TABLEFORMAT_BEGIN
 90
        5
170
     1
 91
        0
 92
        0
 62
   257
 93
        1
300
CONTENTFORMAT
  1
CONTENTFORMAT_BEGIN
 90
        0
 91
        0
 92
      512
 93
        0
300

 40
0.0
140
1.0
 94
        5
 62
     0
340
55
144
0.18
309
CONTENTFORMAT_END
171
     0
 94
        0
309
TABLEFORMAT_END
  1
CELLSTYLE_BEGIN
 90
        2
 91
        1
300
_HEADER
309
CELLSTYLE_END
300
CELLSTYLE
  1
TABLEFORMAT_BEGIN
 90
        5
170
     1
 91
        0
 92
        0
 62
   257
 93
        1
300
CONTENTFORMAT
  1
CONTENTFORMAT_BEGIN
 90
        0
 91
        0
 92
      512
 93
        0
300

 40
0.0
140
1.0
 94
        2
 62
     0
340
55
144
0.18
309
CONTENTFORMAT_END
171
     0
 94
        0
309
TABLEFORMAT_END
  1
CELLSTYLE_BEGIN
 90
        3
 91
        2
300
_DATA
309
CELLSTYLE_END
  0
XRECORD
  5
173
102
{ACAD_REACTORS
330
172
102
}
330
172
100
AcDbXrecord
280
     1
102
RTVSPost2010Prop28
280
     1
102
RTVSPost2010PropOp28
 70
     1
102
RTVSPost2010Prop29
280
     1
102
RTVSPost2010PropOp29
 70
     1
102
RTVSPost2010Prop30
280
     0
102
RTVSPost2010PropOp30
 70
     1
102
RTVSPost2010Prop31
280
     0
102
RTVSPost2010PropOp31
 70
     1
102
RTVSPost2010Prop32
280
     0
102
RTVSPost2010PropOp32
 70
     1
102
RTVSPost2010Prop33
280
     0
102
RTVSPost2010PropOp33
 70
     1
102
RTVSPost2010Prop34
280
     0
102
RTVSPost2010PropOp34
 70
     1
102
RTVSPost2010Prop35
280
     0
102
RTVSPost2010PropOp35
 70
     1
102
RTVSPost2010Prop36
280
     0
102
RTVSPost2010PropOp36
 70
     1
102
RTVSPost2010Prop37
 90
       50
102
RTVSPost2010PropOp37
 70
     1
102
RTVSPost2010Prop38
140
0.0
102
RTVSPost2010PropOp38
 70
     1
102
RTVSPost2010Prop39
140
1.0
102
RTVSPost2010PropOp39
 70
     1
102
RTVSPost2010Prop40
 90
        0
102
RTVSPost2010PropOp40
 70
     1
102
RTVSPost2010Prop41ColorIndex
 90
       18
102
RTVSPost2010Prop41ColorRGB
 90
        0
102
RTVSPost2010PropOp41
 70
     1
102
RTVSPost2010Prop42
 90
       50
102
RTVSPost2010PropOp42
 70
     1
102
RTVSPost2010Prop43
 90
        3
102
RTVSPost2010PropOp43
 70
     1
102
RTVSPost2010Prop44ColorIndex
 90
        5
102
RTVSPost2010Prop44ColorRGB
 90
      255
102
RTVSPost2010PropOp44
 70
     1
102
RTVSPost2010Prop45
280
     0
102
RTVSPost2010PropOp45
 70
     1
102
RTVSPost2010Prop46
 90
       50
102
RTVSPost2010PropOp46
 70
     1
102
RTVSPost2010Prop47
 90
       50
102
RTVSPost2010PropOp47
 70
     1
102
RTVSPost2010Prop48
 90
       50
102
RTVSPost2010PropOp48
 70
     1
102
RTVSPost2010Prop49
280
     0
102
RTVSPost2010PropOp49
 70
     1
102
RTVSPost2010Prop50
 90
       50
102
RTVSPost2010PropOp50
 70
     1
102
RTVSPost2010Prop51ColorIndex
 90
      256
102
RTVSPost2010Prop51ColorRGB
 90
-16777216
102
RTVSPost2010PropOp51
 70
     0
102
RTVSPost2010Prop52
140
1.0
102
RTVSPost2010PropOp52
 70
     0
102
RTVSPost2010Prop53
 90
        2
102
RTVSPost2010PropOp53
 70
     1
102
RTVSPost2010Prop54
  1
strokes_ogs.tif
102
RTVSPost2010PropOp54
 70
     1
102
RTVSPost2010Prop55
280
     0
102
RTVSPost2010PropOp55
 70
     1
102
RTVSPost2010Prop56
140
1.0
102
RTVSPost2010PropOp56
 70
     1
102
RTVSPost2010Prop57
140
1.0
102
RTVSPost2010PropOp57
 70
     1
  0
XRECORD
  5
171
102
{ACAD_REACTORS
330
170
102
}
330
170
100
AcDbXrecord
280
     1
102
RTVSPost2010Prop28
280
     0
102
RTVSPost2010PropOp28
 70
     1
102
RTVSPost2010Prop29
280
     1
102
RTVSPost2010PropOp29
 70
     1
102
RTVSPost2010Prop30
280
     1
102
RTVSPost2010PropOp30
 70
     1
102
RTVSPost2010Prop31
280
     0
102
RTVSPost2010PropOp31
 70
     1
102
RTVSPost2010Prop32
280
     0
102
RTVSPost2010PropOp32
 70
     1
102
RTVSPost2010Prop33
280
     0
102
RTVSPost2010PropOp33
 70
     1
102
RTVSPost2010Prop34
280
     0
102
RTVSPost2010PropOp34
 70
     1
102
RTVSPost2010Prop35
280
     0
102
RTVSPost2010PropOp35
 70
     1
102
RTVSPost2010Prop36
280
     0
102
RTVSPost2010PropOp36
 70
     1
102
RTVSPost2010Prop37
 90
       50
102
RTVSPost2010PropOp37
 70
     1
102
RTVSPost2010Prop38
140
0.0
102
RTVSPost2010PropOp38
 70
     1
102
RTVSPost2010Prop39
140
1.0
102
RTVSPost2010PropOp39
 70
     1
102
RTVSPost2010Prop40
 90
        0
102
RTVSPost2010PropOp40
 70
     1
102
RTVSPost2010Prop41ColorIndex
 90
       18
102
RTVSPost2010Prop41ColorRGB
 90
        0
102
RTVSPost2010PropOp41
 70
     1
102
RTVSPost2010Prop42
 90
       50
102
RTVSPost2010PropOp42
 70
     1
102
RTVSPost2010Prop43
 90
        3
102
RTVSPost2010PropOp43
 70
     1
102
RTVSPost2010Prop44ColorIndex
 90
        5
102
RTVSPost2010Prop44ColorRGB
 90
      255
102
RTVSPost2010PropOp44
 70
     1
102
RTVSPost2010Prop45
280
     0
102
RTVSPost2010PropOp45
 70
     1
102
RTVSPost2010Prop46
 90
       50
102
RTVSPost2010PropOp46
 70
     1
102
RTVSPost2010Prop47
 90
       50
102
RTVSPost2010PropOp47
 70
     1
102
RTVSPost2010Prop48
 90
       50
102
RTVSPost2010PropOp48
 70
     1
102
RTVSPost2010Prop49
280
     0
102
RTVSPost2010PropOp49
 70
     1
102
RTVSPost2010Prop50
 90
       50
102
RTVSPost2010PropOp50
 70
     1
102
RTVSPost2010Prop51ColorIndex
 90
      256
102
RTVSPost2010Prop51ColorRGB
 90
-16777216
102
RTVSPost2010PropOp51
 70
     0
102
RTVSPost2010Prop52
140
1.0
102
RTVSPost2010PropOp52
 70
     0
102
RTVSPost2010Prop53
 90
        2
102
RTVSPost2010PropOp53
 70
     1
102
RTVSPost2010Prop54
  1
strokes_ogs.tif
102
RTVSPost2010PropOp54
 70
     1
102
RTVSPost2010Prop55
280
     0
102
RTVSPost2010PropOp55
 70
     1
102
RTVSPost2010Prop56
140
1.0
102
RTVSPost2010PropOp56
 70
     1
102
RTVSPost2010Prop57
140
1.0
102
RTVSPost2010PropOp57
 70
     1
  0
XRECORD
  5
17F
102
{ACAD_REACTORS
330
17E
102
}
330
17E
100
AcDbXrecord
280
     1
102
RTVSPost2010Prop28
280
     0
102
RTVSPost2010PropOp28
 70
     1
102
RTVSPost2010Prop29
280
     1
102
RTVSPost2010PropOp29
 70
     1
102
RTVSPost2010Prop30
280
     1
102
RTVSPost2010PropOp30
 70
     1
102
RTVSPost2010Prop31
280
     0
102
RTVSPost2010PropOp31
 70
     1
102
RTVSPost2010Prop32
280
     0
102
RTVSPost2010PropOp32
 70
     1
102
RTVSPost2010Prop33
280
     0
102
RTVSPost2010PropOp33
 70
     1
102
RTVSPost2010Prop34
280
     0
102
RTVSPost2010PropOp34
 70
     1
102
RTVSPost2010Prop35
280
     0
102
RTVSPost2010PropOp35
 70
     1
102
RTVSPost2010Prop36
280
     0
102
RTVSPost2010PropOp36
 70
     1
102
RTVSPost2010Prop37
 90
       50
102
RTVSPost2010PropOp37
 70
     1
102
RTVSPost2010Prop38
140
0.0
102
RTVSPost2010PropOp38
 70
     1
102
RTVSPost2010Prop39
140
1.0
102
RTVSPost2010PropOp39
 70
     1
102
RTVSPost2010Prop40
 90
        0
102
RTVSPost2010PropOp40
 70
     1
102
RTVSPost2010Prop41ColorIndex
 90
       18
102
RTVSPost2010Prop41ColorRGB
 90
        0
102
RTVSPost2010PropOp41
 70
     1
102
RTVSPost2010Prop42
 90
       50
102
RTVSPost2010PropOp42
 70
     1
102
RTVSPost2010Prop43
 90
        3
102
RTVSPost2010PropOp43
 70
     1
102
RTVSPost2010Prop44ColorIndex
 90
        5
102
RTVSPost2010Prop44ColorRGB
 90
      255
102
RTVSPost2010PropOp44
 70
     1
102
RTVSPost2010Prop45
280
     0
102
RTVSPost2010PropOp45
 70
     1
102
RTVSPost2010Prop46
 90
       50
102
RTVSPost2010PropOp46
 70
     1
102
RTVSPost2010Prop47
 90
       50
102
RTVSPost2010PropOp47
 70
     1
102
RTVSPost2010Prop48
 90
       50
102
RTVSPost2010PropOp48
 70
     1
102
RTVSPost2010Prop49
280
     0
102
RTVSPost2010PropOp49
 70
     1
102
RTVSPost2010Prop50
 90
       50
102
RTVSPost2010PropOp50
 70
     1
102
RTVSPost2010Prop51ColorIndex
 90
      256
102
RTVSPost2010Prop51ColorRGB
 90
-16777216
102
RTVSPost2010PropOp51
 70
     0
102
RTVSPost2010Prop52
140
1.0
102
RTVSPost2010PropOp52
 70
     0
102
RTVSPost2010Prop53
 90
        2
102
RTVSPost2010PropOp53
 70
     1
102
RTVSPost2010Prop54
  1
strokes_ogs.tif
102
RTVSPost2010PropOp54
 70
     1
102
RTVSPost2010Prop55
280
     0
102
RTVSPost2010PropOp55
 70
     1
102
RTVSPost2010Prop56
140
1.0
102
RTVSPost2010PropOp56
 70
     1
102
RTVSPost2010Prop57
140
1.0
102
RTVSPost2010PropOp57
 70
     1
  0
XRECORD
  5
187
102
{ACAD_REACTORS
330
186
102
}
330
186
100
AcDbXrecord
280
     1
102
RTVSPost2010Prop28
280
     0
102
RTVSPost2010PropOp28
 70
     1
102
RTVSPost2010Prop29
280
     1
102
RTVSPost2010PropOp29
 70
     1
102
RTVSPost2010Prop30
280
     1
102
RTVSPost2010PropOp30
 70
     1
102
RTVSPost2010Prop31
280
     0
102
RTVSPost2010PropOp31
 70
     1
102
RTVSPost2010Prop32
280
     0
102
RTVSPost2010PropOp32
 70
     1
102
RTVSPost2010Prop33
280
     0
102
RTVSPost2010PropOp33
 70
     1
102
RTVSPost2010Prop34
280
     0
102
RTVSPost2010PropOp34
 70
     1
102
RTVSPost2010Prop35
280
     0
102
RTVSPost2010PropOp35
 70
     1
102
RTVSPost2010Prop36
280
     0
102
RTVSPost2010PropOp36
 70
     1
102
RTVSPost2010Prop37
 90
       50
102
RTVSPost2010PropOp37
 70
     1
102
RTVSPost2010Prop38
140
0.0
102
RTVSPost2010PropOp38
 70
     1
102
RTVSPost2010Prop39
140
1.0
102
RTVSPost2010PropOp39
 70
     1
102
RTVSPost2010Prop40
 90
        0
102
RTVSPost2010PropOp40
 70
     1
102
RTVSPost2010Prop41ColorIndex
 90
       18
102
RTVSPost2010Prop41ColorRGB
 90
        0
102
RTVSPost2010PropOp41
 70
     1
102
RTVSPost2010Prop42
 90
       50
102
RTVSPost2010PropOp42
 70
     1
102
RTVSPost2010Prop43
 90
        3
102
RTVSPost2010PropOp43
 70
     1
102
RTVSPost2010Prop44ColorIndex
 90
        5
102
RTVSPost2010Prop44ColorRGB
 90
      255
102
RTVSPost2010PropOp44
 70
     1
102
RTVSPost2010Prop45
280
     0
102
RTVSPost2010PropOp45
 70
     1
102
RTVSPost2010Prop46
 90
       50
102
RTVSPost2010PropOp46
 70
     1
102
RTVSPost2010Prop47
 90
       50
102
RTVSPost2010PropOp47
 70
     1
102
RTVSPost2010Prop48
 90
       50
102
RTVSPost2010PropOp48
 70
     1
102
RTVSPost2010Prop49
280
     0
102
RTVSPost2010PropOp49
 70
     1
102
RTVSPost2010Prop50
 90
       50
102
RTVSPost2010PropOp50
 70
     1
102
RTVSPost2010Prop51ColorIndex
 90
      256
102
RTVSPost2010Prop51ColorRGB
 90
-16777216
102
RTVSPost2010PropOp51
 70
     0
102
RTVSPost2010Prop52
140
1.0
102
RTVSPost2010PropOp52
 70
     0
102
RTVSPost2010Prop53
 90
        2
102
RTVSPost2010PropOp53
 70
     1
102
RTVSPost2010Prop54
  1
strokes_ogs.tif
102
RTVSPost2010PropOp54
 70
     1
102
RTVSPost2010Prop55
280
     0
102
RTVSPost2010PropOp55
 70
     1
102
RTVSPost2010Prop56
140
1.0
102
RTVSPost2010PropOp56
 70
     1
102
RTVSPost2010Prop57
140
1.0
102
RTVSPost2010PropOp57
 70
     1
  0
XRECORD
  5
179
102
{ACAD_REACTORS
330
178
102
}
330
178
100
AcDbXrecord
280
     1
102
RTVSPost2010Prop28
280
     0
102
RTVSPost2010PropOp28
 70
     1
102
RTVSPost2010Prop29
280
     1
102
RTVSPost2010PropOp29
 70
     1
102
RTVSPost2010Prop30
280
     1
102
RTVSPost2010PropOp30
 70
     1
102
RTVSPost2010Prop31
280
     0
102
RTVSPost2010PropOp31
 70
     1
102
RTVSPost2010Prop32
280
     0
102
RTVSPost2010PropOp32
 70
     1
102
RTVSPost2010Prop33
280
     0
102
RTVSPost2010PropOp33
 70
     1
102
RTVSPost2010Prop34
280
     0
102
RTVSPost2010PropOp34
 70
     1
102
RTVSPost2010Prop35
280
     0
102
RTVSPost2010PropOp35
 70
     1
102
RTVSPost2010Prop36
280
     0
102
RTVSPost2010PropOp36
 70
     1
102
RTVSPost2010Prop37
 90
       50
102
RTVSPost2010PropOp37
 70
     1
102
RTVSPost2010Prop38
140
0.0
102
RTVSPost2010PropOp38
 70
     1
102
RTVSPost2010Prop39
140
1.0
102
RTVSPost2010PropOp39
 70
     1
102
RTVSPost2010Prop40
 90
        0
102
RTVSPost2010PropOp40
 70
     1
102
RTVSPost2010Prop41ColorIndex
 90
       18
102
RTVSPost2010Prop41ColorRGB
 90
        0
102
RTVSPost2010PropOp41
 70
     1
102
RTVSPost2010Prop42
 90
       50
102
RTVSPost2010PropOp42
 70
     1
102
RTVSPost2010Prop43
 90
        3
102
RTVSPost2010PropOp43
 70
     1
102
RTVSPost2010Prop44ColorIndex
 90
        5
102
RTVSPost2010Prop44ColorRGB
 90
      255
102
RTVSPost2010PropOp44
 70
     1
102
RTVSPost2010Prop45
280
     0
102
RTVSPost2010PropOp45
 70
     1
102
RTVSPost2010Prop46
 90
       50
102
RTVSPost2010PropOp46
 70
     1
102
RTVSPost2010Prop47
 90
       50
102
RTVSPost2010PropOp47
 70
     1
102
RTVSPost2010Prop48
 90
       50
102
RTVSPost2010PropOp48
 70
     1
102
RTVSPost2010Prop49
280
     0
102
RTVSPost2010PropOp49
 70
     1
102
RTVSPost2010Prop50
 90
       50
102
RTVSPost2010PropOp50
 70
     1
102
RTVSPost2010Prop51ColorIndex
 90
      256
102
RTVSPost2010Prop51ColorRGB
 90
-16777216
102
RTVSPost2010PropOp51
 70
     0
102
RTVSPost2010Prop52
140
1.0
102
RTVSPost2010PropOp52
 70
     0
102
RTVSPost2010Prop53
 90
        2
102
RTVSPost2010PropOp53
 70
     1
102
RTVSPost2010Prop54
  1
strokes_ogs.tif
102
RTVSPost2010PropOp54
 70
     1
102
RTVSPost2010Prop55
280
     0
102
RTVSPost2010PropOp55
 70
     1
102
RTVSPost2010Prop56
140
1.0
102
RTVSPost2010PropOp56
 70
     1
102
RTVSPost2010Prop57
140
1.0
102
RTVSPost2010PropOp57
 70
     1
  0
XRECORD
  5
17D
102
{ACAD_REACTORS
330
17C
102
}
330
17C
100
AcDbXrecord
280
     1
102
RTVSPost2010Prop28
280
     0
102
RTVSPost2010PropOp28
 70
     1
102
RTVSPost2010Prop29
280
     1
102
RTVSPost2010PropOp29
 70
     1
102
RTVSPost2010Prop30
280
     1
102
RTVSPost2010PropOp30
 70
     1
102
RTVSPost2010Prop31
280
     0
102
RTVSPost2010PropOp31
 70
     1
102
RTVSPost2010Prop32
280
     0
102
RTVSPost2010PropOp32
 70
     1
102
RTVSPost2010Prop33
280
     0
102
RTVSPost2010PropOp33
 70
     1
102
RTVSPost2010Prop34
280
     0
102
RTVSPost2010PropOp34
 70
     1
102
RTVSPost2010Prop35
280
     0
102
RTVSPost2010PropOp35
 70
     1
102
RTVSPost2010Prop36
280
     0
102
RTVSPost2010PropOp36
 70
     1
102
RTVSPost2010Prop37
 90
       50
102
RTVSPost2010PropOp37
 70
     1
102
RTVSPost2010Prop38
140
0.0
102
RTVSPost2010PropOp38
 70
     1
102
RTVSPost2010Prop39
140
1.0
102
RTVSPost2010PropOp39
 70
     1
102
RTVSPost2010Prop40
 90
        0
102
RTVSPost2010PropOp40
 70
     1
102
RTVSPost2010Prop41ColorIndex
 90
       18
102
RTVSPost2010Prop41ColorRGB
 90
        0
102
RTVSPost2010PropOp41
 70
     1
102
RTVSPost2010Prop42
 90
       50
102
RTVSPost2010PropOp42
 70
     1
102
RTVSPost2010Prop43
 90
        3
102
RTVSPost2010PropOp43
 70
     1
102
RTVSPost2010Prop44ColorIndex
 90
        5
102
RTVSPost2010Prop44ColorRGB
 90
      255
102
RTVSPost2010PropOp44
 70
     1
102
RTVSPost2010Prop45
280
     0
102
RTVSPost2010PropOp45
 70
     1
102
RTVSPost2010Prop46
 90
       50
102
RTVSPost2010PropOp46
 70
     1
102
RTVSPost2010Prop47
 90
       50
102
RTVSPost2010PropOp47
 70
     1
102
RTVSPost2010Prop48
 90
       50
102
RTVSPost2010PropOp48
 70
     1
102
RTVSPost2010Prop49
280
     0
102
RTVSPost2010PropOp49
 70
     1
102
RTVSPost2010Prop50
 90
       50
102
RTVSPost2010PropOp50
 70
     1
102
RTVSPost2010Prop51ColorIndex
 90
      256
102
RTVSPost2010Prop51ColorRGB
 90
-16777216
102
RTVSPost2010PropOp51
 70
     0
102
RTVSPost2010Prop52
140
1.0
102
RTVSPost2010PropOp52
 70
     0
102
RTVSPost2010Prop53
 90
        2
102
RTVSPost2010PropOp53
 70
     1
102
RTVSPost2010Prop54
  1
strokes_ogs.tif
102
RTVSPost2010PropOp54
 70
     1
102
RTVSPost2010Prop55
280
     0
102
RTVSPost2010PropOp55
 70
     1
102
RTVSPost2010Prop56
140
1.0
102
RTVSPost2010PropOp56
 70
     1
102
RTVSPost2010Prop57
140
1.0
102
RTVSPost2010PropOp57
 70
     1
  0
XRECORD
  5
197
102
{ACAD_REACTORS
330
196
102
}
330
196
100
AcDbXrecord
280
     1
102
RTVSPost2010Prop28
280
     0
102
RTVSPost2010PropOp28
 70
     0
102
RTVSPost2010Prop29
280
     1
102
RTVSPost2010PropOp29
 70
     0
102
RTVSPost2010Prop30
280
     1
102
RTVSPost2010PropOp30
 70
     0
102
RTVSPost2010Prop31
280
     0
102
RTVSPost2010PropOp31
 70
     0
102
RTVSPost2010Prop32
280
     0
102
RTVSPost2010PropOp32
 70
     0
102
RTVSPost2010Prop33
280
     0
102
RTVSPost2010PropOp33
 70
     0
102
RTVSPost2010Prop34
280
     0
102
RTVSPost2010PropOp34
 70
     0
102
RTVSPost2010Prop35
280
     0
102
RTVSPost2010PropOp35
 70
     0
102
RTVSPost2010Prop36
280
     0
102
RTVSPost2010PropOp36
 70
     0
102
RTVSPost2010Prop37
 90
       50
102
RTVSPost2010PropOp37
 70
     0
102
RTVSPost2010Prop38
140
0.0
102
RTVSPost2010PropOp38
 70
     0
102
RTVSPost2010Prop39
140
1.0
102
RTVSPost2010PropOp39
 70
     0
102
RTVSPost2010Prop40
 90
        0
102
RTVSPost2010PropOp40
 70
     0
102
RTVSPost2010Prop41ColorIndex
 90
       18
102
RTVSPost2010Prop41ColorRGB
 90
        0
102
RTVSPost2010PropOp41
 70
     0
102
RTVSPost2010Prop42
 90
       50
102
RTVSPost2010PropOp42
 70
     0
102
RTVSPost2010Prop43
 90
        3
102
RTVSPost2010PropOp43
 70
     0
102
RTVSPost2010Prop44ColorIndex
 90
        5
102
RTVSPost2010Prop44ColorRGB
 90
      255
102
RTVSPost2010PropOp44
 70
     0
102
RTVSPost2010Prop45
280
     0
102
RTVSPost2010PropOp45
 70
     0
102
RTVSPost2010Prop46
 90
       50
102
RTVSPost2010PropOp46
 70
     0
102
RTVSPost2010Prop47
 90
       50
102
RTVSPost2010PropOp47
 70
     0
102
RTVSPost2010Prop48
 90
       50
102
RTVSPost2010PropOp48
 70
     0
102
RTVSPost2010Prop49
280
     0
102
RTVSPost2010PropOp49
 70
     0
102
RTVSPost2010Prop50
 90
       50
102
RTVSPost2010PropOp50
 70
     0
102
RTVSPost2010Prop51ColorIndex
 90
      256
102
RTVSPost2010Prop51ColorRGB
 90
-16777216
102
RTVSPost2010PropOp51
 70
     0
102
RTVSPost2010Prop52
140
1.0
102
RTVSPost2010PropOp52
 70
     0
102
RTVSPost2010Prop53
 90
        2
102
RTVSPost2010PropOp53
 70
     0
102
RTVSPost2010Prop54
  1
strokes_ogs.tif
102
RTVSPost2010PropOp54
 70
     0
102
RTVSPost2010Prop55
280
     0
102
RTVSPost2010PropOp55
 70
     0
102
RTVSPost2010Prop56
140
1.0
102
RTVSPost2010PropOp56
 70
     0
102
RTVSPost2010Prop57
140
1.0
102
RTVSPost2010PropOp57
 70
     0
  0
XRECORD
  5
185
102
{ACAD_REACTORS
330
184
102
}
330
184
100
AcDbXrecord
280
     1
102
RTVSPost2010Prop28
280
     0
102
RTVSPost2010PropOp28
 70
     1
102
RTVSPost2010Prop29
280
     1
102
RTVSPost2010PropOp29
 70
     1
102
RTVSPost2010Prop30
280
     1
102
RTVSPost2010PropOp30
 70
     1
102
RTVSPost2010Prop31
280
     0
102
RTVSPost2010PropOp31
 70
     1
102
RTVSPost2010Prop32
280
     0
102
RTVSPost2010PropOp32
 70
     1
102
RTVSPost2010Prop33
280
     0
102
RTVSPost2010PropOp33
 70
     1
102
RTVSPost2010Prop34
280
     0
102
RTVSPost2010PropOp34
 70
     1
102
RTVSPost2010Prop35
280
     0
102
RTVSPost2010PropOp35
 70
     1
102
RTVSPost2010Prop36
280
     0
102
RTVSPost2010PropOp36
 70
     1
102
RTVSPost2010Prop37
 90
       50
102
RTVSPost2010PropOp37
 70
     1
102
RTVSPost2010Prop38
140
0.0
102
RTVSPost2010PropOp38
 70
     1
102
RTVSPost2010Prop39
140
1.0
102
RTVSPost2010PropOp39
 70
     1
102
RTVSPost2010Prop40
 90
        0
102
RTVSPost2010PropOp40
 70
     1
102
RTVSPost2010Prop41ColorIndex
 90
       18
102
RTVSPost2010Prop41ColorRGB
 90
        0
102
RTVSPost2010PropOp41
 70
     1
102
RTVSPost2010Prop42
 90
       50
102
RTVSPost2010PropOp42
 70
     1
102
RTVSPost2010Prop43
 90
        3
102
RTVSPost2010PropOp43
 70
     1
102
RTVSPost2010Prop44ColorIndex
 90
        5
102
RTVSPost2010Prop44ColorRGB
 90
      255
102
RTVSPost2010PropOp44
 70
     1
102
RTVSPost2010Prop45
280
     0
102
RTVSPost2010PropOp45
 70
     1
102
RTVSPost2010Prop46
 90
       50
102
RTVSPost2010PropOp46
 70
     1
102
RTVSPost2010Prop47
 90
       50
102
RTVSPost2010PropOp47
 70
     1
102
RTVSPost2010Prop48
 90
       50
102
RTVSPost2010PropOp48
 70
     1
102
RTVSPost2010Prop49
280
     0
102
RTVSPost2010PropOp49
 70
     1
102
RTVSPost2010Prop50
 90
       50
102
RTVSPost2010PropOp50
 70
     1
102
RTVSPost2010Prop51ColorIndex
 90
      256
102
RTVSPost2010Prop51ColorRGB
 90
-16777216
102
RTVSPost2010PropOp51
 70
     0
102
RTVSPost2010Prop52
140
1.0
102
RTVSPost2010PropOp52
 70
     0
102
RTVSPost2010Prop53
 90
        2
102
RTVSPost2010PropOp53
 70
     1
102
RTVSPost2010Prop54
  1
strokes_ogs.tif
102
RTVSPost2010PropOp54
 70
     1
102
RTVSPost2010Prop55
280
     0
102
RTVSPost2010PropOp55
 70
     1
102
RTVSPost2010Prop56
140
1.0
102
RTVSPost2010PropOp56
 70
     1
102
RTVSPost2010Prop57
140
1.0
102
RTVSPost2010PropOp57
 70
     1
  0
XRECORD
  5
169
102
{ACAD_REACTORS
330
168
102
}
330
168
100
AcDbXrecord
280
     1
102
RTVSPost2010Prop28
280
     0
102
RTVSPost2010PropOp28
 70
     1
102
RTVSPost2010Prop29
280
     1
102
RTVSPost2010PropOp29
 70
     1
102
RTVSPost2010Prop30
280
     1
102
RTVSPost2010PropOp30
 70
     1
102
RTVSPost2010Prop31
280
     0
102
RTVSPost2010PropOp31
 70
     1
102
RTVSPost2010Prop32
280
     0
102
RTVSPost2010PropOp32
 70
     1
102
RTVSPost2010Prop33
280
     0
102
RTVSPost2010PropOp33
 70
     1
102
RTVSPost2010Prop34
280
     0
102
RTVSPost2010PropOp34
 70
     1
102
RTVSPost2010Prop35
280
     0
102
RTVSPost2010PropOp35
 70
     1
102
RTVSPost2010Prop36
280
     0
102
RTVSPost2010PropOp36
 70
     1
102
RTVSPost2010Prop37
 90
       50
102
RTVSPost2010PropOp37
 70
     1
102
RTVSPost2010Prop38
140
0.0
102
RTVSPost2010PropOp38
 70
     1
102
RTVSPost2010Prop39
140
1.0
102
RTVSPost2010PropOp39
 70
     1
102
RTVSPost2010Prop40
 90
        0
102
RTVSPost2010PropOp40
 70
     1
102
RTVSPost2010Prop41ColorIndex
 90
       18
102
RTVSPost2010Prop41ColorRGB
 90
        0
102
RTVSPost2010PropOp41
 70
     1
102
RTVSPost2010Prop42
 90
       50
102
RTVSPost2010PropOp42
 70
     1
102
RTVSPost2010Prop43
 90
        3
102
RTVSPost2010PropOp43
 70
     1
102
RTVSPost2010Prop44ColorIndex
 90
        5
102
RTVSPost2010Prop44ColorRGB
 90
      255
102
RTVSPost2010PropOp44
 70
     1
102
RTVSPost2010Prop45
280
     0
102
RTVSPost2010PropOp45
 70
     1
102
RTVSPost2010Prop46
 90
       50
102
RTVSPost2010PropOp46
 70
     1
102
RTVSPost2010Prop47
 90
       50
102
RTVSPost2010PropOp47
 70
     1
102
RTVSPost2010Prop48
 90
       50
102
RTVSPost2010PropOp48
 70
     1
102
RTVSPost2010Prop49
280
     0
102
RTVSPost2010PropOp49
 70
     1
102
RTVSPost2010Prop50
 90
       50
102
RTVSPost2010PropOp50
 70
     1
102
RTVSPost2010Prop51ColorIndex
 90
      256
102
RTVSPost2010Prop51ColorRGB
 90
-16777216
102
RTVSPost2010PropOp51
 70
     0
102
RTVSPost2010Prop52
140
1.0
102
RTVSPost2010PropOp52
 70
     0
102
RTVSPost2010Prop53
 90
        2
102
RTVSPost2010PropOp53
 70
     1
102
RTVSPost2010Prop54
  1
strokes_ogs.tif
102
RTVSPost2010PropOp54
 70
     1
102
RTVSPost2010Prop55
280
     0
102
RTVSPost2010PropOp55
 70
     1
102
RTVSPost2010Prop56
140
1.0
102
RTVSPost2010PropOp56
 70
     1
102
RTVSPost2010Prop57
140
1.0
102
RTVSPost2010PropOp57
 70
     1
  0
XRECORD
  5
16B
102
{ACAD_REACTORS
330
16A
102
}
330
16A
100
AcDbXrecord
280
     1
102
RTVSPost2010Prop28
280
     0
102
RTVSPost2010PropOp28
 70
     1
102
RTVSPost2010Prop29
280
     1
102
RTVSPost2010PropOp29
 70
     1
102
RTVSPost2010Prop30
280
     1
102
RTVSPost2010PropOp30
 70
     1
102
RTVSPost2010Prop31
280
     0
102
RTVSPost2010PropOp31
 70
     1
102
RTVSPost2010Prop32
280
     0
102
RTVSPost2010PropOp32
 70
     1
102
RTVSPost2010Prop33
280
     0
102
RTVSPost2010PropOp33
 70
     1
102
RTVSPost2010Prop34
280
     0
102
RTVSPost2010PropOp34
 70
     1
102
RTVSPost2010Prop35
280
     0
102
RTVSPost2010PropOp35
 70
     1
102
RTVSPost2010Prop36
280
     0
102
RTVSPost2010PropOp36
 70
     1
102
RTVSPost2010Prop37
 90
       50
102
RTVSPost2010PropOp37
 70
     1
102
RTVSPost2010Prop38
140
0.0
102
RTVSPost2010PropOp38
 70
     1
102
RTVSPost2010Prop39
140
1.0
102
RTVSPost2010PropOp39
 70
     1
102
RTVSPost2010Prop40
 90
        0
102
RTVSPost2010PropOp40
 70
     1
102
RTVSPost2010Prop41ColorIndex
 90
       18
102
RTVSPost2010Prop41ColorRGB
 90
        0
102
RTVSPost2010PropOp41
 70
     1
102
RTVSPost2010Prop42
 90
       50
102
RTVSPost2010PropOp42
 70
     1
102
RTVSPost2010Prop43
 90
        3
102
RTVSPost2010PropOp43
 70
     1
102
RTVSPost2010Prop44ColorIndex
 90
        5
102
RTVSPost2010Prop44ColorRGB
 90
      255
102
RTVSPost2010PropOp44
 70
     1
102
RTVSPost2010Prop45
280
     0
102
RTVSPost2010PropOp45
 70
     1
102
RTVSPost2010Prop46
 90
       50
102
RTVSPost2010PropOp46
 70
     1
102
RTVSPost2010Prop47
 90
       50
102
RTVSPost2010PropOp47
 70
     1
102
RTVSPost2010Prop48
 90
       50
102
RTVSPost2010PropOp48
 70
     1
102
RTVSPost2010Prop49
280
     0
102
RTVSPost2010PropOp49
 70
     1
102
RTVSPost2010Prop50
 90
       50
102
RTVSPost2010PropOp50
 70
     1
102
RTVSPost2010Prop51ColorIndex
 90
      256
102
RTVSPost2010Prop51ColorRGB
 90
-16777216
102
RTVSPost2010PropOp51
 70
     0
102
RTVSPost2010Prop52
140
1.0
102
RTVSPost2010PropOp52
 70
     0
102
RTVSPost2010Prop53
 90
        2
102
RTVSPost2010PropOp53
 70
     1
102
RTVSPost2010Prop54
  1
strokes_ogs.tif
102
RTVSPost2010PropOp54
 70
     1
102
RTVSPost2010Prop55
280
     0
102
RTVSPost2010PropOp55
 70
     1
102
RTVSPost2010Prop56
140
1.0
102
RTVSPost2010PropOp56
 70
     1
102
RTVSPost2010Prop57
140
1.0
102
RTVSPost2010PropOp57
 70
     1
  0
XRECORD
  5
16D
102
{ACAD_REACTORS
330
16C
102
}
330
16C
100
AcDbXrecord
280
     1
102
RTVSPost2010Prop28
280
     0
102
RTVSPost2010PropOp28
 70
     1
102
RTVSPost2010Prop29
280
     1
102
RTVSPost2010PropOp29
 70
     1
102
RTVSPost2010Prop30
280
     1
102
RTVSPost2010PropOp30
 70
     1
102
RTVSPost2010Prop31
280
     0
102
RTVSPost2010PropOp31
 70
     1
102
RTVSPost2010Prop32
280
     0
102
RTVSPost2010PropOp32
 70
     1
102
RTVSPost2010Prop33
280
     0
102
RTVSPost2010PropOp33
 70
     1
102
RTVSPost2010Prop34
280
     0
102
RTVSPost2010PropOp34
 70
     1
102
RTVSPost2010Prop35
280
     0
102
RTVSPost2010PropOp35
 70
     1
102
RTVSPost2010Prop36
280
     0
102
RTVSPost2010PropOp36
 70
     1
102
RTVSPost2010Prop37
 90
       50
102
RTVSPost2010PropOp37
 70
     1
102
RTVSPost2010Prop38
140
0.0
102
RTVSPost2010PropOp38
 70
     1
102
RTVSPost2010Prop39
140
1.0
102
RTVSPost2010PropOp39
 70
     1
102
RTVSPost2010Prop40
 90
        0
102
RTVSPost2010PropOp40
 70
     1
102
RTVSPost2010Prop41ColorIndex
 90
       18
102
RTVSPost2010Prop41ColorRGB
 90
        0
102
RTVSPost2010PropOp41
 70
     1
102
RTVSPost2010Prop42
 90
       50
102
RTVSPost2010PropOp42
 70
     1
102
RTVSPost2010Prop43
 90
        3
102
RTVSPost2010PropOp43
 70
     1
102
RTVSPost2010Prop44ColorIndex
 90
        5
102
RTVSPost2010Prop44ColorRGB
 90
      255
102
RTVSPost2010PropOp44
 70
     1
102
RTVSPost2010Prop45
280
     0
102
RTVSPost2010PropOp45
 70
     1
102
RTVSPost2010Prop46
 90
       50
102
RTVSPost2010PropOp46
 70
     1
102
RTVSPost2010Prop47
 90
       50
102
RTVSPost2010PropOp47
 70
     1
102
RTVSPost2010Prop48
 90
       50
102
RTVSPost2010PropOp48
 70
     1
102
RTVSPost2010Prop49
280
     0
102
RTVSPost2010PropOp49
 70
     1
102
RTVSPost2010Prop50
 90
       50
102
RTVSPost2010PropOp50
 70
     1
102
RTVSPost2010Prop51ColorIndex
 90
      256
102
RTVSPost2010Prop51ColorRGB
 90
-16777216
102
RTVSPost2010PropOp51
 70
     0
102
RTVSPost2010Prop52
140
1.0
102
RTVSPost2010PropOp52
 70
     0
102
RTVSPost2010Prop53
 90
        2
102
RTVSPost2010PropOp53
 70
     1
102
RTVSPost2010Prop54
  1
strokes_ogs.tif
102
RTVSPost2010PropOp54
 70
     1
102
RTVSPost2010Prop55
280
     0
102
RTVSPost2010PropOp55
 70
     1
102
RTVSPost2010Prop56
140
1.0
102
RTVSPost2010PropOp56
 70
     1
102
RTVSPost2010Prop57
140
1.0
102
RTVSPost2010PropOp57
 70
     1
  0
XRECORD
  5
16F
102
{ACAD_REACTORS
330
16E
102
}
330
16E
100
AcDbXrecord
280
     1
102
RTVSPost2010Prop28
280
     0
102
RTVSPost2010PropOp28
 70
     1
102
RTVSPost2010Prop29
280
     1
102
RTVSPost2010PropOp29
 70
     1
102
RTVSPost2010Prop30
280
     1
102
RTVSPost2010PropOp30
 70
     1
102
RTVSPost2010Prop31
280
     0
102
RTVSPost2010PropOp31
 70
     1
102
RTVSPost2010Prop32
280
     0
102
RTVSPost2010PropOp32
 70
     1
102
RTVSPost2010Prop33
280
     0
102
RTVSPost2010PropOp33
 70
     1
102
RTVSPost2010Prop34
280
     0
102
RTVSPost2010PropOp34
 70
     1
102
RTVSPost2010Prop35
280
     0
102
RTVSPost2010PropOp35
 70
     1
102
RTVSPost2010Prop36
280
     0
102
RTVSPost2010PropOp36
 70
     1
102
RTVSPost2010Prop37
 90
       50
102
RTVSPost2010PropOp37
 70
     1
102
RTVSPost2010Prop38
140
0.0
102
RTVSPost2010PropOp38
 70
     1
102
RTVSPost2010Prop39
140
1.0
102
RTVSPost2010PropOp39
 70
     1
102
RTVSPost2010Prop40
 90
        0
102
RTVSPost2010PropOp40
 70
     1
102
RTVSPost2010Prop41ColorIndex
 90
       18
102
RTVSPost2010Prop41ColorRGB
 90
        0
102
RTVSPost2010PropOp41
 70
     1
102
RTVSPost2010Prop42
 90
       50
102
RTVSPost2010PropOp42
 70
     1
102
RTVSPost2010Prop43
 90
        3
102
RTVSPost2010PropOp43
 70
     1
102
RTVSPost2010Prop44ColorIndex
 90
        5
102
RTVSPost2010Prop44ColorRGB
 90
      255
102
RTVSPost2010PropOp44
 70
     1
102
RTVSPost2010Prop45
280
     0
102
RTVSPost2010PropOp45
 70
     1
102
RTVSPost2010Prop46
 90
       50
102
RTVSPost2010PropOp46
 70
     1
102
RTVSPost2010Prop47
 90
       50
102
RTVSPost2010PropOp47
 70
     1
102
RTVSPost2010Prop48
 90
       50
102
RTVSPost2010PropOp48
 70
     1
102
RTVSPost2010Prop49
280
     0
102
RTVSPost2010PropOp49
 70
     1
102
RTVSPost2010Prop50
 90
       50
102
RTVSPost2010PropOp50
 70
     1
102
RTVSPost2010Prop51ColorIndex
 90
      256
102
RTVSPost2010Prop51ColorRGB
 90
-16777216
102
RTVSPost2010PropOp51
 70
     0
102
RTVSPost2010Prop52
140
1.0
102
RTVSPost2010PropOp52
 70
     0
102
RTVSPost2010Prop53
 90
        2
102
RTVSPost2010PropOp53
 70
     1
102
RTVSPost2010Prop54
  1
strokes_ogs.tif
102
RTVSPost2010PropOp54
 70
     1
102
RTVSPost2010Prop55
280
     0
102
RTVSPost2010PropOp55
 70
     1
102
RTVSPost2010Prop56
140
1.0
102
RTVSPost2010PropOp56
 70
     1
102
RTVSPost2010Prop57
140
1.0
102
RTVSPost2010PropOp57
 70
     1
  0
XRECORD
  5
177
102
{ACAD_REACTORS
330
176
102
}
330
176
100
AcDbXrecord
280
     1
102
RTVSPost2010Prop28
280
     0
102
RTVSPost2010PropOp28
 70
     1
102
RTVSPost2010Prop29
280
     1
102
RTVSPost2010PropOp29
 70
     1
102
RTVSPost2010Prop30
280
     1
102
RTVSPost2010PropOp30
 70
     1
102
RTVSPost2010Prop31
280
     0
102
RTVSPost2010PropOp31
 70
     1
102
RTVSPost2010Prop32
280
     0
102
RTVSPost2010PropOp32
 70
     1
102
RTVSPost2010Prop33
280
     0
102
RTVSPost2010PropOp33
 70
     1
102
RTVSPost2010Prop34
280
     0
102
RTVSPost2010PropOp34
 70
     1
102
RTVSPost2010Prop35
280
     0
102
RTVSPost2010PropOp35
 70
     1
102
RTVSPost2010Prop36
280
     0
102
RTVSPost2010PropOp36
 70
     1
102
RTVSPost2010Prop37
 90
       50
102
RTVSPost2010PropOp37
 70
     1
102
RTVSPost2010Prop38
140
0.0
102
RTVSPost2010PropOp38
 70
     1
102
RTVSPost2010Prop39
140
1.0
102
RTVSPost2010PropOp39
 70
     1
102
RTVSPost2010Prop40
 90
        0
102
RTVSPost2010PropOp40
 70
     1
102
RTVSPost2010Prop41ColorIndex
 90
       18
102
RTVSPost2010Prop41ColorRGB
 90
        0
102
RTVSPost2010PropOp41
 70
     1
102
RTVSPost2010Prop42
 90
       50
102
RTVSPost2010PropOp42
 70
     1
102
RTVSPost2010Prop43
 90
        3
102
RTVSPost2010PropOp43
 70
     1
102
RTVSPost2010Prop44ColorIndex
 90
        5
102
RTVSPost2010Prop44ColorRGB
 90
      255
102
RTVSPost2010PropOp44
 70
     1
102
RTVSPost2010Prop45
280
     0
102
RTVSPost2010PropOp45
 70
     1
102
RTVSPost2010Prop46
 90
       50
102
RTVSPost2010PropOp46
 70
     1
102
RTVSPost2010Prop47
 90
       50
102
RTVSPost2010PropOp47
 70
     1
102
RTVSPost2010Prop48
 90
       50
102
RTVSPost2010PropOp48
 70
     1
102
RTVSPost2010Prop49
280
     0
102
RTVSPost2010PropOp49
 70
     1
102
RTVSPost2010Prop50
 90
       50
102
RTVSPost2010PropOp50
 70
     1
102
RTVSPost2010Prop51ColorIndex
 90
      256
102
RTVSPost2010Prop51ColorRGB
 90
-16777216
102
RTVSPost2010PropOp51
 70
     0
102
RTVSPost2010Prop52
140
1.0
102
RTVSPost2010PropOp52
 70
     0
102
RTVSPost2010Prop53
 90
        2
102
RTVSPost2010PropOp53
 70
     1
102
RTVSPost2010Prop54
  1
strokes_ogs.tif
102
RTVSPost2010PropOp54
 70
     1
102
RTVSPost2010Prop55
280
     0
102
RTVSPost2010PropOp55
 70
     1
102
RTVSPost2010Prop56
140
1.0
102
RTVSPost2010PropOp56
 70
     1
102
RTVSPost2010Prop57
140
1.0
102
RTVSPost2010PropOp57
 70
     1
  0
XRECORD
  5
193
102
{ACAD_REACTORS
330
192
102
}
330
192
100
AcDbXrecord
280
     1
102
RTVSPost2010Prop28
280
     0
102
RTVSPost2010PropOp28
 70
     0
102
RTVSPost2010Prop29
280
     1
102
RTVSPost2010PropOp29
 70
     0
102
RTVSPost2010Prop30
280
     1
102
RTVSPost2010PropOp30
 70
     0
102
RTVSPost2010Prop31
280
     0
102
RTVSPost2010PropOp31
 70
     0
102
RTVSPost2010Prop32
280
     0
102
RTVSPost2010PropOp32
 70
     0
102
RTVSPost2010Prop33
280
     0
102
RTVSPost2010PropOp33
 70
     0
102
RTVSPost2010Prop34
280
     0
102
RTVSPost2010PropOp34
 70
     0
102
RTVSPost2010Prop35
280
     0
102
RTVSPost2010PropOp35
 70
     0
102
RTVSPost2010Prop36
280
     0
102
RTVSPost2010PropOp36
 70
     0
102
RTVSPost2010Prop37
 90
       50
102
RTVSPost2010PropOp37
 70
     0
102
RTVSPost2010Prop38
140
0.0
102
RTVSPost2010PropOp38
 70
     0
102
RTVSPost2010Prop39
140
1.0
102
RTVSPost2010PropOp39
 70
     0
102
RTVSPost2010Prop40
 90
        0
102
RTVSPost2010PropOp40
 70
     0
102
RTVSPost2010Prop41ColorIndex
 90
       18
102
RTVSPost2010Prop41ColorRGB
 90
        0
102
RTVSPost2010PropOp41
 70
     0
102
RTVSPost2010Prop42
 90
       50
102
RTVSPost2010PropOp42
 70
     0
102
RTVSPost2010Prop43
 90
        3
102
RTVSPost2010PropOp43
 70
     0
102
RTVSPost2010Prop44ColorIndex
 90
        5
102
RTVSPost2010Prop44ColorRGB
 90
      255
102
RTVSPost2010PropOp44
 70
     0
102
RTVSPost2010Prop45
280
     0
102
RTVSPost2010PropOp45
 70
     0
102
RTVSPost2010Prop46
 90
       50
102
RTVSPost2010PropOp46
 70
     0
102
RTVSPost2010Prop47
 90
       50
102
RTVSPost2010PropOp47
 70
     0
102
RTVSPost2010Prop48
 90
       50
102
RTVSPost2010PropOp48
 70
     0
102
RTVSPost2010Prop49
280
     0
102
RTVSPost2010PropOp49
 70
     0
102
RTVSPost2010Prop50
 90
       50
102
RTVSPost2010PropOp50
 70
     0
102
RTVSPost2010Prop51ColorIndex
 90
      256
102
RTVSPost2010Prop51ColorRGB
 90
-16777216
102
RTVSPost2010PropOp51
 70
     0
102
RTVSPost2010Prop52
140
1.0
102
RTVSPost2010PropOp52
 70
     0
102
RTVSPost2010Prop53
 90
        2
102
RTVSPost2010PropOp53
 70
     0
102
RTVSPost2010Prop54
  1
strokes_ogs.tif
102
RTVSPost2010PropOp54
 70
     0
102
RTVSPost2010Prop55
280
     0
102
RTVSPost2010PropOp55
 70
     0
102
RTVSPost2010Prop56
140
1.0
102
RTVSPost2010PropOp56
 70
     0
102
RTVSPost2010Prop57
140
1.0
102
RTVSPost2010PropOp57
 70
     0
  0
XRECORD
  5
183
102
{ACAD_REACTORS
330
182
102
}
330
182
100
AcDbXrecord
280
     1
102
RTVSPost2010Prop28
280
     0
102
RTVSPost2010PropOp28
 70
     1
102
RTVSPost2010Prop29
280
     1
102
RTVSPost2010PropOp29
 70
     1
102
RTVSPost2010Prop30
280
     1
102
RTVSPost2010PropOp30
 70
     1
102
RTVSPost2010Prop31
280
     0
102
RTVSPost2010PropOp31
 70
     1
102
RTVSPost2010Prop32
280
     0
102
RTVSPost2010PropOp32
 70
     1
102
RTVSPost2010Prop33
280
     0
102
RTVSPost2010PropOp33
 70
     1
102
RTVSPost2010Prop34
280
     0
102
RTVSPost2010PropOp34
 70
     1
102
RTVSPost2010Prop35
280
     0
102
RTVSPost2010PropOp35
 70
     1
102
RTVSPost2010Prop36
280
     0
102
RTVSPost2010PropOp36
 70
     1
102
RTVSPost2010Prop37
 90
       50
102
RTVSPost2010PropOp37
 70
     1
102
RTVSPost2010Prop38
140
0.0
102
RTVSPost2010PropOp38
 70
     1
102
RTVSPost2010Prop39
140
1.0
102
RTVSPost2010PropOp39
 70
     1
102
RTVSPost2010Prop40
 90
        0
102
RTVSPost2010PropOp40
 70
     1
102
RTVSPost2010Prop41ColorIndex
 90
       18
102
RTVSPost2010Prop41ColorRGB
 90
        0
102
RTVSPost2010PropOp41
 70
     1
102
RTVSPost2010Prop42
 90
       50
102
RTVSPost2010PropOp42
 70
     1
102
RTVSPost2010Prop43
 90
        3
102
RTVSPost2010PropOp43
 70
     1
102
RTVSPost2010Prop44ColorIndex
 90
        5
102
RTVSPost2010Prop44ColorRGB
 90
      255
102
RTVSPost2010PropOp44
 70
     1
102
RTVSPost2010Prop45
280
     0
102
RTVSPost2010PropOp45
 70
     1
102
RTVSPost2010Prop46
 90
       50
102
RTVSPost2010PropOp46
 70
     1
102
RTVSPost2010Prop47
 90
       50
102
RTVSPost2010PropOp47
 70
     1
102
RTVSPost2010Prop48
 90
       50
102
RTVSPost2010PropOp48
 70
     1
102
RTVSPost2010Prop49
280
     0
102
RTVSPost2010PropOp49
 70
     1
102
RTVSPost2010Prop50
 90
       50
102
RTVSPost2010PropOp50
 70
     1
102
RTVSPost2010Prop51ColorIndex
 90
      256
102
RTVSPost2010Prop51ColorRGB
 90
-16777216
102
RTVSPost2010PropOp51
 70
     0
102
RTVSPost2010Prop52
140
1.0
102
RTVSPost2010PropOp52
 70
     0
102
RTVSPost2010Prop53
 90
        2
102
RTVSPost2010PropOp53
 70
     1
102
RTVSPost2010Prop54
  1
strokes_ogs.tif
102
RTVSPost2010PropOp54
 70
     1
102
RTVSPost2010Prop55
280
     0
102
RTVSPost2010PropOp55
 70
     1
102
RTVSPost2010Prop56
140
1.0
102
RTVSPost2010PropOp56
 70
     1
102
RTVSPost2010Prop57
140
1.0
102
RTVSPost2010PropOp57
 70
     1
  0
XRECORD
  5
195
102
{ACAD_REACTORS
330
194
102
}
330
194
100
AcDbXrecord
280
     1
102
RTVSPost2010Prop28
280
     0
102
RTVSPost2010PropOp28
 70
     0
102
RTVSPost2010Prop29
280
     1
102
RTVSPost2010PropOp29
 70
     0
102
RTVSPost2010Prop30
280
     1
102
RTVSPost2010PropOp30
 70
     0
102
RTVSPost2010Prop31
280
     0
102
RTVSPost2010PropOp31
 70
     0
102
RTVSPost2010Prop32
280
     0
102
RTVSPost2010PropOp32
 70
     0
102
RTVSPost2010Prop33
280
     0
102
RTVSPost2010PropOp33
 70
     0
102
RTVSPost2010Prop34
280
     0
102
RTVSPost2010PropOp34
 70
     0
102
RTVSPost2010Prop35
280
     0
102
RTVSPost2010PropOp35
 70
     0
102
RTVSPost2010Prop36
280
     0
102
RTVSPost2010PropOp36
 70
     0
102
RTVSPost2010Prop37
 90
       50
102
RTVSPost2010PropOp37
 70
     0
102
RTVSPost2010Prop38
140
0.0
102
RTVSPost2010PropOp38
 70
     0
102
RTVSPost2010Prop39
140
1.0
102
RTVSPost2010PropOp39
 70
     0
102
RTVSPost2010Prop40
 90
        0
102
RTVSPost2010PropOp40
 70
     0
102
RTVSPost2010Prop41ColorIndex
 90
       18
102
RTVSPost2010Prop41ColorRGB
 90
        0
102
RTVSPost2010PropOp41
 70
     0
102
RTVSPost2010Prop42
 90
       50
102
RTVSPost2010PropOp42
 70
     0
102
RTVSPost2010Prop43
 90
        3
102
RTVSPost2010PropOp43
 70
     0
102
RTVSPost2010Prop44ColorIndex
 90
        5
102
RTVSPost2010Prop44ColorRGB
 90
      255
102
RTVSPost2010PropOp44
 70
     0
102
RTVSPost2010Prop45
280
     0
102
RTVSPost2010PropOp45
 70
     0
102
RTVSPost2010Prop46
 90
       50
102
RTVSPost2010PropOp46
 70
     0
102
RTVSPost2010Prop47
 90
       50
102
RTVSPost2010PropOp47
 70
     0
102
RTVSPost2010Prop48
 90
       50
102
RTVSPost2010PropOp48
 70
     0
102
RTVSPost2010Prop49
280
     0
102
RTVSPost2010PropOp49
 70
     0
102
RTVSPost2010Prop50
 90
       50
102
RTVSPost2010PropOp50
 70
     0
102
RTVSPost2010Prop51ColorIndex
 90
      256
102
RTVSPost2010Prop51ColorRGB
 90
-16777216
102
RTVSPost2010PropOp51
 70
     0
102
RTVSPost2010Prop52
140
1.0
102
RTVSPost2010PropOp52
 70
     0
102
RTVSPost2010Prop53
 90
        2
102
RTVSPost2010PropOp53
 70
     0
102
RTVSPost2010Prop54
  1
strokes_ogs.tif
102
RTVSPost2010PropOp54
 70
     0
102
RTVSPost2010Prop55
280
     0
102
RTVSPost2010PropOp55
 70
     0
102
RTVSPost2010Prop56
140
1.0
102
RTVSPost2010PropOp56
 70
     0
102
RTVSPost2010Prop57
140
1.0
102
RTVSPost2010PropOp57
 70
     0
  0
XRECORD
  5
17B
102
{ACAD_REACTORS
330
17A
102
}
330
17A
100
AcDbXrecord
280
     1
102
RTVSPost2010Prop28
280
     0
102
RTVSPost2010PropOp28
 70
     1
102
RTVSPost2010Prop29
280
     1
102
RTVSPost2010PropOp29
 70
     1
102
RTVSPost2010Prop30
280
     1
102
RTVSPost2010PropOp30
 70
     1
102
RTVSPost2010Prop31
280
     0
102
RTVSPost2010PropOp31
 70
     1
102
RTVSPost2010Prop32
280
     0
102
RTVSPost2010PropOp32
 70
     1
102
RTVSPost2010Prop33
280
     0
102
RTVSPost2010PropOp33
 70
     1
102
RTVSPost2010Prop34
280
     0
102
RTVSPost2010PropOp34
 70
     1
102
RTVSPost2010Prop35
280
     0
102
RTVSPost2010PropOp35
 70
     1
102
RTVSPost2010Prop36
280
     0
102
RTVSPost2010PropOp36
 70
     1
102
RTVSPost2010Prop37
 90
       50
102
RTVSPost2010PropOp37
 70
     1
102
RTVSPost2010Prop38
140
0.0
102
RTVSPost2010PropOp38
 70
     1
102
RTVSPost2010Prop39
140
1.0
102
RTVSPost2010PropOp39
 70
     1
102
RTVSPost2010Prop40
 90
        0
102
RTVSPost2010PropOp40
 70
     1
102
RTVSPost2010Prop41ColorIndex
 90
       18
102
RTVSPost2010Prop41ColorRGB
 90
        0
102
RTVSPost2010PropOp41
 70
     1
102
RTVSPost2010Prop42
 90
       50
102
RTVSPost2010PropOp42
 70
     1
102
RTVSPost2010Prop43
 90
        3
102
RTVSPost2010PropOp43
 70
     1
102
RTVSPost2010Prop44ColorIndex
 90
        5
102
RTVSPost2010Prop44ColorRGB
 90
      255
102
RTVSPost2010PropOp44
 70
     1
102
RTVSPost2010Prop45
280
     0
102
RTVSPost2010PropOp45
 70
     1
102
RTVSPost2010Prop46
 90
       50
102
RTVSPost2010PropOp46
 70
     1
102
RTVSPost2010Prop47
 90
       50
102
RTVSPost2010PropOp47
 70
     1
102
RTVSPost2010Prop48
 90
       50
102
RTVSPost2010PropOp48
 70
     1
102
RTVSPost2010Prop49
280
     0
102
RTVSPost2010PropOp49
 70
     1
102
RTVSPost2010Prop50
 90
       50
102
RTVSPost2010PropOp50
 70
     1
102
RTVSPost2010Prop51ColorIndex
 90
      256
102
RTVSPost2010Prop51ColorRGB
 90
-16777216
102
RTVSPost2010PropOp51
 70
     0
102
RTVSPost2010Prop52
140
1.0
102
RTVSPost2010PropOp52
 70
     0
102
RTVSPost2010Prop53
 90
        2
102
RTVSPost2010PropOp53
 70
     1
102
RTVSPost2010Prop54
  1
strokes_ogs.tif
102
RTVSPost2010PropOp54
 70
     1
102
RTVSPost2010Prop55
280
     0
102
RTVSPost2010PropOp55
 70
     1
102
RTVSPost2010Prop56
140
1.0
102
RTVSPost2010PropOp56
 70
     1
102
RTVSPost2010Prop57
140
1.0
102
RTVSPost2010PropOp57
 70
     1
  0
XRECORD
  5
191
102
{ACAD_REACTORS
330
190
102
}
330
190
100
AcDbXrecord
280
     1
102
RTVSPost2010Prop28
280
     0
102
RTVSPost2010PropOp28
 70
     1
102
RTVSPost2010Prop29
280
     1
102
RTVSPost2010PropOp29
 70
     1
102
RTVSPost2010Prop30
280
     1
102
RTVSPost2010PropOp30
 70
     1
102
RTVSPost2010Prop31
280
     0
102
RTVSPost2010PropOp31
 70
     1
102
RTVSPost2010Prop32
280
     0
102
RTVSPost2010PropOp32
 70
     1
102
RTVSPost2010Prop33
280
     0
102
RTVSPost2010PropOp33
 70
     1
102
RTVSPost2010Prop34
280
     0
102
RTVSPost2010PropOp34
 70
     1
102
RTVSPost2010Prop35
280
     0
102
RTVSPost2010PropOp35
 70
     1
102
RTVSPost2010Prop36
280
     0
102
RTVSPost2010PropOp36
 70
     1
102
RTVSPost2010Prop37
 90
       50
102
RTVSPost2010PropOp37
 70
     1
102
RTVSPost2010Prop38
140
0.0
102
RTVSPost2010PropOp38
 70
     1
102
RTVSPost2010Prop39
140
1.0
102
RTVSPost2010PropOp39
 70
     1
102
RTVSPost2010Prop40
 90
        0
102
RTVSPost2010PropOp40
 70
     1
102
RTVSPost2010Prop41ColorIndex
 90
       18
102
RTVSPost2010Prop41ColorRGB
 90
        0
102
RTVSPost2010PropOp41
 70
     1
102
RTVSPost2010Prop42
 90
       50
102
RTVSPost2010PropOp42
 70
     1
102
RTVSPost2010Prop43
 90
        3
102
RTVSPost2010PropOp43
 70
     1
102
RTVSPost2010Prop44ColorIndex
 90
        5
102
RTVSPost2010Prop44ColorRGB
 90
      255
102
RTVSPost2010PropOp44
 70
     1
102
RTVSPost2010Prop45
280
     0
102
RTVSPost2010PropOp45
 70
     1
102
RTVSPost2010Prop46
 90
       50
102
RTVSPost2010PropOp46
 70
     1
102
RTVSPost2010Prop47
 90
       50
102
RTVSPost2010PropOp47
 70
     1
102
RTVSPost2010Prop48
 90
       50
102
RTVSPost2010PropOp48
 70
     1
102
RTVSPost2010Prop49
280
     0
102
RTVSPost2010PropOp49
 70
     1
102
RTVSPost2010Prop50
 90
       50
102
RTVSPost2010PropOp50
 70
     1
102
RTVSPost2010Prop51ColorIndex
 90
      256
102
RTVSPost2010Prop51ColorRGB
 90
-16777216
102
RTVSPost2010PropOp51
 70
     0
102
RTVSPost2010Prop52
140
1.0
102
RTVSPost2010PropOp52
 70
     0
102
RTVSPost2010Prop53
 90
        2
102
RTVSPost2010PropOp53
 70
     1
102
RTVSPost2010Prop54
  1
strokes_ogs.tif
102
RTVSPost2010PropOp54
 70
     1
102
RTVSPost2010Prop55
280
     0
102
RTVSPost2010PropOp55
 70
     1
102
RTVSPost2010Prop56
140
1.0
102
RTVSPost2010PropOp56
 70
     1
102
RTVSPost2010Prop57
140
1.0
102
RTVSPost2010PropOp57
 70
     1
  0
XRECORD
  5
18F
102
{ACAD_REACTORS
330
18E
102
}
330
18E
100
AcDbXrecord
280
     1
102
RTVSPost2010Prop28
280
     0
102
RTVSPost2010PropOp28
 70
     1
102
RTVSPost2010Prop29
280
     1
102
RTVSPost2010PropOp29
 70
     1
102
RTVSPost2010Prop30
280
     1
102
RTVSPost2010PropOp30
 70
     1
102
RTVSPost2010Prop31
280
     0
102
RTVSPost2010PropOp31
 70
     1
102
RTVSPost2010Prop32
280
     0
102
RTVSPost2010PropOp32
 70
     1
102
RTVSPost2010Prop33
280
     0
102
RTVSPost2010PropOp33
 70
     1
102
RTVSPost2010Prop34
280
     0
102
RTVSPost2010PropOp34
 70
     1
102
RTVSPost2010Prop35
280
     0
102
RTVSPost2010PropOp35
 70
     1
102
RTVSPost2010Prop36
280
     0
102
RTVSPost2010PropOp36
 70
     1
102
RTVSPost2010Prop37
 90
       50
102
RTVSPost2010PropOp37
 70
     1
102
RTVSPost2010Prop38
140
0.0
102
RTVSPost2010PropOp38
 70
     1
102
RTVSPost2010Prop39
140
1.0
102
RTVSPost2010PropOp39
 70
     1
102
RTVSPost2010Prop40
 90
        0
102
RTVSPost2010PropOp40
 70
     1
102
RTVSPost2010Prop41ColorIndex
 90
       18
102
RTVSPost2010Prop41ColorRGB
 90
        0
102
RTVSPost2010PropOp41
 70
     1
102
RTVSPost2010Prop42
 90
       50
102
RTVSPost2010PropOp42
 70
     1
102
RTVSPost2010Prop43
 90
        3
102
RTVSPost2010PropOp43
 70
     1
102
RTVSPost2010Prop44ColorIndex
 90
        5
102
RTVSPost2010Prop44ColorRGB
 90
      255
102
RTVSPost2010PropOp44
 70
     1
102
RTVSPost2010Prop45
280
     0
102
RTVSPost2010PropOp45
 70
     1
102
RTVSPost2010Prop46
 90
       50
102
RTVSPost2010PropOp46
 70
     1
102
RTVSPost2010Prop47
 90
       50
102
RTVSPost2010PropOp47
 70
     1
102
RTVSPost2010Prop48
 90
       50
102
RTVSPost2010PropOp48
 70
     1
102
RTVSPost2010Prop49
280
     0
102
RTVSPost2010PropOp49
 70
     1
102
RTVSPost2010Prop50
 90
       50
102
RTVSPost2010PropOp50
 70
     1
102
RTVSPost2010Prop51ColorIndex
 90
      256
102
RTVSPost2010Prop51ColorRGB
 90
-16777216
102
RTVSPost2010PropOp51
 70
     0
102
RTVSPost2010Prop52
140
1.0
102
RTVSPost2010PropOp52
 70
     0
102
RTVSPost2010Prop53
 90
        2
102
RTVSPost2010PropOp53
 70
     1
102
RTVSPost2010Prop54
  1
strokes_ogs.tif
102
RTVSPost2010PropOp54
 70
     1
102
RTVSPost2010Prop55
280
     0
102
RTVSPost2010PropOp55
 70
     1
102
RTVSPost2010Prop56
140
1.0
102
RTVSPost2010PropOp56
 70
     1
102
RTVSPost2010Prop57
140
1.0
102
RTVSPost2010PropOp57
 70
     1
  0
XRECORD
  5
189
102
{ACAD_REACTORS
330
188
102
}
330
188
100
AcDbXrecord
280
     1
102
RTVSPost2010Prop28
280
     0
102
RTVSPost2010PropOp28
 70
     1
102
RTVSPost2010Prop29
280
     1
102
RTVSPost2010PropOp29
 70
     1
102
RTVSPost2010Prop30
280
     1
102
RTVSPost2010PropOp30
 70
     1
102
RTVSPost2010Prop31
280
     0
102
RTVSPost2010PropOp31
 70
     1
102
RTVSPost2010Prop32
280
     0
102
RTVSPost2010PropOp32
 70
     1
102
RTVSPost2010Prop33
280
     0
102
RTVSPost2010PropOp33
 70
     1
102
RTVSPost2010Prop34
280
     0
102
RTVSPost2010PropOp34
 70
     1
102
RTVSPost2010Prop35
280
     0
102
RTVSPost2010PropOp35
 70
     1
102
RTVSPost2010Prop36
280
     0
102
RTVSPost2010PropOp36
 70
     1
102
RTVSPost2010Prop37
 90
       50
102
RTVSPost2010PropOp37
 70
     1
102
RTVSPost2010Prop38
140
0.0
102
RTVSPost2010PropOp38
 70
     1
102
RTVSPost2010Prop39
140
1.0
102
RTVSPost2010PropOp39
 70
     1
102
RTVSPost2010Prop40
 90
        0
102
RTVSPost2010PropOp40
 70
     1
102
RTVSPost2010Prop41ColorIndex
 90
       18
102
RTVSPost2010Prop41ColorRGB
 90
        0
102
RTVSPost2010PropOp41
 70
     1
102
RTVSPost2010Prop42
 90
       50
102
RTVSPost2010PropOp42
 70
     1
102
RTVSPost2010Prop43
 90
        3
102
RTVSPost2010PropOp43
 70
     1
102
RTVSPost2010Prop44ColorIndex
 90
        5
102
RTVSPost2010Prop44ColorRGB
 90
      255
102
RTVSPost2010PropOp44
 70
     1
102
RTVSPost2010Prop45
280
     0
102
RTVSPost2010PropOp45
 70
     1
102
RTVSPost2010Prop46
 90
       50
102
RTVSPost2010PropOp46
 70
     1
102
RTVSPost2010Prop47
 90
       50
102
RTVSPost2010PropOp47
 70
     1
102
RTVSPost2010Prop48
 90
       50
102
RTVSPost2010PropOp48
 70
     1
102
RTVSPost2010Prop49
280
     0
102
RTVSPost2010PropOp49
 70
     1
102
RTVSPost2010Prop50
 90
       50
102
RTVSPost2010PropOp50
 70
     1
102
RTVSPost2010Prop51ColorIndex
 90
      256
102
RTVSPost2010Prop51ColorRGB
 90
-16777216
102
RTVSPost2010PropOp51
 70
     0
102
RTVSPost2010Prop52
140
1.0
102
RTVSPost2010PropOp52
 70
     0
102
RTVSPost2010Prop53
 90
        2
102
RTVSPost2010PropOp53
 70
     1
102
RTVSPost2010Prop54
  1
strokes_ogs.tif
102
RTVSPost2010PropOp54
 70
     1
102
RTVSPost2010Prop55
280
     0
102
RTVSPost2010PropOp55
 70
     1
102
RTVSPost2010Prop56
140
1.0
102
RTVSPost2010PropOp56
 70
     1
102
RTVSPost2010Prop57
140
1.0
102
RTVSPost2010PropOp57
 70
     1
  0
XRECORD
  5
18B
102
{ACAD_REACTORS
330
18A
102
}
330
18A
100
AcDbXrecord
280
     1
102
RTVSPost2010Prop28
280
     0
102
RTVSPost2010PropOp28
 70
     1
102
RTVSPost2010Prop29
280
     1
102
RTVSPost2010PropOp29
 70
     1
102
RTVSPost2010Prop30
280
     1
102
RTVSPost2010PropOp30
 70
     1
102
RTVSPost2010Prop31
280
     0
102
RTVSPost2010PropOp31
 70
     1
102
RTVSPost2010Prop32
280
     0
102
RTVSPost2010PropOp32
 70
     1
102
RTVSPost2010Prop33
280
     0
102
RTVSPost2010PropOp33
 70
     1
102
RTVSPost2010Prop34
280
     0
102
RTVSPost2010PropOp34
 70
     1
102
RTVSPost2010Prop35
280
     0
102
RTVSPost2010PropOp35
 70
     1
102
RTVSPost2010Prop36
280
     0
102
RTVSPost2010PropOp36
 70
     1
102
RTVSPost2010Prop37
 90
       50
102
RTVSPost2010PropOp37
 70
     1
102
RTVSPost2010Prop38
140
0.0
102
RTVSPost2010PropOp38
 70
     1
102
RTVSPost2010Prop39
140
1.0
102
RTVSPost2010PropOp39
 70
     1
102
RTVSPost2010Prop40
 90
        0
102
RTVSPost2010PropOp40
 70
     1
102
RTVSPost2010Prop41ColorIndex
 90
       18
102
RTVSPost2010Prop41ColorRGB
 90
        0
102
RTVSPost2010PropOp41
 70
     1
102
RTVSPost2010Prop42
 90
       50
102
RTVSPost2010PropOp42
 70
     1
102
RTVSPost2010Prop43
 90
        3
102
RTVSPost2010PropOp43
 70
     1
102
RTVSPost2010Prop44ColorIndex
 90
        5
102
RTVSPost2010Prop44ColorRGB
 90
      255
102
RTVSPost2010PropOp44
 70
     1
102
RTVSPost2010Prop45
280
     0
102
RTVSPost2010PropOp45
 70
     1
102
RTVSPost2010Prop46
 90
       50
102
RTVSPost2010PropOp46
 70
     1
102
RTVSPost2010Prop47
 90
       50
102
RTVSPost2010PropOp47
 70
     1
102
RTVSPost2010Prop48
 90
       50
102
RTVSPost2010PropOp48
 70
     1
102
RTVSPost2010Prop49
280
     0
102
RTVSPost2010PropOp49
 70
     1
102
RTVSPost2010Prop50
 90
       50
102
RTVSPost2010PropOp50
 70
     1
102
RTVSPost2010Prop51ColorIndex
 90
      256
102
RTVSPost2010Prop51ColorRGB
 90
-16777216
102
RTVSPost2010PropOp51
 70
     0
102
RTVSPost2010Prop52
140
1.0
102
RTVSPost2010PropOp52
 70
     0
102
RTVSPost2010Prop53
 90
        2
102
RTVSPost2010PropOp53
 70
     1
102
RTVSPost2010Prop54
  1
strokes_ogs.tif
102
RTVSPost2010PropOp54
 70
     1
102
RTVSPost2010Prop55
280
     0
102
RTVSPost2010PropOp55
 70
     1
102
RTVSPost2010Prop56
140
1.0
102
RTVSPost2010PropOp56
 70
     1
102
RTVSPost2010Prop57
140
1.0
102
RTVSPost2010PropOp57
 70
     1
  0
XRECORD
  5
181
102
{ACAD_REACTORS
330
180
102
}
330
180
100
AcDbXrecord
280
     1
102
RTVSPost2010Prop28
280
     0
102
RTVSPost2010PropOp28
 70
     1
102
RTVSPost2010Prop29
280
     1
102
RTVSPost2010PropOp29
 70
     1
102
RTVSPost2010Prop30
280
     1
102
RTVSPost2010PropOp30
 70
     1
102
RTVSPost2010Prop31
280
     0
102
RTVSPost2010PropOp31
 70
     1
102
RTVSPost2010Prop32
280
     0
102
RTVSPost2010PropOp32
 70
     1
102
RTVSPost2010Prop33
280
     0
102
RTVSPost2010PropOp33
 70
     1
102
RTVSPost2010Prop34
280
     0
102
RTVSPost2010PropOp34
 70
     1
102
RTVSPost2010Prop35
280
     0
102
RTVSPost2010PropOp35
 70
     1
102
RTVSPost2010Prop36
280
     0
102
RTVSPost2010PropOp36
 70
     1
102
RTVSPost2010Prop37
 90
       50
102
RTVSPost2010PropOp37
 70
     1
102
RTVSPost2010Prop38
140
0.0
102
RTVSPost2010PropOp38
 70
     1
102
RTVSPost2010Prop39
140
1.0
102
RTVSPost2010PropOp39
 70
     1
102
RTVSPost2010Prop40
 90
        0
102
RTVSPost2010PropOp40
 70
     1
102
RTVSPost2010Prop41ColorIndex
 90
       18
102
RTVSPost2010Prop41ColorRGB
 90
        0
102
RTVSPost2010PropOp41
 70
     1
102
RTVSPost2010Prop42
 90
       50
102
RTVSPost2010PropOp42
 70
     1
102
RTVSPost2010Prop43
 90
        3
102
RTVSPost2010PropOp43
 70
     1
102
RTVSPost2010Prop44ColorIndex
 90
        5
102
RTVSPost2010Prop44ColorRGB
 90
      255
102
RTVSPost2010PropOp44
 70
     1
102
RTVSPost2010Prop45
280
     0
102
RTVSPost2010PropOp45
 70
     1
102
RTVSPost2010Prop46
 90
       50
102
RTVSPost2010PropOp46
 70
     1
102
RTVSPost2010Prop47
 90
       50
102
RTVSPost2010PropOp47
 70
     1
102
RTVSPost2010Prop48
 90
       50
102
RTVSPost2010PropOp48
 70
     1
102
RTVSPost2010Prop49
280
     0
102
RTVSPost2010PropOp49
 70
     1
102
RTVSPost2010Prop50
 90
       50
102
RTVSPost2010PropOp50
 70
     1
102
RTVSPost2010Prop51ColorIndex
 90
      256
102
RTVSPost2010Prop51ColorRGB
 90
-16777216
102
RTVSPost2010PropOp51
 70
     0
102
RTVSPost2010Prop52
140
1.0
102
RTVSPost2010PropOp52
 70
     0
102
RTVSPost2010Prop53
 90
        2
102
RTVSPost2010PropOp53
 70
     1
102
RTVSPost2010Prop54
  1
strokes_ogs.tif
102
RTVSPost2010PropOp54
 70
     1
102
RTVSPost2010Prop55
280
     0
102
RTVSPost2010PropOp55
 70
     1
102
RTVSPost2010Prop56
140
1.0
102
RTVSPost2010PropOp56
 70
     1
102
RTVSPost2010Prop57
140
1.0
102
RTVSPost2010PropOp57
 70
     1
  0
XRECORD
  5
175
102
{ACAD_REACTORS
330
174
102
}
330
174
100
AcDbXrecord
280
     1
102
RTVSPost2010Prop28
280
     0
102
RTVSPost2010PropOp28
 70
     1
102
RTVSPost2010Prop29
280
     1
102
RTVSPost2010PropOp29
 70
     1
102
RTVSPost2010Prop30
280
     1
102
RTVSPost2010PropOp30
 70
     1
102
RTVSPost2010Prop31
280
     0
102
RTVSPost2010PropOp31
 70
     1
102
RTVSPost2010Prop32
280
     0
102
RTVSPost2010PropOp32
 70
     1
102
RTVSPost2010Prop33
280
     0
102
RTVSPost2010PropOp33
 70
     1
102
RTVSPost2010Prop34
280
     0
102
RTVSPost2010PropOp34
 70
     1
102
RTVSPost2010Prop35
280
     0
102
RTVSPost2010PropOp35
 70
     1
102
RTVSPost2010Prop36
280
     0
102
RTVSPost2010PropOp36
 70
     1
102
RTVSPost2010Prop37
 90
       50
102
RTVSPost2010PropOp37
 70
     1
102
RTVSPost2010Prop38
140
0.0
102
RTVSPost2010PropOp38
 70
     1
102
RTVSPost2010Prop39
140
1.0
102
RTVSPost2010PropOp39
 70
     1
102
RTVSPost2010Prop40
 90
        0
102
RTVSPost2010PropOp40
 70
     1
102
RTVSPost2010Prop41ColorIndex
 90
       18
102
RTVSPost2010Prop41ColorRGB
 90
        0
102
RTVSPost2010PropOp41
 70
     1
102
RTVSPost2010Prop42
 90
       50
102
RTVSPost2010PropOp42
 70
     1
102
RTVSPost2010Prop43
 90
        3
102
RTVSPost2010PropOp43
 70
     1
102
RTVSPost2010Prop44ColorIndex
 90
        5
102
RTVSPost2010Prop44ColorRGB
 90
      255
102
RTVSPost2010PropOp44
 70
     1
102
RTVSPost2010Prop45
280
     0
102
RTVSPost2010PropOp45
 70
     1
102
RTVSPost2010Prop46
 90
       50
102
RTVSPost2010PropOp46
 70
     1
102
RTVSPost2010Prop47
 90
       50
102
RTVSPost2010PropOp47
 70
     1
102
RTVSPost2010Prop48
 90
       50
102
RTVSPost2010PropOp48
 70
     1
102
RTVSPost2010Prop49
280
     0
102
RTVSPost2010PropOp49
 70
     1
102
RTVSPost2010Prop50
 90
       50
102
RTVSPost2010PropOp50
 70
     1
102
RTVSPost2010Prop51ColorIndex
 90
      256
102
RTVSPost2010Prop51ColorRGB
 90
-16777216
102
RTVSPost2010PropOp51
 70
     0
102
RTVSPost2010Prop52
140
1.0
102
RTVSPost2010PropOp52
 70
     0
102
RTVSPost2010Prop53
 90
        2
102
RTVSPost2010PropOp53
 70
     1
102
RTVSPost2010Prop54
  1
strokes_ogs.tif
102
RTVSPost2010PropOp54
 70
     1
102
RTVSPost2010Prop55
280
     0
102
RTVSPost2010PropOp55
 70
     1
102
RTVSPost2010Prop56
140
1.0
102
RTVSPost2010PropOp56
 70
     1
102
RTVSPost2010Prop57
140
1.0
102
RTVSPost2010PropOp57
 70
     1
  0
XRECORD
  5
18D
102
{ACAD_REACTORS
330
18C
102
}
330
18C
100
AcDbXrecord
280
     1
102
RTVSPost2010Prop28
280
     0
102
RTVSPost2010PropOp28
 70
     1
102
RTVSPost2010Prop29
280
     1
102
RTVSPost2010PropOp29
 70
     1
102
RTVSPost2010Prop30
280
     1
102
RTVSPost2010PropOp30
 70
     1
102
RTVSPost2010Prop31
280
     0
102
RTVSPost2010PropOp31
 70
     1
102
RTVSPost2010Prop32
280
     0
102
RTVSPost2010PropOp32
 70
     1
102
RTVSPost2010Prop33
280
     0
102
RTVSPost2010PropOp33
 70
     1
102
RTVSPost2010Prop34
280
     0
102
RTVSPost2010PropOp34
 70
     1
102
RTVSPost2010Prop35
280
     0
102
RTVSPost2010PropOp35
 70
     1
102
RTVSPost2010Prop36
280
     0
102
RTVSPost2010PropOp36
 70
     1
102
RTVSPost2010Prop37
 90
       50
102
RTVSPost2010PropOp37
 70
     1
102
RTVSPost2010Prop38
140
0.0
102
RTVSPost2010PropOp38
 70
     1
102
RTVSPost2010Prop39
140
1.0
102
RTVSPost2010PropOp39
 70
     1
102
RTVSPost2010Prop40
 90
        0
102
RTVSPost2010PropOp40
 70
     1
102
RTVSPost2010Prop41ColorIndex
 90
       18
102
RTVSPost2010Prop41ColorRGB
 90
        0
102
RTVSPost2010PropOp41
 70
     1
102
RTVSPost2010Prop42
 90
       50
102
RTVSPost2010PropOp42
 70
     1
102
RTVSPost2010Prop43
 90
        3
102
RTVSPost2010PropOp43
 70
     1
102
RTVSPost2010Prop44ColorIndex
 90
        5
102
RTVSPost2010Prop44ColorRGB
 90
      255
102
RTVSPost2010PropOp44
 70
     1
102
RTVSPost2010Prop45
280
     0
102
RTVSPost2010PropOp45
 70
     1
102
RTVSPost2010Prop46
 90
       50
102
RTVSPost2010PropOp46
 70
     1
102
RTVSPost2010Prop47
 90
       50
102
RTVSPost2010PropOp47
 70
     1
102
RTVSPost2010Prop48
 90
       50
102
RTVSPost2010PropOp48
 70
     1
102
RTVSPost2010Prop49
280
     0
102
RTVSPost2010PropOp49
 70
     1
102
RTVSPost2010Prop50
 90
       50
102
RTVSPost2010PropOp50
 70
     1
102
RTVSPost2010Prop51ColorIndex
 90
      256
102
RTVSPost2010Prop51ColorRGB
 90
-16777216
102
RTVSPost2010PropOp51
 70
     0
102
RTVSPost2010Prop52
140
1.0
102
RTVSPost2010PropOp52
 70
     0
102
RTVSPost2010Prop53
 90
        2
102
RTVSPost2010PropOp53
 70
     1
102
RTVSPost2010Prop54
  1
strokes_ogs.tif
102
RTVSPost2010PropOp54
 70
     1
102
RTVSPost2010Prop55
280
     0
102
RTVSPost2010PropOp55
 70
     1
102
RTVSPost2010Prop56
140
1.0
102
RTVSPost2010PropOp56
 70
     1
102
RTVSPost2010Prop57
140
1.0
102
RTVSPost2010PropOp57
 70
     1
  0
ENDSEC
  0
EOF
