  0
SECTION
  2
HEADER
  9
$ACADVER
  1
AC1024
  9
$ACADMAINTVER
 70
     6
  9
$DWGCODEPAGE
  3
UNDEFINED
  9
$INSBASE
 10
0.0
 20
0.0
 30
0.0
  9
$EXTMIN
 10
1.000000000000000E+20
 20
1.000000000000000E+20
 30
1.000000000000000E+20
  9
$EXTMAX
 10
-1.000000000000000E+20
 20
-1.000000000000000E+20
 30
-1.000000000000000E+20
  9
$LIMMIN
 10
0.0
 20
0.0
  9
$LIMMAX
 10
12.0
 20
9.0
  9
$ORTHOMODE
 70
     0
  9
$REGENMODE
 70
     1
  9
$FILLMODE
 70
     1
  9
$QTEXTMODE
 70
     0
  9
$MIRRTEXT
 70
     1
  9
$LTSCALE
 40
1.0
  9
$ATTMODE
 70
     1
  9
$TEXTSIZE
 40
0.2
  9
$TRACEWID
 40
0.05
  9
$TEXTSTYLE
  7
Standard
  9
$CLAYER
  8
0
  9
$CELTYPE
  6
ByLayer
  9
$CECOLOR
 62
   256
  9
$CELTSCALE
 40
1.0
  9
$DISPSILH
 70
     0
  9
$DIMSCALE
 40
1.0
  9
$DIMASZ
 40
0.18
  9
$DIMEXO
 40
0.0625
  9
$DIMDLI
 40
0.38
  9
$DIMRND
 40
0.0
  9
$DIMDLE
 40
0.0
  9
$DIMEXE
 40
0.18
  9
$DIMTP
 40
0.0
  9
$DIMTM
 40
0.0
  9
$DIMTXT
 40
0.18
  9
$DIMCEN
 40
0.09
  9
$DIMTSZ
 40
0.0
  9
$DIMTOL
 70
     0
  9
$DIMLIM
 70
     0
  9
$DIMTIH
 70
     1
  9
$DIMTOH
 70
     1
  9
$DIMSE1
 70
     0
  9
$DIMSE2
 70
     0
  9
$DIMTAD
 70
     0
  9
$DIMZIN
 70
     0
  9
$DIMBLK
  1

  9
$DIMASO
 70
     1
  9
$DIMSHO
 70
     1
  9
$DIMPOST
  1

  9
$DIMAPOST
  1

  9
$DIMALT
 70
     0
  9
$DIMALTD
 70
     2
  9
$DIMALTF
 40
25.4
  9
$DIMLFAC
 40
1.0
  9
$DIMTOFL
 70
     0
  9
$DIMTVP
 40
0.0
  9
$DIMTIX
 70
     0
  9
$DIMSOXD
 70
     0
  9
$DIMSAH
 70
     0
  9
$DIMBLK1
  1

  9
$DIMBLK2
  1

  9
$DIMSTYLE
  2
Standard
  9
$DIMCLRD
 70
     0
  9
$DIMCLRE
 70
     0
  9
$DIMCLRT
 70
     0
  9
$DIMTFAC
 40
1.0
  9
$DIMGAP
 40
0.09
  9
$DIMJUST
 70
     0
  9
$DIMSD1
 70
     0
  9
$DIMSD2
 70
     0
  9
$DIMTOLJ
 70
     1
  9
$DIMTZIN
 70
     0
  9
$DIMALTZ
 70
     0
  9
$DIMALTTZ
 70
     0
  9
$DIMUPT
 70
     0
  9
$DIMDEC
 70
     4
  9
$DIMTDEC
 70
     4
  9
$DIMALTU
 70
     2
  9
$DIMALTTD
 70
     2
  9
$DIMTXSTY
  7
Standard
  9
$DIMAUNIT
 70
     0
  9
$DIMADEC
 70
     0
  9
$DIMALTRND
 40
0.0
  9
$DIMAZIN
 70
     0
  9
$DIMDSEP
 70
    46
  9
$DIMATFIT
 70
     3
  9
$DIMFRAC
 70
     0
  9
$DIMLDRBLK
  1

  9
$DIMLUNIT
 70
     2
  9
$DIMLWD
 70
    -2
  9
$DIMLWE
 70
    -2
  9
$DIMTMOVE
 70
     0
  9
$DIMFXL
 40
1.0
  9
$DIMFXLON
 70
     0
  9
$DIMJOGANG
 40
0.7853981633974483
  9
$DIMTFILL
 70
     0
  9
$DIMTFILLCLR
 70
     0
  9
$DIMARCSYM
 70
     0
  9
$DIMLTYPE
  6

  9
$DIMLTEX1
  6

  9
$DIMLTEX2
  6

  9
$DIMTXTDIRECTION
 70
     0
  9
$LUNITS
 70
     2
  9
$LUPREC
 70
     4
  9
$SKETCHINC
 40
0.1
  9
$FILLETRAD
 40
0.5
  9
$AUNITS
 70
     0
  9
$AUPREC
 70
     0
  9
$MENU
  1
.
  9
$ELEVATION
 40
0.0
  9
$PELEVATION
 40
0.0
  9
$THICKNESS
 40
0.0
  9
$LIMCHECK
 70
     0
  9
$CHAMFERA
 40
0.5
  9
$CHAMFERB
 40
0.5
  9
$CHAMFERC
 40
1.0
  9
$CHAMFERD
 40
0.0
  9
$SKPOLY
 70
     0
  9
$TDCREATE
 40
2457917.595856482
  9
$TDUCREATE
 40
2457917.220856482
  9
$TDUPDATE
 40
2457917.595856482
  9
$TDUUPDATE
 40
2457917.220856482
  9
$TDINDWG
 40
0.0000000116
  9
$TDUSRTIMER
 40
0.0000000116
  9
$USRTIMER
 70
     1
  9
$ANGBASE
 50
0.0
  9
$ANGDIR
 70
     0
  9
$PDMODE
 70
     0
  9
$PDSIZE
 40
0.0
  9
$PLINEWID
 40
0.0
  9
$SPLFRAME
 70
     0
  9
$SPLINETYPE
 70
     6
  9
$SPLINESEGS
 70
     8
  9
$HANDSEED
  5
C7
  9
$SURFTAB1
 70
     6
  9
$SURFTAB2
 70
     6
  9
$SURFTYPE
 70
     6
  9
$SURFU
 70
     6
  9
$SURFV
 70
     6
  9
$UCSBASE
  2

  9
$UCSNAME
  2

  9
$UCSORG
 10
0.0
 20
0.0
 30
0.0
  9
$UCSXDIR
 10
1.0
 20
0.0
 30
0.0
  9
$UCSYDIR
 10
0.0
 20
1.0
 30
0.0
  9
$UCSORTHOREF
  2

  9
$UCSORTHOVIEW
 70
     0
  9
$UCSORGTOP
 10
0.0
 20
0.0
 30
0.0
  9
$UCSORGBOTTOM
 10
0.0
 20
0.0
 30
0.0
  9
$UCSORGLEFT
 10
0.0
 20
0.0
 30
0.0
  9
$UCSORGRIGHT
 10
0.0
 20
0.0
 30
0.0
  9
$UCSORGFRONT
 10
0.0
 20
0.0
 30
0.0
  9
$UCSORGBACK
 10
0.0
 20
0.0
 30
0.0
  9
$PUCSBASE
  2

  9
$PUCSNAME
  2

  9
$PUCSORG
 10
0.0
 20
0.0
 30
0.0
  9
$PUCSXDIR
 10
1.0
 20
0.0
 30
0.0
  9
$PUCSYDIR
 10
0.0
 20
1.0
 30
0.0
  9
$PUCSORTHOREF
  2

  9
$PUCSORTHOVIEW
 70
     0
  9
$PUCSORGTOP
 10
0.0
 20
0.0
 30
0.0
  9
$PUCSORGBOTTOM
 10
0.0
 20
0.0
 30
0.0
  9
$PUCSORGLEFT
 10
0.0
 20
0.0
 30
0.0
  9
$PUCSORGRIGHT
 10
0.0
 20
0.0
 30
0.0
  9
$PUCSORGFRONT
 10
0.0
 20
0.0
 30
0.0
  9
$PUCSORGBACK
 10
0.0
 20
0.0
 30
0.0
  9
$USERI1
 70
     0
  9
$USERI2
 70
     0
  9
$USERI3
 70
     0
  9
$USERI4
 70
     0
  9
$USERI5
 70
     0
  9
$USERR1
 40
0.0
  9
$USERR2
 40
0.0
  9
$USERR3
 40
0.0
  9
$USERR4
 40
0.0
  9
$USERR5
 40
0.0
  9
$WORLDVIEW
 70
     1
  9
$SHADEDGE
 70
     3
  9
$SHADEDIF
 70
    70
  9
$TILEMODE
 70
     1
  9
$MAXACTVP
 70
    64
  9
$PINSBASE
 10
0.0
 20
0.0
 30
0.0
  9
$PLIMCHECK
 70
     0
  9
$PEXTMIN
 10
1.000000000000000E+20
 20
1.000000000000000E+20
 30
1.000000000000000E+20
  9
$PEXTMAX
 10
-1.000000000000000E+20
 20
-1.000000000000000E+20
 30
-1.000000000000000E+20
  9
$PLIMMIN
 10
0.0
 20
0.0
  9
$PLIMMAX
 10
12.0
 20
9.0
  9
$UNITMODE
 70
     0
  9
$VISRETAIN
 70
     1
  9
$PLINEGEN
 70
     0
  9
$PSLTSCALE
 70
     1
  9
$TREEDEPTH
 70
  3020
  9
$CMLSTYLE
  2
Standard
  9
$CMLJUST
 70
     0
  9
$CMLSCALE
 40
1.0
  9
$PROXYGRAPHICS
 70
     1
  9
$MEASUREMENT
 70
     0
  9
$CELWEIGHT
370
    -1
  9
$ENDCAPS
280
     0
  9
$JOINSTYLE
280
     0
  9
$LWDISPLAY
290
     1
  9
$INSUNITS
 70
     1
  9
$HYPERLINKBASE
  1

  9
$STYLESHEET
  1

  9
$XEDIT
290
     1
  9
$CEPSNTYPE
380
     0
  9
$PSTYLEMODE
290
     1
  9
$FINGERPRINTGUID
  2
{22823B11-2813-5626-27E1-AC1614B164A2}
  9
$VERSIONGUID
  2
{FAEB1C32-E019-11D5-929B-00C0DF256EC4}
  9
$EXTNAMES
290
     1
  9
$PSVPSCALE
 40
0.0
  9
$OLESTARTUP
290
     0
  9
$SORTENTS
280
   127
  9
$INDEXCTL
280
     0
  9
$HIDETEXT
280
     1
  9
$XCLIPFRAME
280
     2
  9
$HALOGAP
280
     0
  9
$OBSCOLOR
 70
   257
  9
$OBSLTYPE
280
     0
  9
$INTERSECTIONDISPLAY
280
     0
  9
$INTERSECTIONCOLOR
 70
   257
  9
$DIMASSOC
280
     2
  9
$PROJECTNAME
  1

  9
$CAMERADISPLAY
290
     0
  9
$LENSLENGTH
 40
50.0
  9
$CAMERAHEIGHT
 40
0.0
  9
$STEPSPERSEC
 40
2.0
  9
$STEPSIZE
 40
6.0
  9
$3DDWFPREC
 40
2.0
  9
$PSOLWIDTH
 40
0.25
  9
$PSOLHEIGHT
 40
4.0
  9
$LOFTANG1
 40
1.570796326794897
  9
$LOFTANG2
 40
1.570796326794897
  9
$LOFTMAG1
 40
0.0
  9
$LOFTMAG2
 40
0.0
  9
$LOFTPARAM
 70
     7
  9
$LOFTNORMALS
280
     1
  9
$LATITUDE
 40
37.795
  9
$LONGITUDE
 40
-122.394
  9
$NORTHDIRECTION
 40
0.0
  9
$TIMEZONE
 70
 -8000
  9
$LIGHTGLYPHDISPLAY
280
     1
  9
$TILEMODELIGHTSYNCH
280
     1
  9
$CMATERIAL
347
3C
  9
$SOLIDHIST
280
     1
  9
$SHOWHIST
280
     1
  9
$DWFFRAME
280
     2
  9
$DGNFRAME
280
     2
  9
$REALWORLDSCALE
290
     1
  9
$INTERFERECOLOR
 62
   256
  9
$CSHADOW
280
     0
  9
$SHADOWPLANELOCATION
 40
0.0
  0
ENDSEC
  0
SECTION
  2
CLASSES
  0
CLASS
  1
ACDBDICTIONARYWDFLT
  2
AcDbDictionaryWithDefault
  3
ObjectDBX Classes
 90
        0
 91
        4
280
     0
281
     0
  0
CLASS
  1
VISUALSTYLE
  2
AcDbVisualStyle
  3
ObjectDBX Classes
 90
     4095
 91
        4
280
     0
281
     0
  0
CLASS
  1
MATERIAL
  2
AcDbMaterial
  3
ObjectDBX Classes
 90
     1153
 91
        4
280
     0
281
     0
  0
CLASS
  1
SUN
  2
AcDbSun
  3
SCENEOE
 90
     1024
 91
        4
280
     0
281
     0
  0
ENDSEC
  0
SECTION
  2
TABLES
  0
TABLE
  2
VPORT
  5
8
330
0
100
AcDbSymbolTable
 70
     1
  0
VPORT
  5
29
330
8
100
AcDbSymbolTableRecord
100
AcDbViewportTableRecord
  2
*Active
 70
     0
 10
0.0
 20
0.0
 11
1.0
 21
1.0
 12
0.0
 22
0.0
 13
0.0
 23
0.0
 14
0.5
 24
0.5
 15
0.5
 25
0.5
 16
0.0
 26
0.0
 36
1.0
 17
91.00082462281999
 27
-128.4993055234307
 37
0.0
 40
256.9986110468615
 41
0.7081814508812795
 42
50.0
 43
0.0
 44
0.0
 50
0.0
 51
0.0
 71
     0
 72
   100
 73
     1
 74
     3
 75
     0
 76
     0
 77
     0
 78
     0
281
     0
 65
     1
110
0.0
120
0.0
130
0.0
111
1.0
121
0.0
131
0.0
112
0.0
122
1.0
132
0.0
 79
     0
146
0.0
 60
     3
 61
     5
292
     1
282
     1
141
0.0
142
0.0
 63
   250
361
3F
  0
ENDTAB
  0
TABLE
  2
LTYPE
  5
5
330
0
100
AcDbSymbolTable
 70
     1
  0
LTYPE
  5
14
330
5
100
AcDbSymbolTableRecord
100
AcDbLinetypeTableRecord
  2
ByBlock
 70
     0
  3

 72
    65
 73
     0
 40
0.0
  0
LTYPE
  5
15
330
5
100
AcDbSymbolTableRecord
100
AcDbLinetypeTableRecord
  2
ByLayer
 70
     0
  3

 72
    65
 73
     0
 40
0.0
  0
LTYPE
  5
16
330
5
100
AcDbSymbolTableRecord
100
AcDbLinetypeTableRecord
  2
Continuous
 70
     0
  3
Solid line
 72
    65
 73
     0
 40
0.0
  0
ENDTAB
  0
TABLE
  2
LAYER
  5
2
330
0
100
AcDbSymbolTable
 70
     2
  0
LAYER
  5
10
330
2
100
AcDbSymbolTableRecord
100
AcDbLayerTableRecord
  2
0
 70
     0
 62
     7
  6
Continuous
370
    -3
390
F
347
3E
  0
LAYER
  5
40
330
2
100
AcDbSymbolTableRecord
100
AcDbLayerTableRecord
  2
_U+30EC_U+30A4_U+30E4_U+30FC 1
 70
     0
 62
     7
  6
Continuous
370
    -3
390
F
347
3E
  0
ENDTAB
  0
TABLE
  2
STYLE
  5
3
330
0
100
AcDbSymbolTable
 70
     1
  0
STYLE
  5
11
330
3
100
AcDbSymbolTableRecord
100
AcDbTextStyleTableRecord
  2
Standard
 70
     0
 40
0.0
 41
1.0
 50
0.0
 71
     0
 42
0.2
  3
txt
  4

  0
ENDTAB
  0
TABLE
  2
VIEW
  5
6
330
0
100
AcDbSymbolTable
 70
     0
  0
ENDTAB
  0
TABLE
  2
UCS
  5
7
330
0
100
AcDbSymbolTable
 70
     0
  0
ENDTAB
  0
TABLE
  2
APPID
  5
9
330
0
100
AcDbSymbolTable
 70
     1
  0
APPID
  5
12
330
9
100
AcDbSymbolTableRecord
100
AcDbRegAppTableRecord
  2
ACAD
 70
     0
  0
ENDTAB
  0
TABLE
  2
DIMSTYLE
  5
A
330
0
100
AcDbSymbolTable
 70
     1
100
AcDbDimStyleTable
  0
DIMSTYLE
105
27
330
A
100
AcDbSymbolTableRecord
100
AcDbDimStyleTableRecord
  2
Standard
 70
     0
178
     0
340
11
  0
ENDTAB
  0
TABLE
  2
BLOCK_RECORD
  5
1
330
0
100
AcDbSymbolTable
 70
     5
  0
BLOCK_RECORD
  5
1F
330
1
100
AcDbSymbolTableRecord
100
AcDbBlockTableRecord
  2
*Model_Space
340
22
 70
     0
280
     1
281
     0
  0
BLOCK_RECORD
  5
1B
330
1
100
AcDbSymbolTableRecord
100
AcDbBlockTableRecord
  2
*Paper_Space
340
1E
 70
     0
280
     1
281
     0
  0
BLOCK_RECORD
  5
23
330
1
100
AcDbSymbolTableRecord
100
AcDbBlockTableRecord
  2
*Paper_Space0
340
26
 70
     0
280
     1
281
     0
  0
BLOCK_RECORD
  5
74
330
1
100
AcDbSymbolTableRecord
100
AcDbBlockTableRecord
  2
block 2
340
0
102
{BLKREFS
331
75
102
}
 70
     0
280
     1
281
     0
  0
BLOCK_RECORD
  5
89
330
1
100
AcDbSymbolTableRecord
100
AcDbBlockTableRecord
  2
block 3
340
0
102
{BLKREFS
331
8A
102
}
 70
     0
280
     1
281
     0
  0
BLOCK_RECORD
  5
A2
330
1
100
AcDbSymbolTableRecord
100
AcDbBlockTableRecord
  2
block 4
340
0
102
{BLKREFS
331
A3
102
}
 70
     0
280
     1
281
     0
  0
BLOCK_RECORD
  5
BA
330
1
100
AcDbSymbolTableRecord
100
AcDbBlockTableRecord
  2
block 5
340
0
102
{BLKREFS
331
BB
102
}
 70
     0
280
     1
281
     0
  0
ENDTAB
  0
ENDSEC
  0
SECTION
  2
BLOCKS
  0
BLOCK
  5
20
330
1F
100
AcDbEntity
  8
0
100
AcDbBlockBegin
  2
*Model_Space
 70
     0
 10
0.0
 20
0.0
 30
0.0
  3
*Model_Space
  1

  0
ENDBLK
  5
21
330
1F
100
AcDbEntity
  8
0
100
AcDbBlockEnd
  0
BLOCK
  5
1C
330
1B
100
AcDbEntity
 67
     1
  8
0
100
AcDbBlockBegin
  2
*Paper_Space
 70
     0
 10
0.0
 20
0.0
 30
0.0
  3
*Paper_Space
  1

  0
ENDBLK
  5
1D
330
1B
100
AcDbEntity
 67
     1
  8
0
100
AcDbBlockEnd
  0
BLOCK
  5
24
330
23
100
AcDbEntity
  8
0
100
AcDbBlockBegin
  2
*Paper_Space0
 70
     0
 10
0.0
 20
0.0
 30
0.0
  3
*Paper_Space0
  1

  0
ENDBLK
  5
25
330
23
100
AcDbEntity
  8
0
100
AcDbBlockEnd
  0
BLOCK
  5
76
330
74
100
AcDbEntity
  8
0
100
AcDbBlockBegin
  2
block 2
 70
     0
 10
0.0
 20
0.0
 30
0.0
  3
block 2
  1

  0
SPLINE
  5
78
330
74
100
AcDbEntity
  8
_U+30EC_U+30A4_U+30E4_U+30FC 1
370
     0
100
AcDbSpline
210
0.0
220
0.0
230
1.0
 70
    11
 71
     3
 72
    44
 73
    40
 74
     0
 42
0.0000000001
 43
0.0000000001
 12
1.0
 22
0.0
 32
0.0
 13
1.0
 23
0.0
 33
0.0
 40
0.0
 40
0.0
 40
0.0
 40
0.0
 40
1.0
 40
1.0
 40
1.0
 40
2.0
 40
2.0
 40
2.0
 40
3.0
 40
3.0
 40
3.0
 40
4.0
 40
4.0
 40
4.0
 40
5.0
 40
5.0
 40
5.0
 40
6.0
 40
6.0
 40
6.0
 40
7.0
 40
7.0
 40
7.0
 40
8.0
 40
8.0
 40
8.0
 40
9.0
 40
9.0
 40
9.0
 40
10.0
 40
10.0
 40
10.0
 40
11.0
 40
11.0
 40
11.0
 40
12.0
 40
12.0
 40
12.0
 40
13.0
 40
13.0
 40
13.0
 40
13.0
 10
91.06059161134944
 20
-136.8612412852291
 30
0.0
 10
90.87180037875775
 20
-137.0200601870991
 30
0.0
 10
90.79152965395143
 20
-137.094129740032
 30
0.0
 10
90.74949948903138
 20
-137.2377902217669
 30
0.0
 10
90.74949948903138
 20
-137.2377902217669
 30
0.0
 10
91.42284340162345
 20
-137.2377902217669
 30
0.0
 10
91.42284340162345
 20
-137.2377902217669
 30
0.0
 10
91.42284340162345
 20
-137.2377902217669
 30
0.0
 10
91.42284340162345
 20
-137.4431179126878
 30
0.0
 10
91.42284340162345
 20
-137.4431179126878
 30
0.0
 10
91.42284340162345
 20
-137.4431179126878
 30
0.0
 10
90.53349200210621
 20
-137.4431179126878
 30
0.0
 10
90.53349200210621
 20
-137.4431179126878
 30
0.0
 10
90.56070825643968
 20
-137.0855170013189
 30
0.0
 10
90.61755233194631
 20
-137.0073133338037
 30
0.0
 10
90.95069306536998
 20
-136.7089680647811
 30
0.0
 10
91.17221270507153
 20
-136.5101860552822
 30
0.0
 10
91.22871227102964
 20
-136.4423176742227
 30
0.0
 10
91.22871227102964
 20
-136.3048583643613
 30
0.0
 10
91.22871227102964
 20
-136.1863470796687
 30
0.0
 10
91.16670055229514
 20
-136.0554334512292
 30
0.0
 10
90.9965128353238
 20
-136.0554334512292
 30
0.0
 10
90.77120359058846
 20
-136.0554334512292
 30
0.0
 10
90.76396889006944
 20
-136.2859103391924
 30
0.0
 10
90.76017928503565
 20
-136.4023545665939
 30
0.0
 10
90.76017928503565
 20
-136.4023545665939
 30
0.0
 10
90.56622040921609
 20
-136.4023545665939
 30
0.0
 10
90.56622040921609
 20
-136.4023545665939
 30
0.0
 10
90.57379961928363
 20
-136.2752305431881
 30
0.0
 10
90.58275686754529
 20
-136.1632649399175
 30
0.0
 10
90.65234779634733
 20
-136.0447536552249
 30
0.0
 10
90.74743243174024
 20
-135.8838676960638
 30
0.0
 10
90.90866290044993
 20
-135.8501057603083
 30
0.0
 10
91.00925968861922
 20
-135.8501057603083
 30
0.0
 10
91.24903833439261
 20
-135.8501057603083
 30
0.0
 10
91.42835555439986
 20
-136.0340738592207
 30
0.0
 10
91.42835555439986
 20
-136.3069254216524
 30
0.0
 10
91.42835555439986
 20
-136.535679761873
 30
0.0
 10
91.3275865114563
 20
-136.6348985118482
 30
0.0
 10
91.06059161134944
 20
-136.8612412852291
 30
0.0
  0
HATCH
  5
79
330
74
100
AcDbEntity
  8
_U+30EC_U+30A4_U+30E4_U+30FC 1
 62
   179
420
  2234388
100
AcDbHatch
 10
0.0
 20
0.0
 30
0.0
210
0.0
220
0.0
230
1.0
  2
SOLID
 70
     1
 71
     0
 91
        1
 92
        1
 93
        1
 72
     4
 94
        3
 73
     0
 74
     1
 95
       44
 96
       40
 40
0.0
 40
0.0
 40
0.0
 40
0.0
 40
1.0
 40
1.0
 40
1.0
 40
2.0
 40
2.0
 40
2.0
 40
3.0
 40
3.0
 40
3.0
 40
4.0
 40
4.0
 40
4.0
 40
5.0
 40
5.0
 40
5.0
 40
6.0
 40
6.0
 40
6.0
 40
7.0
 40
7.0
 40
7.0
 40
8.0
 40
8.0
 40
8.0
 40
9.0
 40
9.0
 40
9.0
 40
10.0
 40
10.0
 40
10.0
 40
11.0
 40
11.0
 40
11.0
 40
12.0
 40
12.0
 40
12.0
 40
13.0
 40
13.0
 40
13.0
 40
13.0
 10
91.06059161134944
 20
-136.8612412852291
 10
90.87180037875775
 20
-137.0200601870991
 10
90.79152965395143
 20
-137.094129740032
 10
90.74949948903138
 20
-137.2377902217669
 10
90.74949948903138
 20
-137.2377902217669
 10
91.42284340162345
 20
-137.2377902217669
 10
91.42284340162345
 20
-137.2377902217669
 10
91.42284340162345
 20
-137.2377902217669
 10
91.42284340162345
 20
-137.4431179126878
 10
91.42284340162345
 20
-137.4431179126878
 10
91.42284340162345
 20
-137.4431179126878
 10
90.53349200210621
 20
-137.4431179126878
 10
90.53349200210621
 20
-137.4431179126878
 10
90.56070825643968
 20
-137.0855170013189
 10
90.61755233194631
 20
-137.0073133338037
 10
90.95069306536998
 20
-136.7089680647811
 10
91.17221270507153
 20
-136.5101860552822
 10
91.22871227102964
 20
-136.4423176742227
 10
91.22871227102964
 20
-136.3048583643613
 10
91.22871227102964
 20
-136.1863470796687
 10
91.16670055229514
 20
-136.0554334512292
 10
90.9965128353238
 20
-136.0554334512292
 10
90.77120359058846
 20
-136.0554334512292
 10
90.76396889006944
 20
-136.2859103391924
 10
90.76017928503565
 20
-136.4023545665939
 10
90.76017928503565
 20
-136.4023545665939
 10
90.56622040921609
 20
-136.4023545665939
 10
90.56622040921609
 20
-136.4023545665939
 10
90.57379961928363
 20
-136.2752305431881
 10
90.58275686754529
 20
-136.1632649399175
 10
90.65234779634733
 20
-136.0447536552249
 10
90.74743243174024
 20
-135.8838676960638
 10
90.90866290044993
 20
-135.8501057603083
 10
91.00925968861922
 20
-135.8501057603083
 10
91.24903833439261
 20
-135.8501057603083
 10
91.42835555439986
 20
-136.0340738592207
 10
91.42835555439986
 20
-136.3069254216524
 10
91.42835555439986
 20
-136.535679761873
 10
91.3275865114563
 20
-136.6348985118482
 10
91.06059161134944
 20
-136.8612412852291
 97
        0
 97
        0
 75
     2
 76
     1
 98
        0
  0
SPLINE
  5
7A
330
74
100
AcDbEntity
  8
_U+30EC_U+30A4_U+30E4_U+30FC 1
370
     0
100
AcDbSpline
210
0.0
220
0.0
230
1.0
 70
    11
 71
     3
 72
    32
 73
    28
 74
     0
 42
0.0000000001
 43
0.0000000001
 12
1.0
 22
0.0
 32
0.0
 13
1.0
 23
0.0
 33
0.0
 40
0.0
 40
0.0
 40
0.0
 40
0.0
 40
1.0
 40
1.0
 40
1.0
 40
2.0
 40
2.0
 40
2.0
 40
3.0
 40
3.0
 40
3.0
 40
4.0
 40
4.0
 40
4.0
 40
5.0
 40
5.0
 40
5.0
 40
6.0
 40
6.0
 40
6.0
 40
7.0
 40
7.0
 40
7.0
 40
8.0
 40
8.0
 40
8.0
 40
9.0
 40
9.0
 40
9.0
 40
9.0
 10
92.00093042404838
 20
-137.493760816321
 30
0.0
 10
91.55444604916
 20
-137.493760816321
 30
0.0
 10
91.54721134864099
 20
-136.9397894622929
 30
0.0
 10
91.54721134864099
 20
-136.7258490326588
 30
0.0
 10
91.54721134864099
 20
-136.4953721446956
 30
0.0
 10
91.56374780697018
 20
-135.8480387030172
 30
0.0
 10
92.03400334070678
 20
-135.8480387030172
 30
0.0
 10
92.18420950386367
 20
-135.8480387030172
 30
0.0
 10
92.39642738575506
 20
-135.9179741413677
 30
0.0
 10
92.42950030241346
 20
-136.2500813461458
 30
0.0
 10
92.42950030241346
 20
-136.2500813461458
 30
0.0
 10
92.24449867485555
 20
-136.2500813461458
 30
0.0
 10
92.24449867485555
 20
-136.2500813461458
 30
0.0
 10
92.23519691704537
 20
-136.1928927610907
 30
0.0
 10
92.2079806627119
 20
-136.0447536552249
 30
0.0
 10
92.03228079296416
 20
-136.0447536552249
 30
0.0
 10
91.77975529389535
 20
-136.0447536552249
 30
0.0
 10
91.74495982949432
 20
-136.3727267454207
 30
0.0
 10
91.73393552394153
 20
-136.5777099267931
 30
0.0
 10
91.81455075829636
 20
-136.4995062592779
 30
0.0
 10
91.87311738154561
 20
-136.4402506169316
 30
0.0
 10
92.03055824522153
 20
-136.4402506169316
 30
0.0
 10
92.1859320516063
 20
-136.4402506169316
 30
0.0
 10
92.44775930848529
 20
-136.5484266151685
 30
0.0
 10
92.44775930848529
 20
-136.9546033728794
 30
0.0
 10
92.44775930848529
 20
-137.2739637243621
 30
0.0
 10
92.27550453422279
 20
-137.493760816321
 30
0.0
 10
92.00093042404838
 20
-137.493760816321
 30
0.0
  0
SPLINE
  5
7B
330
74
100
AcDbEntity
  8
_U+30EC_U+30A4_U+30E4_U+30FC 1
370
     0
100
AcDbSpline
210
0.0
220
0.0
230
1.0
 70
    11
 71
     3
 72
    17
 73
    13
 74
     0
 42
0.0000000001
 43
0.0000000001
 12
1.0
 22
0.0
 32
0.0
 13
1.0
 23
0.0
 33
0.0
 40
0.0
 40
0.0
 40
0.0
 40
0.0
 40
1.0
 40
1.0
 40
1.0
 40
2.0
 40
2.0
 40
2.0
 40
3.0
 40
3.0
 40
3.0
 40
4.0
 40
4.0
 40
4.0
 40
4.0
 10
92.01574433463496
 20
-136.6348985118482
 30
0.0
 10
91.78871254215699
 20
-136.6348985118482
 30
0.0
 10
91.75598413504711
 20
-136.8464273746426
 30
0.0
 10
91.75598413504711
 20
-136.962871602044
 30
0.0
 10
91.75598413504711
 20
-137.1385714717917
 30
0.0
 10
91.8383219171446
 20
-137.3015244882441
 30
0.0
 10
91.99748532856313
 20
-137.3015244882441
 30
0.0
 10
92.1018717217662
 20
-137.3015244882441
 30
0.0
 10
92.25380043266573
 20
-137.2422688458978
 30
0.0
 10
92.25380043266573
 20
-136.9566704301706
 30
0.0
 10
92.25380043266573
 20
-136.7323947140808
 30
0.0
 10
92.13287758113346
 20
-136.6348985118482
 30
0.0
 10
92.01574433463496
 20
-136.6348985118482
 30
0.0
  0
HATCH
  5
7C
330
74
100
AcDbEntity
  8
_U+30EC_U+30A4_U+30E4_U+30FC 1
 62
   179
420
  2234388
100
AcDbHatch
 10
0.0
 20
0.0
 30
0.0
210
0.0
220
0.0
230
1.0
  2
SOLID
 70
     1
 71
     0
 91
        2
 92
        1
 93
        1
 72
     4
 94
        3
 73
     0
 74
     1
 95
       32
 96
       28
 40
0.0
 40
0.0
 40
0.0
 40
0.0
 40
1.0
 40
1.0
 40
1.0
 40
2.0
 40
2.0
 40
2.0
 40
3.0
 40
3.0
 40
3.0
 40
4.0
 40
4.0
 40
4.0
 40
5.0
 40
5.0
 40
5.0
 40
6.0
 40
6.0
 40
6.0
 40
7.0
 40
7.0
 40
7.0
 40
8.0
 40
8.0
 40
8.0
 40
9.0
 40
9.0
 40
9.0
 40
9.0
 10
92.00093042404838
 20
-137.493760816321
 10
91.55444604916
 20
-137.493760816321
 10
91.54721134864099
 20
-136.9397894622929
 10
91.54721134864099
 20
-136.7258490326588
 10
91.54721134864099
 20
-136.4953721446956
 10
91.56374780697018
 20
-135.8480387030172
 10
92.03400334070678
 20
-135.8480387030172
 10
92.18420950386367
 20
-135.8480387030172
 10
92.39642738575506
 20
-135.9179741413677
 10
92.42950030241346
 20
-136.2500813461458
 10
92.42950030241346
 20
-136.2500813461458
 10
92.24449867485555
 20
-136.2500813461458
 10
92.24449867485555
 20
-136.2500813461458
 10
92.23519691704537
 20
-136.1928927610907
 10
92.2079806627119
 20
-136.0447536552249
 10
92.03228079296416
 20
-136.0447536552249
 10
91.77975529389535
 20
-136.0447536552249
 10
91.74495982949432
 20
-136.3727267454207
 10
91.73393552394153
 20
-136.5777099267931
 10
91.81455075829636
 20
-136.4995062592779
 10
91.87311738154561
 20
-136.4402506169316
 10
92.03055824522153
 20
-136.4402506169316
 10
92.1859320516063
 20
-136.4402506169316
 10
92.44775930848529
 20
-136.5484266151685
 10
92.44775930848529
 20
-136.9546033728794
 10
92.44775930848529
 20
-137.2739637243621
 10
92.27550453422279
 20
-137.493760816321
 10
92.00093042404838
 20
-137.493760816321
 97
        0
 97
        0
 92
        1
 93
        1
 72
     4
 94
        3
 73
     0
 74
     1
 95
       17
 96
       13
 40
0.0
 40
0.0
 40
0.0
 40
0.0
 40
1.0
 40
1.0
 40
1.0
 40
2.0
 40
2.0
 40
2.0
 40
3.0
 40
3.0
 40
3.0
 40
4.0
 40
4.0
 40
4.0
 40
4.0
 10
92.01574433463496
 20
-136.6348985118482
 10
91.78871254215699
 20
-136.6348985118482
 10
91.75598413504711
 20
-136.8464273746426
 10
91.75598413504711
 20
-136.962871602044
 10
91.75598413504711
 20
-137.1385714717917
 10
91.8383219171446
 20
-137.3015244882441
 10
91.99748532856313
 20
-137.3015244882441
 10
92.1018717217662
 20
-137.3015244882441
 10
92.25380043266573
 20
-137.2422688458978
 10
92.25380043266573
 20
-136.9566704301706
 10
92.25380043266573
 20
-136.7323947140808
 10
92.13287758113346
 20
-136.6348985118482
 10
92.01574433463496
 20
-136.6348985118482
 97
        0
 97
        0
 75
     2
 76
     1
 98
        0
  0
ENDBLK
  5
77
330
74
100
AcDbEntity
  8
0
100
AcDbBlockEnd
  0
BLOCK
  5
8B
330
89
100
AcDbEntity
  8
0
100
AcDbBlockBegin
  2
block 3
 70
     0
 10
0.0
 20
0.0
 30
0.0
  3
block 3
  1

  0
SPLINE
  5
8D
330
89
100
AcDbEntity
  8
_U+30EC_U+30A4_U+30E4_U+30FC 1
370
     0
100
AcDbSpline
210
0.0
220
0.0
230
1.0
 70
    11
 71
     3
 72
    26
 73
    22
 74
     0
 42
0.0000000001
 43
0.0000000001
 12
1.0
 22
0.0
 32
0.0
 13
1.0
 23
0.0
 33
0.0
 40
0.0
 40
0.0
 40
0.0
 40
0.0
 40
1.0
 40
1.0
 40
1.0
 40
2.0
 40
2.0
 40
2.0
 40
3.0
 40
3.0
 40
3.0
 40
4.0
 40
4.0
 40
4.0
 40
5.0
 40
5.0
 40
5.0
 40
6.0
 40
6.0
 40
6.0
 40
7.0
 40
7.0
 40
7.0
 40
7.0
 10
74.12708602747517
 20
-126.8249891175993
 30
0.0
 10
74.12708602747517
 20
-126.8249891175993
 30
0.0
 10
73.02276066967833
 20
-126.8249891175993
 30
0.0
 10
73.02276066967833
 20
-126.8249891175993
 30
0.0
 10
73.02276066967833
 20
-126.8249891175993
 30
0.0
 10
73.02276066967833
 20
-127.1105875333265
 30
0.0
 10
73.02276066967833
 20
-127.1105875333265
 30
0.0
 10
73.02276066967833
 20
-127.1105875333265
 30
0.0
 10
72.8746215638126
 20
-127.1105875333265
 30
0.0
 10
72.8746215638126
 20
-127.1105875333265
 30
0.0
 10
72.85997990800028
 20
-126.8232665698567
 30
0.0
 10
72.69702689154796
 20
-126.7829589526793
 30
0.0
 10
72.58282197621193
 20
-126.7574652460884
 30
0.0
 10
72.58282197621193
 20
-126.7574652460884
 30
0.0
 10
72.58282197621193
 20
-126.6310302417798
 30
0.0
 10
72.58282197621193
 20
-126.6310302417798
 30
0.0
 10
72.58282197621193
 20
-126.6310302417798
 30
0.0
 10
74.12708602747517
 20
-126.6310302417798
 30
0.0
 10
74.12708602747517
 20
-126.6310302417798
 30
0.0
 10
74.12708602747517
 20
-126.6310302417798
 30
0.0
 10
74.12708602747517
 20
-126.8249891175993
 30
0.0
 10
74.12708602747517
 20
-126.8249891175993
 30
0.0
  0
HATCH
  5
8E
330
89
100
AcDbEntity
  8
_U+30EC_U+30A4_U+30E4_U+30FC 1
 62
   179
420
  2234388
100
AcDbHatch
 10
0.0
 20
0.0
 30
0.0
210
0.0
220
0.0
230
1.0
  2
SOLID
 70
     1
 71
     0
 91
        1
 92
        1
 93
        1
 72
     4
 94
        3
 73
     0
 74
     1
 95
       26
 96
       22
 40
0.0
 40
0.0
 40
0.0
 40
0.0
 40
1.0
 40
1.0
 40
1.0
 40
2.0
 40
2.0
 40
2.0
 40
3.0
 40
3.0
 40
3.0
 40
4.0
 40
4.0
 40
4.0
 40
5.0
 40
5.0
 40
5.0
 40
6.0
 40
6.0
 40
6.0
 40
7.0
 40
7.0
 40
7.0
 40
7.0
 10
74.12708602747517
 20
-126.8249891175993
 10
74.12708602747517
 20
-126.8249891175993
 10
73.02276066967833
 20
-126.8249891175993
 10
73.02276066967833
 20
-126.8249891175993
 10
73.02276066967833
 20
-126.8249891175993
 10
73.02276066967833
 20
-127.1105875333265
 10
73.02276066967833
 20
-127.1105875333265
 10
73.02276066967833
 20
-127.1105875333265
 10
72.8746215638126
 20
-127.1105875333265
 10
72.8746215638126
 20
-127.1105875333265
 10
72.85997990800028
 20
-126.8232665698567
 10
72.69702689154796
 20
-126.7829589526793
 10
72.58282197621193
 20
-126.7574652460884
 10
72.58282197621193
 20
-126.7574652460884
 10
72.58282197621193
 20
-126.6310302417798
 10
72.58282197621193
 20
-126.6310302417798
 10
72.58282197621193
 20
-126.6310302417798
 10
74.12708602747517
 20
-126.6310302417798
 10
74.12708602747517
 20
-126.6310302417798
 10
74.12708602747517
 20
-126.6310302417798
 10
74.12708602747517
 20
-126.8249891175993
 10
74.12708602747517
 20
-126.8249891175993
 97
        0
 97
        0
 75
     2
 76
     1
 98
        0
  0
SPLINE
  5
8F
330
89
100
AcDbEntity
  8
_U+30EC_U+30A4_U+30E4_U+30FC 1
370
     0
100
AcDbSpline
210
0.0
220
0.0
230
1.0
 70
    11
 71
     3
 72
    32
 73
    28
 74
     0
 42
0.0000000001
 43
0.0000000001
 12
1.0
 22
0.0
 32
0.0
 13
1.0
 23
0.0
 33
0.0
 40
0.0
 40
0.0
 40
0.0
 40
0.0
 40
1.0
 40
1.0
 40
1.0
 40
2.0
 40
2.0
 40
2.0
 40
3.0
 40
3.0
 40
3.0
 40
4.0
 40
4.0
 40
4.0
 40
5.0
 40
5.0
 40
5.0
 40
6.0
 40
6.0
 40
6.0
 40
7.0
 40
7.0
 40
7.0
 40
8.0
 40
8.0
 40
8.0
 40
9.0
 40
9.0
 40
9.0
 40
9.0
 10
74.17790118588262
 20
-125.7621771603997
 30
0.0
 10
74.17790118588262
 20
-126.2086615352881
 30
0.0
 10
73.62358532230591
 20
-126.2158962358071
 30
0.0
 10
73.40998940222042
 20
-126.2158962358071
 30
0.0
 10
73.17934025948294
 20
-126.2158962358071
 30
0.0
 10
72.5320068178045
 20
-126.1993597774779
 30
0.0
 10
72.5320068178045
 20
-125.7291042437413
 30
0.0
 10
72.5320068178045
 20
-125.5788980805845
 30
0.0
 10
72.60177000138081
 20
-125.3666801986931
 30
0.0
 10
72.9338772061589
 20
-125.3336072820347
 30
0.0
 10
72.9338772061589
 20
-125.3336072820347
 30
0.0
 10
72.9338772061589
 20
-125.5186089095926
 30
0.0
 10
72.9338772061589
 20
-125.5186089095926
 30
0.0
 10
72.87686087587801
 20
-125.5279106674028
 30
0.0
 10
72.72872177001227
 20
-125.5551269217362
 30
0.0
 10
72.72872177001227
 20
-125.730826791484
 30
0.0
 10
72.72872177001227
 20
-125.9833522905528
 30
0.0
 10
73.05669486020805
 20
-126.0181477549538
 30
0.0
 10
73.26185029635468
 20
-126.0291720605066
 30
0.0
 10
73.18364662883951
 20
-125.9485568261518
 30
0.0
 10
73.12439098649321
 20
-125.8899902029025
 30
0.0
 10
73.12439098649321
 20
-125.7325493392266
 30
0.0
 10
73.12439098649321
 20
-125.5771755328418
 30
0.0
 10
73.23222247518153
 20
-125.3153482759628
 30
0.0
 10
73.63839923289248
 20
-125.3153482759628
 30
0.0
 10
73.95775958437515
 20
-125.3153482759628
 30
0.0
 10
74.17790118588262
 20
-125.4876030502253
 30
0.0
 10
74.17790118588262
 20
-125.7621771603997
 30
0.0
  0
SPLINE
  5
90
330
89
100
AcDbEntity
  8
_U+30EC_U+30A4_U+30E4_U+30FC 1
370
     0
100
AcDbSpline
210
0.0
220
0.0
230
1.0
 70
    11
 71
     3
 72
    17
 73
    13
 74
     0
 42
0.0000000001
 43
0.0000000001
 12
1.0
 22
0.0
 32
0.0
 13
1.0
 23
0.0
 33
0.0
 40
0.0
 40
0.0
 40
0.0
 40
0.0
 40
1.0
 40
1.0
 40
1.0
 40
2.0
 40
2.0
 40
2.0
 40
3.0
 40
3.0
 40
3.0
 40
4.0
 40
4.0
 40
4.0
 40
4.0
 10
73.31903888140982
 20
-125.7473632498132
 30
0.0
 10
73.31903888140982
 20
-125.9743950422911
 30
0.0
 10
73.53056774420416
 20
-126.007123449401
 30
0.0
 10
73.64683971683135
 20
-126.007123449401
 30
0.0
 10
73.82236733180483
 20
-126.007123449401
 30
0.0
 10
73.98532034825715
 20
-125.9247856673035
 30
0.0
 10
73.98532034825715
 20
-125.765622255885
 30
0.0
 10
73.98532034825715
 20
-125.6612358626819
 30
0.0
 10
73.92606470591085
 20
-125.5093071517824
 30
0.0
 10
73.64046629018364
 20
-125.5093071517824
 30
0.0
 10
73.41619057409387
 20
-125.5093071517824
 30
0.0
 10
73.31903888140982
 20
-125.6302300033147
 30
0.0
 10
73.31903888140982
 20
-125.7473632498132
 30
0.0
  0
HATCH
  5
91
330
89
100
AcDbEntity
  8
_U+30EC_U+30A4_U+30E4_U+30FC 1
 62
   179
420
  2234388
100
AcDbHatch
 10
0.0
 20
0.0
 30
0.0
210
0.0
220
0.0
230
1.0
  2
SOLID
 70
     1
 71
     0
 91
        2
 92
        1
 93
        1
 72
     4
 94
        3
 73
     0
 74
     1
 95
       32
 96
       28
 40
0.0
 40
0.0
 40
0.0
 40
0.0
 40
1.0
 40
1.0
 40
1.0
 40
2.0
 40
2.0
 40
2.0
 40
3.0
 40
3.0
 40
3.0
 40
4.0
 40
4.0
 40
4.0
 40
5.0
 40
5.0
 40
5.0
 40
6.0
 40
6.0
 40
6.0
 40
7.0
 40
7.0
 40
7.0
 40
8.0
 40
8.0
 40
8.0
 40
9.0
 40
9.0
 40
9.0
 40
9.0
 10
74.17790118588262
 20
-125.7621771603997
 10
74.17790118588262
 20
-126.2086615352881
 10
73.62358532230591
 20
-126.2158962358071
 10
73.40998940222042
 20
-126.2158962358071
 10
73.17934025948294
 20
-126.2158962358071
 10
72.5320068178045
 20
-126.1993597774779
 10
72.5320068178045
 20
-125.7291042437413
 10
72.5320068178045
 20
-125.5788980805845
 10
72.60177000138081
 20
-125.3666801986931
 10
72.9338772061589
 20
-125.3336072820347
 10
72.9338772061589
 20
-125.3336072820347
 10
72.9338772061589
 20
-125.5186089095926
 10
72.9338772061589
 20
-125.5186089095926
 10
72.87686087587801
 20
-125.5279106674028
 10
72.72872177001227
 20
-125.5551269217362
 10
72.72872177001227
 20
-125.730826791484
 10
72.72872177001227
 20
-125.9833522905528
 10
73.05669486020805
 20
-126.0181477549538
 10
73.26185029635468
 20
-126.0291720605066
 10
73.18364662883951
 20
-125.9485568261518
 10
73.12439098649321
 20
-125.8899902029025
 10
73.12439098649321
 20
-125.7325493392266
 10
73.12439098649321
 20
-125.5771755328418
 10
73.23222247518153
 20
-125.3153482759628
 10
73.63839923289248
 20
-125.3153482759628
 10
73.95775958437515
 20
-125.3153482759628
 10
74.17790118588262
 20
-125.4876030502253
 10
74.17790118588262
 20
-125.7621771603997
 97
        0
 97
        0
 92
        1
 93
        1
 72
     4
 94
        3
 73
     0
 74
     1
 95
       17
 96
       13
 40
0.0
 40
0.0
 40
0.0
 40
0.0
 40
1.0
 40
1.0
 40
1.0
 40
2.0
 40
2.0
 40
2.0
 40
3.0
 40
3.0
 40
3.0
 40
4.0
 40
4.0
 40
4.0
 40
4.0
 10
73.31903888140982
 20
-125.7473632498132
 10
73.31903888140982
 20
-125.9743950422911
 10
73.53056774420416
 20
-126.007123449401
 10
73.64683971683135
 20
-126.007123449401
 10
73.82236733180483
 20
-126.007123449401
 10
73.98532034825715
 20
-125.9247856673035
 10
73.98532034825715
 20
-125.765622255885
 10
73.98532034825715
 20
-125.6612358626819
 10
73.92606470591085
 20
-125.5093071517824
 10
73.64046629018364
 20
-125.5093071517824
 10
73.41619057409387
 20
-125.5093071517824
 10
73.31903888140982
 20
-125.6302300033147
 10
73.31903888140982
 20
-125.7473632498132
 97
        0
 97
        0
 75
     2
 76
     1
 98
        0
  0
ENDBLK
  5
8C
330
89
100
AcDbEntity
  8
0
100
AcDbBlockEnd
  0
BLOCK
  5
A4
330
A2
100
AcDbEntity
  8
0
100
AcDbBlockBegin
  2
block 4
 70
     0
 10
0.0
 20
0.0
 30
0.0
  3
block 4
  1

  0
SPLINE
  5
A6
330
A2
100
AcDbEntity
  8
_U+30EC_U+30A4_U+30E4_U+30FC 1
370
     0
100
AcDbSpline
210
0.0
220
0.0
230
1.0
 70
    11
 71
     3
 72
    26
 73
    22
 74
     0
 42
0.0000000001
 43
0.0000000001
 12
1.0
 22
0.0
 32
0.0
 13
1.0
 23
0.0
 33
0.0
 40
0.0
 40
0.0
 40
0.0
 40
0.0
 40
1.0
 40
1.0
 40
1.0
 40
2.0
 40
2.0
 40
2.0
 40
3.0
 40
3.0
 40
3.0
 40
4.0
 40
4.0
 40
4.0
 40
5.0
 40
5.0
 40
5.0
 40
6.0
 40
6.0
 40
6.0
 40
7.0
 40
7.0
 40
7.0
 40
7.0
 10
108.1274223905029
 20
-130.6752278319145
 30
0.0
 10
108.1274223905029
 20
-130.6752278319145
 30
0.0
 10
107.0232692874803
 20
-130.6752278319145
 30
0.0
 10
107.0232692874803
 20
-130.6752278319145
 30
0.0
 10
107.0232692874803
 20
-130.6752278319145
 30
0.0
 10
107.0232692874803
 20
-130.9608262476417
 30
0.0
 10
107.0232692874803
 20
-130.9608262476417
 30
0.0
 10
107.0232692874803
 20
-130.9608262476417
 30
0.0
 10
106.8751301816146
 20
-130.9608262476417
 30
0.0
 10
106.8751301816146
 20
-130.9608262476417
 30
0.0
 10
106.860316271028
 20
-130.6735052841719
 30
0.0
 10
106.6973632545757
 20
-130.6331976669945
 30
0.0
 10
106.5829860844654
 20
-130.6077039604036
 30
0.0
 10
106.5829860844654
 20
-130.6077039604036
 30
0.0
 10
106.5829860844654
 20
-130.481268956095
 30
0.0
 10
106.5829860844654
 20
-130.481268956095
 30
0.0
 10
106.5829860844654
 20
-130.481268956095
 30
0.0
 10
108.1274223905029
 20
-130.481268956095
 30
0.0
 10
108.1274223905029
 20
-130.481268956095
 30
0.0
 10
108.1274223905029
 20
-130.481268956095
 30
0.0
 10
108.1274223905029
 20
-130.6752278319145
 30
0.0
 10
108.1274223905029
 20
-130.6752278319145
 30
0.0
  0
HATCH
  5
A7
330
A2
100
AcDbEntity
  8
_U+30EC_U+30A4_U+30E4_U+30FC 1
 62
   179
420
  2234388
100
AcDbHatch
 10
0.0
 20
0.0
 30
0.0
210
0.0
220
0.0
230
1.0
  2
SOLID
 70
     1
 71
     0
 91
        1
 92
        1
 93
        1
 72
     4
 94
        3
 73
     0
 74
     1
 95
       26
 96
       22
 40
0.0
 40
0.0
 40
0.0
 40
0.0
 40
1.0
 40
1.0
 40
1.0
 40
2.0
 40
2.0
 40
2.0
 40
3.0
 40
3.0
 40
3.0
 40
4.0
 40
4.0
 40
4.0
 40
5.0
 40
5.0
 40
5.0
 40
6.0
 40
6.0
 40
6.0
 40
7.0
 40
7.0
 40
7.0
 40
7.0
 10
108.1274223905029
 20
-130.6752278319145
 10
108.1274223905029
 20
-130.6752278319145
 10
107.0232692874803
 20
-130.6752278319145
 10
107.0232692874803
 20
-130.6752278319145
 10
107.0232692874803
 20
-130.6752278319145
 10
107.0232692874803
 20
-130.9608262476417
 10
107.0232692874803
 20
-130.9608262476417
 10
107.0232692874803
 20
-130.9608262476417
 10
106.8751301816146
 20
-130.9608262476417
 10
106.8751301816146
 20
-130.9608262476417
 10
106.860316271028
 20
-130.6735052841719
 10
106.6973632545757
 20
-130.6331976669945
 10
106.5829860844654
 20
-130.6077039604036
 10
106.5829860844654
 20
-130.6077039604036
 10
106.5829860844654
 20
-130.481268956095
 10
106.5829860844654
 20
-130.481268956095
 10
106.5829860844654
 20
-130.481268956095
 10
108.1274223905029
 20
-130.481268956095
 10
108.1274223905029
 20
-130.481268956095
 10
108.1274223905029
 20
-130.481268956095
 10
108.1274223905029
 20
-130.6752278319145
 10
108.1274223905029
 20
-130.6752278319145
 97
        0
 97
        0
 75
     2
 76
     1
 98
        0
  0
POLYLINE
  5
A8
330
A2
100
AcDbEntity
  8
_U+30EC_U+30A4_U+30E4_U+30FC 1
370
     0
100
AcDb2dPolyline
 66
     1
 10
0.0
 20
0.0
 30
0.0
  0
VERTEX
  5
A9
330
A8
100
AcDbEntity
  8
_U+30EC_U+30A4_U+30E4_U+30FC 1
370
     0
100
AcDbVertex
100
AcDb2dVertex
 10
108.1274223905029
 20
-129.9965440213203
 30
0.0
  0
VERTEX
  5
AA
330
A8
100
AcDbEntity
  8
_U+30EC_U+30A4_U+30E4_U+30FC 1
370
     0
100
AcDbVertex
100
AcDb2dVertex
 10
107.8755859105311
 20
-129.9965440213203
 30
0.0
  0
VERTEX
  5
AB
330
A8
100
AcDbEntity
  8
_U+30EC_U+30A4_U+30E4_U+30FC 1
370
     0
100
AcDbVertex
100
AcDb2dVertex
 10
107.8755859105311
 20
-129.7788139866525
 30
0.0
  0
VERTEX
  5
AC
330
A8
100
AcDbEntity
  8
_U+30EC_U+30A4_U+30E4_U+30FC 1
370
     0
100
AcDbVertex
100
AcDb2dVertex
 10
108.1274223905029
 20
-129.7788139866525
 30
0.0
  0
VERTEX
  5
AD
330
A8
100
AcDbEntity
  8
_U+30EC_U+30A4_U+30E4_U+30FC 1
370
     0
100
AcDbVertex
100
AcDb2dVertex
 10
108.1274223905029
 20
-129.9965440213203
 30
0.0
  0
SEQEND
  5
AE
330
A8
100
AcDbEntity
  8
_U+30EC_U+30A4_U+30E4_U+30FC 1
370
     0
  0
HATCH
  5
AF
330
A2
100
AcDbEntity
  8
_U+30EC_U+30A4_U+30E4_U+30FC 1
 62
   179
420
  2234388
100
AcDbHatch
 10
0.0
 20
0.0
 30
0.0
210
0.0
220
0.0
230
1.0
  2
SOLID
 70
     1
 71
     0
 91
        1
 92
        1
 93
        4
 72
     1
 10
108.1274223905029
 20
-129.9965440213203
 11
107.8755859105311
 21
-129.9965440213203
 72
     1
 10
107.8755859105311
 20
-129.9965440213203
 11
107.8755859105311
 21
-129.7788139866525
 72
     1
 10
107.8755859105311
 20
-129.7788139866525
 11
108.1274223905029
 21
-129.7788139866525
 72
     1
 10
108.1274223905029
 20
-129.7788139866525
 11
108.1274223905029
 21
-129.9965440213203
 97
        0
 75
     2
 76
     1
 98
        0
  0
SPLINE
  5
B0
330
A2
100
AcDbEntity
  8
_U+30EC_U+30A4_U+30E4_U+30FC 1
370
     0
100
AcDbSpline
210
0.0
220
0.0
230
1.0
 70
    11
 71
     3
 72
    62
 73
    58
 74
     0
 42
0.0000000001
 43
0.0000000001
 12
1.0
 22
0.0
 32
0.0
 13
1.0
 23
0.0
 33
0.0
 40
0.0
 40
0.0
 40
0.0
 40
0.0
 40
1.0
 40
1.0
 40
1.0
 40
2.0
 40
2.0
 40
2.0
 40
3.0
 40
3.0
 40
3.0
 40
4.0
 40
4.0
 40
4.0
 40
5.0
 40
5.0
 40
5.0
 40
6.0
 40
6.0
 40
6.0
 40
7.0
 40
7.0
 40
7.0
 40
8.0
 40
8.0
 40
8.0
 40
9.0
 40
9.0
 40
9.0
 40
10.0
 40
10.0
 40
10.0
 40
11.0
 40
11.0
 40
11.0
 40
12.0
 40
12.0
 40
12.0
 40
13.0
 40
13.0
 40
13.0
 40
14.0
 40
14.0
 40
14.0
 40
15.0
 40
15.0
 40
15.0
 40
16.0
 40
16.0
 40
16.0
 40
17.0
 40
17.0
 40
17.0
 40
18.0
 40
18.0
 40
18.0
 40
19.0
 40
19.0
 40
19.0
 40
19.0
 10
108.178065294136
 20
-129.1493950414974
 30
0.0
 10
108.178065294136
 20
-129.2317328235949
 30
0.0
 10
108.157050211676
 20
-129.4205240561865
 30
0.0
 10
107.9710150554725
 20
-129.5283555448749
 30
0.0
 10
107.8587049426534
 20
-129.5924343209005
 30
0.0
 10
107.7594861926782
 20
-129.5962239259343
 30
0.0
 10
107.674736843741
 20
-129.5996690214195
 30
0.0
 10
107.674736843741
 20
-129.5996690214195
 30
0.0
 10
107.674736843741
 20
-129.4094997506337
 30
0.0
 10
107.674736843741
 20
-129.4094997506337
 30
0.0
 10
107.7488063966739
 20
-129.4074326933426
 30
0.0
 10
107.9834173992194
 20
-129.3984754450809
 30
0.0
 10
107.9834173992194
 20
-129.1531846465311
 30
0.0
 10
107.9834173992194
 20
-129.03432885229
 30
0.0
 10
107.9138264704174
 20
-128.902381695205
 30
0.0
 10
107.6854166397453
 20
-128.902381695205
 30
0.0
 10
107.5689724123439
 20
-128.902381695205
 30
0.0
 10
107.5203965660018
 20
-128.9354546118634
 30
0.0
 10
107.4887016875376
 20
-128.9626708661968
 30
0.0
 10
107.4146321346047
 20
-129.0267496422225
 30
0.0
 10
107.4018852813093
 20
-129.1276909399403
 30
0.0
 10
107.4018852813093
 20
-129.1752332576368
 30
0.0
 10
107.4018852813093
 20
-129.191769715966
 30
0.0
 10
107.4039523386004
 20
-129.2227755753332
 30
0.0
 10
107.4080864531827
 20
-129.2465467341814
 30
0.0
 10
107.4080864531827
 20
-129.2465467341814
 30
0.0
 10
107.2134385582661
 20
-129.2465467341814
 30
0.0
 10
107.2134385582661
 20
-129.2465467341814
 30
0.0
 10
107.2199842396881
 20
-129.213473817523
 30
0.0
 10
107.2220512969792
 20
-129.1769558053794
 30
0.0
 10
107.2220512969792
 20
-129.171443652603
 30
0.0
 10
107.2220512969792
 20
-129.1145995770964
 30
0.0
 10
107.2006917049707
 20
-128.9426893123824
 30
0.0
 10
106.964013645134
 20
-128.9426893123824
 30
0.0
 10
106.7862467180951
 20
-128.9426893123824
 30
0.0
 10
106.7311251903311
 20
-129.0560329538471
 30
0.0
 10
106.7311251903311
 20
-129.1514620987885
 30
0.0
 10
106.7311251903311
 20
-129.3802164390091
 30
0.0
 10
106.964013645134
 20
-129.3874511395281
 30
0.0
 10
107.0356716312272
 20
-129.3912407445619
 30
0.0
 10
107.0356716312272
 20
-129.3912407445619
 30
0.0
 10
107.0356716312272
 20
-129.5669406143097
 30
0.0
 10
107.0356716312272
 20
-129.5669406143097
 30
0.0
 10
106.9109591746612
 20
-129.5593614042421
 30
0.0
 10
106.5344102381233
 20
-129.5355902453939
 30
0.0
 10
106.5344102381233
 20
-129.1404377932357
 30
0.0
 10
106.5344102381233
 20
-128.9464789174162
 30
0.0
 10
106.6615342615291
 20
-128.73770613101
 30
0.0
 10
106.957467963712
 20
-128.73770613101
 30
0.0
 10
107.143847629464
 20
-128.73770613101
 30
0.0
 10
107.2261854115615
 20
-128.8200439131075
 30
0.0
 10
107.287508111199
 20
-128.9061713002388
 30
0.0
 10
107.315068875081
 20
-128.8531168297659
 30
0.0
 10
107.3953395998873
 20
-128.69567596609
 30
0.0
 10
107.6726697864499
 20
-128.69567596609
 30
0.0
 10
108.0109781631014
 20
-128.69567596609
 30
0.0
 10
108.178065294136
 20
-128.909616395724
 30
0.0
 10
108.178065294136
 20
-129.1493950414974
 30
0.0
  0
HATCH
  5
B1
330
A2
100
AcDbEntity
  8
_U+30EC_U+30A4_U+30E4_U+30FC 1
 62
   179
420
  2234388
100
AcDbHatch
 10
0.0
 20
0.0
 30
0.0
210
0.0
220
0.0
230
1.0
  2
SOLID
 70
     1
 71
     0
 91
        1
 92
        1
 93
        1
 72
     4
 94
        3
 73
     0
 74
     1
 95
       62
 96
       58
 40
0.0
 40
0.0
 40
0.0
 40
0.0
 40
1.0
 40
1.0
 40
1.0
 40
2.0
 40
2.0
 40
2.0
 40
3.0
 40
3.0
 40
3.0
 40
4.0
 40
4.0
 40
4.0
 40
5.0
 40
5.0
 40
5.0
 40
6.0
 40
6.0
 40
6.0
 40
7.0
 40
7.0
 40
7.0
 40
8.0
 40
8.0
 40
8.0
 40
9.0
 40
9.0
 40
9.0
 40
10.0
 40
10.0
 40
10.0
 40
11.0
 40
11.0
 40
11.0
 40
12.0
 40
12.0
 40
12.0
 40
13.0
 40
13.0
 40
13.0
 40
14.0
 40
14.0
 40
14.0
 40
15.0
 40
15.0
 40
15.0
 40
16.0
 40
16.0
 40
16.0
 40
17.0
 40
17.0
 40
17.0
 40
18.0
 40
18.0
 40
18.0
 40
19.0
 40
19.0
 40
19.0
 40
19.0
 10
108.178065294136
 20
-129.1493950414974
 10
108.178065294136
 20
-129.2317328235949
 10
108.157050211676
 20
-129.4205240561865
 10
107.9710150554725
 20
-129.5283555448749
 10
107.8587049426534
 20
-129.5924343209005
 10
107.7594861926782
 20
-129.5962239259343
 10
107.674736843741
 20
-129.5996690214195
 10
107.674736843741
 20
-129.5996690214195
 10
107.674736843741
 20
-129.4094997506337
 10
107.674736843741
 20
-129.4094997506337
 10
107.7488063966739
 20
-129.4074326933426
 10
107.9834173992194
 20
-129.3984754450809
 10
107.9834173992194
 20
-129.1531846465311
 10
107.9834173992194
 20
-129.03432885229
 10
107.9138264704174
 20
-128.902381695205
 10
107.6854166397453
 20
-128.902381695205
 10
107.5689724123439
 20
-128.902381695205
 10
107.5203965660018
 20
-128.9354546118634
 10
107.4887016875376
 20
-128.9626708661968
 10
107.4146321346047
 20
-129.0267496422225
 10
107.4018852813093
 20
-129.1276909399403
 10
107.4018852813093
 20
-129.1752332576368
 10
107.4018852813093
 20
-129.191769715966
 10
107.4039523386004
 20
-129.2227755753332
 10
107.4080864531827
 20
-129.2465467341814
 10
107.4080864531827
 20
-129.2465467341814
 10
107.2134385582661
 20
-129.2465467341814
 10
107.2134385582661
 20
-129.2465467341814
 10
107.2199842396881
 20
-129.213473817523
 10
107.2220512969792
 20
-129.1769558053794
 10
107.2220512969792
 20
-129.171443652603
 10
107.2220512969792
 20
-129.1145995770964
 10
107.2006917049707
 20
-128.9426893123824
 10
106.964013645134
 20
-128.9426893123824
 10
106.7862467180951
 20
-128.9426893123824
 10
106.7311251903311
 20
-129.0560329538471
 10
106.7311251903311
 20
-129.1514620987885
 10
106.7311251903311
 20
-129.3802164390091
 10
106.964013645134
 20
-129.3874511395281
 10
107.0356716312272
 20
-129.3912407445619
 10
107.0356716312272
 20
-129.3912407445619
 10
107.0356716312272
 20
-129.5669406143097
 10
107.0356716312272
 20
-129.5669406143097
 10
106.9109591746612
 20
-129.5593614042421
 10
106.5344102381233
 20
-129.5355902453939
 10
106.5344102381233
 20
-129.1404377932357
 10
106.5344102381233
 20
-128.9464789174162
 10
106.6615342615291
 20
-128.73770613101
 10
106.957467963712
 20
-128.73770613101
 10
107.143847629464
 20
-128.73770613101
 10
107.2261854115615
 20
-128.8200439131075
 10
107.287508111199
 20
-128.9061713002388
 10
107.315068875081
 20
-128.8531168297659
 10
107.3953395998873
 20
-128.69567596609
 10
107.6726697864499
 20
-128.69567596609
 10
108.0109781631014
 20
-128.69567596609
 10
108.178065294136
 20
-128.909616395724
 10
108.178065294136
 20
-129.1493950414974
 97
        0
 97
        0
 75
     2
 76
     1
 98
        0
  0
ENDBLK
  5
A5
330
A2
100
AcDbEntity
  8
0
100
AcDbBlockEnd
  0
BLOCK
  5
BC
330
BA
100
AcDbEntity
  8
0
100
AcDbBlockBegin
  2
block 5
 70
     0
 10
0.0
 20
0.0
 30
0.0
  3
block 5
  1

  0
SPLINE
  5
BE
330
BA
100
AcDbEntity
  8
_U+30EC_U+30A4_U+30E4_U+30FC 1
370
     0
100
AcDbSpline
210
0.0
220
0.0
230
1.0
 70
    11
 71
     3
 72
    44
 73
    40
 74
     0
 42
0.0000000001
 43
0.0000000001
 12
1.0
 22
0.0
 32
0.0
 13
1.0
 23
0.0
 33
0.0
 40
0.0
 40
0.0
 40
0.0
 40
0.0
 40
1.0
 40
1.0
 40
1.0
 40
2.0
 40
2.0
 40
2.0
 40
3.0
 40
3.0
 40
3.0
 40
4.0
 40
4.0
 40
4.0
 40
5.0
 40
5.0
 40
5.0
 40
6.0
 40
6.0
 40
6.0
 40
7.0
 40
7.0
 40
7.0
 40
8.0
 40
8.0
 40
8.0
 40
9.0
 40
9.0
 40
9.0
 40
10.0
 40
10.0
 40
10.0
 40
11.0
 40
11.0
 40
11.0
 40
12.0
 40
12.0
 40
12.0
 40
13.0
 40
13.0
 40
13.0
 40
13.0
 10
84.36056991163555
 20
-128.800062359293
 30
0.0
 10
84.34024384827258
 20
-128.7556206275333
 30
0.0
 10
84.32198484220076
 20
-128.702910666609
 30
0.0
 10
84.32026229445813
 20
-128.4720892690973
 30
0.0
 10
84.31647268942436
 20
-128.2288655278386
 30
0.0
 10
84.26548527624266
 20
-128.1589300894881
 30
0.0
 10
84.11148950805199
 20
-128.1589300894881
 30
0.0
 10
84.11148950805199
 20
-128.1589300894881
 30
0.0
 10
83.75836722081388
 20
-128.1589300894881
 30
0.0
 10
83.75836722081388
 20
-128.1589300894881
 30
0.0
 10
83.75836722081388
 20
-128.1589300894881
 30
0.0
 10
83.75836722081388
 20
-128.800062359293
 30
0.0
 10
83.75836722081388
 20
-128.800062359293
 30
0.0
 10
83.75836722081388
 20
-128.800062359293
 30
0.0
 10
83.55510658718414
 20
-128.800062359293
 30
0.0
 10
83.55510658718414
 20
-128.800062359293
 30
0.0
 10
83.55510658718414
 20
-128.800062359293
 30
0.0
 10
83.55510658718414
 20
-127.2556260532555
 30
0.0
 10
83.55510658718414
 20
-127.2556260532555
 30
0.0
 10
83.55510658718414
 20
-127.2556260532555
 30
0.0
 10
84.139050271934
 20
-127.2556260532555
 30
0.0
 10
84.139050271934
 20
-127.2556260532555
 30
0.0
 10
84.40432262429823
 20
-127.2556260532555
 30
0.0
 10
84.54901663467872
 20
-127.427191808421
 30
0.0
 10
84.54901663467872
 20
-127.683162402975
 30
0.0
 10
84.54901663467872
 20
-127.7338053066082
 30
0.0
 10
84.5417819341597
 20
-127.8164875982542
 30
0.0
 10
84.5031968647249
 20
-127.8967583230605
 30
0.0
 10
84.45186494199467
 20
-128.0004556971666
 30
0.0
 10
84.39536537603658
 20
-128.0194037223354
 30
0.0
 10
84.34231090556374
 20
-128.0362846902132
 30
0.0
 10
84.46116669980485
 20
-128.0786593646817
 30
0.0
 10
84.5197333230541
 20
-128.1272352110238
 30
0.0
 10
84.52352292808787
 20
-128.4424614479241
 30
0.0
 10
84.52696802357312
 20
-128.7132459530648
 30
0.0
 10
84.5583183924889
 20
-128.744940831529
 30
0.0
 10
84.61688501573815
 20
-128.800062359293
 30
0.0
 10
84.61688501573815
 20
-128.800062359293
 30
0.0
 10
84.36056991163555
 20
-128.800062359293
 30
0.0
 10
84.36056991163555
 20
-128.800062359293
 30
0.0
  0
SPLINE
  5
BF
330
BA
100
AcDbEntity
  8
_U+30EC_U+30A4_U+30E4_U+30FC 1
370
     0
100
AcDbSpline
210
0.0
220
0.0
230
1.0
 70
    11
 71
     3
 72
    20
 73
    16
 74
     0
 42
0.0000000001
 43
0.0000000001
 12
1.0
 22
0.0
 32
0.0
 13
1.0
 23
0.0
 33
0.0
 40
0.0
 40
0.0
 40
0.0
 40
0.0
 40
1.0
 40
1.0
 40
1.0
 40
2.0
 40
2.0
 40
2.0
 40
3.0
 40
3.0
 40
3.0
 40
4.0
 40
4.0
 40
4.0
 40
5.0
 40
5.0
 40
5.0
 40
5.0
 10
84.14283987696777
 20
-127.4671549160499
 30
0.0
 10
84.14283987696777
 20
-127.4671549160499
 30
0.0
 10
83.75836722081388
 20
-127.4671549160499
 30
0.0
 10
83.75836722081388
 20
-127.4671549160499
 30
0.0
 10
83.75836722081388
 20
-127.4671549160499
 30
0.0
 10
83.75836722081388
 20
-127.9474012266937
 30
0.0
 10
83.75836722081388
 20
-127.9474012266937
 30
0.0
 10
83.75836722081388
 20
-127.9474012266937
 30
0.0
 10
84.14077281967661
 20
-127.9474012266937
 30
0.0
 10
84.14077281967661
 20
-127.9474012266937
 30
0.0
 10
84.22690020680787
 20
-127.9474012266937
 30
0.0
 10
84.34403345330635
 20
-127.8712646164697
 30
0.0
 10
84.34403345330635
 20
-127.7000433708528
 30
0.0
 10
84.34403345330635
 20
-127.6218397033376
 30
0.0
 10
84.31475014168173
 20
-127.4671549160499
 30
0.0
 10
84.14283987696777
 20
-127.4671549160499
 30
0.0
  0
HATCH
  5
C0
330
BA
100
AcDbEntity
  8
_U+30EC_U+30A4_U+30E4_U+30FC 1
 62
   179
420
  2234388
100
AcDbHatch
 10
0.0
 20
0.0
 30
0.0
210
0.0
220
0.0
230
1.0
  2
SOLID
 70
     1
 71
     0
 91
        2
 92
        1
 93
        1
 72
     4
 94
        3
 73
     0
 74
     1
 95
       44
 96
       40
 40
0.0
 40
0.0
 40
0.0
 40
0.0
 40
1.0
 40
1.0
 40
1.0
 40
2.0
 40
2.0
 40
2.0
 40
3.0
 40
3.0
 40
3.0
 40
4.0
 40
4.0
 40
4.0
 40
5.0
 40
5.0
 40
5.0
 40
6.0
 40
6.0
 40
6.0
 40
7.0
 40
7.0
 40
7.0
 40
8.0
 40
8.0
 40
8.0
 40
9.0
 40
9.0
 40
9.0
 40
10.0
 40
10.0
 40
10.0
 40
11.0
 40
11.0
 40
11.0
 40
12.0
 40
12.0
 40
12.0
 40
13.0
 40
13.0
 40
13.0
 40
13.0
 10
84.36056991163555
 20
-128.800062359293
 10
84.34024384827258
 20
-128.7556206275333
 10
84.32198484220076
 20
-128.702910666609
 10
84.32026229445813
 20
-128.4720892690973
 10
84.31647268942436
 20
-128.2288655278386
 10
84.26548527624266
 20
-128.1589300894881
 10
84.11148950805199
 20
-128.1589300894881
 10
84.11148950805199
 20
-128.1589300894881
 10
83.75836722081388
 20
-128.1589300894881
 10
83.75836722081388
 20
-128.1589300894881
 10
83.75836722081388
 20
-128.1589300894881
 10
83.75836722081388
 20
-128.800062359293
 10
83.75836722081388
 20
-128.800062359293
 10
83.75836722081388
 20
-128.800062359293
 10
83.55510658718414
 20
-128.800062359293
 10
83.55510658718414
 20
-128.800062359293
 10
83.55510658718414
 20
-128.800062359293
 10
83.55510658718414
 20
-127.2556260532555
 10
83.55510658718414
 20
-127.2556260532555
 10
83.55510658718414
 20
-127.2556260532555
 10
84.139050271934
 20
-127.2556260532555
 10
84.139050271934
 20
-127.2556260532555
 10
84.40432262429823
 20
-127.2556260532555
 10
84.54901663467872
 20
-127.427191808421
 10
84.54901663467872
 20
-127.683162402975
 10
84.54901663467872
 20
-127.7338053066082
 10
84.5417819341597
 20
-127.8164875982542
 10
84.5031968647249
 20
-127.8967583230605
 10
84.45186494199467
 20
-128.0004556971666
 10
84.39536537603658
 20
-128.0194037223354
 10
84.34231090556374
 20
-128.0362846902132
 10
84.46116669980485
 20
-128.0786593646817
 10
84.5197333230541
 20
-128.1272352110238
 10
84.52352292808787
 20
-128.4424614479241
 10
84.52696802357312
 20
-128.7132459530648
 10
84.5583183924889
 20
-128.744940831529
 10
84.61688501573815
 20
-128.800062359293
 10
84.61688501573815
 20
-128.800062359293
 10
84.36056991163555
 20
-128.800062359293
 10
84.36056991163555
 20
-128.800062359293
 97
        0
 97
        0
 92
        1
 93
        1
 72
     4
 94
        3
 73
     0
 74
     1
 95
       20
 96
       16
 40
0.0
 40
0.0
 40
0.0
 40
0.0
 40
1.0
 40
1.0
 40
1.0
 40
2.0
 40
2.0
 40
2.0
 40
3.0
 40
3.0
 40
3.0
 40
4.0
 40
4.0
 40
4.0
 40
5.0
 40
5.0
 40
5.0
 40
5.0
 10
84.14283987696777
 20
-127.4671549160499
 10
84.14283987696777
 20
-127.4671549160499
 10
83.75836722081388
 20
-127.4671549160499
 10
83.75836722081388
 20
-127.4671549160499
 10
83.75836722081388
 20
-127.4671549160499
 10
83.75836722081388
 20
-127.9474012266937
 10
83.75836722081388
 20
-127.9474012266937
 10
83.75836722081388
 20
-127.9474012266937
 10
84.14077281967661
 20
-127.9474012266937
 10
84.14077281967661
 20
-127.9474012266937
 10
84.22690020680787
 20
-127.9474012266937
 10
84.34403345330635
 20
-127.8712646164697
 10
84.34403345330635
 20
-127.7000433708528
 10
84.34403345330635
 20
-127.6218397033376
 10
84.31475014168173
 20
-127.4671549160499
 10
84.14283987696777
 20
-127.4671549160499
 97
        0
 97
        0
 75
     2
 76
     1
 98
        0
  0
SPLINE
  5
C1
330
BA
100
AcDbEntity
  8
_U+30EC_U+30A4_U+30E4_U+30FC 1
370
     0
100
AcDbSpline
210
0.0
220
0.0
230
1.0
 70
    11
 71
     3
 72
    53
 73
    49
 74
     0
 42
0.0000000001
 43
0.0000000001
 12
1.0
 22
0.0
 32
0.0
 13
1.0
 23
0.0
 33
0.0
 40
0.0
 40
0.0
 40
0.0
 40
0.0
 40
1.0
 40
1.0
 40
1.0
 40
2.0
 40
2.0
 40
2.0
 40
3.0
 40
3.0
 40
3.0
 40
4.0
 40
4.0
 40
4.0
 40
5.0
 40
5.0
 40
5.0
 40
6.0
 40
6.0
 40
6.0
 40
7.0
 40
7.0
 40
7.0
 40
8.0
 40
8.0
 40
8.0
 40
9.0
 40
9.0
 40
9.0
 40
10.0
 40
10.0
 40
10.0
 40
11.0
 40
11.0
 40
11.0
 40
12.0
 40
12.0
 40
12.0
 40
13.0
 40
13.0
 40
13.0
 40
14.0
 40
14.0
 40
14.0
 40
15.0
 40
15.0
 40
15.0
 40
16.0
 40
16.0
 40
16.0
 40
16.0
 10
85.29901392181762
 20
-127.2111843214958
 30
0.0
 10
85.24044729856837
 20
-127.3638020514924
 30
0.0
 10
85.20392928642471
 20
-127.4420057190076
 30
0.0
 10
85.17085636976631
 20
-127.5095295905185
 30
0.0
 10
85.20737438190997
 20
-127.530889182527
 30
0.0
 10
85.21116398694375
 20
-127.5329562398182
 30
0.0
 10
85.21116398694375
 20
-127.5477701504047
 30
0.0
 10
85.21116398694375
 20
-127.5605170037002
 30
0.0
 10
85.18188067531912
 20
-127.5942789394556
 30
0.0
 10
85.17257891750894
 20
-127.6025471686202
 30
0.0
 10
85.17085636976631
 20
-127.799262120828
 30
0.0
 10
85.17085636976631
 20
-127.8206217128365
 30
0.0
 10
85.17085636976631
 20
-127.9539469081157
 30
0.0
 10
85.1691338220237
 20
-127.9666937614111
 30
0.0
 10
85.1691338220237
 20
-127.9815076719977
 30
0.0
 10
85.1691338220237
 20
-127.9963215825843
 30
0.0
 10
85.1691338220237
 20
-127.9963215825843
 30
0.0
 10
85.1691338220237
 20
-128.5313449114436
 30
0.0
 10
85.1691338220237
 20
-128.5313449114436
 30
0.0
 10
85.1691338220237
 20
-128.6033474070853
 30
0.0
 10
85.17257891750894
 20
-128.8383029191793
 30
0.0
 10
85.18015812757649
 20
-128.9482014651588
 30
0.0
 10
85.18015812757649
 20
-128.9482014651588
 30
0.0
 10
84.96966279342773
 20
-128.9482014651588
 30
0.0
 10
84.96966279342773
 20
-128.9482014651588
 30
0.0
 10
84.98964434724218
 20
-128.7893825632888
 30
0.0
 10
84.99515650001858
 20
-128.5482258793213
 30
0.0
 10
84.99515650001858
 20
-128.5272107968613
 30
0.0
 10
84.99515650001858
 20
-128.5272107968613
 30
0.0
 10
84.99515650001858
 20
-127.8099419168322
 30
0.0
 10
84.99515650001858
 20
-127.8099419168322
 30
0.0
 10
84.91660832295489
 20
-127.9243190869425
 30
0.0
 10
84.86355385248203
 20
-127.9835747292888
 30
0.0
 10
84.82669133078986
 20
-128.0259494037574
 30
0.0
 10
84.82669133078986
 20
-128.0259494037574
 30
0.0
 10
84.66201576659492
 20
-127.8881455843474
 30
0.0
 10
84.66201576659492
 20
-127.8881455843474
 30
0.0
 10
84.90558401740208
 20
-127.6724826069708
 30
0.0
 10
85.07198212933964
 20
-127.3638020514924
 30
0.0
 10
85.1691338220237
 20
-127.0272162225835
 30
0.0
 10
85.1691338220237
 20
-127.0272162225835
 30
0.0
 10
85.35930309280948
 20
-127.1415933926938
 30
0.0
 10
85.35930309280948
 20
-127.1415933926938
 30
0.0
 10
85.37032739836228
 20
-127.1477945645672
 30
0.0
 10
85.37790660842984
 20
-127.1519286791495
 30
0.0
 10
85.37790660842984
 20
-127.1667425897361
 30
0.0
 10
85.37790660842984
 20
-127.192236296327
 30
0.0
 10
85.36309269784326
 20
-127.1963704109093
 30
0.0
 10
85.29901392181762
 20
-127.2111843214958
 30
0.0
  0
SPLINE
  5
C2
330
BA
100
AcDbEntity
  8
_U+30EC_U+30A4_U+30E4_U+30FC 1
370
     0
100
AcDbSpline
210
0.0
220
0.0
230
1.0
 70
    11
 71
     3
 72
    77
 73
    73
 74
     0
 42
0.0000000001
 43
0.0000000001
 12
1.0
 22
0.0
 32
0.0
 13
1.0
 23
0.0
 33
0.0
 40
0.0
 40
0.0
 40
0.0
 40
0.0
 40
1.0
 40
1.0
 40
1.0
 40
2.0
 40
2.0
 40
2.0
 40
3.0
 40
3.0
 40
3.0
 40
4.0
 40
4.0
 40
4.0
 40
5.0
 40
5.0
 40
5.0
 40
6.0
 40
6.0
 40
6.0
 40
7.0
 40
7.0
 40
7.0
 40
8.0
 40
8.0
 40
8.0
 40
9.0
 40
9.0
 40
9.0
 40
10.0
 40
10.0
 40
10.0
 40
11.0
 40
11.0
 40
11.0
 40
12.0
 40
12.0
 40
12.0
 40
13.0
 40
13.0
 40
13.0
 40
14.0
 40
14.0
 40
14.0
 40
15.0
 40
15.0
 40
15.0
 40
16.0
 40
16.0
 40
16.0
 40
17.0
 40
17.0
 40
17.0
 40
18.0
 40
18.0
 40
18.0
 40
19.0
 40
19.0
 40
19.0
 40
20.0
 40
20.0
 40
20.0
 40
21.0
 40
21.0
 40
21.0
 40
22.0
 40
22.0
 40
22.0
 40
23.0
 40
23.0
 40
23.0
 40
24.0
 40
24.0
 40
24.0
 40
24.0
 10
86.29464651705482
 20
-127.7107231668571
 30
0.0
 10
86.23435734606294
 20
-127.7062445427262
 30
0.0
 10
86.1757907228137
 20
-127.7062445427262
 30
0.0
 10
86.11722409956445
 20
-127.7062445427262
 30
0.0
 10
86.11722409956445
 20
-127.7062445427262
 30
0.0
 10
86.11722409956445
 20
-128.4807020078104
 30
0.0
 10
86.11722409956445
 20
-128.4807020078104
 30
0.0
 10
86.11722409956445
 20
-128.744940831529
 30
0.0
 10
86.1151570422733
 20
-128.7745686527022
 30
0.0
 10
86.10964488949689
 20
-128.8041964738754
 30
0.0
 10
86.0807060874208
 20
-128.9375216691545
 30
0.0
 10
85.99251164299841
 20
-128.9461344078676
 30
0.0
 10
85.84092744164741
 20
-128.9461344078676
 30
0.0
 10
85.8061319772464
 20
-128.9461344078676
 30
0.0
 10
85.79131806665981
 20
-128.9461344078676
 30
0.0
 10
85.75652260225878
 20
-128.9416557837368
 30
0.0
 10
85.75652260225878
 20
-128.9416557837368
 30
0.0
 10
85.64869111357046
 20
-128.7004990997693
 30
0.0
 10
85.64869111357046
 20
-128.7004990997693
 30
0.0
 10
85.74928790173976
 20
-128.7325384877821
 30
0.0
 10
85.82060137828444
 20
-128.7325384877821
 30
0.0
 10
85.84092744164741
 20
-128.7325384877821
 30
0.0
 10
85.90121661263929
 20
-128.7325384877821
 30
0.0
 10
85.93049992426391
 20
-128.7153130103559
 30
0.0
 10
85.93394501974916
 20
-128.6584689348493
 30
0.0
 10
85.93394501974916
 20
-128.6457220815539
 30
0.0
 10
85.9360120770403
 20
-128.5482258793213
 30
0.0
 10
85.9360120770403
 20
-128.4910372942661
 30
0.0
 10
85.9360120770403
 20
-128.4910372942661
 30
0.0
 10
85.9360120770403
 20
-127.7041774854351
 30
0.0
 10
85.9360120770403
 20
-127.7041774854351
 30
0.0
 10
85.9360120770403
 20
-127.7041774854351
 30
0.0
 10
85.68141952068035
 20
-127.7041774854351
 30
0.0
 10
85.68141952068035
 20
-127.7041774854351
 30
0.0
 10
85.5553290259202
 20
-127.7041774854351
 30
0.0
 10
85.42889402161153
 20
-127.7107231668571
 30
0.0
 10
85.30452607459401
 20
-127.7231255106039
 30
0.0
 10
85.30452607459401
 20
-127.7231255106039
 30
0.0
 10
85.30452607459401
 20
-127.5160752719404
 30
0.0
 10
85.30452607459401
 20
-127.5160752719404
 30
0.0
 10
85.43440617438793
 20
-127.5284776156873
 30
0.0
 10
85.6228528974311
 20
-127.5329562398182
 30
0.0
 10
85.68141952068035
 20
-127.5329562398182
 30
0.0
 10
85.68141952068035
 20
-127.5329562398182
 30
0.0
 10
85.9360120770403
 20
-127.5329562398182
 30
0.0
 10
85.9360120770403
 20
-127.5329562398182
 30
0.0
 10
85.93394501974916
 20
-127.2642387919687
 30
0.0
 10
85.93394501974916
 20
-127.1881021817447
 30
0.0
 10
85.92671031923012
 20
-127.0399630758789
 30
0.0
 10
85.92671031923012
 20
-127.0399630758789
 30
0.0
 10
86.14995250667432
 20
-127.0782036357652
 30
0.0
 10
86.14995250667432
 20
-127.0782036357652
 30
0.0
 10
86.16304386951828
 20
-127.0802706930563
 30
0.0
 10
86.1757907228137
 20
-127.0864718649298
 30
0.0
 10
86.1757907228137
 20
-127.1078314569383
 30
0.0
 10
86.1757907228137
 20
-127.1267794821072
 30
0.0
 10
86.1702785700373
 20
-127.1288465393984
 30
0.0
 10
86.1206691950497
 20
-127.1626084751538
 30
0.0
 10
86.11722409956445
 20
-127.240812142669
 30
0.0
 10
86.11722409956445
 20
-127.2556260532555
 30
0.0
 10
86.11722409956445
 20
-127.5329562398182
 30
0.0
 10
86.2708753582066
 20
-127.5284776156873
 30
0.0
 10
86.2874118165358
 20
-127.5284776156873
 30
0.0
 10
86.31669512816042
 20
-127.524343501105
 30
0.0
 10
86.36044784082308
 20
-127.5202093865227
 30
0.0
 10
86.36423744585686
 20
-127.5181423292316
 30
0.0
 10
86.40247800574313
 20
-127.5160752719404
 30
0.0
 10
86.40247800574313
 20
-127.5160752719404
 30
0.0
 10
86.40247800574313
 20
-127.7231255106039
 30
0.0
 10
86.40247800574313
 20
-127.7231255106039
 30
0.0
 10
86.37698429915228
 20
-127.7210584533128
 30
0.0
 10
86.32944198145584
 20
-127.7127902241482
 30
0.0
 10
86.29464651705482
 20
-127.7107231668571
 30
0.0
  0
SPLINE
  5
C3
330
BA
100
AcDbEntity
  8
_U+30EC_U+30A4_U+30E4_U+30FC 1
370
     0
100
AcDbSpline
210
0.0
220
0.0
230
1.0
 70
    11
 71
     3
 72
    20
 73
    16
 74
     0
 42
0.0000000001
 43
0.0000000001
 12
1.0
 22
0.0
 32
0.0
 13
1.0
 23
0.0
 33
0.0
 40
0.0
 40
0.0
 40
0.0
 40
0.0
 40
1.0
 40
1.0
 40
1.0
 40
2.0
 40
2.0
 40
2.0
 40
3.0
 40
3.0
 40
3.0
 40
4.0
 40
4.0
 40
4.0
 40
5.0
 40
5.0
 40
5.0
 40
5.0
 10
85.62836505020749
 20
-128.4362602760507
 30
0.0
 10
85.58805743303007
 20
-128.2584933490118
 30
0.0
 10
85.50399710318997
 20
-128.116899924568
 30
0.0
 10
85.3830742516577
 20
-128.00665686904
 30
0.0
 10
85.3830742516577
 20
-128.00665686904
 30
0.0
 10
85.5222561092618
 20
-127.8926242084782
 30
0.0
 10
85.5222561092618
 20
-127.8926242084782
 30
0.0
 10
85.57531057973465
 20
-127.9346543733983
 30
0.0
 10
85.61010604413568
 20
-127.9687608187023
 30
0.0
 10
85.67590736790395
 20
-128.0765923073906
 30
0.0
 10
85.74549829670599
 20
-128.193036534792
 30
0.0
 10
85.76375730277782
 20
-128.2457464957164
 30
0.0
 10
85.78580591388341
 20
-128.3115478194846
 30
0.0
 10
85.78580591388341
 20
-128.3115478194846
 30
0.0
 10
85.62836505020749
 20
-128.4362602760507
 30
0.0
 10
85.62836505020749
 20
-128.4362602760507
 30
0.0
  0
HATCH
  5
C4
330
BA
100
AcDbEntity
  8
_U+30EC_U+30A4_U+30E4_U+30FC 1
 62
   179
420
  2234388
100
AcDbHatch
 10
0.0
 20
0.0
 30
0.0
210
0.0
220
0.0
230
1.0
  2
SOLID
 70
     1
 71
     0
 91
        3
 92
        1
 93
        1
 72
     4
 94
        3
 73
     0
 74
     1
 95
       53
 96
       49
 40
0.0
 40
0.0
 40
0.0
 40
0.0
 40
1.0
 40
1.0
 40
1.0
 40
2.0
 40
2.0
 40
2.0
 40
3.0
 40
3.0
 40
3.0
 40
4.0
 40
4.0
 40
4.0
 40
5.0
 40
5.0
 40
5.0
 40
6.0
 40
6.0
 40
6.0
 40
7.0
 40
7.0
 40
7.0
 40
8.0
 40
8.0
 40
8.0
 40
9.0
 40
9.0
 40
9.0
 40
10.0
 40
10.0
 40
10.0
 40
11.0
 40
11.0
 40
11.0
 40
12.0
 40
12.0
 40
12.0
 40
13.0
 40
13.0
 40
13.0
 40
14.0
 40
14.0
 40
14.0
 40
15.0
 40
15.0
 40
15.0
 40
16.0
 40
16.0
 40
16.0
 40
16.0
 10
85.29901392181762
 20
-127.2111843214958
 10
85.24044729856837
 20
-127.3638020514924
 10
85.20392928642471
 20
-127.4420057190076
 10
85.17085636976631
 20
-127.5095295905185
 10
85.20737438190997
 20
-127.530889182527
 10
85.21116398694375
 20
-127.5329562398182
 10
85.21116398694375
 20
-127.5477701504047
 10
85.21116398694375
 20
-127.5605170037002
 10
85.18188067531912
 20
-127.5942789394556
 10
85.17257891750894
 20
-127.6025471686202
 10
85.17085636976631
 20
-127.799262120828
 10
85.17085636976631
 20
-127.8206217128365
 10
85.17085636976631
 20
-127.9539469081157
 10
85.1691338220237
 20
-127.9666937614111
 10
85.1691338220237
 20
-127.9815076719977
 10
85.1691338220237
 20
-127.9963215825843
 10
85.1691338220237
 20
-127.9963215825843
 10
85.1691338220237
 20
-128.5313449114436
 10
85.1691338220237
 20
-128.5313449114436
 10
85.1691338220237
 20
-128.6033474070853
 10
85.17257891750894
 20
-128.8383029191793
 10
85.18015812757649
 20
-128.9482014651588
 10
85.18015812757649
 20
-128.9482014651588
 10
84.96966279342773
 20
-128.9482014651588
 10
84.96966279342773
 20
-128.9482014651588
 10
84.98964434724218
 20
-128.7893825632888
 10
84.99515650001858
 20
-128.5482258793213
 10
84.99515650001858
 20
-128.5272107968613
 10
84.99515650001858
 20
-128.5272107968613
 10
84.99515650001858
 20
-127.8099419168322
 10
84.99515650001858
 20
-127.8099419168322
 10
84.91660832295489
 20
-127.9243190869425
 10
84.86355385248203
 20
-127.9835747292888
 10
84.82669133078986
 20
-128.0259494037574
 10
84.82669133078986
 20
-128.0259494037574
 10
84.66201576659492
 20
-127.8881455843474
 10
84.66201576659492
 20
-127.8881455843474
 10
84.90558401740208
 20
-127.6724826069708
 10
85.07198212933964
 20
-127.3638020514924
 10
85.1691338220237
 20
-127.0272162225835
 10
85.1691338220237
 20
-127.0272162225835
 10
85.35930309280948
 20
-127.1415933926938
 10
85.35930309280948
 20
-127.1415933926938
 10
85.37032739836228
 20
-127.1477945645672
 10
85.37790660842984
 20
-127.1519286791495
 10
85.37790660842984
 20
-127.1667425897361
 10
85.37790660842984
 20
-127.192236296327
 10
85.36309269784326
 20
-127.1963704109093
 10
85.29901392181762
 20
-127.2111843214958
 97
        0
 97
        0
 92
        1
 93
        1
 72
     4
 94
        3
 73
     0
 74
     1
 95
       77
 96
       73
 40
0.0
 40
0.0
 40
0.0
 40
0.0
 40
1.0
 40
1.0
 40
1.0
 40
2.0
 40
2.0
 40
2.0
 40
3.0
 40
3.0
 40
3.0
 40
4.0
 40
4.0
 40
4.0
 40
5.0
 40
5.0
 40
5.0
 40
6.0
 40
6.0
 40
6.0
 40
7.0
 40
7.0
 40
7.0
 40
8.0
 40
8.0
 40
8.0
 40
9.0
 40
9.0
 40
9.0
 40
10.0
 40
10.0
 40
10.0
 40
11.0
 40
11.0
 40
11.0
 40
12.0
 40
12.0
 40
12.0
 40
13.0
 40
13.0
 40
13.0
 40
14.0
 40
14.0
 40
14.0
 40
15.0
 40
15.0
 40
15.0
 40
16.0
 40
16.0
 40
16.0
 40
17.0
 40
17.0
 40
17.0
 40
18.0
 40
18.0
 40
18.0
 40
19.0
 40
19.0
 40
19.0
 40
20.0
 40
20.0
 40
20.0
 40
21.0
 40
21.0
 40
21.0
 40
22.0
 40
22.0
 40
22.0
 40
23.0
 40
23.0
 40
23.0
 40
24.0
 40
24.0
 40
24.0
 40
24.0
 10
86.29464651705482
 20
-127.7107231668571
 10
86.23435734606294
 20
-127.7062445427262
 10
86.1757907228137
 20
-127.7062445427262
 10
86.11722409956445
 20
-127.7062445427262
 10
86.11722409956445
 20
-127.7062445427262
 10
86.11722409956445
 20
-128.4807020078104
 10
86.11722409956445
 20
-128.4807020078104
 10
86.11722409956445
 20
-128.744940831529
 10
86.1151570422733
 20
-128.7745686527022
 10
86.10964488949689
 20
-128.8041964738754
 10
86.0807060874208
 20
-128.9375216691545
 10
85.99251164299841
 20
-128.9461344078676
 10
85.84092744164741
 20
-128.9461344078676
 10
85.8061319772464
 20
-128.9461344078676
 10
85.79131806665981
 20
-128.9461344078676
 10
85.75652260225878
 20
-128.9416557837368
 10
85.75652260225878
 20
-128.9416557837368
 10
85.64869111357046
 20
-128.7004990997693
 10
85.64869111357046
 20
-128.7004990997693
 10
85.74928790173976
 20
-128.7325384877821
 10
85.82060137828444
 20
-128.7325384877821
 10
85.84092744164741
 20
-128.7325384877821
 10
85.90121661263929
 20
-128.7325384877821
 10
85.93049992426391
 20
-128.7153130103559
 10
85.93394501974916
 20
-128.6584689348493
 10
85.93394501974916
 20
-128.6457220815539
 10
85.9360120770403
 20
-128.5482258793213
 10
85.9360120770403
 20
-128.4910372942661
 10
85.9360120770403
 20
-128.4910372942661
 10
85.9360120770403
 20
-127.7041774854351
 10
85.9360120770403
 20
-127.7041774854351
 10
85.9360120770403
 20
-127.7041774854351
 10
85.68141952068035
 20
-127.7041774854351
 10
85.68141952068035
 20
-127.7041774854351
 10
85.5553290259202
 20
-127.7041774854351
 10
85.42889402161153
 20
-127.7107231668571
 10
85.30452607459401
 20
-127.7231255106039
 10
85.30452607459401
 20
-127.7231255106039
 10
85.30452607459401
 20
-127.5160752719404
 10
85.30452607459401
 20
-127.5160752719404
 10
85.43440617438793
 20
-127.5284776156873
 10
85.6228528974311
 20
-127.5329562398182
 10
85.68141952068035
 20
-127.5329562398182
 10
85.68141952068035
 20
-127.5329562398182
 10
85.9360120770403
 20
-127.5329562398182
 10
85.9360120770403
 20
-127.5329562398182
 10
85.93394501974916
 20
-127.2642387919687
 10
85.93394501974916
 20
-127.1881021817447
 10
85.92671031923012
 20
-127.0399630758789
 10
85.92671031923012
 20
-127.0399630758789
 10
86.14995250667432
 20
-127.0782036357652
 10
86.14995250667432
 20
-127.0782036357652
 10
86.16304386951828
 20
-127.0802706930563
 10
86.1757907228137
 20
-127.0864718649298
 10
86.1757907228137
 20
-127.1078314569383
 10
86.1757907228137
 20
-127.1267794821072
 10
86.1702785700373
 20
-127.1288465393984
 10
86.1206691950497
 20
-127.1626084751538
 10
86.11722409956445
 20
-127.240812142669
 10
86.11722409956445
 20
-127.2556260532555
 10
86.11722409956445
 20
-127.5329562398182
 10
86.2708753582066
 20
-127.5284776156873
 10
86.2874118165358
 20
-127.5284776156873
 10
86.31669512816042
 20
-127.524343501105
 10
86.36044784082308
 20
-127.5202093865227
 10
86.36423744585686
 20
-127.5181423292316
 10
86.40247800574313
 20
-127.5160752719404
 10
86.40247800574313
 20
-127.5160752719404
 10
86.40247800574313
 20
-127.7231255106039
 10
86.40247800574313
 20
-127.7231255106039
 10
86.37698429915228
 20
-127.7210584533128
 10
86.32944198145584
 20
-127.7127902241482
 10
86.29464651705482
 20
-127.7107231668571
 97
        0
 97
        0
 92
        1
 93
        1
 72
     4
 94
        3
 73
     0
 74
     1
 95
       20
 96
       16
 40
0.0
 40
0.0
 40
0.0
 40
0.0
 40
1.0
 40
1.0
 40
1.0
 40
2.0
 40
2.0
 40
2.0
 40
3.0
 40
3.0
 40
3.0
 40
4.0
 40
4.0
 40
4.0
 40
5.0
 40
5.0
 40
5.0
 40
5.0
 10
85.62836505020749
 20
-128.4362602760507
 10
85.58805743303007
 20
-128.2584933490118
 10
85.50399710318997
 20
-128.116899924568
 10
85.3830742516577
 20
-128.00665686904
 10
85.3830742516577
 20
-128.00665686904
 10
85.5222561092618
 20
-127.8926242084782
 10
85.5222561092618
 20
-127.8926242084782
 10
85.57531057973465
 20
-127.9346543733983
 10
85.61010604413568
 20
-127.9687608187023
 10
85.67590736790395
 20
-128.0765923073906
 10
85.74549829670599
 20
-128.193036534792
 10
85.76375730277782
 20
-128.2457464957164
 10
85.78580591388341
 20
-128.3115478194846
 10
85.78580591388341
 20
-128.3115478194846
 10
85.62836505020749
 20
-128.4362602760507
 10
85.62836505020749
 20
-128.4362602760507
 97
        0
 97
        0
 75
     2
 76
     1
 98
        0
  0
ENDBLK
  5
BD
330
BA
100
AcDbEntity
  8
0
100
AcDbBlockEnd
  0
ENDSEC
  0
SECTION
  2
ENTITIES
  0
POLYLINE
  5
41
330
1F
100
AcDbEntity
  8
_U+30EC_U+30A4_U+30E4_U+30FC 1
 62
   179
420
  2234388
370
    25
100
AcDb2dPolyline
 66
     1
 10
0.0
 20
0.0
 30
0.0
  0
VERTEX
  5
42
330
41
100
AcDbEntity
  8
_U+30EC_U+30A4_U+30E4_U+30FC 1
 62
   179
420
  2234388
370
    25
100
AcDbVertex
100
AcDb2dVertex
 10
104.7233153838412
 20
-132.7395180223708
 30
0.0
  0
VERTEX
  5
43
330
41
100
AcDbEntity
  8
_U+30EC_U+30A4_U+30E4_U+30FC 1
 62
   179
420
  2234388
370
    25
100
AcDbVertex
100
AcDb2dVertex
 10
104.7233153838412
 20
-134.039363022046
 30
0.0
  0
SEQEND
  5
44
330
41
100
AcDbEntity
  8
_U+30EC_U+30A4_U+30E4_U+30FC 1
 62
   179
420
  2234388
370
    25
  0
POLYLINE
  5
45
330
1F
100
AcDbEntity
  8
_U+30EC_U+30A4_U+30E4_U+30FC 1
 62
   179
420
  2234388
370
    25
100
AcDb2dPolyline
 66
     1
 10
0.0
 20
0.0
 30
0.0
  0
VERTEX
  5
46
330
45
100
AcDbEntity
  8
_U+30EC_U+30A4_U+30E4_U+30FC 1
 62
   179
420
  2234388
370
    25
100
AcDbVertex
100
AcDb2dVertex
 10
78.72352326937337
 20
-134.039363022046
 30
0.0
  0
VERTEX
  5
47
330
45
100
AcDbEntity
  8
_U+30EC_U+30A4_U+30E4_U+30FC 1
 62
   179
420
  2234388
370
    25
100
AcDbVertex
100
AcDb2dVertex
 10
104.7233153838412
 20
-134.039363022046
 30
0.0
  0
SEQEND
  5
48
330
45
100
AcDbEntity
  8
_U+30EC_U+30A4_U+30E4_U+30FC 1
 62
   179
420
  2234388
370
    25
  0
POLYLINE
  5
49
330
1F
100
AcDbEntity
  8
_U+30EC_U+30A4_U+30E4_U+30FC 1
 62
   179
420
  2234388
370
    25
100
AcDb2dPolyline
 66
     1
 10
0.0
 20
0.0
 30
0.0
  0
VERTEX
  5
4A
330
49
100
AcDbEntity
  8
_U+30EC_U+30A4_U+30E4_U+30FC 1
 62
   179
420
  2234388
370
    25
100
AcDbVertex
100
AcDb2dVertex
 10
81.02349321069626
 20
-132.7395180223708
 30
0.0
  0
VERTEX
  5
4B
330
49
100
AcDbEntity
  8
_U+30EC_U+30A4_U+30E4_U+30FC 1
 62
   179
420
  2234388
370
    25
100
AcDbVertex
100
AcDb2dVertex
 10
104.7233153838412
 20
-132.7395180223708
 30
0.0
  0
SEQEND
  5
4C
330
49
100
AcDbEntity
  8
_U+30EC_U+30A4_U+30E4_U+30FC 1
 62
   179
420
  2234388
370
    25
  0
POLYLINE
  5
4D
330
1F
100
AcDbEntity
  8
_U+30EC_U+30A4_U+30E4_U+30FC 1
 62
   179
420
  2234388
370
    25
100
AcDb2dPolyline
 66
     1
 10
0.0
 20
0.0
 30
0.0
  0
VERTEX
  5
4E
330
4D
100
AcDbEntity
  8
_U+30EC_U+30A4_U+30E4_U+30FC 1
 62
   179
420
  2234388
370
    25
100
AcDbVertex
100
AcDb2dVertex
 10
78.72352326937337
 20
-118.0396560816011
 30
0.0
  0
VERTEX
  5
4F
330
4D
100
AcDbEntity
  8
_U+30EC_U+30A4_U+30E4_U+30FC 1
 62
   179
420
  2234388
370
    25
100
AcDbVertex
100
AcDb2dVertex
 10
78.72352326937337
 20
-134.039363022046
 30
0.0
  0
SEQEND
  5
50
330
4D
100
AcDbEntity
  8
_U+30EC_U+30A4_U+30E4_U+30FC 1
 62
   179
420
  2234388
370
    25
  0
POLYLINE
  5
51
330
1F
100
AcDbEntity
  8
_U+30EC_U+30A4_U+30E4_U+30FC 1
 62
   179
420
  2234388
370
    25
100
AcDb2dPolyline
 66
     1
 10
0.0
 20
0.0
 30
0.0
  0
VERTEX
  5
52
330
51
100
AcDbEntity
  8
_U+30EC_U+30A4_U+30E4_U+30FC 1
 62
   179
420
  2234388
370
    25
100
AcDbVertex
100
AcDb2dVertex
 10
78.72352326937337
 20
-118.0396560816011
 30
0.0
  0
VERTEX
  5
53
330
51
100
AcDbEntity
  8
_U+30EC_U+30A4_U+30E4_U+30FC 1
 62
   179
420
  2234388
370
    25
100
AcDbVertex
100
AcDb2dVertex
 10
80.02372101398035
 20
-118.0396560816011
 30
0.0
  0
SEQEND
  5
54
330
51
100
AcDbEntity
  8
_U+30EC_U+30A4_U+30E4_U+30FC 1
 62
   179
420
  2234388
370
    25
  0
POLYLINE
  5
55
330
1F
100
AcDbEntity
  8
_U+30EC_U+30A4_U+30E4_U+30FC 1
 62
   179
420
  2234388
370
    25
100
AcDb2dPolyline
 66
     1
 10
0.0
 20
0.0
 30
0.0
  0
VERTEX
  5
56
330
55
100
AcDbEntity
  8
_U+30EC_U+30A4_U+30E4_U+30FC 1
 62
   179
420
  2234388
370
    25
100
AcDbVertex
100
AcDb2dVertex
 10
80.02372101398035
 20
-118.0396560816011
 30
0.0
  0
VERTEX
  5
57
330
55
100
AcDbEntity
  8
_U+30EC_U+30A4_U+30E4_U+30FC 1
 62
   179
420
  2234388
370
    25
100
AcDbVertex
100
AcDb2dVertex
 10
80.02372101398035
 20
-131.7394283003987
 30
0.0
  0
SEQEND
  5
58
330
55
100
AcDbEntity
  8
_U+30EC_U+30A4_U+30E4_U+30FC 1
 62
   179
420
  2234388
370
    25
  0
POLYLINE
  5
59
330
1F
100
AcDbEntity
  8
_U+30EC_U+30A4_U+30E4_U+30FC 1
 62
   179
420
  2234388
370
     9
100
AcDb2dPolyline
 66
     1
 10
0.0
 20
0.0
 30
0.0
  0
VERTEX
  5
5A
330
59
100
AcDbEntity
  8
_U+30EC_U+30A4_U+30E4_U+30FC 1
 62
   179
420
  2234388
370
     9
100
AcDbVertex
100
AcDb2dVertex
 10
80.31652656206582
 20
-132.4463596891107
 30
0.0
  0
VERTEX
  5
5B
330
59
100
AcDbEntity
  8
_U+30EC_U+30A4_U+30E4_U+30FC 1
 62
   179
420
  2234388
370
     9
100
AcDbVertex
100
AcDb2dVertex
 10
80.81676543819255
 20
-131.5806077448824
 30
0.0
  0
SEQEND
  5
5C
330
59
100
AcDbEntity
  8
_U+30EC_U+30A4_U+30E4_U+30FC 1
 62
   179
420
  2234388
370
     9
  0
POLYLINE
  5
5D
330
1F
100
AcDbEntity
  8
_U+30EC_U+30A4_U+30E4_U+30FC 1
 62
   179
420
  2234388
370
     9
100
AcDb2dPolyline
 66
     1
 10
0.0
 20
0.0
 30
0.0
  0
VERTEX
  5
5E
330
5D
100
AcDbEntity
  8
_U+30EC_U+30A4_U+30E4_U+30FC 1
 62
   179
420
  2234388
370
     9
100
AcDbVertex
100
AcDb2dVertex
 10
80.31652656206582
 20
-132.4463596891107
 30
0.0
  0
VERTEX
  5
5F
330
5D
100
AcDbEntity
  8
_U+30EC_U+30A4_U+30E4_U+30FC 1
 62
   179
420
  2234388
370
     9
100
AcDbVertex
100
AcDb2dVertex
 10
81.18263331303761
 20
-131.9464735781248
 30
0.0
  0
SEQEND
  5
60
330
5D
100
AcDbEntity
  8
_U+30EC_U+30A4_U+30E4_U+30FC 1
 62
   179
420
  2234388
370
     9
  0
SPLINE
  5
61
330
1F
100
AcDbEntity
  8
_U+30EC_U+30A4_U+30E4_U+30FC 1
 62
   179
420
  2234388
370
     9
100
AcDbSpline
210
0.0
220
0.0
230
1.0
 70
    11
 71
     3
 72
    17
 73
    13
 74
     0
 42
0.0000000001
 43
0.0000000001
 12
1.0
 22
0.0
 32
0.0
 13
1.0
 23
0.0
 33
0.0
 40
0.0
 40
0.0
 40
0.0
 40
0.0
 40
1.0
 40
1.0
 40
1.0
 40
2.0
 40
2.0
 40
2.0
 40
3.0
 40
3.0
 40
3.0
 40
4.0
 40
4.0
 40
4.0
 40
4.0
 10
108.8236866681209
 20
-134.039363022046
 30
0.0
 10
108.8236866681209
 20
-133.9842591331705
 30
0.0
 10
108.7788838914861
 20
-133.9394563554037
 30
0.0
 10
108.7237800040031
 20
-133.9394563554037
 30
0.0
 10
108.6686408387431
 20
-133.9394563554037
 30
0.0
 10
108.6238733398852
 20
-133.9842591331705
 30
0.0
 10
108.6238733398852
 20
-134.039363022046
 30
0.0
 10
108.6238733398852
 20
-134.0945021886984
 30
0.0
 10
108.6686408387431
 20
-134.1392696886876
 30
0.0
 10
108.7237800040031
 20
-134.1392696886876
 30
0.0
 10
108.7788838914861
 20
-134.1392696886876
 30
0.0
 10
108.8236866681209
 20
-134.0945021886984
 30
0.0
 10
108.8236866681209
 20
-134.039363022046
 30
0.0
  0
SPLINE
  5
62
330
1F
100
AcDbEntity
  8
_U+30EC_U+30A4_U+30E4_U+30FC 1
 62
   179
420
  2234388
370
     9
100
AcDbSpline
210
0.0
220
0.0
230
1.0
 70
    11
 71
     3
 72
    17
 73
    13
 74
     0
 42
0.0000000001
 43
0.0000000001
 12
1.0
 22
0.0
 32
0.0
 13
1.0
 23
0.0
 33
0.0
 40
0.0
 40
0.0
 40
0.0
 40
0.0
 40
1.0
 40
1.0
 40
1.0
 40
2.0
 40
2.0
 40
2.0
 40
3.0
 40
3.0
 40
3.0
 40
4.0
 40
4.0
 40
4.0
 40
4.0
 10
104.8239276034966
 20
-138.03947496549
 30
0.0
 10
104.8239276034966
 20
-137.984335798837
 30
0.0
 10
104.7791248268618
 20
-137.9395682988484
 30
0.0
 10
104.7233153838412
 20
-137.9395682988484
 30
0.0
 10
104.6682114963581
 20
-137.9395682988484
 30
0.0
 10
104.6234087197234
 20
-137.984335798837
 30
0.0
 10
104.6234087197234
 20
-138.03947496549
 30
0.0
 10
104.6234087197234
 20
-138.0945788543649
 30
0.0
 10
104.6682114963581
 20
-138.1393816321317
 30
0.0
 10
104.7233153838412
 20
-138.1393816321317
 30
0.0
 10
104.7791248268618
 20
-138.1393816321317
 30
0.0
 10
104.8239276034966
 20
-138.0945788543649
 30
0.0
 10
104.8239276034966
 20
-138.03947496549
 30
0.0
  0
SPLINE
  5
63
330
1F
100
AcDbEntity
  8
_U+30EC_U+30A4_U+30E4_U+30FC 1
 62
   179
420
  2234388
370
    25
100
AcDbSpline
210
0.0
220
0.0
230
1.0
 70
     8
 71
     3
 72
     8
 73
     4
 74
     0
 42
0.0000000001
 43
0.0000000001
 12
1.0
 22
0.0
 32
0.0
 13
1.0
 23
0.0
 33
0.0
 40
0.0
 40
0.0
 40
0.0
 40
0.0
 40
1.0
 40
1.0
 40
1.0
 40
1.0
 10
80.02372101398035
 20
-131.7394283003987
 30
0.0
 10
80.02372101398035
 20
-132.2916666335938
 30
0.0
 10
80.4715723914436
 20
-132.7395180223708
 30
0.0
 10
81.02349321069626
 20
-132.7395180223708
 30
0.0
  0
SPLINE
  5
64
330
1F
100
AcDbEntity
  8
_U+30EC_U+30A4_U+30E4_U+30FC 1
 62
   179
420
  2234388
370
     9
100
AcDbSpline
210
0.0
220
0.0
230
1.0
 70
    11
 71
     3
 72
    17
 73
    13
 74
     0
 42
0.0000000001
 43
0.0000000001
 12
1.0
 22
0.0
 32
0.0
 13
1.0
 23
0.0
 33
0.0
 40
0.0
 40
0.0
 40
0.0
 40
0.0
 40
1.0
 40
1.0
 40
1.0
 40
2.0
 40
2.0
 40
2.0
 40
3.0
 40
3.0
 40
3.0
 40
4.0
 40
4.0
 40
4.0
 40
4.0
 10
74.8236708688669
 20
-118.0396560816011
 30
0.0
 10
74.8236708688669
 20
-117.9841994149484
 30
0.0
 10
74.77890337000902
 20
-117.9393966371817
 30
0.0
 10
74.72376420474906
 20
-117.9393966371817
 30
0.0
 10
74.66866031726599
 20
-117.9393966371817
 30
0.0
 10
74.62385754063123
 20
-117.9841994149484
 30
0.0
 10
74.62385754063123
 20
-118.0396560816011
 30
0.0
 10
74.62385754063123
 20
-118.0947599704764
 30
0.0
 10
74.66866031726599
 20
-118.1395627482428
 30
0.0
 10
74.72376420474906
 20
-118.1395627482428
 30
0.0
 10
74.77890337000902
 20
-118.1395627482428
 30
0.0
 10
74.8236708688669
 20
-118.0947599704764
 30
0.0
 10
74.8236708688669
 20
-118.0396560816011
 30
0.0
  0
SPLINE
  5
65
330
1F
100
AcDbEntity
  8
_U+30EC_U+30A4_U+30E4_U+30FC 1
 62
   179
420
  2234388
370
     9
100
AcDbSpline
210
0.0
220
0.0
230
1.0
 70
    11
 71
     3
 72
    17
 73
    13
 74
     0
 42
0.0000000001
 43
0.0000000001
 12
1.0
 22
0.0
 32
0.0
 13
1.0
 23
0.0
 33
0.0
 40
0.0
 40
0.0
 40
0.0
 40
0.0
 40
1.0
 40
1.0
 40
1.0
 40
2.0
 40
2.0
 40
2.0
 40
3.0
 40
3.0
 40
3.0
 40
4.0
 40
4.0
 40
4.0
 40
4.0
 10
74.8236708688669
 20
-134.039363022046
 30
0.0
 10
74.8236708688669
 20
-133.9842591331705
 30
0.0
 10
74.77890337000902
 20
-133.9394563554037
 30
0.0
 10
74.72376420474906
 20
-133.9394563554037
 30
0.0
 10
74.66866031726599
 20
-133.9394563554037
 30
0.0
 10
74.62385754063123
 20
-133.9842591331705
 30
0.0
 10
74.62385754063123
 20
-134.039363022046
 30
0.0
 10
74.62385754063123
 20
-134.0945021886984
 30
0.0
 10
74.66866031726599
 20
-134.1392696886876
 30
0.0
 10
74.72376420474906
 20
-134.1392696886876
 30
0.0
 10
74.77890337000902
 20
-134.1392696886876
 30
0.0
 10
74.8236708688669
 20
-134.0945021886984
 30
0.0
 10
74.8236708688669
 20
-134.039363022046
 30
0.0
  0
SPLINE
  5
66
330
1F
100
AcDbEntity
  8
_U+30EC_U+30A4_U+30E4_U+30FC 1
 62
   179
420
  2234388
370
     9
100
AcDbSpline
210
0.0
220
0.0
230
1.0
 70
    11
 71
     3
 72
    17
 73
    13
 74
     0
 42
0.0000000001
 43
0.0000000001
 12
1.0
 22
0.0
 32
0.0
 13
1.0
 23
0.0
 33
0.0
 40
0.0
 40
0.0
 40
0.0
 40
0.0
 40
1.0
 40
1.0
 40
1.0
 40
2.0
 40
2.0
 40
2.0
 40
3.0
 40
3.0
 40
3.0
 40
4.0
 40
4.0
 40
4.0
 40
4.0
 10
78.82342993349121
 20
-138.03947496549
 30
0.0
 10
78.82342993349121
 20
-137.984335798837
 30
0.0
 10
78.77866243463333
 20
-137.9395682988484
 30
0.0
 10
78.72352326937337
 20
-137.9395682988484
 30
0.0
 10
78.6684193818903
 20
-137.9395682988484
 30
0.0
 10
78.62361660525555
 20
-137.984335798837
 30
0.0
 10
78.62361660525555
 20
-138.03947496549
 30
0.0
 10
78.62361660525555
 20
-138.0945788543649
 30
0.0
 10
78.6684193818903
 20
-138.1393816321317
 30
0.0
 10
78.72352326937337
 20
-138.1393816321317
 30
0.0
 10
78.77866243463333
 20
-138.1393816321317
 30
0.0
 10
78.82342993349121
 20
-138.0945788543649
 30
0.0
 10
78.82342993349121
 20
-138.03947496549
 30
0.0
  0
SPLINE
  5
67
330
1F
100
AcDbEntity
  8
_U+30EC_U+30A4_U+30E4_U+30FC 1
 62
   179
420
  2234388
370
     9
100
AcDbSpline
210
0.0
220
0.0
230
1.0
 70
    11
 71
     3
 72
    17
 73
    13
 74
     0
 42
0.0000000001
 43
0.0000000001
 12
1.0
 22
0.0
 32
0.0
 13
1.0
 23
0.0
 33
0.0
 40
0.0
 40
0.0
 40
0.0
 40
0.0
 40
1.0
 40
1.0
 40
1.0
 40
2.0
 40
2.0
 40
2.0
 40
3.0
 40
3.0
 40
3.0
 40
4.0
 40
4.0
 40
4.0
 40
4.0
 10
108.8236866681209
 20
-132.7395180223708
 30
0.0
 10
108.8236866681209
 20
-132.6840613557181
 30
0.0
 10
108.7788838914861
 20
-132.6392938557289
 30
0.0
 10
108.7237800040031
 20
-132.6392938557289
 30
0.0
 10
108.6686408387431
 20
-132.6392938557289
 30
0.0
 10
108.6238733398852
 20
-132.6840613557181
 30
0.0
 10
108.6238733398852
 20
-132.7395180223708
 30
0.0
 10
108.6238733398852
 20
-132.7946571890239
 30
0.0
 10
108.6686408387431
 20
-132.8394246890124
 30
0.0
 10
108.7237800040031
 20
-132.8394246890124
 30
0.0
 10
108.7788838914861
 20
-132.8394246890124
 30
0.0
 10
108.8236866681209
 20
-132.7946571890239
 30
0.0
 10
108.8236866681209
 20
-132.7395180223708
 30
0.0
  0
POLYLINE
  5
68
330
1F
100
AcDbEntity
  8
_U+30EC_U+30A4_U+30E4_U+30FC 1
 62
   179
420
  2234388
370
     9
100
AcDb2dPolyline
 66
     1
 10
0.0
 20
0.0
 30
0.0
  0
VERTEX
  5
69
330
68
100
AcDbEntity
  8
_U+30EC_U+30A4_U+30E4_U+30FC 1
 62
   179
420
  2234388
370
     9
100
AcDbVertex
100
AcDb2dVertex
 10
78.72352326937337
 20
-138.03947496549
 30
0.0
  0
VERTEX
  5
6A
330
68
100
AcDbEntity
  8
_U+30EC_U+30A4_U+30E4_U+30FC 1
 62
   179
420
  2234388
370
     9
100
AcDbVertex
100
AcDb2dVertex
 10
104.7233153838412
 20
-138.03947496549
 30
0.0
  0
SEQEND
  5
6B
330
68
100
AcDbEntity
  8
_U+30EC_U+30A4_U+30E4_U+30FC 1
 62
   179
420
  2234388
370
     9
  0
POLYLINE
  5
6C
330
1F
100
AcDbEntity
  8
_U+30EC_U+30A4_U+30E4_U+30FC 1
 62
   179
420
  2234388
370
     9
100
AcDb2dPolyline
 66
     1
 10
0.0
 20
0.0
 30
0.0
  0
VERTEX
  5
6D
330
6C
100
AcDbEntity
  8
_U+30EC_U+30A4_U+30E4_U+30FC 1
 62
   179
420
  2234388
370
     9
100
AcDbVertex
100
AcDb2dVertex
 10
78.72352326937337
 20
-136.5794335769663
 30
0.0
  0
VERTEX
  5
6E
330
6C
100
AcDbEntity
  8
_U+30EC_U+30A4_U+30E4_U+30FC 1
 62
   179
420
  2234388
370
     9
100
AcDbVertex
100
AcDb2dVertex
 10
78.72352326937337
 20
-139.0395646874622
 30
0.0
  0
SEQEND
  5
6F
330
6C
100
AcDbEntity
  8
_U+30EC_U+30A4_U+30E4_U+30FC 1
 62
   179
420
  2234388
370
     9
  0
POLYLINE
  5
70
330
1F
100
AcDbEntity
  8
_U+30EC_U+30A4_U+30E4_U+30FC 1
 62
   179
420
  2234388
370
     9
100
AcDb2dPolyline
 66
     1
 10
0.0
 20
0.0
 30
0.0
  0
VERTEX
  5
71
330
70
100
AcDbEntity
  8
_U+30EC_U+30A4_U+30E4_U+30FC 1
 62
   179
420
  2234388
370
     9
100
AcDbVertex
100
AcDb2dVertex
 10
104.7233153838412
 20
-136.5794335769663
 30
0.0
  0
VERTEX
  5
72
330
70
100
AcDbEntity
  8
_U+30EC_U+30A4_U+30E4_U+30FC 1
 62
   179
420
  2234388
370
     9
100
AcDbVertex
100
AcDb2dVertex
 10
104.7233153838412
 20
-139.0395646874622
 30
0.0
  0
SEQEND
  5
73
330
70
100
AcDbEntity
  8
_U+30EC_U+30A4_U+30E4_U+30FC 1
 62
   179
420
  2234388
370
     9
  0
INSERT
  5
75
330
1F
100
AcDbEntity
  8
_U+30EC_U+30A4_U+30E4_U+30FC 1
100
AcDbBlockReference
  2
block 2
 10
0.0
 20
0.0
 30
0.0
  0
POLYLINE
  5
7D
330
1F
100
AcDbEntity
  8
_U+30EC_U+30A4_U+30E4_U+30FC 1
 62
   179
420
  2234388
370
     9
100
AcDb2dPolyline
 66
     1
 10
0.0
 20
0.0
 30
0.0
  0
VERTEX
  5
7E
330
7D
100
AcDbEntity
  8
_U+30EC_U+30A4_U+30E4_U+30FC 1
 62
   179
420
  2234388
370
     9
100
AcDbVertex
100
AcDb2dVertex
 10
74.72376420474906
 20
-118.0396560816011
 30
0.0
  0
VERTEX
  5
7F
330
7D
100
AcDbEntity
  8
_U+30EC_U+30A4_U+30E4_U+30FC 1
 62
   179
420
  2234388
370
     9
100
AcDbVertex
100
AcDb2dVertex
 10
74.72376420474906
 20
-134.039363022046
 30
0.0
  0
SEQEND
  5
80
330
7D
100
AcDbEntity
  8
_U+30EC_U+30A4_U+30E4_U+30FC 1
 62
   179
420
  2234388
370
     9
  0
POLYLINE
  5
81
330
1F
100
AcDbEntity
  8
_U+30EC_U+30A4_U+30E4_U+30FC 1
 62
   179
420
  2234388
370
     9
100
AcDb2dPolyline
 66
     1
 10
0.0
 20
0.0
 30
0.0
  0
VERTEX
  5
82
330
81
100
AcDbEntity
  8
_U+30EC_U+30A4_U+30E4_U+30FC 1
 62
   179
420
  2234388
370
     9
100
AcDbVertex
100
AcDb2dVertex
 10
76.1838055563892
 20
-118.0396560816011
 30
0.0
  0
VERTEX
  5
83
330
81
100
AcDbEntity
  8
_U+30EC_U+30A4_U+30E4_U+30FC 1
 62
   179
420
  2234388
370
     9
100
AcDbVertex
100
AcDb2dVertex
 10
73.72399200803315
 20
-118.0396560816011
 30
0.0
  0
SEQEND
  5
84
330
81
100
AcDbEntity
  8
_U+30EC_U+30A4_U+30E4_U+30FC 1
 62
   179
420
  2234388
370
     9
  0
POLYLINE
  5
85
330
1F
100
AcDbEntity
  8
_U+30EC_U+30A4_U+30E4_U+30FC 1
 62
   179
420
  2234388
370
     9
100
AcDb2dPolyline
 66
     1
 10
0.0
 20
0.0
 30
0.0
  0
VERTEX
  5
86
330
85
100
AcDbEntity
  8
_U+30EC_U+30A4_U+30E4_U+30FC 1
 62
   179
420
  2234388
370
     9
100
AcDbVertex
100
AcDb2dVertex
 10
76.1838055563892
 20
-134.039363022046
 30
0.0
  0
VERTEX
  5
87
330
85
100
AcDbEntity
  8
_U+30EC_U+30A4_U+30E4_U+30FC 1
 62
   179
420
  2234388
370
     9
100
AcDbVertex
100
AcDb2dVertex
 10
73.72399200803315
 20
-134.039363022046
 30
0.0
  0
SEQEND
  5
88
330
85
100
AcDbEntity
  8
_U+30EC_U+30A4_U+30E4_U+30FC 1
 62
   179
420
  2234388
370
     9
  0
INSERT
  5
8A
330
1F
100
AcDbEntity
  8
_U+30EC_U+30A4_U+30E4_U+30FC 1
100
AcDbBlockReference
  2
block 3
 10
0.0
 20
0.0
 30
0.0
  0
POLYLINE
  5
92
330
1F
100
AcDbEntity
  8
_U+30EC_U+30A4_U+30E4_U+30FC 1
 62
   179
420
  2234388
370
     9
100
AcDb2dPolyline
 66
     1
 10
0.0
 20
0.0
 30
0.0
  0
VERTEX
  5
93
330
92
100
AcDbEntity
  8
_U+30EC_U+30A4_U+30E4_U+30FC 1
 62
   179
420
  2234388
370
     9
100
AcDbVertex
100
AcDb2dVertex
 10
108.7237800040031
 20
-132.7395180223708
 30
0.0
  0
VERTEX
  5
94
330
92
100
AcDbEntity
  8
_U+30EC_U+30A4_U+30E4_U+30FC 1
 62
   179
420
  2234388
370
     9
100
AcDbVertex
100
AcDb2dVertex
 10
108.7237800040031
 20
-127.4816121903519
 30
0.0
  0
SEQEND
  5
95
330
92
100
AcDbEntity
  8
_U+30EC_U+30A4_U+30E4_U+30FC 1
 62
   179
420
  2234388
370
     9
  0
POLYLINE
  5
96
330
1F
100
AcDbEntity
  8
_U+30EC_U+30A4_U+30E4_U+30FC 1
 62
   179
420
  2234388
370
     9
100
AcDb2dPolyline
 66
     1
 10
0.0
 20
0.0
 30
0.0
  0
VERTEX
  5
97
330
96
100
AcDbEntity
  8
_U+30EC_U+30A4_U+30E4_U+30FC 1
 62
   179
420
  2234388
370
     9
100
AcDbVertex
100
AcDb2dVertex
 10
108.7237800040031
 20
-132.7395180223708
 30
0.0
  0
VERTEX
  5
98
330
96
100
AcDbEntity
  8
_U+30EC_U+30A4_U+30E4_U+30FC 1
 62
   179
420
  2234388
370
     9
100
AcDbVertex
100
AcDb2dVertex
 10
108.7237800040031
 20
-135.0394880217957
 30
0.0
  0
SEQEND
  5
99
330
96
100
AcDbEntity
  8
_U+30EC_U+30A4_U+30E4_U+30FC 1
 62
   179
420
  2234388
370
     9
  0
POLYLINE
  5
9A
330
1F
100
AcDbEntity
  8
_U+30EC_U+30A4_U+30E4_U+30FC 1
 62
   179
420
  2234388
370
     9
100
AcDb2dPolyline
 66
     1
 10
0.0
 20
0.0
 30
0.0
  0
VERTEX
  5
9B
330
9A
100
AcDbEntity
  8
_U+30EC_U+30A4_U+30E4_U+30FC 1
 62
   179
420
  2234388
370
     9
100
AcDbVertex
100
AcDb2dVertex
 10
107.2637386523629
 20
-132.7395180223708
 30
0.0
  0
VERTEX
  5
9C
330
9A
100
AcDbEntity
  8
_U+30EC_U+30A4_U+30E4_U+30FC 1
 62
   179
420
  2234388
370
     9
100
AcDbVertex
100
AcDb2dVertex
 10
109.7235169229421
 20
-132.7395180223708
 30
0.0
  0
SEQEND
  5
9D
330
9A
100
AcDbEntity
  8
_U+30EC_U+30A4_U+30E4_U+30FC 1
 62
   179
420
  2234388
370
     9
  0
POLYLINE
  5
9E
330
1F
100
AcDbEntity
  8
_U+30EC_U+30A4_U+30E4_U+30FC 1
 62
   179
420
  2234388
370
     9
100
AcDb2dPolyline
 66
     1
 10
0.0
 20
0.0
 30
0.0
  0
VERTEX
  5
9F
330
9E
100
AcDbEntity
  8
_U+30EC_U+30A4_U+30E4_U+30FC 1
 62
   179
420
  2234388
370
     9
100
AcDbVertex
100
AcDb2dVertex
 10
107.2637386523629
 20
-134.039363022046
 30
0.0
  0
VERTEX
  5
A0
330
9E
100
AcDbEntity
  8
_U+30EC_U+30A4_U+30E4_U+30FC 1
 62
   179
420
  2234388
370
     9
100
AcDbVertex
100
AcDb2dVertex
 10
109.7235169229421
 20
-134.039363022046
 30
0.0
  0
SEQEND
  5
A1
330
9E
100
AcDbEntity
  8
_U+30EC_U+30A4_U+30E4_U+30FC 1
 62
   179
420
  2234388
370
     9
  0
INSERT
  5
A3
330
1F
100
AcDbEntity
  8
_U+30EC_U+30A4_U+30E4_U+30FC 1
100
AcDbBlockReference
  2
block 4
 10
0.0
 20
0.0
 30
0.0
  0
POLYLINE
  5
B2
330
1F
100
AcDbEntity
  8
_U+30EC_U+30A4_U+30E4_U+30FC 1
 62
   179
420
  2234388
370
     9
100
AcDb2dPolyline
 66
     1
 10
0.0
 20
0.0
 30
0.0
  0
VERTEX
  5
B3
330
B2
100
AcDbEntity
  8
_U+30EC_U+30A4_U+30E4_U+30FC 1
 62
   179
420
  2234388
370
     9
100
AcDbVertex
100
AcDb2dVertex
 10
80.31652656206582
 20
-132.4463596891107
 30
0.0
  0
VERTEX
  5
B4
330
B2
100
AcDbEntity
  8
_U+30EC_U+30A4_U+30E4_U+30FC 1
 62
   179
420
  2234388
370
     9
100
AcDbVertex
100
AcDb2dVertex
 10
83.36681953980191
 20
-129.3964194120952
 30
0.0
  0
SEQEND
  5
B5
330
B2
100
AcDbEntity
  8
_U+30EC_U+30A4_U+30E4_U+30FC 1
 62
   179
420
  2234388
370
     9
  0
POLYLINE
  5
B6
330
1F
100
AcDbEntity
  8
_U+30EC_U+30A4_U+30E4_U+30FC 1
 62
   179
420
  2234388
370
     9
100
AcDb2dPolyline
 66
     1
 10
0.0
 20
0.0
 30
0.0
  0
VERTEX
  5
B7
330
B6
100
AcDbEntity
  8
_U+30EC_U+30A4_U+30E4_U+30FC 1
 62
   179
420
  2234388
370
     9
100
AcDbVertex
100
AcDb2dVertex
 10
83.36681953980191
 20
-129.3964194120952
 30
0.0
  0
VERTEX
  5
B8
330
B6
100
AcDbEntity
  8
_U+30EC_U+30A4_U+30E4_U+30FC 1
 62
   179
420
  2234388
370
     9
100
AcDbVertex
100
AcDb2dVertex
 10
86.67929695529357
 20
-129.3964194120952
 30
0.0
  0
SEQEND
  5
B9
330
B6
100
AcDbEntity
  8
_U+30EC_U+30A4_U+30E4_U+30FC 1
 62
   179
420
  2234388
370
     9
  0
INSERT
  5
BB
330
1F
100
AcDbEntity
  8
_U+30EC_U+30A4_U+30E4_U+30FC 1
100
AcDbBlockReference
  2
block 5
 10
0.0
 20
0.0
 30
0.0
  0
ENDSEC
  0
SECTION
  2
OBJECTS
  0
DICTIONARY
  5
C
330
0
100
AcDbDictionary
281
     1
  3
ACAD_GROUP
350
D
  3
ACAD_LAYOUT
350
1A
  3
ACAD_MATERIAL
350
3B
  3
ACAD_MLEADERSTYLE
350
C6
  3
ACAD_MLINESTYLE
350
17
  3
ACAD_PLOTSETTINGS
350
19
  3
ACAD_PLOTSTYLENAME
350
E
  3
ACAD_TABLESTYLE
350
C5
  3
ACAD_VISUALSTYLE
350
2A
  0
SUN
  5
3F
330
29
100
AcDbSun
 90
        1
290
     0
 63
     7
421
 16777215
 40
1.0
291
     1
 91
  2455826
 92
 54000000
292
     0
 70
     2
 71
   256
280
     1
  0
DICTIONARY
  5
D
102
{ACAD_REACTORS
330
C
102
}
330
C
100
AcDbDictionary
281
     1
  0
DICTIONARY
  5
1A
102
{ACAD_REACTORS
330
C
102
}
330
C
100
AcDbDictionary
281
     1
  3
Layout1
350
1E
  3
Layout2
350
26
  3
Model
350
22
  0
DICTIONARY
  5
3B
102
{ACAD_REACTORS
330
C
102
}
330
C
100
AcDbDictionary
281
     1
  3
ByBlock
350
3D
  3
ByLayer
350
3C
  3
Global
350
3E
  0
DICTIONARY
  5
C6
102
{ACAD_REACTORS
330
C
102
}
330
C
100
AcDbDictionary
281
     1
  0
DICTIONARY
  5
17
102
{ACAD_REACTORS
330
C
102
}
330
C
100
AcDbDictionary
281
     1
  3
Standard
350
18
  0
DICTIONARY
  5
19
102
{ACAD_REACTORS
330
C
102
}
330
C
100
AcDbDictionary
281
     1
  0
ACDBDICTIONARYWDFLT
  5
E
102
{ACAD_REACTORS
330
C
102
}
330
C
100
AcDbDictionary
281
     1
  3
Normal
350
F
100
AcDbDictionaryWithDefault
340
F
  0
DICTIONARY
  5
C5
102
{ACAD_REACTORS
330
C
102
}
330
C
100
AcDbDictionary
281
     1
  0
DICTIONARY
  5
2A
102
{ACAD_REACTORS
330
C
102
}
330
C
100
AcDbDictionary
281
     1
  3
2dWireframe
350
2F
  3
3D Hidden
350
31
  3
3dWireframe
350
30
  3
Basic
350
32
  3
Brighten
350
36
  3
ColorChange
350
3A
  3
Conceptual
350
34
  3
Dim
350
35
  3
Facepattern
350
39
  3
Flat
350
2B
  3
FlatWithEdges
350
2C
  3
Gouraud
350
2D
  3
GouraudWithEdges
350
2E
  3
Linepattern
350
38
  3
Realistic
350
33
  3
Thicken
350
37
  0
LAYOUT
  5
1E
102
{ACAD_REACTORS
330
1A
102
}
330
1A
100
AcDbPlotSettings
  1

  2
none_device
  4

  6

 40
0.0
 41
0.0
 42
0.0
 43
0.0
 44
0.0
 45
0.0
 46
0.0
 47
0.0
 48
0.0
 49
0.0
140
0.0
141
0.0
142
1.0
143
1.0
 70
   688
 72
     0
 73
     0
 74
     5
  7

 75
    16
 76
     0
 77
     2
 78
   300
147
1.0
148
0.0
149
0.0
100
AcDbLayout
  1
Layout1
 70
     1
 71
     1
 10
0.0
 20
0.0
 11
12.0
 21
9.0
 12
0.0
 22
0.0
 32
0.0
 14
1.000000000000000E+20
 24
1.000000000000000E+20
 34
1.000000000000000E+20
 15
-1.000000000000000E+20
 25
-1.000000000000000E+20
 35
-1.000000000000000E+20
146
0.0
 13
0.0
 23
0.0
 33
0.0
 16
1.0
 26
0.0
 36
0.0
 17
0.0
 27
1.0
 37
0.0
 76
     0
330
1B
  0
LAYOUT
  5
26
102
{ACAD_REACTORS
330
1A
102
}
330
1A
100
AcDbPlotSettings
  1

  2
none_device
  4

  6

 40
0.0
 41
0.0
 42
0.0
 43
0.0
 44
0.0
 45
0.0
 46
0.0
 47
0.0
 48
0.0
 49
0.0
140
0.0
141
0.0
142
1.0
143
1.0
 70
   688
 72
     0
 73
     0
 74
     5
  7

 75
    16
 76
     0
 77
     2
 78
   300
147
1.0
148
0.0
149
0.0
100
AcDbLayout
  1
Layout2
 70
     1
 71
     2
 10
0.0
 20
0.0
 11
0.0
 21
0.0
 12
0.0
 22
0.0
 32
0.0
 14
0.0
 24
0.0
 34
0.0
 15
0.0
 25
0.0
 35
0.0
146
0.0
 13
0.0
 23
0.0
 33
0.0
 16
1.0
 26
0.0
 36
0.0
 17
0.0
 27
1.0
 37
0.0
 76
     0
330
23
  0
LAYOUT
  5
22
102
{ACAD_REACTORS
330
1A
102
}
330
1A
100
AcDbPlotSettings
  1

  2
none_device
  4

  6

 40
0.0
 41
0.0
 42
0.0
 43
0.0
 44
0.0
 45
0.0
 46
0.0
 47
0.0
 48
0.0
 49
0.0
140
0.0
141
0.0
142
1.0
143
1.0
 70
  1712
 72
     0
 73
     0
 74
     0
  7

 75
     0
 76
     0
 77
     2
 78
   300
147
1.0
148
0.0
149
0.0
100
AcDbLayout
  1
Model
 70
     1
 71
     0
 10
0.0
 20
0.0
 11
12.0
 21
9.0
 12
0.0
 22
0.0
 32
0.0
 14
1.000000000000000E+20
 24
1.000000000000000E+20
 34
1.000000000000000E+20
 15
-1.000000000000000E+20
 25
-1.000000000000000E+20
 35
-1.000000000000000E+20
146
0.0
 13
0.0
 23
0.0
 33
0.0
 16
1.0
 26
0.0
 36
0.0
 17
0.0
 27
1.0
 37
0.0
 76
     0
330
1F
331
29
  0
MATERIAL
  5
3D
102
{ACAD_REACTORS
330
3B
102
}
330
3B
100
AcDbMaterial
  1
ByBlock
 72
     1
 94
      127
  0
MATERIAL
  5
3C
102
{ACAD_REACTORS
330
3B
102
}
330
3B
100
AcDbMaterial
  1
ByLayer
 72
     1
 94
      127
  0
MATERIAL
  5
3E
102
{ACAD_REACTORS
330
3B
102
}
330
3B
100
AcDbMaterial
  1
Global
 72
     1
 94
      127
  0
MLINESTYLE
  5
18
102
{ACAD_REACTORS
330
17
102
}
330
17
100
AcDbMlineStyle
  2
Standard
 70
     0
  3

 62
   256
 51
90.0
 52
90.0
 71
     2
 49
0.5
 62
   256
  6
BYLAYER
 49
-0.5
 62
   256
  6
BYLAYER
  0
ACDBPLACEHOLDER
  5
F
102
{ACAD_REACTORS
330
E
102
}
330
E
  0
VISUALSTYLE
  5
2F
102
{ACAD_REACTORS
330
2A
102
}
330
2A
100
AcDbVisualStyle
  2
2dWireframe
 70
     4
177
     2
291
     0
 71
     0
176
     1
 72
     2
176
     1
 73
     0
176
     1
 90
        0
176
     1
 40
-0.6
176
     1
 41
-30.0
176
     1
 62
     5
 63
     7
421
 16777215
176
     1
 74
     1
176
     1
 91
        4
176
     1
 64
     7
176
     1
 65
   257
176
     1
 75
     1
176
     1
175
     1
176
     1
 42
1.0
176
     1
 92
        0
176
     1
 66
   257
176
     1
 43
1.0
176
     1
 76
     1
176
     1
 77
     6
176
     1
 78
     2
176
     1
 67
     7
176
     1
 79
     5
176
     1
170
     0
176
     1
171
     0
176
     1
290
     0
176
     1
 93
        1
176
     1
 44
0.0
176
     1
173
     0
176
     1
  0
VISUALSTYLE
  5
31
102
{ACAD_REACTORS
330
2A
102
}
330
2A
100
AcDbVisualStyle
  2
3D Hidden
 70
     6
177
     2
291
     0
 71
     1
176
     1
 72
     2
176
     1
 73
     2
176
     1
 90
        0
176
     1
 40
-0.6
176
     1
 41
-30.0
176
     1
 62
     5
 63
     7
421
 16777215
176
     1
 74
     2
176
     1
 91
        2
176
     1
 64
     7
176
     1
 65
   257
176
     1
 75
     2
176
     1
175
     1
176
     1
 42
40.0
176
     1
 92
        0
176
     1
 66
   257
176
     1
 43
1.0
176
     1
 76
     1
176
     1
 77
     6
176
     1
 78
     2
176
     1
 67
     7
176
     1
 79
     3
176
     1
170
     0
176
     1
171
     0
176
     1
290
     0
176
     1
 93
        1
176
     1
 44
0.0
176
     1
173
     0
176
     1
  0
VISUALSTYLE
  5
30
102
{ACAD_REACTORS
330
2A
102
}
330
2A
100
AcDbVisualStyle
  2
3dWireframe
 70
     5
177
     2
291
     0
 71
     0
176
     1
 72
     2
176
     1
 73
     0
176
     1
 90
        0
176
     1
 40
-0.6
176
     1
 41
-30.0
176
     1
 62
     5
 63
     7
421
 16777215
176
     1
 74
     1
176
     1
 91
        4
176
     1
 64
     7
176
     1
 65
   257
176
     1
 75
     1
176
     1
175
     1
176
     1
 42
1.0
176
     1
 92
        0
176
     1
 66
   257
176
     1
 43
1.0
176
     1
 76
     1
176
     1
 77
     6
176
     1
 78
     2
176
     1
 67
     7
176
     1
 79
     5
176
     1
170
     0
176
     1
171
     0
176
     1
290
     0
176
     1
 93
        1
176
     1
 44
0.0
176
     1
173
     0
176
     1
  0
VISUALSTYLE
  5
32
102
{ACAD_REACTORS
330
2A
102
}
330
2A
100
AcDbVisualStyle
  2
Basic
 70
     7
177
     2
291
     1
 71
     1
176
     1
 72
     0
176
     1
 73
     1
176
     1
 90
        0
176
     1
 40
-0.6
176
     1
 41
-30.0
176
     1
 62
     5
 63
     7
421
 16777215
176
     1
 74
     0
176
     1
 91
        4
176
     1
 64
     7
176
     1
 65
   257
176
     1
 75
     1
176
     1
175
     1
176
     1
 42
1.0
176
     1
 92
        8
176
     1
 66
     7
176
     1
 43
1.0
176
     1
 76
     1
176
     1
 77
     6
176
     1
 78
     2
176
     1
 67
     7
176
     1
 79
     5
176
     1
170
     0
176
     1
171
     0
176
     1
290
     0
176
     1
 93
        1
176
     1
 44
0.0
176
     1
173
     0
176
     1
  0
VISUALSTYLE
  5
36
102
{ACAD_REACTORS
330
2A
102
}
330
2A
100
AcDbVisualStyle
  2
Brighten
 70
    12
177
     2
291
     1
 71
     2
176
     1
 72
     2
176
     1
 73
     0
176
     1
 90
        0
176
     1
 40
-0.6
176
     1
 41
-30.0
176
     1
 62
     5
 63
     7
421
 16777215
176
     1
 74
     1
176
     1
 91
        4
176
     1
 64
     7
176
     1
 65
   257
176
     1
 75
     1
176
     1
175
     1
176
     1
 42
1.0
176
     1
 92
        8
176
     1
 66
     7
176
     1
 43
1.0
176
     1
 76
     1
176
     1
 77
     6
176
     1
 78
     2
176
     1
 67
     7
176
     1
 79
     5
176
     1
170
     0
176
     1
171
     0
176
     1
290
     0
176
     1
 93
        1
176
     1
 44
50.0
176
     1
173
     0
176
     1
  0
VISUALSTYLE
  5
3A
102
{ACAD_REACTORS
330
2A
102
}
330
2A
100
AcDbVisualStyle
  2
ColorChange
 70
    16
177
     2
291
     1
 71
     2
176
     1
 72
     2
176
     1
 73
     3
176
     1
 90
        0
176
     1
 40
-0.6
176
     1
 41
-30.0
176
     1
 62
     5
 63
     8
421
  8421504
176
     1
 74
     1
176
     1
 91
        4
176
     1
 64
     7
176
     1
 65
   257
176
     1
 75
     1
176
     1
175
     1
176
     1
 42
1.0
176
     1
 92
        8
176
     1
 66
     8
424
  8421504
176
     1
 43
1.0
176
     1
 76
     1
176
     1
 77
     6
176
     1
 78
     2
176
     1
 67
     7
176
     1
 79
     5
176
     1
170
     0
176
     1
171
     0
176
     1
290
     0
176
     1
 93
        1
176
     1
 44
0.0
176
     1
173
     0
176
     1
  0
VISUALSTYLE
  5
34
102
{ACAD_REACTORS
330
2A
102
}
330
2A
100
AcDbVisualStyle
  2
Conceptual
 70
     9
177
     2
291
     0
 71
     3
176
     1
 72
     2
176
     1
 73
     0
176
     1
 90
        0
176
     1
 40
-0.6
176
     1
 41
-30.0
176
     1
 62
     5
 63
     7
421
 16777215
176
     1
 74
     2
176
     1
 91
        2
176
     1
 64
     7
176
     1
 65
   257
176
     1
 75
     1
176
     1
175
     1
176
     1
 42
40.0
176
     1
 92
        8
176
     1
 66
     7
176
     1
 43
1.0
176
     1
 76
     1
176
     1
 77
     6
176
     1
 78
     2
176
     1
 67
     7
176
     1
 79
     3
176
     1
170
     0
176
     1
171
     0
176
     1
290
     0
176
     1
 93
        1
176
     1
 44
0.0
176
     1
173
     0
176
     1
  0
VISUALSTYLE
  5
35
102
{ACAD_REACTORS
330
2A
102
}
330
2A
100
AcDbVisualStyle
  2
Dim
 70
    11
177
     2
291
     1
 71
     2
176
     1
 72
     2
176
     1
 73
     0
176
     1
 90
        0
176
     1
 40
-0.6
176
     1
 41
-30.0
176
     1
 62
     5
 63
     7
421
 16777215
176
     1
 74
     1
176
     1
 91
        4
176
     1
 64
     7
176
     1
 65
   257
176
     1
 75
     1
176
     1
175
     1
176
     1
 42
1.0
176
     1
 92
        8
176
     1
 66
     7
176
     1
 43
1.0
176
     1
 76
     1
176
     1
 77
     6
176
     1
 78
     2
176
     1
 67
     7
176
     1
 79
     5
176
     1
170
     0
176
     1
171
     0
176
     1
290
     0
176
     1
 93
        1
176
     1
 44
-50.0
176
     1
173
     0
176
     1
  0
VISUALSTYLE
  5
39
102
{ACAD_REACTORS
330
2A
102
}
330
2A
100
AcDbVisualStyle
  2
Facepattern
 70
    15
177
     2
291
     1
 71
     2
176
     1
 72
     2
176
     1
 73
     0
176
     1
 90
        0
176
     1
 40
-0.6
176
     1
 41
-30.0
176
     1
 62
     5
 63
     7
421
 16777215
176
     1
 74
     1
176
     1
 91
        4
176
     1
 64
     7
176
     1
 65
   257
176
     1
 75
     1
176
     1
175
     1
176
     1
 42
1.0
176
     1
 92
        8
176
     1
 66
     7
176
     1
 43
1.0
176
     1
 76
     1
176
     1
 77
     6
176
     1
 78
     2
176
     1
 67
     7
176
     1
 79
     5
176
     1
170
     0
176
     1
171
     0
176
     1
290
     0
176
     1
 93
        1
176
     1
 44
0.0
176
     1
173
     0
176
     1
  0
VISUALSTYLE
  5
2B
102
{ACAD_REACTORS
330
2A
102
}
330
2A
100
AcDbVisualStyle
  2
Flat
 70
     0
177
     2
291
     1
 71
     2
176
     1
 72
     1
176
     1
 73
     1
176
     1
 90
        2
176
     1
 40
-0.6
176
     1
 41
30.0
176
     1
 62
     5
 63
     7
421
 16777215
176
     1
 74
     0
176
     1
 91
        4
176
     1
 64
     7
176
     1
 65
   257
176
     1
 75
     1
176
     1
175
     1
176
     1
 42
1.0
176
     1
 92
        8
176
     1
 66
     7
176
     1
 43
1.0
176
     1
 76
     1
176
     1
 77
     6
176
     1
 78
     2
176
     1
 67
     7
176
     1
 79
     5
176
     1
170
     0
176
     1
171
     0
176
     1
290
     0
176
     1
 93
       13
176
     1
 44
0.0
176
     1
173
     0
176
     1
  0
VISUALSTYLE
  5
2C
102
{ACAD_REACTORS
330
2A
102
}
330
2A
100
AcDbVisualStyle
  2
FlatWithEdges
 70
     1
177
     2
291
     1
 71
     2
176
     1
 72
     1
176
     1
 73
     1
176
     1
 90
        2
176
     1
 40
-0.6
176
     1
 41
30.0
176
     1
 62
     5
 63
     7
421
 16777215
176
     1
 74
     1
176
     1
 91
        4
176
     1
 64
     7
176
     1
 65
   257
176
     1
 75
     1
176
     1
175
     1
176
     1
 42
1.0
176
     1
 92
        0
176
     1
 66
   257
176
     1
 43
1.0
176
     1
 76
     1
176
     1
 77
     6
176
     1
 78
     2
176
     1
 67
     7
176
     1
 79
     5
176
     1
170
     0
176
     1
171
     0
176
     1
290
     0
176
     1
 93
       13
176
     1
 44
0.0
176
     1
173
     0
176
     1
  0
VISUALSTYLE
  5
2D
102
{ACAD_REACTORS
330
2A
102
}
330
2A
100
AcDbVisualStyle
  2
Gouraud
 70
     2
177
     2
291
     1
 71
     2
176
     1
 72
     2
176
     1
 73
     1
176
     1
 90
        2
176
     1
 40
-0.6
176
     1
 41
30.0
176
     1
 62
     5
 63
     7
421
 16777215
176
     1
 74
     0
176
     1
 91
        4
176
     1
 64
     7
176
     1
 65
   257
176
     1
 75
     1
176
     1
175
     1
176
     1
 42
1.0
176
     1
 92
        0
176
     1
 66
     7
176
     1
 43
1.0
176
     1
 76
     1
176
     1
 77
     6
176
     1
 78
     2
176
     1
 67
     7
176
     1
 79
     5
176
     1
170
     0
176
     1
171
     0
176
     1
290
     0
176
     1
 93
       13
176
     1
 44
0.0
176
     1
173
     0
176
     1
  0
VISUALSTYLE
  5
2E
102
{ACAD_REACTORS
330
2A
102
}
330
2A
100
AcDbVisualStyle
  2
GouraudWithEdges
 70
     3
177
     2
291
     1
 71
     2
176
     1
 72
     2
176
     1
 73
     1
176
     1
 90
        2
176
     1
 40
-0.6
176
     1
 41
30.0
176
     1
 62
     5
 63
     7
421
 16777215
176
     1
 74
     1
176
     1
 91
        4
176
     1
 64
     7
176
     1
 65
   257
176
     1
 75
     1
176
     1
175
     1
176
     1
 42
1.0
176
     1
 92
        0
176
     1
 66
   257
176
     1
 43
1.0
176
     1
 76
     1
176
     1
 77
     6
176
     1
 78
     2
176
     1
 67
     7
176
     1
 79
     5
176
     1
170
     0
176
     1
171
     0
176
     1
290
     0
176
     1
 93
       13
176
     1
 44
0.0
176
     1
173
     0
176
     1
  0
VISUALSTYLE
  5
38
102
{ACAD_REACTORS
330
2A
102
}
330
2A
100
AcDbVisualStyle
  2
Linepattern
 70
    14
177
     2
291
     1
 71
     2
176
     1
 72
     2
176
     1
 73
     0
176
     1
 90
        0
176
     1
 40
-0.6
176
     1
 41
-30.0
176
     1
 62
     5
 63
     7
421
 16777215
176
     1
 74
     1
176
     1
 91
        4
176
     1
 64
     7
176
     1
 65
   257
176
     1
 75
     7
176
     1
175
     7
176
     1
 42
1.0
176
     1
 92
        8
176
     1
 66
     7
176
     1
 43
1.0
176
     1
 76
     1
176
     1
 77
     6
176
     1
 78
     2
176
     1
 67
     7
176
     1
 79
     5
176
     1
170
     0
176
     1
171
     0
176
     1
290
     0
176
     1
 93
        1
176
     1
 44
0.0
176
     1
173
     0
176
     1
  0
VISUALSTYLE
  5
33
102
{ACAD_REACTORS
330
2A
102
}
330
2A
100
AcDbVisualStyle
  2
Realistic
 70
     8
177
     2
291
     0
 71
     2
176
     1
 72
     2
176
     1
 73
     0
176
     1
 90
        0
176
     1
 40
-0.6
176
     1
 41
-30.0
176
     1
 62
     5
 63
     7
421
 16777215
176
     1
 74
     1
176
     1
 91
        0
176
     1
 64
     7
176
     1
 65
   257
176
     1
 75
     1
176
     1
175
     1
176
     1
 42
1.0
176
     1
 92
        8
176
     1
 66
     8
424
  7895160
176
     1
 43
1.0
176
     1
 76
     1
176
     1
 77
     6
176
     1
 78
     2
176
     1
 67
     7
176
     1
 79
     5
176
     1
170
     0
176
     1
171
     0
176
     1
290
     0
176
     1
 93
       13
176
     1
 44
0.0
176
     1
173
     0
176
     1
  0
VISUALSTYLE
  5
37
102
{ACAD_REACTORS
330
2A
102
}
330
2A
100
AcDbVisualStyle
  2
Thicken
 70
    13
177
     2
291
     1
 71
     2
176
     1
 72
     2
176
     1
 73
     0
176
     1
 90
        0
176
     1
 40
-0.6
176
     1
 41
-30.0
176
     1
 62
     5
 63
     7
421
 16777215
176
     1
 74
     1
176
     1
 91
        4
176
     1
 64
     7
176
     1
 65
   257
176
     1
 75
     1
176
     1
175
     1
176
     1
 42
1.0
176
     1
 92
       12
176
     1
 66
     7
176
     1
 43
1.0
176
     1
 76
     1
176
     1
 77
     6
176
     1
 78
     2
176
     1
 67
     7
176
     1
 79
     5
176
     1
170
     0
176
     1
171
     0
176
     1
290
     0
176
     1
 93
        1
176
     1
 44
0.0
176
     1
173
     0
176
     1
  0
ENDSEC
  0
EOF
