  0
SECTION
  2
HEADER
  9
$ACADVER
  1
AC1024
  9
$ACADMAINTVER
 70
     6
  9
$DWGCODEPAGE
  3
UNDEFINED
  9
$INSBASE
 10
0.0
 20
0.0
 30
0.0
  9
$EXTMIN
 10
1.000000000000000E+20
 20
1.000000000000000E+20
 30
1.000000000000000E+20
  9
$EXTMAX
 10
-1.000000000000000E+20
 20
-1.000000000000000E+20
 30
-1.000000000000000E+20
  9
$LIMMIN
 10
0.0
 20
0.0
  9
$LIMMAX
 10
12.0
 20
9.0
  9
$ORTHOMODE
 70
     0
  9
$REGENMODE
 70
     1
  9
$FILLMODE
 70
     1
  9
$QTEXTMODE
 70
     0
  9
$MIRRTEXT
 70
     1
  9
$LTSCALE
 40
1.0
  9
$ATTMODE
 70
     1
  9
$TEXTSIZE
 40
0.2
  9
$TRACEWID
 40
0.05
  9
$TEXTSTYLE
  7
Standard
  9
$CLAYER
  8
0
  9
$CELTYPE
  6
ByLayer
  9
$CECOLOR
 62
   256
  9
$CELTSCALE
 40
1.0
  9
$DISPSILH
 70
     0
  9
$DIMSCALE
 40
1.0
  9
$DIMASZ
 40
0.18
  9
$DIMEXO
 40
0.0625
  9
$DIMDLI
 40
0.38
  9
$DIMRND
 40
0.0
  9
$DIMDLE
 40
0.0
  9
$DIMEXE
 40
0.18
  9
$DIMTP
 40
0.0
  9
$DIMTM
 40
0.0
  9
$DIMTXT
 40
0.18
  9
$DIMCEN
 40
0.09
  9
$DIMTSZ
 40
0.0
  9
$DIMTOL
 70
     0
  9
$DIMLIM
 70
     0
  9
$DIMTIH
 70
     1
  9
$DIMTOH
 70
     1
  9
$DIMSE1
 70
     0
  9
$DIMSE2
 70
     0
  9
$DIMTAD
 70
     0
  9
$DIMZIN
 70
     0
  9
$DIMBLK
  1

  9
$DIMASO
 70
     1
  9
$DIMSHO
 70
     1
  9
$DIMPOST
  1

  9
$DIMAPOST
  1

  9
$DIMALT
 70
     0
  9
$DIMALTD
 70
     2
  9
$DIMALTF
 40
25.4
  9
$DIMLFAC
 40
1.0
  9
$DIMTOFL
 70
     0
  9
$DIMTVP
 40
0.0
  9
$DIMTIX
 70
     0
  9
$DIMSOXD
 70
     0
  9
$DIMSAH
 70
     0
  9
$DIMBLK1
  1

  9
$DIMBLK2
  1

  9
$DIMSTYLE
  2
Standard
  9
$DIMCLRD
 70
     0
  9
$DIMCLRE
 70
     0
  9
$DIMCLRT
 70
     0
  9
$DIMTFAC
 40
1.0
  9
$DIMGAP
 40
0.09
  9
$DIMJUST
 70
     0
  9
$DIMSD1
 70
     0
  9
$DIMSD2
 70
     0
  9
$DIMTOLJ
 70
     1
  9
$DIMTZIN
 70
     0
  9
$DIMALTZ
 70
     0
  9
$DIMALTTZ
 70
     0
  9
$DIMUPT
 70
     0
  9
$DIMDEC
 70
     4
  9
$DIMTDEC
 70
     4
  9
$DIMALTU
 70
     2
  9
$DIMALTTD
 70
     2
  9
$DIMTXSTY
  7
Standard
  9
$DIMAUNIT
 70
     0
  9
$DIMADEC
 70
     0
  9
$DIMALTRND
 40
0.0
  9
$DIMAZIN
 70
     0
  9
$DIMDSEP
 70
    46
  9
$DIMATFIT
 70
     3
  9
$DIMFRAC
 70
     0
  9
$DIMLDRBLK
  1

  9
$DIMLUNIT
 70
     2
  9
$DIMLWD
 70
    -2
  9
$DIMLWE
 70
    -2
  9
$DIMTMOVE
 70
     0
  9
$DIMFXL
 40
1.0
  9
$DIMFXLON
 70
     0
  9
$DIMJOGANG
 40
0.7853981633974483
  9
$DIMTFILL
 70
     0
  9
$DIMTFILLCLR
 70
     0
  9
$DIMARCSYM
 70
     0
  9
$DIMLTYPE
  6

  9
$DIMLTEX1
  6

  9
$DIMLTEX2
  6

  9
$DIMTXTDIRECTION
 70
     0
  9
$LUNITS
 70
     2
  9
$LUPREC
 70
     4
  9
$SKETCHINC
 40
0.1
  9
$FILLETRAD
 40
0.5
  9
$AUNITS
 70
     0
  9
$AUPREC
 70
     0
  9
$MENU
  1
.
  9
$ELEVATION
 40
0.0
  9
$PELEVATION
 40
0.0
  9
$THICKNESS
 40
0.0
  9
$LIMCHECK
 70
     0
  9
$CHAMFERA
 40
0.5
  9
$CHAMFERB
 40
0.5
  9
$CHAMFERC
 40
1.0
  9
$CHAMFERD
 40
0.0
  9
$SKPOLY
 70
     0
  9
$TDCREATE
 40
2457917.595694445
  9
$TDUCREATE
 40
2457917.220694445
  9
$TDUPDATE
 40
2457917.595694445
  9
$TDUUPDATE
 40
2457917.220694445
  9
$TDINDWG
 40
0.0000000116
  9
$TDUSRTIMER
 40
0.0000000116
  9
$USRTIMER
 70
     1
  9
$ANGBASE
 50
0.0
  9
$ANGDIR
 70
     0
  9
$PDMODE
 70
     0
  9
$PDSIZE
 40
0.0
  9
$PLINEWID
 40
0.0
  9
$SPLFRAME
 70
     0
  9
$SPLINETYPE
 70
     6
  9
$SPLINESEGS
 70
     8
  9
$HANDSEED
  5
9F
  9
$SURFTAB1
 70
     6
  9
$SURFTAB2
 70
     6
  9
$SURFTYPE
 70
     6
  9
$SURFU
 70
     6
  9
$SURFV
 70
     6
  9
$UCSBASE
  2

  9
$UCSNAME
  2

  9
$UCSORG
 10
0.0
 20
0.0
 30
0.0
  9
$UCSXDIR
 10
1.0
 20
0.0
 30
0.0
  9
$UCSYDIR
 10
0.0
 20
1.0
 30
0.0
  9
$UCSORTHOREF
  2

  9
$UCSORTHOVIEW
 70
     0
  9
$UCSORGTOP
 10
0.0
 20
0.0
 30
0.0
  9
$UCSORGBOTTOM
 10
0.0
 20
0.0
 30
0.0
  9
$UCSORGLEFT
 10
0.0
 20
0.0
 30
0.0
  9
$UCSORGRIGHT
 10
0.0
 20
0.0
 30
0.0
  9
$UCSORGFRONT
 10
0.0
 20
0.0
 30
0.0
  9
$UCSORGBACK
 10
0.0
 20
0.0
 30
0.0
  9
$PUCSBASE
  2

  9
$PUCSNAME
  2

  9
$PUCSORG
 10
0.0
 20
0.0
 30
0.0
  9
$PUCSXDIR
 10
1.0
 20
0.0
 30
0.0
  9
$PUCSYDIR
 10
0.0
 20
1.0
 30
0.0
  9
$PUCSORTHOREF
  2

  9
$PUCSORTHOVIEW
 70
     0
  9
$PUCSORGTOP
 10
0.0
 20
0.0
 30
0.0
  9
$PUCSORGBOTTOM
 10
0.0
 20
0.0
 30
0.0
  9
$PUCSORGLEFT
 10
0.0
 20
0.0
 30
0.0
  9
$PUCSORGRIGHT
 10
0.0
 20
0.0
 30
0.0
  9
$PUCSORGFRONT
 10
0.0
 20
0.0
 30
0.0
  9
$PUCSORGBACK
 10
0.0
 20
0.0
 30
0.0
  9
$USERI1
 70
     0
  9
$USERI2
 70
     0
  9
$USERI3
 70
     0
  9
$USERI4
 70
     0
  9
$USERI5
 70
     0
  9
$USERR1
 40
0.0
  9
$USERR2
 40
0.0
  9
$USERR3
 40
0.0
  9
$USERR4
 40
0.0
  9
$USERR5
 40
0.0
  9
$WORLDVIEW
 70
     1
  9
$SHADEDGE
 70
     3
  9
$SHADEDIF
 70
    70
  9
$TILEMODE
 70
     1
  9
$MAXACTVP
 70
    64
  9
$PINSBASE
 10
0.0
 20
0.0
 30
0.0
  9
$PLIMCHECK
 70
     0
  9
$PEXTMIN
 10
1.000000000000000E+20
 20
1.000000000000000E+20
 30
1.000000000000000E+20
  9
$PEXTMAX
 10
-1.000000000000000E+20
 20
-1.000000000000000E+20
 30
-1.000000000000000E+20
  9
$PLIMMIN
 10
0.0
 20
0.0
  9
$PLIMMAX
 10
12.0
 20
9.0
  9
$UNITMODE
 70
     0
  9
$VISRETAIN
 70
     1
  9
$PLINEGEN
 70
     0
  9
$PSLTSCALE
 70
     1
  9
$TREEDEPTH
 70
  3020
  9
$CMLSTYLE
  2
Standard
  9
$CMLJUST
 70
     0
  9
$CMLSCALE
 40
1.0
  9
$PROXYGRAPHICS
 70
     1
  9
$MEASUREMENT
 70
     0
  9
$CELWEIGHT
370
    -1
  9
$ENDCAPS
280
     0
  9
$JOINSTYLE
280
     0
  9
$LWDISPLAY
290
     1
  9
$INSUNITS
 70
     1
  9
$HYPERLINKBASE
  1

  9
$STYLESHEET
  1

  9
$XEDIT
290
     1
  9
$CEPSNTYPE
380
     0
  9
$PSTYLEMODE
290
     1
  9
$FINGERPRINTGUID
  2
{636136D2-31A8-8C83-8D82-3046510CF745}
  9
$VERSIONGUID
  2
{FAEB1C32-E019-11D5-929B-00C0DF256EC4}
  9
$EXTNAMES
290
     1
  9
$PSVPSCALE
 40
0.0
  9
$OLESTARTUP
290
     0
  9
$SORTENTS
280
   127
  9
$INDEXCTL
280
     0
  9
$HIDETEXT
280
     1
  9
$XCLIPFRAME
280
     2
  9
$HALOGAP
280
     0
  9
$OBSCOLOR
 70
   257
  9
$OBSLTYPE
280
     0
  9
$INTERSECTIONDISPLAY
280
     0
  9
$INTERSECTIONCOLOR
 70
   257
  9
$DIMASSOC
280
     2
  9
$PROJECTNAME
  1

  9
$CAMERADISPLAY
290
     0
  9
$LENSLENGTH
 40
50.0
  9
$CAMERAHEIGHT
 40
0.0
  9
$STEPSPERSEC
 40
2.0
  9
$STEPSIZE
 40
6.0
  9
$3DDWFPREC
 40
2.0
  9
$PSOLWIDTH
 40
0.25
  9
$PSOLHEIGHT
 40
4.0
  9
$LOFTANG1
 40
1.570796326794897
  9
$LOFTANG2
 40
1.570796326794897
  9
$LOFTMAG1
 40
0.0
  9
$LOFTMAG2
 40
0.0
  9
$LOFTPARAM
 70
     7
  9
$LOFTNORMALS
280
     1
  9
$LATITUDE
 40
37.795
  9
$LONGITUDE
 40
-122.394
  9
$NORTHDIRECTION
 40
0.0
  9
$TIMEZONE
 70
 -8000
  9
$LIGHTGLYPHDISPLAY
280
     1
  9
$TILEMODELIGHTSYNCH
280
     1
  9
$CMATERIAL
347
3C
  9
$SOLIDHIST
280
     1
  9
$SHOWHIST
280
     1
  9
$DWFFRAME
280
     2
  9
$DGNFRAME
280
     2
  9
$REALWORLDSCALE
290
     1
  9
$INTERFERECOLOR
 62
   256
  9
$CSHADOW
280
     0
  9
$SHADOWPLANELOCATION
 40
0.0
  0
ENDSEC
  0
SECTION
  2
CLASSES
  0
CLASS
  1
ACDBDICTIONARYWDFLT
  2
AcDbDictionaryWithDefault
  3
ObjectDBX Classes
 90
        0
 91
        4
280
     0
281
     0
  0
CLASS
  1
VISUALSTYLE
  2
AcDbVisualStyle
  3
ObjectDBX Classes
 90
     4095
 91
        4
280
     0
281
     0
  0
CLASS
  1
MATERIAL
  2
AcDbMaterial
  3
ObjectDBX Classes
 90
     1153
 91
        4
280
     0
281
     0
  0
CLASS
  1
SUN
  2
AcDbSun
  3
SCENEOE
 90
     1024
 91
        4
280
     0
281
     0
  0
ENDSEC
  0
SECTION
  2
TABLES
  0
TABLE
  2
VPORT
  5
8
330
0
100
AcDbSymbolTable
 70
     1
  0
VPORT
  5
29
330
8
100
AcDbSymbolTableRecord
100
AcDbViewportTableRecord
  2
*Active
 70
     0
 10
0.0
 20
0.0
 11
1.0
 21
1.0
 12
0.0
 22
0.0
 13
0.0
 23
0.0
 14
0.5
 24
0.5
 15
0.5
 25
0.5
 16
0.0
 26
0.0
 36
1.0
 17
91.00082462281999
 27
-128.4993055234307
 37
0.0
 40
256.9986110468615
 41
0.7081814508812795
 42
50.0
 43
0.0
 44
0.0
 50
0.0
 51
0.0
 71
     0
 72
   100
 73
     1
 74
     3
 75
     0
 76
     0
 77
     0
 78
     0
281
     0
 65
     1
110
0.0
120
0.0
130
0.0
111
1.0
121
0.0
131
0.0
112
0.0
122
1.0
132
0.0
 79
     0
146
0.0
 60
     3
 61
     5
292
     1
282
     1
141
0.0
142
0.0
 63
   250
361
3F
  0
ENDTAB
  0
TABLE
  2
LTYPE
  5
5
330
0
100
AcDbSymbolTable
 70
     1
  0
LTYPE
  5
14
330
5
100
AcDbSymbolTableRecord
100
AcDbLinetypeTableRecord
  2
ByBlock
 70
     0
  3

 72
    65
 73
     0
 40
0.0
  0
LTYPE
  5
15
330
5
100
AcDbSymbolTableRecord
100
AcDbLinetypeTableRecord
  2
ByLayer
 70
     0
  3

 72
    65
 73
     0
 40
0.0
  0
LTYPE
  5
16
330
5
100
AcDbSymbolTableRecord
100
AcDbLinetypeTableRecord
  2
Continuous
 70
     0
  3
Solid line
 72
    65
 73
     0
 40
0.0
  0
ENDTAB
  0
TABLE
  2
LAYER
  5
2
330
0
100
AcDbSymbolTable
 70
     2
  0
LAYER
  5
10
330
2
100
AcDbSymbolTableRecord
100
AcDbLayerTableRecord
  2
0
 70
     0
 62
     7
  6
Continuous
370
    -3
390
F
347
3E
  0
LAYER
  5
40
330
2
100
AcDbSymbolTableRecord
100
AcDbLayerTableRecord
  2
_U+30EC_U+30A4_U+30E4_U+30FC 1
 70
     0
 62
     7
  6
Continuous
370
    -3
390
F
347
3E
  0
ENDTAB
  0
TABLE
  2
STYLE
  5
3
330
0
100
AcDbSymbolTable
 70
     1
  0
STYLE
  5
11
330
3
100
AcDbSymbolTableRecord
100
AcDbTextStyleTableRecord
  2
Standard
 70
     0
 40
0.0
 41
1.0
 50
0.0
 71
     0
 42
0.2
  3
txt
  4

  0
ENDTAB
  0
TABLE
  2
VIEW
  5
6
330
0
100
AcDbSymbolTable
 70
     0
  0
ENDTAB
  0
TABLE
  2
UCS
  5
7
330
0
100
AcDbSymbolTable
 70
     0
  0
ENDTAB
  0
TABLE
  2
APPID
  5
9
330
0
100
AcDbSymbolTable
 70
     1
  0
APPID
  5
12
330
9
100
AcDbSymbolTableRecord
100
AcDbRegAppTableRecord
  2
ACAD
 70
     0
  0
ENDTAB
  0
TABLE
  2
DIMSTYLE
  5
A
330
0
100
AcDbSymbolTable
 70
     1
100
AcDbDimStyleTable
  0
DIMSTYLE
105
27
330
A
100
AcDbSymbolTableRecord
100
AcDbDimStyleTableRecord
  2
Standard
 70
     0
178
     0
340
11
  0
ENDTAB
  0
TABLE
  2
BLOCK_RECORD
  5
1
330
0
100
AcDbSymbolTable
 70
     4
  0
BLOCK_RECORD
  5
1F
330
1
100
AcDbSymbolTableRecord
100
AcDbBlockTableRecord
  2
*Model_Space
340
22
 70
     0
280
     1
281
     0
  0
BLOCK_RECORD
  5
1B
330
1
100
AcDbSymbolTableRecord
100
AcDbBlockTableRecord
  2
*Paper_Space
340
1E
 70
     0
280
     1
281
     0
  0
BLOCK_RECORD
  5
23
330
1
100
AcDbSymbolTableRecord
100
AcDbBlockTableRecord
  2
*Paper_Space0
340
26
 70
     0
280
     1
281
     0
  0
BLOCK_RECORD
  5
6B
330
1
100
AcDbSymbolTableRecord
100
AcDbBlockTableRecord
  2
block 2
340
0
102
{BLKREFS
331
6C
102
}
 70
     0
280
     1
281
     0
  0
BLOCK_RECORD
  5
7D
330
1
100
AcDbSymbolTableRecord
100
AcDbBlockTableRecord
  2
block 3
340
0
102
{BLKREFS
331
7E
102
}
 70
     0
280
     1
281
     0
  0
BLOCK_RECORD
  5
94
330
1
100
AcDbSymbolTableRecord
100
AcDbBlockTableRecord
  2
block 4
340
0
102
{BLKREFS
331
95
102
}
 70
     0
280
     1
281
     0
  0
ENDTAB
  0
ENDSEC
  0
SECTION
  2
BLOCKS
  0
BLOCK
  5
20
330
1F
100
AcDbEntity
  8
0
100
AcDbBlockBegin
  2
*Model_Space
 70
     0
 10
0.0
 20
0.0
 30
0.0
  3
*Model_Space
  1

  0
ENDBLK
  5
21
330
1F
100
AcDbEntity
  8
0
100
AcDbBlockEnd
  0
BLOCK
  5
1C
330
1B
100
AcDbEntity
 67
     1
  8
0
100
AcDbBlockBegin
  2
*Paper_Space
 70
     0
 10
0.0
 20
0.0
 30
0.0
  3
*Paper_Space
  1

  0
ENDBLK
  5
1D
330
1B
100
AcDbEntity
 67
     1
  8
0
100
AcDbBlockEnd
  0
BLOCK
  5
24
330
23
100
AcDbEntity
  8
0
100
AcDbBlockBegin
  2
*Paper_Space0
 70
     0
 10
0.0
 20
0.0
 30
0.0
  3
*Paper_Space0
  1

  0
ENDBLK
  5
25
330
23
100
AcDbEntity
  8
0
100
AcDbBlockEnd
  0
BLOCK
  5
6D
330
6B
100
AcDbEntity
  8
0
100
AcDbBlockBegin
  2
block 2
 70
     0
 10
0.0
 20
0.0
 30
0.0
  3
block 2
  1

  0
SPLINE
  5
6F
330
6B
100
AcDbEntity
  8
_U+30EC_U+30A4_U+30E4_U+30FC 1
370
     0
100
AcDbSpline
210
0.0
220
0.0
230
1.0
 70
    11
 71
     3
 72
    44
 73
    40
 74
     0
 42
0.0000000001
 43
0.0000000001
 12
1.0
 22
0.0
 32
0.0
 13
1.0
 23
0.0
 33
0.0
 40
0.0
 40
0.0
 40
0.0
 40
0.0
 40
1.0
 40
1.0
 40
1.0
 40
2.0
 40
2.0
 40
2.0
 40
3.0
 40
3.0
 40
3.0
 40
4.0
 40
4.0
 40
4.0
 40
5.0
 40
5.0
 40
5.0
 40
6.0
 40
6.0
 40
6.0
 40
7.0
 40
7.0
 40
7.0
 40
8.0
 40
8.0
 40
8.0
 40
9.0
 40
9.0
 40
9.0
 40
10.0
 40
10.0
 40
10.0
 40
11.0
 40
11.0
 40
11.0
 40
12.0
 40
12.0
 40
12.0
 40
13.0
 40
13.0
 40
13.0
 40
13.0
 10
118.871297170803
 20
-149.8957600536719
 30
0.0
 10
119.030116072673
 20
-150.0845512862636
 30
0.0
 10
119.1041856256059
 20
-150.1648220110699
 30
0.0
 10
119.2478461073408
 20
-150.20685217599
 30
0.0
 10
119.2478461073408
 20
-150.20685217599
 30
0.0
 10
119.2478461073408
 20
-149.5336805181721
 30
0.0
 10
119.2478461073408
 20
-149.5336805181721
 30
0.0
 10
119.2478461073408
 20
-149.5336805181721
 30
0.0
 10
119.4531737982617
 20
-149.5336805181721
 30
0.0
 10
119.4531737982617
 20
-149.5336805181721
 30
0.0
 10
119.4531737982617
 20
-149.5336805181721
 30
0.0
 10
119.4531737982617
 20
-150.4228596629151
 30
0.0
 10
119.4531737982617
 20
-150.4228596629151
 30
0.0
 10
119.0955728868928
 20
-150.3956434085817
 30
0.0
 10
119.0173692193776
 20
-150.338799333075
 30
0.0
 10
118.719023950355
 20
-150.0056585996514
 30
0.0
 10
118.5202419408561
 20
-149.7841389599498
 30
0.0
 10
118.4523735597966
 20
-149.7276393939917
 30
0.0
 10
118.3149142499352
 20
-149.7276393939917
 30
0.0
 10
118.1964029652426
 20
-149.7276393939917
 30
0.0
 10
118.0654893368031
 20
-149.7896511127262
 30
0.0
 10
118.0654893368031
 20
-149.9598388296976
 30
0.0
 10
118.0654893368031
 20
-150.1851480744329
 30
0.0
 10
118.2959662247663
 20
-150.1923827749519
 30
0.0
 10
118.4124104521677
 20
-150.1961723799857
 30
0.0
 10
118.4124104521677
 20
-150.1961723799857
 30
0.0
 10
118.4124104521677
 20
-150.3901312558052
 30
0.0
 10
118.4124104521677
 20
-150.3901312558052
 30
0.0
 10
118.285286428762
 20
-150.3825520457377
 30
0.0
 10
118.1733208254914
 20
-150.373594797476
 30
0.0
 10
118.0548095407988
 20
-150.304003868674
 30
0.0
 10
117.8939235816376
 20
-150.2089192332811
 30
0.0
 10
117.8601616458822
 20
-150.0476887645714
 30
0.0
 10
117.8601616458822
 20
-149.9470919764021
 30
0.0
 10
117.8601616458822
 20
-149.7073133306287
 30
0.0
 10
118.0441297447945
 20
-149.5281683653957
 30
0.0
 10
118.3169813072263
 20
-149.5281683653957
 30
0.0
 10
118.5457356474469
 20
-149.5281683653957
 30
0.0
 10
118.6449543974221
 20
-149.628765153565
 30
0.0
 10
118.871297170803
 20
-149.8957600536719
 30
0.0
  0
HATCH
  5
70
330
6B
100
AcDbEntity
  8
_U+30EC_U+30A4_U+30E4_U+30FC 1
 62
   179
420
  2234388
100
AcDbHatch
 10
0.0
 20
0.0
 30
0.0
210
0.0
220
0.0
230
1.0
  2
SOLID
 70
     1
 71
     0
 91
        1
 92
        1
 93
        1
 72
     4
 94
        3
 73
     0
 74
     1
 95
       44
 96
       40
 40
0.0
 40
0.0
 40
0.0
 40
0.0
 40
1.0
 40
1.0
 40
1.0
 40
2.0
 40
2.0
 40
2.0
 40
3.0
 40
3.0
 40
3.0
 40
4.0
 40
4.0
 40
4.0
 40
5.0
 40
5.0
 40
5.0
 40
6.0
 40
6.0
 40
6.0
 40
7.0
 40
7.0
 40
7.0
 40
8.0
 40
8.0
 40
8.0
 40
9.0
 40
9.0
 40
9.0
 40
10.0
 40
10.0
 40
10.0
 40
11.0
 40
11.0
 40
11.0
 40
12.0
 40
12.0
 40
12.0
 40
13.0
 40
13.0
 40
13.0
 40
13.0
 10
118.871297170803
 20
-149.8957600536719
 10
119.030116072673
 20
-150.0845512862636
 10
119.1041856256059
 20
-150.1648220110699
 10
119.2478461073408
 20
-150.20685217599
 10
119.2478461073408
 20
-150.20685217599
 10
119.2478461073408
 20
-149.5336805181721
 10
119.2478461073408
 20
-149.5336805181721
 10
119.2478461073408
 20
-149.5336805181721
 10
119.4531737982617
 20
-149.5336805181721
 10
119.4531737982617
 20
-149.5336805181721
 10
119.4531737982617
 20
-149.5336805181721
 10
119.4531737982617
 20
-150.4228596629151
 10
119.4531737982617
 20
-150.4228596629151
 10
119.0955728868928
 20
-150.3956434085817
 10
119.0173692193776
 20
-150.338799333075
 10
118.719023950355
 20
-150.0056585996514
 10
118.5202419408561
 20
-149.7841389599498
 10
118.4523735597966
 20
-149.7276393939917
 10
118.3149142499352
 20
-149.7276393939917
 10
118.1964029652426
 20
-149.7276393939917
 10
118.0654893368031
 20
-149.7896511127262
 10
118.0654893368031
 20
-149.9598388296976
 10
118.0654893368031
 20
-150.1851480744329
 10
118.2959662247663
 20
-150.1923827749519
 10
118.4124104521677
 20
-150.1961723799857
 10
118.4124104521677
 20
-150.1961723799857
 10
118.4124104521677
 20
-150.3901312558052
 10
118.4124104521677
 20
-150.3901312558052
 10
118.285286428762
 20
-150.3825520457377
 10
118.1733208254914
 20
-150.373594797476
 10
118.0548095407988
 20
-150.304003868674
 10
117.8939235816376
 20
-150.2089192332811
 10
117.8601616458822
 20
-150.0476887645714
 10
117.8601616458822
 20
-149.9470919764021
 10
117.8601616458822
 20
-149.7073133306287
 10
118.0441297447945
 20
-149.5281683653957
 10
118.3169813072263
 20
-149.5281683653957
 10
118.5457356474469
 20
-149.5281683653957
 10
118.6449543974221
 20
-149.628765153565
 10
118.871297170803
 20
-149.8957600536719
 97
        0
 97
        0
 75
     2
 76
     1
 98
        0
  0
ENDBLK
  5
6E
330
6B
100
AcDbEntity
  8
0
100
AcDbBlockEnd
  0
BLOCK
  5
7F
330
7D
100
AcDbEntity
  8
0
100
AcDbBlockBegin
  2
block 3
 70
     0
 10
0.0
 20
0.0
 30
0.0
  3
block 3
  1

  0
SPLINE
  5
81
330
7D
100
AcDbEntity
  8
_U+30EC_U+30A4_U+30E4_U+30FC 1
370
     0
100
AcDbSpline
210
0.0
220
0.0
230
1.0
 70
    11
 71
     3
 72
    53
 73
    49
 74
     0
 42
0.0000000001
 43
0.0000000001
 12
1.0
 22
0.0
 32
0.0
 13
1.0
 23
0.0
 33
0.0
 40
0.0
 40
0.0
 40
0.0
 40
0.0
 40
1.0
 40
1.0
 40
1.0
 40
2.0
 40
2.0
 40
2.0
 40
3.0
 40
3.0
 40
3.0
 40
4.0
 40
4.0
 40
4.0
 40
5.0
 40
5.0
 40
5.0
 40
6.0
 40
6.0
 40
6.0
 40
7.0
 40
7.0
 40
7.0
 40
8.0
 40
8.0
 40
8.0
 40
9.0
 40
9.0
 40
9.0
 40
10.0
 40
10.0
 40
10.0
 40
11.0
 40
11.0
 40
11.0
 40
12.0
 40
12.0
 40
12.0
 40
13.0
 40
13.0
 40
13.0
 40
14.0
 40
14.0
 40
14.0
 40
15.0
 40
15.0
 40
15.0
 40
16.0
 40
16.0
 40
16.0
 40
16.0
 10
62.91485051595532
 20
-126.6594522795331
 30
0.0
 10
62.91485051595532
 20
-126.7273206605925
 30
0.0
 10
62.8979695480776
 20
-126.8148260859178
 30
0.0
 10
62.83440753637473
 20
-126.9030205303402
 30
0.0
 10
62.724336735621
 20
-127.0528821839486
 30
0.0
 10
62.59325085240724
 20
-127.0711411900204
 30
0.0
 10
62.48541936371893
 20
-127.0876776483496
 30
0.0
 10
62.48541936371893
 20
-127.0876776483496
 30
0.0
 10
62.48541936371893
 20
-126.8954413202727
 30
0.0
 10
62.48541936371893
 20
-126.8954413202727
 30
0.0
 10
62.68420137321784
 20
-126.8478990025762
 30
0.0
 10
62.71382919439099
 20
-126.7380004565968
 30
0.0
 10
62.71382919439099
 20
-126.6577297317904
 30
0.0
 10
62.71382919439099
 20
-126.5368068802582
 30
0.0
 10
62.61443818964153
 20
-126.4048597231731
 30
0.0
 10
62.38172198961291
 20
-126.4048597231731
 30
0.0
 10
62.12575139505884
 20
-126.4048597231731
 30
0.0
 10
62.05598821148254
 20
-126.5605780391064
 30
0.0
 10
62.05598821148254
 20
-126.6649644323095
 30
0.0
 10
62.05598821148254
 20
-126.6925251961915
 30
0.0
 10
62.05598821148254
 20
-126.8148260859178
 30
0.0
 10
62.18500703740514
 20
-126.8919962247874
 30
0.0
 10
62.18500703740514
 20
-126.8919962247874
 30
0.0
 10
62.165886757462
 20
-127.0439249356869
 30
0.0
 10
62.165886757462
 20
-127.0439249356869
 30
0.0
 10
62.165886757462
 20
-127.0439249356869
 30
0.0
 10
61.31977130628464
 20
-126.9395385424839
 30
0.0
 10
61.31977130628464
 20
-126.9395385424839
 30
0.0
 10
61.31977130628464
 20
-126.9395385424839
 30
0.0
 10
61.31977130628464
 20
-126.2660223751175
 30
0.0
 10
61.31977130628464
 20
-126.2660223751175
 30
0.0
 10
61.31977130628464
 20
-126.2660223751175
 30
0.0
 10
61.51441920120126
 20
-126.2660223751175
 30
0.0
 10
61.51441920120126
 20
-126.2660223751175
 30
0.0
 10
61.51441920120126
 20
-126.2660223751175
 30
0.0
 10
61.51441920120126
 20
-126.7986341371372
 30
0.0
 10
61.51441920120126
 20
-126.7986341371372
 30
0.0
 10
61.51441920120126
 20
-126.7986341371372
 30
0.0
 10
61.93747692678994
 20
-126.8551337030952
 30
0.0
 10
61.93747692678994
 20
-126.8551337030952
 30
0.0
 10
61.90354273626023
 20
-126.8020792326224
 30
0.0
 10
61.86340737385706
 20
-126.7307657560777
 30
0.0
 10
61.86340737385706
 20
-126.6284464201658
 30
0.0
 10
61.86340737385706
 20
-126.4086493282069
 30
0.0
 10
62.04961478483482
 20
-126.2036661468345
 30
0.0
 10
62.36260170966977
 20
-126.2036661468345
 30
0.0
 10
62.68006725863554
 20
-126.2036661468345
 30
0.0
 10
62.91485051595532
 20
-126.3976250226541
 30
0.0
 10
62.91485051595532
 20
-126.6594522795331
 30
0.0
  0
HATCH
  5
82
330
7D
100
AcDbEntity
  8
_U+30EC_U+30A4_U+30E4_U+30FC 1
 62
   179
420
  2234388
100
AcDbHatch
 10
0.0
 20
0.0
 30
0.0
210
0.0
220
0.0
230
1.0
  2
SOLID
 70
     1
 71
     0
 91
        1
 92
        1
 93
        1
 72
     4
 94
        3
 73
     0
 74
     1
 95
       53
 96
       49
 40
0.0
 40
0.0
 40
0.0
 40
0.0
 40
1.0
 40
1.0
 40
1.0
 40
2.0
 40
2.0
 40
2.0
 40
3.0
 40
3.0
 40
3.0
 40
4.0
 40
4.0
 40
4.0
 40
5.0
 40
5.0
 40
5.0
 40
6.0
 40
6.0
 40
6.0
 40
7.0
 40
7.0
 40
7.0
 40
8.0
 40
8.0
 40
8.0
 40
9.0
 40
9.0
 40
9.0
 40
10.0
 40
10.0
 40
10.0
 40
11.0
 40
11.0
 40
11.0
 40
12.0
 40
12.0
 40
12.0
 40
13.0
 40
13.0
 40
13.0
 40
14.0
 40
14.0
 40
14.0
 40
15.0
 40
15.0
 40
15.0
 40
16.0
 40
16.0
 40
16.0
 40
16.0
 10
62.91485051595532
 20
-126.6594522795331
 10
62.91485051595532
 20
-126.7273206605925
 10
62.8979695480776
 20
-126.8148260859178
 10
62.83440753637473
 20
-126.9030205303402
 10
62.724336735621
 20
-127.0528821839486
 10
62.59325085240724
 20
-127.0711411900204
 10
62.48541936371893
 20
-127.0876776483496
 10
62.48541936371893
 20
-127.0876776483496
 10
62.48541936371893
 20
-126.8954413202727
 10
62.48541936371893
 20
-126.8954413202727
 10
62.68420137321784
 20
-126.8478990025762
 10
62.71382919439099
 20
-126.7380004565968
 10
62.71382919439099
 20
-126.6577297317904
 10
62.71382919439099
 20
-126.5368068802582
 10
62.61443818964153
 20
-126.4048597231731
 10
62.38172198961291
 20
-126.4048597231731
 10
62.12575139505884
 20
-126.4048597231731
 10
62.05598821148254
 20
-126.5605780391064
 10
62.05598821148254
 20
-126.6649644323095
 10
62.05598821148254
 20
-126.6925251961915
 10
62.05598821148254
 20
-126.8148260859178
 10
62.18500703740514
 20
-126.8919962247874
 10
62.18500703740514
 20
-126.8919962247874
 10
62.165886757462
 20
-127.0439249356869
 10
62.165886757462
 20
-127.0439249356869
 10
62.165886757462
 20
-127.0439249356869
 10
61.31977130628464
 20
-126.9395385424839
 10
61.31977130628464
 20
-126.9395385424839
 10
61.31977130628464
 20
-126.9395385424839
 10
61.31977130628464
 20
-126.2660223751175
 10
61.31977130628464
 20
-126.2660223751175
 10
61.31977130628464
 20
-126.2660223751175
 10
61.51441920120126
 20
-126.2660223751175
 10
61.51441920120126
 20
-126.2660223751175
 10
61.51441920120126
 20
-126.2660223751175
 10
61.51441920120126
 20
-126.7986341371372
 10
61.51441920120126
 20
-126.7986341371372
 10
61.51441920120126
 20
-126.7986341371372
 10
61.93747692678994
 20
-126.8551337030952
 10
61.93747692678994
 20
-126.8551337030952
 10
61.90354273626023
 20
-126.8020792326224
 10
61.86340737385706
 20
-126.7307657560777
 10
61.86340737385706
 20
-126.6284464201658
 10
61.86340737385706
 20
-126.4086493282069
 10
62.04961478483482
 20
-126.2036661468345
 10
62.36260170966977
 20
-126.2036661468345
 10
62.68006725863554
 20
-126.2036661468345
 10
62.91485051595532
 20
-126.3976250226541
 10
62.91485051595532
 20
-126.6594522795331
 97
        0
 97
        0
 75
     2
 76
     1
 98
        0
  0
SPLINE
  5
83
330
7D
100
AcDbEntity
  8
_U+30EC_U+30A4_U+30E4_U+30FC 1
370
     0
100
AcDbSpline
210
0.0
220
0.0
230
1.0
 70
    11
 71
     3
 72
    29
 73
    25
 74
     0
 42
0.0000000001
 43
0.0000000001
 12
1.0
 22
0.0
 32
0.0
 13
1.0
 23
0.0
 33
0.0
 40
0.0
 40
0.0
 40
0.0
 40
0.0
 40
1.0
 40
1.0
 40
1.0
 40
2.0
 40
2.0
 40
2.0
 40
3.0
 40
3.0
 40
3.0
 40
4.0
 40
4.0
 40
4.0
 40
5.0
 40
5.0
 40
5.0
 40
6.0
 40
6.0
 40
6.0
 40
7.0
 40
7.0
 40
7.0
 40
8.0
 40
8.0
 40
8.0
 40
8.0
 10
62.68626843050899
 20
-125.2814140854331
 30
0.0
 10
62.89573023601218
 20
-125.3747761730834
 30
0.0
 10
62.91485051595532
 20
-125.5249823362403
 30
0.0
 10
62.91485051595532
 20
-125.6255791244096
 30
0.0
 10
62.91485051595532
 20
-125.7647609820137
 30
0.0
 10
62.86834172690445
 20
-125.8874063812886
 30
0.0
 10
62.68626843050899
 20
-125.969744163386
 30
0.0
 10
62.49179279036664
 20
-126.0593166460025
 30
0.0
 10
62.25477022098145
 20
-126.0758531043317
 30
0.0
 10
62.09181720452913
 20
-126.0758531043317
 30
0.0
 10
61.94798446801995
 20
-126.0758531043317
 30
0.0
 10
61.69632024282245
 20
-126.0610391937452
 30
0.0
 10
61.49736597854928
 20
-125.969744163386
 30
0.0
 10
61.29427759969379
 20
-125.8763820757358
 30
0.0
 10
61.27102320516835
 20
-125.7372002181317
 30
0.0
 10
61.27102320516835
 20
-125.6255791244096
 30
0.0
 10
61.27102320516835
 20
-125.4884643240966
 30
0.0
 10
61.31546493692808
 20
-125.3637518675306
 30
0.0
 10
61.49736597854928
 20
-125.2814140854331
 30
0.0
 10
61.68994681617474
 20
-125.1956312078504
 30
0.0
 10
61.9183566468468
 20
-125.1753051444874
 30
0.0
 10
62.09181720452913
 20
-125.1753051444874
 30
0.0
 10
62.26321070492031
 20
-125.1753051444874
 30
0.0
 10
62.49385984765779
 20
-125.1935641505593
 30
0.0
 10
62.68626843050899
 20
-125.2814140854331
 30
0.0
  0
SPLINE
  5
84
330
7D
100
AcDbEntity
  8
_U+30EC_U+30A4_U+30E4_U+30FC 1
370
     0
100
AcDbSpline
210
0.0
220
0.0
230
1.0
 70
    11
 71
     3
 72
    17
 73
    13
 74
     0
 42
0.0000000001
 43
0.0000000001
 12
1.0
 22
0.0
 32
0.0
 13
1.0
 23
0.0
 33
0.0
 40
0.0
 40
0.0
 40
0.0
 40
0.0
 40
1.0
 40
1.0
 40
1.0
 40
2.0
 40
2.0
 40
2.0
 40
3.0
 40
3.0
 40
3.0
 40
4.0
 40
4.0
 40
4.0
 40
4.0
 10
61.46360404279383
 20
-125.6255791244096
 30
0.0
 10
61.46360404279383
 20
-125.8415866113347
 30
0.0
 10
61.74696314645562
 20
-125.8818942285122
 30
0.0
 10
62.09181720452913
 20
-125.8818942285122
 30
0.0
 10
62.41134981078606
 20
-125.8818942285122
 30
0.0
 10
62.7202026210387
 20
-125.8508883691449
 30
0.0
 10
62.7202026210387
 20
-125.6255791244096
 30
0.0
 10
62.7202026210387
 20
-125.4116386947756
 30
0.0
 10
62.43873831989379
 20
-125.369264020307
 30
0.0
 10
62.09181720452913
 20
-125.369264020307
 30
0.0
 10
61.77245685304647
 20
-125.369264020307
 30
0.0
 10
61.46360404279383
 20
-125.4023369369654
 30
0.0
 10
61.46360404279383
 20
-125.6255791244096
 30
0.0
  0
HATCH
  5
85
330
7D
100
AcDbEntity
  8
_U+30EC_U+30A4_U+30E4_U+30FC 1
 62
   179
420
  2234388
100
AcDbHatch
 10
0.0
 20
0.0
 30
0.0
210
0.0
220
0.0
230
1.0
  2
SOLID
 70
     1
 71
     0
 91
        2
 92
        1
 93
        1
 72
     4
 94
        3
 73
     0
 74
     1
 95
       29
 96
       25
 40
0.0
 40
0.0
 40
0.0
 40
0.0
 40
1.0
 40
1.0
 40
1.0
 40
2.0
 40
2.0
 40
2.0
 40
3.0
 40
3.0
 40
3.0
 40
4.0
 40
4.0
 40
4.0
 40
5.0
 40
5.0
 40
5.0
 40
6.0
 40
6.0
 40
6.0
 40
7.0
 40
7.0
 40
7.0
 40
8.0
 40
8.0
 40
8.0
 40
8.0
 10
62.68626843050899
 20
-125.2814140854331
 10
62.89573023601218
 20
-125.3747761730834
 10
62.91485051595532
 20
-125.5249823362403
 10
62.91485051595532
 20
-125.6255791244096
 10
62.91485051595532
 20
-125.7647609820137
 10
62.86834172690445
 20
-125.8874063812886
 10
62.68626843050899
 20
-125.969744163386
 10
62.49179279036664
 20
-126.0593166460025
 10
62.25477022098145
 20
-126.0758531043317
 10
62.09181720452913
 20
-126.0758531043317
 10
61.94798446801995
 20
-126.0758531043317
 10
61.69632024282245
 20
-126.0610391937452
 10
61.49736597854928
 20
-125.969744163386
 10
61.29427759969379
 20
-125.8763820757358
 10
61.27102320516835
 20
-125.7372002181317
 10
61.27102320516835
 20
-125.6255791244096
 10
61.27102320516835
 20
-125.4884643240966
 10
61.31546493692808
 20
-125.3637518675306
 10
61.49736597854928
 20
-125.2814140854331
 10
61.68994681617474
 20
-125.1956312078504
 10
61.9183566468468
 20
-125.1753051444874
 10
62.09181720452913
 20
-125.1753051444874
 10
62.26321070492031
 20
-125.1753051444874
 10
62.49385984765779
 20
-125.1935641505593
 10
62.68626843050899
 20
-125.2814140854331
 97
        0
 97
        0
 92
        1
 93
        1
 72
     4
 94
        3
 73
     0
 74
     1
 95
       17
 96
       13
 40
0.0
 40
0.0
 40
0.0
 40
0.0
 40
1.0
 40
1.0
 40
1.0
 40
2.0
 40
2.0
 40
2.0
 40
3.0
 40
3.0
 40
3.0
 40
4.0
 40
4.0
 40
4.0
 40
4.0
 10
61.46360404279383
 20
-125.6255791244096
 10
61.46360404279383
 20
-125.8415866113347
 10
61.74696314645562
 20
-125.8818942285122
 10
62.09181720452913
 20
-125.8818942285122
 10
62.41134981078606
 20
-125.8818942285122
 10
62.7202026210387
 20
-125.8508883691449
 10
62.7202026210387
 20
-125.6255791244096
 10
62.7202026210387
 20
-125.4116386947756
 10
62.43873831989379
 20
-125.369264020307
 10
62.09181720452913
 20
-125.369264020307
 10
61.77245685304647
 20
-125.369264020307
 10
61.46360404279383
 20
-125.4023369369654
 10
61.46360404279383
 20
-125.6255791244096
 97
        0
 97
        0
 75
     2
 76
     1
 98
        0
  0
ENDBLK
  5
80
330
7D
100
AcDbEntity
  8
0
100
AcDbBlockEnd
  0
BLOCK
  5
96
330
94
100
AcDbEntity
  8
0
100
AcDbBlockBegin
  2
block 4
 70
     0
 10
0.0
 20
0.0
 30
0.0
  3
block 4
  1

  0
SPLINE
  5
98
330
94
100
AcDbEntity
  8
_U+30EC_U+30A4_U+30E4_U+30FC 1
370
     0
100
AcDbSpline
210
0.0
220
0.0
230
1.0
 70
    11
 71
     3
 72
    53
 73
    49
 74
     0
 42
0.0000000001
 43
0.0000000001
 12
1.0
 22
0.0
 32
0.0
 13
1.0
 23
0.0
 33
0.0
 40
0.0
 40
0.0
 40
0.0
 40
0.0
 40
1.0
 40
1.0
 40
1.0
 40
2.0
 40
2.0
 40
2.0
 40
3.0
 40
3.0
 40
3.0
 40
4.0
 40
4.0
 40
4.0
 40
5.0
 40
5.0
 40
5.0
 40
6.0
 40
6.0
 40
6.0
 40
7.0
 40
7.0
 40
7.0
 40
8.0
 40
8.0
 40
8.0
 40
9.0
 40
9.0
 40
9.0
 40
10.0
 40
10.0
 40
10.0
 40
11.0
 40
11.0
 40
11.0
 40
12.0
 40
12.0
 40
12.0
 40
13.0
 40
13.0
 40
13.0
 40
14.0
 40
14.0
 40
14.0
 40
15.0
 40
15.0
 40
15.0
 40
16.0
 40
16.0
 40
16.0
 40
16.0
 10
90.28871796787921
 20
-154.3526800829396
 30
0.0
 10
90.2208495868198
 20
-154.3526800829396
 30
0.0
 10
90.13334416149445
 20
-154.3361436246104
 30
0.0
 10
90.04514971707205
 20
-154.2724093581333
 30
0.0
 10
89.89528806346368
 20
-154.1625108121538
 30
0.0
 10
89.87702905739185
 20
-154.0312526741658
 30
0.0
 10
89.86049259906265
 20
-153.9234211854775
 30
0.0
 10
89.86049259906265
 20
-153.9234211854775
 30
0.0
 10
90.0527289271396
 20
-153.9234211854775
 30
0.0
 10
90.0527289271396
 20
-153.9234211854775
 30
0.0
 10
90.10027124483605
 20
-154.1222031949764
 30
0.0
 10
90.21016979081551
 20
-154.1518310161495
 30
0.0
 10
90.29044051562184
 20
-154.1518310161495
 30
0.0
 10
90.41136336715411
 20
-154.1518310161495
 30
0.0
 10
90.54331052423917
 20
-154.0522677566258
 30
0.0
 10
90.54331052423917
 20
-153.8197238113715
 30
0.0
 10
90.54331052423917
 20
-153.5637532168174
 30
0.0
 10
90.38759220830589
 20
-153.4941622880154
 30
0.0
 10
90.28320581510282
 20
-153.4941622880154
 30
0.0
 10
90.25564505122081
 20
-153.4941622880154
 30
0.0
 10
90.13334416149445
 20
-153.4941622880154
 30
0.0
 10
90.05617402262484
 20
-153.6230088591637
 30
0.0
 10
90.05617402262484
 20
-153.6230088591637
 30
0.0
 10
89.90424531172533
 20
-153.6037163244463
 30
0.0
 10
89.90424531172533
 20
-153.6037163244463
 30
0.0
 10
89.90424531172533
 20
-153.6037163244463
 30
0.0
 10
90.0086317049284
 20
-152.7576008732689
 30
0.0
 10
90.0086317049284
 20
-152.7576008732689
 30
0.0
 10
90.0086317049284
 20
-152.7576008732689
 30
0.0
 10
90.68214787229475
 20
-152.7576008732689
 30
0.0
 10
90.68214787229475
 20
-152.7576008732689
 30
0.0
 10
90.68214787229475
 20
-152.7576008732689
 30
0.0
 10
90.68214787229475
 20
-152.9525932777341
 30
0.0
 10
90.68214787229475
 20
-152.9525932777341
 30
0.0
 10
90.68214787229475
 20
-152.9525932777341
 30
0.0
 10
90.14953611027512
 20
-152.9525932777341
 30
0.0
 10
90.14953611027512
 20
-152.9525932777341
 30
0.0
 10
90.14953611027512
 20
-152.9525932777341
 30
0.0
 10
90.09303654431702
 20
-153.3756510033228
 30
0.0
 10
90.09303654431702
 20
-153.3756510033228
 30
0.0
 10
90.14609101478987
 20
-153.3415445580188
 30
0.0
 10
90.21740449133455
 20
-153.3012369408414
 30
0.0
 10
90.31972382724646
 20
-153.3012369408414
 30
0.0
 10
90.5395209192054
 20
-153.3012369408414
 30
0.0
 10
90.74450410057777
 20
-153.4876166065934
 30
0.0
 10
90.74450410057777
 20
-153.8007757862026
 30
0.0
 10
90.74450410057777
 20
-154.1180690803941
 30
0.0
 10
90.5505452247582
 20
-154.3526800829396
 30
0.0
 10
90.28871796787921
 20
-154.3526800829396
 30
0.0
  0
HATCH
  5
99
330
94
100
AcDbEntity
  8
_U+30EC_U+30A4_U+30E4_U+30FC 1
 62
   179
420
  2234388
100
AcDbHatch
 10
0.0
 20
0.0
 30
0.0
210
0.0
220
0.0
230
1.0
  2
SOLID
 70
     1
 71
     0
 91
        1
 92
        1
 93
        1
 72
     4
 94
        3
 73
     0
 74
     1
 95
       53
 96
       49
 40
0.0
 40
0.0
 40
0.0
 40
0.0
 40
1.0
 40
1.0
 40
1.0
 40
2.0
 40
2.0
 40
2.0
 40
3.0
 40
3.0
 40
3.0
 40
4.0
 40
4.0
 40
4.0
 40
5.0
 40
5.0
 40
5.0
 40
6.0
 40
6.0
 40
6.0
 40
7.0
 40
7.0
 40
7.0
 40
8.0
 40
8.0
 40
8.0
 40
9.0
 40
9.0
 40
9.0
 40
10.0
 40
10.0
 40
10.0
 40
11.0
 40
11.0
 40
11.0
 40
12.0
 40
12.0
 40
12.0
 40
13.0
 40
13.0
 40
13.0
 40
14.0
 40
14.0
 40
14.0
 40
15.0
 40
15.0
 40
15.0
 40
16.0
 40
16.0
 40
16.0
 40
16.0
 10
90.28871796787921
 20
-154.3526800829396
 10
90.2208495868198
 20
-154.3526800829396
 10
90.13334416149445
 20
-154.3361436246104
 10
90.04514971707205
 20
-154.2724093581333
 10
89.89528806346368
 20
-154.1625108121538
 10
89.87702905739185
 20
-154.0312526741658
 10
89.86049259906265
 20
-153.9234211854775
 10
89.86049259906265
 20
-153.9234211854775
 10
90.0527289271396
 20
-153.9234211854775
 10
90.0527289271396
 20
-153.9234211854775
 10
90.10027124483605
 20
-154.1222031949764
 10
90.21016979081551
 20
-154.1518310161495
 10
90.29044051562184
 20
-154.1518310161495
 10
90.41136336715411
 20
-154.1518310161495
 10
90.54331052423917
 20
-154.0522677566258
 10
90.54331052423917
 20
-153.8197238113715
 10
90.54331052423917
 20
-153.5637532168174
 10
90.38759220830589
 20
-153.4941622880154
 10
90.28320581510282
 20
-153.4941622880154
 10
90.25564505122081
 20
-153.4941622880154
 10
90.13334416149445
 20
-153.4941622880154
 10
90.05617402262484
 20
-153.6230088591637
 10
90.05617402262484
 20
-153.6230088591637
 10
89.90424531172533
 20
-153.6037163244463
 10
89.90424531172533
 20
-153.6037163244463
 10
89.90424531172533
 20
-153.6037163244463
 10
90.0086317049284
 20
-152.7576008732689
 10
90.0086317049284
 20
-152.7576008732689
 10
90.0086317049284
 20
-152.7576008732689
 10
90.68214787229475
 20
-152.7576008732689
 10
90.68214787229475
 20
-152.7576008732689
 10
90.68214787229475
 20
-152.7576008732689
 10
90.68214787229475
 20
-152.9525932777341
 10
90.68214787229475
 20
-152.9525932777341
 10
90.68214787229475
 20
-152.9525932777341
 10
90.14953611027512
 20
-152.9525932777341
 10
90.14953611027512
 20
-152.9525932777341
 10
90.14953611027512
 20
-152.9525932777341
 10
90.09303654431702
 20
-153.3756510033228
 10
90.09303654431702
 20
-153.3756510033228
 10
90.14609101478987
 20
-153.3415445580188
 10
90.21740449133455
 20
-153.3012369408414
 10
90.31972382724646
 20
-153.3012369408414
 10
90.5395209192054
 20
-153.3012369408414
 10
90.74450410057777
 20
-153.4876166065934
 10
90.74450410057777
 20
-153.8007757862026
 10
90.74450410057777
 20
-154.1180690803941
 10
90.5505452247582
 20
-154.3526800829396
 10
90.28871796787921
 20
-154.3526800829396
 97
        0
 97
        0
 75
     2
 76
     1
 98
        0
  0
SPLINE
  5
9A
330
94
100
AcDbEntity
  8
_U+30EC_U+30A4_U+30E4_U+30FC 1
370
     0
100
AcDbSpline
210
0.0
220
0.0
230
1.0
 70
    11
 71
     3
 72
    29
 73
    25
 74
     0
 42
0.0000000001
 43
0.0000000001
 12
1.0
 22
0.0
 32
0.0
 13
1.0
 23
0.0
 33
0.0
 40
0.0
 40
0.0
 40
0.0
 40
0.0
 40
1.0
 40
1.0
 40
1.0
 40
2.0
 40
2.0
 40
2.0
 40
3.0
 40
3.0
 40
3.0
 40
4.0
 40
4.0
 40
4.0
 40
5.0
 40
5.0
 40
5.0
 40
6.0
 40
6.0
 40
6.0
 40
7.0
 40
7.0
 40
7.0
 40
8.0
 40
8.0
 40
8.0
 40
8.0
 10
91.66675616197915
 20
-154.1242702522676
 30
0.0
 10
91.57339407432887
 20
-154.3337320577707
 30
0.0
 10
91.42318791117198
 20
-154.3526800829396
 30
0.0
 10
91.3225911230027
 20
-154.3526800829396
 30
0.0
 10
91.1834092653986
 20
-154.3526800829396
 30
0.0
 10
91.06076386612371
 20
-154.3065158034373
 30
0.0
 10
90.97842608402622
 20
-154.1242702522676
 30
0.0
 10
90.88885360140974
 20
-153.9296223573509
 30
0.0
 10
90.87231714308054
 20
-153.6925997879657
 30
0.0
 10
90.87231714308054
 20
-153.529991281062
 30
0.0
 10
90.87231714308054
 20
-153.3859862897785
 30
0.0
 10
90.8871310536671
 20
-153.1344943193553
 30
0.0
 10
90.97842608402622
 20
-152.9353678003078
 30
0.0
 10
91.0717881716765
 20
-152.7321071666781
 30
0.0
 10
91.21097002928059
 20
-152.7090250269269
 30
0.0
 10
91.3225911230027
 20
-152.7090250269269
 30
0.0
 10
91.45970592331564
 20
-152.7090250269269
 30
0.0
 10
91.58441837988168
 20
-152.7534667586866
 30
0.0
 10
91.66675616197915
 20
-152.9353678003078
 30
0.0
 10
91.75253903956187
 20
-153.1279486379333
 30
0.0
 10
91.77286510292484
 20
-153.3563584686054
 30
0.0
 10
91.77286510292484
 20
-153.529991281062
 30
0.0
 10
91.77286510292484
 20
-153.7012125266789
 30
0.0
 10
91.75460609685302
 20
-153.9316894146421
 30
0.0
 10
91.66675616197915
 20
-154.1242702522676
 30
0.0
  0
SPLINE
  5
9B
330
94
100
AcDbEntity
  8
_U+30EC_U+30A4_U+30E4_U+30FC 1
370
     0
100
AcDbSpline
210
0.0
220
0.0
230
1.0
 70
    11
 71
     3
 72
    17
 73
    13
 74
     0
 42
0.0000000001
 43
0.0000000001
 12
1.0
 22
0.0
 32
0.0
 13
1.0
 23
0.0
 33
0.0
 40
0.0
 40
0.0
 40
0.0
 40
0.0
 40
1.0
 40
1.0
 40
1.0
 40
2.0
 40
2.0
 40
2.0
 40
3.0
 40
3.0
 40
3.0
 40
4.0
 40
4.0
 40
4.0
 40
4.0
 10
91.3225911230027
 20
-152.9016058645524
 30
0.0
 10
91.10658363607753
 20
-152.9016058645524
 30
0.0
 10
91.0662760189001
 20
-153.1847927134399
 30
0.0
 10
91.0662760189001
 20
-153.529991281062
 30
0.0
 10
91.0662760189001
 20
-153.8493516325446
 30
0.0
 10
91.09728187826735
 20
-154.1583766975715
 30
0.0
 10
91.3225911230027
 20
-154.1583766975715
 30
0.0
 10
91.5365315526367
 20
-154.1583766975715
 30
0.0
 10
91.57890622710528
 20
-153.8765678868781
 30
0.0
 10
91.57890622710528
 20
-153.529991281062
 30
0.0
 10
91.57890622710528
 20
-153.2102864200308
 30
0.0
 10
91.54583331044688
 20
-152.9016058645524
 30
0.0
 10
91.3225911230027
 20
-152.9016058645524
 30
0.0
  0
HATCH
  5
9C
330
94
100
AcDbEntity
  8
_U+30EC_U+30A4_U+30E4_U+30FC 1
 62
   179
420
  2234388
100
AcDbHatch
 10
0.0
 20
0.0
 30
0.0
210
0.0
220
0.0
230
1.0
  2
SOLID
 70
     1
 71
     0
 91
        2
 92
        1
 93
        1
 72
     4
 94
        3
 73
     0
 74
     1
 95
       29
 96
       25
 40
0.0
 40
0.0
 40
0.0
 40
0.0
 40
1.0
 40
1.0
 40
1.0
 40
2.0
 40
2.0
 40
2.0
 40
3.0
 40
3.0
 40
3.0
 40
4.0
 40
4.0
 40
4.0
 40
5.0
 40
5.0
 40
5.0
 40
6.0
 40
6.0
 40
6.0
 40
7.0
 40
7.0
 40
7.0
 40
8.0
 40
8.0
 40
8.0
 40
8.0
 10
91.66675616197915
 20
-154.1242702522676
 10
91.57339407432887
 20
-154.3337320577707
 10
91.42318791117198
 20
-154.3526800829396
 10
91.3225911230027
 20
-154.3526800829396
 10
91.1834092653986
 20
-154.3526800829396
 10
91.06076386612371
 20
-154.3065158034373
 10
90.97842608402622
 20
-154.1242702522676
 10
90.88885360140974
 20
-153.9296223573509
 10
90.87231714308054
 20
-153.6925997879657
 10
90.87231714308054
 20
-153.529991281062
 10
90.87231714308054
 20
-153.3859862897785
 10
90.8871310536671
 20
-153.1344943193553
 10
90.97842608402622
 20
-152.9353678003078
 10
91.0717881716765
 20
-152.7321071666781
 10
91.21097002928059
 20
-152.7090250269269
 10
91.3225911230027
 20
-152.7090250269269
 10
91.45970592331564
 20
-152.7090250269269
 10
91.58441837988168
 20
-152.7534667586866
 10
91.66675616197915
 20
-152.9353678003078
 10
91.75253903956187
 20
-153.1279486379333
 10
91.77286510292484
 20
-153.3563584686054
 10
91.77286510292484
 20
-153.529991281062
 10
91.77286510292484
 20
-153.7012125266789
 10
91.75460609685302
 20
-153.9316894146421
 10
91.66675616197915
 20
-154.1242702522676
 97
        0
 97
        0
 92
        1
 93
        1
 72
     4
 94
        3
 73
     0
 74
     1
 95
       17
 96
       13
 40
0.0
 40
0.0
 40
0.0
 40
0.0
 40
1.0
 40
1.0
 40
1.0
 40
2.0
 40
2.0
 40
2.0
 40
3.0
 40
3.0
 40
3.0
 40
4.0
 40
4.0
 40
4.0
 40
4.0
 10
91.3225911230027
 20
-152.9016058645524
 10
91.10658363607753
 20
-152.9016058645524
 10
91.0662760189001
 20
-153.1847927134399
 10
91.0662760189001
 20
-153.529991281062
 10
91.0662760189001
 20
-153.8493516325446
 10
91.09728187826735
 20
-154.1583766975715
 10
91.3225911230027
 20
-154.1583766975715
 10
91.5365315526367
 20
-154.1583766975715
 10
91.57890622710528
 20
-153.8765678868781
 10
91.57890622710528
 20
-153.529991281062
 10
91.57890622710528
 20
-153.2102864200308
 10
91.54583331044688
 20
-152.9016058645524
 10
91.3225911230027
 20
-152.9016058645524
 97
        0
 97
        0
 75
     2
 76
     1
 98
        0
  0
ENDBLK
  5
97
330
94
100
AcDbEntity
  8
0
100
AcDbBlockEnd
  0
ENDSEC
  0
SECTION
  2
ENTITIES
  0
SPLINE
  5
41
330
1F
100
AcDbEntity
  8
_U+30EC_U+30A4_U+30E4_U+30FC 1
 62
    19
420
  5188122
370
     9
100
AcDbSpline
210
0.0
220
0.0
230
1.0
 70
    11
 71
     3
 72
    38
 73
    34
 74
     0
 42
0.0000000001
 43
0.0000000001
 12
1.0
 22
0.0
 32
0.0
 13
1.0
 23
0.0
 33
0.0
 40
0.0
 40
0.0
 40
0.0
 40
0.0
 40
1.0
 40
1.0
 40
1.0
 40
2.0
 40
2.0
 40
2.0
 40
3.0
 40
3.0
 40
3.0
 40
4.0
 40
4.0
 40
4.0
 40
5.0
 40
5.0
 40
5.0
 40
6.0
 40
6.0
 40
6.0
 40
7.0
 40
7.0
 40
7.0
 40
8.0
 40
8.0
 40
8.0
 40
9.0
 40
9.0
 40
9.0
 40
10.0
 40
10.0
 40
10.0
 40
11.0
 40
11.0
 40
11.0
 40
11.0
 10
116.0494249709879
 20
-148.7668121850303
 30
0.0
 10
116.0494249709879
 20
-148.7668121850303
 30
0.0
 10
68.18206664962113
 20
-148.7668121850303
 30
0.0
 10
68.18206664962113
 20
-148.7668121850303
 30
0.0
 10
68.18206664962113
 20
-148.7668121850303
 30
0.0
 10
68.18206664962113
 20
-100.8991010858865
 30
0.0
 10
68.18206664962113
 20
-100.8991010858865
 30
0.0
 10
68.18206664962113
 20
-100.8260760859046
 30
0.0
 10
68.1227999829694
 20
-100.7668094192529
 30
0.0
 10
68.04977498298754
 20
-100.7668094192529
 30
0.0
 10
68.04977498298754
 20
-100.7668094192529
 30
0.0
 10
66.04955859271315
 20
-100.7668094192529
 30
0.0
 10
66.04955859271315
 20
-100.7668094192529
 30
0.0
 10
65.97649998350603
 20
-100.7668094192529
 30
0.0
 10
65.91726692942153
 20
-100.8260760859046
 30
0.0
 10
65.91726692942153
 20
-100.8991010858865
 30
0.0
 10
65.91726692942153
 20
-100.8991010858865
 30
0.0
 10
65.91726692942153
 20
-150.8993185733864
 30
0.0
 10
65.91726692942153
 20
-150.8993185733864
 30
0.0
 10
65.91726692942153
 20
-150.9723435733682
 30
0.0
 10
65.97649998350603
 20
-151.03161024002
 30
0.0
 10
66.04955859271315
 20
-151.03161024002
 30
0.0
 10
66.04955859271315
 20
-151.03161024002
 30
0.0
 10
116.0494249709879
 20
-151.03161024002
 30
0.0
 10
116.0494249709879
 20
-151.03161024002
 30
0.0
 10
116.1224499709691
 20
-151.03161024002
 30
0.0
 10
116.1817166376215
 20
-150.9723435733682
 30
0.0
 10
116.1817166376215
 20
-150.8993185733864
 30
0.0
 10
116.1817166376215
 20
-150.8993185733864
 30
0.0
 10
116.1817166376215
 20
-148.8991038516639
 30
0.0
 10
116.1817166376215
 20
-148.8991038516639
 30
0.0
 10
116.1817166376215
 20
-148.8260435739046
 30
0.0
 10
116.1224499709691
 20
-148.7668121850303
 30
0.0
 10
116.0494249709879
 20
-148.7668121850303
 30
0.0
  0
HATCH
  5
42
330
1F
100
AcDbEntity
  8
_U+30EC_U+30A4_U+30E4_U+30FC 1
 62
    19
420
  5188122
100
AcDbHatch
 10
0.0
 20
0.0
 30
0.0
210
0.0
220
0.0
230
1.0
  2
SOLID
 70
     1
 71
     0
 91
        1
 92
        1
 93
        1
 72
     4
 94
        3
 73
     0
 74
     1
 95
       38
 96
       34
 40
0.0
 40
0.0
 40
0.0
 40
0.0
 40
1.0
 40
1.0
 40
1.0
 40
2.0
 40
2.0
 40
2.0
 40
3.0
 40
3.0
 40
3.0
 40
4.0
 40
4.0
 40
4.0
 40
5.0
 40
5.0
 40
5.0
 40
6.0
 40
6.0
 40
6.0
 40
7.0
 40
7.0
 40
7.0
 40
8.0
 40
8.0
 40
8.0
 40
9.0
 40
9.0
 40
9.0
 40
10.0
 40
10.0
 40
10.0
 40
11.0
 40
11.0
 40
11.0
 40
11.0
 10
116.0494249709879
 20
-148.7668121850303
 10
116.0494249709879
 20
-148.7668121850303
 10
68.18206664962113
 20
-148.7668121850303
 10
68.18206664962113
 20
-148.7668121850303
 10
68.18206664962113
 20
-148.7668121850303
 10
68.18206664962113
 20
-100.8991010858865
 10
68.18206664962113
 20
-100.8991010858865
 10
68.18206664962113
 20
-100.8260760859046
 10
68.1227999829694
 20
-100.7668094192529
 10
68.04977498298754
 20
-100.7668094192529
 10
68.04977498298754
 20
-100.7668094192529
 10
66.04955859271315
 20
-100.7668094192529
 10
66.04955859271315
 20
-100.7668094192529
 10
65.97649998350603
 20
-100.7668094192529
 10
65.91726692942153
 20
-100.8260760859046
 10
65.91726692942153
 20
-100.8991010858865
 10
65.91726692942153
 20
-100.8991010858865
 10
65.91726692942153
 20
-150.8993185733864
 10
65.91726692942153
 20
-150.8993185733864
 10
65.91726692942153
 20
-150.9723435733682
 10
65.97649998350603
 20
-151.03161024002
 10
66.04955859271315
 20
-151.03161024002
 10
66.04955859271315
 20
-151.03161024002
 10
116.0494249709879
 20
-151.03161024002
 10
116.0494249709879
 20
-151.03161024002
 10
116.1224499709691
 20
-151.03161024002
 10
116.1817166376215
 20
-150.9723435733682
 10
116.1817166376215
 20
-150.8993185733864
 10
116.1817166376215
 20
-150.8993185733864
 10
116.1817166376215
 20
-148.8991038516639
 10
116.1817166376215
 20
-148.8991038516639
 10
116.1817166376215
 20
-148.8260435739046
 10
116.1224499709691
 20
-148.7668121850303
 10
116.0494249709879
 20
-148.7668121850303
 97
        0
 97
        0
 75
     2
 76
     1
 98
        0
  0
POLYLINE
  5
43
330
1F
100
AcDbEntity
  8
_U+30EC_U+30A4_U+30E4_U+30FC 1
 62
   179
420
  2234388
370
    25
100
AcDb2dPolyline
 66
     1
 10
0.0
 20
0.0
 30
0.0
  0
VERTEX
  5
44
330
43
100
AcDbEntity
  8
_U+30EC_U+30A4_U+30E4_U+30FC 1
 62
   179
420
  2234388
370
    25
100
AcDbVertex
100
AcDb2dVertex
 10
116.0494249709879
 20
-148.8991038516639
 30
0.0
  0
VERTEX
  5
45
330
43
100
AcDbEntity
  8
_U+30EC_U+30A4_U+30E4_U+30FC 1
 62
   179
420
  2234388
370
    25
100
AcDbVertex
100
AcDb2dVertex
 10
116.0494249709879
 20
-150.8993185733864
 30
0.0
  0
SEQEND
  5
46
330
43
100
AcDbEntity
  8
_U+30EC_U+30A4_U+30E4_U+30FC 1
 62
   179
420
  2234388
370
    25
  0
POLYLINE
  5
47
330
1F
100
AcDbEntity
  8
_U+30EC_U+30A4_U+30E4_U+30FC 1
 62
   179
420
  2234388
370
    25
100
AcDb2dPolyline
 66
     1
 10
0.0
 20
0.0
 30
0.0
  0
VERTEX
  5
48
330
47
100
AcDbEntity
  8
_U+30EC_U+30A4_U+30E4_U+30FC 1
 62
   179
420
  2234388
370
    25
100
AcDbVertex
100
AcDb2dVertex
 10
66.04955859271315
 20
-150.8993185733864
 30
0.0
  0
VERTEX
  5
49
330
47
100
AcDbEntity
  8
_U+30EC_U+30A4_U+30E4_U+30FC 1
 62
   179
420
  2234388
370
    25
100
AcDbVertex
100
AcDb2dVertex
 10
116.0494249709879
 20
-150.8993185733864
 30
0.0
  0
SEQEND
  5
4A
330
47
100
AcDbEntity
  8
_U+30EC_U+30A4_U+30E4_U+30FC 1
 62
   179
420
  2234388
370
    25
  0
POLYLINE
  5
4B
330
1F
100
AcDbEntity
  8
_U+30EC_U+30A4_U+30E4_U+30FC 1
 62
   179
420
  2234388
370
    25
100
AcDb2dPolyline
 66
     1
 10
0.0
 20
0.0
 30
0.0
  0
VERTEX
  5
4C
330
4B
100
AcDbEntity
  8
_U+30EC_U+30A4_U+30E4_U+30FC 1
 62
   179
420
  2234388
370
    25
100
AcDbVertex
100
AcDb2dVertex
 10
68.04977498298754
 20
-148.8991038516639
 30
0.0
  0
VERTEX
  5
4D
330
4B
100
AcDbEntity
  8
_U+30EC_U+30A4_U+30E4_U+30FC 1
 62
   179
420
  2234388
370
    25
100
AcDbVertex
100
AcDb2dVertex
 10
116.0494249709879
 20
-148.8991038516639
 30
0.0
  0
SEQEND
  5
4E
330
4B
100
AcDbEntity
  8
_U+30EC_U+30A4_U+30E4_U+30FC 1
 62
   179
420
  2234388
370
    25
  0
POLYLINE
  5
4F
330
1F
100
AcDbEntity
  8
_U+30EC_U+30A4_U+30E4_U+30FC 1
 62
   179
420
  2234388
370
    25
100
AcDb2dPolyline
 66
     1
 10
0.0
 20
0.0
 30
0.0
  0
VERTEX
  5
50
330
4F
100
AcDbEntity
  8
_U+30EC_U+30A4_U+30E4_U+30FC 1
 62
   179
420
  2234388
370
    25
100
AcDbVertex
100
AcDb2dVertex
 10
66.04955859271315
 20
-100.8991010858865
 30
0.0
  0
VERTEX
  5
51
330
4F
100
AcDbEntity
  8
_U+30EC_U+30A4_U+30E4_U+30FC 1
 62
   179
420
  2234388
370
    25
100
AcDbVertex
100
AcDb2dVertex
 10
66.04955859271315
 20
-150.8993185733864
 30
0.0
  0
SEQEND
  5
52
330
4F
100
AcDbEntity
  8
_U+30EC_U+30A4_U+30E4_U+30FC 1
 62
   179
420
  2234388
370
    25
  0
POLYLINE
  5
53
330
1F
100
AcDbEntity
  8
_U+30EC_U+30A4_U+30E4_U+30FC 1
 62
   179
420
  2234388
370
    25
100
AcDb2dPolyline
 66
     1
 10
0.0
 20
0.0
 30
0.0
  0
VERTEX
  5
54
330
53
100
AcDbEntity
  8
_U+30EC_U+30A4_U+30E4_U+30FC 1
 62
   179
420
  2234388
370
    25
100
AcDbVertex
100
AcDb2dVertex
 10
66.04955859271315
 20
-100.8991010858865
 30
0.0
  0
VERTEX
  5
55
330
53
100
AcDbEntity
  8
_U+30EC_U+30A4_U+30E4_U+30FC 1
 62
   179
420
  2234388
370
    25
100
AcDbVertex
100
AcDb2dVertex
 10
68.04977498298754
 20
-100.8991010858865
 30
0.0
  0
SEQEND
  5
56
330
53
100
AcDbEntity
  8
_U+30EC_U+30A4_U+30E4_U+30FC 1
 62
   179
420
  2234388
370
    25
  0
POLYLINE
  5
57
330
1F
100
AcDbEntity
  8
_U+30EC_U+30A4_U+30E4_U+30FC 1
 62
   179
420
  2234388
370
    25
100
AcDb2dPolyline
 66
     1
 10
0.0
 20
0.0
 30
0.0
  0
VERTEX
  5
58
330
57
100
AcDbEntity
  8
_U+30EC_U+30A4_U+30E4_U+30FC 1
 62
   179
420
  2234388
370
    25
100
AcDbVertex
100
AcDb2dVertex
 10
68.04977498298754
 20
-100.8991010858865
 30
0.0
  0
VERTEX
  5
59
330
57
100
AcDbEntity
  8
_U+30EC_U+30A4_U+30E4_U+30FC 1
 62
   179
420
  2234388
370
    25
100
AcDbVertex
100
AcDb2dVertex
 10
68.04977498298754
 20
-148.8991038516639
 30
0.0
  0
SEQEND
  5
5A
330
57
100
AcDbEntity
  8
_U+30EC_U+30A4_U+30E4_U+30FC 1
 62
   179
420
  2234388
370
    25
  0
SPLINE
  5
5B
330
1F
100
AcDbEntity
  8
_U+30EC_U+30A4_U+30E4_U+30FC 1
 62
   179
420
  2234388
370
     9
100
AcDbSpline
210
0.0
220
0.0
230
1.0
 70
    11
 71
     3
 72
    17
 73
    13
 74
     0
 42
0.0000000001
 43
0.0000000001
 12
1.0
 22
0.0
 32
0.0
 13
1.0
 23
0.0
 33
0.0
 40
0.0
 40
0.0
 40
0.0
 40
0.0
 40
1.0
 40
1.0
 40
1.0
 40
2.0
 40
2.0
 40
2.0
 40
3.0
 40
3.0
 40
3.0
 40
4.0
 40
4.0
 40
4.0
 40
4.0
 10
120.1497610810738
 20
-150.8993185733864
 30
0.0
 10
120.1497610810738
 20
-150.8441794067333
 30
0.0
 10
120.1049905469775
 20
-150.7994119067448
 30
0.0
 10
120.0498513817176
 20
-150.7994119067448
 30
0.0
 10
119.994041938697
 20
-150.7994119067448
 30
0.0
 10
119.9499447175997
 20
-150.8441794067333
 30
0.0
 10
119.9499447175997
 20
-150.8993185733864
 30
0.0
 10
119.9499447175997
 20
-150.9544224622613
 30
0.0
 10
119.994041938697
 20
-150.999225240028
 30
0.0
 10
120.0498513817176
 20
-150.999225240028
 30
0.0
 10
120.1049905469775
 20
-150.999225240028
 30
0.0
 10
120.1497610810738
 20
-150.9544224622613
 30
0.0
 10
120.1497610810738
 20
-150.8993185733864
 30
0.0
  0
SPLINE
  5
5C
330
1F
100
AcDbEntity
  8
_U+30EC_U+30A4_U+30E4_U+30FC 1
 62
   179
420
  2234388
370
     9
100
AcDbSpline
210
0.0
220
0.0
230
1.0
 70
    11
 71
     3
 72
    17
 73
    13
 74
     0
 42
0.0000000001
 43
0.0000000001
 12
1.0
 22
0.0
 32
0.0
 13
1.0
 23
0.0
 33
0.0
 40
0.0
 40
0.0
 40
0.0
 40
0.0
 40
1.0
 40
1.0
 40
1.0
 40
2.0
 40
2.0
 40
2.0
 40
3.0
 40
3.0
 40
3.0
 40
4.0
 40
4.0
 40
4.0
 40
4.0
 10
120.1497610810738
 20
-148.8991038516639
 30
0.0
 10
120.1497610810738
 20
-148.8439646850115
 30
0.0
 10
120.1049905469775
 20
-148.7991971850223
 30
0.0
 10
120.0498513817176
 20
-148.7991971850223
 30
0.0
 10
119.994041938697
 20
-148.7991971850223
 30
0.0
 10
119.9499447175997
 20
-148.8439646850115
 30
0.0
 10
119.9499447175997
 20
-148.8991038516639
 30
0.0
 10
119.9499447175997
 20
-148.9542077405395
 30
0.0
 10
119.994041938697
 20
-148.9990105183056
 30
0.0
 10
120.0498513817176
 20
-148.9990105183056
 30
0.0
 10
120.1049905469775
 20
-148.9990105183056
 30
0.0
 10
120.1497610810738
 20
-148.9542077405395
 30
0.0
 10
120.1497610810738
 20
-148.8991038516639
 30
0.0
  0
SPLINE
  5
5D
330
1F
100
AcDbEntity
  8
_U+30EC_U+30A4_U+30E4_U+30FC 1
 62
   179
420
  2234388
370
     9
100
AcDbSpline
210
0.0
220
0.0
230
1.0
 70
    11
 71
     3
 72
    17
 73
    13
 74
     0
 42
0.0000000001
 43
0.0000000001
 12
1.0
 22
0.0
 32
0.0
 13
1.0
 23
0.0
 33
0.0
 40
0.0
 40
0.0
 40
0.0
 40
0.0
 40
1.0
 40
1.0
 40
1.0
 40
2.0
 40
2.0
 40
2.0
 40
3.0
 40
3.0
 40
3.0
 40
4.0
 40
4.0
 40
4.0
 40
4.0
 10
63.56081726731735
 20
-100.8991010858865
 30
0.0
 10
63.56081726731735
 20
-100.8439619192334
 30
0.0
 10
63.51601449068258
 20
-100.7991944192445
 30
0.0
 10
63.46091060319951
 20
-100.7991944192445
 30
0.0
 10
63.40541866017078
 20
-100.7991944192445
 30
0.0
 10
63.36100553971522
 20
-100.8439619192334
 30
0.0
 10
63.36100553971522
 20
-100.8991010858865
 30
0.0
 10
63.36100553971522
 20
-100.9542049747614
 30
0.0
 10
63.40541866017078
 20
-100.9990077525281
 30
0.0
 10
63.46091060319951
 20
-100.9990077525281
 30
0.0
 10
63.51601449068258
 20
-100.9990077525281
 30
0.0
 10
63.56081726731735
 20
-100.9542049747614
 30
0.0
 10
63.56081726731735
 20
-100.8991010858865
 30
0.0
  0
SPLINE
  5
5E
330
1F
100
AcDbEntity
  8
_U+30EC_U+30A4_U+30E4_U+30FC 1
 62
   179
420
  2234388
370
     9
100
AcDbSpline
210
0.0
220
0.0
230
1.0
 70
    11
 71
     3
 72
    17
 73
    13
 74
     0
 42
0.0000000001
 43
0.0000000001
 12
1.0
 22
0.0
 32
0.0
 13
1.0
 23
0.0
 33
0.0
 40
0.0
 40
0.0
 40
0.0
 40
0.0
 40
1.0
 40
1.0
 40
1.0
 40
2.0
 40
2.0
 40
2.0
 40
3.0
 40
3.0
 40
3.0
 40
4.0
 40
4.0
 40
4.0
 40
4.0
 10
63.56081726731735
 20
-150.8993185733864
 30
0.0
 10
63.56081726731735
 20
-150.8441794067333
 30
0.0
 10
63.51601449068258
 20
-150.7994119067448
 30
0.0
 10
63.46091060319951
 20
-150.7994119067448
 30
0.0
 10
63.40541866017078
 20
-150.7994119067448
 30
0.0
 10
63.36100553971522
 20
-150.8441794067333
 30
0.0
 10
63.36100553971522
 20
-150.8993185733864
 30
0.0
 10
63.36100553971522
 20
-150.9544224622613
 30
0.0
 10
63.40541866017078
 20
-150.999225240028
 30
0.0
 10
63.46091060319951
 20
-150.999225240028
 30
0.0
 10
63.51601449068258
 20
-150.999225240028
 30
0.0
 10
63.56081726731735
 20
-150.9544224622613
 30
0.0
 10
63.56081726731735
 20
-150.8993185733864
 30
0.0
  0
POLYLINE
  5
5F
330
1F
100
AcDbEntity
  8
_U+30EC_U+30A4_U+30E4_U+30FC 1
 62
   179
420
  2234388
370
     9
100
AcDb2dPolyline
 66
     1
 10
0.0
 20
0.0
 30
0.0
  0
VERTEX
  5
60
330
5F
100
AcDbEntity
  8
_U+30EC_U+30A4_U+30E4_U+30FC 1
 62
   179
420
  2234388
370
     9
100
AcDbVertex
100
AcDb2dVertex
 10
120.0498513817176
 20
-147.8993316296921
 30
0.0
  0
VERTEX
  5
61
330
5F
100
AcDbEntity
  8
_U+30EC_U+30A4_U+30E4_U+30FC 1
 62
   179
420
  2234388
370
     9
100
AcDbVertex
100
AcDb2dVertex
 10
120.0498513817176
 20
-151.8990907953583
 30
0.0
  0
SEQEND
  5
62
330
5F
100
AcDbEntity
  8
_U+30EC_U+30A4_U+30E4_U+30FC 1
 62
   179
420
  2234388
370
     9
  0
POLYLINE
  5
63
330
1F
100
AcDbEntity
  8
_U+30EC_U+30A4_U+30E4_U+30FC 1
 62
   179
420
  2234388
370
     9
100
AcDb2dPolyline
 66
     1
 10
0.0
 20
0.0
 30
0.0
  0
VERTEX
  5
64
330
63
100
AcDbEntity
  8
_U+30EC_U+30A4_U+30E4_U+30FC 1
 62
   179
420
  2234388
370
     9
100
AcDbVertex
100
AcDb2dVertex
 10
118.5898453078543
 20
-148.8991038516639
 30
0.0
  0
VERTEX
  5
65
330
63
100
AcDbEntity
  8
_U+30EC_U+30A4_U+30E4_U+30FC 1
 62
   179
420
  2234388
370
     9
100
AcDbVertex
100
AcDb2dVertex
 10
121.0496235784335
 20
-148.8991038516639
 30
0.0
  0
SEQEND
  5
66
330
63
100
AcDbEntity
  8
_U+30EC_U+30A4_U+30E4_U+30FC 1
 62
   179
420
  2234388
370
     9
  0
POLYLINE
  5
67
330
1F
100
AcDbEntity
  8
_U+30EC_U+30A4_U+30E4_U+30FC 1
 62
   179
420
  2234388
370
     9
100
AcDb2dPolyline
 66
     1
 10
0.0
 20
0.0
 30
0.0
  0
VERTEX
  5
68
330
67
100
AcDbEntity
  8
_U+30EC_U+30A4_U+30E4_U+30FC 1
 62
   179
420
  2234388
370
     9
100
AcDbVertex
100
AcDb2dVertex
 10
118.5898453078543
 20
-150.8993185733864
 30
0.0
  0
VERTEX
  5
69
330
67
100
AcDbEntity
  8
_U+30EC_U+30A4_U+30E4_U+30FC 1
 62
   179
420
  2234388
370
     9
100
AcDbVertex
100
AcDb2dVertex
 10
121.0496235784335
 20
-150.8993185733864
 30
0.0
  0
SEQEND
  5
6A
330
67
100
AcDbEntity
  8
_U+30EC_U+30A4_U+30E4_U+30FC 1
 62
   179
420
  2234388
370
     9
  0
INSERT
  5
6C
330
1F
100
AcDbEntity
  8
_U+30EC_U+30A4_U+30E4_U+30FC 1
100
AcDbBlockReference
  2
block 2
 10
0.0
 20
0.0
 30
0.0
  0
POLYLINE
  5
71
330
1F
100
AcDbEntity
  8
_U+30EC_U+30A4_U+30E4_U+30FC 1
 62
   179
420
  2234388
370
     9
100
AcDb2dPolyline
 66
     1
 10
0.0
 20
0.0
 30
0.0
  0
VERTEX
  5
72
330
71
100
AcDbEntity
  8
_U+30EC_U+30A4_U+30E4_U+30FC 1
 62
   179
420
  2234388
370
     9
100
AcDbVertex
100
AcDb2dVertex
 10
63.46091060319951
 20
-100.8991010858865
 30
0.0
  0
VERTEX
  5
73
330
71
100
AcDbEntity
  8
_U+30EC_U+30A4_U+30E4_U+30FC 1
 62
   179
420
  2234388
370
     9
100
AcDbVertex
100
AcDb2dVertex
 10
63.46091060319951
 20
-150.8993185733864
 30
0.0
  0
SEQEND
  5
74
330
71
100
AcDbEntity
  8
_U+30EC_U+30A4_U+30E4_U+30FC 1
 62
   179
420
  2234388
370
     9
  0
POLYLINE
  5
75
330
1F
100
AcDbEntity
  8
_U+30EC_U+30A4_U+30E4_U+30FC 1
 62
   179
420
  2234388
370
     9
100
AcDb2dPolyline
 66
     1
 10
0.0
 20
0.0
 30
0.0
  0
VERTEX
  5
76
330
75
100
AcDbEntity
  8
_U+30EC_U+30A4_U+30E4_U+30FC 1
 62
   179
420
  2234388
370
     9
100
AcDbVertex
100
AcDb2dVertex
 10
64.92091667706276
 20
-100.8991010858865
 30
0.0
  0
VERTEX
  5
77
330
75
100
AcDbEntity
  8
_U+30EC_U+30A4_U+30E4_U+30FC 1
 62
   179
420
  2234388
370
     9
100
AcDbVertex
100
AcDb2dVertex
 10
62.46078562871482
 20
-100.8991010858865
 30
0.0
  0
SEQEND
  5
78
330
75
100
AcDbEntity
  8
_U+30EC_U+30A4_U+30E4_U+30FC 1
 62
   179
420
  2234388
370
     9
  0
POLYLINE
  5
79
330
1F
100
AcDbEntity
  8
_U+30EC_U+30A4_U+30E4_U+30FC 1
 62
   179
420
  2234388
370
     9
100
AcDb2dPolyline
 66
     1
 10
0.0
 20
0.0
 30
0.0
  0
VERTEX
  5
7A
330
79
100
AcDbEntity
  8
_U+30EC_U+30A4_U+30E4_U+30FC 1
 62
   179
420
  2234388
370
     9
100
AcDbVertex
100
AcDb2dVertex
 10
64.92091667706276
 20
-150.8993185733864
 30
0.0
  0
VERTEX
  5
7B
330
79
100
AcDbEntity
  8
_U+30EC_U+30A4_U+30E4_U+30FC 1
 62
   179
420
  2234388
370
     9
100
AcDbVertex
100
AcDb2dVertex
 10
62.46078562871482
 20
-150.8993185733864
 30
0.0
  0
SEQEND
  5
7C
330
79
100
AcDbEntity
  8
_U+30EC_U+30A4_U+30E4_U+30FC 1
 62
   179
420
  2234388
370
     9
  0
INSERT
  5
7E
330
1F
100
AcDbEntity
  8
_U+30EC_U+30A4_U+30E4_U+30FC 1
100
AcDbBlockReference
  2
block 3
 10
0.0
 20
0.0
 30
0.0
  0
SPLINE
  5
86
330
1F
100
AcDbEntity
  8
_U+30EC_U+30A4_U+30E4_U+30FC 1
 62
   179
420
  2234388
370
     9
100
AcDbSpline
210
0.0
220
0.0
230
1.0
 70
    11
 71
     3
 72
    17
 73
    13
 74
     0
 42
0.0000000001
 43
0.0000000001
 12
1.0
 22
0.0
 32
0.0
 13
1.0
 23
0.0
 33
0.0
 40
0.0
 40
0.0
 40
0.0
 40
0.0
 40
1.0
 40
1.0
 40
1.0
 40
2.0
 40
2.0
 40
2.0
 40
3.0
 40
3.0
 40
3.0
 40
4.0
 40
4.0
 40
4.0
 40
4.0
 10
116.0494249709879
 20
-154.9989844056949
 30
0.0
 10
116.1045259268157
 20
-154.9989844056949
 30
0.0
 10
116.1493287034504
 20
-154.9541816279282
 30
0.0
 10
116.1493287034504
 20
-154.8990777390533
 30
0.0
 10
116.1493287034504
 20
-154.8432682946228
 30
0.0
 10
116.1045259268157
 20
-154.7991710724116
 30
0.0
 10
116.0494249709879
 20
-154.7991710724116
 30
0.0
 10
115.9942828740726
 20
-154.7991710724116
 30
0.0
 10
115.9495153752148
 20
-154.8432682946228
 30
0.0
 10
115.9495153752148
 20
-154.8990777390533
 30
0.0
 10
115.9495153752148
 20
-154.9541816279282
 30
0.0
 10
115.9942828740726
 20
-154.9989844056949
 30
0.0
 10
116.0494249709879
 20
-154.9989844056949
 30
0.0
  0
SPLINE
  5
87
330
1F
100
AcDbEntity
  8
_U+30EC_U+30A4_U+30E4_U+30FC 1
 62
   179
420
  2234388
370
     9
100
AcDbSpline
210
0.0
220
0.0
230
1.0
 70
    11
 71
     3
 72
    17
 73
    13
 74
     0
 42
0.0000000001
 43
0.0000000001
 12
1.0
 22
0.0
 32
0.0
 13
1.0
 23
0.0
 33
0.0
 40
0.0
 40
0.0
 40
0.0
 40
0.0
 40
1.0
 40
1.0
 40
1.0
 40
2.0
 40
2.0
 40
2.0
 40
3.0
 40
3.0
 40
3.0
 40
4.0
 40
4.0
 40
4.0
 40
4.0
 10
66.04902942605999
 20
-154.9989844056949
 30
0.0
 10
66.10413331354306
 20
-154.9989844056949
 30
0.0
 10
66.14893609017783
 20
-154.9541816279282
 30
0.0
 10
66.14893609017783
 20
-154.8990777390533
 30
0.0
 10
66.14893609017783
 20
-154.8432682946228
 30
0.0
 10
66.10413331354306
 20
-154.7991710724116
 30
0.0
 10
66.04902942605999
 20
-154.7991710724116
 30
0.0
 10
65.99389026080004
 20
-154.7991710724116
 30
0.0
 10
65.94912276194215
 20
-154.8432682946228
 30
0.0
 10
65.94912276194215
 20
-154.8990777390533
 30
0.0
 10
65.94912276194215
 20
-154.9541816279282
 30
0.0
 10
65.99389026080004
 20
-154.9989844056949
 30
0.0
 10
66.04902942605999
 20
-154.9989844056949
 30
0.0
  0
POLYLINE
  5
88
330
1F
100
AcDbEntity
  8
_U+30EC_U+30A4_U+30E4_U+30FC 1
 62
   179
420
  2234388
370
     9
100
AcDb2dPolyline
 66
     1
 10
0.0
 20
0.0
 30
0.0
  0
VERTEX
  5
89
330
88
100
AcDbEntity
  8
_U+30EC_U+30A4_U+30E4_U+30FC 1
 62
   179
420
  2234388
370
     9
100
AcDbVertex
100
AcDb2dVertex
 10
116.0494249709879
 20
-154.8990777390533
 30
0.0
  0
VERTEX
  5
8A
330
88
100
AcDbEntity
  8
_U+30EC_U+30A4_U+30E4_U+30FC 1
 62
   179
420
  2234388
370
     9
100
AcDbVertex
100
AcDb2dVertex
 10
66.04902942605999
 20
-154.8990777390533
 30
0.0
  0
SEQEND
  5
8B
330
88
100
AcDbEntity
  8
_U+30EC_U+30A4_U+30E4_U+30FC 1
 62
   179
420
  2234388
370
     9
  0
POLYLINE
  5
8C
330
1F
100
AcDbEntity
  8
_U+30EC_U+30A4_U+30E4_U+30FC 1
 62
   179
420
  2234388
370
     9
100
AcDb2dPolyline
 66
     1
 10
0.0
 20
0.0
 30
0.0
  0
VERTEX
  5
8D
330
8C
100
AcDbEntity
  8
_U+30EC_U+30A4_U+30E4_U+30FC 1
 62
   179
420
  2234388
370
     9
100
AcDbVertex
100
AcDb2dVertex
 10
116.0494249709879
 20
-156.359119127577
 30
0.0
  0
VERTEX
  5
8E
330
8C
100
AcDbEntity
  8
_U+30EC_U+30A4_U+30E4_U+30FC 1
 62
   179
420
  2234388
370
     9
100
AcDbVertex
100
AcDb2dVertex
 10
116.0494249709879
 20
-153.8985999615252
 30
0.0
  0
SEQEND
  5
8F
330
8C
100
AcDbEntity
  8
_U+30EC_U+30A4_U+30E4_U+30FC 1
 62
   179
420
  2234388
370
     9
  0
POLYLINE
  5
90
330
1F
100
AcDbEntity
  8
_U+30EC_U+30A4_U+30E4_U+30FC 1
 62
   179
420
  2234388
370
     9
100
AcDb2dPolyline
 66
     1
 10
0.0
 20
0.0
 30
0.0
  0
VERTEX
  5
91
330
90
100
AcDbEntity
  8
_U+30EC_U+30A4_U+30E4_U+30FC 1
 62
   179
420
  2234388
370
     9
100
AcDbVertex
100
AcDb2dVertex
 10
66.04902942605999
 20
-156.359119127577
 30
0.0
  0
VERTEX
  5
92
330
90
100
AcDbEntity
  8
_U+30EC_U+30A4_U+30E4_U+30FC 1
 62
   179
420
  2234388
370
     9
100
AcDbVertex
100
AcDb2dVertex
 10
66.04902942605999
 20
-153.8985999615252
 30
0.0
  0
SEQEND
  5
93
330
90
100
AcDbEntity
  8
_U+30EC_U+30A4_U+30E4_U+30FC 1
 62
   179
420
  2234388
370
     9
  0
INSERT
  5
95
330
1F
100
AcDbEntity
  8
_U+30EC_U+30A4_U+30E4_U+30FC 1
100
AcDbBlockReference
  2
block 4
 10
0.0
 20
0.0
 30
0.0
  0
ENDSEC
  0
SECTION
  2
OBJECTS
  0
DICTIONARY
  5
C
330
0
100
AcDbDictionary
281
     1
  3
ACAD_GROUP
350
D
  3
ACAD_LAYOUT
350
1A
  3
ACAD_MATERIAL
350
3B
  3
ACAD_MLEADERSTYLE
350
9E
  3
ACAD_MLINESTYLE
350
17
  3
ACAD_PLOTSETTINGS
350
19
  3
ACAD_PLOTSTYLENAME
350
E
  3
ACAD_TABLESTYLE
350
9D
  3
ACAD_VISUALSTYLE
350
2A
  0
SUN
  5
3F
330
29
100
AcDbSun
 90
        1
290
     0
 63
     7
421
 16777215
 40
1.0
291
     1
 91
  2455826
 92
 54000000
292
     0
 70
     2
 71
   256
280
     1
  0
DICTIONARY
  5
D
102
{ACAD_REACTORS
330
C
102
}
330
C
100
AcDbDictionary
281
     1
  0
DICTIONARY
  5
1A
102
{ACAD_REACTORS
330
C
102
}
330
C
100
AcDbDictionary
281
     1
  3
Layout1
350
1E
  3
Layout2
350
26
  3
Model
350
22
  0
DICTIONARY
  5
3B
102
{ACAD_REACTORS
330
C
102
}
330
C
100
AcDbDictionary
281
     1
  3
ByBlock
350
3D
  3
ByLayer
350
3C
  3
Global
350
3E
  0
DICTIONARY
  5
9E
102
{ACAD_REACTORS
330
C
102
}
330
C
100
AcDbDictionary
281
     1
  0
DICTIONARY
  5
17
102
{ACAD_REACTORS
330
C
102
}
330
C
100
AcDbDictionary
281
     1
  3
Standard
350
18
  0
DICTIONARY
  5
19
102
{ACAD_REACTORS
330
C
102
}
330
C
100
AcDbDictionary
281
     1
  0
ACDBDICTIONARYWDFLT
  5
E
102
{ACAD_REACTORS
330
C
102
}
330
C
100
AcDbDictionary
281
     1
  3
Normal
350
F
100
AcDbDictionaryWithDefault
340
F
  0
DICTIONARY
  5
9D
102
{ACAD_REACTORS
330
C
102
}
330
C
100
AcDbDictionary
281
     1
  0
DICTIONARY
  5
2A
102
{ACAD_REACTORS
330
C
102
}
330
C
100
AcDbDictionary
281
     1
  3
2dWireframe
350
2F
  3
3D Hidden
350
31
  3
3dWireframe
350
30
  3
Basic
350
32
  3
Brighten
350
36
  3
ColorChange
350
3A
  3
Conceptual
350
34
  3
Dim
350
35
  3
Facepattern
350
39
  3
Flat
350
2B
  3
FlatWithEdges
350
2C
  3
Gouraud
350
2D
  3
GouraudWithEdges
350
2E
  3
Linepattern
350
38
  3
Realistic
350
33
  3
Thicken
350
37
  0
LAYOUT
  5
1E
102
{ACAD_REACTORS
330
1A
102
}
330
1A
100
AcDbPlotSettings
  1

  2
none_device
  4

  6

 40
0.0
 41
0.0
 42
0.0
 43
0.0
 44
0.0
 45
0.0
 46
0.0
 47
0.0
 48
0.0
 49
0.0
140
0.0
141
0.0
142
1.0
143
1.0
 70
   688
 72
     0
 73
     0
 74
     5
  7

 75
    16
 76
     0
 77
     2
 78
   300
147
1.0
148
0.0
149
0.0
100
AcDbLayout
  1
Layout1
 70
     1
 71
     1
 10
0.0
 20
0.0
 11
12.0
 21
9.0
 12
0.0
 22
0.0
 32
0.0
 14
1.000000000000000E+20
 24
1.000000000000000E+20
 34
1.000000000000000E+20
 15
-1.000000000000000E+20
 25
-1.000000000000000E+20
 35
-1.000000000000000E+20
146
0.0
 13
0.0
 23
0.0
 33
0.0
 16
1.0
 26
0.0
 36
0.0
 17
0.0
 27
1.0
 37
0.0
 76
     0
330
1B
  0
LAYOUT
  5
26
102
{ACAD_REACTORS
330
1A
102
}
330
1A
100
AcDbPlotSettings
  1

  2
none_device
  4

  6

 40
0.0
 41
0.0
 42
0.0
 43
0.0
 44
0.0
 45
0.0
 46
0.0
 47
0.0
 48
0.0
 49
0.0
140
0.0
141
0.0
142
1.0
143
1.0
 70
   688
 72
     0
 73
     0
 74
     5
  7

 75
    16
 76
     0
 77
     2
 78
   300
147
1.0
148
0.0
149
0.0
100
AcDbLayout
  1
Layout2
 70
     1
 71
     2
 10
0.0
 20
0.0
 11
0.0
 21
0.0
 12
0.0
 22
0.0
 32
0.0
 14
0.0
 24
0.0
 34
0.0
 15
0.0
 25
0.0
 35
0.0
146
0.0
 13
0.0
 23
0.0
 33
0.0
 16
1.0
 26
0.0
 36
0.0
 17
0.0
 27
1.0
 37
0.0
 76
     0
330
23
  0
LAYOUT
  5
22
102
{ACAD_REACTORS
330
1A
102
}
330
1A
100
AcDbPlotSettings
  1

  2
none_device
  4

  6

 40
0.0
 41
0.0
 42
0.0
 43
0.0
 44
0.0
 45
0.0
 46
0.0
 47
0.0
 48
0.0
 49
0.0
140
0.0
141
0.0
142
1.0
143
1.0
 70
  1712
 72
     0
 73
     0
 74
     0
  7

 75
     0
 76
     0
 77
     2
 78
   300
147
1.0
148
0.0
149
0.0
100
AcDbLayout
  1
Model
 70
     1
 71
     0
 10
0.0
 20
0.0
 11
12.0
 21
9.0
 12
0.0
 22
0.0
 32
0.0
 14
1.000000000000000E+20
 24
1.000000000000000E+20
 34
1.000000000000000E+20
 15
-1.000000000000000E+20
 25
-1.000000000000000E+20
 35
-1.000000000000000E+20
146
0.0
 13
0.0
 23
0.0
 33
0.0
 16
1.0
 26
0.0
 36
0.0
 17
0.0
 27
1.0
 37
0.0
 76
     0
330
1F
331
29
  0
MATERIAL
  5
3D
102
{ACAD_REACTORS
330
3B
102
}
330
3B
100
AcDbMaterial
  1
ByBlock
 72
     1
 94
      127
  0
MATERIAL
  5
3C
102
{ACAD_REACTORS
330
3B
102
}
330
3B
100
AcDbMaterial
  1
ByLayer
 72
     1
 94
      127
  0
MATERIAL
  5
3E
102
{ACAD_REACTORS
330
3B
102
}
330
3B
100
AcDbMaterial
  1
Global
 72
     1
 94
      127
  0
MLINESTYLE
  5
18
102
{ACAD_REACTORS
330
17
102
}
330
17
100
AcDbMlineStyle
  2
Standard
 70
     0
  3

 62
   256
 51
90.0
 52
90.0
 71
     2
 49
0.5
 62
   256
  6
BYLAYER
 49
-0.5
 62
   256
  6
BYLAYER
  0
ACDBPLACEHOLDER
  5
F
102
{ACAD_REACTORS
330
E
102
}
330
E
  0
VISUALSTYLE
  5
2F
102
{ACAD_REACTORS
330
2A
102
}
330
2A
100
AcDbVisualStyle
  2
2dWireframe
 70
     4
177
     2
291
     0
 71
     0
176
     1
 72
     2
176
     1
 73
     0
176
     1
 90
        0
176
     1
 40
-0.6
176
     1
 41
-30.0
176
     1
 62
     5
 63
     7
421
 16777215
176
     1
 74
     1
176
     1
 91
        4
176
     1
 64
     7
176
     1
 65
   257
176
     1
 75
     1
176
     1
175
     1
176
     1
 42
1.0
176
     1
 92
        0
176
     1
 66
   257
176
     1
 43
1.0
176
     1
 76
     1
176
     1
 77
     6
176
     1
 78
     2
176
     1
 67
     7
176
     1
 79
     5
176
     1
170
     0
176
     1
171
     0
176
     1
290
     0
176
     1
 93
        1
176
     1
 44
0.0
176
     1
173
     0
176
     1
  0
VISUALSTYLE
  5
31
102
{ACAD_REACTORS
330
2A
102
}
330
2A
100
AcDbVisualStyle
  2
3D Hidden
 70
     6
177
     2
291
     0
 71
     1
176
     1
 72
     2
176
     1
 73
     2
176
     1
 90
        0
176
     1
 40
-0.6
176
     1
 41
-30.0
176
     1
 62
     5
 63
     7
421
 16777215
176
     1
 74
     2
176
     1
 91
        2
176
     1
 64
     7
176
     1
 65
   257
176
     1
 75
     2
176
     1
175
     1
176
     1
 42
40.0
176
     1
 92
        0
176
     1
 66
   257
176
     1
 43
1.0
176
     1
 76
     1
176
     1
 77
     6
176
     1
 78
     2
176
     1
 67
     7
176
     1
 79
     3
176
     1
170
     0
176
     1
171
     0
176
     1
290
     0
176
     1
 93
        1
176
     1
 44
0.0
176
     1
173
     0
176
     1
  0
VISUALSTYLE
  5
30
102
{ACAD_REACTORS
330
2A
102
}
330
2A
100
AcDbVisualStyle
  2
3dWireframe
 70
     5
177
     2
291
     0
 71
     0
176
     1
 72
     2
176
     1
 73
     0
176
     1
 90
        0
176
     1
 40
-0.6
176
     1
 41
-30.0
176
     1
 62
     5
 63
     7
421
 16777215
176
     1
 74
     1
176
     1
 91
        4
176
     1
 64
     7
176
     1
 65
   257
176
     1
 75
     1
176
     1
175
     1
176
     1
 42
1.0
176
     1
 92
        0
176
     1
 66
   257
176
     1
 43
1.0
176
     1
 76
     1
176
     1
 77
     6
176
     1
 78
     2
176
     1
 67
     7
176
     1
 79
     5
176
     1
170
     0
176
     1
171
     0
176
     1
290
     0
176
     1
 93
        1
176
     1
 44
0.0
176
     1
173
     0
176
     1
  0
VISUALSTYLE
  5
32
102
{ACAD_REACTORS
330
2A
102
}
330
2A
100
AcDbVisualStyle
  2
Basic
 70
     7
177
     2
291
     1
 71
     1
176
     1
 72
     0
176
     1
 73
     1
176
     1
 90
        0
176
     1
 40
-0.6
176
     1
 41
-30.0
176
     1
 62
     5
 63
     7
421
 16777215
176
     1
 74
     0
176
     1
 91
        4
176
     1
 64
     7
176
     1
 65
   257
176
     1
 75
     1
176
     1
175
     1
176
     1
 42
1.0
176
     1
 92
        8
176
     1
 66
     7
176
     1
 43
1.0
176
     1
 76
     1
176
     1
 77
     6
176
     1
 78
     2
176
     1
 67
     7
176
     1
 79
     5
176
     1
170
     0
176
     1
171
     0
176
     1
290
     0
176
     1
 93
        1
176
     1
 44
0.0
176
     1
173
     0
176
     1
  0
VISUALSTYLE
  5
36
102
{ACAD_REACTORS
330
2A
102
}
330
2A
100
AcDbVisualStyle
  2
Brighten
 70
    12
177
     2
291
     1
 71
     2
176
     1
 72
     2
176
     1
 73
     0
176
     1
 90
        0
176
     1
 40
-0.6
176
     1
 41
-30.0
176
     1
 62
     5
 63
     7
421
 16777215
176
     1
 74
     1
176
     1
 91
        4
176
     1
 64
     7
176
     1
 65
   257
176
     1
 75
     1
176
     1
175
     1
176
     1
 42
1.0
176
     1
 92
        8
176
     1
 66
     7
176
     1
 43
1.0
176
     1
 76
     1
176
     1
 77
     6
176
     1
 78
     2
176
     1
 67
     7
176
     1
 79
     5
176
     1
170
     0
176
     1
171
     0
176
     1
290
     0
176
     1
 93
        1
176
     1
 44
50.0
176
     1
173
     0
176
     1
  0
VISUALSTYLE
  5
3A
102
{ACAD_REACTORS
330
2A
102
}
330
2A
100
AcDbVisualStyle
  2
ColorChange
 70
    16
177
     2
291
     1
 71
     2
176
     1
 72
     2
176
     1
 73
     3
176
     1
 90
        0
176
     1
 40
-0.6
176
     1
 41
-30.0
176
     1
 62
     5
 63
     8
421
  8421504
176
     1
 74
     1
176
     1
 91
        4
176
     1
 64
     7
176
     1
 65
   257
176
     1
 75
     1
176
     1
175
     1
176
     1
 42
1.0
176
     1
 92
        8
176
     1
 66
     8
424
  8421504
176
     1
 43
1.0
176
     1
 76
     1
176
     1
 77
     6
176
     1
 78
     2
176
     1
 67
     7
176
     1
 79
     5
176
     1
170
     0
176
     1
171
     0
176
     1
290
     0
176
     1
 93
        1
176
     1
 44
0.0
176
     1
173
     0
176
     1
  0
VISUALSTYLE
  5
34
102
{ACAD_REACTORS
330
2A
102
}
330
2A
100
AcDbVisualStyle
  2
Conceptual
 70
     9
177
     2
291
     0
 71
     3
176
     1
 72
     2
176
     1
 73
     0
176
     1
 90
        0
176
     1
 40
-0.6
176
     1
 41
-30.0
176
     1
 62
     5
 63
     7
421
 16777215
176
     1
 74
     2
176
     1
 91
        2
176
     1
 64
     7
176
     1
 65
   257
176
     1
 75
     1
176
     1
175
     1
176
     1
 42
40.0
176
     1
 92
        8
176
     1
 66
     7
176
     1
 43
1.0
176
     1
 76
     1
176
     1
 77
     6
176
     1
 78
     2
176
     1
 67
     7
176
     1
 79
     3
176
     1
170
     0
176
     1
171
     0
176
     1
290
     0
176
     1
 93
        1
176
     1
 44
0.0
176
     1
173
     0
176
     1
  0
VISUALSTYLE
  5
35
102
{ACAD_REACTORS
330
2A
102
}
330
2A
100
AcDbVisualStyle
  2
Dim
 70
    11
177
     2
291
     1
 71
     2
176
     1
 72
     2
176
     1
 73
     0
176
     1
 90
        0
176
     1
 40
-0.6
176
     1
 41
-30.0
176
     1
 62
     5
 63
     7
421
 16777215
176
     1
 74
     1
176
     1
 91
        4
176
     1
 64
     7
176
     1
 65
   257
176
     1
 75
     1
176
     1
175
     1
176
     1
 42
1.0
176
     1
 92
        8
176
     1
 66
     7
176
     1
 43
1.0
176
     1
 76
     1
176
     1
 77
     6
176
     1
 78
     2
176
     1
 67
     7
176
     1
 79
     5
176
     1
170
     0
176
     1
171
     0
176
     1
290
     0
176
     1
 93
        1
176
     1
 44
-50.0
176
     1
173
     0
176
     1
  0
VISUALSTYLE
  5
39
102
{ACAD_REACTORS
330
2A
102
}
330
2A
100
AcDbVisualStyle
  2
Facepattern
 70
    15
177
     2
291
     1
 71
     2
176
     1
 72
     2
176
     1
 73
     0
176
     1
 90
        0
176
     1
 40
-0.6
176
     1
 41
-30.0
176
     1
 62
     5
 63
     7
421
 16777215
176
     1
 74
     1
176
     1
 91
        4
176
     1
 64
     7
176
     1
 65
   257
176
     1
 75
     1
176
     1
175
     1
176
     1
 42
1.0
176
     1
 92
        8
176
     1
 66
     7
176
     1
 43
1.0
176
     1
 76
     1
176
     1
 77
     6
176
     1
 78
     2
176
     1
 67
     7
176
     1
 79
     5
176
     1
170
     0
176
     1
171
     0
176
     1
290
     0
176
     1
 93
        1
176
     1
 44
0.0
176
     1
173
     0
176
     1
  0
VISUALSTYLE
  5
2B
102
{ACAD_REACTORS
330
2A
102
}
330
2A
100
AcDbVisualStyle
  2
Flat
 70
     0
177
     2
291
     1
 71
     2
176
     1
 72
     1
176
     1
 73
     1
176
     1
 90
        2
176
     1
 40
-0.6
176
     1
 41
30.0
176
     1
 62
     5
 63
     7
421
 16777215
176
     1
 74
     0
176
     1
 91
        4
176
     1
 64
     7
176
     1
 65
   257
176
     1
 75
     1
176
     1
175
     1
176
     1
 42
1.0
176
     1
 92
        8
176
     1
 66
     7
176
     1
 43
1.0
176
     1
 76
     1
176
     1
 77
     6
176
     1
 78
     2
176
     1
 67
     7
176
     1
 79
     5
176
     1
170
     0
176
     1
171
     0
176
     1
290
     0
176
     1
 93
       13
176
     1
 44
0.0
176
     1
173
     0
176
     1
  0
VISUALSTYLE
  5
2C
102
{ACAD_REACTORS
330
2A
102
}
330
2A
100
AcDbVisualStyle
  2
FlatWithEdges
 70
     1
177
     2
291
     1
 71
     2
176
     1
 72
     1
176
     1
 73
     1
176
     1
 90
        2
176
     1
 40
-0.6
176
     1
 41
30.0
176
     1
 62
     5
 63
     7
421
 16777215
176
     1
 74
     1
176
     1
 91
        4
176
     1
 64
     7
176
     1
 65
   257
176
     1
 75
     1
176
     1
175
     1
176
     1
 42
1.0
176
     1
 92
        0
176
     1
 66
   257
176
     1
 43
1.0
176
     1
 76
     1
176
     1
 77
     6
176
     1
 78
     2
176
     1
 67
     7
176
     1
 79
     5
176
     1
170
     0
176
     1
171
     0
176
     1
290
     0
176
     1
 93
       13
176
     1
 44
0.0
176
     1
173
     0
176
     1
  0
VISUALSTYLE
  5
2D
102
{ACAD_REACTORS
330
2A
102
}
330
2A
100
AcDbVisualStyle
  2
Gouraud
 70
     2
177
     2
291
     1
 71
     2
176
     1
 72
     2
176
     1
 73
     1
176
     1
 90
        2
176
     1
 40
-0.6
176
     1
 41
30.0
176
     1
 62
     5
 63
     7
421
 16777215
176
     1
 74
     0
176
     1
 91
        4
176
     1
 64
     7
176
     1
 65
   257
176
     1
 75
     1
176
     1
175
     1
176
     1
 42
1.0
176
     1
 92
        0
176
     1
 66
     7
176
     1
 43
1.0
176
     1
 76
     1
176
     1
 77
     6
176
     1
 78
     2
176
     1
 67
     7
176
     1
 79
     5
176
     1
170
     0
176
     1
171
     0
176
     1
290
     0
176
     1
 93
       13
176
     1
 44
0.0
176
     1
173
     0
176
     1
  0
VISUALSTYLE
  5
2E
102
{ACAD_REACTORS
330
2A
102
}
330
2A
100
AcDbVisualStyle
  2
GouraudWithEdges
 70
     3
177
     2
291
     1
 71
     2
176
     1
 72
     2
176
     1
 73
     1
176
     1
 90
        2
176
     1
 40
-0.6
176
     1
 41
30.0
176
     1
 62
     5
 63
     7
421
 16777215
176
     1
 74
     1
176
     1
 91
        4
176
     1
 64
     7
176
     1
 65
   257
176
     1
 75
     1
176
     1
175
     1
176
     1
 42
1.0
176
     1
 92
        0
176
     1
 66
   257
176
     1
 43
1.0
176
     1
 76
     1
176
     1
 77
     6
176
     1
 78
     2
176
     1
 67
     7
176
     1
 79
     5
176
     1
170
     0
176
     1
171
     0
176
     1
290
     0
176
     1
 93
       13
176
     1
 44
0.0
176
     1
173
     0
176
     1
  0
VISUALSTYLE
  5
38
102
{ACAD_REACTORS
330
2A
102
}
330
2A
100
AcDbVisualStyle
  2
Linepattern
 70
    14
177
     2
291
     1
 71
     2
176
     1
 72
     2
176
     1
 73
     0
176
     1
 90
        0
176
     1
 40
-0.6
176
     1
 41
-30.0
176
     1
 62
     5
 63
     7
421
 16777215
176
     1
 74
     1
176
     1
 91
        4
176
     1
 64
     7
176
     1
 65
   257
176
     1
 75
     7
176
     1
175
     7
176
     1
 42
1.0
176
     1
 92
        8
176
     1
 66
     7
176
     1
 43
1.0
176
     1
 76
     1
176
     1
 77
     6
176
     1
 78
     2
176
     1
 67
     7
176
     1
 79
     5
176
     1
170
     0
176
     1
171
     0
176
     1
290
     0
176
     1
 93
        1
176
     1
 44
0.0
176
     1
173
     0
176
     1
  0
VISUALSTYLE
  5
33
102
{ACAD_REACTORS
330
2A
102
}
330
2A
100
AcDbVisualStyle
  2
Realistic
 70
     8
177
     2
291
     0
 71
     2
176
     1
 72
     2
176
     1
 73
     0
176
     1
 90
        0
176
     1
 40
-0.6
176
     1
 41
-30.0
176
     1
 62
     5
 63
     7
421
 16777215
176
     1
 74
     1
176
     1
 91
        0
176
     1
 64
     7
176
     1
 65
   257
176
     1
 75
     1
176
     1
175
     1
176
     1
 42
1.0
176
     1
 92
        8
176
     1
 66
     8
424
  7895160
176
     1
 43
1.0
176
     1
 76
     1
176
     1
 77
     6
176
     1
 78
     2
176
     1
 67
     7
176
     1
 79
     5
176
     1
170
     0
176
     1
171
     0
176
     1
290
     0
176
     1
 93
       13
176
     1
 44
0.0
176
     1
173
     0
176
     1
  0
VISUALSTYLE
  5
37
102
{ACAD_REACTORS
330
2A
102
}
330
2A
100
AcDbVisualStyle
  2
Thicken
 70
    13
177
     2
291
     1
 71
     2
176
     1
 72
     2
176
     1
 73
     0
176
     1
 90
        0
176
     1
 40
-0.6
176
     1
 41
-30.0
176
     1
 62
     5
 63
     7
421
 16777215
176
     1
 74
     1
176
     1
 91
        4
176
     1
 64
     7
176
     1
 65
   257
176
     1
 75
     1
176
     1
175
     1
176
     1
 42
1.0
176
     1
 92
       12
176
     1
 66
     7
176
     1
 43
1.0
176
     1
 76
     1
176
     1
 77
     6
176
     1
 78
     2
176
     1
 67
     7
176
     1
 79
     5
176
     1
170
     0
176
     1
171
     0
176
     1
290
     0
176
     1
 93
        1
176
     1
 44
0.0
176
     1
173
     0
176
     1
  0
ENDSEC
  0
EOF
