  0
SECTION
  2
HEADER
  9
$ACADVER
  1
AC1024
  9
$ACADMAINTVER
 70
     6
  9
$DWGCODEPAGE
  3
UNDEFINED
  9
$INSBASE
 10
0.0
 20
0.0
 30
0.0
  9
$EXTMIN
 10
1.000000000000000E+20
 20
1.000000000000000E+20
 30
1.000000000000000E+20
  9
$EXTMAX
 10
-1.000000000000000E+20
 20
-1.000000000000000E+20
 30
-1.000000000000000E+20
  9
$LIMMIN
 10
0.0
 20
0.0
  9
$LIMMAX
 10
12.0
 20
9.0
  9
$ORTHOMODE
 70
     0
  9
$REGENMODE
 70
     1
  9
$FILLMODE
 70
     1
  9
$QTEXTMODE
 70
     0
  9
$MIRRTEXT
 70
     1
  9
$LTSCALE
 40
1.0
  9
$ATTMODE
 70
     1
  9
$TEXTSIZE
 40
0.2
  9
$TRACEWID
 40
0.05
  9
$TEXTSTYLE
  7
Standard
  9
$CLAYER
  8
0
  9
$CELTYPE
  6
ByLayer
  9
$CECOLOR
 62
   256
  9
$CELTSCALE
 40
1.0
  9
$DISPSILH
 70
     0
  9
$DIMSCALE
 40
1.0
  9
$DIMASZ
 40
0.18
  9
$DIMEXO
 40
0.0625
  9
$DIMDLI
 40
0.38
  9
$DIMRND
 40
0.0
  9
$DIMDLE
 40
0.0
  9
$DIMEXE
 40
0.18
  9
$DIMTP
 40
0.0
  9
$DIMTM
 40
0.0
  9
$DIMTXT
 40
0.18
  9
$DIMCEN
 40
0.09
  9
$DIMTSZ
 40
0.0
  9
$DIMTOL
 70
     0
  9
$DIMLIM
 70
     0
  9
$DIMTIH
 70
     1
  9
$DIMTOH
 70
     1
  9
$DIMSE1
 70
     0
  9
$DIMSE2
 70
     0
  9
$DIMTAD
 70
     0
  9
$DIMZIN
 70
     0
  9
$DIMBLK
  1

  9
$DIMASO
 70
     1
  9
$DIMSHO
 70
     1
  9
$DIMPOST
  1

  9
$DIMAPOST
  1

  9
$DIMALT
 70
     0
  9
$DIMALTD
 70
     2
  9
$DIMALTF
 40
25.4
  9
$DIMLFAC
 40
1.0
  9
$DIMTOFL
 70
     0
  9
$DIMTVP
 40
0.0
  9
$DIMTIX
 70
     0
  9
$DIMSOXD
 70
     0
  9
$DIMSAH
 70
     0
  9
$DIMBLK1
  1

  9
$DIMBLK2
  1

  9
$DIMSTYLE
  2
Standard
  9
$DIMCLRD
 70
     0
  9
$DIMCLRE
 70
     0
  9
$DIMCLRT
 70
     0
  9
$DIMTFAC
 40
1.0
  9
$DIMGAP
 40
0.09
  9
$DIMJUST
 70
     0
  9
$DIMSD1
 70
     0
  9
$DIMSD2
 70
     0
  9
$DIMTOLJ
 70
     1
  9
$DIMTZIN
 70
     0
  9
$DIMALTZ
 70
     0
  9
$DIMALTTZ
 70
     0
  9
$DIMUPT
 70
     0
  9
$DIMDEC
 70
     4
  9
$DIMTDEC
 70
     4
  9
$DIMALTU
 70
     2
  9
$DIMALTTD
 70
     2
  9
$DIMTXSTY
  7
Standard
  9
$DIMAUNIT
 70
     0
  9
$DIMADEC
 70
     0
  9
$DIMALTRND
 40
0.0
  9
$DIMAZIN
 70
     0
  9
$DIMDSEP
 70
    46
  9
$DIMATFIT
 70
     3
  9
$DIMFRAC
 70
     0
  9
$DIMLDRBLK
  1

  9
$DIMLUNIT
 70
     2
  9
$DIMLWD
 70
    -2
  9
$DIMLWE
 70
    -2
  9
$DIMTMOVE
 70
     0
  9
$DIMFXL
 40
1.0
  9
$DIMFXLON
 70
     0
  9
$DIMJOGANG
 40
0.7853981633974483
  9
$DIMTFILL
 70
     0
  9
$DIMTFILLCLR
 70
     0
  9
$DIMARCSYM
 70
     0
  9
$DIMLTYPE
  6

  9
$DIMLTEX1
  6

  9
$DIMLTEX2
  6

  9
$DIMTXTDIRECTION
 70
     0
  9
$LUNITS
 70
     2
  9
$LUPREC
 70
     4
  9
$SKETCHINC
 40
0.1
  9
$FILLETRAD
 40
0.5
  9
$AUNITS
 70
     0
  9
$AUPREC
 70
     0
  9
$MENU
  1
.
  9
$ELEVATION
 40
0.0
  9
$PELEVATION
 40
0.0
  9
$THICKNESS
 40
0.0
  9
$LIMCHECK
 70
     0
  9
$CHAMFERA
 40
0.5
  9
$CHAMFERB
 40
0.5
  9
$CHAMFERC
 40
1.0
  9
$CHAMFERD
 40
0.0
  9
$SKPOLY
 70
     0
  9
$TDCREATE
 40
2457917.595648136
  9
$TDUCREATE
 40
2457917.220648148
  9
$TDUPDATE
 40
2457917.595648136
  9
$TDUUPDATE
 40
2457917.220648148
  9
$TDINDWG
 40
0.0000000116
  9
$TDUSRTIMER
 40
0.0000000116
  9
$USRTIMER
 70
     1
  9
$ANGBASE
 50
0.0
  9
$ANGDIR
 70
     0
  9
$PDMODE
 70
     0
  9
$PDSIZE
 40
0.0
  9
$PLINEWID
 40
0.0
  9
$SPLFRAME
 70
     0
  9
$SPLINETYPE
 70
     6
  9
$SPLINESEGS
 70
     8
  9
$HANDSEED
  5
A7
  9
$SURFTAB1
 70
     6
  9
$SURFTAB2
 70
     6
  9
$SURFTYPE
 70
     6
  9
$SURFU
 70
     6
  9
$SURFV
 70
     6
  9
$UCSBASE
  2

  9
$UCSNAME
  2

  9
$UCSORG
 10
0.0
 20
0.0
 30
0.0
  9
$UCSXDIR
 10
1.0
 20
0.0
 30
0.0
  9
$UCSYDIR
 10
0.0
 20
1.0
 30
0.0
  9
$UCSORTHOREF
  2

  9
$UCSORTHOVIEW
 70
     0
  9
$UCSORGTOP
 10
0.0
 20
0.0
 30
0.0
  9
$UCSORGBOTTOM
 10
0.0
 20
0.0
 30
0.0
  9
$UCSORGLEFT
 10
0.0
 20
0.0
 30
0.0
  9
$UCSORGRIGHT
 10
0.0
 20
0.0
 30
0.0
  9
$UCSORGFRONT
 10
0.0
 20
0.0
 30
0.0
  9
$UCSORGBACK
 10
0.0
 20
0.0
 30
0.0
  9
$PUCSBASE
  2

  9
$PUCSNAME
  2

  9
$PUCSORG
 10
0.0
 20
0.0
 30
0.0
  9
$PUCSXDIR
 10
1.0
 20
0.0
 30
0.0
  9
$PUCSYDIR
 10
0.0
 20
1.0
 30
0.0
  9
$PUCSORTHOREF
  2

  9
$PUCSORTHOVIEW
 70
     0
  9
$PUCSORGTOP
 10
0.0
 20
0.0
 30
0.0
  9
$PUCSORGBOTTOM
 10
0.0
 20
0.0
 30
0.0
  9
$PUCSORGLEFT
 10
0.0
 20
0.0
 30
0.0
  9
$PUCSORGRIGHT
 10
0.0
 20
0.0
 30
0.0
  9
$PUCSORGFRONT
 10
0.0
 20
0.0
 30
0.0
  9
$PUCSORGBACK
 10
0.0
 20
0.0
 30
0.0
  9
$USERI1
 70
     0
  9
$USERI2
 70
     0
  9
$USERI3
 70
     0
  9
$USERI4
 70
     0
  9
$USERI5
 70
     0
  9
$USERR1
 40
0.0
  9
$USERR2
 40
0.0
  9
$USERR3
 40
0.0
  9
$USERR4
 40
0.0
  9
$USERR5
 40
0.0
  9
$WORLDVIEW
 70
     1
  9
$SHADEDGE
 70
     3
  9
$SHADEDIF
 70
    70
  9
$TILEMODE
 70
     1
  9
$MAXACTVP
 70
    64
  9
$PINSBASE
 10
0.0
 20
0.0
 30
0.0
  9
$PLIMCHECK
 70
     0
  9
$PEXTMIN
 10
1.000000000000000E+20
 20
1.000000000000000E+20
 30
1.000000000000000E+20
  9
$PEXTMAX
 10
-1.000000000000000E+20
 20
-1.000000000000000E+20
 30
-1.000000000000000E+20
  9
$PLIMMIN
 10
0.0
 20
0.0
  9
$PLIMMAX
 10
12.0
 20
9.0
  9
$UNITMODE
 70
     0
  9
$VISRETAIN
 70
     1
  9
$PLINEGEN
 70
     0
  9
$PSLTSCALE
 70
     1
  9
$TREEDEPTH
 70
  3020
  9
$CMLSTYLE
  2
Standard
  9
$CMLJUST
 70
     0
  9
$CMLSCALE
 40
1.0
  9
$PROXYGRAPHICS
 70
     1
  9
$MEASUREMENT
 70
     0
  9
$CELWEIGHT
370
    -1
  9
$ENDCAPS
280
     0
  9
$JOINSTYLE
280
     0
  9
$LWDISPLAY
290
     1
  9
$INSUNITS
 70
     1
  9
$HYPERLINKBASE
  1

  9
$STYLESHEET
  1

  9
$XEDIT
290
     1
  9
$CEPSNTYPE
380
     0
  9
$PSTYLEMODE
290
     1
  9
$FINGERPRINTGUID
  2
{ECD4EAE2-A3DF-4A89-8830-0A7830AABD4C}
  9
$VERSIONGUID
  2
{FAEB1C32-E019-11D5-929B-00C0DF256EC4}
  9
$EXTNAMES
290
     1
  9
$PSVPSCALE
 40
0.0
  9
$OLESTARTUP
290
     0
  9
$SORTENTS
280
   127
  9
$INDEXCTL
280
     0
  9
$HIDETEXT
280
     1
  9
$XCLIPFRAME
280
     2
  9
$HALOGAP
280
     0
  9
$OBSCOLOR
 70
   257
  9
$OBSLTYPE
280
     0
  9
$INTERSECTIONDISPLAY
280
     0
  9
$INTERSECTIONCOLOR
 70
   257
  9
$DIMASSOC
280
     2
  9
$PROJECTNAME
  1

  9
$CAMERADISPLAY
290
     0
  9
$LENSLENGTH
 40
50.0
  9
$CAMERAHEIGHT
 40
0.0
  9
$STEPSPERSEC
 40
2.0
  9
$STEPSIZE
 40
6.0
  9
$3DDWFPREC
 40
2.0
  9
$PSOLWIDTH
 40
0.25
  9
$PSOLHEIGHT
 40
4.0
  9
$LOFTANG1
 40
1.570796326794897
  9
$LOFTANG2
 40
1.570796326794897
  9
$LOFTMAG1
 40
0.0
  9
$LOFTMAG2
 40
0.0
  9
$LOFTPARAM
 70
     7
  9
$LOFTNORMALS
280
     1
  9
$LATITUDE
 40
37.795
  9
$LONGITUDE
 40
-122.394
  9
$NORTHDIRECTION
 40
0.0
  9
$TIMEZONE
 70
 -8000
  9
$LIGHTGLYPHDISPLAY
280
     1
  9
$TILEMODELIGHTSYNCH
280
     1
  9
$CMATERIAL
347
3C
  9
$SOLIDHIST
280
     1
  9
$SHOWHIST
280
     1
  9
$DWFFRAME
280
     2
  9
$DGNFRAME
280
     2
  9
$REALWORLDSCALE
290
     1
  9
$INTERFERECOLOR
 62
   256
  9
$CSHADOW
280
     0
  9
$SHADOWPLANELOCATION
 40
0.0
  0
ENDSEC
  0
SECTION
  2
CLASSES
  0
CLASS
  1
ACDBDICTIONARYWDFLT
  2
AcDbDictionaryWithDefault
  3
ObjectDBX Classes
 90
        0
 91
        4
280
     0
281
     0
  0
CLASS
  1
VISUALSTYLE
  2
AcDbVisualStyle
  3
ObjectDBX Classes
 90
     4095
 91
        4
280
     0
281
     0
  0
CLASS
  1
MATERIAL
  2
AcDbMaterial
  3
ObjectDBX Classes
 90
     1153
 91
        4
280
     0
281
     0
  0
CLASS
  1
SUN
  2
AcDbSun
  3
SCENEOE
 90
     1024
 91
        4
280
     0
281
     0
  0
ENDSEC
  0
SECTION
  2
TABLES
  0
TABLE
  2
VPORT
  5
8
330
0
100
AcDbSymbolTable
 70
     1
  0
VPORT
  5
29
330
8
100
AcDbSymbolTableRecord
100
AcDbViewportTableRecord
  2
*Active
 70
     0
 10
0.0
 20
0.0
 11
1.0
 21
1.0
 12
0.0
 22
0.0
 13
0.0
 23
0.0
 14
0.5
 24
0.5
 15
0.5
 25
0.5
 16
0.0
 26
0.0
 36
1.0
 17
91.00082462281999
 27
-128.4993055234307
 37
0.0
 40
256.9986110468615
 41
0.7081814508812795
 42
50.0
 43
0.0
 44
0.0
 50
0.0
 51
0.0
 71
     0
 72
   100
 73
     1
 74
     3
 75
     0
 76
     0
 77
     0
 78
     0
281
     0
 65
     1
110
0.0
120
0.0
130
0.0
111
1.0
121
0.0
131
0.0
112
0.0
122
1.0
132
0.0
 79
     0
146
0.0
 60
     3
 61
     5
292
     1
282
     1
141
0.0
142
0.0
 63
   250
361
3F
  0
ENDTAB
  0
TABLE
  2
LTYPE
  5
5
330
0
100
AcDbSymbolTable
 70
     1
  0
LTYPE
  5
14
330
5
100
AcDbSymbolTableRecord
100
AcDbLinetypeTableRecord
  2
ByBlock
 70
     0
  3

 72
    65
 73
     0
 40
0.0
  0
LTYPE
  5
15
330
5
100
AcDbSymbolTableRecord
100
AcDbLinetypeTableRecord
  2
ByLayer
 70
     0
  3

 72
    65
 73
     0
 40
0.0
  0
LTYPE
  5
16
330
5
100
AcDbSymbolTableRecord
100
AcDbLinetypeTableRecord
  2
Continuous
 70
     0
  3
Solid line
 72
    65
 73
     0
 40
0.0
  0
ENDTAB
  0
TABLE
  2
LAYER
  5
2
330
0
100
AcDbSymbolTable
 70
     2
  0
LAYER
  5
10
330
2
100
AcDbSymbolTableRecord
100
AcDbLayerTableRecord
  2
0
 70
     0
 62
     7
  6
Continuous
370
    -3
390
F
347
3E
  0
LAYER
  5
40
330
2
100
AcDbSymbolTableRecord
100
AcDbLayerTableRecord
  2
_U+30EC_U+30A4_U+30E4_U+30FC 1
 70
     0
 62
     7
  6
Continuous
370
    -3
390
F
347
3E
  0
ENDTAB
  0
TABLE
  2
STYLE
  5
3
330
0
100
AcDbSymbolTable
 70
     1
  0
STYLE
  5
11
330
3
100
AcDbSymbolTableRecord
100
AcDbTextStyleTableRecord
  2
Standard
 70
     0
 40
0.0
 41
1.0
 50
0.0
 71
     0
 42
0.2
  3
txt
  4

  0
ENDTAB
  0
TABLE
  2
VIEW
  5
6
330
0
100
AcDbSymbolTable
 70
     0
  0
ENDTAB
  0
TABLE
  2
UCS
  5
7
330
0
100
AcDbSymbolTable
 70
     0
  0
ENDTAB
  0
TABLE
  2
APPID
  5
9
330
0
100
AcDbSymbolTable
 70
     1
  0
APPID
  5
12
330
9
100
AcDbSymbolTableRecord
100
AcDbRegAppTableRecord
  2
ACAD
 70
     0
  0
ENDTAB
  0
TABLE
  2
DIMSTYLE
  5
A
330
0
100
AcDbSymbolTable
 70
     1
100
AcDbDimStyleTable
  0
DIMSTYLE
105
27
330
A
100
AcDbSymbolTableRecord
100
AcDbDimStyleTableRecord
  2
Standard
 70
     0
178
     0
340
11
  0
ENDTAB
  0
TABLE
  2
BLOCK_RECORD
  5
1
330
0
100
AcDbSymbolTable
 70
     4
  0
BLOCK_RECORD
  5
1F
330
1
100
AcDbSymbolTableRecord
100
AcDbBlockTableRecord
  2
*Model_Space
340
22
 70
     0
280
     1
281
     0
  0
BLOCK_RECORD
  5
1B
330
1
100
AcDbSymbolTableRecord
100
AcDbBlockTableRecord
  2
*Paper_Space
340
1E
 70
     0
280
     1
281
     0
  0
BLOCK_RECORD
  5
23
330
1
100
AcDbSymbolTableRecord
100
AcDbBlockTableRecord
  2
*Paper_Space0
340
26
 70
     0
280
     1
281
     0
  0
BLOCK_RECORD
  5
6B
330
1
100
AcDbSymbolTableRecord
100
AcDbBlockTableRecord
  2
block 2
340
0
102
{BLKREFS
331
6C
102
}
 70
     0
280
     1
281
     0
  0
BLOCK_RECORD
  5
87
330
1
100
AcDbSymbolTableRecord
100
AcDbBlockTableRecord
  2
block 3
340
0
102
{BLKREFS
331
88
102
}
 70
     0
280
     1
281
     0
  0
BLOCK_RECORD
  5
9C
330
1
100
AcDbSymbolTableRecord
100
AcDbBlockTableRecord
  2
block 4
340
0
102
{BLKREFS
331
9D
102
}
 70
     0
280
     1
281
     0
  0
ENDTAB
  0
ENDSEC
  0
SECTION
  2
BLOCKS
  0
BLOCK
  5
20
330
1F
100
AcDbEntity
  8
0
100
AcDbBlockBegin
  2
*Model_Space
 70
     0
 10
0.0
 20
0.0
 30
0.0
  3
*Model_Space
  1

  0
ENDBLK
  5
21
330
1F
100
AcDbEntity
  8
0
100
AcDbBlockEnd
  0
BLOCK
  5
1C
330
1B
100
AcDbEntity
 67
     1
  8
0
100
AcDbBlockBegin
  2
*Paper_Space
 70
     0
 10
0.0
 20
0.0
 30
0.0
  3
*Paper_Space
  1

  0
ENDBLK
  5
1D
330
1B
100
AcDbEntity
 67
     1
  8
0
100
AcDbBlockEnd
  0
BLOCK
  5
24
330
23
100
AcDbEntity
  8
0
100
AcDbBlockBegin
  2
*Paper_Space0
 70
     0
 10
0.0
 20
0.0
 30
0.0
  3
*Paper_Space0
  1

  0
ENDBLK
  5
25
330
23
100
AcDbEntity
  8
0
100
AcDbBlockEnd
  0
BLOCK
  5
6D
330
6B
100
AcDbEntity
  8
0
100
AcDbBlockBegin
  2
block 2
 70
     0
 10
0.0
 20
0.0
 30
0.0
  3
block 2
  1

  0
SPLINE
  5
6F
330
6B
100
AcDbEntity
  8
_U+30EC_U+30A4_U+30E4_U+30FC 1
370
     0
100
AcDbSpline
210
0.0
220
0.0
230
1.0
 70
    11
 71
     3
 72
    26
 73
    22
 74
     0
 42
0.0000000001
 43
0.0000000001
 12
1.0
 22
0.0
 32
0.0
 13
1.0
 23
0.0
 33
0.0
 40
0.0
 40
0.0
 40
0.0
 40
0.0
 40
1.0
 40
1.0
 40
1.0
 40
2.0
 40
2.0
 40
2.0
 40
3.0
 40
3.0
 40
3.0
 40
4.0
 40
4.0
 40
4.0
 40
5.0
 40
5.0
 40
5.0
 40
6.0
 40
6.0
 40
6.0
 40
7.0
 40
7.0
 40
7.0
 40
7.0
 10
108.6317843695435
 20
-136.8688204952967
 30
0.0
 10
108.6317843695435
 20
-136.8688204952967
 30
0.0
 10
107.5276312665209
 20
-136.8688204952967
 30
0.0
 10
107.5276312665209
 20
-136.8688204952967
 30
0.0
 10
107.5276312665209
 20
-136.8688204952967
 30
0.0
 10
107.5276312665209
 20
-137.1544189110239
 30
0.0
 10
107.5276312665209
 20
-137.1544189110239
 30
0.0
 10
107.5276312665209
 20
-137.1544189110239
 30
0.0
 10
107.3794921606551
 20
-137.1544189110239
 30
0.0
 10
107.3794921606551
 20
-137.1544189110239
 30
0.0
 10
107.3646782500686
 20
-136.8670979475541
 30
0.0
 10
107.2017252336162
 20
-136.8267903303766
 30
0.0
 10
107.0873480635059
 20
-136.8012966237858
 30
0.0
 10
107.0873480635059
 20
-136.8012966237858
 30
0.0
 10
107.0873480635059
 20
-136.6748616194771
 30
0.0
 10
107.0873480635059
 20
-136.6748616194771
 30
0.0
 10
107.0873480635059
 20
-136.6748616194771
 30
0.0
 10
108.6317843695435
 20
-136.6748616194771
 30
0.0
 10
108.6317843695435
 20
-136.6748616194771
 30
0.0
 10
108.6317843695435
 20
-136.6748616194771
 30
0.0
 10
108.6317843695435
 20
-136.8688204952967
 30
0.0
 10
108.6317843695435
 20
-136.8688204952967
 30
0.0
  0
HATCH
  5
70
330
6B
100
AcDbEntity
  8
_U+30EC_U+30A4_U+30E4_U+30FC 1
 62
   179
420
  2234388
100
AcDbHatch
 10
0.0
 20
0.0
 30
0.0
210
0.0
220
0.0
230
1.0
  2
SOLID
 70
     1
 71
     0
 91
        1
 92
        1
 93
        1
 72
     4
 94
        3
 73
     0
 74
     1
 95
       26
 96
       22
 40
0.0
 40
0.0
 40
0.0
 40
0.0
 40
1.0
 40
1.0
 40
1.0
 40
2.0
 40
2.0
 40
2.0
 40
3.0
 40
3.0
 40
3.0
 40
4.0
 40
4.0
 40
4.0
 40
5.0
 40
5.0
 40
5.0
 40
6.0
 40
6.0
 40
6.0
 40
7.0
 40
7.0
 40
7.0
 40
7.0
 10
108.6317843695435
 20
-136.8688204952967
 10
108.6317843695435
 20
-136.8688204952967
 10
107.5276312665209
 20
-136.8688204952967
 10
107.5276312665209
 20
-136.8688204952967
 10
107.5276312665209
 20
-136.8688204952967
 10
107.5276312665209
 20
-137.1544189110239
 10
107.5276312665209
 20
-137.1544189110239
 10
107.5276312665209
 20
-137.1544189110239
 10
107.3794921606551
 20
-137.1544189110239
 10
107.3794921606551
 20
-137.1544189110239
 10
107.3646782500686
 20
-136.8670979475541
 10
107.2017252336162
 20
-136.8267903303766
 10
107.0873480635059
 20
-136.8012966237858
 10
107.0873480635059
 20
-136.8012966237858
 10
107.0873480635059
 20
-136.6748616194771
 10
107.0873480635059
 20
-136.6748616194771
 10
107.0873480635059
 20
-136.6748616194771
 10
108.6317843695435
 20
-136.6748616194771
 10
108.6317843695435
 20
-136.6748616194771
 10
108.6317843695435
 20
-136.6748616194771
 10
108.6317843695435
 20
-136.8688204952967
 10
108.6317843695435
 20
-136.8688204952967
 97
        0
 97
        0
 75
     2
 76
     1
 98
        0
  0
POLYLINE
  5
71
330
6B
100
AcDbEntity
  8
_U+30EC_U+30A4_U+30E4_U+30FC 1
370
     0
100
AcDb2dPolyline
 66
     1
 10
0.0
 20
0.0
 30
0.0
  0
VERTEX
  5
72
330
71
100
AcDbEntity
  8
_U+30EC_U+30A4_U+30E4_U+30FC 1
370
     0
100
AcDbVertex
100
AcDb2dVertex
 10
108.6317843695435
 20
-136.1901366847025
 30
0.0
  0
VERTEX
  5
73
330
71
100
AcDbEntity
  8
_U+30EC_U+30A4_U+30E4_U+30FC 1
370
     0
100
AcDbVertex
100
AcDb2dVertex
 10
108.3799478895717
 20
-136.1901366847025
 30
0.0
  0
VERTEX
  5
74
330
71
100
AcDbEntity
  8
_U+30EC_U+30A4_U+30E4_U+30FC 1
370
     0
100
AcDbVertex
100
AcDb2dVertex
 10
108.3799478895717
 20
-135.9724066500347
 30
0.0
  0
VERTEX
  5
75
330
71
100
AcDbEntity
  8
_U+30EC_U+30A4_U+30E4_U+30FC 1
370
     0
100
AcDbVertex
100
AcDb2dVertex
 10
108.6317843695435
 20
-135.9724066500347
 30
0.0
  0
VERTEX
  5
76
330
71
100
AcDbEntity
  8
_U+30EC_U+30A4_U+30E4_U+30FC 1
370
     0
100
AcDbVertex
100
AcDb2dVertex
 10
108.6317843695435
 20
-136.1901366847025
 30
0.0
  0
SEQEND
  5
77
330
71
100
AcDbEntity
  8
_U+30EC_U+30A4_U+30E4_U+30FC 1
370
     0
  0
HATCH
  5
78
330
6B
100
AcDbEntity
  8
_U+30EC_U+30A4_U+30E4_U+30FC 1
 62
   179
420
  2234388
100
AcDbHatch
 10
0.0
 20
0.0
 30
0.0
210
0.0
220
0.0
230
1.0
  2
SOLID
 70
     1
 71
     0
 91
        1
 92
        1
 93
        4
 72
     1
 10
108.6317843695435
 20
-136.1901366847025
 11
108.3799478895717
 21
-136.1901366847025
 72
     1
 10
108.3799478895717
 20
-136.1901366847025
 11
108.3799478895717
 21
-135.9724066500347
 72
     1
 10
108.3799478895717
 20
-135.9724066500347
 11
108.6317843695435
 21
-135.9724066500347
 72
     1
 10
108.6317843695435
 20
-135.9724066500347
 11
108.6317843695435
 21
-136.1901366847025
 97
        0
 75
     2
 76
     1
 98
        0
  0
SPLINE
  5
79
330
6B
100
AcDbEntity
  8
_U+30EC_U+30A4_U+30E4_U+30FC 1
370
     0
100
AcDbSpline
210
0.0
220
0.0
230
1.0
 70
    11
 71
     3
 72
    53
 73
    49
 74
     0
 42
0.0000000001
 43
0.0000000001
 12
1.0
 22
0.0
 32
0.0
 13
1.0
 23
0.0
 33
0.0
 40
0.0
 40
0.0
 40
0.0
 40
0.0
 40
1.0
 40
1.0
 40
1.0
 40
2.0
 40
2.0
 40
2.0
 40
3.0
 40
3.0
 40
3.0
 40
4.0
 40
4.0
 40
4.0
 40
5.0
 40
5.0
 40
5.0
 40
6.0
 40
6.0
 40
6.0
 40
7.0
 40
7.0
 40
7.0
 40
8.0
 40
8.0
 40
8.0
 40
9.0
 40
9.0
 40
9.0
 40
10.0
 40
10.0
 40
10.0
 40
11.0
 40
11.0
 40
11.0
 40
12.0
 40
12.0
 40
12.0
 40
13.0
 40
13.0
 40
13.0
 40
14.0
 40
14.0
 40
14.0
 40
15.0
 40
15.0
 40
15.0
 40
16.0
 40
16.0
 40
16.0
 40
16.0
 10
108.6824272731766
 20
-135.3522894626897
 30
0.0
 10
108.6824272731766
 20
-135.4198133342006
 30
0.0
 10
108.6655463052989
 20
-135.508007778623
 30
0.0
 10
108.6021565483703
 20
-135.5955132039483
 30
0.0
 10
108.4922580023908
 20
-135.7457193671052
 30
0.0
 10
108.3609998644028
 20
-135.7639783731771
 30
0.0
 10
108.2531683757145
 20
-135.7805148315063
 30
0.0
 10
108.2531683757145
 20
-135.7805148315063
 30
0.0
 10
108.2531683757145
 20
-135.5882785034293
 30
0.0
 10
108.2531683757145
 20
-135.5882785034293
 30
0.0
 10
108.4519503852134
 20
-135.5407361857329
 30
0.0
 10
108.4815782063866
 20
-135.4308376397534
 30
0.0
 10
108.4815782063866
 20
-135.3505669149471
 30
0.0
 10
108.4815782063866
 20
-135.2296440634148
 30
0.0
 10
108.3820149468628
 20
-135.0980414158783
 30
0.0
 10
108.1494710016085
 20
-135.0980414158783
 30
0.0
 10
107.8935004070544
 20
-135.0980414158783
 30
0.0
 10
107.8235649687038
 20
-135.253415222263
 30
0.0
 10
107.8235649687038
 20
-135.3578016154661
 30
0.0
 10
107.8235649687038
 20
-135.3853623793481
 30
0.0
 10
107.8235649687038
 20
-135.508007778623
 30
0.0
 10
107.9527560494007
 20
-135.5848334079441
 30
0.0
 10
107.9527560494007
 20
-135.5848334079441
 30
0.0
 10
107.9338080242318
 20
-135.7367621188436
 30
0.0
 10
107.9338080242318
 20
-135.7367621188436
 30
0.0
 10
107.9338080242318
 20
-135.7367621188436
 30
0.0
 10
107.0873480635059
 20
-135.6323757256405
 30
0.0
 10
107.0873480635059
 20
-135.6323757256405
 30
0.0
 10
107.0873480635059
 20
-135.6323757256405
 30
0.0
 10
107.0873480635059
 20
-134.9588595582742
 30
0.0
 10
107.0873480635059
 20
-134.9588595582742
 30
0.0
 10
107.0873480635059
 20
-134.9588595582742
 30
0.0
 10
107.2819959584226
 20
-134.9588595582742
 30
0.0
 10
107.2819959584226
 20
-134.9588595582742
 30
0.0
 10
107.2819959584226
 20
-134.9588595582742
 30
0.0
 10
107.2819959584226
 20
-135.4914713202938
 30
0.0
 10
107.2819959584226
 20
-135.4914713202938
 30
0.0
 10
107.2819959584226
 20
-135.4914713202938
 30
0.0
 10
107.7050536840112
 20
-135.5479708862519
 30
0.0
 10
107.7050536840112
 20
-135.5479708862519
 30
0.0
 10
107.6712917482558
 20
-135.494916415779
 30
0.0
 10
107.6309841310784
 20
-135.4236029392344
 30
0.0
 10
107.6309841310784
 20
-135.3212836033225
 30
0.0
 10
107.6309841310784
 20
-135.1014865113635
 30
0.0
 10
107.8173637968304
 20
-134.8965033299912
 30
0.0
 10
108.1305229764396
 20
-134.8965033299912
 30
0.0
 10
108.4478162706311
 20
-134.8965033299912
 30
0.0
 10
108.6824272731766
 20
-135.0904622058107
 30
0.0
 10
108.6824272731766
 20
-135.3522894626897
 30
0.0
  0
HATCH
  5
7A
330
6B
100
AcDbEntity
  8
_U+30EC_U+30A4_U+30E4_U+30FC 1
 62
   179
420
  2234388
100
AcDbHatch
 10
0.0
 20
0.0
 30
0.0
210
0.0
220
0.0
230
1.0
  2
SOLID
 70
     1
 71
     0
 91
        1
 92
        1
 93
        1
 72
     4
 94
        3
 73
     0
 74
     1
 95
       53
 96
       49
 40
0.0
 40
0.0
 40
0.0
 40
0.0
 40
1.0
 40
1.0
 40
1.0
 40
2.0
 40
2.0
 40
2.0
 40
3.0
 40
3.0
 40
3.0
 40
4.0
 40
4.0
 40
4.0
 40
5.0
 40
5.0
 40
5.0
 40
6.0
 40
6.0
 40
6.0
 40
7.0
 40
7.0
 40
7.0
 40
8.0
 40
8.0
 40
8.0
 40
9.0
 40
9.0
 40
9.0
 40
10.0
 40
10.0
 40
10.0
 40
11.0
 40
11.0
 40
11.0
 40
12.0
 40
12.0
 40
12.0
 40
13.0
 40
13.0
 40
13.0
 40
14.0
 40
14.0
 40
14.0
 40
15.0
 40
15.0
 40
15.0
 40
16.0
 40
16.0
 40
16.0
 40
16.0
 10
108.6824272731766
 20
-135.3522894626897
 10
108.6824272731766
 20
-135.4198133342006
 10
108.6655463052989
 20
-135.508007778623
 10
108.6021565483703
 20
-135.5955132039483
 10
108.4922580023908
 20
-135.7457193671052
 10
108.3609998644028
 20
-135.7639783731771
 10
108.2531683757145
 20
-135.7805148315063
 10
108.2531683757145
 20
-135.7805148315063
 10
108.2531683757145
 20
-135.5882785034293
 10
108.2531683757145
 20
-135.5882785034293
 10
108.4519503852134
 20
-135.5407361857329
 10
108.4815782063866
 20
-135.4308376397534
 10
108.4815782063866
 20
-135.3505669149471
 10
108.4815782063866
 20
-135.2296440634148
 10
108.3820149468628
 20
-135.0980414158783
 10
108.1494710016085
 20
-135.0980414158783
 10
107.8935004070544
 20
-135.0980414158783
 10
107.8235649687038
 20
-135.253415222263
 10
107.8235649687038
 20
-135.3578016154661
 10
107.8235649687038
 20
-135.3853623793481
 10
107.8235649687038
 20
-135.508007778623
 10
107.9527560494007
 20
-135.5848334079441
 10
107.9527560494007
 20
-135.5848334079441
 10
107.9338080242318
 20
-135.7367621188436
 10
107.9338080242318
 20
-135.7367621188436
 10
107.9338080242318
 20
-135.7367621188436
 10
107.0873480635059
 20
-135.6323757256405
 10
107.0873480635059
 20
-135.6323757256405
 10
107.0873480635059
 20
-135.6323757256405
 10
107.0873480635059
 20
-134.9588595582742
 10
107.0873480635059
 20
-134.9588595582742
 10
107.0873480635059
 20
-134.9588595582742
 10
107.2819959584226
 20
-134.9588595582742
 10
107.2819959584226
 20
-134.9588595582742
 10
107.2819959584226
 20
-134.9588595582742
 10
107.2819959584226
 20
-135.4914713202938
 10
107.2819959584226
 20
-135.4914713202938
 10
107.2819959584226
 20
-135.4914713202938
 10
107.7050536840112
 20
-135.5479708862519
 10
107.7050536840112
 20
-135.5479708862519
 10
107.6712917482558
 20
-135.494916415779
 10
107.6309841310784
 20
-135.4236029392344
 10
107.6309841310784
 20
-135.3212836033225
 10
107.6309841310784
 20
-135.1014865113635
 10
107.8173637968304
 20
-134.8965033299912
 10
108.1305229764396
 20
-134.8965033299912
 10
108.4478162706311
 20
-134.8965033299912
 10
108.6824272731766
 20
-135.0904622058107
 10
108.6824272731766
 20
-135.3522894626897
 97
        0
 97
        0
 75
     2
 76
     1
 98
        0
  0
ENDBLK
  5
6E
330
6B
100
AcDbEntity
  8
0
100
AcDbBlockEnd
  0
BLOCK
  5
89
330
87
100
AcDbEntity
  8
0
100
AcDbBlockBegin
  2
block 3
 70
     0
 10
0.0
 20
0.0
 30
0.0
  3
block 3
  1

  0
SPLINE
  5
8B
330
87
100
AcDbEntity
  8
_U+30EC_U+30A4_U+30E4_U+30FC 1
370
     0
100
AcDbSpline
210
0.0
220
0.0
230
1.0
 70
    11
 71
     3
 72
    62
 73
    58
 74
     0
 42
0.0000000001
 43
0.0000000001
 12
1.0
 22
0.0
 32
0.0
 13
1.0
 23
0.0
 33
0.0
 40
0.0
 40
0.0
 40
0.0
 40
0.0
 40
1.0
 40
1.0
 40
1.0
 40
2.0
 40
2.0
 40
2.0
 40
3.0
 40
3.0
 40
3.0
 40
4.0
 40
4.0
 40
4.0
 40
5.0
 40
5.0
 40
5.0
 40
6.0
 40
6.0
 40
6.0
 40
7.0
 40
7.0
 40
7.0
 40
8.0
 40
8.0
 40
8.0
 40
9.0
 40
9.0
 40
9.0
 40
10.0
 40
10.0
 40
10.0
 40
11.0
 40
11.0
 40
11.0
 40
12.0
 40
12.0
 40
12.0
 40
13.0
 40
13.0
 40
13.0
 40
14.0
 40
14.0
 40
14.0
 40
15.0
 40
15.0
 40
15.0
 40
16.0
 40
16.0
 40
16.0
 40
17.0
 40
17.0
 40
17.0
 40
18.0
 40
18.0
 40
18.0
 40
19.0
 40
19.0
 40
19.0
 40
19.0
 10
90.88816458231268
 20
-144.2950683233013
 30
0.0
 10
90.80582680021521
 20
-144.2950683233013
 30
0.0
 10
90.61703556762352
 20
-144.2740532408412
 30
0.0
 10
90.5092040789352
 20
-144.0880180846377
 30
0.0
 10
90.44512530290956
 20
-143.9757079718186
 30
0.0
 10
90.44133569787579
 20
-143.8764892218434
 30
0.0
 10
90.43789060239052
 20
-143.7917398729062
 30
0.0
 10
90.43789060239052
 20
-143.7917398729062
 30
0.0
 10
90.62805987317633
 20
-143.7917398729062
 30
0.0
 10
90.62805987317633
 20
-143.7917398729062
 30
0.0
 10
90.63012693046747
 20
-143.8658094258391
 30
0.0
 10
90.63908417872912
 20
-144.1004204283846
 30
0.0
 10
90.88437497727891
 20
-144.1004204283846
 30
0.0
 10
91.00323077152002
 20
-144.1004204283846
 30
0.0
 10
91.1351779286051
 20
-144.0308294995826
 30
0.0
 10
91.1351779286051
 20
-143.8024196689105
 30
0.0
 10
91.1351779286051
 20
-143.6859754415091
 30
0.0
 10
91.1021050119467
 20
-143.637399595167
 30
0.0
 10
91.0745442480647
 20
-143.6057047167027
 30
0.0
 10
91.01080998158758
 20
-143.5316351637699
 30
0.0
 10
90.90986868386976
 20
-143.5188883104744
 30
0.0
 10
90.8623263661733
 20
-143.5188883104744
 30
0.0
 10
90.84578990784411
 20
-143.5188883104744
 30
0.0
 10
90.81478404847687
 20
-143.5209553677656
 30
0.0
 10
90.79101288962865
 20
-143.5250894823479
 30
0.0
 10
90.79101288962865
 20
-143.5250894823479
 30
0.0
 10
90.79101288962865
 20
-143.3304415874313
 30
0.0
 10
90.79101288962865
 20
-143.3304415874313
 30
0.0
 10
90.82408580628704
 20
-143.3369872688532
 30
0.0
 10
90.86060381843069
 20
-143.3390543261444
 30
0.0
 10
90.86611597120708
 20
-143.3390543261444
 30
0.0
 10
90.92296004671371
 20
-143.3390543261444
 30
0.0
 10
91.09487031142767
 20
-143.3176947341359
 30
0.0
 10
91.09487031142767
 20
-143.0810166742992
 30
0.0
 10
91.09487031142767
 20
-142.9032497472603
 30
0.0
 10
90.98152666996296
 20
-142.8481282194963
 30
0.0
 10
90.88609752502154
 20
-142.8481282194963
 30
0.0
 10
90.65734318480095
 20
-142.8481282194963
 30
0.0
 10
90.65010848428192
 20
-143.0810166742992
 30
0.0
 10
90.64631887924814
 20
-143.1526746603924
 30
0.0
 10
90.64631887924814
 20
-143.1526746603924
 30
0.0
 10
90.47061900950041
 20
-143.1526746603924
 30
0.0
 10
90.47061900950041
 20
-143.1526746603924
 30
0.0
 10
90.47819821956796
 20
-143.0279622038263
 30
0.0
 10
90.50196937841618
 20
-142.6514132672885
 30
0.0
 10
90.89712183057433
 20
-142.6514132672885
 30
0.0
 10
91.0910807063939
 20
-142.6514132672885
 30
0.0
 10
91.29985349280004
 20
-142.7785372906943
 30
0.0
 10
91.29985349280004
 20
-143.0744709928772
 30
0.0
 10
91.29985349280004
 20
-143.2608506586292
 30
0.0
 10
91.21751571070257
 20
-143.3431884407267
 30
0.0
 10
91.13138832357133
 20
-143.4045111403641
 30
0.0
 10
91.18444279404417
 20
-143.4320719042462
 30
0.0
 10
91.34188365772009
 20
-143.5123426290525
 30
0.0
 10
91.34188365772009
 20
-143.7896728156151
 30
0.0
 10
91.34188365772009
 20
-144.1279811922666
 30
0.0
 10
91.12794322808607
 20
-144.2950683233013
 30
0.0
 10
90.88816458231268
 20
-144.2950683233013
 30
0.0
  0
HATCH
  5
8C
330
87
100
AcDbEntity
  8
_U+30EC_U+30A4_U+30E4_U+30FC 1
 62
   179
420
  2234388
100
AcDbHatch
 10
0.0
 20
0.0
 30
0.0
210
0.0
220
0.0
230
1.0
  2
SOLID
 70
     1
 71
     0
 91
        1
 92
        1
 93
        1
 72
     4
 94
        3
 73
     0
 74
     1
 95
       62
 96
       58
 40
0.0
 40
0.0
 40
0.0
 40
0.0
 40
1.0
 40
1.0
 40
1.0
 40
2.0
 40
2.0
 40
2.0
 40
3.0
 40
3.0
 40
3.0
 40
4.0
 40
4.0
 40
4.0
 40
5.0
 40
5.0
 40
5.0
 40
6.0
 40
6.0
 40
6.0
 40
7.0
 40
7.0
 40
7.0
 40
8.0
 40
8.0
 40
8.0
 40
9.0
 40
9.0
 40
9.0
 40
10.0
 40
10.0
 40
10.0
 40
11.0
 40
11.0
 40
11.0
 40
12.0
 40
12.0
 40
12.0
 40
13.0
 40
13.0
 40
13.0
 40
14.0
 40
14.0
 40
14.0
 40
15.0
 40
15.0
 40
15.0
 40
16.0
 40
16.0
 40
16.0
 40
17.0
 40
17.0
 40
17.0
 40
18.0
 40
18.0
 40
18.0
 40
19.0
 40
19.0
 40
19.0
 40
19.0
 10
90.88816458231268
 20
-144.2950683233013
 10
90.80582680021521
 20
-144.2950683233013
 10
90.61703556762352
 20
-144.2740532408412
 10
90.5092040789352
 20
-144.0880180846377
 10
90.44512530290956
 20
-143.9757079718186
 10
90.44133569787579
 20
-143.8764892218434
 10
90.43789060239052
 20
-143.7917398729062
 10
90.43789060239052
 20
-143.7917398729062
 10
90.62805987317633
 20
-143.7917398729062
 10
90.62805987317633
 20
-143.7917398729062
 10
90.63012693046747
 20
-143.8658094258391
 10
90.63908417872912
 20
-144.1004204283846
 10
90.88437497727891
 20
-144.1004204283846
 10
91.00323077152002
 20
-144.1004204283846
 10
91.1351779286051
 20
-144.0308294995826
 10
91.1351779286051
 20
-143.8024196689105
 10
91.1351779286051
 20
-143.6859754415091
 10
91.1021050119467
 20
-143.637399595167
 10
91.0745442480647
 20
-143.6057047167027
 10
91.01080998158758
 20
-143.5316351637699
 10
90.90986868386976
 20
-143.5188883104744
 10
90.8623263661733
 20
-143.5188883104744
 10
90.84578990784411
 20
-143.5188883104744
 10
90.81478404847687
 20
-143.5209553677656
 10
90.79101288962865
 20
-143.5250894823479
 10
90.79101288962865
 20
-143.5250894823479
 10
90.79101288962865
 20
-143.3304415874313
 10
90.79101288962865
 20
-143.3304415874313
 10
90.82408580628704
 20
-143.3369872688532
 10
90.86060381843069
 20
-143.3390543261444
 10
90.86611597120708
 20
-143.3390543261444
 10
90.92296004671371
 20
-143.3390543261444
 10
91.09487031142767
 20
-143.3176947341359
 10
91.09487031142767
 20
-143.0810166742992
 10
91.09487031142767
 20
-142.9032497472603
 10
90.98152666996296
 20
-142.8481282194963
 10
90.88609752502154
 20
-142.8481282194963
 10
90.65734318480095
 20
-142.8481282194963
 10
90.65010848428192
 20
-143.0810166742992
 10
90.64631887924814
 20
-143.1526746603924
 10
90.64631887924814
 20
-143.1526746603924
 10
90.47061900950041
 20
-143.1526746603924
 10
90.47061900950041
 20
-143.1526746603924
 10
90.47819821956796
 20
-143.0279622038263
 10
90.50196937841618
 20
-142.6514132672885
 10
90.89712183057433
 20
-142.6514132672885
 10
91.0910807063939
 20
-142.6514132672885
 10
91.29985349280004
 20
-142.7785372906943
 10
91.29985349280004
 20
-143.0744709928772
 10
91.29985349280004
 20
-143.2608506586292
 10
91.21751571070257
 20
-143.3431884407267
 10
91.13138832357133
 20
-143.4045111403641
 10
91.18444279404417
 20
-143.4320719042462
 10
91.34188365772009
 20
-143.5123426290525
 10
91.34188365772009
 20
-143.7896728156151
 10
91.34188365772009
 20
-144.1279811922666
 10
91.12794322808607
 20
-144.2950683233013
 10
90.88816458231268
 20
-144.2950683233013
 97
        0
 97
        0
 75
     2
 76
     1
 98
        0
  0
SPLINE
  5
8D
330
87
100
AcDbEntity
  8
_U+30EC_U+30A4_U+30E4_U+30FC 1
370
     0
100
AcDbSpline
210
0.0
220
0.0
230
1.0
 70
    11
 71
     3
 72
    29
 73
    25
 74
     0
 42
0.0000000001
 43
0.0000000001
 12
1.0
 22
0.0
 32
0.0
 13
1.0
 23
0.0
 33
0.0
 40
0.0
 40
0.0
 40
0.0
 40
0.0
 40
1.0
 40
1.0
 40
1.0
 40
2.0
 40
2.0
 40
2.0
 40
3.0
 40
3.0
 40
3.0
 40
4.0
 40
4.0
 40
4.0
 40
5.0
 40
5.0
 40
5.0
 40
6.0
 40
6.0
 40
6.0
 40
7.0
 40
7.0
 40
7.0
 40
8.0
 40
8.0
 40
8.0
 40
8.0
 10
92.25690101860245
 20
-144.0666584926292
 30
0.0
 10
92.16353893095217
 20
-144.2761202981324
 30
0.0
 10
92.01333276779528
 20
-144.2950683233013
 30
0.0
 10
91.91273597962599
 20
-144.2950683233013
 30
0.0
 10
91.77355412202189
 20
-144.2950683233013
 30
0.0
 10
91.650908722747
 20
-144.2485595342504
 30
0.0
 10
91.56857094064952
 20
-144.0666584926292
 30
0.0
 10
91.47899845803303
 20
-143.8720105977125
 30
0.0
 10
91.46246199970383
 20
-143.6349880283274
 30
0.0
 10
91.46246199970383
 20
-143.4723795214236
 30
0.0
 10
91.46246199970383
 20
-143.3283745301401
 30
0.0
 10
91.47693140074188
 20
-143.0765380501684
 30
0.0
 10
91.56857094064952
 20
-142.8777560406695
 30
0.0
 10
91.6619330282998
 20
-142.6748399165882
 30
0.0
 10
91.80111488590389
 20
-142.6514132672885
 30
0.0
 10
91.91273597962599
 20
-142.6514132672885
 30
0.0
 10
92.04985077993894
 20
-142.6514132672885
 30
0.0
 10
92.17456323650498
 20
-142.6958549990483
 30
0.0
 10
92.25690101860245
 20
-142.8777560406695
 30
0.0
 10
92.34268389618516
 20
-143.0703368782949
 30
0.0
 10
92.36300995954814
 20
-143.298746708967
 30
0.0
 10
92.36300995954814
 20
-143.4723795214236
 30
0.0
 10
92.36300995954814
 20
-143.6436007670405
 30
0.0
 10
92.34475095347632
 20
-143.8740776550037
 30
0.0
 10
92.25690101860245
 20
-144.0666584926292
 30
0.0
  0
SPLINE
  5
8E
330
87
100
AcDbEntity
  8
_U+30EC_U+30A4_U+30E4_U+30FC 1
370
     0
100
AcDbSpline
210
0.0
220
0.0
230
1.0
 70
    11
 71
     3
 72
    17
 73
    13
 74
     0
 42
0.0000000001
 43
0.0000000001
 12
1.0
 22
0.0
 32
0.0
 13
1.0
 23
0.0
 33
0.0
 40
0.0
 40
0.0
 40
0.0
 40
0.0
 40
1.0
 40
1.0
 40
1.0
 40
2.0
 40
2.0
 40
2.0
 40
3.0
 40
3.0
 40
3.0
 40
4.0
 40
4.0
 40
4.0
 40
4.0
 10
91.91273597962599
 20
-142.843994104914
 30
0.0
 10
91.69672849270083
 20
-142.843994104914
 30
0.0
 10
91.6564208755234
 20
-143.1275254633501
 30
0.0
 10
91.6564208755234
 20
-143.4723795214236
 30
0.0
 10
91.6564208755234
 20
-143.7917398729062
 30
0.0
 10
91.68742673489065
 20
-144.1004204283846
 30
0.0
 10
91.91273597962599
 20
-144.1004204283846
 30
0.0
 10
92.12667640926
 20
-144.1004204283846
 30
0.0
 10
92.16905108372858
 20
-143.8193006367882
 30
0.0
 10
92.16905108372858
 20
-143.4723795214236
 30
0.0
 10
92.16905108372858
 20
-143.1526746603924
 30
0.0
 10
92.13597816707018
 20
-142.843994104914
 30
0.0
 10
91.91273597962599
 20
-142.843994104914
 30
0.0
  0
HATCH
  5
8F
330
87
100
AcDbEntity
  8
_U+30EC_U+30A4_U+30E4_U+30FC 1
 62
   179
420
  2234388
100
AcDbHatch
 10
0.0
 20
0.0
 30
0.0
210
0.0
220
0.0
230
1.0
  2
SOLID
 70
     1
 71
     0
 91
        2
 92
        1
 93
        1
 72
     4
 94
        3
 73
     0
 74
     1
 95
       29
 96
       25
 40
0.0
 40
0.0
 40
0.0
 40
0.0
 40
1.0
 40
1.0
 40
1.0
 40
2.0
 40
2.0
 40
2.0
 40
3.0
 40
3.0
 40
3.0
 40
4.0
 40
4.0
 40
4.0
 40
5.0
 40
5.0
 40
5.0
 40
6.0
 40
6.0
 40
6.0
 40
7.0
 40
7.0
 40
7.0
 40
8.0
 40
8.0
 40
8.0
 40
8.0
 10
92.25690101860245
 20
-144.0666584926292
 10
92.16353893095217
 20
-144.2761202981324
 10
92.01333276779528
 20
-144.2950683233013
 10
91.91273597962599
 20
-144.2950683233013
 10
91.77355412202189
 20
-144.2950683233013
 10
91.650908722747
 20
-144.2485595342504
 10
91.56857094064952
 20
-144.0666584926292
 10
91.47899845803303
 20
-143.8720105977125
 10
91.46246199970383
 20
-143.6349880283274
 10
91.46246199970383
 20
-143.4723795214236
 10
91.46246199970383
 20
-143.3283745301401
 10
91.47693140074188
 20
-143.0765380501684
 10
91.56857094064952
 20
-142.8777560406695
 10
91.6619330282998
 20
-142.6748399165882
 10
91.80111488590389
 20
-142.6514132672885
 10
91.91273597962599
 20
-142.6514132672885
 10
92.04985077993894
 20
-142.6514132672885
 10
92.17456323650498
 20
-142.6958549990483
 10
92.25690101860245
 20
-142.8777560406695
 10
92.34268389618516
 20
-143.0703368782949
 10
92.36300995954814
 20
-143.298746708967
 10
92.36300995954814
 20
-143.4723795214236
 10
92.36300995954814
 20
-143.6436007670405
 10
92.34475095347632
 20
-143.8740776550037
 10
92.25690101860245
 20
-144.0666584926292
 97
        0
 97
        0
 92
        1
 93
        1
 72
     4
 94
        3
 73
     0
 74
     1
 95
       17
 96
       13
 40
0.0
 40
0.0
 40
0.0
 40
0.0
 40
1.0
 40
1.0
 40
1.0
 40
2.0
 40
2.0
 40
2.0
 40
3.0
 40
3.0
 40
3.0
 40
4.0
 40
4.0
 40
4.0
 40
4.0
 10
91.91273597962599
 20
-142.843994104914
 10
91.69672849270083
 20
-142.843994104914
 10
91.6564208755234
 20
-143.1275254633501
 10
91.6564208755234
 20
-143.4723795214236
 10
91.6564208755234
 20
-143.7917398729062
 10
91.68742673489065
 20
-144.1004204283846
 10
91.91273597962599
 20
-144.1004204283846
 10
92.12667640926
 20
-144.1004204283846
 10
92.16905108372858
 20
-143.8193006367882
 10
92.16905108372858
 20
-143.4723795214236
 10
92.16905108372858
 20
-143.1526746603924
 10
92.13597816707018
 20
-142.843994104914
 10
91.91273597962599
 20
-142.843994104914
 97
        0
 97
        0
 75
     2
 76
     1
 98
        0
  0
ENDBLK
  5
8A
330
87
100
AcDbEntity
  8
0
100
AcDbBlockEnd
  0
BLOCK
  5
9E
330
9C
100
AcDbEntity
  8
0
100
AcDbBlockBegin
  2
block 4
 70
     0
 10
0.0
 20
0.0
 30
0.0
  3
block 4
  1

  0
SPLINE
  5
A0
330
9C
100
AcDbEntity
  8
_U+30EC_U+30A4_U+30E4_U+30FC 1
370
     0
100
AcDbSpline
210
0.0
220
0.0
230
1.0
 70
    11
 71
     3
 72
    62
 73
    58
 74
     0
 42
0.0000000001
 43
0.0000000001
 12
1.0
 22
0.0
 32
0.0
 13
1.0
 23
0.0
 33
0.0
 40
0.0
 40
0.0
 40
0.0
 40
0.0
 40
1.0
 40
1.0
 40
1.0
 40
2.0
 40
2.0
 40
2.0
 40
3.0
 40
3.0
 40
3.0
 40
4.0
 40
4.0
 40
4.0
 40
5.0
 40
5.0
 40
5.0
 40
6.0
 40
6.0
 40
6.0
 40
7.0
 40
7.0
 40
7.0
 40
8.0
 40
8.0
 40
8.0
 40
9.0
 40
9.0
 40
9.0
 40
10.0
 40
10.0
 40
10.0
 40
11.0
 40
11.0
 40
11.0
 40
12.0
 40
12.0
 40
12.0
 40
13.0
 40
13.0
 40
13.0
 40
14.0
 40
14.0
 40
14.0
 40
15.0
 40
15.0
 40
15.0
 40
16.0
 40
16.0
 40
16.0
 40
17.0
 40
17.0
 40
17.0
 40
18.0
 40
18.0
 40
18.0
 40
19.0
 40
19.0
 40
19.0
 40
19.0
 10
73.41343449770567
 20
-126.5914116436994
 30
0.0
 10
73.41343449770567
 20
-126.6737494257968
 30
0.0
 10
73.39224716047138
 20
-126.8625406583885
 30
0.0
 10
73.20603974949363
 20
-126.9703721470769
 30
0.0
 10
73.09390189144875
 20
-127.0344509231025
 30
0.0
 10
72.99451088669929
 20
-127.0382405281363
 30
0.0
 10
72.9099337925364
 20
-127.0416856236215
 30
0.0
 10
72.9099337925364
 20
-127.0416856236215
 30
0.0
 10
72.9099337925364
 20
-126.8515163528357
 30
0.0
 10
72.9099337925364
 20
-126.8515163528357
 30
0.0
 10
72.98400334546928
 20
-126.8494492955446
 30
0.0
 10
73.21878660278905
 20
-126.8404920472829
 30
0.0
 10
73.21878660278905
 20
-126.5952012487331
 30
0.0
 10
73.21878660278905
 20
-126.476345454492
 30
0.0
 10
73.14902341921275
 20
-126.344398297407
 30
0.0
 10
72.92044133376642
 20
-126.344398297407
 30
0.0
 10
72.80416936113924
 20
-126.344398297407
 30
0.0
 10
72.75542126002296
 20
-126.3774712140654
 30
0.0
 10
72.72372638155865
 20
-126.4046874683988
 30
0.0
 10
72.64965682862578
 20
-126.4687662444245
 30
0.0
 10
72.63708223010462
 20
-126.5697075421423
 30
0.0
 10
72.63708223010462
 20
-126.6172498598388
 30
0.0
 10
72.63708223010462
 20
-126.6337863181679
 30
0.0
 10
72.63914928739577
 20
-126.6647921775352
 30
0.0
 10
72.64328340197807
 20
-126.6885633363834
 30
0.0
 10
72.64328340197807
 20
-126.6885633363834
 30
0.0
 10
72.44863550706145
 20
-126.6885633363834
 30
0.0
 10
72.44863550706145
 20
-126.6885633363834
 30
0.0
 10
72.45500893370917
 20
-126.655490419725
 30
0.0
 10
72.45724824577458
 20
-126.6189724075814
 30
0.0
 10
72.45724824577458
 20
-126.613460254805
 30
0.0
 10
72.45724824577458
 20
-126.5566161792983
 30
0.0
 10
72.4360609085403
 20
-126.3847059145844
 30
0.0
 10
72.19903833915511
 20
-126.3847059145844
 30
0.0
 10
72.02144366689048
 20
-126.3847059145844
 30
0.0
 10
71.96632213912648
 20
-126.4980495560491
 30
0.0
 10
71.96632213912648
 20
-126.5934787009905
 30
0.0
 10
71.96632213912648
 20
-126.8222330412111
 30
0.0
 10
72.19903833915511
 20
-126.8294677417301
 30
0.0
 10
72.27104083479682
 20
-126.8332573467639
 30
0.0
 10
72.27104083479682
 20
-126.8332573467639
 30
0.0
 10
72.27104083479682
 20
-127.0089572165117
 30
0.0
 10
72.27104083479682
 20
-127.0089572165117
 30
0.0
 10
72.14615612345652
 20
-127.0013780064441
 30
0.0
 10
71.76960718691872
 20
-126.9776068475959
 30
0.0
 10
71.76960718691872
 20
-126.5824543954377
 30
0.0
 10
71.76960718691872
 20
-126.3884955196182
 30
0.0
 10
71.89655895555016
 20
-126.179722733212
 30
0.0
 10
72.1926649125074
 20
-126.179722733212
 30
0.0
 10
72.37887232348514
 20
-126.179722733212
 30
0.0
 10
72.46138236035688
 20
-126.2620605153095
 30
0.0
 10
72.52270505999432
 20
-126.3481879024407
 30
0.0
 10
72.55026582387633
 20
-126.2951334319679
 30
0.0
 10
72.63070880345691
 20
-126.137692568292
 30
0.0
 10
72.90786673524526
 20
-126.137692568292
 30
0.0
 10
73.24634736667106
 20
-126.137692568292
 30
0.0
 10
73.41343449770567
 20
-126.351632997926
 30
0.0
 10
73.41343449770567
 20
-126.5914116436994
 30
0.0
  0
HATCH
  5
A1
330
9C
100
AcDbEntity
  8
_U+30EC_U+30A4_U+30E4_U+30FC 1
 62
   179
420
  2234388
100
AcDbHatch
 10
0.0
 20
0.0
 30
0.0
210
0.0
220
0.0
230
1.0
  2
SOLID
 70
     1
 71
     0
 91
        1
 92
        1
 93
        1
 72
     4
 94
        3
 73
     0
 74
     1
 95
       62
 96
       58
 40
0.0
 40
0.0
 40
0.0
 40
0.0
 40
1.0
 40
1.0
 40
1.0
 40
2.0
 40
2.0
 40
2.0
 40
3.0
 40
3.0
 40
3.0
 40
4.0
 40
4.0
 40
4.0
 40
5.0
 40
5.0
 40
5.0
 40
6.0
 40
6.0
 40
6.0
 40
7.0
 40
7.0
 40
7.0
 40
8.0
 40
8.0
 40
8.0
 40
9.0
 40
9.0
 40
9.0
 40
10.0
 40
10.0
 40
10.0
 40
11.0
 40
11.0
 40
11.0
 40
12.0
 40
12.0
 40
12.0
 40
13.0
 40
13.0
 40
13.0
 40
14.0
 40
14.0
 40
14.0
 40
15.0
 40
15.0
 40
15.0
 40
16.0
 40
16.0
 40
16.0
 40
17.0
 40
17.0
 40
17.0
 40
18.0
 40
18.0
 40
18.0
 40
19.0
 40
19.0
 40
19.0
 40
19.0
 10
73.41343449770567
 20
-126.5914116436994
 10
73.41343449770567
 20
-126.6737494257968
 10
73.39224716047138
 20
-126.8625406583885
 10
73.20603974949363
 20
-126.9703721470769
 10
73.09390189144875
 20
-127.0344509231025
 10
72.99451088669929
 20
-127.0382405281363
 10
72.9099337925364
 20
-127.0416856236215
 10
72.9099337925364
 20
-127.0416856236215
 10
72.9099337925364
 20
-126.8515163528357
 10
72.9099337925364
 20
-126.8515163528357
 10
72.98400334546928
 20
-126.8494492955446
 10
73.21878660278905
 20
-126.8404920472829
 10
73.21878660278905
 20
-126.5952012487331
 10
73.21878660278905
 20
-126.476345454492
 10
73.14902341921275
 20
-126.344398297407
 10
72.92044133376642
 20
-126.344398297407
 10
72.80416936113924
 20
-126.344398297407
 10
72.75542126002296
 20
-126.3774712140654
 10
72.72372638155865
 20
-126.4046874683988
 10
72.64965682862578
 20
-126.4687662444245
 10
72.63708223010462
 20
-126.5697075421423
 10
72.63708223010462
 20
-126.6172498598388
 10
72.63708223010462
 20
-126.6337863181679
 10
72.63914928739577
 20
-126.6647921775352
 10
72.64328340197807
 20
-126.6885633363834
 10
72.64328340197807
 20
-126.6885633363834
 10
72.44863550706145
 20
-126.6885633363834
 10
72.44863550706145
 20
-126.6885633363834
 10
72.45500893370917
 20
-126.655490419725
 10
72.45724824577458
 20
-126.6189724075814
 10
72.45724824577458
 20
-126.613460254805
 10
72.45724824577458
 20
-126.5566161792983
 10
72.4360609085403
 20
-126.3847059145844
 10
72.19903833915511
 20
-126.3847059145844
 10
72.02144366689048
 20
-126.3847059145844
 10
71.96632213912648
 20
-126.4980495560491
 10
71.96632213912648
 20
-126.5934787009905
 10
71.96632213912648
 20
-126.8222330412111
 10
72.19903833915511
 20
-126.8294677417301
 10
72.27104083479682
 20
-126.8332573467639
 10
72.27104083479682
 20
-126.8332573467639
 10
72.27104083479682
 20
-127.0089572165117
 10
72.27104083479682
 20
-127.0089572165117
 10
72.14615612345652
 20
-127.0013780064441
 10
71.76960718691872
 20
-126.9776068475959
 10
71.76960718691872
 20
-126.5824543954377
 10
71.76960718691872
 20
-126.3884955196182
 10
71.89655895555016
 20
-126.179722733212
 10
72.1926649125074
 20
-126.179722733212
 10
72.37887232348514
 20
-126.179722733212
 10
72.46138236035688
 20
-126.2620605153095
 10
72.52270505999432
 20
-126.3481879024407
 10
72.55026582387633
 20
-126.2951334319679
 10
72.63070880345691
 20
-126.137692568292
 10
72.90786673524526
 20
-126.137692568292
 10
73.24634736667106
 20
-126.137692568292
 10
73.41343449770567
 20
-126.351632997926
 10
73.41343449770567
 20
-126.5914116436994
 97
        0
 97
        0
 75
     2
 76
     1
 98
        0
  0
SPLINE
  5
A2
330
9C
100
AcDbEntity
  8
_U+30EC_U+30A4_U+30E4_U+30FC 1
370
     0
100
AcDbSpline
210
0.0
220
0.0
230
1.0
 70
    11
 71
     3
 72
    29
 73
    25
 74
     0
 42
0.0000000001
 43
0.0000000001
 12
1.0
 22
0.0
 32
0.0
 13
1.0
 23
0.0
 33
0.0
 40
0.0
 40
0.0
 40
0.0
 40
0.0
 40
1.0
 40
1.0
 40
1.0
 40
2.0
 40
2.0
 40
2.0
 40
3.0
 40
3.0
 40
3.0
 40
4.0
 40
4.0
 40
4.0
 40
5.0
 40
5.0
 40
5.0
 40
6.0
 40
6.0
 40
6.0
 40
7.0
 40
7.0
 40
7.0
 40
8.0
 40
8.0
 40
8.0
 40
8.0
 10
73.18485241225935
 20
-125.2226752074096
 30
0.0
 10
73.39431421776254
 20
-125.3160372950599
 30
0.0
 10
73.41343449770567
 20
-125.4662434582168
 30
0.0
 10
73.41343449770567
 20
-125.5668402463861
 30
0.0
 10
73.41343449770567
 20
-125.7060221039902
 30
0.0
 10
73.3669257086548
 20
-125.8286675032651
 30
0.0
 10
73.18485241225935
 20
-125.9110052853625
 30
0.0
 10
72.99020451734273
 20
-126.000577767979
 30
0.0
 10
72.7533542027318
 20
-126.0171142263082
 30
0.0
 10
72.5904011862795
 20
-126.0171142263082
 30
0.0
 10
72.44656844977031
 20
-126.0171142263082
 30
0.0
 10
72.19490422457281
 20
-126.0023003157217
 30
0.0
 10
71.99594996029963
 20
-125.9110052853625
 30
0.0
 10
71.79286158144414
 20
-125.8176431977123
 30
0.0
 10
71.76960718691872
 20
-125.6784613401082
 30
0.0
 10
71.76960718691872
 20
-125.5668402463861
 30
0.0
 10
71.76960718691872
 20
-125.4297254460731
 30
0.0
 10
71.81404891867844
 20
-125.3050129895071
 30
0.0
 10
71.99594996029963
 20
-125.2226752074096
 30
0.0
 10
72.1885307979251
 20
-125.1368923298269
 30
0.0
 10
72.41694062859716
 20
-125.1165662664639
 30
0.0
 10
72.5904011862795
 20
-125.1165662664639
 30
0.0
 10
72.76179468667067
 20
-125.1165662664639
 30
0.0
 10
72.99244382940815
 20
-125.1348252725357
 30
0.0
 10
73.18485241225935
 20
-125.2226752074096
 30
0.0
  0
SPLINE
  5
A3
330
9C
100
AcDbEntity
  8
_U+30EC_U+30A4_U+30E4_U+30FC 1
370
     0
100
AcDbSpline
210
0.0
220
0.0
230
1.0
 70
    11
 71
     3
 72
    17
 73
    13
 74
     0
 42
0.0000000001
 43
0.0000000001
 12
1.0
 22
0.0
 32
0.0
 13
1.0
 23
0.0
 33
0.0
 40
0.0
 40
0.0
 40
0.0
 40
0.0
 40
1.0
 40
1.0
 40
1.0
 40
2.0
 40
2.0
 40
2.0
 40
3.0
 40
3.0
 40
3.0
 40
4.0
 40
4.0
 40
4.0
 40
4.0
 10
71.96218802454418
 20
-125.5668402463861
 30
0.0
 10
71.96218802454418
 20
-125.7828477333112
 30
0.0
 10
72.24571938298024
 20
-125.8231553504887
 30
0.0
 10
72.5904011862795
 20
-125.8231553504887
 30
0.0
 10
72.9099337925364
 20
-125.8231553504887
 30
0.0
 10
73.21878660278905
 20
-125.7921494911214
 30
0.0
 10
73.21878660278905
 20
-125.5668402463861
 30
0.0
 10
73.21878660278905
 20
-125.3528998167521
 30
0.0
 10
72.93732230164414
 20
-125.3105251422835
 30
0.0
 10
72.5904011862795
 20
-125.3105251422835
 30
0.0
 10
72.27104083479682
 20
-125.3105251422835
 30
0.0
 10
71.96218802454418
 20
-125.3435980589419
 30
0.0
 10
71.96218802454418
 20
-125.5668402463861
 30
0.0
  0
HATCH
  5
A4
330
9C
100
AcDbEntity
  8
_U+30EC_U+30A4_U+30E4_U+30FC 1
 62
   179
420
  2234388
100
AcDbHatch
 10
0.0
 20
0.0
 30
0.0
210
0.0
220
0.0
230
1.0
  2
SOLID
 70
     1
 71
     0
 91
        2
 92
        1
 93
        1
 72
     4
 94
        3
 73
     0
 74
     1
 95
       29
 96
       25
 40
0.0
 40
0.0
 40
0.0
 40
0.0
 40
1.0
 40
1.0
 40
1.0
 40
2.0
 40
2.0
 40
2.0
 40
3.0
 40
3.0
 40
3.0
 40
4.0
 40
4.0
 40
4.0
 40
5.0
 40
5.0
 40
5.0
 40
6.0
 40
6.0
 40
6.0
 40
7.0
 40
7.0
 40
7.0
 40
8.0
 40
8.0
 40
8.0
 40
8.0
 10
73.18485241225935
 20
-125.2226752074096
 10
73.39431421776254
 20
-125.3160372950599
 10
73.41343449770567
 20
-125.4662434582168
 10
73.41343449770567
 20
-125.5668402463861
 10
73.41343449770567
 20
-125.7060221039902
 10
73.3669257086548
 20
-125.8286675032651
 10
73.18485241225935
 20
-125.9110052853625
 10
72.99020451734273
 20
-126.000577767979
 10
72.7533542027318
 20
-126.0171142263082
 10
72.5904011862795
 20
-126.0171142263082
 10
72.44656844977031
 20
-126.0171142263082
 10
72.19490422457281
 20
-126.0023003157217
 10
71.99594996029963
 20
-125.9110052853625
 10
71.79286158144414
 20
-125.8176431977123
 10
71.76960718691872
 20
-125.6784613401082
 10
71.76960718691872
 20
-125.5668402463861
 10
71.76960718691872
 20
-125.4297254460731
 10
71.81404891867844
 20
-125.3050129895071
 10
71.99594996029963
 20
-125.2226752074096
 10
72.1885307979251
 20
-125.1368923298269
 10
72.41694062859716
 20
-125.1165662664639
 10
72.5904011862795
 20
-125.1165662664639
 10
72.76179468667067
 20
-125.1165662664639
 10
72.99244382940815
 20
-125.1348252725357
 10
73.18485241225935
 20
-125.2226752074096
 97
        0
 97
        0
 92
        1
 93
        1
 72
     4
 94
        3
 73
     0
 74
     1
 95
       17
 96
       13
 40
0.0
 40
0.0
 40
0.0
 40
0.0
 40
1.0
 40
1.0
 40
1.0
 40
2.0
 40
2.0
 40
2.0
 40
3.0
 40
3.0
 40
3.0
 40
4.0
 40
4.0
 40
4.0
 40
4.0
 10
71.96218802454418
 20
-125.5668402463861
 10
71.96218802454418
 20
-125.7828477333112
 10
72.24571938298024
 20
-125.8231553504887
 10
72.5904011862795
 20
-125.8231553504887
 10
72.9099337925364
 20
-125.8231553504887
 10
73.21878660278905
 20
-125.7921494911214
 10
73.21878660278905
 20
-125.5668402463861
 10
73.21878660278905
 20
-125.3528998167521
 10
72.93732230164414
 20
-125.3105251422835
 10
72.5904011862795
 20
-125.3105251422835
 10
72.27104083479682
 20
-125.3105251422835
 10
71.96218802454418
 20
-125.3435980589419
 10
71.96218802454418
 20
-125.5668402463861
 97
        0
 97
        0
 75
     2
 76
     1
 98
        0
  0
ENDBLK
  5
9F
330
9C
100
AcDbEntity
  8
0
100
AcDbBlockEnd
  0
ENDSEC
  0
SECTION
  2
ENTITIES
  0
SPLINE
  5
41
330
1F
100
AcDbEntity
  8
_U+30EC_U+30A4_U+30E4_U+30FC 1
 62
    43
420
 13286281
370
     9
100
AcDbSpline
210
0.0
220
0.0
230
1.0
 70
    11
 71
     3
 72
    41
 73
    37
 74
     0
 42
0.0000000001
 43
0.0000000001
 12
1.0
 22
0.0
 32
0.0
 13
1.0
 23
0.0
 33
0.0
 40
0.0
 40
0.0
 40
0.0
 40
0.0
 40
1.0
 40
1.0
 40
1.0
 40
2.0
 40
2.0
 40
2.0
 40
3.0
 40
3.0
 40
3.0
 40
4.0
 40
4.0
 40
4.0
 40
5.0
 40
5.0
 40
5.0
 40
6.0
 40
6.0
 40
6.0
 40
7.0
 40
7.0
 40
7.0
 40
8.0
 40
8.0
 40
8.0
 40
9.0
 40
9.0
 40
9.0
 40
10.0
 40
10.0
 40
10.0
 40
11.0
 40
11.0
 40
11.0
 40
12.0
 40
12.0
 40
12.0
 40
12.0
 10
106.6387928349733
 20
-139.2080513540868
 30
0.0
 10
106.6387928349733
 20
-139.2080513540868
 30
0.0
 10
78.63878604931298
 20
-139.2080513540868
 30
0.0
 10
78.63878604931298
 20
-139.2080513540868
 30
0.0
 10
78.43622105448084
 20
-139.2080513540868
 30
0.0
 10
78.27119161424665
 20
-139.0426691319057
 30
0.0
 10
78.27119161424665
 20
-138.8401041319567
 30
0.0
 10
78.27119161424665
 20
-138.8401041319567
 30
0.0
 10
78.27119161424665
 20
-110.8400966389566
 30
0.0
 10
78.27119161424665
 20
-110.8400966389566
 30
0.0
 10
78.27119161424665
 20
-110.7670716389748
 30
0.0
 10
78.21192494909201
 20
-110.707804972323
 30
0.0
 10
78.13889995095502
 20
-110.707804972323
 30
0.0
 10
78.13889995095502
 20
-110.707804972323
 30
0.0
 10
76.63888887811238
 20
-110.707804972323
 30
0.0
 10
76.63888887811238
 20
-110.707804972323
 30
0.0
 10
76.56586387997541
 20
-110.707804972323
 30
0.0
 10
76.50659721482076
 20
-110.7670716389748
 30
0.0
 10
76.50659721482076
 20
-110.8400966389566
 30
0.0
 10
76.50659721482076
 20
-110.8400966389566
 30
0.0
 10
76.50659721482076
 20
-139.8398763539292
 30
0.0
 10
76.50659721482076
 20
-139.8398763539292
 30
0.0
 10
76.50659721482076
 20
-140.4641166315504
 30
0.0
 10
77.014773590745
 20
-140.9726105203127
 30
0.0
 10
77.63901385259707
 20
-140.9726105203127
 30
0.0
 10
77.63901385259707
 20
-140.9726105203127
 30
0.0
 10
106.6387928349733
 20
-140.9726105203127
 30
0.0
 10
106.6387928349733
 20
-140.9726105203127
 30
0.0
 10
106.7118178331103
 20
-140.9726105203127
 30
0.0
 10
106.7710844982649
 20
-140.9133791314385
 30
0.0
 10
106.7710844982649
 20
-140.8403188536791
 30
0.0
 10
106.7710844982649
 20
-140.8403188536791
 30
0.0
 10
106.7710844982649
 20
-139.3403430207204
 30
0.0
 10
106.7710844982649
 20
-139.3403430207204
 30
0.0
 10
106.7710844982649
 20
-139.267282742961
 30
0.0
 10
106.7118178331103
 20
-139.2080513540868
 30
0.0
 10
106.6387928349733
 20
-139.2080513540868
 30
0.0
  0
HATCH
  5
42
330
1F
100
AcDbEntity
  8
_U+30EC_U+30A4_U+30E4_U+30FC 1
 62
    43
420
 13286281
100
AcDbHatch
 10
0.0
 20
0.0
 30
0.0
210
0.0
220
0.0
230
1.0
  2
SOLID
 70
     1
 71
     0
 91
        1
 92
        1
 93
        1
 72
     4
 94
        3
 73
     0
 74
     1
 95
       41
 96
       37
 40
0.0
 40
0.0
 40
0.0
 40
0.0
 40
1.0
 40
1.0
 40
1.0
 40
2.0
 40
2.0
 40
2.0
 40
3.0
 40
3.0
 40
3.0
 40
4.0
 40
4.0
 40
4.0
 40
5.0
 40
5.0
 40
5.0
 40
6.0
 40
6.0
 40
6.0
 40
7.0
 40
7.0
 40
7.0
 40
8.0
 40
8.0
 40
8.0
 40
9.0
 40
9.0
 40
9.0
 40
10.0
 40
10.0
 40
10.0
 40
11.0
 40
11.0
 40
11.0
 40
12.0
 40
12.0
 40
12.0
 40
12.0
 10
106.6387928349733
 20
-139.2080513540868
 10
106.6387928349733
 20
-139.2080513540868
 10
78.63878604931298
 20
-139.2080513540868
 10
78.63878604931298
 20
-139.2080513540868
 10
78.43622105448084
 20
-139.2080513540868
 10
78.27119161424665
 20
-139.0426691319057
 10
78.27119161424665
 20
-138.8401041319567
 10
78.27119161424665
 20
-138.8401041319567
 10
78.27119161424665
 20
-110.8400966389566
 10
78.27119161424665
 20
-110.8400966389566
 10
78.27119161424665
 20
-110.7670716389748
 10
78.21192494909201
 20
-110.707804972323
 10
78.13889995095502
 20
-110.707804972323
 10
78.13889995095502
 20
-110.707804972323
 10
76.63888887811238
 20
-110.707804972323
 10
76.63888887811238
 20
-110.707804972323
 10
76.56586387997541
 20
-110.707804972323
 10
76.50659721482076
 20
-110.7670716389748
 10
76.50659721482076
 20
-110.8400966389566
 10
76.50659721482076
 20
-110.8400966389566
 10
76.50659721482076
 20
-139.8398763539292
 10
76.50659721482076
 20
-139.8398763539292
 10
76.50659721482076
 20
-140.4641166315504
 10
77.014773590745
 20
-140.9726105203127
 10
77.63901385259707
 20
-140.9726105203127
 10
77.63901385259707
 20
-140.9726105203127
 10
106.6387928349733
 20
-140.9726105203127
 10
106.6387928349733
 20
-140.9726105203127
 10
106.7118178331103
 20
-140.9726105203127
 10
106.7710844982649
 20
-140.9133791314385
 10
106.7710844982649
 20
-140.8403188536791
 10
106.7710844982649
 20
-140.8403188536791
 10
106.7710844982649
 20
-139.3403430207204
 10
106.7710844982649
 20
-139.3403430207204
 10
106.7710844982649
 20
-139.267282742961
 10
106.7118178331103
 20
-139.2080513540868
 10
106.6387928349733
 20
-139.2080513540868
 97
        0
 97
        0
 75
     2
 76
     1
 98
        0
  0
POLYLINE
  5
43
330
1F
100
AcDbEntity
  8
_U+30EC_U+30A4_U+30E4_U+30FC 1
 62
   179
420
  2234388
370
    25
100
AcDb2dPolyline
 66
     1
 10
0.0
 20
0.0
 30
0.0
  0
VERTEX
  5
44
330
43
100
AcDbEntity
  8
_U+30EC_U+30A4_U+30E4_U+30FC 1
 62
   179
420
  2234388
370
    25
100
AcDbVertex
100
AcDb2dVertex
 10
106.6387928349733
 20
-139.3403430207204
 30
0.0
  0
VERTEX
  5
45
330
43
100
AcDbEntity
  8
_U+30EC_U+30A4_U+30E4_U+30FC 1
 62
   179
420
  2234388
370
    25
100
AcDbVertex
100
AcDb2dVertex
 10
106.6387928349733
 20
-140.8403188536791
 30
0.0
  0
SEQEND
  5
46
330
43
100
AcDbEntity
  8
_U+30EC_U+30A4_U+30E4_U+30FC 1
 62
   179
420
  2234388
370
    25
  0
POLYLINE
  5
47
330
1F
100
AcDbEntity
  8
_U+30EC_U+30A4_U+30E4_U+30FC 1
 62
   179
420
  2234388
370
    25
100
AcDb2dPolyline
 66
     1
 10
0.0
 20
0.0
 30
0.0
  0
VERTEX
  5
48
330
47
100
AcDbEntity
  8
_U+30EC_U+30A4_U+30E4_U+30FC 1
 62
   179
420
  2234388
370
    25
100
AcDbVertex
100
AcDb2dVertex
 10
76.63888887811238
 20
-110.8400966389566
 30
0.0
  0
VERTEX
  5
49
330
47
100
AcDbEntity
  8
_U+30EC_U+30A4_U+30E4_U+30FC 1
 62
   179
420
  2234388
370
    25
100
AcDbVertex
100
AcDb2dVertex
 10
76.63888887811238
 20
-140.8403188536791
 30
0.0
  0
VERTEX
  5
4A
330
47
100
AcDbEntity
  8
_U+30EC_U+30A4_U+30E4_U+30FC 1
 62
   179
420
  2234388
370
    25
100
AcDbVertex
100
AcDb2dVertex
 10
106.6387928349733
 20
-140.8403188536791
 30
0.0
  0
SEQEND
  5
4B
330
47
100
AcDbEntity
  8
_U+30EC_U+30A4_U+30E4_U+30FC 1
 62
   179
420
  2234388
370
    25
  0
POLYLINE
  5
4C
330
1F
100
AcDbEntity
  8
_U+30EC_U+30A4_U+30E4_U+30FC 1
 62
   179
420
  2234388
370
    25
100
AcDb2dPolyline
 66
     1
 10
0.0
 20
0.0
 30
0.0
  0
VERTEX
  5
4D
330
4C
100
AcDbEntity
  8
_U+30EC_U+30A4_U+30E4_U+30FC 1
 62
   179
420
  2234388
370
    25
100
AcDbVertex
100
AcDb2dVertex
 10
76.63888887811238
 20
-110.8400966389566
 30
0.0
  0
VERTEX
  5
4E
330
4C
100
AcDbEntity
  8
_U+30EC_U+30A4_U+30E4_U+30FC 1
 62
   179
420
  2234388
370
    25
100
AcDbVertex
100
AcDb2dVertex
 10
78.13889995095502
 20
-110.8400966389566
 30
0.0
  0
SEQEND
  5
4F
330
4C
100
AcDbEntity
  8
_U+30EC_U+30A4_U+30E4_U+30FC 1
 62
   179
420
  2234388
370
    25
  0
POLYLINE
  5
50
330
1F
100
AcDbEntity
  8
_U+30EC_U+30A4_U+30E4_U+30FC 1
 62
   179
420
  2234388
370
    25
100
AcDb2dPolyline
 66
     1
 10
0.0
 20
0.0
 30
0.0
  0
VERTEX
  5
51
330
50
100
AcDbEntity
  8
_U+30EC_U+30A4_U+30E4_U+30FC 1
 62
   179
420
  2234388
370
    25
100
AcDbVertex
100
AcDb2dVertex
 10
78.13889995095502
 20
-110.8400966389566
 30
0.0
  0
VERTEX
  5
52
330
50
100
AcDbEntity
  8
_U+30EC_U+30A4_U+30E4_U+30FC 1
 62
   179
420
  2234388
370
    25
100
AcDbVertex
100
AcDb2dVertex
 10
78.13889995095502
 20
-139.3403430207204
 30
0.0
  0
VERTEX
  5
53
330
50
100
AcDbEntity
  8
_U+30EC_U+30A4_U+30E4_U+30FC 1
 62
   179
420
  2234388
370
    25
100
AcDbVertex
100
AcDb2dVertex
 10
106.6387928349733
 20
-139.3403430207204
 30
0.0
  0
SEQEND
  5
54
330
50
100
AcDbEntity
  8
_U+30EC_U+30A4_U+30E4_U+30FC 1
 62
   179
420
  2234388
370
    25
  0
SPLINE
  5
55
330
1F
100
AcDbEntity
  8
_U+30EC_U+30A4_U+30E4_U+30FC 1
 62
   179
420
  2234388
370
     9
100
AcDbSpline
210
0.0
220
0.0
230
1.0
 70
    11
 71
     3
 72
    17
 73
    13
 74
     0
 42
0.0000000001
 43
0.0000000001
 12
1.0
 22
0.0
 32
0.0
 13
1.0
 23
0.0
 33
0.0
 40
0.0
 40
0.0
 40
0.0
 40
0.0
 40
1.0
 40
1.0
 40
1.0
 40
2.0
 40
2.0
 40
2.0
 40
3.0
 40
3.0
 40
3.0
 40
4.0
 40
4.0
 40
4.0
 40
4.0
 10
109.3277002663736
 20
-140.8403188536791
 30
0.0
 10
109.3277002663736
 20
-140.7852149648035
 30
0.0
 10
109.2828974897388
 20
-140.7404121870368
 30
0.0
 10
109.2277936022557
 20
-140.7404121870368
 30
0.0
 10
109.1726544369958
 20
-140.7404121870368
 30
0.0
 10
109.1278869381379
 20
-140.7852149648035
 30
0.0
 10
109.1278869381379
 20
-140.8403188536791
 30
0.0
 10
109.1278869381379
 20
-140.8954580203315
 30
0.0
 10
109.1726544369958
 20
-140.9402255203207
 30
0.0
 10
109.2277936022557
 20
-140.9402255203207
 30
0.0
 10
109.2828974897388
 20
-140.9402255203207
 30
0.0
 10
109.3277002663736
 20
-140.8954580203315
 30
0.0
 10
109.3277002663736
 20
-140.8403188536791
 30
0.0
  0
SPLINE
  5
56
330
1F
100
AcDbEntity
  8
_U+30EC_U+30A4_U+30E4_U+30FC 1
 62
   179
420
  2234388
370
     9
100
AcDbSpline
210
0.0
220
0.0
230
1.0
 70
    11
 71
     3
 72
    17
 73
    13
 74
     0
 42
0.0000000001
 43
0.0000000001
 12
1.0
 22
0.0
 32
0.0
 13
1.0
 23
0.0
 33
0.0
 40
0.0
 40
0.0
 40
0.0
 40
0.0
 40
1.0
 40
1.0
 40
1.0
 40
2.0
 40
2.0
 40
2.0
 40
3.0
 40
3.0
 40
3.0
 40
4.0
 40
4.0
 40
4.0
 40
4.0
 10
106.7386994990911
 20
-144.8400780193453
 30
0.0
 10
106.7386994990911
 20
-144.7849741304704
 30
0.0
 10
106.6939320002332
 20
-144.7401713527037
 30
0.0
 10
106.6387928349733
 20
-144.7401713527037
 30
0.0
 10
106.5836916400209
 20
-144.7401713527037
 30
0.0
 10
106.5388888622542
 20
-144.7849741304704
 30
0.0
 10
106.5388888622542
 20
-144.8400780193453
 30
0.0
 10
106.5388888622542
 20
-144.8958874637758
 30
0.0
 10
106.5836916400209
 20
-144.939984685987
 30
0.0
 10
106.6387928349733
 20
-144.939984685987
 30
0.0
 10
106.6939320002332
 20
-144.939984685987
 30
0.0
 10
106.7386994990911
 20
-144.8958874637758
 30
0.0
 10
106.7386994990911
 20
-144.8400780193453
 30
0.0
  0
SPLINE
  5
57
330
1F
100
AcDbEntity
  8
_U+30EC_U+30A4_U+30E4_U+30FC 1
 62
   179
420
  2234388
370
     9
100
AcDbSpline
210
0.0
220
0.0
230
1.0
 70
    11
 71
     3
 72
    17
 73
    13
 74
     0
 42
0.0000000001
 43
0.0000000001
 12
1.0
 22
0.0
 32
0.0
 13
1.0
 23
0.0
 33
0.0
 40
0.0
 40
0.0
 40
0.0
 40
0.0
 40
1.0
 40
1.0
 40
1.0
 40
2.0
 40
2.0
 40
2.0
 40
3.0
 40
3.0
 40
3.0
 40
4.0
 40
4.0
 40
4.0
 40
4.0
 10
109.3277002663736
 20
-139.3403430207204
 30
0.0
 10
109.3277002663736
 20
-139.2852038540673
 30
0.0
 10
109.2828974897388
 20
-139.2404363540787
 30
0.0
 10
109.2277936022557
 20
-139.2404363540787
 30
0.0
 10
109.1726544369958
 20
-139.2404363540787
 30
0.0
 10
109.1278869381379
 20
-139.2852038540673
 30
0.0
 10
109.1278869381379
 20
-139.3403430207204
 30
0.0
 10
109.1278869381379
 20
-139.3954469095953
 30
0.0
 10
109.1726544369958
 20
-139.440249687362
 30
0.0
 10
109.2277936022557
 20
-139.440249687362
 30
0.0
 10
109.2828974897388
 20
-139.440249687362
 30
0.0
 10
109.3277002663736
 20
-139.3954469095953
 30
0.0
 10
109.3277002663736
 20
-139.3403430207204
 30
0.0
  0
SPLINE
  5
58
330
1F
100
AcDbEntity
  8
_U+30EC_U+30A4_U+30E4_U+30FC 1
 62
   179
420
  2234388
370
     9
100
AcDbSpline
210
0.0
220
0.0
230
1.0
 70
    11
 71
     3
 72
    17
 73
    13
 74
     0
 42
0.0000000001
 43
0.0000000001
 12
1.0
 22
0.0
 32
0.0
 13
1.0
 23
0.0
 33
0.0
 40
0.0
 40
0.0
 40
0.0
 40
0.0
 40
1.0
 40
1.0
 40
1.0
 40
2.0
 40
2.0
 40
2.0
 40
3.0
 40
3.0
 40
3.0
 40
4.0
 40
4.0
 40
4.0
 40
4.0
 10
73.96377505747134
 20
-110.8400966389566
 30
0.0
 10
73.96377505747134
 20
-110.7849574723039
 30
0.0
 10
73.91900755861346
 20
-110.740189972315
 30
0.0
 10
73.8638683933535
 20
-110.740189972315
 30
0.0
 10
73.80876450587043
 20
-110.740189972315
 30
0.0
 10
73.76396172923566
 20
-110.7849574723039
 30
0.0
 10
73.76396172923566
 20
-110.8400966389566
 30
0.0
 10
73.76396172923566
 20
-110.8959060833871
 30
0.0
 10
73.80876450587043
 20
-110.9405324722649
 30
0.0
 10
73.8638683933535
 20
-110.9405324722649
 30
0.0
 10
73.91900755861346
 20
-110.9405324722649
 30
0.0
 10
73.96377505747134
 20
-110.8959060833871
 30
0.0
 10
73.96377505747134
 20
-110.8400966389566
 30
0.0
  0
SPLINE
  5
59
330
1F
100
AcDbEntity
  8
_U+30EC_U+30A4_U+30E4_U+30FC 1
 62
   179
420
  2234388
370
     9
100
AcDbSpline
210
0.0
220
0.0
230
1.0
 70
    11
 71
     3
 72
    17
 73
    13
 74
     0
 42
0.0000000001
 43
0.0000000001
 12
1.0
 22
0.0
 32
0.0
 13
1.0
 23
0.0
 33
0.0
 40
0.0
 40
0.0
 40
0.0
 40
0.0
 40
1.0
 40
1.0
 40
1.0
 40
2.0
 40
2.0
 40
2.0
 40
3.0
 40
3.0
 40
3.0
 40
4.0
 40
4.0
 40
4.0
 40
4.0
 10
73.96377505747134
 20
-140.8403188536791
 30
0.0
 10
73.96377505747134
 20
-140.7852149648035
 30
0.0
 10
73.91900755861346
 20
-140.7404121870368
 30
0.0
 10
73.8638683933535
 20
-140.7404121870368
 30
0.0
 10
73.80876450587043
 20
-140.7404121870368
 30
0.0
 10
73.76396172923566
 20
-140.7852149648035
 30
0.0
 10
73.76396172923566
 20
-140.8403188536791
 30
0.0
 10
73.76396172923566
 20
-140.8954580203315
 30
0.0
 10
73.80876450587043
 20
-140.9402255203207
 30
0.0
 10
73.8638683933535
 20
-140.9402255203207
 30
0.0
 10
73.91900755861346
 20
-140.9402255203207
 30
0.0
 10
73.96377505747134
 20
-140.8954580203315
 30
0.0
 10
73.96377505747134
 20
-140.8403188536791
 30
0.0
  0
SPLINE
  5
5A
330
1F
100
AcDbEntity
  8
_U+30EC_U+30A4_U+30E4_U+30FC 1
 62
   179
420
  2234388
370
     9
100
AcDbSpline
210
0.0
220
0.0
230
1.0
 70
    11
 71
     3
 72
    17
 73
    13
 74
     0
 42
0.0000000001
 43
0.0000000001
 12
1.0
 22
0.0
 32
0.0
 13
1.0
 23
0.0
 33
0.0
 40
0.0
 40
0.0
 40
0.0
 40
0.0
 40
1.0
 40
1.0
 40
1.0
 40
2.0
 40
2.0
 40
2.0
 40
3.0
 40
3.0
 40
3.0
 40
4.0
 40
4.0
 40
4.0
 40
4.0
 10
76.73879554223022
 20
-144.8400780193453
 30
0.0
 10
76.73879554223022
 20
-144.7849741304704
 30
0.0
 10
76.69402804337234
 20
-144.7401713527037
 30
0.0
 10
76.63888887811238
 20
-144.7401713527037
 30
0.0
 10
76.58343221286054
 20
-144.7401713527037
 30
0.0
 10
76.53866664753201
 20
-144.7849741304704
 30
0.0
 10
76.53866664753201
 20
-144.8400780193453
 30
0.0
 10
76.53866664753201
 20
-144.8958874637758
 30
0.0
 10
76.58343221286054
 20
-144.939984685987
 30
0.0
 10
76.63888887811238
 20
-144.939984685987
 30
0.0
 10
76.69402804337234
 20
-144.939984685987
 30
0.0
 10
76.73879554223022
 20
-144.8958874637758
 30
0.0
 10
76.73879554223022
 20
-144.8400780193453
 30
0.0
  0
POLYLINE
  5
5B
330
1F
100
AcDbEntity
  8
_U+30EC_U+30A4_U+30E4_U+30FC 1
 62
   179
420
  2234388
370
     9
100
AcDb2dPolyline
 66
     1
 10
0.0
 20
0.0
 30
0.0
  0
VERTEX
  5
5C
330
5B
100
AcDbEntity
  8
_U+30EC_U+30A4_U+30E4_U+30FC 1
 62
   179
420
  2234388
370
     9
100
AcDbVertex
100
AcDb2dVertex
 10
109.2277936022557
 20
-139.3403430207204
 30
0.0
  0
VERTEX
  5
5D
330
5B
100
AcDbEntity
  8
_U+30EC_U+30A4_U+30E4_U+30FC 1
 62
   179
420
  2234388
370
     9
100
AcDbVertex
100
AcDb2dVertex
 10
109.2277936022557
 20
-133.6738499665814
 30
0.0
  0
SEQEND
  5
5E
330
5B
100
AcDbEntity
  8
_U+30EC_U+30A4_U+30E4_U+30FC 1
 62
   179
420
  2234388
370
     9
  0
POLYLINE
  5
5F
330
1F
100
AcDbEntity
  8
_U+30EC_U+30A4_U+30E4_U+30FC 1
 62
   179
420
  2234388
370
     9
100
AcDb2dPolyline
 66
     1
 10
0.0
 20
0.0
 30
0.0
  0
VERTEX
  5
60
330
5F
100
AcDbEntity
  8
_U+30EC_U+30A4_U+30E4_U+30FC 1
 62
   179
420
  2234388
370
     9
100
AcDbVertex
100
AcDb2dVertex
 10
109.2277936022557
 20
-139.3403430207204
 30
0.0
  0
VERTEX
  5
61
330
5F
100
AcDbEntity
  8
_U+30EC_U+30A4_U+30E4_U+30FC 1
 62
   179
420
  2234388
370
     9
100
AcDbVertex
100
AcDb2dVertex
 10
109.2277936022557
 20
-141.840091075651
 30
0.0
  0
SEQEND
  5
62
330
5F
100
AcDbEntity
  8
_U+30EC_U+30A4_U+30E4_U+30FC 1
 62
   179
420
  2234388
370
     9
  0
POLYLINE
  5
63
330
1F
100
AcDbEntity
  8
_U+30EC_U+30A4_U+30E4_U+30FC 1
 62
   179
420
  2234388
370
     9
100
AcDb2dPolyline
 66
     1
 10
0.0
 20
0.0
 30
0.0
  0
VERTEX
  5
64
330
63
100
AcDbEntity
  8
_U+30EC_U+30A4_U+30E4_U+30FC 1
 62
   179
420
  2234388
370
     9
100
AcDbVertex
100
AcDb2dVertex
 10
107.7677522506156
 20
-139.3403430207204
 30
0.0
  0
VERTEX
  5
65
330
63
100
AcDbEntity
  8
_U+30EC_U+30A4_U+30E4_U+30FC 1
 62
   179
420
  2234388
370
     9
100
AcDbVertex
100
AcDb2dVertex
 10
110.2278860835543
 20
-139.3403430207204
 30
0.0
  0
SEQEND
  5
66
330
63
100
AcDbEntity
  8
_U+30EC_U+30A4_U+30E4_U+30FC 1
 62
   179
420
  2234388
370
     9
  0
POLYLINE
  5
67
330
1F
100
AcDbEntity
  8
_U+30EC_U+30A4_U+30E4_U+30FC 1
 62
   179
420
  2234388
370
     9
100
AcDb2dPolyline
 66
     1
 10
0.0
 20
0.0
 30
0.0
  0
VERTEX
  5
68
330
67
100
AcDbEntity
  8
_U+30EC_U+30A4_U+30E4_U+30FC 1
 62
   179
420
  2234388
370
     9
100
AcDbVertex
100
AcDb2dVertex
 10
107.7677522506156
 20
-140.8403188536791
 30
0.0
  0
VERTEX
  5
69
330
67
100
AcDbEntity
  8
_U+30EC_U+30A4_U+30E4_U+30FC 1
 62
   179
420
  2234388
370
     9
100
AcDbVertex
100
AcDb2dVertex
 10
110.2278860835543
 20
-140.8403188536791
 30
0.0
  0
SEQEND
  5
6A
330
67
100
AcDbEntity
  8
_U+30EC_U+30A4_U+30E4_U+30FC 1
 62
   179
420
  2234388
370
     9
  0
INSERT
  5
6C
330
1F
100
AcDbEntity
  8
_U+30EC_U+30A4_U+30E4_U+30FC 1
100
AcDbBlockReference
  2
block 2
 10
0.0
 20
0.0
 30
0.0
  0
POLYLINE
  5
7B
330
1F
100
AcDbEntity
  8
_U+30EC_U+30A4_U+30E4_U+30FC 1
 62
   179
420
  2234388
370
     9
100
AcDb2dPolyline
 66
     1
 10
0.0
 20
0.0
 30
0.0
  0
VERTEX
  5
7C
330
7B
100
AcDbEntity
  8
_U+30EC_U+30A4_U+30E4_U+30FC 1
 62
   179
420
  2234388
370
     9
100
AcDbVertex
100
AcDb2dVertex
 10
76.63888887811238
 20
-144.8400780193453
 30
0.0
  0
VERTEX
  5
7D
330
7B
100
AcDbEntity
  8
_U+30EC_U+30A4_U+30E4_U+30FC 1
 62
   179
420
  2234388
370
     9
100
AcDbVertex
100
AcDb2dVertex
 10
106.6387928349733
 20
-144.8400780193453
 30
0.0
  0
SEQEND
  5
7E
330
7B
100
AcDbEntity
  8
_U+30EC_U+30A4_U+30E4_U+30FC 1
 62
   179
420
  2234388
370
     9
  0
POLYLINE
  5
7F
330
1F
100
AcDbEntity
  8
_U+30EC_U+30A4_U+30E4_U+30FC 1
 62
   179
420
  2234388
370
     9
100
AcDb2dPolyline
 66
     1
 10
0.0
 20
0.0
 30
0.0
  0
VERTEX
  5
80
330
7F
100
AcDbEntity
  8
_U+30EC_U+30A4_U+30E4_U+30FC 1
 62
   179
420
  2234388
370
     9
100
AcDbVertex
100
AcDb2dVertex
 10
76.63888887811238
 20
-143.3800366308216
 30
0.0
  0
VERTEX
  5
81
330
7F
100
AcDbEntity
  8
_U+30EC_U+30A4_U+30E4_U+30FC 1
 62
   179
420
  2234388
370
     9
100
AcDbVertex
100
AcDb2dVertex
 10
76.63888887811238
 20
-145.8405557968734
 30
0.0
  0
SEQEND
  5
82
330
7F
100
AcDbEntity
  8
_U+30EC_U+30A4_U+30E4_U+30FC 1
 62
   179
420
  2234388
370
     9
  0
POLYLINE
  5
83
330
1F
100
AcDbEntity
  8
_U+30EC_U+30A4_U+30E4_U+30FC 1
 62
   179
420
  2234388
370
     9
100
AcDb2dPolyline
 66
     1
 10
0.0
 20
0.0
 30
0.0
  0
VERTEX
  5
84
330
83
100
AcDbEntity
  8
_U+30EC_U+30A4_U+30E4_U+30FC 1
 62
   179
420
  2234388
370
     9
100
AcDbVertex
100
AcDb2dVertex
 10
106.6387928349733
 20
-143.3800366308216
 30
0.0
  0
VERTEX
  5
85
330
83
100
AcDbEntity
  8
_U+30EC_U+30A4_U+30E4_U+30FC 1
 62
   179
420
  2234388
370
     9
100
AcDbVertex
100
AcDb2dVertex
 10
106.6387928349733
 20
-145.8405557968734
 30
0.0
  0
SEQEND
  5
86
330
83
100
AcDbEntity
  8
_U+30EC_U+30A4_U+30E4_U+30FC 1
 62
   179
420
  2234388
370
     9
  0
INSERT
  5
88
330
1F
100
AcDbEntity
  8
_U+30EC_U+30A4_U+30E4_U+30FC 1
100
AcDbBlockReference
  2
block 3
 10
0.0
 20
0.0
 30
0.0
  0
POLYLINE
  5
90
330
1F
100
AcDbEntity
  8
_U+30EC_U+30A4_U+30E4_U+30FC 1
 62
   179
420
  2234388
370
     9
100
AcDb2dPolyline
 66
     1
 10
0.0
 20
0.0
 30
0.0
  0
VERTEX
  5
91
330
90
100
AcDbEntity
  8
_U+30EC_U+30A4_U+30E4_U+30FC 1
 62
   179
420
  2234388
370
     9
100
AcDbVertex
100
AcDb2dVertex
 10
73.8638683933535
 20
-110.8400966389566
 30
0.0
  0
VERTEX
  5
92
330
90
100
AcDbEntity
  8
_U+30EC_U+30A4_U+30E4_U+30FC 1
 62
   179
420
  2234388
370
     9
100
AcDbVertex
100
AcDb2dVertex
 10
73.8638683933535
 20
-140.8403188536791
 30
0.0
  0
SEQEND
  5
93
330
90
100
AcDbEntity
  8
_U+30EC_U+30A4_U+30E4_U+30FC 1
 62
   179
420
  2234388
370
     9
  0
POLYLINE
  5
94
330
1F
100
AcDbEntity
  8
_U+30EC_U+30A4_U+30E4_U+30FC 1
 62
   179
420
  2234388
370
     9
100
AcDb2dPolyline
 66
     1
 10
0.0
 20
0.0
 30
0.0
  0
VERTEX
  5
95
330
94
100
AcDbEntity
  8
_U+30EC_U+30A4_U+30E4_U+30FC 1
 62
   179
420
  2234388
370
     9
100
AcDbVertex
100
AcDb2dVertex
 10
75.32390974499363
 20
-110.8400966389566
 30
0.0
  0
VERTEX
  5
96
330
94
100
AcDbEntity
  8
_U+30EC_U+30A4_U+30E4_U+30FC 1
 62
   179
420
  2234388
370
     9
100
AcDbVertex
100
AcDb2dVertex
 10
72.86409619663759
 20
-110.8400966389566
 30
0.0
  0
SEQEND
  5
97
330
94
100
AcDbEntity
  8
_U+30EC_U+30A4_U+30E4_U+30FC 1
 62
   179
420
  2234388
370
     9
  0
POLYLINE
  5
98
330
1F
100
AcDbEntity
  8
_U+30EC_U+30A4_U+30E4_U+30FC 1
 62
   179
420
  2234388
370
     9
100
AcDb2dPolyline
 66
     1
 10
0.0
 20
0.0
 30
0.0
  0
VERTEX
  5
99
330
98
100
AcDbEntity
  8
_U+30EC_U+30A4_U+30E4_U+30FC 1
 62
   179
420
  2234388
370
     9
100
AcDbVertex
100
AcDb2dVertex
 10
75.32390974499363
 20
-140.8403188536791
 30
0.0
  0
VERTEX
  5
9A
330
98
100
AcDbEntity
  8
_U+30EC_U+30A4_U+30E4_U+30FC 1
 62
   179
420
  2234388
370
     9
100
AcDbVertex
100
AcDb2dVertex
 10
72.86409619663759
 20
-140.8403188536791
 30
0.0
  0
SEQEND
  5
9B
330
98
100
AcDbEntity
  8
_U+30EC_U+30A4_U+30E4_U+30FC 1
 62
   179
420
  2234388
370
     9
  0
INSERT
  5
9D
330
1F
100
AcDbEntity
  8
_U+30EC_U+30A4_U+30E4_U+30FC 1
100
AcDbBlockReference
  2
block 4
 10
0.0
 20
0.0
 30
0.0
  0
ENDSEC
  0
SECTION
  2
OBJECTS
  0
DICTIONARY
  5
C
330
0
100
AcDbDictionary
281
     1
  3
ACAD_GROUP
350
D
  3
ACAD_LAYOUT
350
1A
  3
ACAD_MATERIAL
350
3B
  3
ACAD_MLEADERSTYLE
350
A6
  3
ACAD_MLINESTYLE
350
17
  3
ACAD_PLOTSETTINGS
350
19
  3
ACAD_PLOTSTYLENAME
350
E
  3
ACAD_TABLESTYLE
350
A5
  3
ACAD_VISUALSTYLE
350
2A
  0
SUN
  5
3F
330
29
100
AcDbSun
 90
        1
290
     0
 63
     7
421
 16777215
 40
1.0
291
     1
 91
  2455826
 92
 54000000
292
     0
 70
     2
 71
   256
280
     1
  0
DICTIONARY
  5
D
102
{ACAD_REACTORS
330
C
102
}
330
C
100
AcDbDictionary
281
     1
  0
DICTIONARY
  5
1A
102
{ACAD_REACTORS
330
C
102
}
330
C
100
AcDbDictionary
281
     1
  3
Layout1
350
1E
  3
Layout2
350
26
  3
Model
350
22
  0
DICTIONARY
  5
3B
102
{ACAD_REACTORS
330
C
102
}
330
C
100
AcDbDictionary
281
     1
  3
ByBlock
350
3D
  3
ByLayer
350
3C
  3
Global
350
3E
  0
DICTIONARY
  5
A6
102
{ACAD_REACTORS
330
C
102
}
330
C
100
AcDbDictionary
281
     1
  0
DICTIONARY
  5
17
102
{ACAD_REACTORS
330
C
102
}
330
C
100
AcDbDictionary
281
     1
  3
Standard
350
18
  0
DICTIONARY
  5
19
102
{ACAD_REACTORS
330
C
102
}
330
C
100
AcDbDictionary
281
     1
  0
ACDBDICTIONARYWDFLT
  5
E
102
{ACAD_REACTORS
330
C
102
}
330
C
100
AcDbDictionary
281
     1
  3
Normal
350
F
100
AcDbDictionaryWithDefault
340
F
  0
DICTIONARY
  5
A5
102
{ACAD_REACTORS
330
C
102
}
330
C
100
AcDbDictionary
281
     1
  0
DICTIONARY
  5
2A
102
{ACAD_REACTORS
330
C
102
}
330
C
100
AcDbDictionary
281
     1
  3
2dWireframe
350
2F
  3
3D Hidden
350
31
  3
3dWireframe
350
30
  3
Basic
350
32
  3
Brighten
350
36
  3
ColorChange
350
3A
  3
Conceptual
350
34
  3
Dim
350
35
  3
Facepattern
350
39
  3
Flat
350
2B
  3
FlatWithEdges
350
2C
  3
Gouraud
350
2D
  3
GouraudWithEdges
350
2E
  3
Linepattern
350
38
  3
Realistic
350
33
  3
Thicken
350
37
  0
LAYOUT
  5
1E
102
{ACAD_REACTORS
330
1A
102
}
330
1A
100
AcDbPlotSettings
  1

  2
none_device
  4

  6

 40
0.0
 41
0.0
 42
0.0
 43
0.0
 44
0.0
 45
0.0
 46
0.0
 47
0.0
 48
0.0
 49
0.0
140
0.0
141
0.0
142
1.0
143
1.0
 70
   688
 72
     0
 73
     0
 74
     5
  7

 75
    16
 76
     0
 77
     2
 78
   300
147
1.0
148
0.0
149
0.0
100
AcDbLayout
  1
Layout1
 70
     1
 71
     1
 10
0.0
 20
0.0
 11
12.0
 21
9.0
 12
0.0
 22
0.0
 32
0.0
 14
1.000000000000000E+20
 24
1.000000000000000E+20
 34
1.000000000000000E+20
 15
-1.000000000000000E+20
 25
-1.000000000000000E+20
 35
-1.000000000000000E+20
146
0.0
 13
0.0
 23
0.0
 33
0.0
 16
1.0
 26
0.0
 36
0.0
 17
0.0
 27
1.0
 37
0.0
 76
     0
330
1B
  0
LAYOUT
  5
26
102
{ACAD_REACTORS
330
1A
102
}
330
1A
100
AcDbPlotSettings
  1

  2
none_device
  4

  6

 40
0.0
 41
0.0
 42
0.0
 43
0.0
 44
0.0
 45
0.0
 46
0.0
 47
0.0
 48
0.0
 49
0.0
140
0.0
141
0.0
142
1.0
143
1.0
 70
   688
 72
     0
 73
     0
 74
     5
  7

 75
    16
 76
     0
 77
     2
 78
   300
147
1.0
148
0.0
149
0.0
100
AcDbLayout
  1
Layout2
 70
     1
 71
     2
 10
0.0
 20
0.0
 11
0.0
 21
0.0
 12
0.0
 22
0.0
 32
0.0
 14
0.0
 24
0.0
 34
0.0
 15
0.0
 25
0.0
 35
0.0
146
0.0
 13
0.0
 23
0.0
 33
0.0
 16
1.0
 26
0.0
 36
0.0
 17
0.0
 27
1.0
 37
0.0
 76
     0
330
23
  0
LAYOUT
  5
22
102
{ACAD_REACTORS
330
1A
102
}
330
1A
100
AcDbPlotSettings
  1

  2
none_device
  4

  6

 40
0.0
 41
0.0
 42
0.0
 43
0.0
 44
0.0
 45
0.0
 46
0.0
 47
0.0
 48
0.0
 49
0.0
140
0.0
141
0.0
142
1.0
143
1.0
 70
  1712
 72
     0
 73
     0
 74
     0
  7

 75
     0
 76
     0
 77
     2
 78
   300
147
1.0
148
0.0
149
0.0
100
AcDbLayout
  1
Model
 70
     1
 71
     0
 10
0.0
 20
0.0
 11
12.0
 21
9.0
 12
0.0
 22
0.0
 32
0.0
 14
1.000000000000000E+20
 24
1.000000000000000E+20
 34
1.000000000000000E+20
 15
-1.000000000000000E+20
 25
-1.000000000000000E+20
 35
-1.000000000000000E+20
146
0.0
 13
0.0
 23
0.0
 33
0.0
 16
1.0
 26
0.0
 36
0.0
 17
0.0
 27
1.0
 37
0.0
 76
     0
330
1F
331
29
  0
MATERIAL
  5
3D
102
{ACAD_REACTORS
330
3B
102
}
330
3B
100
AcDbMaterial
  1
ByBlock
 72
     1
 94
      127
  0
MATERIAL
  5
3C
102
{ACAD_REACTORS
330
3B
102
}
330
3B
100
AcDbMaterial
  1
ByLayer
 72
     1
 94
      127
  0
MATERIAL
  5
3E
102
{ACAD_REACTORS
330
3B
102
}
330
3B
100
AcDbMaterial
  1
Global
 72
     1
 94
      127
  0
MLINESTYLE
  5
18
102
{ACAD_REACTORS
330
17
102
}
330
17
100
AcDbMlineStyle
  2
Standard
 70
     0
  3

 62
   256
 51
90.0
 52
90.0
 71
     2
 49
0.5
 62
   256
  6
BYLAYER
 49
-0.5
 62
   256
  6
BYLAYER
  0
ACDBPLACEHOLDER
  5
F
102
{ACAD_REACTORS
330
E
102
}
330
E
  0
VISUALSTYLE
  5
2F
102
{ACAD_REACTORS
330
2A
102
}
330
2A
100
AcDbVisualStyle
  2
2dWireframe
 70
     4
177
     2
291
     0
 71
     0
176
     1
 72
     2
176
     1
 73
     0
176
     1
 90
        0
176
     1
 40
-0.6
176
     1
 41
-30.0
176
     1
 62
     5
 63
     7
421
 16777215
176
     1
 74
     1
176
     1
 91
        4
176
     1
 64
     7
176
     1
 65
   257
176
     1
 75
     1
176
     1
175
     1
176
     1
 42
1.0
176
     1
 92
        0
176
     1
 66
   257
176
     1
 43
1.0
176
     1
 76
     1
176
     1
 77
     6
176
     1
 78
     2
176
     1
 67
     7
176
     1
 79
     5
176
     1
170
     0
176
     1
171
     0
176
     1
290
     0
176
     1
 93
        1
176
     1
 44
0.0
176
     1
173
     0
176
     1
  0
VISUALSTYLE
  5
31
102
{ACAD_REACTORS
330
2A
102
}
330
2A
100
AcDbVisualStyle
  2
3D Hidden
 70
     6
177
     2
291
     0
 71
     1
176
     1
 72
     2
176
     1
 73
     2
176
     1
 90
        0
176
     1
 40
-0.6
176
     1
 41
-30.0
176
     1
 62
     5
 63
     7
421
 16777215
176
     1
 74
     2
176
     1
 91
        2
176
     1
 64
     7
176
     1
 65
   257
176
     1
 75
     2
176
     1
175
     1
176
     1
 42
40.0
176
     1
 92
        0
176
     1
 66
   257
176
     1
 43
1.0
176
     1
 76
     1
176
     1
 77
     6
176
     1
 78
     2
176
     1
 67
     7
176
     1
 79
     3
176
     1
170
     0
176
     1
171
     0
176
     1
290
     0
176
     1
 93
        1
176
     1
 44
0.0
176
     1
173
     0
176
     1
  0
VISUALSTYLE
  5
30
102
{ACAD_REACTORS
330
2A
102
}
330
2A
100
AcDbVisualStyle
  2
3dWireframe
 70
     5
177
     2
291
     0
 71
     0
176
     1
 72
     2
176
     1
 73
     0
176
     1
 90
        0
176
     1
 40
-0.6
176
     1
 41
-30.0
176
     1
 62
     5
 63
     7
421
 16777215
176
     1
 74
     1
176
     1
 91
        4
176
     1
 64
     7
176
     1
 65
   257
176
     1
 75
     1
176
     1
175
     1
176
     1
 42
1.0
176
     1
 92
        0
176
     1
 66
   257
176
     1
 43
1.0
176
     1
 76
     1
176
     1
 77
     6
176
     1
 78
     2
176
     1
 67
     7
176
     1
 79
     5
176
     1
170
     0
176
     1
171
     0
176
     1
290
     0
176
     1
 93
        1
176
     1
 44
0.0
176
     1
173
     0
176
     1
  0
VISUALSTYLE
  5
32
102
{ACAD_REACTORS
330
2A
102
}
330
2A
100
AcDbVisualStyle
  2
Basic
 70
     7
177
     2
291
     1
 71
     1
176
     1
 72
     0
176
     1
 73
     1
176
     1
 90
        0
176
     1
 40
-0.6
176
     1
 41
-30.0
176
     1
 62
     5
 63
     7
421
 16777215
176
     1
 74
     0
176
     1
 91
        4
176
     1
 64
     7
176
     1
 65
   257
176
     1
 75
     1
176
     1
175
     1
176
     1
 42
1.0
176
     1
 92
        8
176
     1
 66
     7
176
     1
 43
1.0
176
     1
 76
     1
176
     1
 77
     6
176
     1
 78
     2
176
     1
 67
     7
176
     1
 79
     5
176
     1
170
     0
176
     1
171
     0
176
     1
290
     0
176
     1
 93
        1
176
     1
 44
0.0
176
     1
173
     0
176
     1
  0
VISUALSTYLE
  5
36
102
{ACAD_REACTORS
330
2A
102
}
330
2A
100
AcDbVisualStyle
  2
Brighten
 70
    12
177
     2
291
     1
 71
     2
176
     1
 72
     2
176
     1
 73
     0
176
     1
 90
        0
176
     1
 40
-0.6
176
     1
 41
-30.0
176
     1
 62
     5
 63
     7
421
 16777215
176
     1
 74
     1
176
     1
 91
        4
176
     1
 64
     7
176
     1
 65
   257
176
     1
 75
     1
176
     1
175
     1
176
     1
 42
1.0
176
     1
 92
        8
176
     1
 66
     7
176
     1
 43
1.0
176
     1
 76
     1
176
     1
 77
     6
176
     1
 78
     2
176
     1
 67
     7
176
     1
 79
     5
176
     1
170
     0
176
     1
171
     0
176
     1
290
     0
176
     1
 93
        1
176
     1
 44
50.0
176
     1
173
     0
176
     1
  0
VISUALSTYLE
  5
3A
102
{ACAD_REACTORS
330
2A
102
}
330
2A
100
AcDbVisualStyle
  2
ColorChange
 70
    16
177
     2
291
     1
 71
     2
176
     1
 72
     2
176
     1
 73
     3
176
     1
 90
        0
176
     1
 40
-0.6
176
     1
 41
-30.0
176
     1
 62
     5
 63
     8
421
  8421504
176
     1
 74
     1
176
     1
 91
        4
176
     1
 64
     7
176
     1
 65
   257
176
     1
 75
     1
176
     1
175
     1
176
     1
 42
1.0
176
     1
 92
        8
176
     1
 66
     8
424
  8421504
176
     1
 43
1.0
176
     1
 76
     1
176
     1
 77
     6
176
     1
 78
     2
176
     1
 67
     7
176
     1
 79
     5
176
     1
170
     0
176
     1
171
     0
176
     1
290
     0
176
     1
 93
        1
176
     1
 44
0.0
176
     1
173
     0
176
     1
  0
VISUALSTYLE
  5
34
102
{ACAD_REACTORS
330
2A
102
}
330
2A
100
AcDbVisualStyle
  2
Conceptual
 70
     9
177
     2
291
     0
 71
     3
176
     1
 72
     2
176
     1
 73
     0
176
     1
 90
        0
176
     1
 40
-0.6
176
     1
 41
-30.0
176
     1
 62
     5
 63
     7
421
 16777215
176
     1
 74
     2
176
     1
 91
        2
176
     1
 64
     7
176
     1
 65
   257
176
     1
 75
     1
176
     1
175
     1
176
     1
 42
40.0
176
     1
 92
        8
176
     1
 66
     7
176
     1
 43
1.0
176
     1
 76
     1
176
     1
 77
     6
176
     1
 78
     2
176
     1
 67
     7
176
     1
 79
     3
176
     1
170
     0
176
     1
171
     0
176
     1
290
     0
176
     1
 93
        1
176
     1
 44
0.0
176
     1
173
     0
176
     1
  0
VISUALSTYLE
  5
35
102
{ACAD_REACTORS
330
2A
102
}
330
2A
100
AcDbVisualStyle
  2
Dim
 70
    11
177
     2
291
     1
 71
     2
176
     1
 72
     2
176
     1
 73
     0
176
     1
 90
        0
176
     1
 40
-0.6
176
     1
 41
-30.0
176
     1
 62
     5
 63
     7
421
 16777215
176
     1
 74
     1
176
     1
 91
        4
176
     1
 64
     7
176
     1
 65
   257
176
     1
 75
     1
176
     1
175
     1
176
     1
 42
1.0
176
     1
 92
        8
176
     1
 66
     7
176
     1
 43
1.0
176
     1
 76
     1
176
     1
 77
     6
176
     1
 78
     2
176
     1
 67
     7
176
     1
 79
     5
176
     1
170
     0
176
     1
171
     0
176
     1
290
     0
176
     1
 93
        1
176
     1
 44
-50.0
176
     1
173
     0
176
     1
  0
VISUALSTYLE
  5
39
102
{ACAD_REACTORS
330
2A
102
}
330
2A
100
AcDbVisualStyle
  2
Facepattern
 70
    15
177
     2
291
     1
 71
     2
176
     1
 72
     2
176
     1
 73
     0
176
     1
 90
        0
176
     1
 40
-0.6
176
     1
 41
-30.0
176
     1
 62
     5
 63
     7
421
 16777215
176
     1
 74
     1
176
     1
 91
        4
176
     1
 64
     7
176
     1
 65
   257
176
     1
 75
     1
176
     1
175
     1
176
     1
 42
1.0
176
     1
 92
        8
176
     1
 66
     7
176
     1
 43
1.0
176
     1
 76
     1
176
     1
 77
     6
176
     1
 78
     2
176
     1
 67
     7
176
     1
 79
     5
176
     1
170
     0
176
     1
171
     0
176
     1
290
     0
176
     1
 93
        1
176
     1
 44
0.0
176
     1
173
     0
176
     1
  0
VISUALSTYLE
  5
2B
102
{ACAD_REACTORS
330
2A
102
}
330
2A
100
AcDbVisualStyle
  2
Flat
 70
     0
177
     2
291
     1
 71
     2
176
     1
 72
     1
176
     1
 73
     1
176
     1
 90
        2
176
     1
 40
-0.6
176
     1
 41
30.0
176
     1
 62
     5
 63
     7
421
 16777215
176
     1
 74
     0
176
     1
 91
        4
176
     1
 64
     7
176
     1
 65
   257
176
     1
 75
     1
176
     1
175
     1
176
     1
 42
1.0
176
     1
 92
        8
176
     1
 66
     7
176
     1
 43
1.0
176
     1
 76
     1
176
     1
 77
     6
176
     1
 78
     2
176
     1
 67
     7
176
     1
 79
     5
176
     1
170
     0
176
     1
171
     0
176
     1
290
     0
176
     1
 93
       13
176
     1
 44
0.0
176
     1
173
     0
176
     1
  0
VISUALSTYLE
  5
2C
102
{ACAD_REACTORS
330
2A
102
}
330
2A
100
AcDbVisualStyle
  2
FlatWithEdges
 70
     1
177
     2
291
     1
 71
     2
176
     1
 72
     1
176
     1
 73
     1
176
     1
 90
        2
176
     1
 40
-0.6
176
     1
 41
30.0
176
     1
 62
     5
 63
     7
421
 16777215
176
     1
 74
     1
176
     1
 91
        4
176
     1
 64
     7
176
     1
 65
   257
176
     1
 75
     1
176
     1
175
     1
176
     1
 42
1.0
176
     1
 92
        0
176
     1
 66
   257
176
     1
 43
1.0
176
     1
 76
     1
176
     1
 77
     6
176
     1
 78
     2
176
     1
 67
     7
176
     1
 79
     5
176
     1
170
     0
176
     1
171
     0
176
     1
290
     0
176
     1
 93
       13
176
     1
 44
0.0
176
     1
173
     0
176
     1
  0
VISUALSTYLE
  5
2D
102
{ACAD_REACTORS
330
2A
102
}
330
2A
100
AcDbVisualStyle
  2
Gouraud
 70
     2
177
     2
291
     1
 71
     2
176
     1
 72
     2
176
     1
 73
     1
176
     1
 90
        2
176
     1
 40
-0.6
176
     1
 41
30.0
176
     1
 62
     5
 63
     7
421
 16777215
176
     1
 74
     0
176
     1
 91
        4
176
     1
 64
     7
176
     1
 65
   257
176
     1
 75
     1
176
     1
175
     1
176
     1
 42
1.0
176
     1
 92
        0
176
     1
 66
     7
176
     1
 43
1.0
176
     1
 76
     1
176
     1
 77
     6
176
     1
 78
     2
176
     1
 67
     7
176
     1
 79
     5
176
     1
170
     0
176
     1
171
     0
176
     1
290
     0
176
     1
 93
       13
176
     1
 44
0.0
176
     1
173
     0
176
     1
  0
VISUALSTYLE
  5
2E
102
{ACAD_REACTORS
330
2A
102
}
330
2A
100
AcDbVisualStyle
  2
GouraudWithEdges
 70
     3
177
     2
291
     1
 71
     2
176
     1
 72
     2
176
     1
 73
     1
176
     1
 90
        2
176
     1
 40
-0.6
176
     1
 41
30.0
176
     1
 62
     5
 63
     7
421
 16777215
176
     1
 74
     1
176
     1
 91
        4
176
     1
 64
     7
176
     1
 65
   257
176
     1
 75
     1
176
     1
175
     1
176
     1
 42
1.0
176
     1
 92
        0
176
     1
 66
   257
176
     1
 43
1.0
176
     1
 76
     1
176
     1
 77
     6
176
     1
 78
     2
176
     1
 67
     7
176
     1
 79
     5
176
     1
170
     0
176
     1
171
     0
176
     1
290
     0
176
     1
 93
       13
176
     1
 44
0.0
176
     1
173
     0
176
     1
  0
VISUALSTYLE
  5
38
102
{ACAD_REACTORS
330
2A
102
}
330
2A
100
AcDbVisualStyle
  2
Linepattern
 70
    14
177
     2
291
     1
 71
     2
176
     1
 72
     2
176
     1
 73
     0
176
     1
 90
        0
176
     1
 40
-0.6
176
     1
 41
-30.0
176
     1
 62
     5
 63
     7
421
 16777215
176
     1
 74
     1
176
     1
 91
        4
176
     1
 64
     7
176
     1
 65
   257
176
     1
 75
     7
176
     1
175
     7
176
     1
 42
1.0
176
     1
 92
        8
176
     1
 66
     7
176
     1
 43
1.0
176
     1
 76
     1
176
     1
 77
     6
176
     1
 78
     2
176
     1
 67
     7
176
     1
 79
     5
176
     1
170
     0
176
     1
171
     0
176
     1
290
     0
176
     1
 93
        1
176
     1
 44
0.0
176
     1
173
     0
176
     1
  0
VISUALSTYLE
  5
33
102
{ACAD_REACTORS
330
2A
102
}
330
2A
100
AcDbVisualStyle
  2
Realistic
 70
     8
177
     2
291
     0
 71
     2
176
     1
 72
     2
176
     1
 73
     0
176
     1
 90
        0
176
     1
 40
-0.6
176
     1
 41
-30.0
176
     1
 62
     5
 63
     7
421
 16777215
176
     1
 74
     1
176
     1
 91
        0
176
     1
 64
     7
176
     1
 65
   257
176
     1
 75
     1
176
     1
175
     1
176
     1
 42
1.0
176
     1
 92
        8
176
     1
 66
     8
424
  7895160
176
     1
 43
1.0
176
     1
 76
     1
176
     1
 77
     6
176
     1
 78
     2
176
     1
 67
     7
176
     1
 79
     5
176
     1
170
     0
176
     1
171
     0
176
     1
290
     0
176
     1
 93
       13
176
     1
 44
0.0
176
     1
173
     0
176
     1
  0
VISUALSTYLE
  5
37
102
{ACAD_REACTORS
330
2A
102
}
330
2A
100
AcDbVisualStyle
  2
Thicken
 70
    13
177
     2
291
     1
 71
     2
176
     1
 72
     2
176
     1
 73
     0
176
     1
 90
        0
176
     1
 40
-0.6
176
     1
 41
-30.0
176
     1
 62
     5
 63
     7
421
 16777215
176
     1
 74
     1
176
     1
 91
        4
176
     1
 64
     7
176
     1
 65
   257
176
     1
 75
     1
176
     1
175
     1
176
     1
 42
1.0
176
     1
 92
       12
176
     1
 66
     7
176
     1
 43
1.0
176
     1
 76
     1
176
     1
 77
     6
176
     1
 78
     2
176
     1
 67
     7
176
     1
 79
     5
176
     1
170
     0
176
     1
171
     0
176
     1
290
     0
176
     1
 93
        1
176
     1
 44
0.0
176
     1
173
     0
176
     1
  0
ENDSEC
  0
EOF
