  0
SECTION
  2
HEADER
  9
$ACADVER
  1
AC1024
  9
$ACADMAINTVER
 70
     6
  9
$DWGCODEPAGE
  3
UNDEFINED
  9
$INSBASE
 10
0.0
 20
0.0
 30
0.0
  9
$EXTMIN
 10
1.000000000000000E+20
 20
1.000000000000000E+20
 30
1.000000000000000E+20
  9
$EXTMAX
 10
-1.000000000000000E+20
 20
-1.000000000000000E+20
 30
-1.000000000000000E+20
  9
$LIMMIN
 10
0.0
 20
0.0
  9
$LIMMAX
 10
12.0
 20
9.0
  9
$ORTHOMODE
 70
     0
  9
$REGENMODE
 70
     1
  9
$FILLMODE
 70
     1
  9
$QTEXTMODE
 70
     0
  9
$MIRRTEXT
 70
     1
  9
$LTSCALE
 40
1.0
  9
$ATTMODE
 70
     1
  9
$TEXTSIZE
 40
0.2
  9
$TRACEWID
 40
0.05
  9
$TEXTSTYLE
  7
Standard
  9
$CLAYER
  8
0
  9
$CELTYPE
  6
ByLayer
  9
$CECOLOR
 62
   256
  9
$CELTSCALE
 40
1.0
  9
$DISPSILH
 70
     0
  9
$DIMSCALE
 40
1.0
  9
$DIMASZ
 40
0.18
  9
$DIMEXO
 40
0.0625
  9
$DIMDLI
 40
0.38
  9
$DIMRND
 40
0.0
  9
$DIMDLE
 40
0.0
  9
$DIMEXE
 40
0.18
  9
$DIMTP
 40
0.0
  9
$DIMTM
 40
0.0
  9
$DIMTXT
 40
0.18
  9
$DIMCEN
 40
0.09
  9
$DIMTSZ
 40
0.0
  9
$DIMTOL
 70
     0
  9
$DIMLIM
 70
     0
  9
$DIMTIH
 70
     1
  9
$DIMTOH
 70
     1
  9
$DIMSE1
 70
     0
  9
$DIMSE2
 70
     0
  9
$DIMTAD
 70
     0
  9
$DIMZIN
 70
     0
  9
$DIMBLK
  1

  9
$DIMASO
 70
     1
  9
$DIMSHO
 70
     1
  9
$DIMPOST
  1

  9
$DIMAPOST
  1

  9
$DIMALT
 70
     0
  9
$DIMALTD
 70
     2
  9
$DIMALTF
 40
25.4
  9
$DIMLFAC
 40
1.0
  9
$DIMTOFL
 70
     0
  9
$DIMTVP
 40
0.0
  9
$DIMTIX
 70
     0
  9
$DIMSOXD
 70
     0
  9
$DIMSAH
 70
     0
  9
$DIMBLK1
  1

  9
$DIMBLK2
  1

  9
$DIMSTYLE
  2
Standard
  9
$DIMCLRD
 70
     0
  9
$DIMCLRE
 70
     0
  9
$DIMCLRT
 70
     0
  9
$DIMTFAC
 40
1.0
  9
$DIMGAP
 40
0.09
  9
$DIMJUST
 70
     0
  9
$DIMSD1
 70
     0
  9
$DIMSD2
 70
     0
  9
$DIMTOLJ
 70
     1
  9
$DIMTZIN
 70
     0
  9
$DIMALTZ
 70
     0
  9
$DIMALTTZ
 70
     0
  9
$DIMUPT
 70
     0
  9
$DIMDEC
 70
     4
  9
$DIMTDEC
 70
     4
  9
$DIMALTU
 70
     2
  9
$DIMALTTD
 70
     2
  9
$DIMTXSTY
  7
Standard
  9
$DIMAUNIT
 70
     0
  9
$DIMADEC
 70
     0
  9
$DIMALTRND
 40
0.0
  9
$DIMAZIN
 70
     0
  9
$DIMDSEP
 70
    46
  9
$DIMATFIT
 70
     3
  9
$DIMFRAC
 70
     0
  9
$DIMLDRBLK
  1

  9
$DIMLUNIT
 70
     2
  9
$DIMLWD
 70
    -2
  9
$DIMLWE
 70
    -2
  9
$DIMTMOVE
 70
     0
  9
$DIMFXL
 40
1.0
  9
$DIMFXLON
 70
     0
  9
$DIMJOGANG
 40
0.7853981633974483
  9
$DIMTFILL
 70
     0
  9
$DIMTFILLCLR
 70
     0
  9
$DIMARCSYM
 70
     0
  9
$DIMLTYPE
  6

  9
$DIMLTEX1
  6

  9
$DIMLTEX2
  6

  9
$DIMTXTDIRECTION
 70
     0
  9
$LUNITS
 70
     2
  9
$LUPREC
 70
     4
  9
$SKETCHINC
 40
0.1
  9
$FILLETRAD
 40
0.5
  9
$AUNITS
 70
     0
  9
$AUPREC
 70
     0
  9
$MENU
  1
.
  9
$ELEVATION
 40
0.0
  9
$PELEVATION
 40
0.0
  9
$THICKNESS
 40
0.0
  9
$LIMCHECK
 70
     0
  9
$CHAMFERA
 40
0.5
  9
$CHAMFERB
 40
0.5
  9
$CHAMFERC
 40
1.0
  9
$CHAMFERD
 40
0.0
  9
$SKPOLY
 70
     0
  9
$TDCREATE
 40
2457917.595625
  9
$TDUCREATE
 40
2457917.220625
  9
$TDUPDATE
 40
2457917.595625
  9
$TDUUPDATE
 40
2457917.220625
  9
$TDINDWG
 40
0.0000000116
  9
$TDUSRTIMER
 40
0.0000000116
  9
$USRTIMER
 70
     1
  9
$ANGBASE
 50
0.0
  9
$ANGDIR
 70
     0
  9
$PDMODE
 70
     0
  9
$PDSIZE
 40
0.0
  9
$PLINEWID
 40
0.0
  9
$SPLFRAME
 70
     0
  9
$SPLINETYPE
 70
     6
  9
$SPLINESEGS
 70
     8
  9
$HANDSEED
  5
A5
  9
$SURFTAB1
 70
     6
  9
$SURFTAB2
 70
     6
  9
$SURFTYPE
 70
     6
  9
$SURFU
 70
     6
  9
$SURFV
 70
     6
  9
$UCSBASE
  2

  9
$UCSNAME
  2

  9
$UCSORG
 10
0.0
 20
0.0
 30
0.0
  9
$UCSXDIR
 10
1.0
 20
0.0
 30
0.0
  9
$UCSYDIR
 10
0.0
 20
1.0
 30
0.0
  9
$UCSORTHOREF
  2

  9
$UCSORTHOVIEW
 70
     0
  9
$UCSORGTOP
 10
0.0
 20
0.0
 30
0.0
  9
$UCSORGBOTTOM
 10
0.0
 20
0.0
 30
0.0
  9
$UCSORGLEFT
 10
0.0
 20
0.0
 30
0.0
  9
$UCSORGRIGHT
 10
0.0
 20
0.0
 30
0.0
  9
$UCSORGFRONT
 10
0.0
 20
0.0
 30
0.0
  9
$UCSORGBACK
 10
0.0
 20
0.0
 30
0.0
  9
$PUCSBASE
  2

  9
$PUCSNAME
  2

  9
$PUCSORG
 10
0.0
 20
0.0
 30
0.0
  9
$PUCSXDIR
 10
1.0
 20
0.0
 30
0.0
  9
$PUCSYDIR
 10
0.0
 20
1.0
 30
0.0
  9
$PUCSORTHOREF
  2

  9
$PUCSORTHOVIEW
 70
     0
  9
$PUCSORGTOP
 10
0.0
 20
0.0
 30
0.0
  9
$PUCSORGBOTTOM
 10
0.0
 20
0.0
 30
0.0
  9
$PUCSORGLEFT
 10
0.0
 20
0.0
 30
0.0
  9
$PUCSORGRIGHT
 10
0.0
 20
0.0
 30
0.0
  9
$PUCSORGFRONT
 10
0.0
 20
0.0
 30
0.0
  9
$PUCSORGBACK
 10
0.0
 20
0.0
 30
0.0
  9
$USERI1
 70
     0
  9
$USERI2
 70
     0
  9
$USERI3
 70
     0
  9
$USERI4
 70
     0
  9
$USERI5
 70
     0
  9
$USERR1
 40
0.0
  9
$USERR2
 40
0.0
  9
$USERR3
 40
0.0
  9
$USERR4
 40
0.0
  9
$USERR5
 40
0.0
  9
$WORLDVIEW
 70
     1
  9
$SHADEDGE
 70
     3
  9
$SHADEDIF
 70
    70
  9
$TILEMODE
 70
     1
  9
$MAXACTVP
 70
    64
  9
$PINSBASE
 10
0.0
 20
0.0
 30
0.0
  9
$PLIMCHECK
 70
     0
  9
$PEXTMIN
 10
1.000000000000000E+20
 20
1.000000000000000E+20
 30
1.000000000000000E+20
  9
$PEXTMAX
 10
-1.000000000000000E+20
 20
-1.000000000000000E+20
 30
-1.000000000000000E+20
  9
$PLIMMIN
 10
0.0
 20
0.0
  9
$PLIMMAX
 10
12.0
 20
9.0
  9
$UNITMODE
 70
     0
  9
$VISRETAIN
 70
     1
  9
$PLINEGEN
 70
     0
  9
$PSLTSCALE
 70
     1
  9
$TREEDEPTH
 70
  3020
  9
$CMLSTYLE
  2
Standard
  9
$CMLJUST
 70
     0
  9
$CMLSCALE
 40
1.0
  9
$PROXYGRAPHICS
 70
     1
  9
$MEASUREMENT
 70
     0
  9
$CELWEIGHT
370
    -1
  9
$ENDCAPS
280
     0
  9
$JOINSTYLE
280
     0
  9
$LWDISPLAY
290
     1
  9
$INSUNITS
 70
     1
  9
$HYPERLINKBASE
  1

  9
$STYLESHEET
  1

  9
$XEDIT
290
     1
  9
$CEPSNTYPE
380
     0
  9
$PSTYLEMODE
290
     1
  9
$FINGERPRINTGUID
  2
{ABBF3871-A602-3FBD-7115-C80AD72C90C9}
  9
$VERSIONGUID
  2
{FAEB1C32-E019-11D5-929B-00C0DF256EC4}
  9
$EXTNAMES
290
     1
  9
$PSVPSCALE
 40
0.0
  9
$OLESTARTUP
290
     0
  9
$SORTENTS
280
   127
  9
$INDEXCTL
280
     0
  9
$HIDETEXT
280
     1
  9
$XCLIPFRAME
280
     2
  9
$HALOGAP
280
     0
  9
$OBSCOLOR
 70
   257
  9
$OBSLTYPE
280
     0
  9
$INTERSECTIONDISPLAY
280
     0
  9
$INTERSECTIONCOLOR
 70
   257
  9
$DIMASSOC
280
     2
  9
$PROJECTNAME
  1

  9
$CAMERADISPLAY
290
     0
  9
$LENSLENGTH
 40
50.0
  9
$CAMERAHEIGHT
 40
0.0
  9
$STEPSPERSEC
 40
2.0
  9
$STEPSIZE
 40
6.0
  9
$3DDWFPREC
 40
2.0
  9
$PSOLWIDTH
 40
0.25
  9
$PSOLHEIGHT
 40
4.0
  9
$LOFTANG1
 40
1.570796326794897
  9
$LOFTANG2
 40
1.570796326794897
  9
$LOFTMAG1
 40
0.0
  9
$LOFTMAG2
 40
0.0
  9
$LOFTPARAM
 70
     7
  9
$LOFTNORMALS
280
     1
  9
$LATITUDE
 40
37.795
  9
$LONGITUDE
 40
-122.394
  9
$NORTHDIRECTION
 40
0.0
  9
$TIMEZONE
 70
 -8000
  9
$LIGHTGLYPHDISPLAY
280
     1
  9
$TILEMODELIGHTSYNCH
280
     1
  9
$CMATERIAL
347
3C
  9
$SOLIDHIST
280
     1
  9
$SHOWHIST
280
     1
  9
$DWFFRAME
280
     2
  9
$DGNFRAME
280
     2
  9
$REALWORLDSCALE
290
     1
  9
$INTERFERECOLOR
 62
   256
  9
$CSHADOW
280
     0
  9
$SHADOWPLANELOCATION
 40
0.0
  0
ENDSEC
  0
SECTION
  2
CLASSES
  0
CLASS
  1
ACDBDICTIONARYWDFLT
  2
AcDbDictionaryWithDefault
  3
ObjectDBX Classes
 90
        0
 91
        4
280
     0
281
     0
  0
CLASS
  1
VISUALSTYLE
  2
AcDbVisualStyle
  3
ObjectDBX Classes
 90
     4095
 91
        4
280
     0
281
     0
  0
CLASS
  1
MATERIAL
  2
AcDbMaterial
  3
ObjectDBX Classes
 90
     1153
 91
        4
280
     0
281
     0
  0
CLASS
  1
SUN
  2
AcDbSun
  3
SCENEOE
 90
     1024
 91
        4
280
     0
281
     0
  0
ENDSEC
  0
SECTION
  2
TABLES
  0
TABLE
  2
VPORT
  5
8
330
0
100
AcDbSymbolTable
 70
     1
  0
VPORT
  5
29
330
8
100
AcDbSymbolTableRecord
100
AcDbViewportTableRecord
  2
*Active
 70
     0
 10
0.0
 20
0.0
 11
1.0
 21
1.0
 12
0.0
 22
0.0
 13
0.0
 23
0.0
 14
0.5
 24
0.5
 15
0.5
 25
0.5
 16
0.0
 26
0.0
 36
1.0
 17
91.00082462281999
 27
-128.4993055234307
 37
0.0
 40
256.9986110468615
 41
0.7081814508812795
 42
50.0
 43
0.0
 44
0.0
 50
0.0
 51
0.0
 71
     0
 72
   100
 73
     1
 74
     3
 75
     0
 76
     0
 77
     0
 78
     0
281
     0
 65
     1
110
0.0
120
0.0
130
0.0
111
1.0
121
0.0
131
0.0
112
0.0
122
1.0
132
0.0
 79
     0
146
0.0
 60
     3
 61
     5
292
     1
282
     1
141
0.0
142
0.0
 63
   250
361
3F
  0
ENDTAB
  0
TABLE
  2
LTYPE
  5
5
330
0
100
AcDbSymbolTable
 70
     1
  0
LTYPE
  5
14
330
5
100
AcDbSymbolTableRecord
100
AcDbLinetypeTableRecord
  2
ByBlock
 70
     0
  3

 72
    65
 73
     0
 40
0.0
  0
LTYPE
  5
15
330
5
100
AcDbSymbolTableRecord
100
AcDbLinetypeTableRecord
  2
ByLayer
 70
     0
  3

 72
    65
 73
     0
 40
0.0
  0
LTYPE
  5
16
330
5
100
AcDbSymbolTableRecord
100
AcDbLinetypeTableRecord
  2
Continuous
 70
     0
  3
Solid line
 72
    65
 73
     0
 40
0.0
  0
ENDTAB
  0
TABLE
  2
LAYER
  5
2
330
0
100
AcDbSymbolTable
 70
     2
  0
LAYER
  5
10
330
2
100
AcDbSymbolTableRecord
100
AcDbLayerTableRecord
  2
0
 70
     0
 62
     7
  6
Continuous
370
    -3
390
F
347
3E
  0
LAYER
  5
40
330
2
100
AcDbSymbolTableRecord
100
AcDbLayerTableRecord
  2
_U+30EC_U+30A4_U+30E4_U+30FC 1
 70
     0
 62
     7
  6
Continuous
370
    -3
390
F
347
3E
  0
ENDTAB
  0
TABLE
  2
STYLE
  5
3
330
0
100
AcDbSymbolTable
 70
     1
  0
STYLE
  5
11
330
3
100
AcDbSymbolTableRecord
100
AcDbTextStyleTableRecord
  2
Standard
 70
     0
 40
0.0
 41
1.0
 50
0.0
 71
     0
 42
0.2
  3
txt
  4

  0
ENDTAB
  0
TABLE
  2
VIEW
  5
6
330
0
100
AcDbSymbolTable
 70
     0
  0
ENDTAB
  0
TABLE
  2
UCS
  5
7
330
0
100
AcDbSymbolTable
 70
     0
  0
ENDTAB
  0
TABLE
  2
APPID
  5
9
330
0
100
AcDbSymbolTable
 70
     1
  0
APPID
  5
12
330
9
100
AcDbSymbolTableRecord
100
AcDbRegAppTableRecord
  2
ACAD
 70
     0
  0
ENDTAB
  0
TABLE
  2
DIMSTYLE
  5
A
330
0
100
AcDbSymbolTable
 70
     1
100
AcDbDimStyleTable
  0
DIMSTYLE
105
27
330
A
100
AcDbSymbolTableRecord
100
AcDbDimStyleTableRecord
  2
Standard
 70
     0
178
     0
340
11
  0
ENDTAB
  0
TABLE
  2
BLOCK_RECORD
  5
1
330
0
100
AcDbSymbolTable
 70
     4
  0
BLOCK_RECORD
  5
1F
330
1
100
AcDbSymbolTableRecord
100
AcDbBlockTableRecord
  2
*Model_Space
340
22
 70
     0
280
     1
281
     0
  0
BLOCK_RECORD
  5
1B
330
1
100
AcDbSymbolTableRecord
100
AcDbBlockTableRecord
  2
*Paper_Space
340
1E
 70
     0
280
     1
281
     0
  0
BLOCK_RECORD
  5
23
330
1
100
AcDbSymbolTableRecord
100
AcDbBlockTableRecord
  2
*Paper_Space0
340
26
 70
     0
280
     1
281
     0
  0
BLOCK_RECORD
  5
69
330
1
100
AcDbSymbolTableRecord
100
AcDbBlockTableRecord
  2
block 2
340
0
102
{BLKREFS
331
6A
102
}
 70
     0
280
     1
281
     0
  0
BLOCK_RECORD
  5
85
330
1
100
AcDbSymbolTableRecord
100
AcDbBlockTableRecord
  2
block 3
340
0
102
{BLKREFS
331
86
102
}
 70
     0
280
     1
281
     0
  0
BLOCK_RECORD
  5
9A
330
1
100
AcDbSymbolTableRecord
100
AcDbBlockTableRecord
  2
block 4
340
0
102
{BLKREFS
331
9B
102
}
 70
     0
280
     1
281
     0
  0
ENDTAB
  0
ENDSEC
  0
SECTION
  2
BLOCKS
  0
BLOCK
  5
20
330
1F
100
AcDbEntity
  8
0
100
AcDbBlockBegin
  2
*Model_Space
 70
     0
 10
0.0
 20
0.0
 30
0.0
  3
*Model_Space
  1

  0
ENDBLK
  5
21
330
1F
100
AcDbEntity
  8
0
100
AcDbBlockEnd
  0
BLOCK
  5
1C
330
1B
100
AcDbEntity
 67
     1
  8
0
100
AcDbBlockBegin
  2
*Paper_Space
 70
     0
 10
0.0
 20
0.0
 30
0.0
  3
*Paper_Space
  1

  0
ENDBLK
  5
1D
330
1B
100
AcDbEntity
 67
     1
  8
0
100
AcDbBlockEnd
  0
BLOCK
  5
24
330
23
100
AcDbEntity
  8
0
100
AcDbBlockBegin
  2
*Paper_Space0
 70
     0
 10
0.0
 20
0.0
 30
0.0
  3
*Paper_Space0
  1

  0
ENDBLK
  5
25
330
23
100
AcDbEntity
  8
0
100
AcDbBlockEnd
  0
BLOCK
  5
6B
330
69
100
AcDbEntity
  8
0
100
AcDbBlockBegin
  2
block 2
 70
     0
 10
0.0
 20
0.0
 30
0.0
  3
block 2
  1

  0
SPLINE
  5
6D
330
69
100
AcDbEntity
  8
_U+30EC_U+30A4_U+30E4_U+30FC 1
370
     0
100
AcDbSpline
210
0.0
220
0.0
230
1.0
 70
    11
 71
     3
 72
    26
 73
    22
 74
     0
 42
0.0000000001
 43
0.0000000001
 12
1.0
 22
0.0
 32
0.0
 13
1.0
 23
0.0
 33
0.0
 40
0.0
 40
0.0
 40
0.0
 40
0.0
 40
1.0
 40
1.0
 40
1.0
 40
2.0
 40
2.0
 40
2.0
 40
3.0
 40
3.0
 40
3.0
 40
4.0
 40
4.0
 40
4.0
 40
5.0
 40
5.0
 40
5.0
 40
6.0
 40
6.0
 40
6.0
 40
7.0
 40
7.0
 40
7.0
 40
7.0
 10
108.9201388616589
 20
-136.9673502261748
 30
0.0
 10
108.9201388616589
 20
-136.9673502261748
 30
0.0
 10
107.8159857586363
 20
-136.9673502261748
 30
0.0
 10
107.8159857586363
 20
-136.9673502261748
 30
0.0
 10
107.8159857586363
 20
-136.9673502261748
 30
0.0
 10
107.8159857586363
 20
-137.2532931514506
 30
0.0
 10
107.8159857586363
 20
-137.2532931514506
 30
0.0
 10
107.8159857586363
 20
-137.2532931514506
 30
0.0
 10
107.6678466527705
 20
-137.2532931514506
 30
0.0
 10
107.6678466527705
 20
-137.2532931514506
 30
0.0
 10
107.653032742184
 20
-136.9659721879807
 30
0.0
 10
107.4900797257316
 20
-136.9253200612548
 30
0.0
 10
107.3757025556214
 20
-136.8998263546639
 30
0.0
 10
107.3757025556214
 20
-136.8998263546639
 30
0.0
 10
107.3757025556214
 20
-136.7737358599038
 30
0.0
 10
107.3757025556214
 20
-136.7737358599038
 30
0.0
 10
107.3757025556214
 20
-136.7737358599038
 30
0.0
 10
108.9201388616589
 20
-136.7737358599038
 30
0.0
 10
108.9201388616589
 20
-136.7737358599038
 30
0.0
 10
108.9201388616589
 20
-136.7737358599038
 30
0.0
 10
108.9201388616589
 20
-136.9673502261748
 30
0.0
 10
108.9201388616589
 20
-136.9673502261748
 30
0.0
  0
HATCH
  5
6E
330
69
100
AcDbEntity
  8
_U+30EC_U+30A4_U+30E4_U+30FC 1
 62
   179
420
  2234388
100
AcDbHatch
 10
0.0
 20
0.0
 30
0.0
210
0.0
220
0.0
230
1.0
  2
SOLID
 70
     1
 71
     0
 91
        1
 92
        1
 93
        1
 72
     4
 94
        3
 73
     0
 74
     1
 95
       26
 96
       22
 40
0.0
 40
0.0
 40
0.0
 40
0.0
 40
1.0
 40
1.0
 40
1.0
 40
2.0
 40
2.0
 40
2.0
 40
3.0
 40
3.0
 40
3.0
 40
4.0
 40
4.0
 40
4.0
 40
5.0
 40
5.0
 40
5.0
 40
6.0
 40
6.0
 40
6.0
 40
7.0
 40
7.0
 40
7.0
 40
7.0
 10
108.9201388616589
 20
-136.9673502261748
 10
108.9201388616589
 20
-136.9673502261748
 10
107.8159857586363
 20
-136.9673502261748
 10
107.8159857586363
 20
-136.9673502261748
 10
107.8159857586363
 20
-136.9673502261748
 10
107.8159857586363
 20
-137.2532931514506
 10
107.8159857586363
 20
-137.2532931514506
 10
107.8159857586363
 20
-137.2532931514506
 10
107.6678466527705
 20
-137.2532931514506
 10
107.6678466527705
 20
-137.2532931514506
 10
107.653032742184
 20
-136.9659721879807
 10
107.4900797257316
 20
-136.9253200612548
 10
107.3757025556214
 20
-136.8998263546639
 10
107.3757025556214
 20
-136.8998263546639
 10
107.3757025556214
 20
-136.7737358599038
 10
107.3757025556214
 20
-136.7737358599038
 10
107.3757025556214
 20
-136.7737358599038
 10
108.9201388616589
 20
-136.7737358599038
 10
108.9201388616589
 20
-136.7737358599038
 10
108.9201388616589
 20
-136.7737358599038
 10
108.9201388616589
 20
-136.9673502261748
 10
108.9201388616589
 20
-136.9673502261748
 97
        0
 97
        0
 75
     2
 76
     1
 98
        0
  0
POLYLINE
  5
6F
330
69
100
AcDbEntity
  8
_U+30EC_U+30A4_U+30E4_U+30FC 1
370
     0
100
AcDb2dPolyline
 66
     1
 10
0.0
 20
0.0
 30
0.0
  0
VERTEX
  5
70
330
6F
100
AcDbEntity
  8
_U+30EC_U+30A4_U+30E4_U+30FC 1
370
     0
100
AcDbVertex
100
AcDb2dVertex
 10
108.9201388616589
 20
-136.2886664155806
 30
0.0
  0
VERTEX
  5
71
330
6F
100
AcDbEntity
  8
_U+30EC_U+30A4_U+30E4_U+30FC 1
370
     0
100
AcDbVertex
100
AcDb2dVertex
 10
108.6683023816871
 20
-136.2886664155806
 30
0.0
  0
VERTEX
  5
72
330
6F
100
AcDbEntity
  8
_U+30EC_U+30A4_U+30E4_U+30FC 1
370
     0
100
AcDbVertex
100
AcDb2dVertex
 10
108.6683023816871
 20
-136.0709363809128
 30
0.0
  0
VERTEX
  5
73
330
6F
100
AcDbEntity
  8
_U+30EC_U+30A4_U+30E4_U+30FC 1
370
     0
100
AcDbVertex
100
AcDb2dVertex
 10
108.9201388616589
 20
-136.0709363809128
 30
0.0
  0
VERTEX
  5
74
330
6F
100
AcDbEntity
  8
_U+30EC_U+30A4_U+30E4_U+30FC 1
370
     0
100
AcDbVertex
100
AcDb2dVertex
 10
108.9201388616589
 20
-136.2886664155806
 30
0.0
  0
SEQEND
  5
75
330
6F
100
AcDbEntity
  8
_U+30EC_U+30A4_U+30E4_U+30FC 1
370
     0
  0
HATCH
  5
76
330
69
100
AcDbEntity
  8
_U+30EC_U+30A4_U+30E4_U+30FC 1
 62
   179
420
  2234388
100
AcDbHatch
 10
0.0
 20
0.0
 30
0.0
210
0.0
220
0.0
230
1.0
  2
SOLID
 70
     1
 71
     0
 91
        1
 92
        1
 93
        4
 72
     1
 10
108.9201388616589
 20
-136.2886664155806
 11
108.6683023816871
 21
-136.2886664155806
 72
     1
 10
108.6683023816871
 20
-136.2886664155806
 11
108.6683023816871
 21
-136.0709363809128
 72
     1
 10
108.6683023816871
 20
-136.0709363809128
 11
108.9201388616589
 21
-136.0709363809128
 72
     1
 10
108.9201388616589
 20
-136.0709363809128
 11
108.9201388616589
 21
-136.2886664155806
 97
        0
 75
     2
 76
     1
 98
        0
  0
SPLINE
  5
77
330
69
100
AcDbEntity
  8
_U+30EC_U+30A4_U+30E4_U+30FC 1
370
     0
100
AcDbSpline
210
0.0
220
0.0
230
1.0
 70
    11
 71
     3
 72
    53
 73
    49
 74
     0
 42
0.0000000001
 43
0.0000000001
 12
1.0
 22
0.0
 32
0.0
 13
1.0
 23
0.0
 33
0.0
 40
0.0
 40
0.0
 40
0.0
 40
0.0
 40
1.0
 40
1.0
 40
1.0
 40
2.0
 40
2.0
 40
2.0
 40
3.0
 40
3.0
 40
3.0
 40
4.0
 40
4.0
 40
4.0
 40
5.0
 40
5.0
 40
5.0
 40
6.0
 40
6.0
 40
6.0
 40
7.0
 40
7.0
 40
7.0
 40
8.0
 40
8.0
 40
8.0
 40
9.0
 40
9.0
 40
9.0
 40
10.0
 40
10.0
 40
10.0
 40
11.0
 40
11.0
 40
11.0
 40
12.0
 40
12.0
 40
12.0
 40
13.0
 40
13.0
 40
13.0
 40
14.0
 40
14.0
 40
14.0
 40
15.0
 40
15.0
 40
15.0
 40
16.0
 40
16.0
 40
16.0
 40
16.0
 10
108.970781765292
 20
-135.4508191935679
 30
0.0
 10
108.970781765292
 20
-135.5183430650788
 30
0.0
 10
108.9539007974143
 20
-135.6065375095012
 30
0.0
 10
108.8905110404857
 20
-135.6940429348265
 30
0.0
 10
108.7806124945062
 20
-135.8442490979834
 30
0.0
 10
108.6493543565182
 20
-135.8628526136037
 30
0.0
 10
108.5415228678299
 20
-135.8793890719329
 30
0.0
 10
108.5415228678299
 20
-135.8793890719329
 30
0.0
 10
108.5415228678299
 20
-135.687152743856
 30
0.0
 10
108.5415228678299
 20
-135.687152743856
 30
0.0
 10
108.7403048773288
 20
-135.6396104261595
 30
0.0
 10
108.769932698502
 20
-135.5293673706315
 30
0.0
 10
108.769932698502
 20
-135.4494411553738
 30
0.0
 10
108.769932698502
 20
-135.328173794293
 30
0.0
 10
108.6703694389782
 20
-135.1965711467564
 30
0.0
 10
108.4378254937239
 20
-135.1965711467564
 30
0.0
 10
108.1818548991698
 20
-135.1965711467564
 30
0.0
 10
108.1119194608193
 20
-135.3522894626897
 30
0.0
 10
108.1119194608193
 20
-135.4563313463443
 30
0.0
 10
108.1119194608193
 20
-135.4838921102263
 30
0.0
 10
108.1119194608193
 20
-135.6065375095012
 30
0.0
 10
108.2411105415161
 20
-135.6837076483708
 30
0.0
 10
108.2411105415161
 20
-135.6837076483708
 30
0.0
 10
108.2221625163472
 20
-135.8352918497217
 30
0.0
 10
108.2221625163472
 20
-135.8352918497217
 30
0.0
 10
108.2221625163472
 20
-135.8352918497217
 30
0.0
 10
107.3757025556214
 20
-135.7312499660672
 30
0.0
 10
107.3757025556214
 20
-135.7312499660672
 30
0.0
 10
107.3757025556214
 20
-135.7312499660672
 30
0.0
 10
107.3757025556214
 20
-135.0573892891523
 30
0.0
 10
107.3757025556214
 20
-135.0573892891523
 30
0.0
 10
107.3757025556214
 20
-135.0573892891523
 30
0.0
 10
107.570350450538
 20
-135.0573892891523
 30
0.0
 10
107.570350450538
 20
-135.0573892891523
 30
0.0
 10
107.570350450538
 20
-135.0573892891523
 30
0.0
 10
107.570350450538
 20
-135.590001051172
 30
0.0
 10
107.570350450538
 20
-135.590001051172
 30
0.0
 10
107.570350450538
 20
-135.590001051172
 30
0.0
 10
107.9934081761266
 20
-135.64650061713
 30
0.0
 10
107.9934081761266
 20
-135.64650061713
 30
0.0
 10
107.9596462403712
 20
-135.5934461466572
 30
0.0
 10
107.9193386231938
 20
-135.5224771796611
 30
0.0
 10
107.9193386231938
 20
-135.4198133342006
 30
0.0
 10
107.9193386231938
 20
-135.2000162422417
 30
0.0
 10
108.1057182889458
 20
-134.9953775704178
 30
0.0
 10
108.418877468555
 20
-134.9953775704178
 30
0.0
 10
108.7361707627465
 20
-134.9953775704178
 30
0.0
 10
108.970781765292
 20
-135.1889919366889
 30
0.0
 10
108.970781765292
 20
-135.4508191935679
 30
0.0
  0
HATCH
  5
78
330
69
100
AcDbEntity
  8
_U+30EC_U+30A4_U+30E4_U+30FC 1
 62
   179
420
  2234388
100
AcDbHatch
 10
0.0
 20
0.0
 30
0.0
210
0.0
220
0.0
230
1.0
  2
SOLID
 70
     1
 71
     0
 91
        1
 92
        1
 93
        1
 72
     4
 94
        3
 73
     0
 74
     1
 95
       53
 96
       49
 40
0.0
 40
0.0
 40
0.0
 40
0.0
 40
1.0
 40
1.0
 40
1.0
 40
2.0
 40
2.0
 40
2.0
 40
3.0
 40
3.0
 40
3.0
 40
4.0
 40
4.0
 40
4.0
 40
5.0
 40
5.0
 40
5.0
 40
6.0
 40
6.0
 40
6.0
 40
7.0
 40
7.0
 40
7.0
 40
8.0
 40
8.0
 40
8.0
 40
9.0
 40
9.0
 40
9.0
 40
10.0
 40
10.0
 40
10.0
 40
11.0
 40
11.0
 40
11.0
 40
12.0
 40
12.0
 40
12.0
 40
13.0
 40
13.0
 40
13.0
 40
14.0
 40
14.0
 40
14.0
 40
15.0
 40
15.0
 40
15.0
 40
16.0
 40
16.0
 40
16.0
 40
16.0
 10
108.970781765292
 20
-135.4508191935679
 10
108.970781765292
 20
-135.5183430650788
 10
108.9539007974143
 20
-135.6065375095012
 10
108.8905110404857
 20
-135.6940429348265
 10
108.7806124945062
 20
-135.8442490979834
 10
108.6493543565182
 20
-135.8628526136037
 10
108.5415228678299
 20
-135.8793890719329
 10
108.5415228678299
 20
-135.8793890719329
 10
108.5415228678299
 20
-135.687152743856
 10
108.5415228678299
 20
-135.687152743856
 10
108.7403048773288
 20
-135.6396104261595
 10
108.769932698502
 20
-135.5293673706315
 10
108.769932698502
 20
-135.4494411553738
 10
108.769932698502
 20
-135.328173794293
 10
108.6703694389782
 20
-135.1965711467564
 10
108.4378254937239
 20
-135.1965711467564
 10
108.1818548991698
 20
-135.1965711467564
 10
108.1119194608193
 20
-135.3522894626897
 10
108.1119194608193
 20
-135.4563313463443
 10
108.1119194608193
 20
-135.4838921102263
 10
108.1119194608193
 20
-135.6065375095012
 10
108.2411105415161
 20
-135.6837076483708
 10
108.2411105415161
 20
-135.6837076483708
 10
108.2221625163472
 20
-135.8352918497217
 10
108.2221625163472
 20
-135.8352918497217
 10
108.2221625163472
 20
-135.8352918497217
 10
107.3757025556214
 20
-135.7312499660672
 10
107.3757025556214
 20
-135.7312499660672
 10
107.3757025556214
 20
-135.7312499660672
 10
107.3757025556214
 20
-135.0573892891523
 10
107.3757025556214
 20
-135.0573892891523
 10
107.3757025556214
 20
-135.0573892891523
 10
107.570350450538
 20
-135.0573892891523
 10
107.570350450538
 20
-135.0573892891523
 10
107.570350450538
 20
-135.0573892891523
 10
107.570350450538
 20
-135.590001051172
 10
107.570350450538
 20
-135.590001051172
 10
107.570350450538
 20
-135.590001051172
 10
107.9934081761266
 20
-135.64650061713
 10
107.9934081761266
 20
-135.64650061713
 10
107.9596462403712
 20
-135.5934461466572
 10
107.9193386231938
 20
-135.5224771796611
 10
107.9193386231938
 20
-135.4198133342006
 10
107.9193386231938
 20
-135.2000162422417
 10
108.1057182889458
 20
-134.9953775704178
 10
108.418877468555
 20
-134.9953775704178
 10
108.7361707627465
 20
-134.9953775704178
 10
108.970781765292
 20
-135.1889919366889
 10
108.970781765292
 20
-135.4508191935679
 97
        0
 97
        0
 75
     2
 76
     1
 98
        0
  0
ENDBLK
  5
6C
330
69
100
AcDbEntity
  8
0
100
AcDbBlockEnd
  0
BLOCK
  5
87
330
85
100
AcDbEntity
  8
0
100
AcDbBlockBegin
  2
block 3
 70
     0
 10
0.0
 20
0.0
 30
0.0
  3
block 3
  1

  0
SPLINE
  5
89
330
85
100
AcDbEntity
  8
_U+30EC_U+30A4_U+30E4_U+30FC 1
370
     0
100
AcDbSpline
210
0.0
220
0.0
230
1.0
 70
    11
 71
     3
 72
    62
 73
    58
 74
     0
 42
0.0000000001
 43
0.0000000001
 12
1.0
 22
0.0
 32
0.0
 13
1.0
 23
0.0
 33
0.0
 40
0.0
 40
0.0
 40
0.0
 40
0.0
 40
1.0
 40
1.0
 40
1.0
 40
2.0
 40
2.0
 40
2.0
 40
3.0
 40
3.0
 40
3.0
 40
4.0
 40
4.0
 40
4.0
 40
5.0
 40
5.0
 40
5.0
 40
6.0
 40
6.0
 40
6.0
 40
7.0
 40
7.0
 40
7.0
 40
8.0
 40
8.0
 40
8.0
 40
9.0
 40
9.0
 40
9.0
 40
10.0
 40
10.0
 40
10.0
 40
11.0
 40
11.0
 40
11.0
 40
12.0
 40
12.0
 40
12.0
 40
13.0
 40
13.0
 40
13.0
 40
14.0
 40
14.0
 40
14.0
 40
15.0
 40
15.0
 40
15.0
 40
16.0
 40
16.0
 40
16.0
 40
17.0
 40
17.0
 40
17.0
 40
18.0
 40
18.0
 40
18.0
 40
19.0
 40
19.0
 40
19.0
 40
19.0
 10
91.1765190744281
 20
-144.3935980541794
 30
0.0
 10
91.09418129233063
 20
-144.3935980541794
 30
0.0
 10
90.90539005973893
 20
-144.3729274812679
 30
0.0
 10
90.79755857105062
 20
-144.1868923250644
 30
0.0
 10
90.73347979502496
 20
-144.0745822122452
 30
0.0
 10
90.72969018999119
 20
-143.9753634622701
 30
0.0
 10
90.72624509450594
 20
-143.8906141133329
 30
0.0
 10
90.72624509450594
 20
-143.8906141133329
 30
0.0
 10
90.91641436529173
 20
-143.8906141133329
 30
0.0
 10
90.91641436529173
 20
-143.8906141133329
 30
0.0
 10
90.91848142258289
 20
-143.9643391567172
 30
0.0
 10
90.92743867084454
 20
-144.1992946688113
 30
0.0
 10
91.17272946939433
 20
-144.1992946688113
 30
0.0
 10
91.29158526363544
 20
-144.1992946688113
 30
0.0
 10
91.4235324207205
 20
-144.1297037400092
 30
0.0
 10
91.4235324207205
 20
-143.9009493997887
 30
0.0
 10
91.4235324207205
 20
-143.7845051723872
 30
0.0
 10
91.39045950406211
 20
-143.7362738355937
 30
0.0
 10
91.36289874018011
 20
-143.7045789571294
 30
0.0
 10
91.29916447370299
 20
-143.630164894648
 30
0.0
 10
91.19822317598518
 20
-143.6177625509011
 30
0.0
 10
91.15068085828872
 20
-143.6177625509011
 30
0.0
 10
91.13414439995952
 20
-143.6177625509011
 30
0.0
 10
91.10313854059227
 20
-143.6198296081923
 30
0.0
 10
91.07936738174405
 20
-143.6239637227746
 30
0.0
 10
91.07936738174405
 20
-143.6239637227746
 30
0.0
 10
91.07936738174405
 20
-143.4289713183094
 30
0.0
 10
91.07936738174405
 20
-143.4289713183094
 30
0.0
 10
91.11244029840245
 20
-143.4358615092799
 30
0.0
 10
91.14895831054609
 20
-143.4379285665711
 30
0.0
 10
91.1544704633225
 20
-143.4379285665711
 30
0.0
 10
91.21131453882911
 20
-143.4379285665711
 30
0.0
 10
91.38322480354309
 20
-143.4165689745625
 30
0.0
 10
91.38322480354309
 20
-143.1795464051773
 30
0.0
 10
91.38322480354309
 20
-143.0017794781384
 30
0.0
 10
91.26988116207836
 20
-142.9466579503745
 30
0.0
 10
91.17445201713694
 20
-142.9466579503745
 30
0.0
 10
90.94569767691635
 20
-142.9466579503745
 30
0.0
 10
90.93846297639733
 20
-143.1795464051773
 30
0.0
 10
90.93467337136356
 20
-143.2512043912705
 30
0.0
 10
90.93467337136356
 20
-143.2512043912705
 30
0.0
 10
90.75897350161581
 20
-143.2512043912705
 30
0.0
 10
90.75897350161581
 20
-143.2512043912705
 30
0.0
 10
90.76655271168336
 20
-143.1264919347045
 30
0.0
 10
90.7903238705316
 20
-142.7502875077152
 30
0.0
 10
91.18547632268975
 20
-142.7502875077152
 30
0.0
 10
91.37943519850931
 20
-142.7502875077152
 30
0.0
 10
91.58820798491546
 20
-142.8770670215724
 30
0.0
 10
91.58820798491546
 20
-143.1733452333039
 30
0.0
 10
91.58820798491546
 20
-143.3593803895074
 30
0.0
 10
91.50587020281799
 20
-143.4420626811534
 30
0.0
 10
91.41974281568673
 20
-143.5033853807908
 30
0.0
 10
91.47279728615958
 20
-143.5309461446728
 30
0.0
 10
91.6302381498355
 20
-143.6108723599306
 30
0.0
 10
91.6302381498355
 20
-143.8885470560417
 30
0.0
 10
91.6302381498355
 20
-144.2268554326933
 30
0.0
 10
91.41629772020148
 20
-144.3935980541794
 30
0.0
 10
91.1765190744281
 20
-144.3935980541794
 30
0.0
  0
HATCH
  5
8A
330
85
100
AcDbEntity
  8
_U+30EC_U+30A4_U+30E4_U+30FC 1
 62
   179
420
  2234388
100
AcDbHatch
 10
0.0
 20
0.0
 30
0.0
210
0.0
220
0.0
230
1.0
  2
SOLID
 70
     1
 71
     0
 91
        1
 92
        1
 93
        1
 72
     4
 94
        3
 73
     0
 74
     1
 95
       62
 96
       58
 40
0.0
 40
0.0
 40
0.0
 40
0.0
 40
1.0
 40
1.0
 40
1.0
 40
2.0
 40
2.0
 40
2.0
 40
3.0
 40
3.0
 40
3.0
 40
4.0
 40
4.0
 40
4.0
 40
5.0
 40
5.0
 40
5.0
 40
6.0
 40
6.0
 40
6.0
 40
7.0
 40
7.0
 40
7.0
 40
8.0
 40
8.0
 40
8.0
 40
9.0
 40
9.0
 40
9.0
 40
10.0
 40
10.0
 40
10.0
 40
11.0
 40
11.0
 40
11.0
 40
12.0
 40
12.0
 40
12.0
 40
13.0
 40
13.0
 40
13.0
 40
14.0
 40
14.0
 40
14.0
 40
15.0
 40
15.0
 40
15.0
 40
16.0
 40
16.0
 40
16.0
 40
17.0
 40
17.0
 40
17.0
 40
18.0
 40
18.0
 40
18.0
 40
19.0
 40
19.0
 40
19.0
 40
19.0
 10
91.1765190744281
 20
-144.3935980541794
 10
91.09418129233063
 20
-144.3935980541794
 10
90.90539005973893
 20
-144.3729274812679
 10
90.79755857105062
 20
-144.1868923250644
 10
90.73347979502496
 20
-144.0745822122452
 10
90.72969018999119
 20
-143.9753634622701
 10
90.72624509450594
 20
-143.8906141133329
 10
90.72624509450594
 20
-143.8906141133329
 10
90.91641436529173
 20
-143.8906141133329
 10
90.91641436529173
 20
-143.8906141133329
 10
90.91848142258289
 20
-143.9643391567172
 10
90.92743867084454
 20
-144.1992946688113
 10
91.17272946939433
 20
-144.1992946688113
 10
91.29158526363544
 20
-144.1992946688113
 10
91.4235324207205
 20
-144.1297037400092
 10
91.4235324207205
 20
-143.9009493997887
 10
91.4235324207205
 20
-143.7845051723872
 10
91.39045950406211
 20
-143.7362738355937
 10
91.36289874018011
 20
-143.7045789571294
 10
91.29916447370299
 20
-143.630164894648
 10
91.19822317598518
 20
-143.6177625509011
 10
91.15068085828872
 20
-143.6177625509011
 10
91.13414439995952
 20
-143.6177625509011
 10
91.10313854059227
 20
-143.6198296081923
 10
91.07936738174405
 20
-143.6239637227746
 10
91.07936738174405
 20
-143.6239637227746
 10
91.07936738174405
 20
-143.4289713183094
 10
91.07936738174405
 20
-143.4289713183094
 10
91.11244029840245
 20
-143.4358615092799
 10
91.14895831054609
 20
-143.4379285665711
 10
91.1544704633225
 20
-143.4379285665711
 10
91.21131453882911
 20
-143.4379285665711
 10
91.38322480354309
 20
-143.4165689745625
 10
91.38322480354309
 20
-143.1795464051773
 10
91.38322480354309
 20
-143.0017794781384
 10
91.26988116207836
 20
-142.9466579503745
 10
91.17445201713694
 20
-142.9466579503745
 10
90.94569767691635
 20
-142.9466579503745
 10
90.93846297639733
 20
-143.1795464051773
 10
90.93467337136356
 20
-143.2512043912705
 10
90.93467337136356
 20
-143.2512043912705
 10
90.75897350161581
 20
-143.2512043912705
 10
90.75897350161581
 20
-143.2512043912705
 10
90.76655271168336
 20
-143.1264919347045
 10
90.7903238705316
 20
-142.7502875077152
 10
91.18547632268975
 20
-142.7502875077152
 10
91.37943519850931
 20
-142.7502875077152
 10
91.58820798491546
 20
-142.8770670215724
 10
91.58820798491546
 20
-143.1733452333039
 10
91.58820798491546
 20
-143.3593803895074
 10
91.50587020281799
 20
-143.4420626811534
 10
91.41974281568673
 20
-143.5033853807908
 10
91.47279728615958
 20
-143.5309461446728
 10
91.6302381498355
 20
-143.6108723599306
 10
91.6302381498355
 20
-143.8885470560417
 10
91.6302381498355
 20
-144.2268554326933
 10
91.41629772020148
 20
-144.3935980541794
 10
91.1765190744281
 20
-144.3935980541794
 97
        0
 97
        0
 75
     2
 76
     1
 98
        0
  0
SPLINE
  5
8B
330
85
100
AcDbEntity
  8
_U+30EC_U+30A4_U+30E4_U+30FC 1
370
     0
100
AcDbSpline
210
0.0
220
0.0
230
1.0
 70
    11
 71
     3
 72
    29
 73
    25
 74
     0
 42
0.0000000001
 43
0.0000000001
 12
1.0
 22
0.0
 32
0.0
 13
1.0
 23
0.0
 33
0.0
 40
0.0
 40
0.0
 40
0.0
 40
0.0
 40
1.0
 40
1.0
 40
1.0
 40
2.0
 40
2.0
 40
2.0
 40
3.0
 40
3.0
 40
3.0
 40
4.0
 40
4.0
 40
4.0
 40
5.0
 40
5.0
 40
5.0
 40
6.0
 40
6.0
 40
6.0
 40
7.0
 40
7.0
 40
7.0
 40
8.0
 40
8.0
 40
8.0
 40
8.0
 10
92.54525551071785
 20
-144.1655327330558
 30
0.0
 10
92.45189342306759
 20
-144.374994538559
 30
0.0
 10
92.3016872599107
 20
-144.3935980541794
 30
0.0
 10
92.2010904717414
 20
-144.3935980541794
 30
0.0
 10
92.06190861413731
 20
-144.3935980541794
 30
0.0
 10
91.93926321486241
 20
-144.347433774677
 30
0.0
 10
91.85692543276494
 20
-144.1655327330558
 30
0.0
 10
91.76735295014845
 20
-143.9705403285907
 30
0.0
 10
91.75081649181925
 20
-143.7335177592055
 30
0.0
 10
91.75081649181925
 20
-143.5709092523017
 30
0.0
 10
91.75081649181925
 20
-143.4269042610183
 30
0.0
 10
91.76528589285729
 20
-143.175412290595
 30
0.0
 10
91.85692543276494
 20
-142.9762857715476
 30
0.0
 10
91.95028752041522
 20
-142.7737141570149
 30
0.0
 10
92.0894693780193
 20
-142.7502875077152
 30
0.0
 10
92.2010904717414
 20
-142.7502875077152
 30
0.0
 10
92.33820527205434
 20
-142.7502875077152
 30
0.0
 10
92.46291772862038
 20
-142.7943847299264
 30
0.0
 10
92.54525551071785
 20
-142.9762857715476
 30
0.0
 10
92.63103838830058
 20
-143.1692111187216
 30
0.0
 10
92.65136445166355
 20
-143.3972764398451
 30
0.0
 10
92.65136445166355
 20
-143.5709092523017
 30
0.0
 10
92.65136445166355
 20
-143.7424750074672
 30
0.0
 10
92.63310544559172
 20
-143.9726073858818
 30
0.0
 10
92.54525551071785
 20
-144.1655327330558
 30
0.0
  0
SPLINE
  5
8C
330
85
100
AcDbEntity
  8
_U+30EC_U+30A4_U+30E4_U+30FC 1
370
     0
100
AcDbSpline
210
0.0
220
0.0
230
1.0
 70
    11
 71
     3
 72
    17
 73
    13
 74
     0
 42
0.0000000001
 43
0.0000000001
 12
1.0
 22
0.0
 32
0.0
 13
1.0
 23
0.0
 33
0.0
 40
0.0
 40
0.0
 40
0.0
 40
0.0
 40
1.0
 40
1.0
 40
1.0
 40
2.0
 40
2.0
 40
2.0
 40
3.0
 40
3.0
 40
3.0
 40
4.0
 40
4.0
 40
4.0
 40
4.0
 10
92.2010904717414
 20
-142.9425238357921
 30
0.0
 10
91.98508298481623
 20
-142.9425238357921
 30
0.0
 10
91.94477536763881
 20
-143.2263997037767
 30
0.0
 10
91.94477536763881
 20
-143.5709092523017
 30
0.0
 10
91.94477536763881
 20
-143.8906141133329
 30
0.0
 10
91.97578122700605
 20
-144.1992946688113
 30
0.0
 10
92.2010904717414
 20
-144.1992946688113
 30
0.0
 10
92.41503090137542
 20
-144.1992946688113
 30
0.0
 10
92.45740557584399
 20
-143.9181748772149
 30
0.0
 10
92.45740557584399
 20
-143.5709092523017
 30
0.0
 10
92.45740557584399
 20
-143.2512043912705
 30
0.0
 10
92.4243326591856
 20
-142.9425238357921
 30
0.0
 10
92.2010904717414
 20
-142.9425238357921
 30
0.0
  0
HATCH
  5
8D
330
85
100
AcDbEntity
  8
_U+30EC_U+30A4_U+30E4_U+30FC 1
 62
   179
420
  2234388
100
AcDbHatch
 10
0.0
 20
0.0
 30
0.0
210
0.0
220
0.0
230
1.0
  2
SOLID
 70
     1
 71
     0
 91
        2
 92
        1
 93
        1
 72
     4
 94
        3
 73
     0
 74
     1
 95
       29
 96
       25
 40
0.0
 40
0.0
 40
0.0
 40
0.0
 40
1.0
 40
1.0
 40
1.0
 40
2.0
 40
2.0
 40
2.0
 40
3.0
 40
3.0
 40
3.0
 40
4.0
 40
4.0
 40
4.0
 40
5.0
 40
5.0
 40
5.0
 40
6.0
 40
6.0
 40
6.0
 40
7.0
 40
7.0
 40
7.0
 40
8.0
 40
8.0
 40
8.0
 40
8.0
 10
92.54525551071785
 20
-144.1655327330558
 10
92.45189342306759
 20
-144.374994538559
 10
92.3016872599107
 20
-144.3935980541794
 10
92.2010904717414
 20
-144.3935980541794
 10
92.06190861413731
 20
-144.3935980541794
 10
91.93926321486241
 20
-144.347433774677
 10
91.85692543276494
 20
-144.1655327330558
 10
91.76735295014845
 20
-143.9705403285907
 10
91.75081649181925
 20
-143.7335177592055
 10
91.75081649181925
 20
-143.5709092523017
 10
91.75081649181925
 20
-143.4269042610183
 10
91.76528589285729
 20
-143.175412290595
 10
91.85692543276494
 20
-142.9762857715476
 10
91.95028752041522
 20
-142.7737141570149
 10
92.0894693780193
 20
-142.7502875077152
 10
92.2010904717414
 20
-142.7502875077152
 10
92.33820527205434
 20
-142.7502875077152
 10
92.46291772862038
 20
-142.7943847299264
 10
92.54525551071785
 20
-142.9762857715476
 10
92.63103838830058
 20
-143.1692111187216
 10
92.65136445166355
 20
-143.3972764398451
 10
92.65136445166355
 20
-143.5709092523017
 10
92.65136445166355
 20
-143.7424750074672
 10
92.63310544559172
 20
-143.9726073858818
 10
92.54525551071785
 20
-144.1655327330558
 97
        0
 97
        0
 92
        1
 93
        1
 72
     4
 94
        3
 73
     0
 74
     1
 95
       17
 96
       13
 40
0.0
 40
0.0
 40
0.0
 40
0.0
 40
1.0
 40
1.0
 40
1.0
 40
2.0
 40
2.0
 40
2.0
 40
3.0
 40
3.0
 40
3.0
 40
4.0
 40
4.0
 40
4.0
 40
4.0
 10
92.2010904717414
 20
-142.9425238357921
 10
91.98508298481623
 20
-142.9425238357921
 10
91.94477536763881
 20
-143.2263997037767
 10
91.94477536763881
 20
-143.5709092523017
 10
91.94477536763881
 20
-143.8906141133329
 10
91.97578122700605
 20
-144.1992946688113
 10
92.2010904717414
 20
-144.1992946688113
 10
92.41503090137542
 20
-144.1992946688113
 10
92.45740557584399
 20
-143.9181748772149
 10
92.45740557584399
 20
-143.5709092523017
 10
92.45740557584399
 20
-143.2512043912705
 10
92.4243326591856
 20
-142.9425238357921
 10
92.2010904717414
 20
-142.9425238357921
 97
        0
 97
        0
 75
     2
 76
     1
 98
        0
  0
ENDBLK
  5
88
330
85
100
AcDbEntity
  8
0
100
AcDbBlockEnd
  0
BLOCK
  5
9C
330
9A
100
AcDbEntity
  8
0
100
AcDbBlockBegin
  2
block 4
 70
     0
 10
0.0
 20
0.0
 30
0.0
  3
block 4
  1

  0
SPLINE
  5
9E
330
9A
100
AcDbEntity
  8
_U+30EC_U+30A4_U+30E4_U+30FC 1
370
     0
100
AcDbSpline
210
0.0
220
0.0
230
1.0
 70
    11
 71
     3
 72
    62
 73
    58
 74
     0
 42
0.0000000001
 43
0.0000000001
 12
1.0
 22
0.0
 32
0.0
 13
1.0
 23
0.0
 33
0.0
 40
0.0
 40
0.0
 40
0.0
 40
0.0
 40
1.0
 40
1.0
 40
1.0
 40
2.0
 40
2.0
 40
2.0
 40
3.0
 40
3.0
 40
3.0
 40
4.0
 40
4.0
 40
4.0
 40
5.0
 40
5.0
 40
5.0
 40
6.0
 40
6.0
 40
6.0
 40
7.0
 40
7.0
 40
7.0
 40
8.0
 40
8.0
 40
8.0
 40
9.0
 40
9.0
 40
9.0
 40
10.0
 40
10.0
 40
10.0
 40
11.0
 40
11.0
 40
11.0
 40
12.0
 40
12.0
 40
12.0
 40
13.0
 40
13.0
 40
13.0
 40
14.0
 40
14.0
 40
14.0
 40
15.0
 40
15.0
 40
15.0
 40
16.0
 40
16.0
 40
16.0
 40
17.0
 40
17.0
 40
17.0
 40
18.0
 40
18.0
 40
18.0
 40
19.0
 40
19.0
 40
19.0
 40
19.0
 10
73.70178898982108
 20
-126.6901136293518
 30
0.0
 10
73.70178898982108
 20
-126.7724514114493
 30
0.0
 10
73.6806016525868
 20
-126.961242644041
 30
0.0
 10
73.49439424160904
 20
-127.0690741327293
 30
0.0
 10
73.38225638356415
 20
-127.1331529087549
 30
0.0
 10
73.2828653788147
 20
-127.1369425137887
 30
0.0
 10
73.19828828465182
 20
-127.1403876092739
 30
0.0
 10
73.19828828465182
 20
-127.1403876092739
 30
0.0
 10
73.19828828465182
 20
-126.9502183384881
 30
0.0
 10
73.19828828465182
 20
-126.9502183384881
 30
0.0
 10
73.27235783758469
 20
-126.948151281197
 30
0.0
 10
73.50714109490447
 20
-126.9391940329353
 30
0.0
 10
73.50714109490447
 20
-126.6939032343856
 30
0.0
 10
73.50714109490447
 20
-126.5750474401444
 30
0.0
 10
73.43737791132816
 20
-126.4431002830594
 30
0.0
 10
73.20879582588184
 20
-126.4431002830594
 30
0.0
 10
73.09252385325465
 20
-126.4431002830594
 30
0.0
 10
73.04377575213836
 20
-126.4761731997178
 30
0.0
 10
73.01208087367407
 20
-126.5033894540512
 30
0.0
 10
72.9380113207412
 20
-126.5674682300769
 30
0.0
 10
72.92543672222003
 20
-126.6684095277947
 30
0.0
 10
72.92543672222003
 20
-126.7159518454912
 30
0.0
 10
72.92543672222003
 20
-126.7324883038204
 30
0.0
 10
72.92750377951118
 20
-126.7634941631876
 30
0.0
 10
72.93163789409348
 20
-126.7872653220358
 30
0.0
 10
72.93163789409348
 20
-126.7872653220358
 30
0.0
 10
72.73698999917687
 20
-126.7872653220358
 30
0.0
 10
72.73698999917687
 20
-126.7872653220358
 30
0.0
 10
72.74336342582458
 20
-126.7541924053774
 30
0.0
 10
72.74560273789
 20
-126.7176743932338
 30
0.0
 10
72.74560273789
 20
-126.7121622404574
 30
0.0
 10
72.74560273789
 20
-126.6553181649508
 30
0.0
 10
72.7244154006557
 20
-126.4834079002368
 30
0.0
 10
72.48739283127051
 20
-126.4834079002368
 30
0.0
 10
72.3097981590059
 20
-126.4834079002368
 30
0.0
 10
72.25467663124189
 20
-126.5967515417015
 30
0.0
 10
72.25467663124189
 20
-126.6921806866429
 30
0.0
 10
72.25467663124189
 20
-126.9209350268635
 30
0.0
 10
72.48739283127051
 20
-126.9281697273826
 30
0.0
 10
72.55939532691224
 20
-126.9319593324163
 30
0.0
 10
72.55939532691224
 20
-126.9319593324163
 30
0.0
 10
72.55939532691224
 20
-127.1076592021641
 30
0.0
 10
72.55939532691224
 20
-127.1076592021641
 30
0.0
 10
72.43451061557194
 20
-127.1000799920965
 30
0.0
 10
72.05796167903412
 20
-127.0763088332483
 30
0.0
 10
72.05796167903412
 20
-126.6811563810901
 30
0.0
 10
72.05796167903412
 20
-126.4871975052706
 30
0.0
 10
72.18491344766558
 20
-126.2784247188644
 30
0.0
 10
72.4810194046228
 20
-126.2784247188644
 30
0.0
 10
72.66722681560056
 20
-126.2784247188644
 30
0.0
 10
72.7497368524723
 20
-126.3607625009619
 30
0.0
 10
72.81105955210974
 20
-126.4468898880931
 30
0.0
 10
72.83862031599173
 20
-126.3938354176203
 30
0.0
 10
72.91906329557231
 20
-126.2363945539444
 30
0.0
 10
73.19622122736067
 20
-126.2363945539444
 30
0.0
 10
73.53470185878646
 20
-126.2363945539444
 30
0.0
 10
73.70178898982108
 20
-126.4503349835784
 30
0.0
 10
73.70178898982108
 20
-126.6901136293518
 30
0.0
  0
HATCH
  5
9F
330
9A
100
AcDbEntity
  8
_U+30EC_U+30A4_U+30E4_U+30FC 1
 62
   179
420
  2234388
100
AcDbHatch
 10
0.0
 20
0.0
 30
0.0
210
0.0
220
0.0
230
1.0
  2
SOLID
 70
     1
 71
     0
 91
        1
 92
        1
 93
        1
 72
     4
 94
        3
 73
     0
 74
     1
 95
       62
 96
       58
 40
0.0
 40
0.0
 40
0.0
 40
0.0
 40
1.0
 40
1.0
 40
1.0
 40
2.0
 40
2.0
 40
2.0
 40
3.0
 40
3.0
 40
3.0
 40
4.0
 40
4.0
 40
4.0
 40
5.0
 40
5.0
 40
5.0
 40
6.0
 40
6.0
 40
6.0
 40
7.0
 40
7.0
 40
7.0
 40
8.0
 40
8.0
 40
8.0
 40
9.0
 40
9.0
 40
9.0
 40
10.0
 40
10.0
 40
10.0
 40
11.0
 40
11.0
 40
11.0
 40
12.0
 40
12.0
 40
12.0
 40
13.0
 40
13.0
 40
13.0
 40
14.0
 40
14.0
 40
14.0
 40
15.0
 40
15.0
 40
15.0
 40
16.0
 40
16.0
 40
16.0
 40
17.0
 40
17.0
 40
17.0
 40
18.0
 40
18.0
 40
18.0
 40
19.0
 40
19.0
 40
19.0
 40
19.0
 10
73.70178898982108
 20
-126.6901136293518
 10
73.70178898982108
 20
-126.7724514114493
 10
73.6806016525868
 20
-126.961242644041
 10
73.49439424160904
 20
-127.0690741327293
 10
73.38225638356415
 20
-127.1331529087549
 10
73.2828653788147
 20
-127.1369425137887
 10
73.19828828465182
 20
-127.1403876092739
 10
73.19828828465182
 20
-127.1403876092739
 10
73.19828828465182
 20
-126.9502183384881
 10
73.19828828465182
 20
-126.9502183384881
 10
73.27235783758469
 20
-126.948151281197
 10
73.50714109490447
 20
-126.9391940329353
 10
73.50714109490447
 20
-126.6939032343856
 10
73.50714109490447
 20
-126.5750474401444
 10
73.43737791132816
 20
-126.4431002830594
 10
73.20879582588184
 20
-126.4431002830594
 10
73.09252385325465
 20
-126.4431002830594
 10
73.04377575213836
 20
-126.4761731997178
 10
73.01208087367407
 20
-126.5033894540512
 10
72.9380113207412
 20
-126.5674682300769
 10
72.92543672222003
 20
-126.6684095277947
 10
72.92543672222003
 20
-126.7159518454912
 10
72.92543672222003
 20
-126.7324883038204
 10
72.92750377951118
 20
-126.7634941631876
 10
72.93163789409348
 20
-126.7872653220358
 10
72.93163789409348
 20
-126.7872653220358
 10
72.73698999917687
 20
-126.7872653220358
 10
72.73698999917687
 20
-126.7872653220358
 10
72.74336342582458
 20
-126.7541924053774
 10
72.74560273789
 20
-126.7176743932338
 10
72.74560273789
 20
-126.7121622404574
 10
72.74560273789
 20
-126.6553181649508
 10
72.7244154006557
 20
-126.4834079002368
 10
72.48739283127051
 20
-126.4834079002368
 10
72.3097981590059
 20
-126.4834079002368
 10
72.25467663124189
 20
-126.5967515417015
 10
72.25467663124189
 20
-126.6921806866429
 10
72.25467663124189
 20
-126.9209350268635
 10
72.48739283127051
 20
-126.9281697273826
 10
72.55939532691224
 20
-126.9319593324163
 10
72.55939532691224
 20
-126.9319593324163
 10
72.55939532691224
 20
-127.1076592021641
 10
72.55939532691224
 20
-127.1076592021641
 10
72.43451061557194
 20
-127.1000799920965
 10
72.05796167903412
 20
-127.0763088332483
 10
72.05796167903412
 20
-126.6811563810901
 10
72.05796167903412
 20
-126.4871975052706
 10
72.18491344766558
 20
-126.2784247188644
 10
72.4810194046228
 20
-126.2784247188644
 10
72.66722681560056
 20
-126.2784247188644
 10
72.7497368524723
 20
-126.3607625009619
 10
72.81105955210974
 20
-126.4468898880931
 10
72.83862031599173
 20
-126.3938354176203
 10
72.91906329557231
 20
-126.2363945539444
 10
73.19622122736067
 20
-126.2363945539444
 10
73.53470185878646
 20
-126.2363945539444
 10
73.70178898982108
 20
-126.4503349835784
 10
73.70178898982108
 20
-126.6901136293518
 97
        0
 97
        0
 75
     2
 76
     1
 98
        0
  0
SPLINE
  5
A0
330
9A
100
AcDbEntity
  8
_U+30EC_U+30A4_U+30E4_U+30FC 1
370
     0
100
AcDbSpline
210
0.0
220
0.0
230
1.0
 70
    11
 71
     3
 72
    29
 73
    25
 74
     0
 42
0.0000000001
 43
0.0000000001
 12
1.0
 22
0.0
 32
0.0
 13
1.0
 23
0.0
 33
0.0
 40
0.0
 40
0.0
 40
0.0
 40
0.0
 40
1.0
 40
1.0
 40
1.0
 40
2.0
 40
2.0
 40
2.0
 40
3.0
 40
3.0
 40
3.0
 40
4.0
 40
4.0
 40
4.0
 40
5.0
 40
5.0
 40
5.0
 40
6.0
 40
6.0
 40
6.0
 40
7.0
 40
7.0
 40
7.0
 40
8.0
 40
8.0
 40
8.0
 40
8.0
 10
73.47320690437476
 20
-125.321377193062
 30
0.0
 10
73.68266870987794
 20
-125.4147392807123
 30
0.0
 10
73.70178898982108
 20
-125.5649454438692
 30
0.0
 10
73.70178898982108
 20
-125.6655422320385
 30
0.0
 10
73.70178898982108
 20
-125.8047240896426
 30
0.0
 10
73.6552802007702
 20
-125.9273694889175
 30
0.0
 10
73.47320690437476
 20
-126.0097072710149
 30
0.0
 10
73.27855900945814
 20
-126.0992797536314
 30
0.0
 10
73.04170869484722
 20
-126.1158162119606
 30
0.0
 10
72.8787556783949
 20
-126.1158162119606
 30
0.0
 10
72.73492294188571
 20
-126.1158162119606
 30
0.0
 10
72.48325871668821
 20
-126.1010023013741
 30
0.0
 10
72.28430445241504
 20
-126.0097072710149
 30
0.0
 10
72.08121607355956
 20
-125.9163451833647
 30
0.0
 10
72.05796167903412
 20
-125.7771633257606
 30
0.0
 10
72.05796167903412
 20
-125.6655422320385
 30
0.0
 10
72.05796167903412
 20
-125.5284274317255
 30
0.0
 10
72.10240341079384
 20
-125.4037149751595
 30
0.0
 10
72.28430445241504
 20
-125.321377193062
 30
0.0
 10
72.4768852900405
 20
-125.2355943154793
 30
0.0
 10
72.70529512071256
 20
-125.2152682521163
 30
0.0
 10
72.8787556783949
 20
-125.2152682521163
 30
0.0
 10
73.05014917878607
 20
-125.2152682521163
 30
0.0
 10
73.28079832152355
 20
-125.2335272581881
 30
0.0
 10
73.47320690437476
 20
-125.321377193062
 30
0.0
  0
SPLINE
  5
A1
330
9A
100
AcDbEntity
  8
_U+30EC_U+30A4_U+30E4_U+30FC 1
370
     0
100
AcDbSpline
210
0.0
220
0.0
230
1.0
 70
    11
 71
     3
 72
    17
 73
    13
 74
     0
 42
0.0000000001
 43
0.0000000001
 12
1.0
 22
0.0
 32
0.0
 13
1.0
 23
0.0
 33
0.0
 40
0.0
 40
0.0
 40
0.0
 40
0.0
 40
1.0
 40
1.0
 40
1.0
 40
2.0
 40
2.0
 40
2.0
 40
3.0
 40
3.0
 40
3.0
 40
4.0
 40
4.0
 40
4.0
 40
4.0
 10
72.25054251665959
 20
-125.6655422320385
 30
0.0
 10
72.25054251665959
 20
-125.8815497189636
 30
0.0
 10
72.53407387509566
 20
-125.9218573361411
 30
0.0
 10
72.8787556783949
 20
-125.9218573361411
 30
0.0
 10
73.19828828465182
 20
-125.9218573361411
 30
0.0
 10
73.50714109490447
 20
-125.8908514767738
 30
0.0
 10
73.50714109490447
 20
-125.6655422320385
 30
0.0
 10
73.50714109490447
 20
-125.4516018024045
 30
0.0
 10
73.22567679375956
 20
-125.4092271279359
 30
0.0
 10
72.8787556783949
 20
-125.4092271279359
 30
0.0
 10
72.55939532691224
 20
-125.4092271279359
 30
0.0
 10
72.25054251665959
 20
-125.4423000445943
 30
0.0
 10
72.25054251665959
 20
-125.6655422320385
 30
0.0
  0
HATCH
  5
A2
330
9A
100
AcDbEntity
  8
_U+30EC_U+30A4_U+30E4_U+30FC 1
 62
   179
420
  2234388
100
AcDbHatch
 10
0.0
 20
0.0
 30
0.0
210
0.0
220
0.0
230
1.0
  2
SOLID
 70
     1
 71
     0
 91
        2
 92
        1
 93
        1
 72
     4
 94
        3
 73
     0
 74
     1
 95
       29
 96
       25
 40
0.0
 40
0.0
 40
0.0
 40
0.0
 40
1.0
 40
1.0
 40
1.0
 40
2.0
 40
2.0
 40
2.0
 40
3.0
 40
3.0
 40
3.0
 40
4.0
 40
4.0
 40
4.0
 40
5.0
 40
5.0
 40
5.0
 40
6.0
 40
6.0
 40
6.0
 40
7.0
 40
7.0
 40
7.0
 40
8.0
 40
8.0
 40
8.0
 40
8.0
 10
73.47320690437476
 20
-125.321377193062
 10
73.68266870987794
 20
-125.4147392807123
 10
73.70178898982108
 20
-125.5649454438692
 10
73.70178898982108
 20
-125.6655422320385
 10
73.70178898982108
 20
-125.8047240896426
 10
73.6552802007702
 20
-125.9273694889175
 10
73.47320690437476
 20
-126.0097072710149
 10
73.27855900945814
 20
-126.0992797536314
 10
73.04170869484722
 20
-126.1158162119606
 10
72.8787556783949
 20
-126.1158162119606
 10
72.73492294188571
 20
-126.1158162119606
 10
72.48325871668821
 20
-126.1010023013741
 10
72.28430445241504
 20
-126.0097072710149
 10
72.08121607355956
 20
-125.9163451833647
 10
72.05796167903412
 20
-125.7771633257606
 10
72.05796167903412
 20
-125.6655422320385
 10
72.05796167903412
 20
-125.5284274317255
 10
72.10240341079384
 20
-125.4037149751595
 10
72.28430445241504
 20
-125.321377193062
 10
72.4768852900405
 20
-125.2355943154793
 10
72.70529512071256
 20
-125.2152682521163
 10
72.8787556783949
 20
-125.2152682521163
 10
73.05014917878607
 20
-125.2152682521163
 10
73.28079832152355
 20
-125.2335272581881
 10
73.47320690437476
 20
-125.321377193062
 97
        0
 97
        0
 92
        1
 93
        1
 72
     4
 94
        3
 73
     0
 74
     1
 95
       17
 96
       13
 40
0.0
 40
0.0
 40
0.0
 40
0.0
 40
1.0
 40
1.0
 40
1.0
 40
2.0
 40
2.0
 40
2.0
 40
3.0
 40
3.0
 40
3.0
 40
4.0
 40
4.0
 40
4.0
 40
4.0
 10
72.25054251665959
 20
-125.6655422320385
 10
72.25054251665959
 20
-125.8815497189636
 10
72.53407387509566
 20
-125.9218573361411
 10
72.8787556783949
 20
-125.9218573361411
 10
73.19828828465182
 20
-125.9218573361411
 10
73.50714109490447
 20
-125.8908514767738
 10
73.50714109490447
 20
-125.6655422320385
 10
73.50714109490447
 20
-125.4516018024045
 10
73.22567679375956
 20
-125.4092271279359
 10
72.8787556783949
 20
-125.4092271279359
 10
72.55939532691224
 20
-125.4092271279359
 10
72.25054251665959
 20
-125.4423000445943
 10
72.25054251665959
 20
-125.6655422320385
 97
        0
 97
        0
 75
     2
 76
     1
 98
        0
  0
ENDBLK
  5
9D
330
9A
100
AcDbEntity
  8
0
100
AcDbBlockEnd
  0
ENDSEC
  0
SECTION
  2
ENTITIES
  0
POLYLINE
  5
41
330
1F
100
AcDbEntity
  8
_U+30EC_U+30A4_U+30E4_U+30FC 1
 62
   179
420
  2234388
370
    25
100
AcDb2dPolyline
 66
     1
 10
0.0
 20
0.0
 30
0.0
  0
VERTEX
  5
42
330
41
100
AcDbEntity
  8
_U+30EC_U+30A4_U+30E4_U+30FC 1
 62
   179
420
  2234388
370
    25
100
AcDbVertex
100
AcDb2dVertex
 10
106.9268006054034
 20
-139.4388738540291
 30
0.0
  0
VERTEX
  5
43
330
41
100
AcDbEntity
  8
_U+30EC_U+30A4_U+30E4_U+30FC 1
 62
   179
420
  2234388
370
    25
100
AcDbVertex
100
AcDb2dVertex
 10
106.9268006054034
 20
-140.9388496869872
 30
0.0
  0
SEQEND
  5
44
330
41
100
AcDbEntity
  8
_U+30EC_U+30A4_U+30E4_U+30FC 1
 62
   179
420
  2234388
370
    25
  0
POLYLINE
  5
45
330
1F
100
AcDbEntity
  8
_U+30EC_U+30A4_U+30E4_U+30FC 1
 62
   179
420
  2234388
370
    25
100
AcDb2dPolyline
 66
     1
 10
0.0
 20
0.0
 30
0.0
  0
VERTEX
  5
46
330
45
100
AcDbEntity
  8
_U+30EC_U+30A4_U+30E4_U+30FC 1
 62
   179
420
  2234388
370
    25
100
AcDbVertex
100
AcDb2dVertex
 10
76.92689664854248
 20
-110.9386274722654
 30
0.0
  0
VERTEX
  5
47
330
45
100
AcDbEntity
  8
_U+30EC_U+30A4_U+30E4_U+30FC 1
 62
   179
420
  2234388
370
    25
100
AcDbVertex
100
AcDb2dVertex
 10
76.92689664854248
 20
-140.9388496869872
 30
0.0
  0
VERTEX
  5
48
330
45
100
AcDbEntity
  8
_U+30EC_U+30A4_U+30E4_U+30FC 1
 62
   179
420
  2234388
370
    25
100
AcDbVertex
100
AcDb2dVertex
 10
106.9268006054034
 20
-140.9388496869872
 30
0.0
  0
SEQEND
  5
49
330
45
100
AcDbEntity
  8
_U+30EC_U+30A4_U+30E4_U+30FC 1
 62
   179
420
  2234388
370
    25
  0
POLYLINE
  5
4A
330
1F
100
AcDbEntity
  8
_U+30EC_U+30A4_U+30E4_U+30FC 1
 62
   179
420
  2234388
370
    25
100
AcDb2dPolyline
 66
     1
 10
0.0
 20
0.0
 30
0.0
  0
VERTEX
  5
4B
330
4A
100
AcDbEntity
  8
_U+30EC_U+30A4_U+30E4_U+30FC 1
 62
   179
420
  2234388
370
    25
100
AcDbVertex
100
AcDb2dVertex
 10
76.92689664854248
 20
-110.9386274722654
 30
0.0
  0
VERTEX
  5
4C
330
4A
100
AcDbEntity
  8
_U+30EC_U+30A4_U+30E4_U+30FC 1
 62
   179
420
  2234388
370
    25
100
AcDbVertex
100
AcDb2dVertex
 10
78.42690772138512
 20
-110.9386274722654
 30
0.0
  0
SEQEND
  5
4D
330
4A
100
AcDbEntity
  8
_U+30EC_U+30A4_U+30E4_U+30FC 1
 62
   179
420
  2234388
370
    25
  0
POLYLINE
  5
4E
330
1F
100
AcDbEntity
  8
_U+30EC_U+30A4_U+30E4_U+30FC 1
 62
   179
420
  2234388
370
    25
100
AcDb2dPolyline
 66
     1
 10
0.0
 20
0.0
 30
0.0
  0
VERTEX
  5
4F
330
4E
100
AcDbEntity
  8
_U+30EC_U+30A4_U+30E4_U+30FC 1
 62
   179
420
  2234388
370
    25
100
AcDbVertex
100
AcDb2dVertex
 10
78.42690772138512
 20
-110.9386274722654
 30
0.0
  0
VERTEX
  5
50
330
4E
100
AcDbEntity
  8
_U+30EC_U+30A4_U+30E4_U+30FC 1
 62
   179
420
  2234388
370
    25
100
AcDbVertex
100
AcDb2dVertex
 10
78.42690772138512
 20
-139.4388738540291
 30
0.0
  0
VERTEX
  5
51
330
4E
100
AcDbEntity
  8
_U+30EC_U+30A4_U+30E4_U+30FC 1
 62
   179
420
  2234388
370
    25
100
AcDbVertex
100
AcDb2dVertex
 10
106.9268006054034
 20
-139.4388738540291
 30
0.0
  0
SEQEND
  5
52
330
4E
100
AcDbEntity
  8
_U+30EC_U+30A4_U+30E4_U+30FC 1
 62
   179
420
  2234388
370
    25
  0
SPLINE
  5
53
330
1F
100
AcDbEntity
  8
_U+30EC_U+30A4_U+30E4_U+30FC 1
 62
   179
420
  2234388
370
     9
100
AcDbSpline
210
0.0
220
0.0
230
1.0
 70
    11
 71
     3
 72
    17
 73
    13
 74
     0
 42
0.0000000001
 43
0.0000000001
 12
1.0
 22
0.0
 32
0.0
 13
1.0
 23
0.0
 33
0.0
 40
0.0
 40
0.0
 40
0.0
 40
0.0
 40
1.0
 40
1.0
 40
1.0
 40
2.0
 40
2.0
 40
2.0
 40
3.0
 40
3.0
 40
3.0
 40
4.0
 40
4.0
 40
4.0
 40
4.0
 10
109.6157080368036
 20
-140.9388496869872
 30
0.0
 10
109.6157080368036
 20
-140.8837457981123
 30
0.0
 10
109.5709052601689
 20
-140.8389430203456
 30
0.0
 10
109.5158013726858
 20
-140.8389430203456
 30
0.0
 10
109.4606622074259
 20
-140.8389430203456
 30
0.0
 10
109.415894708568
 20
-140.8837457981123
 30
0.0
 10
109.415894708568
 20
-140.9388496869872
 30
0.0
 10
109.415894708568
 20
-140.9939888536403
 30
0.0
 10
109.4606622074259
 20
-141.0387563536295
 30
0.0
 10
109.5158013726858
 20
-141.0387563536295
 30
0.0
 10
109.5709052601689
 20
-141.0387563536295
 30
0.0
 10
109.6157080368036
 20
-140.9939888536403
 30
0.0
 10
109.6157080368036
 20
-140.9388496869872
 30
0.0
  0
SPLINE
  5
54
330
1F
100
AcDbEntity
  8
_U+30EC_U+30A4_U+30E4_U+30FC 1
 62
   179
420
  2234388
370
     9
100
AcDbSpline
210
0.0
220
0.0
230
1.0
 70
    11
 71
     3
 72
    17
 73
    13
 74
     0
 42
0.0000000001
 43
0.0000000001
 12
1.0
 22
0.0
 32
0.0
 13
1.0
 23
0.0
 33
0.0
 40
0.0
 40
0.0
 40
0.0
 40
0.0
 40
1.0
 40
1.0
 40
1.0
 40
2.0
 40
2.0
 40
2.0
 40
3.0
 40
3.0
 40
3.0
 40
4.0
 40
4.0
 40
4.0
 40
4.0
 10
107.0267072695212
 20
-144.9386088526541
 30
0.0
 10
107.0267072695212
 20
-144.8835049637792
 30
0.0
 10
106.9819397706633
 20
-144.8387021860125
 30
0.0
 10
106.9268006054034
 20
-144.8387021860125
 30
0.0
 10
106.8716967179203
 20
-144.8387021860125
 30
0.0
 10
106.8268939412855
 20
-144.8835049637792
 30
0.0
 10
106.8268939412855
 20
-144.9386088526541
 30
0.0
 10
106.8268939412855
 20
-144.9944182970845
 30
0.0
 10
106.8716967179203
 20
-145.0385155192957
 30
0.0
 10
106.9268006054034
 20
-145.0385155192957
 30
0.0
 10
106.9819397706633
 20
-145.0385155192957
 30
0.0
 10
107.0267072695212
 20
-144.9944182970845
 30
0.0
 10
107.0267072695212
 20
-144.9386088526541
 30
0.0
  0
SPLINE
  5
55
330
1F
100
AcDbEntity
  8
_U+30EC_U+30A4_U+30E4_U+30FC 1
 62
   179
420
  2234388
370
     9
100
AcDbSpline
210
0.0
220
0.0
230
1.0
 70
    11
 71
     3
 72
    17
 73
    13
 74
     0
 42
0.0000000001
 43
0.0000000001
 12
1.0
 22
0.0
 32
0.0
 13
1.0
 23
0.0
 33
0.0
 40
0.0
 40
0.0
 40
0.0
 40
0.0
 40
1.0
 40
1.0
 40
1.0
 40
2.0
 40
2.0
 40
2.0
 40
3.0
 40
3.0
 40
3.0
 40
4.0
 40
4.0
 40
4.0
 40
4.0
 10
109.6157080368036
 20
-139.4388738540291
 30
0.0
 10
109.6157080368036
 20
-139.383734687376
 30
0.0
 10
109.5709052601689
 20
-139.3389671873875
 30
0.0
 10
109.5158013726858
 20
-139.3389671873875
 30
0.0
 10
109.4606622074259
 20
-139.3389671873875
 30
0.0
 10
109.415894708568
 20
-139.383734687376
 30
0.0
 10
109.415894708568
 20
-139.4388738540291
 30
0.0
 10
109.415894708568
 20
-139.493977742904
 30
0.0
 10
109.4606622074259
 20
-139.5387805206707
 30
0.0
 10
109.5158013726858
 20
-139.5387805206707
 30
0.0
 10
109.5709052601689
 20
-139.5387805206707
 30
0.0
 10
109.6157080368036
 20
-139.493977742904
 30
0.0
 10
109.6157080368036
 20
-139.4388738540291
 30
0.0
  0
SPLINE
  5
56
330
1F
100
AcDbEntity
  8
_U+30EC_U+30A4_U+30E4_U+30FC 1
 62
   179
420
  2234388
370
     9
100
AcDbSpline
210
0.0
220
0.0
230
1.0
 70
    11
 71
     3
 72
    17
 73
    13
 74
     0
 42
0.0000000001
 43
0.0000000001
 12
1.0
 22
0.0
 32
0.0
 13
1.0
 23
0.0
 33
0.0
 40
0.0
 40
0.0
 40
0.0
 40
0.0
 40
1.0
 40
1.0
 40
1.0
 40
2.0
 40
2.0
 40
2.0
 40
3.0
 40
3.0
 40
3.0
 40
4.0
 40
4.0
 40
4.0
 40
4.0
 10
74.25178282790142
 20
-110.9386274722654
 30
0.0
 10
74.25178282790142
 20
-110.8834883056126
 30
0.0
 10
74.20701532904354
 20
-110.8387208056237
 30
0.0
 10
74.15187616378358
 20
-110.8387208056237
 30
0.0
 10
74.09677227630051
 20
-110.8387208056237
 30
0.0
 10
74.05196949966576
 20
-110.8834883056126
 30
0.0
 10
74.05196949966576
 20
-110.9386274722654
 30
0.0
 10
74.05196949966576
 20
-110.9944369166958
 30
0.0
 10
74.09677227630051
 20
-111.0390280277958
 30
0.0
 10
74.15187616378358
 20
-111.0390280277958
 30
0.0
 10
74.20701532904354
 20
-111.0390280277958
 30
0.0
 10
74.25178282790142
 20
-110.9944369166958
 30
0.0
 10
74.25178282790142
 20
-110.9386274722654
 30
0.0
  0
SPLINE
  5
57
330
1F
100
AcDbEntity
  8
_U+30EC_U+30A4_U+30E4_U+30FC 1
 62
   179
420
  2234388
370
     9
100
AcDbSpline
210
0.0
220
0.0
230
1.0
 70
    11
 71
     3
 72
    17
 73
    13
 74
     0
 42
0.0000000001
 43
0.0000000001
 12
1.0
 22
0.0
 32
0.0
 13
1.0
 23
0.0
 33
0.0
 40
0.0
 40
0.0
 40
0.0
 40
0.0
 40
1.0
 40
1.0
 40
1.0
 40
2.0
 40
2.0
 40
2.0
 40
3.0
 40
3.0
 40
3.0
 40
4.0
 40
4.0
 40
4.0
 40
4.0
 10
74.25178282790142
 20
-140.9388496869872
 30
0.0
 10
74.25178282790142
 20
-140.8837457981123
 30
0.0
 10
74.20701532904354
 20
-140.8389430203456
 30
0.0
 10
74.15187616378358
 20
-140.8389430203456
 30
0.0
 10
74.09677227630051
 20
-140.8389430203456
 30
0.0
 10
74.05196949966576
 20
-140.8837457981123
 30
0.0
 10
74.05196949966576
 20
-140.9388496869872
 30
0.0
 10
74.05196949966576
 20
-140.9939888536403
 30
0.0
 10
74.09677227630051
 20
-141.0387563536295
 30
0.0
 10
74.15187616378358
 20
-141.0387563536295
 30
0.0
 10
74.20701532904354
 20
-141.0387563536295
 30
0.0
 10
74.25178282790142
 20
-140.9939888536403
 30
0.0
 10
74.25178282790142
 20
-140.9388496869872
 30
0.0
  0
SPLINE
  5
58
330
1F
100
AcDbEntity
  8
_U+30EC_U+30A4_U+30E4_U+30FC 1
 62
   179
420
  2234388
370
     9
100
AcDbSpline
210
0.0
220
0.0
230
1.0
 70
    11
 71
     3
 72
    17
 73
    13
 74
     0
 42
0.0000000001
 43
0.0000000001
 12
1.0
 22
0.0
 32
0.0
 13
1.0
 23
0.0
 33
0.0
 40
0.0
 40
0.0
 40
0.0
 40
0.0
 40
1.0
 40
1.0
 40
1.0
 40
2.0
 40
2.0
 40
2.0
 40
3.0
 40
3.0
 40
3.0
 40
4.0
 40
4.0
 40
4.0
 40
4.0
 10
77.0268385904372
 20
-144.9386088526541
 30
0.0
 10
77.0268385904372
 20
-144.8835049637792
 30
0.0
 10
76.98203581380243
 20
-144.8387021860125
 30
0.0
 10
76.92689664854248
 20
-144.8387021860125
 30
0.0
 10
76.87143998329063
 20
-144.8387021860125
 30
0.0
 10
76.82667248443273
 20
-144.8835049637792
 30
0.0
 10
76.82667248443273
 20
-144.9386088526541
 30
0.0
 10
76.82667248443273
 20
-144.9944182970845
 30
0.0
 10
76.87143998329063
 20
-145.0385155192957
 30
0.0
 10
76.92689664854248
 20
-145.0385155192957
 30
0.0
 10
76.98203581380243
 20
-145.0385155192957
 30
0.0
 10
77.0268385904372
 20
-144.9944182970845
 30
0.0
 10
77.0268385904372
 20
-144.9386088526541
 30
0.0
  0
POLYLINE
  5
59
330
1F
100
AcDbEntity
  8
_U+30EC_U+30A4_U+30E4_U+30FC 1
 62
   179
420
  2234388
370
     9
100
AcDb2dPolyline
 66
     1
 10
0.0
 20
0.0
 30
0.0
  0
VERTEX
  5
5A
330
59
100
AcDbEntity
  8
_U+30EC_U+30A4_U+30E4_U+30FC 1
 62
   179
420
  2234388
370
     9
100
AcDbVertex
100
AcDb2dVertex
 10
109.5158013726858
 20
-139.4388738540291
 30
0.0
  0
VERTEX
  5
5B
330
59
100
AcDbEntity
  8
_U+30EC_U+30A4_U+30E4_U+30FC 1
 62
   179
420
  2234388
370
     9
100
AcDbVertex
100
AcDb2dVertex
 10
109.5158013726858
 20
-133.7723807998902
 30
0.0
  0
SEQEND
  5
5C
330
59
100
AcDbEntity
  8
_U+30EC_U+30A4_U+30E4_U+30FC 1
 62
   179
420
  2234388
370
     9
  0
POLYLINE
  5
5D
330
1F
100
AcDbEntity
  8
_U+30EC_U+30A4_U+30E4_U+30FC 1
 62
   179
420
  2234388
370
     9
100
AcDb2dPolyline
 66
     1
 10
0.0
 20
0.0
 30
0.0
  0
VERTEX
  5
5E
330
5D
100
AcDbEntity
  8
_U+30EC_U+30A4_U+30E4_U+30FC 1
 62
   179
420
  2234388
370
     9
100
AcDbVertex
100
AcDb2dVertex
 10
109.5158013726858
 20
-139.4388738540291
 30
0.0
  0
VERTEX
  5
5F
330
5D
100
AcDbEntity
  8
_U+30EC_U+30A4_U+30E4_U+30FC 1
 62
   179
420
  2234388
370
     9
100
AcDbVertex
100
AcDb2dVertex
 10
109.5158013726858
 20
-141.9386219089597
 30
0.0
  0
SEQEND
  5
60
330
5D
100
AcDbEntity
  8
_U+30EC_U+30A4_U+30E4_U+30FC 1
 62
   179
420
  2234388
370
     9
  0
POLYLINE
  5
61
330
1F
100
AcDbEntity
  8
_U+30EC_U+30A4_U+30E4_U+30FC 1
 62
   179
420
  2234388
370
     9
100
AcDb2dPolyline
 66
     1
 10
0.0
 20
0.0
 30
0.0
  0
VERTEX
  5
62
330
61
100
AcDbEntity
  8
_U+30EC_U+30A4_U+30E4_U+30FC 1
 62
   179
420
  2234388
370
     9
100
AcDbVertex
100
AcDb2dVertex
 10
108.0557600210457
 20
-139.4388738540291
 30
0.0
  0
VERTEX
  5
63
330
61
100
AcDbEntity
  8
_U+30EC_U+30A4_U+30E4_U+30FC 1
 62
   179
420
  2234388
370
     9
100
AcDbVertex
100
AcDb2dVertex
 10
110.5158910693936
 20
-139.4388738540291
 30
0.0
  0
SEQEND
  5
64
330
61
100
AcDbEntity
  8
_U+30EC_U+30A4_U+30E4_U+30FC 1
 62
   179
420
  2234388
370
     9
  0
POLYLINE
  5
65
330
1F
100
AcDbEntity
  8
_U+30EC_U+30A4_U+30E4_U+30FC 1
 62
   179
420
  2234388
370
     9
100
AcDb2dPolyline
 66
     1
 10
0.0
 20
0.0
 30
0.0
  0
VERTEX
  5
66
330
65
100
AcDbEntity
  8
_U+30EC_U+30A4_U+30E4_U+30FC 1
 62
   179
420
  2234388
370
     9
100
AcDbVertex
100
AcDb2dVertex
 10
108.0557600210457
 20
-140.9388496869872
 30
0.0
  0
VERTEX
  5
67
330
65
100
AcDbEntity
  8
_U+30EC_U+30A4_U+30E4_U+30FC 1
 62
   179
420
  2234388
370
     9
100
AcDbVertex
100
AcDb2dVertex
 10
110.5158910693936
 20
-140.9388496869872
 30
0.0
  0
SEQEND
  5
68
330
65
100
AcDbEntity
  8
_U+30EC_U+30A4_U+30E4_U+30FC 1
 62
   179
420
  2234388
370
     9
  0
INSERT
  5
6A
330
1F
100
AcDbEntity
  8
_U+30EC_U+30A4_U+30E4_U+30FC 1
100
AcDbBlockReference
  2
block 2
 10
0.0
 20
0.0
 30
0.0
  0
POLYLINE
  5
79
330
1F
100
AcDbEntity
  8
_U+30EC_U+30A4_U+30E4_U+30FC 1
 62
   179
420
  2234388
370
     9
100
AcDb2dPolyline
 66
     1
 10
0.0
 20
0.0
 30
0.0
  0
VERTEX
  5
7A
330
79
100
AcDbEntity
  8
_U+30EC_U+30A4_U+30E4_U+30FC 1
 62
   179
420
  2234388
370
     9
100
AcDbVertex
100
AcDb2dVertex
 10
76.92689664854248
 20
-144.9386088526541
 30
0.0
  0
VERTEX
  5
7B
330
79
100
AcDbEntity
  8
_U+30EC_U+30A4_U+30E4_U+30FC 1
 62
   179
420
  2234388
370
     9
100
AcDbVertex
100
AcDb2dVertex
 10
106.9268006054034
 20
-144.9386088526541
 30
0.0
  0
SEQEND
  5
7C
330
79
100
AcDbEntity
  8
_U+30EC_U+30A4_U+30E4_U+30FC 1
 62
   179
420
  2234388
370
     9
  0
POLYLINE
  5
7D
330
1F
100
AcDbEntity
  8
_U+30EC_U+30A4_U+30E4_U+30FC 1
 62
   179
420
  2234388
370
     9
100
AcDb2dPolyline
 66
     1
 10
0.0
 20
0.0
 30
0.0
  0
VERTEX
  5
7E
330
7D
100
AcDbEntity
  8
_U+30EC_U+30A4_U+30E4_U+30FC 1
 62
   179
420
  2234388
370
     9
100
AcDbVertex
100
AcDb2dVertex
 10
76.92689664854248
 20
-143.4785674641304
 30
0.0
  0
VERTEX
  5
7F
330
7D
100
AcDbEntity
  8
_U+30EC_U+30A4_U+30E4_U+30FC 1
 62
   179
420
  2234388
370
     9
100
AcDbVertex
100
AcDb2dVertex
 10
76.92689664854248
 20
-145.939051352404
 30
0.0
  0
SEQEND
  5
80
330
7D
100
AcDbEntity
  8
_U+30EC_U+30A4_U+30E4_U+30FC 1
 62
   179
420
  2234388
370
     9
  0
POLYLINE
  5
81
330
1F
100
AcDbEntity
  8
_U+30EC_U+30A4_U+30E4_U+30FC 1
 62
   179
420
  2234388
370
     9
100
AcDb2dPolyline
 66
     1
 10
0.0
 20
0.0
 30
0.0
  0
VERTEX
  5
82
330
81
100
AcDbEntity
  8
_U+30EC_U+30A4_U+30E4_U+30FC 1
 62
   179
420
  2234388
370
     9
100
AcDbVertex
100
AcDb2dVertex
 10
106.9268006054034
 20
-143.4785674641304
 30
0.0
  0
VERTEX
  5
83
330
81
100
AcDbEntity
  8
_U+30EC_U+30A4_U+30E4_U+30FC 1
 62
   179
420
  2234388
370
     9
100
AcDbVertex
100
AcDb2dVertex
 10
106.9268006054034
 20
-145.939051352404
 30
0.0
  0
SEQEND
  5
84
330
81
100
AcDbEntity
  8
_U+30EC_U+30A4_U+30E4_U+30FC 1
 62
   179
420
  2234388
370
     9
  0
INSERT
  5
86
330
1F
100
AcDbEntity
  8
_U+30EC_U+30A4_U+30E4_U+30FC 1
100
AcDbBlockReference
  2
block 3
 10
0.0
 20
0.0
 30
0.0
  0
POLYLINE
  5
8E
330
1F
100
AcDbEntity
  8
_U+30EC_U+30A4_U+30E4_U+30FC 1
 62
   179
420
  2234388
370
     9
100
AcDb2dPolyline
 66
     1
 10
0.0
 20
0.0
 30
0.0
  0
VERTEX
  5
8F
330
8E
100
AcDbEntity
  8
_U+30EC_U+30A4_U+30E4_U+30FC 1
 62
   179
420
  2234388
370
     9
100
AcDbVertex
100
AcDb2dVertex
 10
74.15187616378358
 20
-110.9386274722654
 30
0.0
  0
VERTEX
  5
90
330
8E
100
AcDbEntity
  8
_U+30EC_U+30A4_U+30E4_U+30FC 1
 62
   179
420
  2234388
370
     9
100
AcDbVertex
100
AcDb2dVertex
 10
74.15187616378358
 20
-140.9388496869872
 30
0.0
  0
SEQEND
  5
91
330
8E
100
AcDbEntity
  8
_U+30EC_U+30A4_U+30E4_U+30FC 1
 62
   179
420
  2234388
370
     9
  0
POLYLINE
  5
92
330
1F
100
AcDbEntity
  8
_U+30EC_U+30A4_U+30E4_U+30FC 1
 62
   179
420
  2234388
370
     9
100
AcDb2dPolyline
 66
     1
 10
0.0
 20
0.0
 30
0.0
  0
VERTEX
  5
93
330
92
100
AcDbEntity
  8
_U+30EC_U+30A4_U+30E4_U+30FC 1
 62
   179
420
  2234388
370
     9
100
AcDbVertex
100
AcDb2dVertex
 10
75.61191942554133
 20
-110.9386274722654
 30
0.0
  0
VERTEX
  5
94
330
92
100
AcDbEntity
  8
_U+30EC_U+30A4_U+30E4_U+30FC 1
 62
   179
420
  2234388
370
     9
100
AcDbVertex
100
AcDb2dVertex
 10
73.15213924484456
 20
-110.9386274722654
 30
0.0
  0
SEQEND
  5
95
330
92
100
AcDbEntity
  8
_U+30EC_U+30A4_U+30E4_U+30FC 1
 62
   179
420
  2234388
370
     9
  0
POLYLINE
  5
96
330
1F
100
AcDbEntity
  8
_U+30EC_U+30A4_U+30E4_U+30FC 1
 62
   179
420
  2234388
370
     9
100
AcDb2dPolyline
 66
     1
 10
0.0
 20
0.0
 30
0.0
  0
VERTEX
  5
97
330
96
100
AcDbEntity
  8
_U+30EC_U+30A4_U+30E4_U+30FC 1
 62
   179
420
  2234388
370
     9
100
AcDbVertex
100
AcDb2dVertex
 10
75.61191942554133
 20
-140.9388496869872
 30
0.0
  0
VERTEX
  5
98
330
96
100
AcDbEntity
  8
_U+30EC_U+30A4_U+30E4_U+30FC 1
 62
   179
420
  2234388
370
     9
100
AcDbVertex
100
AcDb2dVertex
 10
73.15213924484456
 20
-140.9388496869872
 30
0.0
  0
SEQEND
  5
99
330
96
100
AcDbEntity
  8
_U+30EC_U+30A4_U+30E4_U+30FC 1
 62
   179
420
  2234388
370
     9
  0
INSERT
  5
9B
330
1F
100
AcDbEntity
  8
_U+30EC_U+30A4_U+30E4_U+30FC 1
100
AcDbBlockReference
  2
block 4
 10
0.0
 20
0.0
 30
0.0
  0
ENDSEC
  0
SECTION
  2
OBJECTS
  0
DICTIONARY
  5
C
330
0
100
AcDbDictionary
281
     1
  3
ACAD_GROUP
350
D
  3
ACAD_LAYOUT
350
1A
  3
ACAD_MATERIAL
350
3B
  3
ACAD_MLEADERSTYLE
350
A4
  3
ACAD_MLINESTYLE
350
17
  3
ACAD_PLOTSETTINGS
350
19
  3
ACAD_PLOTSTYLENAME
350
E
  3
ACAD_TABLESTYLE
350
A3
  3
ACAD_VISUALSTYLE
350
2A
  0
SUN
  5
3F
330
29
100
AcDbSun
 90
        1
290
     0
 63
     7
421
 16777215
 40
1.0
291
     1
 91
  2455826
 92
 54000000
292
     0
 70
     2
 71
   256
280
     1
  0
DICTIONARY
  5
D
102
{ACAD_REACTORS
330
C
102
}
330
C
100
AcDbDictionary
281
     1
  0
DICTIONARY
  5
1A
102
{ACAD_REACTORS
330
C
102
}
330
C
100
AcDbDictionary
281
     1
  3
Layout1
350
1E
  3
Layout2
350
26
  3
Model
350
22
  0
DICTIONARY
  5
3B
102
{ACAD_REACTORS
330
C
102
}
330
C
100
AcDbDictionary
281
     1
  3
ByBlock
350
3D
  3
ByLayer
350
3C
  3
Global
350
3E
  0
DICTIONARY
  5
A4
102
{ACAD_REACTORS
330
C
102
}
330
C
100
AcDbDictionary
281
     1
  0
DICTIONARY
  5
17
102
{ACAD_REACTORS
330
C
102
}
330
C
100
AcDbDictionary
281
     1
  3
Standard
350
18
  0
DICTIONARY
  5
19
102
{ACAD_REACTORS
330
C
102
}
330
C
100
AcDbDictionary
281
     1
  0
ACDBDICTIONARYWDFLT
  5
E
102
{ACAD_REACTORS
330
C
102
}
330
C
100
AcDbDictionary
281
     1
  3
Normal
350
F
100
AcDbDictionaryWithDefault
340
F
  0
DICTIONARY
  5
A3
102
{ACAD_REACTORS
330
C
102
}
330
C
100
AcDbDictionary
281
     1
  0
DICTIONARY
  5
2A
102
{ACAD_REACTORS
330
C
102
}
330
C
100
AcDbDictionary
281
     1
  3
2dWireframe
350
2F
  3
3D Hidden
350
31
  3
3dWireframe
350
30
  3
Basic
350
32
  3
Brighten
350
36
  3
ColorChange
350
3A
  3
Conceptual
350
34
  3
Dim
350
35
  3
Facepattern
350
39
  3
Flat
350
2B
  3
FlatWithEdges
350
2C
  3
Gouraud
350
2D
  3
GouraudWithEdges
350
2E
  3
Linepattern
350
38
  3
Realistic
350
33
  3
Thicken
350
37
  0
LAYOUT
  5
1E
102
{ACAD_REACTORS
330
1A
102
}
330
1A
100
AcDbPlotSettings
  1

  2
none_device
  4

  6

 40
0.0
 41
0.0
 42
0.0
 43
0.0
 44
0.0
 45
0.0
 46
0.0
 47
0.0
 48
0.0
 49
0.0
140
0.0
141
0.0
142
1.0
143
1.0
 70
   688
 72
     0
 73
     0
 74
     5
  7

 75
    16
 76
     0
 77
     2
 78
   300
147
1.0
148
0.0
149
0.0
100
AcDbLayout
  1
Layout1
 70
     1
 71
     1
 10
0.0
 20
0.0
 11
12.0
 21
9.0
 12
0.0
 22
0.0
 32
0.0
 14
1.000000000000000E+20
 24
1.000000000000000E+20
 34
1.000000000000000E+20
 15
-1.000000000000000E+20
 25
-1.000000000000000E+20
 35
-1.000000000000000E+20
146
0.0
 13
0.0
 23
0.0
 33
0.0
 16
1.0
 26
0.0
 36
0.0
 17
0.0
 27
1.0
 37
0.0
 76
     0
330
1B
  0
LAYOUT
  5
26
102
{ACAD_REACTORS
330
1A
102
}
330
1A
100
AcDbPlotSettings
  1

  2
none_device
  4

  6

 40
0.0
 41
0.0
 42
0.0
 43
0.0
 44
0.0
 45
0.0
 46
0.0
 47
0.0
 48
0.0
 49
0.0
140
0.0
141
0.0
142
1.0
143
1.0
 70
   688
 72
     0
 73
     0
 74
     5
  7

 75
    16
 76
     0
 77
     2
 78
   300
147
1.0
148
0.0
149
0.0
100
AcDbLayout
  1
Layout2
 70
     1
 71
     2
 10
0.0
 20
0.0
 11
0.0
 21
0.0
 12
0.0
 22
0.0
 32
0.0
 14
0.0
 24
0.0
 34
0.0
 15
0.0
 25
0.0
 35
0.0
146
0.0
 13
0.0
 23
0.0
 33
0.0
 16
1.0
 26
0.0
 36
0.0
 17
0.0
 27
1.0
 37
0.0
 76
     0
330
23
  0
LAYOUT
  5
22
102
{ACAD_REACTORS
330
1A
102
}
330
1A
100
AcDbPlotSettings
  1

  2
none_device
  4

  6

 40
0.0
 41
0.0
 42
0.0
 43
0.0
 44
0.0
 45
0.0
 46
0.0
 47
0.0
 48
0.0
 49
0.0
140
0.0
141
0.0
142
1.0
143
1.0
 70
  1712
 72
     0
 73
     0
 74
     0
  7

 75
     0
 76
     0
 77
     2
 78
   300
147
1.0
148
0.0
149
0.0
100
AcDbLayout
  1
Model
 70
     1
 71
     0
 10
0.0
 20
0.0
 11
12.0
 21
9.0
 12
0.0
 22
0.0
 32
0.0
 14
1.000000000000000E+20
 24
1.000000000000000E+20
 34
1.000000000000000E+20
 15
-1.000000000000000E+20
 25
-1.000000000000000E+20
 35
-1.000000000000000E+20
146
0.0
 13
0.0
 23
0.0
 33
0.0
 16
1.0
 26
0.0
 36
0.0
 17
0.0
 27
1.0
 37
0.0
 76
     0
330
1F
331
29
  0
MATERIAL
  5
3D
102
{ACAD_REACTORS
330
3B
102
}
330
3B
100
AcDbMaterial
  1
ByBlock
 72
     1
 94
      127
  0
MATERIAL
  5
3C
102
{ACAD_REACTORS
330
3B
102
}
330
3B
100
AcDbMaterial
  1
ByLayer
 72
     1
 94
      127
  0
MATERIAL
  5
3E
102
{ACAD_REACTORS
330
3B
102
}
330
3B
100
AcDbMaterial
  1
Global
 72
     1
 94
      127
  0
MLINESTYLE
  5
18
102
{ACAD_REACTORS
330
17
102
}
330
17
100
AcDbMlineStyle
  2
Standard
 70
     0
  3

 62
   256
 51
90.0
 52
90.0
 71
     2
 49
0.5
 62
   256
  6
BYLAYER
 49
-0.5
 62
   256
  6
BYLAYER
  0
ACDBPLACEHOLDER
  5
F
102
{ACAD_REACTORS
330
E
102
}
330
E
  0
VISUALSTYLE
  5
2F
102
{ACAD_REACTORS
330
2A
102
}
330
2A
100
AcDbVisualStyle
  2
2dWireframe
 70
     4
177
     2
291
     0
 71
     0
176
     1
 72
     2
176
     1
 73
     0
176
     1
 90
        0
176
     1
 40
-0.6
176
     1
 41
-30.0
176
     1
 62
     5
 63
     7
421
 16777215
176
     1
 74
     1
176
     1
 91
        4
176
     1
 64
     7
176
     1
 65
   257
176
     1
 75
     1
176
     1
175
     1
176
     1
 42
1.0
176
     1
 92
        0
176
     1
 66
   257
176
     1
 43
1.0
176
     1
 76
     1
176
     1
 77
     6
176
     1
 78
     2
176
     1
 67
     7
176
     1
 79
     5
176
     1
170
     0
176
     1
171
     0
176
     1
290
     0
176
     1
 93
        1
176
     1
 44
0.0
176
     1
173
     0
176
     1
  0
VISUALSTYLE
  5
31
102
{ACAD_REACTORS
330
2A
102
}
330
2A
100
AcDbVisualStyle
  2
3D Hidden
 70
     6
177
     2
291
     0
 71
     1
176
     1
 72
     2
176
     1
 73
     2
176
     1
 90
        0
176
     1
 40
-0.6
176
     1
 41
-30.0
176
     1
 62
     5
 63
     7
421
 16777215
176
     1
 74
     2
176
     1
 91
        2
176
     1
 64
     7
176
     1
 65
   257
176
     1
 75
     2
176
     1
175
     1
176
     1
 42
40.0
176
     1
 92
        0
176
     1
 66
   257
176
     1
 43
1.0
176
     1
 76
     1
176
     1
 77
     6
176
     1
 78
     2
176
     1
 67
     7
176
     1
 79
     3
176
     1
170
     0
176
     1
171
     0
176
     1
290
     0
176
     1
 93
        1
176
     1
 44
0.0
176
     1
173
     0
176
     1
  0
VISUALSTYLE
  5
30
102
{ACAD_REACTORS
330
2A
102
}
330
2A
100
AcDbVisualStyle
  2
3dWireframe
 70
     5
177
     2
291
     0
 71
     0
176
     1
 72
     2
176
     1
 73
     0
176
     1
 90
        0
176
     1
 40
-0.6
176
     1
 41
-30.0
176
     1
 62
     5
 63
     7
421
 16777215
176
     1
 74
     1
176
     1
 91
        4
176
     1
 64
     7
176
     1
 65
   257
176
     1
 75
     1
176
     1
175
     1
176
     1
 42
1.0
176
     1
 92
        0
176
     1
 66
   257
176
     1
 43
1.0
176
     1
 76
     1
176
     1
 77
     6
176
     1
 78
     2
176
     1
 67
     7
176
     1
 79
     5
176
     1
170
     0
176
     1
171
     0
176
     1
290
     0
176
     1
 93
        1
176
     1
 44
0.0
176
     1
173
     0
176
     1
  0
VISUALSTYLE
  5
32
102
{ACAD_REACTORS
330
2A
102
}
330
2A
100
AcDbVisualStyle
  2
Basic
 70
     7
177
     2
291
     1
 71
     1
176
     1
 72
     0
176
     1
 73
     1
176
     1
 90
        0
176
     1
 40
-0.6
176
     1
 41
-30.0
176
     1
 62
     5
 63
     7
421
 16777215
176
     1
 74
     0
176
     1
 91
        4
176
     1
 64
     7
176
     1
 65
   257
176
     1
 75
     1
176
     1
175
     1
176
     1
 42
1.0
176
     1
 92
        8
176
     1
 66
     7
176
     1
 43
1.0
176
     1
 76
     1
176
     1
 77
     6
176
     1
 78
     2
176
     1
 67
     7
176
     1
 79
     5
176
     1
170
     0
176
     1
171
     0
176
     1
290
     0
176
     1
 93
        1
176
     1
 44
0.0
176
     1
173
     0
176
     1
  0
VISUALSTYLE
  5
36
102
{ACAD_REACTORS
330
2A
102
}
330
2A
100
AcDbVisualStyle
  2
Brighten
 70
    12
177
     2
291
     1
 71
     2
176
     1
 72
     2
176
     1
 73
     0
176
     1
 90
        0
176
     1
 40
-0.6
176
     1
 41
-30.0
176
     1
 62
     5
 63
     7
421
 16777215
176
     1
 74
     1
176
     1
 91
        4
176
     1
 64
     7
176
     1
 65
   257
176
     1
 75
     1
176
     1
175
     1
176
     1
 42
1.0
176
     1
 92
        8
176
     1
 66
     7
176
     1
 43
1.0
176
     1
 76
     1
176
     1
 77
     6
176
     1
 78
     2
176
     1
 67
     7
176
     1
 79
     5
176
     1
170
     0
176
     1
171
     0
176
     1
290
     0
176
     1
 93
        1
176
     1
 44
50.0
176
     1
173
     0
176
     1
  0
VISUALSTYLE
  5
3A
102
{ACAD_REACTORS
330
2A
102
}
330
2A
100
AcDbVisualStyle
  2
ColorChange
 70
    16
177
     2
291
     1
 71
     2
176
     1
 72
     2
176
     1
 73
     3
176
     1
 90
        0
176
     1
 40
-0.6
176
     1
 41
-30.0
176
     1
 62
     5
 63
     8
421
  8421504
176
     1
 74
     1
176
     1
 91
        4
176
     1
 64
     7
176
     1
 65
   257
176
     1
 75
     1
176
     1
175
     1
176
     1
 42
1.0
176
     1
 92
        8
176
     1
 66
     8
424
  8421504
176
     1
 43
1.0
176
     1
 76
     1
176
     1
 77
     6
176
     1
 78
     2
176
     1
 67
     7
176
     1
 79
     5
176
     1
170
     0
176
     1
171
     0
176
     1
290
     0
176
     1
 93
        1
176
     1
 44
0.0
176
     1
173
     0
176
     1
  0
VISUALSTYLE
  5
34
102
{ACAD_REACTORS
330
2A
102
}
330
2A
100
AcDbVisualStyle
  2
Conceptual
 70
     9
177
     2
291
     0
 71
     3
176
     1
 72
     2
176
     1
 73
     0
176
     1
 90
        0
176
     1
 40
-0.6
176
     1
 41
-30.0
176
     1
 62
     5
 63
     7
421
 16777215
176
     1
 74
     2
176
     1
 91
        2
176
     1
 64
     7
176
     1
 65
   257
176
     1
 75
     1
176
     1
175
     1
176
     1
 42
40.0
176
     1
 92
        8
176
     1
 66
     7
176
     1
 43
1.0
176
     1
 76
     1
176
     1
 77
     6
176
     1
 78
     2
176
     1
 67
     7
176
     1
 79
     3
176
     1
170
     0
176
     1
171
     0
176
     1
290
     0
176
     1
 93
        1
176
     1
 44
0.0
176
     1
173
     0
176
     1
  0
VISUALSTYLE
  5
35
102
{ACAD_REACTORS
330
2A
102
}
330
2A
100
AcDbVisualStyle
  2
Dim
 70
    11
177
     2
291
     1
 71
     2
176
     1
 72
     2
176
     1
 73
     0
176
     1
 90
        0
176
     1
 40
-0.6
176
     1
 41
-30.0
176
     1
 62
     5
 63
     7
421
 16777215
176
     1
 74
     1
176
     1
 91
        4
176
     1
 64
     7
176
     1
 65
   257
176
     1
 75
     1
176
     1
175
     1
176
     1
 42
1.0
176
     1
 92
        8
176
     1
 66
     7
176
     1
 43
1.0
176
     1
 76
     1
176
     1
 77
     6
176
     1
 78
     2
176
     1
 67
     7
176
     1
 79
     5
176
     1
170
     0
176
     1
171
     0
176
     1
290
     0
176
     1
 93
        1
176
     1
 44
-50.0
176
     1
173
     0
176
     1
  0
VISUALSTYLE
  5
39
102
{ACAD_REACTORS
330
2A
102
}
330
2A
100
AcDbVisualStyle
  2
Facepattern
 70
    15
177
     2
291
     1
 71
     2
176
     1
 72
     2
176
     1
 73
     0
176
     1
 90
        0
176
     1
 40
-0.6
176
     1
 41
-30.0
176
     1
 62
     5
 63
     7
421
 16777215
176
     1
 74
     1
176
     1
 91
        4
176
     1
 64
     7
176
     1
 65
   257
176
     1
 75
     1
176
     1
175
     1
176
     1
 42
1.0
176
     1
 92
        8
176
     1
 66
     7
176
     1
 43
1.0
176
     1
 76
     1
176
     1
 77
     6
176
     1
 78
     2
176
     1
 67
     7
176
     1
 79
     5
176
     1
170
     0
176
     1
171
     0
176
     1
290
     0
176
     1
 93
        1
176
     1
 44
0.0
176
     1
173
     0
176
     1
  0
VISUALSTYLE
  5
2B
102
{ACAD_REACTORS
330
2A
102
}
330
2A
100
AcDbVisualStyle
  2
Flat
 70
     0
177
     2
291
     1
 71
     2
176
     1
 72
     1
176
     1
 73
     1
176
     1
 90
        2
176
     1
 40
-0.6
176
     1
 41
30.0
176
     1
 62
     5
 63
     7
421
 16777215
176
     1
 74
     0
176
     1
 91
        4
176
     1
 64
     7
176
     1
 65
   257
176
     1
 75
     1
176
     1
175
     1
176
     1
 42
1.0
176
     1
 92
        8
176
     1
 66
     7
176
     1
 43
1.0
176
     1
 76
     1
176
     1
 77
     6
176
     1
 78
     2
176
     1
 67
     7
176
     1
 79
     5
176
     1
170
     0
176
     1
171
     0
176
     1
290
     0
176
     1
 93
       13
176
     1
 44
0.0
176
     1
173
     0
176
     1
  0
VISUALSTYLE
  5
2C
102
{ACAD_REACTORS
330
2A
102
}
330
2A
100
AcDbVisualStyle
  2
FlatWithEdges
 70
     1
177
     2
291
     1
 71
     2
176
     1
 72
     1
176
     1
 73
     1
176
     1
 90
        2
176
     1
 40
-0.6
176
     1
 41
30.0
176
     1
 62
     5
 63
     7
421
 16777215
176
     1
 74
     1
176
     1
 91
        4
176
     1
 64
     7
176
     1
 65
   257
176
     1
 75
     1
176
     1
175
     1
176
     1
 42
1.0
176
     1
 92
        0
176
     1
 66
   257
176
     1
 43
1.0
176
     1
 76
     1
176
     1
 77
     6
176
     1
 78
     2
176
     1
 67
     7
176
     1
 79
     5
176
     1
170
     0
176
     1
171
     0
176
     1
290
     0
176
     1
 93
       13
176
     1
 44
0.0
176
     1
173
     0
176
     1
  0
VISUALSTYLE
  5
2D
102
{ACAD_REACTORS
330
2A
102
}
330
2A
100
AcDbVisualStyle
  2
Gouraud
 70
     2
177
     2
291
     1
 71
     2
176
     1
 72
     2
176
     1
 73
     1
176
     1
 90
        2
176
     1
 40
-0.6
176
     1
 41
30.0
176
     1
 62
     5
 63
     7
421
 16777215
176
     1
 74
     0
176
     1
 91
        4
176
     1
 64
     7
176
     1
 65
   257
176
     1
 75
     1
176
     1
175
     1
176
     1
 42
1.0
176
     1
 92
        0
176
     1
 66
     7
176
     1
 43
1.0
176
     1
 76
     1
176
     1
 77
     6
176
     1
 78
     2
176
     1
 67
     7
176
     1
 79
     5
176
     1
170
     0
176
     1
171
     0
176
     1
290
     0
176
     1
 93
       13
176
     1
 44
0.0
176
     1
173
     0
176
     1
  0
VISUALSTYLE
  5
2E
102
{ACAD_REACTORS
330
2A
102
}
330
2A
100
AcDbVisualStyle
  2
GouraudWithEdges
 70
     3
177
     2
291
     1
 71
     2
176
     1
 72
     2
176
     1
 73
     1
176
     1
 90
        2
176
     1
 40
-0.6
176
     1
 41
30.0
176
     1
 62
     5
 63
     7
421
 16777215
176
     1
 74
     1
176
     1
 91
        4
176
     1
 64
     7
176
     1
 65
   257
176
     1
 75
     1
176
     1
175
     1
176
     1
 42
1.0
176
     1
 92
        0
176
     1
 66
   257
176
     1
 43
1.0
176
     1
 76
     1
176
     1
 77
     6
176
     1
 78
     2
176
     1
 67
     7
176
     1
 79
     5
176
     1
170
     0
176
     1
171
     0
176
     1
290
     0
176
     1
 93
       13
176
     1
 44
0.0
176
     1
173
     0
176
     1
  0
VISUALSTYLE
  5
38
102
{ACAD_REACTORS
330
2A
102
}
330
2A
100
AcDbVisualStyle
  2
Linepattern
 70
    14
177
     2
291
     1
 71
     2
176
     1
 72
     2
176
     1
 73
     0
176
     1
 90
        0
176
     1
 40
-0.6
176
     1
 41
-30.0
176
     1
 62
     5
 63
     7
421
 16777215
176
     1
 74
     1
176
     1
 91
        4
176
     1
 64
     7
176
     1
 65
   257
176
     1
 75
     7
176
     1
175
     7
176
     1
 42
1.0
176
     1
 92
        8
176
     1
 66
     7
176
     1
 43
1.0
176
     1
 76
     1
176
     1
 77
     6
176
     1
 78
     2
176
     1
 67
     7
176
     1
 79
     5
176
     1
170
     0
176
     1
171
     0
176
     1
290
     0
176
     1
 93
        1
176
     1
 44
0.0
176
     1
173
     0
176
     1
  0
VISUALSTYLE
  5
33
102
{ACAD_REACTORS
330
2A
102
}
330
2A
100
AcDbVisualStyle
  2
Realistic
 70
     8
177
     2
291
     0
 71
     2
176
     1
 72
     2
176
     1
 73
     0
176
     1
 90
        0
176
     1
 40
-0.6
176
     1
 41
-30.0
176
     1
 62
     5
 63
     7
421
 16777215
176
     1
 74
     1
176
     1
 91
        0
176
     1
 64
     7
176
     1
 65
   257
176
     1
 75
     1
176
     1
175
     1
176
     1
 42
1.0
176
     1
 92
        8
176
     1
 66
     8
424
  7895160
176
     1
 43
1.0
176
     1
 76
     1
176
     1
 77
     6
176
     1
 78
     2
176
     1
 67
     7
176
     1
 79
     5
176
     1
170
     0
176
     1
171
     0
176
     1
290
     0
176
     1
 93
       13
176
     1
 44
0.0
176
     1
173
     0
176
     1
  0
VISUALSTYLE
  5
37
102
{ACAD_REACTORS
330
2A
102
}
330
2A
100
AcDbVisualStyle
  2
Thicken
 70
    13
177
     2
291
     1
 71
     2
176
     1
 72
     2
176
     1
 73
     0
176
     1
 90
        0
176
     1
 40
-0.6
176
     1
 41
-30.0
176
     1
 62
     5
 63
     7
421
 16777215
176
     1
 74
     1
176
     1
 91
        4
176
     1
 64
     7
176
     1
 65
   257
176
     1
 75
     1
176
     1
175
     1
176
     1
 42
1.0
176
     1
 92
       12
176
     1
 66
     7
176
     1
 43
1.0
176
     1
 76
     1
176
     1
 77
     6
176
     1
 78
     2
176
     1
 67
     7
176
     1
 79
     5
176
     1
170
     0
176
     1
171
     0
176
     1
290
     0
176
     1
 93
        1
176
     1
 44
0.0
176
     1
173
     0
176
     1
  0
ENDSEC
  0
EOF
