  0
SECTION
  2
HEADER
  9
$ACADVER
  1
AC1024
  9
$ACADMAINTVER
 70
     6
  9
$DWGCODEPAGE
  3
UNDEFINED
  9
$INSBASE
 10
0.0
 20
0.0
 30
0.0
  9
$EXTMIN
 10
1.000000000000000E+20
 20
1.000000000000000E+20
 30
1.000000000000000E+20
  9
$EXTMAX
 10
-1.000000000000000E+20
 20
-1.000000000000000E+20
 30
-1.000000000000000E+20
  9
$LIMMIN
 10
0.0
 20
0.0
  9
$LIMMAX
 10
12.0
 20
9.0
  9
$ORTHOMODE
 70
     0
  9
$REGENMODE
 70
     1
  9
$FILLMODE
 70
     1
  9
$QTEXTMODE
 70
     0
  9
$MIRRTEXT
 70
     1
  9
$LTSCALE
 40
1.0
  9
$ATTMODE
 70
     1
  9
$TEXTSIZE
 40
0.2
  9
$TRACEWID
 40
0.05
  9
$TEXTSTYLE
  7
Standard
  9
$CLAYER
  8
0
  9
$CELTYPE
  6
ByLayer
  9
$CECOLOR
 62
   256
  9
$CELTSCALE
 40
1.0
  9
$DISPSILH
 70
     0
  9
$DIMSCALE
 40
1.0
  9
$DIMASZ
 40
0.18
  9
$DIMEXO
 40
0.0625
  9
$DIMDLI
 40
0.38
  9
$DIMRND
 40
0.0
  9
$DIMDLE
 40
0.0
  9
$DIMEXE
 40
0.18
  9
$DIMTP
 40
0.0
  9
$DIMTM
 40
0.0
  9
$DIMTXT
 40
0.18
  9
$DIMCEN
 40
0.09
  9
$DIMTSZ
 40
0.0
  9
$DIMTOL
 70
     0
  9
$DIMLIM
 70
     0
  9
$DIMTIH
 70
     1
  9
$DIMTOH
 70
     1
  9
$DIMSE1
 70
     0
  9
$DIMSE2
 70
     0
  9
$DIMTAD
 70
     0
  9
$DIMZIN
 70
     0
  9
$DIMBLK
  1

  9
$DIMASO
 70
     1
  9
$DIMSHO
 70
     1
  9
$DIMPOST
  1

  9
$DIMAPOST
  1

  9
$DIMALT
 70
     0
  9
$DIMALTD
 70
     2
  9
$DIMALTF
 40
25.4
  9
$DIMLFAC
 40
1.0
  9
$DIMTOFL
 70
     0
  9
$DIMTVP
 40
0.0
  9
$DIMTIX
 70
     0
  9
$DIMSOXD
 70
     0
  9
$DIMSAH
 70
     0
  9
$DIMBLK1
  1

  9
$DIMBLK2
  1

  9
$DIMSTYLE
  2
Standard
  9
$DIMCLRD
 70
     0
  9
$DIMCLRE
 70
     0
  9
$DIMCLRT
 70
     0
  9
$DIMTFAC
 40
1.0
  9
$DIMGAP
 40
0.09
  9
$DIMJUST
 70
     0
  9
$DIMSD1
 70
     0
  9
$DIMSD2
 70
     0
  9
$DIMTOLJ
 70
     1
  9
$DIMTZIN
 70
     0
  9
$DIMALTZ
 70
     0
  9
$DIMALTTZ
 70
     0
  9
$DIMUPT
 70
     0
  9
$DIMDEC
 70
     4
  9
$DIMTDEC
 70
     4
  9
$DIMALTU
 70
     2
  9
$DIMALTTD
 70
     2
  9
$DIMTXSTY
  7
Standard
  9
$DIMAUNIT
 70
     0
  9
$DIMADEC
 70
     0
  9
$DIMALTRND
 40
0.0
  9
$DIMAZIN
 70
     0
  9
$DIMDSEP
 70
    46
  9
$DIMATFIT
 70
     3
  9
$DIMFRAC
 70
     0
  9
$DIMLDRBLK
  1

  9
$DIMLUNIT
 70
     2
  9
$DIMLWD
 70
    -2
  9
$DIMLWE
 70
    -2
  9
$DIMTMOVE
 70
     0
  9
$DIMFXL
 40
1.0
  9
$DIMFXLON
 70
     0
  9
$DIMJOGANG
 40
0.7853981633974483
  9
$DIMTFILL
 70
     0
  9
$DIMTFILLCLR
 70
     0
  9
$DIMARCSYM
 70
     0
  9
$DIMLTYPE
  6

  9
$DIMLTEX1
  6

  9
$DIMLTEX2
  6

  9
$DIMTXTDIRECTION
 70
     0
  9
$LUNITS
 70
     2
  9
$LUPREC
 70
     4
  9
$SKETCHINC
 40
0.1
  9
$FILLETRAD
 40
0.5
  9
$AUNITS
 70
     0
  9
$AUPREC
 70
     0
  9
$MENU
  1
.
  9
$ELEVATION
 40
0.0
  9
$PELEVATION
 40
0.0
  9
$THICKNESS
 40
0.0
  9
$LIMCHECK
 70
     0
  9
$CHAMFERA
 40
0.5
  9
$CHAMFERB
 40
0.5
  9
$CHAMFERC
 40
1.0
  9
$CHAMFERD
 40
0.0
  9
$SKPOLY
 70
     0
  9
$TDCREATE
 40
2457917.595590266
  9
$TDUCREATE
 40
2457917.220590278
  9
$TDUPDATE
 40
2457917.595590266
  9
$TDUUPDATE
 40
2457917.220590278
  9
$TDINDWG
 40
0.0000000116
  9
$TDUSRTIMER
 40
0.0000000116
  9
$USRTIMER
 70
     1
  9
$ANGBASE
 50
0.0
  9
$ANGDIR
 70
     0
  9
$PDMODE
 70
     0
  9
$PDSIZE
 40
0.0
  9
$PLINEWID
 40
0.0
  9
$SPLFRAME
 70
     0
  9
$SPLINETYPE
 70
     6
  9
$SPLINESEGS
 70
     8
  9
$HANDSEED
  5
AD
  9
$SURFTAB1
 70
     6
  9
$SURFTAB2
 70
     6
  9
$SURFTYPE
 70
     6
  9
$SURFU
 70
     6
  9
$SURFV
 70
     6
  9
$UCSBASE
  2

  9
$UCSNAME
  2

  9
$UCSORG
 10
0.0
 20
0.0
 30
0.0
  9
$UCSXDIR
 10
1.0
 20
0.0
 30
0.0
  9
$UCSYDIR
 10
0.0
 20
1.0
 30
0.0
  9
$UCSORTHOREF
  2

  9
$UCSORTHOVIEW
 70
     0
  9
$UCSORGTOP
 10
0.0
 20
0.0
 30
0.0
  9
$UCSORGBOTTOM
 10
0.0
 20
0.0
 30
0.0
  9
$UCSORGLEFT
 10
0.0
 20
0.0
 30
0.0
  9
$UCSORGRIGHT
 10
0.0
 20
0.0
 30
0.0
  9
$UCSORGFRONT
 10
0.0
 20
0.0
 30
0.0
  9
$UCSORGBACK
 10
0.0
 20
0.0
 30
0.0
  9
$PUCSBASE
  2

  9
$PUCSNAME
  2

  9
$PUCSORG
 10
0.0
 20
0.0
 30
0.0
  9
$PUCSXDIR
 10
1.0
 20
0.0
 30
0.0
  9
$PUCSYDIR
 10
0.0
 20
1.0
 30
0.0
  9
$PUCSORTHOREF
  2

  9
$PUCSORTHOVIEW
 70
     0
  9
$PUCSORGTOP
 10
0.0
 20
0.0
 30
0.0
  9
$PUCSORGBOTTOM
 10
0.0
 20
0.0
 30
0.0
  9
$PUCSORGLEFT
 10
0.0
 20
0.0
 30
0.0
  9
$PUCSORGRIGHT
 10
0.0
 20
0.0
 30
0.0
  9
$PUCSORGFRONT
 10
0.0
 20
0.0
 30
0.0
  9
$PUCSORGBACK
 10
0.0
 20
0.0
 30
0.0
  9
$USERI1
 70
     0
  9
$USERI2
 70
     0
  9
$USERI3
 70
     0
  9
$USERI4
 70
     0
  9
$USERI5
 70
     0
  9
$USERR1
 40
0.0
  9
$USERR2
 40
0.0
  9
$USERR3
 40
0.0
  9
$USERR4
 40
0.0
  9
$USERR5
 40
0.0
  9
$WORLDVIEW
 70
     1
  9
$SHADEDGE
 70
     3
  9
$SHADEDIF
 70
    70
  9
$TILEMODE
 70
     1
  9
$MAXACTVP
 70
    64
  9
$PINSBASE
 10
0.0
 20
0.0
 30
0.0
  9
$PLIMCHECK
 70
     0
  9
$PEXTMIN
 10
1.000000000000000E+20
 20
1.000000000000000E+20
 30
1.000000000000000E+20
  9
$PEXTMAX
 10
-1.000000000000000E+20
 20
-1.000000000000000E+20
 30
-1.000000000000000E+20
  9
$PLIMMIN
 10
0.0
 20
0.0
  9
$PLIMMAX
 10
12.0
 20
9.0
  9
$UNITMODE
 70
     0
  9
$VISRETAIN
 70
     1
  9
$PLINEGEN
 70
     0
  9
$PSLTSCALE
 70
     1
  9
$TREEDEPTH
 70
  3020
  9
$CMLSTYLE
  2
Standard
  9
$CMLJUST
 70
     0
  9
$CMLSCALE
 40
1.0
  9
$PROXYGRAPHICS
 70
     1
  9
$MEASUREMENT
 70
     0
  9
$CELWEIGHT
370
    -1
  9
$ENDCAPS
280
     0
  9
$JOINSTYLE
280
     0
  9
$LWDISPLAY
290
     1
  9
$INSUNITS
 70
     1
  9
$HYPERLINKBASE
  1

  9
$STYLESHEET
  1

  9
$XEDIT
290
     1
  9
$CEPSNTYPE
380
     0
  9
$PSTYLEMODE
290
     1
  9
$FINGERPRINTGUID
  2
{F5A61788-D134-B8C1-EF2D-CED0E0B92491}
  9
$VERSIONGUID
  2
{FAEB1C32-E019-11D5-929B-00C0DF256EC4}
  9
$EXTNAMES
290
     1
  9
$PSVPSCALE
 40
0.0
  9
$OLESTARTUP
290
     0
  9
$SORTENTS
280
   127
  9
$INDEXCTL
280
     0
  9
$HIDETEXT
280
     1
  9
$XCLIPFRAME
280
     2
  9
$HALOGAP
280
     0
  9
$OBSCOLOR
 70
   257
  9
$OBSLTYPE
280
     0
  9
$INTERSECTIONDISPLAY
280
     0
  9
$INTERSECTIONCOLOR
 70
   257
  9
$DIMASSOC
280
     2
  9
$PROJECTNAME
  1

  9
$CAMERADISPLAY
290
     0
  9
$LENSLENGTH
 40
50.0
  9
$CAMERAHEIGHT
 40
0.0
  9
$STEPSPERSEC
 40
2.0
  9
$STEPSIZE
 40
6.0
  9
$3DDWFPREC
 40
2.0
  9
$PSOLWIDTH
 40
0.25
  9
$PSOLHEIGHT
 40
4.0
  9
$LOFTANG1
 40
1.570796326794897
  9
$LOFTANG2
 40
1.570796326794897
  9
$LOFTMAG1
 40
0.0
  9
$LOFTMAG2
 40
0.0
  9
$LOFTPARAM
 70
     7
  9
$LOFTNORMALS
280
     1
  9
$LATITUDE
 40
37.795
  9
$LONGITUDE
 40
-122.394
  9
$NORTHDIRECTION
 40
0.0
  9
$TIMEZONE
 70
 -8000
  9
$LIGHTGLYPHDISPLAY
280
     1
  9
$TILEMODELIGHTSYNCH
280
     1
  9
$CMATERIAL
347
3C
  9
$SOLIDHIST
280
     1
  9
$SHOWHIST
280
     1
  9
$DWFFRAME
280
     2
  9
$DGNFRAME
280
     2
  9
$REALWORLDSCALE
290
     1
  9
$INTERFERECOLOR
 62
   256
  9
$CSHADOW
280
     0
  9
$SHADOWPLANELOCATION
 40
0.0
  0
ENDSEC
  0
SECTION
  2
CLASSES
  0
CLASS
  1
ACDBDICTIONARYWDFLT
  2
AcDbDictionaryWithDefault
  3
ObjectDBX Classes
 90
        0
 91
        4
280
     0
281
     0
  0
CLASS
  1
VISUALSTYLE
  2
AcDbVisualStyle
  3
ObjectDBX Classes
 90
     4095
 91
        4
280
     0
281
     0
  0
CLASS
  1
MATERIAL
  2
AcDbMaterial
  3
ObjectDBX Classes
 90
     1153
 91
        4
280
     0
281
     0
  0
CLASS
  1
SUN
  2
AcDbSun
  3
SCENEOE
 90
     1024
 91
        4
280
     0
281
     0
  0
ENDSEC
  0
SECTION
  2
TABLES
  0
TABLE
  2
VPORT
  5
8
330
0
100
AcDbSymbolTable
 70
     1
  0
VPORT
  5
29
330
8
100
AcDbSymbolTableRecord
100
AcDbViewportTableRecord
  2
*Active
 70
     0
 10
0.0
 20
0.0
 11
1.0
 21
1.0
 12
0.0
 22
0.0
 13
0.0
 23
0.0
 14
0.5
 24
0.5
 15
0.5
 25
0.5
 16
0.0
 26
0.0
 36
1.0
 17
91.00082462281999
 27
-128.4993055234307
 37
0.0
 40
256.9986110468615
 41
0.7081814508812795
 42
50.0
 43
0.0
 44
0.0
 50
0.0
 51
0.0
 71
     0
 72
   100
 73
     1
 74
     3
 75
     0
 76
     0
 77
     0
 78
     0
281
     0
 65
     1
110
0.0
120
0.0
130
0.0
111
1.0
121
0.0
131
0.0
112
0.0
122
1.0
132
0.0
 79
     0
146
0.0
 60
     3
 61
     5
292
     1
282
     1
141
0.0
142
0.0
 63
   250
361
3F
  0
ENDTAB
  0
TABLE
  2
LTYPE
  5
5
330
0
100
AcDbSymbolTable
 70
     1
  0
LTYPE
  5
14
330
5
100
AcDbSymbolTableRecord
100
AcDbLinetypeTableRecord
  2
ByBlock
 70
     0
  3

 72
    65
 73
     0
 40
0.0
  0
LTYPE
  5
15
330
5
100
AcDbSymbolTableRecord
100
AcDbLinetypeTableRecord
  2
ByLayer
 70
     0
  3

 72
    65
 73
     0
 40
0.0
  0
LTYPE
  5
16
330
5
100
AcDbSymbolTableRecord
100
AcDbLinetypeTableRecord
  2
Continuous
 70
     0
  3
Solid line
 72
    65
 73
     0
 40
0.0
  0
ENDTAB
  0
TABLE
  2
LAYER
  5
2
330
0
100
AcDbSymbolTable
 70
     2
  0
LAYER
  5
10
330
2
100
AcDbSymbolTableRecord
100
AcDbLayerTableRecord
  2
0
 70
     0
 62
     7
  6
Continuous
370
    -3
390
F
347
3E
  0
LAYER
  5
40
330
2
100
AcDbSymbolTableRecord
100
AcDbLayerTableRecord
  2
_U+30EC_U+30A4_U+30E4_U+30FC 1
 70
     0
 62
     7
  6
Continuous
370
    -3
390
F
347
3E
  0
ENDTAB
  0
TABLE
  2
STYLE
  5
3
330
0
100
AcDbSymbolTable
 70
     1
  0
STYLE
  5
11
330
3
100
AcDbSymbolTableRecord
100
AcDbTextStyleTableRecord
  2
Standard
 70
     0
 40
0.0
 41
1.0
 50
0.0
 71
     0
 42
0.2
  3
txt
  4

  0
ENDTAB
  0
TABLE
  2
VIEW
  5
6
330
0
100
AcDbSymbolTable
 70
     0
  0
ENDTAB
  0
TABLE
  2
UCS
  5
7
330
0
100
AcDbSymbolTable
 70
     0
  0
ENDTAB
  0
TABLE
  2
APPID
  5
9
330
0
100
AcDbSymbolTable
 70
     1
  0
APPID
  5
12
330
9
100
AcDbSymbolTableRecord
100
AcDbRegAppTableRecord
  2
ACAD
 70
     0
  0
ENDTAB
  0
TABLE
  2
DIMSTYLE
  5
A
330
0
100
AcDbSymbolTable
 70
     1
100
AcDbDimStyleTable
  0
DIMSTYLE
105
27
330
A
100
AcDbSymbolTableRecord
100
AcDbDimStyleTableRecord
  2
Standard
 70
     0
178
     0
340
11
  0
ENDTAB
  0
TABLE
  2
BLOCK_RECORD
  5
1
330
0
100
AcDbSymbolTable
 70
     4
  0
BLOCK_RECORD
  5
1F
330
1
100
AcDbSymbolTableRecord
100
AcDbBlockTableRecord
  2
*Model_Space
340
22
 70
     0
280
     1
281
     0
  0
BLOCK_RECORD
  5
1B
330
1
100
AcDbSymbolTableRecord
100
AcDbBlockTableRecord
  2
*Paper_Space
340
1E
 70
     0
280
     1
281
     0
  0
BLOCK_RECORD
  5
23
330
1
100
AcDbSymbolTableRecord
100
AcDbBlockTableRecord
  2
*Paper_Space0
340
26
 70
     0
280
     1
281
     0
  0
BLOCK_RECORD
  5
71
330
1
100
AcDbSymbolTableRecord
100
AcDbBlockTableRecord
  2
block 2
340
0
102
{BLKREFS
331
72
102
}
 70
     0
280
     1
281
     0
  0
BLOCK_RECORD
  5
8D
330
1
100
AcDbSymbolTableRecord
100
AcDbBlockTableRecord
  2
block 3
340
0
102
{BLKREFS
331
8E
102
}
 70
     0
280
     1
281
     0
  0
BLOCK_RECORD
  5
A2
330
1
100
AcDbSymbolTableRecord
100
AcDbBlockTableRecord
  2
block 4
340
0
102
{BLKREFS
331
A3
102
}
 70
     0
280
     1
281
     0
  0
ENDTAB
  0
ENDSEC
  0
SECTION
  2
BLOCKS
  0
BLOCK
  5
20
330
1F
100
AcDbEntity
  8
0
100
AcDbBlockBegin
  2
*Model_Space
 70
     0
 10
0.0
 20
0.0
 30
0.0
  3
*Model_Space
  1

  0
ENDBLK
  5
21
330
1F
100
AcDbEntity
  8
0
100
AcDbBlockEnd
  0
BLOCK
  5
1C
330
1B
100
AcDbEntity
 67
     1
  8
0
100
AcDbBlockBegin
  2
*Paper_Space
 70
     0
 10
0.0
 20
0.0
 30
0.0
  3
*Paper_Space
  1

  0
ENDBLK
  5
1D
330
1B
100
AcDbEntity
 67
     1
  8
0
100
AcDbBlockEnd
  0
BLOCK
  5
24
330
23
100
AcDbEntity
  8
0
100
AcDbBlockBegin
  2
*Paper_Space0
 70
     0
 10
0.0
 20
0.0
 30
0.0
  3
*Paper_Space0
  1

  0
ENDBLK
  5
25
330
23
100
AcDbEntity
  8
0
100
AcDbBlockEnd
  0
BLOCK
  5
73
330
71
100
AcDbEntity
  8
0
100
AcDbBlockBegin
  2
block 2
 70
     0
 10
0.0
 20
0.0
 30
0.0
  3
block 2
  1

  0
SPLINE
  5
75
330
71
100
AcDbEntity
  8
_U+30EC_U+30A4_U+30E4_U+30FC 1
370
     0
100
AcDbSpline
210
0.0
220
0.0
230
1.0
 70
    11
 71
     3
 72
    26
 73
    22
 74
     0
 42
0.0000000001
 43
0.0000000001
 12
1.0
 22
0.0
 32
0.0
 13
1.0
 23
0.0
 33
0.0
 40
0.0
 40
0.0
 40
0.0
 40
0.0
 40
1.0
 40
1.0
 40
1.0
 40
2.0
 40
2.0
 40
2.0
 40
3.0
 40
3.0
 40
3.0
 40
4.0
 40
4.0
 40
4.0
 40
5.0
 40
5.0
 40
5.0
 40
6.0
 40
6.0
 40
6.0
 40
7.0
 40
7.0
 40
7.0
 40
7.0
 10
105.2617919658721
 20
-132.0381076058794
 30
0.0
 10
105.2617919658721
 20
-132.0381076058794
 30
0.0
 10
104.1576388628495
 20
-132.0381076058794
 30
0.0
 10
104.1576388628495
 20
-132.0381076058794
 30
0.0
 10
104.1576388628495
 20
-132.0381076058794
 30
0.0
 10
104.1576388628495
 20
-132.3237060216066
 30
0.0
 10
104.1576388628495
 20
-132.3237060216066
 30
0.0
 10
104.1576388628495
 20
-132.3237060216066
 30
0.0
 10
104.0094997569837
 20
-132.3237060216066
 30
0.0
 10
104.0094997569837
 20
-132.3237060216066
 30
0.0
 10
103.9946858463972
 20
-132.0363850581367
 30
0.0
 10
103.8317328299449
 20
-131.9960774409593
 30
0.0
 10
103.7173556598346
 20
-131.9705837343685
 30
0.0
 10
103.7173556598346
 20
-131.9705837343685
 30
0.0
 10
103.7173556598346
 20
-131.8441487300598
 30
0.0
 10
103.7173556598346
 20
-131.8441487300598
 30
0.0
 10
103.7173556598346
 20
-131.8441487300598
 30
0.0
 10
105.2617919658721
 20
-131.8441487300598
 30
0.0
 10
105.2617919658721
 20
-131.8441487300598
 30
0.0
 10
105.2617919658721
 20
-131.8441487300598
 30
0.0
 10
105.2617919658721
 20
-132.0381076058794
 30
0.0
 10
105.2617919658721
 20
-132.0381076058794
 30
0.0
  0
HATCH
  5
76
330
71
100
AcDbEntity
  8
_U+30EC_U+30A4_U+30E4_U+30FC 1
 62
   179
420
  2234388
100
AcDbHatch
 10
0.0
 20
0.0
 30
0.0
210
0.0
220
0.0
230
1.0
  2
SOLID
 70
     1
 71
     0
 91
        1
 92
        1
 93
        1
 72
     4
 94
        3
 73
     0
 74
     1
 95
       26
 96
       22
 40
0.0
 40
0.0
 40
0.0
 40
0.0
 40
1.0
 40
1.0
 40
1.0
 40
2.0
 40
2.0
 40
2.0
 40
3.0
 40
3.0
 40
3.0
 40
4.0
 40
4.0
 40
4.0
 40
5.0
 40
5.0
 40
5.0
 40
6.0
 40
6.0
 40
6.0
 40
7.0
 40
7.0
 40
7.0
 40
7.0
 10
105.2617919658721
 20
-132.0381076058794
 10
105.2617919658721
 20
-132.0381076058794
 10
104.1576388628495
 20
-132.0381076058794
 10
104.1576388628495
 20
-132.0381076058794
 10
104.1576388628495
 20
-132.0381076058794
 10
104.1576388628495
 20
-132.3237060216066
 10
104.1576388628495
 20
-132.3237060216066
 10
104.1576388628495
 20
-132.3237060216066
 10
104.0094997569837
 20
-132.3237060216066
 10
104.0094997569837
 20
-132.3237060216066
 10
103.9946858463972
 20
-132.0363850581367
 10
103.8317328299449
 20
-131.9960774409593
 10
103.7173556598346
 20
-131.9705837343685
 10
103.7173556598346
 20
-131.9705837343685
 10
103.7173556598346
 20
-131.8441487300598
 10
103.7173556598346
 20
-131.8441487300598
 10
103.7173556598346
 20
-131.8441487300598
 10
105.2617919658721
 20
-131.8441487300598
 10
105.2617919658721
 20
-131.8441487300598
 10
105.2617919658721
 20
-131.8441487300598
 10
105.2617919658721
 20
-132.0381076058794
 10
105.2617919658721
 20
-132.0381076058794
 97
        0
 97
        0
 75
     2
 76
     1
 98
        0
  0
POLYLINE
  5
77
330
71
100
AcDbEntity
  8
_U+30EC_U+30A4_U+30E4_U+30FC 1
370
     0
100
AcDb2dPolyline
 66
     1
 10
0.0
 20
0.0
 30
0.0
  0
VERTEX
  5
78
330
77
100
AcDbEntity
  8
_U+30EC_U+30A4_U+30E4_U+30FC 1
370
     0
100
AcDbVertex
100
AcDb2dVertex
 10
105.2617919658721
 20
-131.3594237952852
 30
0.0
  0
VERTEX
  5
79
330
77
100
AcDbEntity
  8
_U+30EC_U+30A4_U+30E4_U+30FC 1
370
     0
100
AcDbVertex
100
AcDb2dVertex
 10
105.0099554859003
 20
-131.3594237952852
 30
0.0
  0
VERTEX
  5
7A
330
77
100
AcDbEntity
  8
_U+30EC_U+30A4_U+30E4_U+30FC 1
370
     0
100
AcDbVertex
100
AcDb2dVertex
 10
105.0099554859003
 20
-131.1416937606174
 30
0.0
  0
VERTEX
  5
7B
330
77
100
AcDbEntity
  8
_U+30EC_U+30A4_U+30E4_U+30FC 1
370
     0
100
AcDbVertex
100
AcDb2dVertex
 10
105.2617919658721
 20
-131.1416937606174
 30
0.0
  0
VERTEX
  5
7C
330
77
100
AcDbEntity
  8
_U+30EC_U+30A4_U+30E4_U+30FC 1
370
     0
100
AcDbVertex
100
AcDb2dVertex
 10
105.2617919658721
 20
-131.3594237952852
 30
0.0
  0
SEQEND
  5
7D
330
77
100
AcDbEntity
  8
_U+30EC_U+30A4_U+30E4_U+30FC 1
370
     0
  0
HATCH
  5
7E
330
71
100
AcDbEntity
  8
_U+30EC_U+30A4_U+30E4_U+30FC 1
 62
   179
420
  2234388
100
AcDbHatch
 10
0.0
 20
0.0
 30
0.0
210
0.0
220
0.0
230
1.0
  2
SOLID
 70
     1
 71
     0
 91
        1
 92
        1
 93
        4
 72
     1
 10
105.2617919658721
 20
-131.3594237952852
 11
105.0099554859003
 21
-131.3594237952852
 72
     1
 10
105.0099554859003
 20
-131.3594237952852
 11
105.0099554859003
 21
-131.1416937606174
 72
     1
 10
105.0099554859003
 20
-131.1416937606174
 11
105.2617919658721
 21
-131.1416937606174
 72
     1
 10
105.2617919658721
 20
-131.1416937606174
 11
105.2617919658721
 21
-131.3594237952852
 97
        0
 75
     2
 76
     1
 98
        0
  0
SPLINE
  5
7F
330
71
100
AcDbEntity
  8
_U+30EC_U+30A4_U+30E4_U+30FC 1
370
     0
100
AcDbSpline
210
0.0
220
0.0
230
1.0
 70
    11
 71
     3
 72
    53
 73
    49
 74
     0
 42
0.0000000001
 43
0.0000000001
 12
1.0
 22
0.0
 32
0.0
 13
1.0
 23
0.0
 33
0.0
 40
0.0
 40
0.0
 40
0.0
 40
0.0
 40
1.0
 40
1.0
 40
1.0
 40
2.0
 40
2.0
 40
2.0
 40
3.0
 40
3.0
 40
3.0
 40
4.0
 40
4.0
 40
4.0
 40
5.0
 40
5.0
 40
5.0
 40
6.0
 40
6.0
 40
6.0
 40
7.0
 40
7.0
 40
7.0
 40
8.0
 40
8.0
 40
8.0
 40
9.0
 40
9.0
 40
9.0
 40
10.0
 40
10.0
 40
10.0
 40
11.0
 40
11.0
 40
11.0
 40
12.0
 40
12.0
 40
12.0
 40
13.0
 40
13.0
 40
13.0
 40
14.0
 40
14.0
 40
14.0
 40
15.0
 40
15.0
 40
15.0
 40
16.0
 40
16.0
 40
16.0
 40
16.0
 10
105.3124348695052
 20
-130.5215765732724
 30
0.0
 10
105.3124348695052
 20
-130.5891004447833
 30
0.0
 10
105.2955539016275
 20
-130.6772948892057
 30
0.0
 10
105.2321641446989
 20
-130.764800314531
 30
0.0
 10
105.1222655987194
 20
-130.9150064776879
 30
0.0
 10
104.9910074607314
 20
-130.9332654837598
 30
0.0
 10
104.8831759720431
 20
-130.949801942089
 30
0.0
 10
104.8831759720431
 20
-130.949801942089
 30
0.0
 10
104.8831759720431
 20
-130.757565614012
 30
0.0
 10
104.8831759720431
 20
-130.757565614012
 30
0.0
 10
105.081957981542
 20
-130.7100232963156
 30
0.0
 10
105.1115858027152
 20
-130.6001247503361
 30
0.0
 10
105.1115858027152
 20
-130.5198540255298
 30
0.0
 10
105.1115858027152
 20
-130.3989311739975
 30
0.0
 10
105.0120225431914
 20
-130.2673285264609
 30
0.0
 10
104.7794785979371
 20
-130.2673285264609
 30
0.0
 10
104.523508003383
 20
-130.2673285264609
 30
0.0
 10
104.4535725650324
 20
-130.4227023328457
 30
0.0
 10
104.4535725650324
 20
-130.5270887260488
 30
0.0
 10
104.4535725650324
 20
-130.5546494899308
 30
0.0
 10
104.4535725650324
 20
-130.6772948892057
 30
0.0
 10
104.5827636457293
 20
-130.7541205185267
 30
0.0
 10
104.5827636457293
 20
-130.7541205185267
 30
0.0
 10
104.5638156205604
 20
-130.9060492294263
 30
0.0
 10
104.5638156205604
 20
-130.9060492294263
 30
0.0
 10
104.5638156205604
 20
-130.9060492294263
 30
0.0
 10
103.7173556598346
 20
-130.8016628362232
 30
0.0
 10
103.7173556598346
 20
-130.8016628362232
 30
0.0
 10
103.7173556598346
 20
-130.8016628362232
 30
0.0
 10
103.7173556598346
 20
-130.1281466688569
 30
0.0
 10
103.7173556598346
 20
-130.1281466688569
 30
0.0
 10
103.7173556598346
 20
-130.1281466688569
 30
0.0
 10
103.9120035547512
 20
-130.1281466688569
 30
0.0
 10
103.9120035547512
 20
-130.1281466688569
 30
0.0
 10
103.9120035547512
 20
-130.1281466688569
 30
0.0
 10
103.9120035547512
 20
-130.6607584308765
 30
0.0
 10
103.9120035547512
 20
-130.6607584308765
 30
0.0
 10
103.9120035547512
 20
-130.6607584308765
 30
0.0
 10
104.3350612803399
 20
-130.7172579968346
 30
0.0
 10
104.3350612803399
 20
-130.7172579968346
 30
0.0
 10
104.3012993445844
 20
-130.6642035263617
 30
0.0
 10
104.260991727407
 20
-130.5928900498171
 30
0.0
 10
104.260991727407
 20
-130.4905707139051
 30
0.0
 10
104.260991727407
 20
-130.2707736219462
 30
0.0
 10
104.447371393159
 20
-130.0657904405738
 30
0.0
 10
104.7605305727682
 20
-130.0657904405738
 30
0.0
 10
105.0778238669597
 20
-130.0657904405738
 30
0.0
 10
105.3124348695052
 20
-130.2597493163934
 30
0.0
 10
105.3124348695052
 20
-130.5215765732724
 30
0.0
  0
HATCH
  5
80
330
71
100
AcDbEntity
  8
_U+30EC_U+30A4_U+30E4_U+30FC 1
 62
   179
420
  2234388
100
AcDbHatch
 10
0.0
 20
0.0
 30
0.0
210
0.0
220
0.0
230
1.0
  2
SOLID
 70
     1
 71
     0
 91
        1
 92
        1
 93
        1
 72
     4
 94
        3
 73
     0
 74
     1
 95
       53
 96
       49
 40
0.0
 40
0.0
 40
0.0
 40
0.0
 40
1.0
 40
1.0
 40
1.0
 40
2.0
 40
2.0
 40
2.0
 40
3.0
 40
3.0
 40
3.0
 40
4.0
 40
4.0
 40
4.0
 40
5.0
 40
5.0
 40
5.0
 40
6.0
 40
6.0
 40
6.0
 40
7.0
 40
7.0
 40
7.0
 40
8.0
 40
8.0
 40
8.0
 40
9.0
 40
9.0
 40
9.0
 40
10.0
 40
10.0
 40
10.0
 40
11.0
 40
11.0
 40
11.0
 40
12.0
 40
12.0
 40
12.0
 40
13.0
 40
13.0
 40
13.0
 40
14.0
 40
14.0
 40
14.0
 40
15.0
 40
15.0
 40
15.0
 40
16.0
 40
16.0
 40
16.0
 40
16.0
 10
105.3124348695052
 20
-130.5215765732724
 10
105.3124348695052
 20
-130.5891004447833
 10
105.2955539016275
 20
-130.6772948892057
 10
105.2321641446989
 20
-130.764800314531
 10
105.1222655987194
 20
-130.9150064776879
 10
104.9910074607314
 20
-130.9332654837598
 10
104.8831759720431
 20
-130.949801942089
 10
104.8831759720431
 20
-130.949801942089
 10
104.8831759720431
 20
-130.757565614012
 10
104.8831759720431
 20
-130.757565614012
 10
105.081957981542
 20
-130.7100232963156
 10
105.1115858027152
 20
-130.6001247503361
 10
105.1115858027152
 20
-130.5198540255298
 10
105.1115858027152
 20
-130.3989311739975
 10
105.0120225431914
 20
-130.2673285264609
 10
104.7794785979371
 20
-130.2673285264609
 10
104.523508003383
 20
-130.2673285264609
 10
104.4535725650324
 20
-130.4227023328457
 10
104.4535725650324
 20
-130.5270887260488
 10
104.4535725650324
 20
-130.5546494899308
 10
104.4535725650324
 20
-130.6772948892057
 10
104.5827636457293
 20
-130.7541205185267
 10
104.5827636457293
 20
-130.7541205185267
 10
104.5638156205604
 20
-130.9060492294263
 10
104.5638156205604
 20
-130.9060492294263
 10
104.5638156205604
 20
-130.9060492294263
 10
103.7173556598346
 20
-130.8016628362232
 10
103.7173556598346
 20
-130.8016628362232
 10
103.7173556598346
 20
-130.8016628362232
 10
103.7173556598346
 20
-130.1281466688569
 10
103.7173556598346
 20
-130.1281466688569
 10
103.7173556598346
 20
-130.1281466688569
 10
103.9120035547512
 20
-130.1281466688569
 10
103.9120035547512
 20
-130.1281466688569
 10
103.9120035547512
 20
-130.1281466688569
 10
103.9120035547512
 20
-130.6607584308765
 10
103.9120035547512
 20
-130.6607584308765
 10
103.9120035547512
 20
-130.6607584308765
 10
104.3350612803399
 20
-130.7172579968346
 10
104.3350612803399
 20
-130.7172579968346
 10
104.3012993445844
 20
-130.6642035263617
 10
104.260991727407
 20
-130.5928900498171
 10
104.260991727407
 20
-130.4905707139051
 10
104.260991727407
 20
-130.2707736219462
 10
104.447371393159
 20
-130.0657904405738
 10
104.7605305727682
 20
-130.0657904405738
 10
105.0778238669597
 20
-130.0657904405738
 10
105.3124348695052
 20
-130.2597493163934
 10
105.3124348695052
 20
-130.5215765732724
 97
        0
 97
        0
 75
     2
 76
     1
 98
        0
  0
ENDBLK
  5
74
330
71
100
AcDbEntity
  8
0
100
AcDbBlockEnd
  0
BLOCK
  5
8F
330
8D
100
AcDbEntity
  8
0
100
AcDbBlockBegin
  2
block 3
 70
     0
 10
0.0
 20
0.0
 30
0.0
  3
block 3
  1

  0
SPLINE
  5
91
330
8D
100
AcDbEntity
  8
_U+30EC_U+30A4_U+30E4_U+30FC 1
370
     0
100
AcDbSpline
210
0.0
220
0.0
230
1.0
 70
    11
 71
     3
 72
    44
 73
    40
 74
     0
 42
0.0000000001
 43
0.0000000001
 12
1.0
 22
0.0
 32
0.0
 13
1.0
 23
0.0
 33
0.0
 40
0.0
 40
0.0
 40
0.0
 40
0.0
 40
1.0
 40
1.0
 40
1.0
 40
2.0
 40
2.0
 40
2.0
 40
3.0
 40
3.0
 40
3.0
 40
4.0
 40
4.0
 40
4.0
 40
5.0
 40
5.0
 40
5.0
 40
6.0
 40
6.0
 40
6.0
 40
7.0
 40
7.0
 40
7.0
 40
8.0
 40
8.0
 40
8.0
 40
9.0
 40
9.0
 40
9.0
 40
10.0
 40
10.0
 40
10.0
 40
11.0
 40
11.0
 40
11.0
 40
12.0
 40
12.0
 40
12.0
 40
13.0
 40
13.0
 40
13.0
 40
13.0
 10
76.67972952727105
 20
-126.6730604066998
 30
0.0
 10
76.8383761743668
 20
-126.8618516392915
 30
0.0
 10
76.91244572729967
 20
-126.9421223640978
 30
0.0
 10
77.05627846380885
 20
-126.9841525290179
 30
0.0
 10
77.05627846380885
 20
-126.9841525290179
 30
0.0
 10
77.05627846380885
 20
-126.3109808712
 30
0.0
 10
77.05627846380885
 20
-126.3109808712
 30
0.0
 10
77.05627846380885
 20
-126.3109808712
 30
0.0
 10
77.26143389995548
 20
-126.3109808712
 30
0.0
 10
77.26143389995548
 20
-126.3109808712
 30
0.0
 10
77.26143389995548
 20
-126.3109808712
 30
0.0
 10
77.26143389995548
 20
-127.200160015943
 30
0.0
 10
77.26143389995548
 20
-127.200160015943
 30
0.0
 10
76.90383298858654
 20
-127.1729437616095
 30
0.0
 10
76.82562932107137
 20
-127.1160996861029
 30
0.0
 10
76.52728405204874
 20
-126.7829589526793
 30
0.0
 10
76.32850204254983
 20
-126.5614393129777
 30
0.0
 10
76.26080591626466
 20
-126.5049397470196
 30
0.0
 10
76.12334660640319
 20
-126.5049397470196
 30
0.0
 10
76.0048353217106
 20
-126.5049397470196
 30
0.0
 10
75.87357718372259
 20
-126.5669514657541
 30
0.0
 10
75.87357718372259
 20
-126.7371391827254
 30
0.0
 10
75.87357718372259
 20
-126.9624484274608
 30
0.0
 10
76.10422632646006
 20
-126.9696831279798
 30
0.0
 10
76.2206705538615
 20
-126.9734727330136
 30
0.0
 10
76.2206705538615
 20
-126.9734727330136
 30
0.0
 10
76.2206705538615
 20
-127.1674316088331
 30
0.0
 10
76.2206705538615
 20
-127.1674316088331
 30
0.0
 10
76.09371878523005
 20
-127.1598523987656
 30
0.0
 10
75.98158092718516
 20
-127.1508951505039
 30
0.0
 10
75.86306964249258
 20
-127.0813042217019
 30
0.0
 10
75.70235593810567
 20
-126.986219586309
 30
0.0
 10
75.66842174757595
 20
-126.8249891175993
 30
0.0
 10
75.66842174757595
 20
-126.72439232943
 30
0.0
 10
75.66842174757595
 20
-126.4846136836566
 30
0.0
 10
75.85256210126256
 20
-126.3054687184236
 30
0.0
 10
76.12541366369435
 20
-126.3054687184236
 30
0.0
 10
76.35382349436641
 20
-126.3054687184236
 30
0.0
 10
76.45338675389013
 20
-126.4060655065929
 30
0.0
 10
76.67972952727105
 20
-126.6730604066998
 30
0.0
  0
HATCH
  5
92
330
8D
100
AcDbEntity
  8
_U+30EC_U+30A4_U+30E4_U+30FC 1
 62
   179
420
  2234388
100
AcDbHatch
 10
0.0
 20
0.0
 30
0.0
210
0.0
220
0.0
230
1.0
  2
SOLID
 70
     1
 71
     0
 91
        1
 92
        1
 93
        1
 72
     4
 94
        3
 73
     0
 74
     1
 95
       44
 96
       40
 40
0.0
 40
0.0
 40
0.0
 40
0.0
 40
1.0
 40
1.0
 40
1.0
 40
2.0
 40
2.0
 40
2.0
 40
3.0
 40
3.0
 40
3.0
 40
4.0
 40
4.0
 40
4.0
 40
5.0
 40
5.0
 40
5.0
 40
6.0
 40
6.0
 40
6.0
 40
7.0
 40
7.0
 40
7.0
 40
8.0
 40
8.0
 40
8.0
 40
9.0
 40
9.0
 40
9.0
 40
10.0
 40
10.0
 40
10.0
 40
11.0
 40
11.0
 40
11.0
 40
12.0
 40
12.0
 40
12.0
 40
13.0
 40
13.0
 40
13.0
 40
13.0
 10
76.67972952727105
 20
-126.6730604066998
 10
76.8383761743668
 20
-126.8618516392915
 10
76.91244572729967
 20
-126.9421223640978
 10
77.05627846380885
 20
-126.9841525290179
 10
77.05627846380885
 20
-126.9841525290179
 10
77.05627846380885
 20
-126.3109808712
 10
77.05627846380885
 20
-126.3109808712
 10
77.05627846380885
 20
-126.3109808712
 10
77.26143389995548
 20
-126.3109808712
 10
77.26143389995548
 20
-126.3109808712
 10
77.26143389995548
 20
-126.3109808712
 10
77.26143389995548
 20
-127.200160015943
 10
77.26143389995548
 20
-127.200160015943
 10
76.90383298858654
 20
-127.1729437616095
 10
76.82562932107137
 20
-127.1160996861029
 10
76.52728405204874
 20
-126.7829589526793
 10
76.32850204254983
 20
-126.5614393129777
 10
76.26080591626466
 20
-126.5049397470196
 10
76.12334660640319
 20
-126.5049397470196
 10
76.0048353217106
 20
-126.5049397470196
 10
75.87357718372259
 20
-126.5669514657541
 10
75.87357718372259
 20
-126.7371391827254
 10
75.87357718372259
 20
-126.9624484274608
 10
76.10422632646006
 20
-126.9696831279798
 10
76.2206705538615
 20
-126.9734727330136
 10
76.2206705538615
 20
-126.9734727330136
 10
76.2206705538615
 20
-127.1674316088331
 10
76.2206705538615
 20
-127.1674316088331
 10
76.09371878523005
 20
-127.1598523987656
 10
75.98158092718516
 20
-127.1508951505039
 10
75.86306964249258
 20
-127.0813042217019
 10
75.70235593810567
 20
-126.986219586309
 10
75.66842174757595
 20
-126.8249891175993
 10
75.66842174757595
 20
-126.72439232943
 10
75.66842174757595
 20
-126.4846136836566
 10
75.85256210126256
 20
-126.3054687184236
 10
76.12541366369435
 20
-126.3054687184236
 10
76.35382349436641
 20
-126.3054687184236
 10
76.45338675389013
 20
-126.4060655065929
 10
76.67972952727105
 20
-126.6730604066998
 97
        0
 97
        0
 75
     2
 76
     1
 98
        0
  0
SPLINE
  5
93
330
8D
100
AcDbEntity
  8
_U+30EC_U+30A4_U+30E4_U+30FC 1
370
     0
100
AcDbSpline
210
0.0
220
0.0
230
1.0
 70
    11
 71
     3
 72
    29
 73
    25
 74
     0
 42
0.0000000001
 43
0.0000000001
 12
1.0
 22
0.0
 32
0.0
 13
1.0
 23
0.0
 33
0.0
 40
0.0
 40
0.0
 40
0.0
 40
0.0
 40
1.0
 40
1.0
 40
1.0
 40
2.0
 40
2.0
 40
2.0
 40
3.0
 40
3.0
 40
3.0
 40
4.0
 40
4.0
 40
4.0
 40
5.0
 40
5.0
 40
5.0
 40
6.0
 40
6.0
 40
6.0
 40
7.0
 40
7.0
 40
7.0
 40
8.0
 40
8.0
 40
8.0
 40
8.0
 10
77.08366697291659
 20
-125.3921739052839
 30
0.0
 10
77.29312877841977
 20
-125.4855359929342
 30
0.0
 10
77.31224905836291
 20
-125.6357421560911
 30
0.0
 10
77.31224905836291
 20
-125.7363389442604
 30
0.0
 10
77.31224905836291
 20
-125.8755208018645
 30
0.0
 10
77.26574026931205
 20
-125.9981662011394
 30
0.0
 10
77.08366697291659
 20
-126.0805039832368
 30
0.0
 10
76.88919133277423
 20
-126.1700764658533
 30
0.0
 10
76.65216876338904
 20
-126.1866129241825
 30
0.0
 10
76.48921574693672
 20
-126.1866129241825
 30
0.0
 10
76.34538301042754
 20
-126.1866129241825
 30
0.0
 10
76.09371878523005
 20
-126.1717990135959
 30
0.0
 10
75.89476452095687
 20
-126.0805039832368
 30
0.0
 10
75.69167614210139
 20
-125.9871418955865
 30
0.0
 10
75.66842174757595
 20
-125.8479600379825
 30
0.0
 10
75.66842174757595
 20
-125.7363389442604
 30
0.0
 10
75.66842174757595
 20
-125.5992241439474
 30
0.0
 10
75.71286347933568
 20
-125.4745116873814
 30
0.0
 10
75.89476452095687
 20
-125.3921739052839
 30
0.0
 10
76.08734535858234
 20
-125.3063910277012
 30
0.0
 10
76.3157551892544
 20
-125.2860649643382
 30
0.0
 10
76.48921574693672
 20
-125.2860649643382
 30
0.0
 10
76.66060924732791
 20
-125.2860649643382
 30
0.0
 10
76.89125839006539
 20
-125.30432397041
 30
0.0
 10
77.08366697291659
 20
-125.3921739052839
 30
0.0
  0
SPLINE
  5
94
330
8D
100
AcDbEntity
  8
_U+30EC_U+30A4_U+30E4_U+30FC 1
370
     0
100
AcDbSpline
210
0.0
220
0.0
230
1.0
 70
    11
 71
     3
 72
    17
 73
    13
 74
     0
 42
0.0000000001
 43
0.0000000001
 12
1.0
 22
0.0
 32
0.0
 13
1.0
 23
0.0
 33
0.0
 40
0.0
 40
0.0
 40
0.0
 40
0.0
 40
1.0
 40
1.0
 40
1.0
 40
2.0
 40
2.0
 40
2.0
 40
3.0
 40
3.0
 40
3.0
 40
4.0
 40
4.0
 40
4.0
 40
4.0
 10
75.86100258520142
 20
-125.7363389442604
 30
0.0
 10
75.86100258520142
 20
-125.9523464311855
 30
0.0
 10
76.14436168886321
 20
-125.992654048363
 30
0.0
 10
76.48921574693672
 20
-125.992654048363
 30
0.0
 10
76.80874835319365
 20
-125.992654048363
 30
0.0
 10
77.1176011634463
 20
-125.9616481889957
 30
0.0
 10
77.1176011634463
 20
-125.7363389442604
 30
0.0
 10
77.1176011634463
 20
-125.5223985146263
 30
0.0
 10
76.83613686230139
 20
-125.4800238401578
 30
0.0
 10
76.48921574693672
 20
-125.4800238401578
 30
0.0
 10
76.16985539545406
 20
-125.4800238401578
 30
0.0
 10
75.86100258520142
 20
-125.5130967568162
 30
0.0
 10
75.86100258520142
 20
-125.7363389442604
 30
0.0
  0
HATCH
  5
95
330
8D
100
AcDbEntity
  8
_U+30EC_U+30A4_U+30E4_U+30FC 1
 62
   179
420
  2234388
100
AcDbHatch
 10
0.0
 20
0.0
 30
0.0
210
0.0
220
0.0
230
1.0
  2
SOLID
 70
     1
 71
     0
 91
        2
 92
        1
 93
        1
 72
     4
 94
        3
 73
     0
 74
     1
 95
       29
 96
       25
 40
0.0
 40
0.0
 40
0.0
 40
0.0
 40
1.0
 40
1.0
 40
1.0
 40
2.0
 40
2.0
 40
2.0
 40
3.0
 40
3.0
 40
3.0
 40
4.0
 40
4.0
 40
4.0
 40
5.0
 40
5.0
 40
5.0
 40
6.0
 40
6.0
 40
6.0
 40
7.0
 40
7.0
 40
7.0
 40
8.0
 40
8.0
 40
8.0
 40
8.0
 10
77.08366697291659
 20
-125.3921739052839
 10
77.29312877841977
 20
-125.4855359929342
 10
77.31224905836291
 20
-125.6357421560911
 10
77.31224905836291
 20
-125.7363389442604
 10
77.31224905836291
 20
-125.8755208018645
 10
77.26574026931205
 20
-125.9981662011394
 10
77.08366697291659
 20
-126.0805039832368
 10
76.88919133277423
 20
-126.1700764658533
 10
76.65216876338904
 20
-126.1866129241825
 10
76.48921574693672
 20
-126.1866129241825
 10
76.34538301042754
 20
-126.1866129241825
 10
76.09371878523005
 20
-126.1717990135959
 10
75.89476452095687
 20
-126.0805039832368
 10
75.69167614210139
 20
-125.9871418955865
 10
75.66842174757595
 20
-125.8479600379825
 10
75.66842174757595
 20
-125.7363389442604
 10
75.66842174757595
 20
-125.5992241439474
 10
75.71286347933568
 20
-125.4745116873814
 10
75.89476452095687
 20
-125.3921739052839
 10
76.08734535858234
 20
-125.3063910277012
 10
76.3157551892544
 20
-125.2860649643382
 10
76.48921574693672
 20
-125.2860649643382
 10
76.66060924732791
 20
-125.2860649643382
 10
76.89125839006539
 20
-125.30432397041
 10
77.08366697291659
 20
-125.3921739052839
 97
        0
 97
        0
 92
        1
 93
        1
 72
     4
 94
        3
 73
     0
 74
     1
 95
       17
 96
       13
 40
0.0
 40
0.0
 40
0.0
 40
0.0
 40
1.0
 40
1.0
 40
1.0
 40
2.0
 40
2.0
 40
2.0
 40
3.0
 40
3.0
 40
3.0
 40
4.0
 40
4.0
 40
4.0
 40
4.0
 10
75.86100258520142
 20
-125.7363389442604
 10
75.86100258520142
 20
-125.9523464311855
 10
76.14436168886321
 20
-125.992654048363
 10
76.48921574693672
 20
-125.992654048363
 10
76.80874835319365
 20
-125.992654048363
 10
77.1176011634463
 20
-125.9616481889957
 10
77.1176011634463
 20
-125.7363389442604
 10
77.1176011634463
 20
-125.5223985146263
 10
76.83613686230139
 20
-125.4800238401578
 10
76.48921574693672
 20
-125.4800238401578
 10
76.16985539545406
 20
-125.4800238401578
 10
75.86100258520142
 20
-125.5130967568162
 10
75.86100258520142
 20
-125.7363389442604
 97
        0
 97
        0
 75
     2
 76
     1
 98
        0
  0
ENDBLK
  5
90
330
8D
100
AcDbEntity
  8
0
100
AcDbBlockEnd
  0
BLOCK
  5
A4
330
A2
100
AcDbEntity
  8
0
100
AcDbBlockBegin
  2
block 4
 70
     0
 10
0.0
 20
0.0
 30
0.0
  3
block 4
  1

  0
SPLINE
  5
A6
330
A2
100
AcDbEntity
  8
_U+30EC_U+30A4_U+30E4_U+30FC 1
370
     0
100
AcDbSpline
210
0.0
220
0.0
230
1.0
 70
    11
 71
     3
 72
    44
 73
    40
 74
     0
 42
0.0000000001
 43
0.0000000001
 12
1.0
 22
0.0
 32
0.0
 13
1.0
 23
0.0
 33
0.0
 40
0.0
 40
0.0
 40
0.0
 40
0.0
 40
1.0
 40
1.0
 40
1.0
 40
2.0
 40
2.0
 40
2.0
 40
3.0
 40
3.0
 40
3.0
 40
4.0
 40
4.0
 40
4.0
 40
5.0
 40
5.0
 40
5.0
 40
6.0
 40
6.0
 40
6.0
 40
7.0
 40
7.0
 40
7.0
 40
8.0
 40
8.0
 40
8.0
 40
9.0
 40
9.0
 40
9.0
 40
10.0
 40
10.0
 40
10.0
 40
11.0
 40
11.0
 40
11.0
 40
12.0
 40
12.0
 40
12.0
 40
13.0
 40
13.0
 40
13.0
 40
13.0
 10
91.19460582572566
 20
-138.8318359027921
 30
0.0
 10
91.00581459313396
 20
-138.9906548046621
 30
0.0
 10
90.92554386832765
 20
-139.0647243575949
 30
0.0
 10
90.8835137034076
 20
-139.2083848393299
 30
0.0
 10
90.8835137034076
 20
-139.2083848393299
 30
0.0
 10
91.55685761599968
 20
-139.2083848393299
 30
0.0
 10
91.55685761599968
 20
-139.2083848393299
 30
0.0
 10
91.55685761599968
 20
-139.2083848393299
 30
0.0
 10
91.55685761599968
 20
-139.4137125302507
 30
0.0
 10
91.55685761599968
 20
-139.4137125302507
 30
0.0
 10
91.55685761599968
 20
-139.4137125302507
 30
0.0
 10
90.66750621648244
 20
-139.4137125302507
 30
0.0
 10
90.66750621648244
 20
-139.4137125302507
 30
0.0
 10
90.6947224708159
 20
-139.0561116188818
 30
0.0
 10
90.75156654632254
 20
-138.9779079513666
 30
0.0
 10
91.08470727974618
 20
-138.679562682344
 30
0.0
 10
91.30622691944775
 20
-138.4807806728451
 30
0.0
 10
91.36272648540584
 20
-138.4129122917857
 30
0.0
 10
91.36272648540584
 20
-138.2754529819242
 30
0.0
 10
91.36272648540584
 20
-138.1569416972316
 30
0.0
 10
91.30071476667135
 20
-138.0260280687921
 30
0.0
 10
91.1305270497
 20
-138.0260280687921
 30
0.0
 10
90.90521780496468
 20
-138.0260280687921
 30
0.0
 10
90.89798310444564
 20
-138.2565049567553
 30
0.0
 10
90.89419349941187
 20
-138.3729491841568
 30
0.0
 10
90.89419349941187
 20
-138.3729491841568
 30
0.0
 10
90.70023462359231
 20
-138.3729491841568
 30
0.0
 10
90.70023462359231
 20
-138.3729491841568
 30
0.0
 10
90.70781383365986
 20
-138.2458251607511
 30
0.0
 10
90.71677108192151
 20
-138.1338595574804
 30
0.0
 10
90.78636201072355
 20
-138.0153482727878
 30
0.0
 10
90.88144664611644
 20
-137.8544623136267
 30
0.0
 10
91.04267711482613
 20
-137.8207003778712
 30
0.0
 10
91.14327390299543
 20
-137.8207003778712
 30
0.0
 10
91.38322480354309
 20
-137.8207003778712
 30
0.0
 10
91.56236976877608
 20
-138.0046684767836
 30
0.0
 10
91.56236976877608
 20
-138.2775200392153
 30
0.0
 10
91.56236976877608
 20
-138.506274379436
 30
0.0
 10
91.46177298060678
 20
-138.6054931294111
 30
0.0
 10
91.19460582572566
 20
-138.8318359027921
 30
0.0
  0
HATCH
  5
A7
330
A2
100
AcDbEntity
  8
_U+30EC_U+30A4_U+30E4_U+30FC 1
 62
   179
420
  2234388
100
AcDbHatch
 10
0.0
 20
0.0
 30
0.0
210
0.0
220
0.0
230
1.0
  2
SOLID
 70
     1
 71
     0
 91
        1
 92
        1
 93
        1
 72
     4
 94
        3
 73
     0
 74
     1
 95
       44
 96
       40
 40
0.0
 40
0.0
 40
0.0
 40
0.0
 40
1.0
 40
1.0
 40
1.0
 40
2.0
 40
2.0
 40
2.0
 40
3.0
 40
3.0
 40
3.0
 40
4.0
 40
4.0
 40
4.0
 40
5.0
 40
5.0
 40
5.0
 40
6.0
 40
6.0
 40
6.0
 40
7.0
 40
7.0
 40
7.0
 40
8.0
 40
8.0
 40
8.0
 40
9.0
 40
9.0
 40
9.0
 40
10.0
 40
10.0
 40
10.0
 40
11.0
 40
11.0
 40
11.0
 40
12.0
 40
12.0
 40
12.0
 40
13.0
 40
13.0
 40
13.0
 40
13.0
 10
91.19460582572566
 20
-138.8318359027921
 10
91.00581459313396
 20
-138.9906548046621
 10
90.92554386832765
 20
-139.0647243575949
 10
90.8835137034076
 20
-139.2083848393299
 10
90.8835137034076
 20
-139.2083848393299
 10
91.55685761599968
 20
-139.2083848393299
 10
91.55685761599968
 20
-139.2083848393299
 10
91.55685761599968
 20
-139.2083848393299
 10
91.55685761599968
 20
-139.4137125302507
 10
91.55685761599968
 20
-139.4137125302507
 10
91.55685761599968
 20
-139.4137125302507
 10
90.66750621648244
 20
-139.4137125302507
 10
90.66750621648244
 20
-139.4137125302507
 10
90.6947224708159
 20
-139.0561116188818
 10
90.75156654632254
 20
-138.9779079513666
 10
91.08470727974618
 20
-138.679562682344
 10
91.30622691944775
 20
-138.4807806728451
 10
91.36272648540584
 20
-138.4129122917857
 10
91.36272648540584
 20
-138.2754529819242
 10
91.36272648540584
 20
-138.1569416972316
 10
91.30071476667135
 20
-138.0260280687921
 10
91.1305270497
 20
-138.0260280687921
 10
90.90521780496468
 20
-138.0260280687921
 10
90.89798310444564
 20
-138.2565049567553
 10
90.89419349941187
 20
-138.3729491841568
 10
90.89419349941187
 20
-138.3729491841568
 10
90.70023462359231
 20
-138.3729491841568
 10
90.70023462359231
 20
-138.3729491841568
 10
90.70781383365986
 20
-138.2458251607511
 10
90.71677108192151
 20
-138.1338595574804
 10
90.78636201072355
 20
-138.0153482727878
 10
90.88144664611644
 20
-137.8544623136267
 10
91.04267711482613
 20
-137.8207003778712
 10
91.14327390299543
 20
-137.8207003778712
 10
91.38322480354309
 20
-137.8207003778712
 10
91.56236976877608
 20
-138.0046684767836
 10
91.56236976877608
 20
-138.2775200392153
 10
91.56236976877608
 20
-138.506274379436
 10
91.46177298060678
 20
-138.6054931294111
 10
91.19460582572566
 20
-138.8318359027921
 97
        0
 97
        0
 75
     2
 76
     1
 98
        0
  0
SPLINE
  5
A8
330
A2
100
AcDbEntity
  8
_U+30EC_U+30A4_U+30E4_U+30FC 1
370
     0
100
AcDbSpline
210
0.0
220
0.0
230
1.0
 70
    11
 71
     3
 72
    29
 73
    25
 74
     0
 42
0.0000000001
 43
0.0000000001
 12
1.0
 22
0.0
 32
0.0
 13
1.0
 23
0.0
 33
0.0
 40
0.0
 40
0.0
 40
0.0
 40
0.0
 40
1.0
 40
1.0
 40
1.0
 40
2.0
 40
2.0
 40
2.0
 40
3.0
 40
3.0
 40
3.0
 40
4.0
 40
4.0
 40
4.0
 40
5.0
 40
5.0
 40
5.0
 40
6.0
 40
6.0
 40
6.0
 40
7.0
 40
7.0
 40
7.0
 40
8.0
 40
8.0
 40
8.0
 40
8.0
 10
92.47566458191581
 20
-139.2359456032119
 30
0.0
 10
92.38230249426555
 20
-139.4454074087151
 30
0.0
 10
92.23209633110865
 20
-139.4643554338839
 30
0.0
 10
92.13149954293935
 20
-139.4643554338839
 30
0.0
 10
91.99231768533525
 20
-139.4643554338839
 30
0.0
 10
91.86967228606036
 20
-139.417846644833
 30
0.0
 10
91.7873345039629
 20
-139.2359456032119
 30
0.0
 10
91.69776202134639
 20
-139.0412977082952
 30
0.0
 10
91.6812255630172
 20
-138.80427513891
 30
0.0
 10
91.6812255630172
 20
-138.6416666320063
 30
0.0
 10
91.6812255630172
 20
-138.4976616407228
 30
0.0
 10
91.69603947360378
 20
-138.2458251607511
 30
0.0
 10
91.7873345039629
 20
-138.0470431512521
 30
0.0
 10
91.88069659161316
 20
-137.8441270271709
 30
0.0
 10
92.01987844921726
 20
-137.8207003778712
 30
0.0
 10
92.13149954293935
 20
-137.8207003778712
 30
0.0
 10
92.2686143432523
 20
-137.8207003778712
 30
0.0
 10
92.39332679981834
 20
-137.8651421096309
 30
0.0
 10
92.47566458191581
 20
-138.0470431512521
 30
0.0
 10
92.56144745949854
 20
-138.2396239888776
 30
0.0
 10
92.58177352286151
 20
-138.4680338195497
 30
0.0
 10
92.58177352286151
 20
-138.6416666320063
 30
0.0
 10
92.58177352286151
 20
-138.8128878776232
 30
0.0
 10
92.56351451678968
 20
-139.0433647655864
 30
0.0
 10
92.47566458191581
 20
-139.2359456032119
 30
0.0
  0
SPLINE
  5
A9
330
A2
100
AcDbEntity
  8
_U+30EC_U+30A4_U+30E4_U+30FC 1
370
     0
100
AcDbSpline
210
0.0
220
0.0
230
1.0
 70
    11
 71
     3
 72
    17
 73
    13
 74
     0
 42
0.0000000001
 43
0.0000000001
 12
1.0
 22
0.0
 32
0.0
 13
1.0
 23
0.0
 33
0.0
 40
0.0
 40
0.0
 40
0.0
 40
0.0
 40
1.0
 40
1.0
 40
1.0
 40
2.0
 40
2.0
 40
2.0
 40
3.0
 40
3.0
 40
3.0
 40
4.0
 40
4.0
 40
4.0
 40
4.0
 10
92.13149954293935
 20
-138.0132812154967
 30
0.0
 10
91.91549205601419
 20
-138.0132812154967
 30
0.0
 10
91.87518443883677
 20
-138.2968125739328
 30
0.0
 10
91.87518443883677
 20
-138.6416666320063
 30
0.0
 10
91.87518443883677
 20
-138.9610269834889
 30
0.0
 10
91.90619029820401
 20
-139.2697075389673
 30
0.0
 10
92.13149954293935
 20
-139.2697075389673
 30
0.0
 10
92.34543997257336
 20
-139.2697075389673
 30
0.0
 10
92.38781464704194
 20
-138.9885877473709
 30
0.0
 10
92.38781464704194
 20
-138.6416666320063
 30
0.0
 10
92.38781464704194
 20
-138.3219617709751
 30
0.0
 10
92.35474173038354
 20
-138.0132812154967
 30
0.0
 10
92.13149954293935
 20
-138.0132812154967
 30
0.0
  0
HATCH
  5
AA
330
A2
100
AcDbEntity
  8
_U+30EC_U+30A4_U+30E4_U+30FC 1
 62
   179
420
  2234388
100
AcDbHatch
 10
0.0
 20
0.0
 30
0.0
210
0.0
220
0.0
230
1.0
  2
SOLID
 70
     1
 71
     0
 91
        2
 92
        1
 93
        1
 72
     4
 94
        3
 73
     0
 74
     1
 95
       29
 96
       25
 40
0.0
 40
0.0
 40
0.0
 40
0.0
 40
1.0
 40
1.0
 40
1.0
 40
2.0
 40
2.0
 40
2.0
 40
3.0
 40
3.0
 40
3.0
 40
4.0
 40
4.0
 40
4.0
 40
5.0
 40
5.0
 40
5.0
 40
6.0
 40
6.0
 40
6.0
 40
7.0
 40
7.0
 40
7.0
 40
8.0
 40
8.0
 40
8.0
 40
8.0
 10
92.47566458191581
 20
-139.2359456032119
 10
92.38230249426555
 20
-139.4454074087151
 10
92.23209633110865
 20
-139.4643554338839
 10
92.13149954293935
 20
-139.4643554338839
 10
91.99231768533525
 20
-139.4643554338839
 10
91.86967228606036
 20
-139.417846644833
 10
91.7873345039629
 20
-139.2359456032119
 10
91.69776202134639
 20
-139.0412977082952
 10
91.6812255630172
 20
-138.80427513891
 10
91.6812255630172
 20
-138.6416666320063
 10
91.6812255630172
 20
-138.4976616407228
 10
91.69603947360378
 20
-138.2458251607511
 10
91.7873345039629
 20
-138.0470431512521
 10
91.88069659161316
 20
-137.8441270271709
 10
92.01987844921726
 20
-137.8207003778712
 10
92.13149954293935
 20
-137.8207003778712
 10
92.2686143432523
 20
-137.8207003778712
 10
92.39332679981834
 20
-137.8651421096309
 10
92.47566458191581
 20
-138.0470431512521
 10
92.56144745949854
 20
-138.2396239888776
 10
92.58177352286151
 20
-138.4680338195497
 10
92.58177352286151
 20
-138.6416666320063
 10
92.58177352286151
 20
-138.8128878776232
 10
92.56351451678968
 20
-139.0433647655864
 10
92.47566458191581
 20
-139.2359456032119
 97
        0
 97
        0
 92
        1
 93
        1
 72
     4
 94
        3
 73
     0
 74
     1
 95
       17
 96
       13
 40
0.0
 40
0.0
 40
0.0
 40
0.0
 40
1.0
 40
1.0
 40
1.0
 40
2.0
 40
2.0
 40
2.0
 40
3.0
 40
3.0
 40
3.0
 40
4.0
 40
4.0
 40
4.0
 40
4.0
 10
92.13149954293935
 20
-138.0132812154967
 10
91.91549205601419
 20
-138.0132812154967
 10
91.87518443883677
 20
-138.2968125739328
 10
91.87518443883677
 20
-138.6416666320063
 10
91.87518443883677
 20
-138.9610269834889
 10
91.90619029820401
 20
-139.2697075389673
 10
92.13149954293935
 20
-139.2697075389673
 10
92.34543997257336
 20
-139.2697075389673
 10
92.38781464704194
 20
-138.9885877473709
 10
92.38781464704194
 20
-138.6416666320063
 10
92.38781464704194
 20
-138.3219617709751
 10
92.35474173038354
 20
-138.0132812154967
 10
92.13149954293935
 20
-138.0132812154967
 97
        0
 97
        0
 75
     2
 76
     1
 98
        0
  0
ENDBLK
  5
A5
330
A2
100
AcDbEntity
  8
0
100
AcDbBlockEnd
  0
ENDSEC
  0
SECTION
  2
ENTITIES
  0
POLYLINE
  5
41
330
1F
100
AcDbEntity
  8
_U+30EC_U+30A4_U+30E4_U+30FC 1
 62
   179
420
  2234388
370
    25
100
AcDb2dPolyline
 66
     1
 10
0.0
 20
0.0
 30
0.0
  0
VERTEX
  5
42
330
41
100
AcDbEntity
  8
_U+30EC_U+30A4_U+30E4_U+30FC 1
 62
   179
420
  2234388
370
    25
100
AcDbVertex
100
AcDb2dVertex
 10
101.8577015680602
 20
-134.5113444108164
 30
0.0
  0
VERTEX
  5
43
330
41
100
AcDbEntity
  8
_U+30EC_U+30A4_U+30E4_U+30FC 1
 62
   179
420
  2234388
370
    25
100
AcDbVertex
100
AcDb2dVertex
 10
101.8577015680602
 20
-136.0113202437751
 30
0.0
  0
SEQEND
  5
44
330
41
100
AcDbEntity
  8
_U+30EC_U+30A4_U+30E4_U+30FC 1
 62
   179
420
  2234388
370
    25
  0
POLYLINE
  5
45
330
1F
100
AcDbEntity
  8
_U+30EC_U+30A4_U+30E4_U+30FC 1
 62
   179
420
  2234388
370
    25
100
AcDb2dPolyline
 66
     1
 10
0.0
 20
0.0
 30
0.0
  0
VERTEX
  5
46
330
45
100
AcDbEntity
  8
_U+30EC_U+30A4_U+30E4_U+30FC 1
 62
   179
420
  2234388
370
    25
100
AcDbVertex
100
AcDb2dVertex
 10
81.85753041164041
 20
-136.0113202437751
 30
0.0
  0
VERTEX
  5
47
330
45
100
AcDbEntity
  8
_U+30EC_U+30A4_U+30E4_U+30FC 1
 62
   179
420
  2234388
370
    25
100
AcDbVertex
100
AcDb2dVertex
 10
101.8577015680602
 20
-136.0113202437751
 30
0.0
  0
SEQEND
  5
48
330
45
100
AcDbEntity
  8
_U+30EC_U+30A4_U+30E4_U+30FC 1
 62
   179
420
  2234388
370
    25
  0
SPLINE
  5
49
330
1F
100
AcDbEntity
  8
_U+30EC_U+30A4_U+30E4_U+30FC 1
370
     0
100
AcDbSpline
210
0.0
220
0.0
230
1.0
 70
    11
 71
     3
 72
    38
 73
    34
 74
     0
 42
0.0000000001
 43
0.0000000001
 12
1.0
 22
0.0
 32
0.0
 13
1.0
 23
0.0
 33
0.0
 40
0.0
 40
0.0
 40
0.0
 40
0.0
 40
1.0
 40
1.0
 40
1.0
 40
2.0
 40
2.0
 40
2.0
 40
3.0
 40
3.0
 40
3.0
 40
4.0
 40
4.0
 40
4.0
 40
5.0
 40
5.0
 40
5.0
 40
6.0
 40
6.0
 40
6.0
 40
7.0
 40
7.0
 40
7.0
 40
8.0
 40
8.0
 40
8.0
 40
9.0
 40
9.0
 40
9.0
 40
10.0
 40
10.0
 40
10.0
 40
11.0
 40
11.0
 40
11.0
 40
11.0
 10
101.8577015680602
 20
-134.3790527441828
 30
0.0
 10
101.8577015680602
 20
-134.3790527441828
 30
0.0
 10
83.48983314777468
 20
-134.3790527441828
 30
0.0
 10
83.48983314777468
 20
-134.3790527441828
 30
0.0
 10
83.48983314777468
 20
-134.3790527441828
 30
0.0
 10
83.48983314777468
 20
-116.0101608043309
 30
0.0
 10
83.48983314777468
 20
-116.0101608043309
 30
0.0
 10
83.48983314777468
 20
-115.9371005265712
 30
0.0
 10
83.43056648262004
 20
-115.8778691376973
 30
0.0
 10
83.35754148448305
 20
-115.8778691376973
 30
0.0
 10
83.35754148448305
 20
-115.8778691376973
 30
0.0
 10
81.85753041164041
 20
-115.8778691376973
 30
0.0
 10
81.85753041164041
 20
-115.8778691376973
 30
0.0
 10
81.78450541350344
 20
-115.8778691376973
 30
0.0
 10
81.72523874834879
 20
-115.9371005265712
 30
0.0
 10
81.72523874834879
 20
-116.0101608043309
 30
0.0
 10
81.72523874834879
 20
-116.0101608043309
 30
0.0
 10
81.72523874834879
 20
-136.0113202437751
 30
0.0
 10
81.72523874834879
 20
-136.0113202437751
 30
0.0
 10
81.72523874834879
 20
-136.0843805215345
 30
0.0
 10
81.78450541350344
 20
-136.1436119104087
 30
0.0
 10
81.85753041164041
 20
-136.1436119104087
 30
0.0
 10
81.85753041164041
 20
-136.1436119104087
 30
0.0
 10
101.8577015680602
 20
-136.1436119104087
 30
0.0
 10
101.8577015680602
 20
-136.1436119104087
 30
0.0
 10
101.9307265661972
 20
-136.1436119104087
 30
0.0
 10
101.9899932313518
 20
-136.0843805215345
 30
0.0
 10
101.9899932313518
 20
-136.0113202437751
 30
0.0
 10
101.9899932313518
 20
-136.0113202437751
 30
0.0
 10
101.9899932313518
 20
-134.5113444108164
 30
0.0
 10
101.9899932313518
 20
-134.5113444108164
 30
0.0
 10
101.9899932313518
 20
-134.4383194108346
 30
0.0
 10
101.9307265661972
 20
-134.3790527441828
 30
0.0
 10
101.8577015680602
 20
-134.3790527441828
 30
0.0
  0
HATCH
  5
4A
330
1F
100
AcDbEntity
  8
_U+30EC_U+30A4_U+30E4_U+30FC 1
 62
   179
420
  2234388
100
AcDbHatch
 10
0.0
 20
0.0
 30
0.0
210
0.0
220
0.0
230
1.0
  2
SOLID
 70
     1
 71
     0
 91
        1
 92
        1
 93
        1
 72
     4
 94
        3
 73
     0
 74
     1
 95
       38
 96
       34
 40
0.0
 40
0.0
 40
0.0
 40
0.0
 40
1.0
 40
1.0
 40
1.0
 40
2.0
 40
2.0
 40
2.0
 40
3.0
 40
3.0
 40
3.0
 40
4.0
 40
4.0
 40
4.0
 40
5.0
 40
5.0
 40
5.0
 40
6.0
 40
6.0
 40
6.0
 40
7.0
 40
7.0
 40
7.0
 40
8.0
 40
8.0
 40
8.0
 40
9.0
 40
9.0
 40
9.0
 40
10.0
 40
10.0
 40
10.0
 40
11.0
 40
11.0
 40
11.0
 40
11.0
 10
101.8577015680602
 20
-134.3790527441828
 10
101.8577015680602
 20
-134.3790527441828
 10
83.48983314777468
 20
-134.3790527441828
 10
83.48983314777468
 20
-134.3790527441828
 10
83.48983314777468
 20
-134.3790527441828
 10
83.48983314777468
 20
-116.0101608043309
 10
83.48983314777468
 20
-116.0101608043309
 10
83.48983314777468
 20
-115.9371005265712
 10
83.43056648262004
 20
-115.8778691376973
 10
83.35754148448305
 20
-115.8778691376973
 10
83.35754148448305
 20
-115.8778691376973
 10
81.85753041164041
 20
-115.8778691376973
 10
81.85753041164041
 20
-115.8778691376973
 10
81.78450541350344
 20
-115.8778691376973
 10
81.72523874834879
 20
-115.9371005265712
 10
81.72523874834879
 20
-116.0101608043309
 10
81.72523874834879
 20
-116.0101608043309
 10
81.72523874834879
 20
-136.0113202437751
 10
81.72523874834879
 20
-136.0113202437751
 10
81.72523874834879
 20
-136.0843805215345
 10
81.78450541350344
 20
-136.1436119104087
 10
81.85753041164041
 20
-136.1436119104087
 10
81.85753041164041
 20
-136.1436119104087
 10
101.8577015680602
 20
-136.1436119104087
 10
101.8577015680602
 20
-136.1436119104087
 10
101.9307265661972
 20
-136.1436119104087
 10
101.9899932313518
 20
-136.0843805215345
 10
101.9899932313518
 20
-136.0113202437751
 10
101.9899932313518
 20
-136.0113202437751
 10
101.9899932313518
 20
-134.5113444108164
 10
101.9899932313518
 20
-134.5113444108164
 10
101.9899932313518
 20
-134.4383194108346
 10
101.9307265661972
 20
-134.3790527441828
 10
101.8577015680602
 20
-134.3790527441828
 97
        0
 97
        0
 75
     2
 76
     1
 98
        0
  0
POLYLINE
  5
4B
330
1F
100
AcDbEntity
  8
_U+30EC_U+30A4_U+30E4_U+30FC 1
 62
   179
420
  2234388
370
    25
100
AcDb2dPolyline
 66
     1
 10
0.0
 20
0.0
 30
0.0
  0
VERTEX
  5
4C
330
4B
100
AcDbEntity
  8
_U+30EC_U+30A4_U+30E4_U+30FC 1
 62
   179
420
  2234388
370
    25
100
AcDbVertex
100
AcDb2dVertex
 10
81.85753041164041
 20
-116.0101608043309
 30
0.0
  0
VERTEX
  5
4D
330
4B
100
AcDbEntity
  8
_U+30EC_U+30A4_U+30E4_U+30FC 1
 62
   179
420
  2234388
370
    25
100
AcDbVertex
100
AcDb2dVertex
 10
81.85753041164041
 20
-136.0113202437751
 30
0.0
  0
SEQEND
  5
4E
330
4B
100
AcDbEntity
  8
_U+30EC_U+30A4_U+30E4_U+30FC 1
 62
   179
420
  2234388
370
    25
  0
POLYLINE
  5
4F
330
1F
100
AcDbEntity
  8
_U+30EC_U+30A4_U+30E4_U+30FC 1
 62
   179
420
  2234388
370
    25
100
AcDb2dPolyline
 66
     1
 10
0.0
 20
0.0
 30
0.0
  0
VERTEX
  5
50
330
4F
100
AcDbEntity
  8
_U+30EC_U+30A4_U+30E4_U+30FC 1
 62
   179
420
  2234388
370
    25
100
AcDbVertex
100
AcDb2dVertex
 10
81.85753041164041
 20
-116.0101608043309
 30
0.0
  0
VERTEX
  5
51
330
4F
100
AcDbEntity
  8
_U+30EC_U+30A4_U+30E4_U+30FC 1
 62
   179
420
  2234388
370
    25
100
AcDbVertex
100
AcDb2dVertex
 10
83.35754148448305
 20
-116.0101608043309
 30
0.0
  0
SEQEND
  5
52
330
4F
100
AcDbEntity
  8
_U+30EC_U+30A4_U+30E4_U+30FC 1
 62
   179
420
  2234388
370
    25
  0
POLYLINE
  5
53
330
1F
100
AcDbEntity
  8
_U+30EC_U+30A4_U+30E4_U+30FC 1
 62
   179
420
  2234388
370
    25
100
AcDb2dPolyline
 66
     1
 10
0.0
 20
0.0
 30
0.0
  0
VERTEX
  5
54
330
53
100
AcDbEntity
  8
_U+30EC_U+30A4_U+30E4_U+30FC 1
 62
   179
420
  2234388
370
    25
100
AcDbVertex
100
AcDb2dVertex
 10
83.35754148448305
 20
-116.0101608043309
 30
0.0
  0
VERTEX
  5
55
330
53
100
AcDbEntity
  8
_U+30EC_U+30A4_U+30E4_U+30FC 1
 62
   179
420
  2234388
370
    25
100
AcDbVertex
100
AcDb2dVertex
 10
83.35754148448305
 20
-134.5113444108164
 30
0.0
  0
SEQEND
  5
56
330
53
100
AcDbEntity
  8
_U+30EC_U+30A4_U+30E4_U+30FC 1
 62
   179
420
  2234388
370
    25
  0
POLYLINE
  5
57
330
1F
100
AcDbEntity
  8
_U+30EC_U+30A4_U+30E4_U+30FC 1
 62
   179
420
  2234388
370
    25
100
AcDb2dPolyline
 66
     1
 10
0.0
 20
0.0
 30
0.0
  0
VERTEX
  5
58
330
57
100
AcDbEntity
  8
_U+30EC_U+30A4_U+30E4_U+30FC 1
 62
   179
420
  2234388
370
    25
100
AcDbVertex
100
AcDb2dVertex
 10
83.35754148448305
 20
-134.5113444108164
 30
0.0
  0
VERTEX
  5
59
330
57
100
AcDbEntity
  8
_U+30EC_U+30A4_U+30E4_U+30FC 1
 62
   179
420
  2234388
370
    25
100
AcDbVertex
100
AcDb2dVertex
 10
101.8577015680602
 20
-134.5113444108164
 30
0.0
  0
SEQEND
  5
5A
330
57
100
AcDbEntity
  8
_U+30EC_U+30A4_U+30E4_U+30FC 1
 62
   179
420
  2234388
370
    25
  0
SPLINE
  5
5B
330
1F
100
AcDbEntity
  8
_U+30EC_U+30A4_U+30E4_U+30FC 1
 62
   179
420
  2234388
370
     9
100
AcDbSpline
210
0.0
220
0.0
230
1.0
 70
    11
 71
     3
 72
    17
 73
    13
 74
     0
 42
0.0000000001
 43
0.0000000001
 12
1.0
 22
0.0
 32
0.0
 13
1.0
 23
0.0
 33
0.0
 40
0.0
 40
0.0
 40
0.0
 40
0.0
 40
1.0
 40
1.0
 40
1.0
 40
2.0
 40
2.0
 40
2.0
 40
3.0
 40
3.0
 40
3.0
 40
4.0
 40
4.0
 40
4.0
 40
4.0
 10
105.9573672968024
 20
-136.0113202437751
 30
0.0
 10
105.9573672968024
 20
-135.9555107993447
 30
0.0
 10
105.9125645201676
 20
-135.9107432993555
 30
0.0
 10
105.8574606326845
 20
-135.9107432993555
 30
0.0
 10
105.8023214674246
 20
-135.9107432993555
 30
0.0
 10
105.7575539685667
 20
-135.9555107993447
 30
0.0
 10
105.7575539685667
 20
-136.0113202437751
 30
0.0
 10
105.7575539685667
 20
-136.0664594104276
 30
0.0
 10
105.8023214674246
 20
-136.1112269104168
 30
0.0
 10
105.8574606326845
 20
-136.1112269104168
 30
0.0
 10
105.9125645201676
 20
-136.1112269104168
 30
0.0
 10
105.9573672968024
 20
-136.0664594104276
 30
0.0
 10
105.9573672968024
 20
-136.0113202437751
 30
0.0
  0
SPLINE
  5
5C
330
1F
100
AcDbEntity
  8
_U+30EC_U+30A4_U+30E4_U+30FC 1
 62
   179
420
  2234388
370
     9
100
AcDbSpline
210
0.0
220
0.0
230
1.0
 70
    11
 71
     3
 72
    17
 73
    13
 74
     0
 42
0.0000000001
 43
0.0000000001
 12
1.0
 22
0.0
 32
0.0
 13
1.0
 23
0.0
 33
0.0
 40
0.0
 40
0.0
 40
0.0
 40
0.0
 40
1.0
 40
1.0
 40
1.0
 40
2.0
 40
2.0
 40
2.0
 40
3.0
 40
3.0
 40
3.0
 40
4.0
 40
4.0
 40
4.0
 40
4.0
 10
101.957608232178
 20
-140.0110794094414
 30
0.0
 10
101.957608232178
 20
-139.9559755205665
 30
0.0
 10
101.9128054555433
 20
-139.9111727427997
 30
0.0
 10
101.8577015680602
 20
-139.9111727427997
 30
0.0
 10
101.8025624028003
 20
-139.9111727427997
 30
0.0
 10
101.7577949039424
 20
-139.9559755205665
 30
0.0
 10
101.7577949039424
 20
-140.0110794094414
 30
0.0
 10
101.7577949039424
 20
-140.0662185760945
 30
0.0
 10
101.8025624028003
 20
-140.1109860760837
 30
0.0
 10
101.8577015680602
 20
-140.1109860760837
 30
0.0
 10
101.9128054555433
 20
-140.1109860760837
 30
0.0
 10
101.957608232178
 20
-140.0662185760945
 30
0.0
 10
101.957608232178
 20
-140.0110794094414
 30
0.0
  0
SPLINE
  5
5D
330
1F
100
AcDbEntity
  8
_U+30EC_U+30A4_U+30E4_U+30FC 1
 62
   179
420
  2234388
370
     9
100
AcDbSpline
210
0.0
220
0.0
230
1.0
 70
    11
 71
     3
 72
    17
 73
    13
 74
     0
 42
0.0000000001
 43
0.0000000001
 12
1.0
 22
0.0
 32
0.0
 13
1.0
 23
0.0
 33
0.0
 40
0.0
 40
0.0
 40
0.0
 40
0.0
 40
1.0
 40
1.0
 40
1.0
 40
2.0
 40
2.0
 40
2.0
 40
3.0
 40
3.0
 40
3.0
 40
4.0
 40
4.0
 40
4.0
 40
4.0
 10
81.95743707575825
 20
-140.0110794094414
 30
0.0
 10
81.95743707575825
 20
-139.9559755205665
 30
0.0
 10
81.91266957690037
 20
-139.9111727427997
 30
0.0
 10
81.85753041164041
 20
-139.9111727427997
 30
0.0
 10
81.80242652415734
 20
-139.9111727427997
 30
0.0
 10
81.75762374752259
 20
-139.9559755205665
 30
0.0
 10
81.75762374752259
 20
-140.0110794094414
 30
0.0
 10
81.75762374752259
 20
-140.0662185760945
 30
0.0
 10
81.80242652415734
 20
-140.1109860760837
 30
0.0
 10
81.85753041164041
 20
-140.1109860760837
 30
0.0
 10
81.91266957690037
 20
-140.1109860760837
 30
0.0
 10
81.95743707575825
 20
-140.0662185760945
 30
0.0
 10
81.95743707575825
 20
-140.0110794094414
 30
0.0
  0
SPLINE
  5
5E
330
1F
100
AcDbEntity
  8
_U+30EC_U+30A4_U+30E4_U+30FC 1
 62
   179
420
  2234388
370
     9
100
AcDbSpline
210
0.0
220
0.0
230
1.0
 70
    11
 71
     3
 72
    17
 73
    13
 74
     0
 42
0.0000000001
 43
0.0000000001
 12
1.0
 22
0.0
 32
0.0
 13
1.0
 23
0.0
 33
0.0
 40
0.0
 40
0.0
 40
0.0
 40
0.0
 40
1.0
 40
1.0
 40
1.0
 40
2.0
 40
2.0
 40
2.0
 40
3.0
 40
3.0
 40
3.0
 40
4.0
 40
4.0
 40
4.0
 40
4.0
 10
77.95732523336517
 20
-136.0113202437751
 30
0.0
 10
77.95732523336517
 20
-135.9555107993447
 30
0.0
 10
77.91255773450727
 20
-135.9107432993555
 30
0.0
 10
77.85741856924733
 20
-135.9107432993555
 30
0.0
 10
77.80196386943847
 20
-135.9107432993555
 30
0.0
 10
77.7571944051376
 20
-135.9555107993447
 30
0.0
 10
77.7571944051376
 20
-136.0113202437751
 30
0.0
 10
77.7571944051376
 20
-136.0664594104276
 30
0.0
 10
77.80196386943847
 20
-136.1112269104168
 30
0.0
 10
77.85741856924733
 20
-136.1112269104168
 30
0.0
 10
77.91255773450727
 20
-136.1112269104168
 30
0.0
 10
77.95732523336517
 20
-136.0664594104276
 30
0.0
 10
77.95732523336517
 20
-136.0113202437751
 30
0.0
  0
SPLINE
  5
5F
330
1F
100
AcDbEntity
  8
_U+30EC_U+30A4_U+30E4_U+30FC 1
 62
   179
420
  2234388
370
     9
100
AcDbSpline
210
0.0
220
0.0
230
1.0
 70
    11
 71
     3
 72
    17
 73
    13
 74
     0
 42
0.0000000001
 43
0.0000000001
 12
1.0
 22
0.0
 32
0.0
 13
1.0
 23
0.0
 33
0.0
 40
0.0
 40
0.0
 40
0.0
 40
0.0
 40
1.0
 40
1.0
 40
1.0
 40
2.0
 40
2.0
 40
2.0
 40
3.0
 40
3.0
 40
3.0
 40
4.0
 40
4.0
 40
4.0
 40
4.0
 10
77.95732523336517
 20
-116.0101608043309
 30
0.0
 10
77.95732523336517
 20
-115.9550216376778
 30
0.0
 10
77.91255773450727
 20
-115.9102541376893
 30
0.0
 10
77.85741856924733
 20
-115.9102541376893
 30
0.0
 10
77.80196386943847
 20
-115.9102541376893
 30
0.0
 10
77.7571944051376
 20
-115.9550216376778
 30
0.0
 10
77.7571944051376
 20
-116.0101608043309
 30
0.0
 10
77.7571944051376
 20
-116.0659702487613
 30
0.0
 10
77.80196386943847
 20
-116.1100674709725
 30
0.0
 10
77.85741856924733
 20
-116.1100674709725
 30
0.0
 10
77.91255773450727
 20
-116.1100674709725
 30
0.0
 10
77.95732523336517
 20
-116.0659702487613
 30
0.0
 10
77.95732523336517
 20
-116.0101608043309
 30
0.0
  0
SPLINE
  5
60
330
1F
100
AcDbEntity
  8
_U+30EC_U+30A4_U+30E4_U+30FC 1
 62
   179
420
  2234388
370
     9
100
AcDbSpline
210
0.0
220
0.0
230
1.0
 70
    11
 71
     3
 72
    17
 73
    13
 74
     0
 42
0.0000000001
 43
0.0000000001
 12
1.0
 22
0.0
 32
0.0
 13
1.0
 23
0.0
 33
0.0
 40
0.0
 40
0.0
 40
0.0
 40
0.0
 40
1.0
 40
1.0
 40
1.0
 40
2.0
 40
2.0
 40
2.0
 40
3.0
 40
3.0
 40
3.0
 40
4.0
 40
4.0
 40
4.0
 40
4.0
 10
105.9573672968024
 20
-134.5113444108164
 30
0.0
 10
105.9573672968024
 20
-134.455534966386
 30
0.0
 10
105.9125645201676
 20
-134.4107321886193
 30
0.0
 10
105.8574606326845
 20
-134.4107321886193
 30
0.0
 10
105.8023214674246
 20
-134.4107321886193
 30
0.0
 10
105.7575539685667
 20
-134.455534966386
 30
0.0
 10
105.7575539685667
 20
-134.5113444108164
 30
0.0
 10
105.7575539685667
 20
-134.566448299692
 30
0.0
 10
105.8023214674246
 20
-134.6112510774581
 30
0.0
 10
105.8574606326845
 20
-134.6112510774581
 30
0.0
 10
105.9125645201676
 20
-134.6112510774581
 30
0.0
 10
105.9573672968024
 20
-134.566448299692
 30
0.0
 10
105.9573672968024
 20
-134.5113444108164
 30
0.0
  0
POLYLINE
  5
61
330
1F
100
AcDbEntity
  8
_U+30EC_U+30A4_U+30E4_U+30FC 1
 62
   179
420
  2234388
370
     9
100
AcDb2dPolyline
 66
     1
 10
0.0
 20
0.0
 30
0.0
  0
VERTEX
  5
62
330
61
100
AcDbEntity
  8
_U+30EC_U+30A4_U+30E4_U+30FC 1
 62
   179
420
  2234388
370
     9
100
AcDbVertex
100
AcDb2dVertex
 10
105.8574606326845
 20
-134.5113444108164
 30
0.0
  0
VERTEX
  5
63
330
61
100
AcDbEntity
  8
_U+30EC_U+30A4_U+30E4_U+30FC 1
 62
   179
420
  2234388
370
     9
100
AcDbVertex
100
AcDb2dVertex
 10
105.8574606326845
 20
-128.8448513566775
 30
0.0
  0
SEQEND
  5
64
330
61
100
AcDbEntity
  8
_U+30EC_U+30A4_U+30E4_U+30FC 1
 62
   179
420
  2234388
370
     9
  0
POLYLINE
  5
65
330
1F
100
AcDbEntity
  8
_U+30EC_U+30A4_U+30E4_U+30FC 1
 62
   179
420
  2234388
370
     9
100
AcDb2dPolyline
 66
     1
 10
0.0
 20
0.0
 30
0.0
  0
VERTEX
  5
66
330
65
100
AcDbEntity
  8
_U+30EC_U+30A4_U+30E4_U+30FC 1
 62
   179
420
  2234388
370
     9
100
AcDbVertex
100
AcDb2dVertex
 10
105.8574606326845
 20
-134.5113444108164
 30
0.0
  0
VERTEX
  5
67
330
65
100
AcDbEntity
  8
_U+30EC_U+30A4_U+30E4_U+30FC 1
 62
   179
420
  2234388
370
     9
100
AcDbVertex
100
AcDb2dVertex
 10
105.8574606326845
 20
-137.0110924657471
 30
0.0
  0
SEQEND
  5
68
330
65
100
AcDbEntity
  8
_U+30EC_U+30A4_U+30E4_U+30FC 1
 62
   179
420
  2234388
370
     9
  0
POLYLINE
  5
69
330
1F
100
AcDbEntity
  8
_U+30EC_U+30A4_U+30E4_U+30FC 1
 62
   179
420
  2234388
370
     9
100
AcDb2dPolyline
 66
     1
 10
0.0
 20
0.0
 30
0.0
  0
VERTEX
  5
6A
330
69
100
AcDbEntity
  8
_U+30EC_U+30A4_U+30E4_U+30FC 1
 62
   179
420
  2234388
370
     9
100
AcDbVertex
100
AcDb2dVertex
 10
104.3974192810444
 20
-134.5113444108164
 30
0.0
  0
VERTEX
  5
6B
330
69
100
AcDbEntity
  8
_U+30EC_U+30A4_U+30E4_U+30FC 1
 62
   179
420
  2234388
370
     9
100
AcDbVertex
100
AcDb2dVertex
 10
106.8579031071611
 20
-134.5113444108164
 30
0.0
  0
SEQEND
  5
6C
330
69
100
AcDbEntity
  8
_U+30EC_U+30A4_U+30E4_U+30FC 1
 62
   179
420
  2234388
370
     9
  0
POLYLINE
  5
6D
330
1F
100
AcDbEntity
  8
_U+30EC_U+30A4_U+30E4_U+30FC 1
 62
   179
420
  2234388
370
     9
100
AcDb2dPolyline
 66
     1
 10
0.0
 20
0.0
 30
0.0
  0
VERTEX
  5
6E
330
6D
100
AcDbEntity
  8
_U+30EC_U+30A4_U+30E4_U+30FC 1
 62
   179
420
  2234388
370
     9
100
AcDbVertex
100
AcDb2dVertex
 10
104.3974192810444
 20
-136.0113202437751
 30
0.0
  0
VERTEX
  5
6F
330
6D
100
AcDbEntity
  8
_U+30EC_U+30A4_U+30E4_U+30FC 1
 62
   179
420
  2234388
370
     9
100
AcDbVertex
100
AcDb2dVertex
 10
106.8579031071611
 20
-136.0113202437751
 30
0.0
  0
SEQEND
  5
70
330
6D
100
AcDbEntity
  8
_U+30EC_U+30A4_U+30E4_U+30FC 1
 62
   179
420
  2234388
370
     9
  0
INSERT
  5
72
330
1F
100
AcDbEntity
  8
_U+30EC_U+30A4_U+30E4_U+30FC 1
100
AcDbBlockReference
  2
block 2
 10
0.0
 20
0.0
 30
0.0
  0
POLYLINE
  5
81
330
1F
100
AcDbEntity
  8
_U+30EC_U+30A4_U+30E4_U+30FC 1
 62
   179
420
  2234388
370
     9
100
AcDb2dPolyline
 66
     1
 10
0.0
 20
0.0
 30
0.0
  0
VERTEX
  5
82
330
81
100
AcDbEntity
  8
_U+30EC_U+30A4_U+30E4_U+30FC 1
 62
   179
420
  2234388
370
     9
100
AcDbVertex
100
AcDb2dVertex
 10
77.85741856924733
 20
-116.0101608043309
 30
0.0
  0
VERTEX
  5
83
330
81
100
AcDbEntity
  8
_U+30EC_U+30A4_U+30E4_U+30FC 1
 62
   179
420
  2234388
370
     9
100
AcDbVertex
100
AcDb2dVertex
 10
77.85741856924733
 20
-136.0113202437751
 30
0.0
  0
SEQEND
  5
84
330
81
100
AcDbEntity
  8
_U+30EC_U+30A4_U+30E4_U+30FC 1
 62
   179
420
  2234388
370
     9
  0
POLYLINE
  5
85
330
1F
100
AcDbEntity
  8
_U+30EC_U+30A4_U+30E4_U+30FC 1
 62
   179
420
  2234388
370
     9
100
AcDb2dPolyline
 66
     1
 10
0.0
 20
0.0
 30
0.0
  0
VERTEX
  5
86
330
85
100
AcDbEntity
  8
_U+30EC_U+30A4_U+30E4_U+30FC 1
 62
   179
420
  2234388
370
     9
100
AcDbVertex
100
AcDb2dVertex
 10
79.31745992088746
 20
-116.0101608043309
 30
0.0
  0
VERTEX
  5
87
330
85
100
AcDbEntity
  8
_U+30EC_U+30A4_U+30E4_U+30FC 1
 62
   179
420
  2234388
370
     9
100
AcDbVertex
100
AcDb2dVertex
 10
76.85732887253951
 20
-116.0101608043309
 30
0.0
  0
SEQEND
  5
88
330
85
100
AcDbEntity
  8
_U+30EC_U+30A4_U+30E4_U+30FC 1
 62
   179
420
  2234388
370
     9
  0
POLYLINE
  5
89
330
1F
100
AcDbEntity
  8
_U+30EC_U+30A4_U+30E4_U+30FC 1
 62
   179
420
  2234388
370
     9
100
AcDb2dPolyline
 66
     1
 10
0.0
 20
0.0
 30
0.0
  0
VERTEX
  5
8A
330
89
100
AcDbEntity
  8
_U+30EC_U+30A4_U+30E4_U+30FC 1
 62
   179
420
  2234388
370
     9
100
AcDbVertex
100
AcDb2dVertex
 10
79.31745992088746
 20
-136.0113202437751
 30
0.0
  0
VERTEX
  5
8B
330
89
100
AcDbEntity
  8
_U+30EC_U+30A4_U+30E4_U+30FC 1
 62
   179
420
  2234388
370
     9
100
AcDbVertex
100
AcDb2dVertex
 10
76.85732887253951
 20
-136.0113202437751
 30
0.0
  0
SEQEND
  5
8C
330
89
100
AcDbEntity
  8
_U+30EC_U+30A4_U+30E4_U+30FC 1
 62
   179
420
  2234388
370
     9
  0
INSERT
  5
8E
330
1F
100
AcDbEntity
  8
_U+30EC_U+30A4_U+30E4_U+30FC 1
100
AcDbBlockReference
  2
block 3
 10
0.0
 20
0.0
 30
0.0
  0
POLYLINE
  5
96
330
1F
100
AcDbEntity
  8
_U+30EC_U+30A4_U+30E4_U+30FC 1
 62
   179
420
  2234388
370
     9
100
AcDb2dPolyline
 66
     1
 10
0.0
 20
0.0
 30
0.0
  0
VERTEX
  5
97
330
96
100
AcDbEntity
  8
_U+30EC_U+30A4_U+30E4_U+30FC 1
 62
   179
420
  2234388
370
     9
100
AcDbVertex
100
AcDb2dVertex
 10
81.85753041164041
 20
-140.0110794094414
 30
0.0
  0
VERTEX
  5
98
330
96
100
AcDbEntity
  8
_U+30EC_U+30A4_U+30E4_U+30FC 1
 62
   179
420
  2234388
370
     9
100
AcDbVertex
100
AcDb2dVertex
 10
101.8577015680602
 20
-140.0110794094414
 30
0.0
  0
SEQEND
  5
99
330
96
100
AcDbEntity
  8
_U+30EC_U+30A4_U+30E4_U+30FC 1
 62
   179
420
  2234388
370
     9
  0
POLYLINE
  5
9A
330
1F
100
AcDbEntity
  8
_U+30EC_U+30A4_U+30E4_U+30FC 1
 62
   179
420
  2234388
370
     9
100
AcDb2dPolyline
 66
     1
 10
0.0
 20
0.0
 30
0.0
  0
VERTEX
  5
9B
330
9A
100
AcDbEntity
  8
_U+30EC_U+30A4_U+30E4_U+30FC 1
 62
   179
420
  2234388
370
     9
100
AcDbVertex
100
AcDb2dVertex
 10
81.85753041164041
 20
-138.5510732986959
 30
0.0
  0
VERTEX
  5
9C
330
9A
100
AcDbEntity
  8
_U+30EC_U+30A4_U+30E4_U+30FC 1
 62
   179
420
  2234388
370
     9
100
AcDbVertex
100
AcDb2dVertex
 10
81.85753041164041
 20
-141.0108516314139
 30
0.0
  0
SEQEND
  5
9D
330
9A
100
AcDbEntity
  8
_U+30EC_U+30A4_U+30E4_U+30FC 1
 62
   179
420
  2234388
370
     9
  0
POLYLINE
  5
9E
330
1F
100
AcDbEntity
  8
_U+30EC_U+30A4_U+30E4_U+30FC 1
 62
   179
420
  2234388
370
     9
100
AcDb2dPolyline
 66
     1
 10
0.0
 20
0.0
 30
0.0
  0
VERTEX
  5
9F
330
9E
100
AcDbEntity
  8
_U+30EC_U+30A4_U+30E4_U+30FC 1
 62
   179
420
  2234388
370
     9
100
AcDbVertex
100
AcDb2dVertex
 10
101.8577015680602
 20
-138.5510732986959
 30
0.0
  0
VERTEX
  5
A0
330
9E
100
AcDbEntity
  8
_U+30EC_U+30A4_U+30E4_U+30FC 1
 62
   179
420
  2234388
370
     9
100
AcDbVertex
100
AcDb2dVertex
 10
101.8577015680602
 20
-141.0108516314139
 30
0.0
  0
SEQEND
  5
A1
330
9E
100
AcDbEntity
  8
_U+30EC_U+30A4_U+30E4_U+30FC 1
 62
   179
420
  2234388
370
     9
  0
INSERT
  5
A3
330
1F
100
AcDbEntity
  8
_U+30EC_U+30A4_U+30E4_U+30FC 1
100
AcDbBlockReference
  2
block 4
 10
0.0
 20
0.0
 30
0.0
  0
ENDSEC
  0
SECTION
  2
OBJECTS
  0
DICTIONARY
  5
C
330
0
100
AcDbDictionary
281
     1
  3
ACAD_GROUP
350
D
  3
ACAD_LAYOUT
350
1A
  3
ACAD_MATERIAL
350
3B
  3
ACAD_MLEADERSTYLE
350
AC
  3
ACAD_MLINESTYLE
350
17
  3
ACAD_PLOTSETTINGS
350
19
  3
ACAD_PLOTSTYLENAME
350
E
  3
ACAD_TABLESTYLE
350
AB
  3
ACAD_VISUALSTYLE
350
2A
  0
SUN
  5
3F
330
29
100
AcDbSun
 90
        1
290
     0
 63
     7
421
 16777215
 40
1.0
291
     1
 91
  2455826
 92
 54000000
292
     0
 70
     2
 71
   256
280
     1
  0
DICTIONARY
  5
D
102
{ACAD_REACTORS
330
C
102
}
330
C
100
AcDbDictionary
281
     1
  0
DICTIONARY
  5
1A
102
{ACAD_REACTORS
330
C
102
}
330
C
100
AcDbDictionary
281
     1
  3
Layout1
350
1E
  3
Layout2
350
26
  3
Model
350
22
  0
DICTIONARY
  5
3B
102
{ACAD_REACTORS
330
C
102
}
330
C
100
AcDbDictionary
281
     1
  3
ByBlock
350
3D
  3
ByLayer
350
3C
  3
Global
350
3E
  0
DICTIONARY
  5
AC
102
{ACAD_REACTORS
330
C
102
}
330
C
100
AcDbDictionary
281
     1
  0
DICTIONARY
  5
17
102
{ACAD_REACTORS
330
C
102
}
330
C
100
AcDbDictionary
281
     1
  3
Standard
350
18
  0
DICTIONARY
  5
19
102
{ACAD_REACTORS
330
C
102
}
330
C
100
AcDbDictionary
281
     1
  0
ACDBDICTIONARYWDFLT
  5
E
102
{ACAD_REACTORS
330
C
102
}
330
C
100
AcDbDictionary
281
     1
  3
Normal
350
F
100
AcDbDictionaryWithDefault
340
F
  0
DICTIONARY
  5
AB
102
{ACAD_REACTORS
330
C
102
}
330
C
100
AcDbDictionary
281
     1
  0
DICTIONARY
  5
2A
102
{ACAD_REACTORS
330
C
102
}
330
C
100
AcDbDictionary
281
     1
  3
2dWireframe
350
2F
  3
3D Hidden
350
31
  3
3dWireframe
350
30
  3
Basic
350
32
  3
Brighten
350
36
  3
ColorChange
350
3A
  3
Conceptual
350
34
  3
Dim
350
35
  3
Facepattern
350
39
  3
Flat
350
2B
  3
FlatWithEdges
350
2C
  3
Gouraud
350
2D
  3
GouraudWithEdges
350
2E
  3
Linepattern
350
38
  3
Realistic
350
33
  3
Thicken
350
37
  0
LAYOUT
  5
1E
102
{ACAD_REACTORS
330
1A
102
}
330
1A
100
AcDbPlotSettings
  1

  2
none_device
  4

  6

 40
0.0
 41
0.0
 42
0.0
 43
0.0
 44
0.0
 45
0.0
 46
0.0
 47
0.0
 48
0.0
 49
0.0
140
0.0
141
0.0
142
1.0
143
1.0
 70
   688
 72
     0
 73
     0
 74
     5
  7

 75
    16
 76
     0
 77
     2
 78
   300
147
1.0
148
0.0
149
0.0
100
AcDbLayout
  1
Layout1
 70
     1
 71
     1
 10
0.0
 20
0.0
 11
12.0
 21
9.0
 12
0.0
 22
0.0
 32
0.0
 14
1.000000000000000E+20
 24
1.000000000000000E+20
 34
1.000000000000000E+20
 15
-1.000000000000000E+20
 25
-1.000000000000000E+20
 35
-1.000000000000000E+20
146
0.0
 13
0.0
 23
0.0
 33
0.0
 16
1.0
 26
0.0
 36
0.0
 17
0.0
 27
1.0
 37
0.0
 76
     0
330
1B
  0
LAYOUT
  5
26
102
{ACAD_REACTORS
330
1A
102
}
330
1A
100
AcDbPlotSettings
  1

  2
none_device
  4

  6

 40
0.0
 41
0.0
 42
0.0
 43
0.0
 44
0.0
 45
0.0
 46
0.0
 47
0.0
 48
0.0
 49
0.0
140
0.0
141
0.0
142
1.0
143
1.0
 70
   688
 72
     0
 73
     0
 74
     5
  7

 75
    16
 76
     0
 77
     2
 78
   300
147
1.0
148
0.0
149
0.0
100
AcDbLayout
  1
Layout2
 70
     1
 71
     2
 10
0.0
 20
0.0
 11
0.0
 21
0.0
 12
0.0
 22
0.0
 32
0.0
 14
0.0
 24
0.0
 34
0.0
 15
0.0
 25
0.0
 35
0.0
146
0.0
 13
0.0
 23
0.0
 33
0.0
 16
1.0
 26
0.0
 36
0.0
 17
0.0
 27
1.0
 37
0.0
 76
     0
330
23
  0
LAYOUT
  5
22
102
{ACAD_REACTORS
330
1A
102
}
330
1A
100
AcDbPlotSettings
  1

  2
none_device
  4

  6

 40
0.0
 41
0.0
 42
0.0
 43
0.0
 44
0.0
 45
0.0
 46
0.0
 47
0.0
 48
0.0
 49
0.0
140
0.0
141
0.0
142
1.0
143
1.0
 70
  1712
 72
     0
 73
     0
 74
     0
  7

 75
     0
 76
     0
 77
     2
 78
   300
147
1.0
148
0.0
149
0.0
100
AcDbLayout
  1
Model
 70
     1
 71
     0
 10
0.0
 20
0.0
 11
12.0
 21
9.0
 12
0.0
 22
0.0
 32
0.0
 14
1.000000000000000E+20
 24
1.000000000000000E+20
 34
1.000000000000000E+20
 15
-1.000000000000000E+20
 25
-1.000000000000000E+20
 35
-1.000000000000000E+20
146
0.0
 13
0.0
 23
0.0
 33
0.0
 16
1.0
 26
0.0
 36
0.0
 17
0.0
 27
1.0
 37
0.0
 76
     0
330
1F
331
29
  0
MATERIAL
  5
3D
102
{ACAD_REACTORS
330
3B
102
}
330
3B
100
AcDbMaterial
  1
ByBlock
 72
     1
 94
      127
  0
MATERIAL
  5
3C
102
{ACAD_REACTORS
330
3B
102
}
330
3B
100
AcDbMaterial
  1
ByLayer
 72
     1
 94
      127
  0
MATERIAL
  5
3E
102
{ACAD_REACTORS
330
3B
102
}
330
3B
100
AcDbMaterial
  1
Global
 72
     1
 94
      127
  0
MLINESTYLE
  5
18
102
{ACAD_REACTORS
330
17
102
}
330
17
100
AcDbMlineStyle
  2
Standard
 70
     0
  3

 62
   256
 51
90.0
 52
90.0
 71
     2
 49
0.5
 62
   256
  6
BYLAYER
 49
-0.5
 62
   256
  6
BYLAYER
  0
ACDBPLACEHOLDER
  5
F
102
{ACAD_REACTORS
330
E
102
}
330
E
  0
VISUALSTYLE
  5
2F
102
{ACAD_REACTORS
330
2A
102
}
330
2A
100
AcDbVisualStyle
  2
2dWireframe
 70
     4
177
     2
291
     0
 71
     0
176
     1
 72
     2
176
     1
 73
     0
176
     1
 90
        0
176
     1
 40
-0.6
176
     1
 41
-30.0
176
     1
 62
     5
 63
     7
421
 16777215
176
     1
 74
     1
176
     1
 91
        4
176
     1
 64
     7
176
     1
 65
   257
176
     1
 75
     1
176
     1
175
     1
176
     1
 42
1.0
176
     1
 92
        0
176
     1
 66
   257
176
     1
 43
1.0
176
     1
 76
     1
176
     1
 77
     6
176
     1
 78
     2
176
     1
 67
     7
176
     1
 79
     5
176
     1
170
     0
176
     1
171
     0
176
     1
290
     0
176
     1
 93
        1
176
     1
 44
0.0
176
     1
173
     0
176
     1
  0
VISUALSTYLE
  5
31
102
{ACAD_REACTORS
330
2A
102
}
330
2A
100
AcDbVisualStyle
  2
3D Hidden
 70
     6
177
     2
291
     0
 71
     1
176
     1
 72
     2
176
     1
 73
     2
176
     1
 90
        0
176
     1
 40
-0.6
176
     1
 41
-30.0
176
     1
 62
     5
 63
     7
421
 16777215
176
     1
 74
     2
176
     1
 91
        2
176
     1
 64
     7
176
     1
 65
   257
176
     1
 75
     2
176
     1
175
     1
176
     1
 42
40.0
176
     1
 92
        0
176
     1
 66
   257
176
     1
 43
1.0
176
     1
 76
     1
176
     1
 77
     6
176
     1
 78
     2
176
     1
 67
     7
176
     1
 79
     3
176
     1
170
     0
176
     1
171
     0
176
     1
290
     0
176
     1
 93
        1
176
     1
 44
0.0
176
     1
173
     0
176
     1
  0
VISUALSTYLE
  5
30
102
{ACAD_REACTORS
330
2A
102
}
330
2A
100
AcDbVisualStyle
  2
3dWireframe
 70
     5
177
     2
291
     0
 71
     0
176
     1
 72
     2
176
     1
 73
     0
176
     1
 90
        0
176
     1
 40
-0.6
176
     1
 41
-30.0
176
     1
 62
     5
 63
     7
421
 16777215
176
     1
 74
     1
176
     1
 91
        4
176
     1
 64
     7
176
     1
 65
   257
176
     1
 75
     1
176
     1
175
     1
176
     1
 42
1.0
176
     1
 92
        0
176
     1
 66
   257
176
     1
 43
1.0
176
     1
 76
     1
176
     1
 77
     6
176
     1
 78
     2
176
     1
 67
     7
176
     1
 79
     5
176
     1
170
     0
176
     1
171
     0
176
     1
290
     0
176
     1
 93
        1
176
     1
 44
0.0
176
     1
173
     0
176
     1
  0
VISUALSTYLE
  5
32
102
{ACAD_REACTORS
330
2A
102
}
330
2A
100
AcDbVisualStyle
  2
Basic
 70
     7
177
     2
291
     1
 71
     1
176
     1
 72
     0
176
     1
 73
     1
176
     1
 90
        0
176
     1
 40
-0.6
176
     1
 41
-30.0
176
     1
 62
     5
 63
     7
421
 16777215
176
     1
 74
     0
176
     1
 91
        4
176
     1
 64
     7
176
     1
 65
   257
176
     1
 75
     1
176
     1
175
     1
176
     1
 42
1.0
176
     1
 92
        8
176
     1
 66
     7
176
     1
 43
1.0
176
     1
 76
     1
176
     1
 77
     6
176
     1
 78
     2
176
     1
 67
     7
176
     1
 79
     5
176
     1
170
     0
176
     1
171
     0
176
     1
290
     0
176
     1
 93
        1
176
     1
 44
0.0
176
     1
173
     0
176
     1
  0
VISUALSTYLE
  5
36
102
{ACAD_REACTORS
330
2A
102
}
330
2A
100
AcDbVisualStyle
  2
Brighten
 70
    12
177
     2
291
     1
 71
     2
176
     1
 72
     2
176
     1
 73
     0
176
     1
 90
        0
176
     1
 40
-0.6
176
     1
 41
-30.0
176
     1
 62
     5
 63
     7
421
 16777215
176
     1
 74
     1
176
     1
 91
        4
176
     1
 64
     7
176
     1
 65
   257
176
     1
 75
     1
176
     1
175
     1
176
     1
 42
1.0
176
     1
 92
        8
176
     1
 66
     7
176
     1
 43
1.0
176
     1
 76
     1
176
     1
 77
     6
176
     1
 78
     2
176
     1
 67
     7
176
     1
 79
     5
176
     1
170
     0
176
     1
171
     0
176
     1
290
     0
176
     1
 93
        1
176
     1
 44
50.0
176
     1
173
     0
176
     1
  0
VISUALSTYLE
  5
3A
102
{ACAD_REACTORS
330
2A
102
}
330
2A
100
AcDbVisualStyle
  2
ColorChange
 70
    16
177
     2
291
     1
 71
     2
176
     1
 72
     2
176
     1
 73
     3
176
     1
 90
        0
176
     1
 40
-0.6
176
     1
 41
-30.0
176
     1
 62
     5
 63
     8
421
  8421504
176
     1
 74
     1
176
     1
 91
        4
176
     1
 64
     7
176
     1
 65
   257
176
     1
 75
     1
176
     1
175
     1
176
     1
 42
1.0
176
     1
 92
        8
176
     1
 66
     8
424
  8421504
176
     1
 43
1.0
176
     1
 76
     1
176
     1
 77
     6
176
     1
 78
     2
176
     1
 67
     7
176
     1
 79
     5
176
     1
170
     0
176
     1
171
     0
176
     1
290
     0
176
     1
 93
        1
176
     1
 44
0.0
176
     1
173
     0
176
     1
  0
VISUALSTYLE
  5
34
102
{ACAD_REACTORS
330
2A
102
}
330
2A
100
AcDbVisualStyle
  2
Conceptual
 70
     9
177
     2
291
     0
 71
     3
176
     1
 72
     2
176
     1
 73
     0
176
     1
 90
        0
176
     1
 40
-0.6
176
     1
 41
-30.0
176
     1
 62
     5
 63
     7
421
 16777215
176
     1
 74
     2
176
     1
 91
        2
176
     1
 64
     7
176
     1
 65
   257
176
     1
 75
     1
176
     1
175
     1
176
     1
 42
40.0
176
     1
 92
        8
176
     1
 66
     7
176
     1
 43
1.0
176
     1
 76
     1
176
     1
 77
     6
176
     1
 78
     2
176
     1
 67
     7
176
     1
 79
     3
176
     1
170
     0
176
     1
171
     0
176
     1
290
     0
176
     1
 93
        1
176
     1
 44
0.0
176
     1
173
     0
176
     1
  0
VISUALSTYLE
  5
35
102
{ACAD_REACTORS
330
2A
102
}
330
2A
100
AcDbVisualStyle
  2
Dim
 70
    11
177
     2
291
     1
 71
     2
176
     1
 72
     2
176
     1
 73
     0
176
     1
 90
        0
176
     1
 40
-0.6
176
     1
 41
-30.0
176
     1
 62
     5
 63
     7
421
 16777215
176
     1
 74
     1
176
     1
 91
        4
176
     1
 64
     7
176
     1
 65
   257
176
     1
 75
     1
176
     1
175
     1
176
     1
 42
1.0
176
     1
 92
        8
176
     1
 66
     7
176
     1
 43
1.0
176
     1
 76
     1
176
     1
 77
     6
176
     1
 78
     2
176
     1
 67
     7
176
     1
 79
     5
176
     1
170
     0
176
     1
171
     0
176
     1
290
     0
176
     1
 93
        1
176
     1
 44
-50.0
176
     1
173
     0
176
     1
  0
VISUALSTYLE
  5
39
102
{ACAD_REACTORS
330
2A
102
}
330
2A
100
AcDbVisualStyle
  2
Facepattern
 70
    15
177
     2
291
     1
 71
     2
176
     1
 72
     2
176
     1
 73
     0
176
     1
 90
        0
176
     1
 40
-0.6
176
     1
 41
-30.0
176
     1
 62
     5
 63
     7
421
 16777215
176
     1
 74
     1
176
     1
 91
        4
176
     1
 64
     7
176
     1
 65
   257
176
     1
 75
     1
176
     1
175
     1
176
     1
 42
1.0
176
     1
 92
        8
176
     1
 66
     7
176
     1
 43
1.0
176
     1
 76
     1
176
     1
 77
     6
176
     1
 78
     2
176
     1
 67
     7
176
     1
 79
     5
176
     1
170
     0
176
     1
171
     0
176
     1
290
     0
176
     1
 93
        1
176
     1
 44
0.0
176
     1
173
     0
176
     1
  0
VISUALSTYLE
  5
2B
102
{ACAD_REACTORS
330
2A
102
}
330
2A
100
AcDbVisualStyle
  2
Flat
 70
     0
177
     2
291
     1
 71
     2
176
     1
 72
     1
176
     1
 73
     1
176
     1
 90
        2
176
     1
 40
-0.6
176
     1
 41
30.0
176
     1
 62
     5
 63
     7
421
 16777215
176
     1
 74
     0
176
     1
 91
        4
176
     1
 64
     7
176
     1
 65
   257
176
     1
 75
     1
176
     1
175
     1
176
     1
 42
1.0
176
     1
 92
        8
176
     1
 66
     7
176
     1
 43
1.0
176
     1
 76
     1
176
     1
 77
     6
176
     1
 78
     2
176
     1
 67
     7
176
     1
 79
     5
176
     1
170
     0
176
     1
171
     0
176
     1
290
     0
176
     1
 93
       13
176
     1
 44
0.0
176
     1
173
     0
176
     1
  0
VISUALSTYLE
  5
2C
102
{ACAD_REACTORS
330
2A
102
}
330
2A
100
AcDbVisualStyle
  2
FlatWithEdges
 70
     1
177
     2
291
     1
 71
     2
176
     1
 72
     1
176
     1
 73
     1
176
     1
 90
        2
176
     1
 40
-0.6
176
     1
 41
30.0
176
     1
 62
     5
 63
     7
421
 16777215
176
     1
 74
     1
176
     1
 91
        4
176
     1
 64
     7
176
     1
 65
   257
176
     1
 75
     1
176
     1
175
     1
176
     1
 42
1.0
176
     1
 92
        0
176
     1
 66
   257
176
     1
 43
1.0
176
     1
 76
     1
176
     1
 77
     6
176
     1
 78
     2
176
     1
 67
     7
176
     1
 79
     5
176
     1
170
     0
176
     1
171
     0
176
     1
290
     0
176
     1
 93
       13
176
     1
 44
0.0
176
     1
173
     0
176
     1
  0
VISUALSTYLE
  5
2D
102
{ACAD_REACTORS
330
2A
102
}
330
2A
100
AcDbVisualStyle
  2
Gouraud
 70
     2
177
     2
291
     1
 71
     2
176
     1
 72
     2
176
     1
 73
     1
176
     1
 90
        2
176
     1
 40
-0.6
176
     1
 41
30.0
176
     1
 62
     5
 63
     7
421
 16777215
176
     1
 74
     0
176
     1
 91
        4
176
     1
 64
     7
176
     1
 65
   257
176
     1
 75
     1
176
     1
175
     1
176
     1
 42
1.0
176
     1
 92
        0
176
     1
 66
     7
176
     1
 43
1.0
176
     1
 76
     1
176
     1
 77
     6
176
     1
 78
     2
176
     1
 67
     7
176
     1
 79
     5
176
     1
170
     0
176
     1
171
     0
176
     1
290
     0
176
     1
 93
       13
176
     1
 44
0.0
176
     1
173
     0
176
     1
  0
VISUALSTYLE
  5
2E
102
{ACAD_REACTORS
330
2A
102
}
330
2A
100
AcDbVisualStyle
  2
GouraudWithEdges
 70
     3
177
     2
291
     1
 71
     2
176
     1
 72
     2
176
     1
 73
     1
176
     1
 90
        2
176
     1
 40
-0.6
176
     1
 41
30.0
176
     1
 62
     5
 63
     7
421
 16777215
176
     1
 74
     1
176
     1
 91
        4
176
     1
 64
     7
176
     1
 65
   257
176
     1
 75
     1
176
     1
175
     1
176
     1
 42
1.0
176
     1
 92
        0
176
     1
 66
   257
176
     1
 43
1.0
176
     1
 76
     1
176
     1
 77
     6
176
     1
 78
     2
176
     1
 67
     7
176
     1
 79
     5
176
     1
170
     0
176
     1
171
     0
176
     1
290
     0
176
     1
 93
       13
176
     1
 44
0.0
176
     1
173
     0
176
     1
  0
VISUALSTYLE
  5
38
102
{ACAD_REACTORS
330
2A
102
}
330
2A
100
AcDbVisualStyle
  2
Linepattern
 70
    14
177
     2
291
     1
 71
     2
176
     1
 72
     2
176
     1
 73
     0
176
     1
 90
        0
176
     1
 40
-0.6
176
     1
 41
-30.0
176
     1
 62
     5
 63
     7
421
 16777215
176
     1
 74
     1
176
     1
 91
        4
176
     1
 64
     7
176
     1
 65
   257
176
     1
 75
     7
176
     1
175
     7
176
     1
 42
1.0
176
     1
 92
        8
176
     1
 66
     7
176
     1
 43
1.0
176
     1
 76
     1
176
     1
 77
     6
176
     1
 78
     2
176
     1
 67
     7
176
     1
 79
     5
176
     1
170
     0
176
     1
171
     0
176
     1
290
     0
176
     1
 93
        1
176
     1
 44
0.0
176
     1
173
     0
176
     1
  0
VISUALSTYLE
  5
33
102
{ACAD_REACTORS
330
2A
102
}
330
2A
100
AcDbVisualStyle
  2
Realistic
 70
     8
177
     2
291
     0
 71
     2
176
     1
 72
     2
176
     1
 73
     0
176
     1
 90
        0
176
     1
 40
-0.6
176
     1
 41
-30.0
176
     1
 62
     5
 63
     7
421
 16777215
176
     1
 74
     1
176
     1
 91
        0
176
     1
 64
     7
176
     1
 65
   257
176
     1
 75
     1
176
     1
175
     1
176
     1
 42
1.0
176
     1
 92
        8
176
     1
 66
     8
424
  7895160
176
     1
 43
1.0
176
     1
 76
     1
176
     1
 77
     6
176
     1
 78
     2
176
     1
 67
     7
176
     1
 79
     5
176
     1
170
     0
176
     1
171
     0
176
     1
290
     0
176
     1
 93
       13
176
     1
 44
0.0
176
     1
173
     0
176
     1
  0
VISUALSTYLE
  5
37
102
{ACAD_REACTORS
330
2A
102
}
330
2A
100
AcDbVisualStyle
  2
Thicken
 70
    13
177
     2
291
     1
 71
     2
176
     1
 72
     2
176
     1
 73
     0
176
     1
 90
        0
176
     1
 40
-0.6
176
     1
 41
-30.0
176
     1
 62
     5
 63
     7
421
 16777215
176
     1
 74
     1
176
     1
 91
        4
176
     1
 64
     7
176
     1
 65
   257
176
     1
 75
     1
176
     1
175
     1
176
     1
 42
1.0
176
     1
 92
       12
176
     1
 66
     7
176
     1
 43
1.0
176
     1
 76
     1
176
     1
 77
     6
176
     1
 78
     2
176
     1
 67
     7
176
     1
 79
     5
176
     1
170
     0
176
     1
171
     0
176
     1
290
     0
176
     1
 93
        1
176
     1
 44
0.0
176
     1
173
     0
176
     1
  0
ENDSEC
  0
EOF
