  0
SECTION
  2
HEADER
  9
$ACADVER
  1
AC1024
  9
$ACADMAINTVER
 70
     6
  9
$DWGCODEPAGE
  3
UNDEFINED
  9
$INSBASE
 10
0.0
 20
0.0
 30
0.0
  9
$EXTMIN
 10
1.000000000000000E+20
 20
1.000000000000000E+20
 30
1.000000000000000E+20
  9
$EXTMAX
 10
-1.000000000000000E+20
 20
-1.000000000000000E+20
 30
-1.000000000000000E+20
  9
$LIMMIN
 10
0.0
 20
0.0
  9
$LIMMAX
 10
12.0
 20
9.0
  9
$ORTHOMODE
 70
     0
  9
$REGENMODE
 70
     1
  9
$FILLMODE
 70
     1
  9
$QTEXTMODE
 70
     0
  9
$MIRRTEXT
 70
     1
  9
$LTSCALE
 40
1.0
  9
$ATTMODE
 70
     1
  9
$TEXTSIZE
 40
0.2
  9
$TRACEWID
 40
0.05
  9
$TEXTSTYLE
  7
Standard
  9
$CLAYER
  8
0
  9
$CELTYPE
  6
ByLayer
  9
$CECOLOR
 62
   256
  9
$CELTSCALE
 40
1.0
  9
$DISPSILH
 70
     0
  9
$DIMSCALE
 40
1.0
  9
$DIMASZ
 40
0.18
  9
$DIMEXO
 40
0.0625
  9
$DIMDLI
 40
0.38
  9
$DIMRND
 40
0.0
  9
$DIMDLE
 40
0.0
  9
$DIMEXE
 40
0.18
  9
$DIMTP
 40
0.0
  9
$DIMTM
 40
0.0
  9
$DIMTXT
 40
0.18
  9
$DIMCEN
 40
0.09
  9
$DIMTSZ
 40
0.0
  9
$DIMTOL
 70
     0
  9
$DIMLIM
 70
     0
  9
$DIMTIH
 70
     1
  9
$DIMTOH
 70
     1
  9
$DIMSE1
 70
     0
  9
$DIMSE2
 70
     0
  9
$DIMTAD
 70
     0
  9
$DIMZIN
 70
     0
  9
$DIMBLK
  1

  9
$DIMASO
 70
     1
  9
$DIMSHO
 70
     1
  9
$DIMPOST
  1

  9
$DIMAPOST
  1

  9
$DIMALT
 70
     0
  9
$DIMALTD
 70
     2
  9
$DIMALTF
 40
25.4
  9
$DIMLFAC
 40
1.0
  9
$DIMTOFL
 70
     0
  9
$DIMTVP
 40
0.0
  9
$DIMTIX
 70
     0
  9
$DIMSOXD
 70
     0
  9
$DIMSAH
 70
     0
  9
$DIMBLK1
  1

  9
$DIMBLK2
  1

  9
$DIMSTYLE
  2
Standard
  9
$DIMCLRD
 70
     0
  9
$DIMCLRE
 70
     0
  9
$DIMCLRT
 70
     0
  9
$DIMTFAC
 40
1.0
  9
$DIMGAP
 40
0.09
  9
$DIMJUST
 70
     0
  9
$DIMSD1
 70
     0
  9
$DIMSD2
 70
     0
  9
$DIMTOLJ
 70
     1
  9
$DIMTZIN
 70
     0
  9
$DIMALTZ
 70
     0
  9
$DIMALTTZ
 70
     0
  9
$DIMUPT
 70
     0
  9
$DIMDEC
 70
     4
  9
$DIMTDEC
 70
     4
  9
$DIMALTU
 70
     2
  9
$DIMALTTD
 70
     2
  9
$DIMTXSTY
  7
Standard
  9
$DIMAUNIT
 70
     0
  9
$DIMADEC
 70
     0
  9
$DIMALTRND
 40
0.0
  9
$DIMAZIN
 70
     0
  9
$DIMDSEP
 70
    46
  9
$DIMATFIT
 70
     3
  9
$DIMFRAC
 70
     0
  9
$DIMLDRBLK
  1

  9
$DIMLUNIT
 70
     2
  9
$DIMLWD
 70
    -2
  9
$DIMLWE
 70
    -2
  9
$DIMTMOVE
 70
     0
  9
$DIMFXL
 40
1.0
  9
$DIMFXLON
 70
     0
  9
$DIMJOGANG
 40
0.7853981633974483
  9
$DIMTFILL
 70
     0
  9
$DIMTFILLCLR
 70
     0
  9
$DIMARCSYM
 70
     0
  9
$DIMLTYPE
  6

  9
$DIMLTEX1
  6

  9
$DIMLTEX2
  6

  9
$DIMTXTDIRECTION
 70
     0
  9
$LUNITS
 70
     2
  9
$LUPREC
 70
     4
  9
$SKETCHINC
 40
0.1
  9
$FILLETRAD
 40
0.5
  9
$AUNITS
 70
     0
  9
$AUPREC
 70
     0
  9
$MENU
  1
.
  9
$ELEVATION
 40
0.0
  9
$PELEVATION
 40
0.0
  9
$THICKNESS
 40
0.0
  9
$LIMCHECK
 70
     0
  9
$CHAMFERA
 40
0.5
  9
$CHAMFERB
 40
0.5
  9
$CHAMFERC
 40
1.0
  9
$CHAMFERD
 40
0.0
  9
$SKPOLY
 70
     0
  9
$TDCREATE
 40
2457917.596689803
  9
$TDUCREATE
 40
2457917.221689815
  9
$TDUPDATE
 40
2457917.596689803
  9
$TDUUPDATE
 40
2457917.221689815
  9
$TDINDWG
 40
0.0000000116
  9
$TDUSRTIMER
 40
0.0000000116
  9
$USRTIMER
 70
     1
  9
$ANGBASE
 50
0.0
  9
$ANGDIR
 70
     0
  9
$PDMODE
 70
     0
  9
$PDSIZE
 40
0.0
  9
$PLINEWID
 40
0.0
  9
$SPLFRAME
 70
     0
  9
$SPLINETYPE
 70
     6
  9
$SPLINESEGS
 70
     8
  9
$HANDSEED
  5
F5
  9
$SURFTAB1
 70
     6
  9
$SURFTAB2
 70
     6
  9
$SURFTYPE
 70
     6
  9
$SURFU
 70
     6
  9
$SURFV
 70
     6
  9
$UCSBASE
  2

  9
$UCSNAME
  2

  9
$UCSORG
 10
0.0
 20
0.0
 30
0.0
  9
$UCSXDIR
 10
1.0
 20
0.0
 30
0.0
  9
$UCSYDIR
 10
0.0
 20
1.0
 30
0.0
  9
$UCSORTHOREF
  2

  9
$UCSORTHOVIEW
 70
     0
  9
$UCSORGTOP
 10
0.0
 20
0.0
 30
0.0
  9
$UCSORGBOTTOM
 10
0.0
 20
0.0
 30
0.0
  9
$UCSORGLEFT
 10
0.0
 20
0.0
 30
0.0
  9
$UCSORGRIGHT
 10
0.0
 20
0.0
 30
0.0
  9
$UCSORGFRONT
 10
0.0
 20
0.0
 30
0.0
  9
$UCSORGBACK
 10
0.0
 20
0.0
 30
0.0
  9
$PUCSBASE
  2

  9
$PUCSNAME
  2

  9
$PUCSORG
 10
0.0
 20
0.0
 30
0.0
  9
$PUCSXDIR
 10
1.0
 20
0.0
 30
0.0
  9
$PUCSYDIR
 10
0.0
 20
1.0
 30
0.0
  9
$PUCSORTHOREF
  2

  9
$PUCSORTHOVIEW
 70
     0
  9
$PUCSORGTOP
 10
0.0
 20
0.0
 30
0.0
  9
$PUCSORGBOTTOM
 10
0.0
 20
0.0
 30
0.0
  9
$PUCSORGLEFT
 10
0.0
 20
0.0
 30
0.0
  9
$PUCSORGRIGHT
 10
0.0
 20
0.0
 30
0.0
  9
$PUCSORGFRONT
 10
0.0
 20
0.0
 30
0.0
  9
$PUCSORGBACK
 10
0.0
 20
0.0
 30
0.0
  9
$USERI1
 70
     0
  9
$USERI2
 70
     0
  9
$USERI3
 70
     0
  9
$USERI4
 70
     0
  9
$USERI5
 70
     0
  9
$USERR1
 40
0.0
  9
$USERR2
 40
0.0
  9
$USERR3
 40
0.0
  9
$USERR4
 40
0.0
  9
$USERR5
 40
0.0
  9
$WORLDVIEW
 70
     1
  9
$SHADEDGE
 70
     3
  9
$SHADEDIF
 70
    70
  9
$TILEMODE
 70
     1
  9
$MAXACTVP
 70
    64
  9
$PINSBASE
 10
0.0
 20
0.0
 30
0.0
  9
$PLIMCHECK
 70
     0
  9
$PEXTMIN
 10
1.000000000000000E+20
 20
1.000000000000000E+20
 30
1.000000000000000E+20
  9
$PEXTMAX
 10
-1.000000000000000E+20
 20
-1.000000000000000E+20
 30
-1.000000000000000E+20
  9
$PLIMMIN
 10
0.0
 20
0.0
  9
$PLIMMAX
 10
12.0
 20
9.0
  9
$UNITMODE
 70
     0
  9
$VISRETAIN
 70
     1
  9
$PLINEGEN
 70
     0
  9
$PSLTSCALE
 70
     1
  9
$TREEDEPTH
 70
  3020
  9
$CMLSTYLE
  2
Standard
  9
$CMLJUST
 70
     0
  9
$CMLSCALE
 40
1.0
  9
$PROXYGRAPHICS
 70
     1
  9
$MEASUREMENT
 70
     0
  9
$CELWEIGHT
370
    -1
  9
$ENDCAPS
280
     0
  9
$JOINSTYLE
280
     0
  9
$LWDISPLAY
290
     1
  9
$INSUNITS
 70
     1
  9
$HYPERLINKBASE
  1

  9
$STYLESHEET
  1

  9
$XEDIT
290
     1
  9
$CEPSNTYPE
380
     0
  9
$PSTYLEMODE
290
     1
  9
$FINGERPRINTGUID
  2
{4777B5B7-225B-E0B2-FA1D-A285DC3D4503}
  9
$VERSIONGUID
  2
{FAEB1C32-E019-11D5-929B-00C0DF256EC4}
  9
$EXTNAMES
290
     1
  9
$PSVPSCALE
 40
0.0
  9
$OLESTARTUP
290
     0
  9
$SORTENTS
280
   127
  9
$INDEXCTL
280
     0
  9
$HIDETEXT
280
     1
  9
$XCLIPFRAME
280
     2
  9
$HALOGAP
280
     0
  9
$OBSCOLOR
 70
   257
  9
$OBSLTYPE
280
     0
  9
$INTERSECTIONDISPLAY
280
     0
  9
$INTERSECTIONCOLOR
 70
   257
  9
$DIMASSOC
280
     2
  9
$PROJECTNAME
  1

  9
$CAMERADISPLAY
290
     0
  9
$LENSLENGTH
 40
50.0
  9
$CAMERAHEIGHT
 40
0.0
  9
$STEPSPERSEC
 40
2.0
  9
$STEPSIZE
 40
6.0
  9
$3DDWFPREC
 40
2.0
  9
$PSOLWIDTH
 40
0.25
  9
$PSOLHEIGHT
 40
4.0
  9
$LOFTANG1
 40
1.570796326794897
  9
$LOFTANG2
 40
1.570796326794897
  9
$LOFTMAG1
 40
0.0
  9
$LOFTMAG2
 40
0.0
  9
$LOFTPARAM
 70
     7
  9
$LOFTNORMALS
280
     1
  9
$LATITUDE
 40
37.795
  9
$LONGITUDE
 40
-122.394
  9
$NORTHDIRECTION
 40
0.0
  9
$TIMEZONE
 70
 -8000
  9
$LIGHTGLYPHDISPLAY
280
     1
  9
$TILEMODELIGHTSYNCH
280
     1
  9
$CMATERIAL
347
3C
  9
$SOLIDHIST
280
     1
  9
$SHOWHIST
280
     1
  9
$DWFFRAME
280
     2
  9
$DGNFRAME
280
     2
  9
$REALWORLDSCALE
290
     1
  9
$INTERFERECOLOR
 62
   256
  9
$CSHADOW
280
     0
  9
$SHADOWPLANELOCATION
 40
0.0
  0
ENDSEC
  0
SECTION
  2
CLASSES
  0
CLASS
  1
ACDBDICTIONARYWDFLT
  2
AcDbDictionaryWithDefault
  3
ObjectDBX Classes
 90
        0
 91
        4
280
     0
281
     0
  0
CLASS
  1
VISUALSTYLE
  2
AcDbVisualStyle
  3
ObjectDBX Classes
 90
     4095
 91
        4
280
     0
281
     0
  0
CLASS
  1
MATERIAL
  2
AcDbMaterial
  3
ObjectDBX Classes
 90
     1153
 91
        4
280
     0
281
     0
  0
CLASS
  1
SUN
  2
AcDbSun
  3
SCENEOE
 90
     1024
 91
        4
280
     0
281
     0
  0
ENDSEC
  0
SECTION
  2
TABLES
  0
TABLE
  2
VPORT
  5
8
330
0
100
AcDbSymbolTable
 70
     1
  0
VPORT
  5
29
330
8
100
AcDbSymbolTableRecord
100
AcDbViewportTableRecord
  2
*Active
 70
     0
 10
0.0
 20
0.0
 11
1.0
 21
1.0
 12
0.0
 22
0.0
 13
0.0
 23
0.0
 14
0.5
 24
0.5
 15
0.5
 25
0.5
 16
0.0
 26
0.0
 36
1.0
 17
91.00082462281999
 27
-128.4993055234307
 37
0.0
 40
256.9986110468615
 41
0.7081814508812795
 42
50.0
 43
0.0
 44
0.0
 50
0.0
 51
0.0
 71
     0
 72
   100
 73
     1
 74
     3
 75
     0
 76
     0
 77
     0
 78
     0
281
     0
 65
     1
110
0.0
120
0.0
130
0.0
111
1.0
121
0.0
131
0.0
112
0.0
122
1.0
132
0.0
 79
     0
146
0.0
 60
     3
 61
     5
292
     1
282
     1
141
0.0
142
0.0
 63
   250
361
3F
  0
ENDTAB
  0
TABLE
  2
LTYPE
  5
5
330
0
100
AcDbSymbolTable
 70
     3
  0
LTYPE
  5
14
330
5
100
AcDbSymbolTableRecord
100
AcDbLinetypeTableRecord
  2
ByBlock
 70
     0
  3

 72
    65
 73
     0
 40
0.0
  0
LTYPE
  5
15
330
5
100
AcDbSymbolTableRecord
100
AcDbLinetypeTableRecord
  2
ByLayer
 70
     0
  3

 72
    65
 73
     0
 40
0.0
  0
LTYPE
  5
16
330
5
100
AcDbSymbolTableRecord
100
AcDbLinetypeTableRecord
  2
Continuous
 70
     0
  3
Solid line
 72
    65
 73
     0
 40
0.0
  0
LTYPE
  5
44
330
5
100
AcDbSymbolTableRecord
100
AcDbLinetypeTableRecord
  2
AI-Linetype-1
 70
     0
  3
Adobe Illustrator Linetype No. 1
 72
    65
 73
     2
 40
1.411111110758333
 49
0.7055555553791667
 74
     0
 49
-0.7055555553791667
 74
     0
  0
LTYPE
  5
49
330
5
100
AcDbSymbolTableRecord
100
AcDbLinetypeTableRecord
  2
AI-Linetype-2
 70
     0
  3
Adobe Illustrator Linetype No. 2
 72
    65
 73
     2
 40
1.411111110758333
 49
0.7055555553791667
 74
     0
 49
-0.7055555553791667
 74
     0
  0
ENDTAB
  0
TABLE
  2
LAYER
  5
2
330
0
100
AcDbSymbolTable
 70
     2
  0
LAYER
  5
10
330
2
100
AcDbSymbolTableRecord
100
AcDbLayerTableRecord
  2
0
 70
     0
 62
     7
  6
Continuous
370
    -3
390
F
347
3E
  0
LAYER
  5
40
330
2
100
AcDbSymbolTableRecord
100
AcDbLayerTableRecord
  2
_U+30EC_U+30A4_U+30E4_U+30FC 1
 70
     0
 62
     7
  6
Continuous
370
    -3
390
F
347
3E
  0
ENDTAB
  0
TABLE
  2
STYLE
  5
3
330
0
100
AcDbSymbolTable
 70
     1
  0
STYLE
  5
11
330
3
100
AcDbSymbolTableRecord
100
AcDbTextStyleTableRecord
  2
Standard
 70
     0
 40
0.0
 41
1.0
 50
0.0
 71
     0
 42
0.2
  3
txt
  4

  0
ENDTAB
  0
TABLE
  2
VIEW
  5
6
330
0
100
AcDbSymbolTable
 70
     0
  0
ENDTAB
  0
TABLE
  2
UCS
  5
7
330
0
100
AcDbSymbolTable
 70
     0
  0
ENDTAB
  0
TABLE
  2
APPID
  5
9
330
0
100
AcDbSymbolTable
 70
     1
  0
APPID
  5
12
330
9
100
AcDbSymbolTableRecord
100
AcDbRegAppTableRecord
  2
ACAD
 70
     0
  0
ENDTAB
  0
TABLE
  2
DIMSTYLE
  5
A
330
0
100
AcDbSymbolTable
 70
     1
100
AcDbDimStyleTable
  0
DIMSTYLE
105
27
330
A
100
AcDbSymbolTableRecord
100
AcDbDimStyleTableRecord
  2
Standard
 70
     0
178
     0
340
11
  0
ENDTAB
  0
TABLE
  2
BLOCK_RECORD
  5
1
330
0
100
AcDbSymbolTable
 70
     5
  0
BLOCK_RECORD
  5
1F
330
1
100
AcDbSymbolTableRecord
100
AcDbBlockTableRecord
  2
*Model_Space
340
22
 70
     0
280
     1
281
     0
  0
BLOCK_RECORD
  5
1B
330
1
100
AcDbSymbolTableRecord
100
AcDbBlockTableRecord
  2
*Paper_Space
340
1E
 70
     0
280
     1
281
     0
  0
BLOCK_RECORD
  5
23
330
1
100
AcDbSymbolTableRecord
100
AcDbBlockTableRecord
  2
*Paper_Space0
340
26
 70
     0
280
     1
281
     0
  0
BLOCK_RECORD
  5
79
330
1
100
AcDbSymbolTableRecord
100
AcDbBlockTableRecord
  2
block 2
340
0
102
{BLKREFS
331
7A
102
}
 70
     0
280
     1
281
     0
  0
BLOCK_RECORD
  5
95
330
1
100
AcDbSymbolTableRecord
100
AcDbBlockTableRecord
  2
block 3
340
0
102
{BLKREFS
331
96
102
}
 70
     0
280
     1
281
     0
  0
BLOCK_RECORD
  5
AA
330
1
100
AcDbSymbolTableRecord
100
AcDbBlockTableRecord
  2
block 4
340
0
102
{BLKREFS
331
AB
102
}
 70
     0
280
     1
281
     0
  0
BLOCK_RECORD
  5
CB
330
1
100
AcDbSymbolTableRecord
100
AcDbBlockTableRecord
  2
block 5
340
0
102
{BLKREFS
331
CC
102
}
 70
     0
280
     1
281
     0
  0
ENDTAB
  0
ENDSEC
  0
SECTION
  2
BLOCKS
  0
BLOCK
  5
20
330
1F
100
AcDbEntity
  8
0
100
AcDbBlockBegin
  2
*Model_Space
 70
     0
 10
0.0
 20
0.0
 30
0.0
  3
*Model_Space
  1

  0
ENDBLK
  5
21
330
1F
100
AcDbEntity
  8
0
100
AcDbBlockEnd
  0
BLOCK
  5
1C
330
1B
100
AcDbEntity
 67
     1
  8
0
100
AcDbBlockBegin
  2
*Paper_Space
 70
     0
 10
0.0
 20
0.0
 30
0.0
  3
*Paper_Space
  1

  0
ENDBLK
  5
1D
330
1B
100
AcDbEntity
 67
     1
  8
0
100
AcDbBlockEnd
  0
BLOCK
  5
24
330
23
100
AcDbEntity
  8
0
100
AcDbBlockBegin
  2
*Paper_Space0
 70
     0
 10
0.0
 20
0.0
 30
0.0
  3
*Paper_Space0
  1

  0
ENDBLK
  5
25
330
23
100
AcDbEntity
  8
0
100
AcDbBlockEnd
  0
BLOCK
  5
7B
330
79
100
AcDbEntity
  8
0
100
AcDbBlockBegin
  2
block 2
 70
     0
 10
0.0
 20
0.0
 30
0.0
  3
block 2
  1

  0
SPLINE
  5
7D
330
79
100
AcDbEntity
  8
_U+30EC_U+30A4_U+30E4_U+30FC 1
370
     0
100
AcDbSpline
210
0.0
220
0.0
230
1.0
 70
    11
 71
     3
 72
    26
 73
    22
 74
     0
 42
0.0000000001
 43
0.0000000001
 12
1.0
 22
0.0
 32
0.0
 13
1.0
 23
0.0
 33
0.0
 40
0.0
 40
0.0
 40
0.0
 40
0.0
 40
1.0
 40
1.0
 40
1.0
 40
2.0
 40
2.0
 40
2.0
 40
3.0
 40
3.0
 40
3.0
 40
4.0
 40
4.0
 40
4.0
 40
5.0
 40
5.0
 40
5.0
 40
6.0
 40
6.0
 40
6.0
 40
7.0
 40
7.0
 40
7.0
 40
7.0
 10
105.2903862583996
 20
-131.8314018767644
 30
0.0
 10
105.2903862583996
 20
-131.8314018767644
 30
0.0
 10
104.1862331553771
 20
-131.8314018767644
 30
0.0
 10
104.1862331553771
 20
-131.8314018767644
 30
0.0
 10
104.1862331553771
 20
-131.8314018767644
 30
0.0
 10
104.1862331553771
 20
-132.1170002924916
 30
0.0
 10
104.1862331553771
 20
-132.1170002924916
 30
0.0
 10
104.1862331553771
 20
-132.1170002924916
 30
0.0
 10
104.0380940495113
 20
-132.1170002924916
 30
0.0
 10
104.0380940495113
 20
-132.1170002924916
 30
0.0
 10
104.0232801389247
 20
-131.8296793290218
 30
0.0
 10
103.8603271224724
 20
-131.7893717118443
 30
0.0
 10
103.7459499523621
 20
-131.7638780052535
 30
0.0
 10
103.7459499523621
 20
-131.7638780052535
 30
0.0
 10
103.7459499523621
 20
-131.6374430009448
 30
0.0
 10
103.7459499523621
 20
-131.6374430009448
 30
0.0
 10
103.7459499523621
 20
-131.6374430009448
 30
0.0
 10
105.2903862583996
 20
-131.6374430009448
 30
0.0
 10
105.2903862583996
 20
-131.6374430009448
 30
0.0
 10
105.2903862583996
 20
-131.6374430009448
 30
0.0
 10
105.2903862583996
 20
-131.8314018767644
 30
0.0
 10
105.2903862583996
 20
-131.8314018767644
 30
0.0
  0
HATCH
  5
7E
330
79
100
AcDbEntity
  8
_U+30EC_U+30A4_U+30E4_U+30FC 1
 62
   179
420
  2234388
100
AcDbHatch
 10
0.0
 20
0.0
 30
0.0
210
0.0
220
0.0
230
1.0
  2
SOLID
 70
     1
 71
     0
 91
        1
 92
        1
 93
        1
 72
     4
 94
        3
 73
     0
 74
     1
 95
       26
 96
       22
 40
0.0
 40
0.0
 40
0.0
 40
0.0
 40
1.0
 40
1.0
 40
1.0
 40
2.0
 40
2.0
 40
2.0
 40
3.0
 40
3.0
 40
3.0
 40
4.0
 40
4.0
 40
4.0
 40
5.0
 40
5.0
 40
5.0
 40
6.0
 40
6.0
 40
6.0
 40
7.0
 40
7.0
 40
7.0
 40
7.0
 10
105.2903862583996
 20
-131.8314018767644
 10
105.2903862583996
 20
-131.8314018767644
 10
104.1862331553771
 20
-131.8314018767644
 10
104.1862331553771
 20
-131.8314018767644
 10
104.1862331553771
 20
-131.8314018767644
 10
104.1862331553771
 20
-132.1170002924916
 10
104.1862331553771
 20
-132.1170002924916
 10
104.1862331553771
 20
-132.1170002924916
 10
104.0380940495113
 20
-132.1170002924916
 10
104.0380940495113
 20
-132.1170002924916
 10
104.0232801389247
 20
-131.8296793290218
 10
103.8603271224724
 20
-131.7893717118443
 10
103.7459499523621
 20
-131.7638780052535
 10
103.7459499523621
 20
-131.7638780052535
 10
103.7459499523621
 20
-131.6374430009448
 10
103.7459499523621
 20
-131.6374430009448
 10
103.7459499523621
 20
-131.6374430009448
 10
105.2903862583996
 20
-131.6374430009448
 10
105.2903862583996
 20
-131.6374430009448
 10
105.2903862583996
 20
-131.6374430009448
 10
105.2903862583996
 20
-131.8314018767644
 10
105.2903862583996
 20
-131.8314018767644
 97
        0
 97
        0
 75
     2
 76
     1
 98
        0
  0
POLYLINE
  5
7F
330
79
100
AcDbEntity
  8
_U+30EC_U+30A4_U+30E4_U+30FC 1
370
     0
100
AcDb2dPolyline
 66
     1
 10
0.0
 20
0.0
 30
0.0
  0
VERTEX
  5
80
330
7F
100
AcDbEntity
  8
_U+30EC_U+30A4_U+30E4_U+30FC 1
370
     0
100
AcDbVertex
100
AcDb2dVertex
 10
105.2903862583996
 20
-131.1527180661702
 30
0.0
  0
VERTEX
  5
81
330
7F
100
AcDbEntity
  8
_U+30EC_U+30A4_U+30E4_U+30FC 1
370
     0
100
AcDbVertex
100
AcDb2dVertex
 10
105.0385497784279
 20
-131.1527180661702
 30
0.0
  0
VERTEX
  5
82
330
7F
100
AcDbEntity
  8
_U+30EC_U+30A4_U+30E4_U+30FC 1
370
     0
100
AcDbVertex
100
AcDb2dVertex
 10
105.0385497784279
 20
-130.9349880315024
 30
0.0
  0
VERTEX
  5
83
330
7F
100
AcDbEntity
  8
_U+30EC_U+30A4_U+30E4_U+30FC 1
370
     0
100
AcDbVertex
100
AcDb2dVertex
 10
105.2903862583996
 20
-130.9349880315024
 30
0.0
  0
VERTEX
  5
84
330
7F
100
AcDbEntity
  8
_U+30EC_U+30A4_U+30E4_U+30FC 1
370
     0
100
AcDbVertex
100
AcDb2dVertex
 10
105.2903862583996
 20
-131.1527180661702
 30
0.0
  0
SEQEND
  5
85
330
7F
100
AcDbEntity
  8
_U+30EC_U+30A4_U+30E4_U+30FC 1
370
     0
  0
HATCH
  5
86
330
79
100
AcDbEntity
  8
_U+30EC_U+30A4_U+30E4_U+30FC 1
 62
   179
420
  2234388
100
AcDbHatch
 10
0.0
 20
0.0
 30
0.0
210
0.0
220
0.0
230
1.0
  2
SOLID
 70
     1
 71
     0
 91
        1
 92
        1
 93
        4
 72
     1
 10
105.2903862583996
 20
-131.1527180661702
 11
105.0385497784279
 21
-131.1527180661702
 72
     1
 10
105.0385497784279
 20
-131.1527180661702
 11
105.0385497784279
 21
-130.9349880315024
 72
     1
 10
105.0385497784279
 20
-130.9349880315024
 11
105.2903862583996
 21
-130.9349880315024
 72
     1
 10
105.2903862583996
 20
-130.9349880315024
 11
105.2903862583996
 21
-131.1527180661702
 97
        0
 75
     2
 76
     1
 98
        0
  0
SPLINE
  5
87
330
79
100
AcDbEntity
  8
_U+30EC_U+30A4_U+30E4_U+30FC 1
370
     0
100
AcDbSpline
210
0.0
220
0.0
230
1.0
 70
    11
 71
     3
 72
    53
 73
    49
 74
     0
 42
0.0000000001
 43
0.0000000001
 12
1.0
 22
0.0
 32
0.0
 13
1.0
 23
0.0
 33
0.0
 40
0.0
 40
0.0
 40
0.0
 40
0.0
 40
1.0
 40
1.0
 40
1.0
 40
2.0
 40
2.0
 40
2.0
 40
3.0
 40
3.0
 40
3.0
 40
4.0
 40
4.0
 40
4.0
 40
5.0
 40
5.0
 40
5.0
 40
6.0
 40
6.0
 40
6.0
 40
7.0
 40
7.0
 40
7.0
 40
8.0
 40
8.0
 40
8.0
 40
9.0
 40
9.0
 40
9.0
 40
10.0
 40
10.0
 40
10.0
 40
11.0
 40
11.0
 40
11.0
 40
12.0
 40
12.0
 40
12.0
 40
13.0
 40
13.0
 40
13.0
 40
14.0
 40
14.0
 40
14.0
 40
15.0
 40
15.0
 40
15.0
 40
16.0
 40
16.0
 40
16.0
 40
16.0
 10
105.3410291620328
 20
-130.3148708441574
 30
0.0
 10
105.3410291620328
 20
-130.3823947156683
 30
0.0
 10
105.3241481941551
 20
-130.4705891600907
 30
0.0
 10
105.2607584372265
 20
-130.558094585416
 30
0.0
 10
105.150859891247
 20
-130.7083007485729
 30
0.0
 10
105.019601753259
 20
-130.7265597546448
 30
0.0
 10
104.9117702645707
 20
-130.743096212974
 30
0.0
 10
104.9117702645707
 20
-130.743096212974
 30
0.0
 10
104.9117702645707
 20
-130.550859884897
 30
0.0
 10
104.9117702645707
 20
-130.550859884897
 30
0.0
 10
105.1105522740696
 20
-130.5033175672006
 30
0.0
 10
105.1401800952427
 20
-130.3934190212211
 30
0.0
 10
105.1401800952427
 20
-130.3131482964148
 30
0.0
 10
105.1401800952427
 20
-130.1922254448825
 30
0.0
 10
105.040616835719
 20
-130.060622797346
 30
0.0
 10
104.8080728904647
 20
-130.060622797346
 30
0.0
 10
104.5521022959106
 20
-130.060622797346
 30
0.0
 10
104.48216685756
 20
-130.2159966037307
 30
0.0
 10
104.48216685756
 20
-130.3203829969338
 30
0.0
 10
104.48216685756
 20
-130.3479437608158
 30
0.0
 10
104.48216685756
 20
-130.4705891600907
 30
0.0
 10
104.6113579382569
 20
-130.5474147894118
 30
0.0
 10
104.6113579382569
 20
-130.5474147894118
 30
0.0
 10
104.592409913088
 20
-130.6993435003113
 30
0.0
 10
104.592409913088
 20
-130.6993435003113
 30
0.0
 10
104.592409913088
 20
-130.6993435003113
 30
0.0
 10
103.7459499523621
 20
-130.5949571071082
 30
0.0
 10
103.7459499523621
 20
-130.5949571071082
 30
0.0
 10
103.7459499523621
 20
-130.5949571071082
 30
0.0
 10
103.7459499523621
 20
-129.9214409397419
 30
0.0
 10
103.7459499523621
 20
-129.9214409397419
 30
0.0
 10
103.7459499523621
 20
-129.9214409397419
 30
0.0
 10
103.9405978472787
 20
-129.9214409397419
 30
0.0
 10
103.9405978472787
 20
-129.9214409397419
 30
0.0
 10
103.9405978472787
 20
-129.9214409397419
 30
0.0
 10
103.9405978472787
 20
-130.4540527017615
 30
0.0
 10
103.9405978472787
 20
-130.4540527017615
 30
0.0
 10
103.9405978472787
 20
-130.4540527017615
 30
0.0
 10
104.3636555728674
 20
-130.5105522677196
 30
0.0
 10
104.3636555728674
 20
-130.5105522677196
 30
0.0
 10
104.329893637112
 20
-130.4574977972467
 30
0.0
 10
104.2895860199345
 20
-130.3861843207021
 30
0.0
 10
104.2895860199345
 20
-130.2838649847901
 30
0.0
 10
104.2895860199345
 20
-130.0640678928312
 30
0.0
 10
104.4759656856866
 20
-129.8590847114588
 30
0.0
 10
104.7891248652958
 20
-129.8590847114588
 30
0.0
 10
105.1064181594873
 20
-129.8590847114588
 30
0.0
 10
105.3410291620328
 20
-130.0530435872784
 30
0.0
 10
105.3410291620328
 20
-130.3148708441574
 30
0.0
  0
HATCH
  5
88
330
79
100
AcDbEntity
  8
_U+30EC_U+30A4_U+30E4_U+30FC 1
 62
   179
420
  2234388
100
AcDbHatch
 10
0.0
 20
0.0
 30
0.0
210
0.0
220
0.0
230
1.0
  2
SOLID
 70
     1
 71
     0
 91
        1
 92
        1
 93
        1
 72
     4
 94
        3
 73
     0
 74
     1
 95
       53
 96
       49
 40
0.0
 40
0.0
 40
0.0
 40
0.0
 40
1.0
 40
1.0
 40
1.0
 40
2.0
 40
2.0
 40
2.0
 40
3.0
 40
3.0
 40
3.0
 40
4.0
 40
4.0
 40
4.0
 40
5.0
 40
5.0
 40
5.0
 40
6.0
 40
6.0
 40
6.0
 40
7.0
 40
7.0
 40
7.0
 40
8.0
 40
8.0
 40
8.0
 40
9.0
 40
9.0
 40
9.0
 40
10.0
 40
10.0
 40
10.0
 40
11.0
 40
11.0
 40
11.0
 40
12.0
 40
12.0
 40
12.0
 40
13.0
 40
13.0
 40
13.0
 40
14.0
 40
14.0
 40
14.0
 40
15.0
 40
15.0
 40
15.0
 40
16.0
 40
16.0
 40
16.0
 40
16.0
 10
105.3410291620328
 20
-130.3148708441574
 10
105.3410291620328
 20
-130.3823947156683
 10
105.3241481941551
 20
-130.4705891600907
 10
105.2607584372265
 20
-130.558094585416
 10
105.150859891247
 20
-130.7083007485729
 10
105.019601753259
 20
-130.7265597546448
 10
104.9117702645707
 20
-130.743096212974
 10
104.9117702645707
 20
-130.743096212974
 10
104.9117702645707
 20
-130.550859884897
 10
104.9117702645707
 20
-130.550859884897
 10
105.1105522740696
 20
-130.5033175672006
 10
105.1401800952427
 20
-130.3934190212211
 10
105.1401800952427
 20
-130.3131482964148
 10
105.1401800952427
 20
-130.1922254448825
 10
105.040616835719
 20
-130.060622797346
 10
104.8080728904647
 20
-130.060622797346
 10
104.5521022959106
 20
-130.060622797346
 10
104.48216685756
 20
-130.2159966037307
 10
104.48216685756
 20
-130.3203829969338
 10
104.48216685756
 20
-130.3479437608158
 10
104.48216685756
 20
-130.4705891600907
 10
104.6113579382569
 20
-130.5474147894118
 10
104.6113579382569
 20
-130.5474147894118
 10
104.592409913088
 20
-130.6993435003113
 10
104.592409913088
 20
-130.6993435003113
 10
104.592409913088
 20
-130.6993435003113
 10
103.7459499523621
 20
-130.5949571071082
 10
103.7459499523621
 20
-130.5949571071082
 10
103.7459499523621
 20
-130.5949571071082
 10
103.7459499523621
 20
-129.9214409397419
 10
103.7459499523621
 20
-129.9214409397419
 10
103.7459499523621
 20
-129.9214409397419
 10
103.9405978472787
 20
-129.9214409397419
 10
103.9405978472787
 20
-129.9214409397419
 10
103.9405978472787
 20
-129.9214409397419
 10
103.9405978472787
 20
-130.4540527017615
 10
103.9405978472787
 20
-130.4540527017615
 10
103.9405978472787
 20
-130.4540527017615
 10
104.3636555728674
 20
-130.5105522677196
 10
104.3636555728674
 20
-130.5105522677196
 10
104.329893637112
 20
-130.4574977972467
 10
104.2895860199345
 20
-130.3861843207021
 10
104.2895860199345
 20
-130.2838649847901
 10
104.2895860199345
 20
-130.0640678928312
 10
104.4759656856866
 20
-129.8590847114588
 10
104.7891248652958
 20
-129.8590847114588
 10
105.1064181594873
 20
-129.8590847114588
 10
105.3410291620328
 20
-130.0530435872784
 10
105.3410291620328
 20
-130.3148708441574
 97
        0
 97
        0
 75
     2
 76
     1
 98
        0
  0
ENDBLK
  5
7C
330
79
100
AcDbEntity
  8
0
100
AcDbBlockEnd
  0
BLOCK
  5
97
330
95
100
AcDbEntity
  8
0
100
AcDbBlockBegin
  2
block 3
 70
     0
 10
0.0
 20
0.0
 30
0.0
  3
block 3
  1

  0
SPLINE
  5
99
330
95
100
AcDbEntity
  8
_U+30EC_U+30A4_U+30E4_U+30FC 1
370
     0
100
AcDbSpline
210
0.0
220
0.0
230
1.0
 70
    11
 71
     3
 72
    44
 73
    40
 74
     0
 42
0.0000000001
 43
0.0000000001
 12
1.0
 22
0.0
 32
0.0
 13
1.0
 23
0.0
 33
0.0
 40
0.0
 40
0.0
 40
0.0
 40
0.0
 40
1.0
 40
1.0
 40
1.0
 40
2.0
 40
2.0
 40
2.0
 40
3.0
 40
3.0
 40
3.0
 40
4.0
 40
4.0
 40
4.0
 40
5.0
 40
5.0
 40
5.0
 40
6.0
 40
6.0
 40
6.0
 40
7.0
 40
7.0
 40
7.0
 40
8.0
 40
8.0
 40
8.0
 40
9.0
 40
9.0
 40
9.0
 40
10.0
 40
10.0
 40
10.0
 40
11.0
 40
11.0
 40
11.0
 40
12.0
 40
12.0
 40
12.0
 40
13.0
 40
13.0
 40
13.0
 40
13.0
 10
76.70849607457288
 20
-126.4663546775848
 30
0.0
 10
76.86714272166863
 20
-126.6551459101765
 30
0.0
 10
76.94121227460151
 20
-126.7354166349828
 30
0.0
 10
77.0850450111107
 20
-126.7774467999029
 30
0.0
 10
77.0850450111107
 20
-126.7774467999029
 30
0.0
 10
77.0850450111107
 20
-126.104275142085
 30
0.0
 10
77.0850450111107
 20
-126.104275142085
 30
0.0
 10
77.0850450111107
 20
-126.104275142085
 30
0.0
 10
77.29020044725732
 20
-126.104275142085
 30
0.0
 10
77.29020044725732
 20
-126.104275142085
 30
0.0
 10
77.29020044725732
 20
-126.104275142085
 30
0.0
 10
77.29020044725732
 20
-126.993454286828
 30
0.0
 10
77.29020044725732
 20
-126.993454286828
 30
0.0
 10
76.93259953588839
 20
-126.9662380324946
 30
0.0
 10
76.85439586837322
 20
-126.9093939569879
 30
0.0
 10
76.55605059935057
 20
-126.5762532235643
 30
0.0
 10
76.35726858985166
 20
-126.3547335838627
 30
0.0
 10
76.2895724635665
 20
-126.2982340179046
 30
0.0
 10
76.15211315370503
 20
-126.2982340179046
 30
0.0
 10
76.03360186901244
 20
-126.2982340179046
 30
0.0
 10
75.90234373102442
 20
-126.3602457366391
 30
0.0
 10
75.90234373102442
 20
-126.5304334536105
 30
0.0
 10
75.90234373102442
 20
-126.7557426983458
 30
0.0
 10
76.13299287376189
 20
-126.7629773988648
 30
0.0
 10
76.24943710116334
 20
-126.7667670038986
 30
0.0
 10
76.24943710116334
 20
-126.7667670038986
 30
0.0
 10
76.24943710116334
 20
-126.9607258797182
 30
0.0
 10
76.24943710116334
 20
-126.9607258797182
 30
0.0
 10
76.12248533253188
 20
-126.9531466696506
 30
0.0
 10
76.010347474487
 20
-126.944189421389
 30
0.0
 10
75.8918361897944
 20
-126.8745984925869
 30
0.0
 10
75.7311224854075
 20
-126.779513857194
 30
0.0
 10
75.69718829487779
 20
-126.6182833884843
 30
0.0
 10
75.69718829487779
 20
-126.517686600315
 30
0.0
 10
75.69718829487779
 20
-126.2779079545416
 30
0.0
 10
75.88132864856439
 20
-126.0987629893087
 30
0.0
 10
76.15418021099617
 20
-126.0987629893087
 30
0.0
 10
76.38259004166825
 20
-126.0987629893087
 30
0.0
 10
76.48215330119197
 20
-126.1993597774779
 30
0.0
 10
76.70849607457288
 20
-126.4663546775848
 30
0.0
  0
HATCH
  5
9A
330
95
100
AcDbEntity
  8
_U+30EC_U+30A4_U+30E4_U+30FC 1
 62
   179
420
  2234388
100
AcDbHatch
 10
0.0
 20
0.0
 30
0.0
210
0.0
220
0.0
230
1.0
  2
SOLID
 70
     1
 71
     0
 91
        1
 92
        1
 93
        1
 72
     4
 94
        3
 73
     0
 74
     1
 95
       44
 96
       40
 40
0.0
 40
0.0
 40
0.0
 40
0.0
 40
1.0
 40
1.0
 40
1.0
 40
2.0
 40
2.0
 40
2.0
 40
3.0
 40
3.0
 40
3.0
 40
4.0
 40
4.0
 40
4.0
 40
5.0
 40
5.0
 40
5.0
 40
6.0
 40
6.0
 40
6.0
 40
7.0
 40
7.0
 40
7.0
 40
8.0
 40
8.0
 40
8.0
 40
9.0
 40
9.0
 40
9.0
 40
10.0
 40
10.0
 40
10.0
 40
11.0
 40
11.0
 40
11.0
 40
12.0
 40
12.0
 40
12.0
 40
13.0
 40
13.0
 40
13.0
 40
13.0
 10
76.70849607457288
 20
-126.4663546775848
 10
76.86714272166863
 20
-126.6551459101765
 10
76.94121227460151
 20
-126.7354166349828
 10
77.0850450111107
 20
-126.7774467999029
 10
77.0850450111107
 20
-126.7774467999029
 10
77.0850450111107
 20
-126.104275142085
 10
77.0850450111107
 20
-126.104275142085
 10
77.0850450111107
 20
-126.104275142085
 10
77.29020044725732
 20
-126.104275142085
 10
77.29020044725732
 20
-126.104275142085
 10
77.29020044725732
 20
-126.104275142085
 10
77.29020044725732
 20
-126.993454286828
 10
77.29020044725732
 20
-126.993454286828
 10
76.93259953588839
 20
-126.9662380324946
 10
76.85439586837322
 20
-126.9093939569879
 10
76.55605059935057
 20
-126.5762532235643
 10
76.35726858985166
 20
-126.3547335838627
 10
76.2895724635665
 20
-126.2982340179046
 10
76.15211315370503
 20
-126.2982340179046
 10
76.03360186901244
 20
-126.2982340179046
 10
75.90234373102442
 20
-126.3602457366391
 10
75.90234373102442
 20
-126.5304334536105
 10
75.90234373102442
 20
-126.7557426983458
 10
76.13299287376189
 20
-126.7629773988648
 10
76.24943710116334
 20
-126.7667670038986
 10
76.24943710116334
 20
-126.7667670038986
 10
76.24943710116334
 20
-126.9607258797182
 10
76.24943710116334
 20
-126.9607258797182
 10
76.12248533253188
 20
-126.9531466696506
 10
76.010347474487
 20
-126.944189421389
 10
75.8918361897944
 20
-126.8745984925869
 10
75.7311224854075
 20
-126.779513857194
 10
75.69718829487779
 20
-126.6182833884843
 10
75.69718829487779
 20
-126.517686600315
 10
75.69718829487779
 20
-126.2779079545416
 10
75.88132864856439
 20
-126.0987629893087
 10
76.15418021099617
 20
-126.0987629893087
 10
76.38259004166825
 20
-126.0987629893087
 10
76.48215330119197
 20
-126.1993597774779
 10
76.70849607457288
 20
-126.4663546775848
 97
        0
 97
        0
 75
     2
 76
     1
 98
        0
  0
SPLINE
  5
9B
330
95
100
AcDbEntity
  8
_U+30EC_U+30A4_U+30E4_U+30FC 1
370
     0
100
AcDbSpline
210
0.0
220
0.0
230
1.0
 70
    11
 71
     3
 72
    29
 73
    25
 74
     0
 42
0.0000000001
 43
0.0000000001
 12
1.0
 22
0.0
 32
0.0
 13
1.0
 23
0.0
 33
0.0
 40
0.0
 40
0.0
 40
0.0
 40
0.0
 40
1.0
 40
1.0
 40
1.0
 40
2.0
 40
2.0
 40
2.0
 40
3.0
 40
3.0
 40
3.0
 40
4.0
 40
4.0
 40
4.0
 40
5.0
 40
5.0
 40
5.0
 40
6.0
 40
6.0
 40
6.0
 40
7.0
 40
7.0
 40
7.0
 40
8.0
 40
8.0
 40
8.0
 40
8.0
 10
77.11243352021842
 20
-125.1854681761689
 30
0.0
 10
77.32189532572161
 20
-125.2788302638192
 30
0.0
 10
77.34101560566475
 20
-125.4290364269761
 30
0.0
 10
77.34101560566475
 20
-125.5296332151454
 30
0.0
 10
77.34101560566475
 20
-125.6688150727495
 30
0.0
 10
77.29450681661388
 20
-125.7914604720244
 30
0.0
 10
77.11243352021842
 20
-125.8737982541218
 30
0.0
 10
76.91795788007607
 20
-125.9633707367383
 30
0.0
 10
76.68093531069088
 20
-125.9799071950675
 30
0.0
 10
76.51798229423856
 20
-125.9799071950675
 30
0.0
 10
76.37414955772938
 20
-125.9799071950675
 30
0.0
 10
76.12248533253188
 20
-125.965093284481
 30
0.0
 10
75.9235310682587
 20
-125.8737982541218
 30
0.0
 10
75.72044268940323
 20
-125.7804361664716
 30
0.0
 10
75.69718829487779
 20
-125.6412543088675
 30
0.0
 10
75.69718829487779
 20
-125.5296332151454
 30
0.0
 10
75.69718829487779
 20
-125.3925184148324
 30
0.0
 10
75.74163002663751
 20
-125.2678059582664
 30
0.0
 10
75.9235310682587
 20
-125.1854681761689
 30
0.0
 10
76.11611190588417
 20
-125.0996852985862
 30
0.0
 10
76.34452173655623
 20
-125.0793592352232
 30
0.0
 10
76.51798229423856
 20
-125.0793592352232
 30
0.0
 10
76.68937579462974
 20
-125.0793592352232
 30
0.0
 10
76.92002493736722
 20
-125.0976182412951
 30
0.0
 10
77.11243352021842
 20
-125.1854681761689
 30
0.0
  0
SPLINE
  5
9C
330
95
100
AcDbEntity
  8
_U+30EC_U+30A4_U+30E4_U+30FC 1
370
     0
100
AcDbSpline
210
0.0
220
0.0
230
1.0
 70
    11
 71
     3
 72
    17
 73
    13
 74
     0
 42
0.0000000001
 43
0.0000000001
 12
1.0
 22
0.0
 32
0.0
 13
1.0
 23
0.0
 33
0.0
 40
0.0
 40
0.0
 40
0.0
 40
0.0
 40
1.0
 40
1.0
 40
1.0
 40
2.0
 40
2.0
 40
2.0
 40
3.0
 40
3.0
 40
3.0
 40
4.0
 40
4.0
 40
4.0
 40
4.0
 10
75.88976913250326
 20
-125.5296332151454
 30
0.0
 10
75.88976913250326
 20
-125.7456407020705
 30
0.0
 10
76.17312823616506
 20
-125.785948319248
 30
0.0
 10
76.51798229423856
 20
-125.785948319248
 30
0.0
 10
76.83751490049549
 20
-125.785948319248
 30
0.0
 10
77.14636771074814
 20
-125.7549424598807
 30
0.0
 10
77.14636771074814
 20
-125.5296332151454
 30
0.0
 10
77.14636771074814
 20
-125.3156927855114
 30
0.0
 10
76.86490340960322
 20
-125.2733181110428
 30
0.0
 10
76.51798229423856
 20
-125.2733181110428
 30
0.0
 10
76.1986219427559
 20
-125.2733181110428
 30
0.0
 10
75.88976913250326
 20
-125.3063910277012
 30
0.0
 10
75.88976913250326
 20
-125.5296332151454
 30
0.0
  0
HATCH
  5
9D
330
95
100
AcDbEntity
  8
_U+30EC_U+30A4_U+30E4_U+30FC 1
 62
   179
420
  2234388
100
AcDbHatch
 10
0.0
 20
0.0
 30
0.0
210
0.0
220
0.0
230
1.0
  2
SOLID
 70
     1
 71
     0
 91
        2
 92
        1
 93
        1
 72
     4
 94
        3
 73
     0
 74
     1
 95
       29
 96
       25
 40
0.0
 40
0.0
 40
0.0
 40
0.0
 40
1.0
 40
1.0
 40
1.0
 40
2.0
 40
2.0
 40
2.0
 40
3.0
 40
3.0
 40
3.0
 40
4.0
 40
4.0
 40
4.0
 40
5.0
 40
5.0
 40
5.0
 40
6.0
 40
6.0
 40
6.0
 40
7.0
 40
7.0
 40
7.0
 40
8.0
 40
8.0
 40
8.0
 40
8.0
 10
77.11243352021842
 20
-125.1854681761689
 10
77.32189532572161
 20
-125.2788302638192
 10
77.34101560566475
 20
-125.4290364269761
 10
77.34101560566475
 20
-125.5296332151454
 10
77.34101560566475
 20
-125.6688150727495
 10
77.29450681661388
 20
-125.7914604720244
 10
77.11243352021842
 20
-125.8737982541218
 10
76.91795788007607
 20
-125.9633707367383
 10
76.68093531069088
 20
-125.9799071950675
 10
76.51798229423856
 20
-125.9799071950675
 10
76.37414955772938
 20
-125.9799071950675
 10
76.12248533253188
 20
-125.965093284481
 10
75.9235310682587
 20
-125.8737982541218
 10
75.72044268940323
 20
-125.7804361664716
 10
75.69718829487779
 20
-125.6412543088675
 10
75.69718829487779
 20
-125.5296332151454
 10
75.69718829487779
 20
-125.3925184148324
 10
75.74163002663751
 20
-125.2678059582664
 10
75.9235310682587
 20
-125.1854681761689
 10
76.11611190588417
 20
-125.0996852985862
 10
76.34452173655623
 20
-125.0793592352232
 10
76.51798229423856
 20
-125.0793592352232
 10
76.68937579462974
 20
-125.0793592352232
 10
76.92002493736722
 20
-125.0976182412951
 10
77.11243352021842
 20
-125.1854681761689
 97
        0
 97
        0
 92
        1
 93
        1
 72
     4
 94
        3
 73
     0
 74
     1
 95
       17
 96
       13
 40
0.0
 40
0.0
 40
0.0
 40
0.0
 40
1.0
 40
1.0
 40
1.0
 40
2.0
 40
2.0
 40
2.0
 40
3.0
 40
3.0
 40
3.0
 40
4.0
 40
4.0
 40
4.0
 40
4.0
 10
75.88976913250326
 20
-125.5296332151454
 10
75.88976913250326
 20
-125.7456407020705
 10
76.17312823616506
 20
-125.785948319248
 10
76.51798229423856
 20
-125.785948319248
 10
76.83751490049549
 20
-125.785948319248
 10
77.14636771074814
 20
-125.7549424598807
 10
77.14636771074814
 20
-125.5296332151454
 10
77.14636771074814
 20
-125.3156927855114
 10
76.86490340960322
 20
-125.2733181110428
 10
76.51798229423856
 20
-125.2733181110428
 10
76.1986219427559
 20
-125.2733181110428
 10
75.88976913250326
 20
-125.3063910277012
 10
75.88976913250326
 20
-125.5296332151454
 97
        0
 97
        0
 75
     2
 76
     1
 98
        0
  0
ENDBLK
  5
98
330
95
100
AcDbEntity
  8
0
100
AcDbBlockEnd
  0
BLOCK
  5
AC
330
AA
100
AcDbEntity
  8
0
100
AcDbBlockBegin
  2
block 4
 70
     0
 10
0.0
 20
0.0
 30
0.0
  3
block 4
  1

  0
SPLINE
  5
AE
330
AA
100
AcDbEntity
  8
_U+30EC_U+30A4_U+30E4_U+30FC 1
370
     0
100
AcDbSpline
210
0.0
220
0.0
230
1.0
 70
    11
 71
     3
 72
    44
 73
    40
 74
     0
 42
0.0000000001
 43
0.0000000001
 12
1.0
 22
0.0
 32
0.0
 13
1.0
 23
0.0
 33
0.0
 40
0.0
 40
0.0
 40
0.0
 40
0.0
 40
1.0
 40
1.0
 40
1.0
 40
2.0
 40
2.0
 40
2.0
 40
3.0
 40
3.0
 40
3.0
 40
4.0
 40
4.0
 40
4.0
 40
5.0
 40
5.0
 40
5.0
 40
6.0
 40
6.0
 40
6.0
 40
7.0
 40
7.0
 40
7.0
 40
8.0
 40
8.0
 40
8.0
 40
9.0
 40
9.0
 40
9.0
 40
10.0
 40
10.0
 40
10.0
 40
11.0
 40
11.0
 40
11.0
 40
12.0
 40
12.0
 40
12.0
 40
13.0
 40
13.0
 40
13.0
 40
13.0
 10
91.22337237302749
 20
-138.6296087978079
 30
0.0
 10
91.0345811404358
 20
-138.7884276996779
 30
0.0
 10
90.95431041562948
 20
-138.8624972526108
 30
0.0
 10
90.91228025070943
 20
-139.0061577343457
 30
0.0
 10
90.91228025070943
 20
-139.0061577343457
 30
0.0
 10
91.58545190852725
 20
-139.0061577343457
 30
0.0
 10
91.58545190852725
 20
-139.0061577343457
 30
0.0
 10
91.58545190852725
 20
-139.0061577343457
 30
0.0
 10
91.58545190852725
 20
-139.2114854252666
 30
0.0
 10
91.58545190852725
 20
-139.2114854252666
 30
0.0
 10
91.58545190852725
 20
-139.2114854252666
 30
0.0
 10
90.69627276378426
 20
-139.2114854252666
 30
0.0
 10
90.69627276378426
 20
-139.2114854252666
 30
0.0
 10
90.72348901811775
 20
-138.8538845138976
 30
0.0
 10
90.78033309362436
 20
-138.7756808463825
 30
0.0
 10
91.11347382704803
 20
-138.4773355773598
 30
0.0
 10
91.3349934667496
 20
-138.2785535678609
 30
0.0
 10
91.39149303270769
 20
-138.2106851868015
 30
0.0
 10
91.39149303270769
 20
-138.07322587694
 30
0.0
 10
91.39149303270769
 20
-137.9547145922474
 30
0.0
 10
91.32948131397319
 20
-137.8238009638079
 30
0.0
 10
91.15929359700185
 20
-137.8238009638079
 30
0.0
 10
90.9339843522665
 20
-137.8238009638079
 30
0.0
 10
90.92674965174749
 20
-138.0542778517712
 30
0.0
 10
90.92296004671371
 20
-138.1707220791726
 30
0.0
 10
90.92296004671371
 20
-138.1707220791726
 30
0.0
 10
90.72900117089414
 20
-138.1707220791726
 30
0.0
 10
90.72900117089414
 20
-138.1707220791726
 30
0.0
 10
90.7365803809617
 20
-138.0435980557669
 30
0.0
 10
90.74553762922334
 20
-137.9316324524963
 30
0.0
 10
90.81512855802539
 20
-137.8131211678037
 30
0.0
 10
90.91021319341829
 20
-137.6522352086425
 30
0.0
 10
91.07144366212798
 20
-137.6184732728871
 30
0.0
 10
91.17204045029727
 20
-137.6184732728871
 30
0.0
 10
91.41181909607066
 20
-137.6184732728871
 30
0.0
 10
91.59096406130365
 20
-137.8024413717994
 30
0.0
 10
91.59096406130365
 20
-138.0752929342312
 30
0.0
 10
91.59096406130365
 20
-138.3040472744518
 30
0.0
 10
91.49036727313435
 20
-138.403266024427
 30
0.0
 10
91.22337237302749
 20
-138.6296087978079
 30
0.0
  0
HATCH
  5
AF
330
AA
100
AcDbEntity
  8
_U+30EC_U+30A4_U+30E4_U+30FC 1
 62
   179
420
  2234388
100
AcDbHatch
 10
0.0
 20
0.0
 30
0.0
210
0.0
220
0.0
230
1.0
  2
SOLID
 70
     1
 71
     0
 91
        1
 92
        1
 93
        1
 72
     4
 94
        3
 73
     0
 74
     1
 95
       44
 96
       40
 40
0.0
 40
0.0
 40
0.0
 40
0.0
 40
1.0
 40
1.0
 40
1.0
 40
2.0
 40
2.0
 40
2.0
 40
3.0
 40
3.0
 40
3.0
 40
4.0
 40
4.0
 40
4.0
 40
5.0
 40
5.0
 40
5.0
 40
6.0
 40
6.0
 40
6.0
 40
7.0
 40
7.0
 40
7.0
 40
8.0
 40
8.0
 40
8.0
 40
9.0
 40
9.0
 40
9.0
 40
10.0
 40
10.0
 40
10.0
 40
11.0
 40
11.0
 40
11.0
 40
12.0
 40
12.0
 40
12.0
 40
13.0
 40
13.0
 40
13.0
 40
13.0
 10
91.22337237302749
 20
-138.6296087978079
 10
91.0345811404358
 20
-138.7884276996779
 10
90.95431041562948
 20
-138.8624972526108
 10
90.91228025070943
 20
-139.0061577343457
 10
90.91228025070943
 20
-139.0061577343457
 10
91.58545190852725
 20
-139.0061577343457
 10
91.58545190852725
 20
-139.0061577343457
 10
91.58545190852725
 20
-139.0061577343457
 10
91.58545190852725
 20
-139.2114854252666
 10
91.58545190852725
 20
-139.2114854252666
 10
91.58545190852725
 20
-139.2114854252666
 10
90.69627276378426
 20
-139.2114854252666
 10
90.69627276378426
 20
-139.2114854252666
 10
90.72348901811775
 20
-138.8538845138976
 10
90.78033309362436
 20
-138.7756808463825
 10
91.11347382704803
 20
-138.4773355773598
 10
91.3349934667496
 20
-138.2785535678609
 10
91.39149303270769
 20
-138.2106851868015
 10
91.39149303270769
 20
-138.07322587694
 10
91.39149303270769
 20
-137.9547145922474
 10
91.32948131397319
 20
-137.8238009638079
 10
91.15929359700185
 20
-137.8238009638079
 10
90.9339843522665
 20
-137.8238009638079
 10
90.92674965174749
 20
-138.0542778517712
 10
90.92296004671371
 20
-138.1707220791726
 10
90.92296004671371
 20
-138.1707220791726
 10
90.72900117089414
 20
-138.1707220791726
 10
90.72900117089414
 20
-138.1707220791726
 10
90.7365803809617
 20
-138.0435980557669
 10
90.74553762922334
 20
-137.9316324524963
 10
90.81512855802539
 20
-137.8131211678037
 10
90.91021319341829
 20
-137.6522352086425
 10
91.07144366212798
 20
-137.6184732728871
 10
91.17204045029727
 20
-137.6184732728871
 10
91.41181909607066
 20
-137.6184732728871
 10
91.59096406130365
 20
-137.8024413717994
 10
91.59096406130365
 20
-138.0752929342312
 10
91.59096406130365
 20
-138.3040472744518
 10
91.49036727313435
 20
-138.403266024427
 10
91.22337237302749
 20
-138.6296087978079
 97
        0
 97
        0
 75
     2
 76
     1
 98
        0
  0
SPLINE
  5
B0
330
AA
100
AcDbEntity
  8
_U+30EC_U+30A4_U+30E4_U+30FC 1
370
     0
100
AcDbSpline
210
0.0
220
0.0
230
1.0
 70
    11
 71
     3
 72
    29
 73
    25
 74
     0
 42
0.0000000001
 43
0.0000000001
 12
1.0
 22
0.0
 32
0.0
 13
1.0
 23
0.0
 33
0.0
 40
0.0
 40
0.0
 40
0.0
 40
0.0
 40
1.0
 40
1.0
 40
1.0
 40
2.0
 40
2.0
 40
2.0
 40
3.0
 40
3.0
 40
3.0
 40
4.0
 40
4.0
 40
4.0
 40
5.0
 40
5.0
 40
5.0
 40
6.0
 40
6.0
 40
6.0
 40
7.0
 40
7.0
 40
7.0
 40
8.0
 40
8.0
 40
8.0
 40
8.0
 10
92.50425887444338
 20
-139.0337184982277
 30
0.0
 10
92.41089678679312
 20
-139.2431803037309
 30
0.0
 10
92.26069062363622
 20
-139.2621283288998
 30
0.0
 10
92.16009383546692
 20
-139.2621283288998
 30
0.0
 10
92.02091197786284
 20
-139.2621283288998
 30
0.0
 10
91.89826657858794
 20
-139.2156195398489
 30
0.0
 10
91.81592879649047
 20
-139.0337184982277
 30
0.0
 10
91.72635631387396
 20
-138.8390706033111
 30
0.0
 10
91.70981985554477
 20
-138.6020480339259
 30
0.0
 10
91.70981985554477
 20
-138.4394395270221
 30
0.0
 10
91.70981985554477
 20
-138.2954345357387
 30
0.0
 10
91.72463376613135
 20
-138.0435980557669
 30
0.0
 10
91.81592879649047
 20
-137.844816046268
 30
0.0
 10
91.90929088414073
 20
-137.6418999221868
 30
0.0
 10
92.04847274174483
 20
-137.6184732728871
 30
0.0
 10
92.16009383546692
 20
-137.6184732728871
 30
0.0
 10
92.29720863577987
 20
-137.6184732728871
 30
0.0
 10
92.42192109234591
 20
-137.6629150046468
 30
0.0
 10
92.50425887444338
 20
-137.844816046268
 30
0.0
 10
92.59004175202611
 20
-138.0373968838934
 30
0.0
 10
92.61036781538908
 20
-138.2658067145655
 30
0.0
 10
92.61036781538908
 20
-138.4394395270221
 30
0.0
 10
92.61036781538908
 20
-138.610660772639
 30
0.0
 10
92.59210880931725
 20
-138.8411376606022
 30
0.0
 10
92.50425887444338
 20
-139.0337184982277
 30
0.0
  0
SPLINE
  5
B1
330
AA
100
AcDbEntity
  8
_U+30EC_U+30A4_U+30E4_U+30FC 1
370
     0
100
AcDbSpline
210
0.0
220
0.0
230
1.0
 70
    11
 71
     3
 72
    17
 73
    13
 74
     0
 42
0.0000000001
 43
0.0000000001
 12
1.0
 22
0.0
 32
0.0
 13
1.0
 23
0.0
 33
0.0
 40
0.0
 40
0.0
 40
0.0
 40
0.0
 40
1.0
 40
1.0
 40
1.0
 40
2.0
 40
2.0
 40
2.0
 40
3.0
 40
3.0
 40
3.0
 40
4.0
 40
4.0
 40
4.0
 40
4.0
 10
92.16009383546692
 20
-137.8110541105125
 30
0.0
 10
91.94408634854176
 20
-137.8110541105125
 30
0.0
 10
91.90377873136434
 20
-138.0945854689486
 30
0.0
 10
91.90377873136434
 20
-138.4394395270221
 30
0.0
 10
91.90377873136434
 20
-138.7587998785048
 30
0.0
 10
91.93478459073158
 20
-139.0674804339831
 30
0.0
 10
92.16009383546692
 20
-139.0674804339831
 30
0.0
 10
92.37403426510095
 20
-139.0674804339831
 30
0.0
 10
92.41640893956951
 20
-138.7863606423867
 30
0.0
 10
92.41640893956951
 20
-138.4394395270221
 30
0.0
 10
92.41640893956951
 20
-138.1197346659909
 30
0.0
 10
92.38333602291111
 20
-137.8110541105125
 30
0.0
 10
92.16009383546692
 20
-137.8110541105125
 30
0.0
  0
HATCH
  5
B2
330
AA
100
AcDbEntity
  8
_U+30EC_U+30A4_U+30E4_U+30FC 1
 62
   179
420
  2234388
100
AcDbHatch
 10
0.0
 20
0.0
 30
0.0
210
0.0
220
0.0
230
1.0
  2
SOLID
 70
     1
 71
     0
 91
        2
 92
        1
 93
        1
 72
     4
 94
        3
 73
     0
 74
     1
 95
       29
 96
       25
 40
0.0
 40
0.0
 40
0.0
 40
0.0
 40
1.0
 40
1.0
 40
1.0
 40
2.0
 40
2.0
 40
2.0
 40
3.0
 40
3.0
 40
3.0
 40
4.0
 40
4.0
 40
4.0
 40
5.0
 40
5.0
 40
5.0
 40
6.0
 40
6.0
 40
6.0
 40
7.0
 40
7.0
 40
7.0
 40
8.0
 40
8.0
 40
8.0
 40
8.0
 10
92.50425887444338
 20
-139.0337184982277
 10
92.41089678679312
 20
-139.2431803037309
 10
92.26069062363622
 20
-139.2621283288998
 10
92.16009383546692
 20
-139.2621283288998
 10
92.02091197786284
 20
-139.2621283288998
 10
91.89826657858794
 20
-139.2156195398489
 10
91.81592879649047
 20
-139.0337184982277
 10
91.72635631387396
 20
-138.8390706033111
 10
91.70981985554477
 20
-138.6020480339259
 10
91.70981985554477
 20
-138.4394395270221
 10
91.70981985554477
 20
-138.2954345357387
 10
91.72463376613135
 20
-138.0435980557669
 10
91.81592879649047
 20
-137.844816046268
 10
91.90929088414073
 20
-137.6418999221868
 10
92.04847274174483
 20
-137.6184732728871
 10
92.16009383546692
 20
-137.6184732728871
 10
92.29720863577987
 20
-137.6184732728871
 10
92.42192109234591
 20
-137.6629150046468
 10
92.50425887444338
 20
-137.844816046268
 10
92.59004175202611
 20
-138.0373968838934
 10
92.61036781538908
 20
-138.2658067145655
 10
92.61036781538908
 20
-138.4394395270221
 10
92.61036781538908
 20
-138.610660772639
 10
92.59210880931725
 20
-138.8411376606022
 10
92.50425887444338
 20
-139.0337184982277
 97
        0
 97
        0
 92
        1
 93
        1
 72
     4
 94
        3
 73
     0
 74
     1
 95
       17
 96
       13
 40
0.0
 40
0.0
 40
0.0
 40
0.0
 40
1.0
 40
1.0
 40
1.0
 40
2.0
 40
2.0
 40
2.0
 40
3.0
 40
3.0
 40
3.0
 40
4.0
 40
4.0
 40
4.0
 40
4.0
 10
92.16009383546692
 20
-137.8110541105125
 10
91.94408634854176
 20
-137.8110541105125
 10
91.90377873136434
 20
-138.0945854689486
 10
91.90377873136434
 20
-138.4394395270221
 10
91.90377873136434
 20
-138.7587998785048
 10
91.93478459073158
 20
-139.0674804339831
 10
92.16009383546692
 20
-139.0674804339831
 10
92.37403426510095
 20
-139.0674804339831
 10
92.41640893956951
 20
-138.7863606423867
 10
92.41640893956951
 20
-138.4394395270221
 10
92.41640893956951
 20
-138.1197346659909
 10
92.38333602291111
 20
-137.8110541105125
 10
92.16009383546692
 20
-137.8110541105125
 97
        0
 97
        0
 75
     2
 76
     1
 98
        0
  0
ENDBLK
  5
AD
330
AA
100
AcDbEntity
  8
0
100
AcDbBlockEnd
  0
BLOCK
  5
CD
330
CB
100
AcDbEntity
  8
0
100
AcDbBlockBegin
  2
block 5
 70
     0
 10
0.0
 20
0.0
 30
0.0
  3
block 5
  1

  0
SPLINE
  5
CF
330
CB
100
AcDbEntity
  8
_U+30EC_U+30A4_U+30E4_U+30FC 1
370
     0
100
AcDbSpline
210
0.0
220
0.0
230
1.0
 70
    11
 71
     3
 72
   242
 73
   238
 74
     0
 42
0.0000000001
 43
0.0000000001
 12
1.0
 22
0.0
 32
0.0
 13
1.0
 23
0.0
 33
0.0
 40
0.0
 40
0.0
 40
0.0
 40
0.0
 40
1.0
 40
1.0
 40
1.0
 40
2.0
 40
2.0
 40
2.0
 40
3.0
 40
3.0
 40
3.0
 40
4.0
 40
4.0
 40
4.0
 40
5.0
 40
5.0
 40
5.0
 40
6.0
 40
6.0
 40
6.0
 40
7.0
 40
7.0
 40
7.0
 40
8.0
 40
8.0
 40
8.0
 40
9.0
 40
9.0
 40
9.0
 40
10.0
 40
10.0
 40
10.0
 40
11.0
 40
11.0
 40
11.0
 40
12.0
 40
12.0
 40
12.0
 40
13.0
 40
13.0
 40
13.0
 40
14.0
 40
14.0
 40
14.0
 40
15.0
 40
15.0
 40
15.0
 40
16.0
 40
16.0
 40
16.0
 40
17.0
 40
17.0
 40
17.0
 40
18.0
 40
18.0
 40
18.0
 40
19.0
 40
19.0
 40
19.0
 40
20.0
 40
20.0
 40
20.0
 40
21.0
 40
21.0
 40
21.0
 40
22.0
 40
22.0
 40
22.0
 40
23.0
 40
23.0
 40
23.0
 40
24.0
 40
24.0
 40
24.0
 40
25.0
 40
25.0
 40
25.0
 40
26.0
 40
26.0
 40
26.0
 40
27.0
 40
27.0
 40
27.0
 40
28.0
 40
28.0
 40
28.0
 40
29.0
 40
29.0
 40
29.0
 40
30.0
 40
30.0
 40
30.0
 40
31.0
 40
31.0
 40
31.0
 40
32.0
 40
32.0
 40
32.0
 40
33.0
 40
33.0
 40
33.0
 40
34.0
 40
34.0
 40
34.0
 40
35.0
 40
35.0
 40
35.0
 40
36.0
 40
36.0
 40
36.0
 40
37.0
 40
37.0
 40
37.0
 40
38.0
 40
38.0
 40
38.0
 40
39.0
 40
39.0
 40
39.0
 40
40.0
 40
40.0
 40
40.0
 40
41.0
 40
41.0
 40
41.0
 40
42.0
 40
42.0
 40
42.0
 40
43.0
 40
43.0
 40
43.0
 40
44.0
 40
44.0
 40
44.0
 40
45.0
 40
45.0
 40
45.0
 40
46.0
 40
46.0
 40
46.0
 40
47.0
 40
47.0
 40
47.0
 40
48.0
 40
48.0
 40
48.0
 40
49.0
 40
49.0
 40
49.0
 40
50.0
 40
50.0
 40
50.0
 40
51.0
 40
51.0
 40
51.0
 40
52.0
 40
52.0
 40
52.0
 40
53.0
 40
53.0
 40
53.0
 40
54.0
 40
54.0
 40
54.0
 40
55.0
 40
55.0
 40
55.0
 40
56.0
 40
56.0
 40
56.0
 40
57.0
 40
57.0
 40
57.0
 40
58.0
 40
58.0
 40
58.0
 40
59.0
 40
59.0
 40
59.0
 40
60.0
 40
60.0
 40
60.0
 40
61.0
 40
61.0
 40
61.0
 40
62.0
 40
62.0
 40
62.0
 40
63.0
 40
63.0
 40
63.0
 40
64.0
 40
64.0
 40
64.0
 40
65.0
 40
65.0
 40
65.0
 40
66.0
 40
66.0
 40
66.0
 40
67.0
 40
67.0
 40
67.0
 40
68.0
 40
68.0
 40
68.0
 40
69.0
 40
69.0
 40
69.0
 40
70.0
 40
70.0
 40
70.0
 40
71.0
 40
71.0
 40
71.0
 40
72.0
 40
72.0
 40
72.0
 40
73.0
 40
73.0
 40
73.0
 40
74.0
 40
74.0
 40
74.0
 40
75.0
 40
75.0
 40
75.0
 40
76.0
 40
76.0
 40
76.0
 40
77.0
 40
77.0
 40
77.0
 40
78.0
 40
78.0
 40
78.0
 40
79.0
 40
79.0
 40
79.0
 40
79.0
 10
90.67112356674194
 20
-120.5971177541389
 30
0.0
 10
90.67112356674194
 20
-120.5971177541389
 30
0.0
 10
90.4485703983948
 20
-120.5971177541389
 30
0.0
 10
90.4485703983948
 20
-120.5971177541389
 30
0.0
 10
90.4485703983948
 20
-120.5971177541389
 30
0.0
 10
90.20603567623321
 20
-120.5971177541389
 30
0.0
 10
90.20603567623321
 20
-120.5971177541389
 30
0.0
 10
90.20603567623321
 20
-120.5971177541389
 30
0.0
 10
90.3173122604068
 20
-120.6394924286075
 30
0.0
 10
90.3173122604068
 20
-120.6394924286075
 30
0.0
 10
90.32661401821696
 20
-120.6437987979641
 30
0.0
 10
90.33763832376977
 20
-120.6499999698375
 30
0.0
 10
90.33763832376977
 20
-120.6627468231329
 30
0.0
 10
90.33763832376977
 20
-120.6839341603672
 30
0.0
 10
90.30973305033923
 20
-120.6903075870149
 30
0.0
 10
90.29147404426742
 20
-120.6944417015972
 30
0.0
 10
90.28217228645724
 20
-120.7176960961227
 30
0.0
 10
90.25633407031786
 20
-120.7833251651167
 30
0.0
 10
90.23945310244014
 20
-120.8277668968764
 30
0.0
 10
90.23945310244014
 20
-120.8277668968764
 30
0.0
 10
90.47647567182533
 20
-120.8277668968764
 30
0.0
 10
90.47647567182533
 20
-120.8277668968764
 30
0.0
 10
90.5560573775346
 20
-120.8277668968764
 30
0.0
 10
90.7283121517971
 20
-120.8234605275198
 30
0.0
 10
90.85233558926609
 20
-120.815020043581
 30
0.0
 10
90.85233558926609
 20
-120.815020043581
 30
0.0
 10
90.85233558926609
 20
-120.9927869706199
 30
0.0
 10
90.85233558926609
 20
-120.9927869706199
 30
0.0
 10
90.78033309362436
 20
-120.9884806012633
 30
0.0
 10
90.76172957800402
 20
-120.9884806012633
 30
0.0
 10
90.60428871432809
 20
-120.984346486681
 30
0.0
 10
90.57638344089757
 20
-121.1386867644202
 30
0.0
 10
90.53745386191426
 20
-121.2191297440008
 30
0.0
 10
90.49886879247946
 20
-121.2888929275771
 30
0.0
 10
90.60428871432809
 20
-121.3481485699234
 30
0.0
 10
90.69696178288132
 20
-121.4158446962085
 30
0.0
 10
90.78756779414338
 20
-121.4983547330803
 30
0.0
 10
90.78756779414338
 20
-121.4983547330803
 30
0.0
 10
90.68387042003737
 20
-121.6654418641149
 30
0.0
 10
90.68387042003737
 20
-121.6654418641149
 30
0.0
 10
90.6635443566744
 20
-121.646493838946
 30
0.0
 10
90.6525200511216
 20
-121.6380533550072
 30
0.0
 10
90.55433482979197
 20
-121.55330400607
 30
0.0
 10
90.51161564577488
 20
-121.515235700958
 30
0.0
 10
90.45993921349613
 20
-121.4794067079114
 30
0.0
 10
90.3893147560485
 20
-121.4349649761517
 30
0.0
 10
90.2043131284906
 20
-121.6211723871294
 30
0.0
 10
90.02482365370908
 20
-121.6444267816549
 30
0.0
 10
89.77092011644616
 20
-121.674054602828
 30
0.0
 10
89.77092011644616
 20
-121.674054602828
 30
0.0
 10
89.6803141051841
 20
-121.494220618498
 30
0.0
 10
89.6803141051841
 20
-121.494220618498
 30
0.0
 10
89.95798880129523
 20
-121.4899142491414
 30
0.0
 10
90.11164005993737
 20
-121.4645927973248
 30
0.0
 10
90.24496525521654
 20
-121.3545219965711
 30
0.0
 10
90.14126788111052
 20
-121.3037068381637
 30
0.0
 10
90.06340872314388
 20
-121.2763183290559
 30
0.0
 10
90.0320583542281
 20
-121.2635714757605
 30
0.0
 10
90.0155218958989
 20
-121.2911322396425
 30
0.0
 10
90.00243053305495
 20
-121.3100802648114
 30
0.0
 10
89.9783148646582
 20
-121.3440144553411
 30
0.0
 10
89.9783148646582
 20
-121.3440144553411
 30
0.0
 10
89.80606009039572
 20
-121.2615044184694
 30
0.0
 10
89.80606009039572
 20
-121.2615044184694
 30
0.0
 10
89.87840709558596
 20
-121.1810614388888
 30
0.0
 10
89.93215058515585
 20
-121.0858045487216
 30
0.0
 10
89.98210446969198
 20
-120.984346486681
 30
0.0
 10
89.81536184820588
 20
-120.9884806012633
 30
0.0
 10
89.79675833258554
 20
-120.9884806012633
 30
0.0
 10
89.72475583694381
 20
-120.9927869706199
 30
0.0
 10
89.72475583694381
 20
-120.9927869706199
 30
0.0
 10
89.72475583694381
 20
-120.815020043581
 30
0.0
 10
89.72475583694381
 20
-120.815020043581
 30
0.0
 10
89.84705672667019
 20
-120.8213934702287
 30
0.0
 10
90.03033580648548
 20
-120.8256998395852
 30
0.0
 10
90.05238441759107
 20
-120.8256998395852
 30
0.0
 10
90.06719832817765
 20
-120.7917656490555
 30
0.0
 10
90.11542966497115
 20
-120.6711873070718
 30
0.0
 10
90.13196612330034
 20
-120.5971177541389
 30
0.0
 10
90.11542966497115
 20
-120.5971177541389
 30
0.0
 10
89.96005585858637
 20
-120.6034911807866
 30
0.0
 10
89.78952363206652
 20
-120.6162380340821
 30
0.0
 10
89.78952363206652
 20
-120.6162380340821
 30
0.0
 10
89.78952363206652
 20
-120.7495632293612
 30
0.0
 10
89.78952363206652
 20
-120.7495632293612
 30
0.0
 10
89.74680444804942
 20
-120.7748846811778
 30
0.0
 10
89.69512801577066
 20
-120.8065795596421
 30
0.0
 10
89.57833927882069
 20
-120.8722086286361
 30
0.0
 10
89.57833927882069
 20
-120.8722086286361
 30
0.0
 10
89.57833927882069
 20
-121.0181084224365
 30
0.0
 10
89.57833927882069
 20
-121.0181084224365
 30
0.0
 10
89.57833927882069
 20
-121.0181084224365
 30
0.0
 10
89.57833927882069
 20
-121.4857801345591
 30
0.0
 10
89.57833927882069
 20
-121.4857801345591
 30
0.0
 10
89.57833927882069
 20
-121.6125596484163
 30
0.0
 10
89.54698890990493
 20
-121.6718152907626
 30
0.0
 10
89.29894203496694
 20
-121.6633748068237
 30
0.0
 10
89.29894203496694
 20
-121.6633748068237
 30
0.0
 10
89.20799151415633
 20
-121.456152313386
 30
0.0
 10
89.20799151415633
 20
-121.456152313386
 30
0.0
 10
89.26345755146886
 20
-121.4687269119071
 30
0.0
 10
89.30617673548596
 20
-121.4730332812637
 30
0.0
 10
89.3413167094355
 20
-121.4730332812637
 30
0.0
 10
89.40815156184935
 20
-121.4730332812637
 30
0.0
 10
89.41745331965953
 20
-121.4497788867383
 30
0.0
 10
89.41745331965953
 20
-121.3841498177442
 30
0.0
 10
89.41745331965953
 20
-121.3841498177442
 30
0.0
 10
89.41745331965953
 20
-120.9547186655079
 30
0.0
 10
89.41745331965953
 20
-120.9547186655079
 30
0.0
 10
89.33201495162534
 20
-120.994854027911
 30
0.0
 10
89.31720104103876
 20
-121.0012274545587
 30
0.0
 10
89.27654891431281
 20
-121.0203477345019
 30
0.0
 10
89.27275930927904
 20
-121.0413628169619
 30
0.0
 10
89.26931421379379
 20
-121.070990638135
 30
0.0
 10
89.25243324591607
 20
-121.070990638135
 30
0.0
 10
89.24519854539703
 20
-121.070990638135
 30
0.0
 10
89.23589678758687
 20
-121.0668565235527
 30
0.0
 10
89.23038463481046
 20
-121.0436021290273
 30
0.0
 10
89.23038463481046
 20
-121.0436021290273
 30
0.0
 10
89.18387584575959
 20
-120.8510212914018
 30
0.0
 10
89.18387584575959
 20
-120.8510212914018
 30
0.0
 10
89.31168888826235
 20
-120.804512502351
 30
0.0
 10
89.36922198286604
 20
-120.7812581078255
 30
0.0
 10
89.41745331965953
 20
-120.7600707705912
 30
0.0
 10
89.41745331965953
 20
-120.7600707705912
 30
0.0
 10
89.41745331965953
 20
-120.3475205862326
 30
0.0
 10
89.41745331965953
 20
-120.3475205862326
 30
0.0
 10
89.41745331965953
 20
-120.3475205862326
 30
0.0
 10
89.37094453060865
 20
-120.3475205862326
 30
0.0
 10
89.37094453060865
 20
-120.3475205862326
 30
0.0
 10
89.37094453060865
 20
-120.3475205862326
 30
0.0
 10
89.30238713045219
 20
-120.3475205862326
 30
0.0
 10
89.30238713045219
 20
-120.3475205862326
 30
0.0
 10
89.24313148810589
 20
-120.3475205862326
 30
0.0
 10
89.23589678758687
 20
-120.3475205862326
 30
0.0
 10
89.20420190912256
 20
-120.3538940128803
 30
0.0
 10
89.20420190912256
 20
-120.3538940128803
 30
0.0
 10
89.20420190912256
 20
-120.1592461179637
 30
0.0
 10
89.20420190912256
 20
-120.1592461179637
 30
0.0
 10
89.22831757751932
 20
-120.1656195446114
 30
0.0
 10
89.23589678758687
 20
-120.1656195446114
 30
0.0
 10
89.29687497767578
 20
-120.1656195446114
 30
0.0
 10
89.29687497767578
 20
-120.1656195446114
 30
0.0
 10
89.41366371462576
 20
-120.1656195446114
 30
0.0
 10
89.41366371462576
 20
-120.1656195446114
 30
0.0
 10
89.41366371462576
 20
-120.0958563610351
 30
0.0
 10
89.41366371462576
 20
-120.0133463241633
 30
0.0
 10
89.4115966573346
 20
-120.0090399548068
 30
0.0
 10
89.40436195681558
 20
-119.8292059704767
 30
0.0
 10
89.40436195681558
 20
-119.8102579453079
 30
0.0
 10
89.40263940907296
 20
-119.763749156257
 30
0.0
 10
89.40263940907296
 20
-119.763749156257
 30
0.0
 10
89.59143064166464
 20
-119.7721896401958
 30
0.0
 10
89.59143064166464
 20
-119.7721896401958
 30
0.0
 10
89.60073239947482
 20
-119.7721896401958
 30
0.0
 10
89.61899140554665
 20
-119.774256697487
 30
0.0
 10
89.61899140554665
 20
-119.7911376653647
 30
0.0
 10
89.61899140554665
 20
-119.8102579453079
 30
0.0
 10
89.60624455225123
 20
-119.8207654865379
 30
0.0
 10
89.5838514315971
 20
-119.839885766481
 30
0.0
 10
89.5838514315971
 20
-119.8905286701142
 30
0.0
 10
89.57833927882069
 20
-120.1191107555605
 30
0.0
 10
89.58040633611185
 20
-120.1656195446114
 30
0.0
 10
89.69340546802805
 20
-120.1656195446114
 30
0.0
 10
89.70442977358084
 20
-120.1656195446114
 30
0.0
 10
89.78952363206652
 20
-120.1571790606725
 30
0.0
 10
89.78952363206652
 20
-120.1571790606725
 30
0.0
 10
89.78952363206652
 20
-120.3518269555891
 30
0.0
 10
89.78952363206652
 20
-120.3518269555891
 30
0.0
 10
89.7561062058596
 20
-120.3495876435237
 30
0.0
 10
89.6968505635133
 20
-120.3454535289414
 30
0.0
 10
89.57833927882069
 20
-120.3475205862326
 30
0.0
 10
89.57833927882069
 20
-120.3475205862326
 30
0.0
 10
89.57833927882069
 20
-120.6860012176584
 30
0.0
 10
89.57833927882069
 20
-120.6860012176584
 30
0.0
 10
89.6265706156142
 20
-120.6627468231329
 30
0.0
 10
89.68410371021787
 20
-120.6351860592509
 30
0.0
 10
89.72647838468644
 20
-120.6119316647255
 30
0.0
 10
89.72647838468644
 20
-120.6119316647255
 30
0.0
 10
89.72647838468644
 20
-120.4343369924609
 30
0.0
 10
89.72647838468644
 20
-120.4343369924609
 30
0.0
 10
89.82638615375869
 20
-120.446911590982
 30
0.0
 10
89.93042803741324
 20
-120.446911590982
 30
0.0
 10
90.0320583542281
 20
-120.446911590982
 30
0.0
 10
90.01173229086513
 20
-120.3518269555891
 30
0.0
 10
89.98761662246838
 20
-120.2693169187174
 30
0.0
 10
89.93215058515585
 20
-120.1359917234382
 30
0.0
 10
89.89322100617254
 20
-120.1380587807294
 30
0.0
 10
89.82087400098229
 20
-120.1423651500859
 30
0.0
 10
89.78780108432389
 20
-120.1444322073771
 30
0.0
 10
89.78780108432389
 20
-120.1444322073771
 30
0.0
 10
89.78780108432389
 20
-119.964598223047
 30
0.0
 10
89.78780108432389
 20
-119.964598223047
 30
0.0
 10
89.89701061120631
 20
-119.9730387069859
 30
0.0
 10
90.04893932210582
 20
-119.9773450763425
 30
0.0
 10
90.12094181774755
 20
-119.9773450763425
 30
0.0
 10
90.12094181774755
 20
-119.9773450763425
 30
0.0
 10
90.19328882293779
 20
-119.9773450763425
 30
0.0
 10
90.19328882293779
 20
-119.9773450763425
 30
0.0
 10
90.19328882293779
 20
-119.8143920598902
 30
0.0
 10
90.19328882293779
 20
-119.8038845186601
 30
0.0
 10
90.19122176564665
 20
-119.7489352456704
 30
0.0
 10
90.19122176564665
 20
-119.7489352456704
 30
0.0
 10
90.38759220830589
 20
-119.774256697487
 30
0.0
 10
90.38759220830589
 20
-119.774256697487
 30
0.0
 10
90.39138181333966
 20
-119.774256697487
 30
0.0
 10
90.40998532896
 20
-119.7763237547781
 30
0.0
 10
90.40998532896
 20
-119.7932047226559
 30
0.0
 10
90.40998532896
 20
-119.8080186332424
 30
0.0
 10
90.40068357114983
 20
-119.8166313719556
 30
0.0
 10
90.37656790275308
 20
-119.8314452825421
 30
0.0
 10
90.37105574997669
 20
-119.8969020967619
 30
0.0
 10
90.36898869268553
 20
-119.9180894339962
 30
0.0
 10
90.36898869268553
 20
-119.9773450763425
 30
0.0
 10
90.36898869268553
 20
-119.9773450763425
 30
0.0
 10
90.45236000342858
 20
-119.9773450763425
 30
0.0
 10
90.45236000342858
 20
-119.9773450763425
 30
0.0
 10
90.52470700861883
 20
-119.9773450763425
 30
0.0
 10
90.67663571951834
 20
-119.9730387069859
 30
0.0
 10
90.78584524640077
 20
-119.964598223047
 30
0.0
 10
90.78584524640077
 20
-119.964598223047
 30
0.0
 10
90.78584524640077
 20
-120.1444322073771
 30
0.0
 10
90.78584524640077
 20
-120.1444322073771
 30
0.0
 10
90.76000703026139
 20
-120.1423651500859
 30
0.0
 10
90.65596514660685
 20
-120.1380587807294
 30
0.0
 10
90.62082517265729
 20
-120.1359917234382
 30
0.0
 10
90.60807831936188
 20
-120.1868068818457
 30
0.0
 10
90.57845049818873
 20
-120.2989447398905
 30
0.0
 10
90.52091740358506
 20
-120.4384711070432
 30
0.0
 10
90.55812443482576
 20
-120.4384711070432
 30
0.0
 10
90.80065915698734
 20
-120.4195230818743
 30
0.0
 10
90.85440264655723
 20
-120.4172837698089
 30
0.0
 10
90.85440264655723
 20
-120.4172837698089
 30
0.0
 10
90.85440264655723
 20
-120.6014241234955
 30
0.0
 10
90.85440264655723
 20
-120.6014241234955
 30
0.0
 10
90.82821992086934
 20
-120.6014241234955
 30
0.0
 10
90.81340601028276
 20
-120.5971177541389
 30
0.0
 10
90.67112356674194
 20
-120.5971177541389
 30
0.0
  0
SPLINE
  5
D0
330
CB
100
AcDbEntity
  8
_U+30EC_U+30A4_U+30E4_U+30FC 1
370
     0
100
AcDbSpline
210
0.0
220
0.0
230
1.0
 70
    11
 71
     3
 72
    20
 73
    16
 74
     0
 42
0.0000000001
 43
0.0000000001
 12
1.0
 22
0.0
 32
0.0
 13
1.0
 23
0.0
 33
0.0
 40
0.0
 40
0.0
 40
0.0
 40
0.0
 40
1.0
 40
1.0
 40
1.0
 40
2.0
 40
2.0
 40
2.0
 40
3.0
 40
3.0
 40
3.0
 40
4.0
 40
4.0
 40
4.0
 40
5.0
 40
5.0
 40
5.0
 40
5.0
 10
90.12094181774755
 20
-120.1318576088559
 30
0.0
 10
90.12094181774755
 20
-120.1318576088559
 30
0.0
 10
90.09303654431702
 20
-120.1318576088559
 30
0.0
 10
90.09303654431702
 20
-120.1318576088559
 30
0.0
 10
90.1340331805915
 20
-120.2312486136054
 30
0.0
 10
90.1615939444735
 20
-120.3115193384117
 30
0.0
 10
90.19122176564665
 20
-120.4384711070432
 30
0.0
 10
90.19122176564665
 20
-120.4384711070432
 30
0.0
 10
90.37277829771931
 20
-120.4384711070432
 30
0.0
 10
90.37277829771931
 20
-120.4384711070432
 30
0.0
 10
90.40068357114983
 20
-120.3454535289414
 30
0.0
 10
90.42100963451281
 20
-120.2608764347785
 30
0.0
 10
90.44133569787579
 20
-120.1318576088559
 30
0.0
 10
90.44133569787579
 20
-120.1318576088559
 30
0.0
 10
90.12094181774755
 20
-120.1318576088559
 30
0.0
 10
90.12094181774755
 20
-120.1318576088559
 30
0.0
  0
SPLINE
  5
D1
330
CB
100
AcDbEntity
  8
_U+30EC_U+30A4_U+30E4_U+30FC 1
370
     0
100
AcDbSpline
210
0.0
220
0.0
230
1.0
 70
    11
 71
     3
 72
    17
 73
    13
 74
     0
 42
0.0000000001
 43
0.0000000001
 12
1.0
 22
0.0
 32
0.0
 13
1.0
 23
0.0
 33
0.0
 40
0.0
 40
0.0
 40
0.0
 40
0.0
 40
1.0
 40
1.0
 40
1.0
 40
2.0
 40
2.0
 40
2.0
 40
3.0
 40
3.0
 40
3.0
 40
4.0
 40
4.0
 40
4.0
 40
4.0
 10
90.17640785506006
 20
-120.9822794293898
 30
0.0
 10
90.1615939444735
 20
-121.0117349957887
 30
0.0
 10
90.11715221271378
 20
-121.1049248286647
 30
0.0
 10
90.10819496445212
 20
-121.1238728538336
 30
0.0
 10
90.27459307638969
 20
-121.1831284961799
 30
0.0
 10
90.29319659201003
 20
-121.1895019228276
 30
0.0
 10
90.35624183939011
 20
-121.2170626867096
 30
0.0
 10
90.40447317618361
 20
-121.1302462804813
 30
0.0
 10
90.42479923954659
 20
-121.0561767275485
 30
0.0
 10
90.43754609284201
 20
-120.9822794293898
 30
0.0
 10
90.43754609284201
 20
-120.9822794293898
 30
0.0
 10
90.17640785506006
 20
-120.9822794293898
 30
0.0
 10
90.17640785506006
 20
-120.9822794293898
 30
0.0
  0
HATCH
  5
D2
330
CB
100
AcDbEntity
  8
_U+30EC_U+30A4_U+30E4_U+30FC 1
 62
   179
420
  2234388
100
AcDbHatch
 10
0.0
 20
0.0
 30
0.0
210
0.0
220
0.0
230
1.0
  2
SOLID
 70
     1
 71
     0
 91
        3
 92
        1
 93
        1
 72
     4
 94
        3
 73
     0
 74
     1
 95
      242
 96
      238
 40
0.0
 40
0.0
 40
0.0
 40
0.0
 40
1.0
 40
1.0
 40
1.0
 40
2.0
 40
2.0
 40
2.0
 40
3.0
 40
3.0
 40
3.0
 40
4.0
 40
4.0
 40
4.0
 40
5.0
 40
5.0
 40
5.0
 40
6.0
 40
6.0
 40
6.0
 40
7.0
 40
7.0
 40
7.0
 40
8.0
 40
8.0
 40
8.0
 40
9.0
 40
9.0
 40
9.0
 40
10.0
 40
10.0
 40
10.0
 40
11.0
 40
11.0
 40
11.0
 40
12.0
 40
12.0
 40
12.0
 40
13.0
 40
13.0
 40
13.0
 40
14.0
 40
14.0
 40
14.0
 40
15.0
 40
15.0
 40
15.0
 40
16.0
 40
16.0
 40
16.0
 40
17.0
 40
17.0
 40
17.0
 40
18.0
 40
18.0
 40
18.0
 40
19.0
 40
19.0
 40
19.0
 40
20.0
 40
20.0
 40
20.0
 40
21.0
 40
21.0
 40
21.0
 40
22.0
 40
22.0
 40
22.0
 40
23.0
 40
23.0
 40
23.0
 40
24.0
 40
24.0
 40
24.0
 40
25.0
 40
25.0
 40
25.0
 40
26.0
 40
26.0
 40
26.0
 40
27.0
 40
27.0
 40
27.0
 40
28.0
 40
28.0
 40
28.0
 40
29.0
 40
29.0
 40
29.0
 40
30.0
 40
30.0
 40
30.0
 40
31.0
 40
31.0
 40
31.0
 40
32.0
 40
32.0
 40
32.0
 40
33.0
 40
33.0
 40
33.0
 40
34.0
 40
34.0
 40
34.0
 40
35.0
 40
35.0
 40
35.0
 40
36.0
 40
36.0
 40
36.0
 40
37.0
 40
37.0
 40
37.0
 40
38.0
 40
38.0
 40
38.0
 40
39.0
 40
39.0
 40
39.0
 40
40.0
 40
40.0
 40
40.0
 40
41.0
 40
41.0
 40
41.0
 40
42.0
 40
42.0
 40
42.0
 40
43.0
 40
43.0
 40
43.0
 40
44.0
 40
44.0
 40
44.0
 40
45.0
 40
45.0
 40
45.0
 40
46.0
 40
46.0
 40
46.0
 40
47.0
 40
47.0
 40
47.0
 40
48.0
 40
48.0
 40
48.0
 40
49.0
 40
49.0
 40
49.0
 40
50.0
 40
50.0
 40
50.0
 40
51.0
 40
51.0
 40
51.0
 40
52.0
 40
52.0
 40
52.0
 40
53.0
 40
53.0
 40
53.0
 40
54.0
 40
54.0
 40
54.0
 40
55.0
 40
55.0
 40
55.0
 40
56.0
 40
56.0
 40
56.0
 40
57.0
 40
57.0
 40
57.0
 40
58.0
 40
58.0
 40
58.0
 40
59.0
 40
59.0
 40
59.0
 40
60.0
 40
60.0
 40
60.0
 40
61.0
 40
61.0
 40
61.0
 40
62.0
 40
62.0
 40
62.0
 40
63.0
 40
63.0
 40
63.0
 40
64.0
 40
64.0
 40
64.0
 40
65.0
 40
65.0
 40
65.0
 40
66.0
 40
66.0
 40
66.0
 40
67.0
 40
67.0
 40
67.0
 40
68.0
 40
68.0
 40
68.0
 40
69.0
 40
69.0
 40
69.0
 40
70.0
 40
70.0
 40
70.0
 40
71.0
 40
71.0
 40
71.0
 40
72.0
 40
72.0
 40
72.0
 40
73.0
 40
73.0
 40
73.0
 40
74.0
 40
74.0
 40
74.0
 40
75.0
 40
75.0
 40
75.0
 40
76.0
 40
76.0
 40
76.0
 40
77.0
 40
77.0
 40
77.0
 40
78.0
 40
78.0
 40
78.0
 40
79.0
 40
79.0
 40
79.0
 40
79.0
 10
90.67112356674194
 20
-120.5971177541389
 10
90.67112356674194
 20
-120.5971177541389
 10
90.4485703983948
 20
-120.5971177541389
 10
90.4485703983948
 20
-120.5971177541389
 10
90.4485703983948
 20
-120.5971177541389
 10
90.20603567623321
 20
-120.5971177541389
 10
90.20603567623321
 20
-120.5971177541389
 10
90.20603567623321
 20
-120.5971177541389
 10
90.3173122604068
 20
-120.6394924286075
 10
90.3173122604068
 20
-120.6394924286075
 10
90.32661401821696
 20
-120.6437987979641
 10
90.33763832376977
 20
-120.6499999698375
 10
90.33763832376977
 20
-120.6627468231329
 10
90.33763832376977
 20
-120.6839341603672
 10
90.30973305033923
 20
-120.6903075870149
 10
90.29147404426742
 20
-120.6944417015972
 10
90.28217228645724
 20
-120.7176960961227
 10
90.25633407031786
 20
-120.7833251651167
 10
90.23945310244014
 20
-120.8277668968764
 10
90.23945310244014
 20
-120.8277668968764
 10
90.47647567182533
 20
-120.8277668968764
 10
90.47647567182533
 20
-120.8277668968764
 10
90.5560573775346
 20
-120.8277668968764
 10
90.7283121517971
 20
-120.8234605275198
 10
90.85233558926609
 20
-120.815020043581
 10
90.85233558926609
 20
-120.815020043581
 10
90.85233558926609
 20
-120.9927869706199
 10
90.85233558926609
 20
-120.9927869706199
 10
90.78033309362436
 20
-120.9884806012633
 10
90.76172957800402
 20
-120.9884806012633
 10
90.60428871432809
 20
-120.984346486681
 10
90.57638344089757
 20
-121.1386867644202
 10
90.53745386191426
 20
-121.2191297440008
 10
90.49886879247946
 20
-121.2888929275771
 10
90.60428871432809
 20
-121.3481485699234
 10
90.69696178288132
 20
-121.4158446962085
 10
90.78756779414338
 20
-121.4983547330803
 10
90.78756779414338
 20
-121.4983547330803
 10
90.68387042003737
 20
-121.6654418641149
 10
90.68387042003737
 20
-121.6654418641149
 10
90.6635443566744
 20
-121.646493838946
 10
90.6525200511216
 20
-121.6380533550072
 10
90.55433482979197
 20
-121.55330400607
 10
90.51161564577488
 20
-121.515235700958
 10
90.45993921349613
 20
-121.4794067079114
 10
90.3893147560485
 20
-121.4349649761517
 10
90.2043131284906
 20
-121.6211723871294
 10
90.02482365370908
 20
-121.6444267816549
 10
89.77092011644616
 20
-121.674054602828
 10
89.77092011644616
 20
-121.674054602828
 10
89.6803141051841
 20
-121.494220618498
 10
89.6803141051841
 20
-121.494220618498
 10
89.95798880129523
 20
-121.4899142491414
 10
90.11164005993737
 20
-121.4645927973248
 10
90.24496525521654
 20
-121.3545219965711
 10
90.14126788111052
 20
-121.3037068381637
 10
90.06340872314388
 20
-121.2763183290559
 10
90.0320583542281
 20
-121.2635714757605
 10
90.0155218958989
 20
-121.2911322396425
 10
90.00243053305495
 20
-121.3100802648114
 10
89.9783148646582
 20
-121.3440144553411
 10
89.9783148646582
 20
-121.3440144553411
 10
89.80606009039572
 20
-121.2615044184694
 10
89.80606009039572
 20
-121.2615044184694
 10
89.87840709558596
 20
-121.1810614388888
 10
89.93215058515585
 20
-121.0858045487216
 10
89.98210446969198
 20
-120.984346486681
 10
89.81536184820588
 20
-120.9884806012633
 10
89.79675833258554
 20
-120.9884806012633
 10
89.72475583694381
 20
-120.9927869706199
 10
89.72475583694381
 20
-120.9927869706199
 10
89.72475583694381
 20
-120.815020043581
 10
89.72475583694381
 20
-120.815020043581
 10
89.84705672667019
 20
-120.8213934702287
 10
90.03033580648548
 20
-120.8256998395852
 10
90.05238441759107
 20
-120.8256998395852
 10
90.06719832817765
 20
-120.7917656490555
 10
90.11542966497115
 20
-120.6711873070718
 10
90.13196612330034
 20
-120.5971177541389
 10
90.11542966497115
 20
-120.5971177541389
 10
89.96005585858637
 20
-120.6034911807866
 10
89.78952363206652
 20
-120.6162380340821
 10
89.78952363206652
 20
-120.6162380340821
 10
89.78952363206652
 20
-120.7495632293612
 10
89.78952363206652
 20
-120.7495632293612
 10
89.74680444804942
 20
-120.7748846811778
 10
89.69512801577066
 20
-120.8065795596421
 10
89.57833927882069
 20
-120.8722086286361
 10
89.57833927882069
 20
-120.8722086286361
 10
89.57833927882069
 20
-121.0181084224365
 10
89.57833927882069
 20
-121.0181084224365
 10
89.57833927882069
 20
-121.0181084224365
 10
89.57833927882069
 20
-121.4857801345591
 10
89.57833927882069
 20
-121.4857801345591
 10
89.57833927882069
 20
-121.6125596484163
 10
89.54698890990493
 20
-121.6718152907626
 10
89.29894203496694
 20
-121.6633748068237
 10
89.29894203496694
 20
-121.6633748068237
 10
89.20799151415633
 20
-121.456152313386
 10
89.20799151415633
 20
-121.456152313386
 10
89.26345755146886
 20
-121.4687269119071
 10
89.30617673548596
 20
-121.4730332812637
 10
89.3413167094355
 20
-121.4730332812637
 10
89.40815156184935
 20
-121.4730332812637
 10
89.41745331965953
 20
-121.4497788867383
 10
89.41745331965953
 20
-121.3841498177442
 10
89.41745331965953
 20
-121.3841498177442
 10
89.41745331965953
 20
-120.9547186655079
 10
89.41745331965953
 20
-120.9547186655079
 10
89.33201495162534
 20
-120.994854027911
 10
89.31720104103876
 20
-121.0012274545587
 10
89.27654891431281
 20
-121.0203477345019
 10
89.27275930927904
 20
-121.0413628169619
 10
89.26931421379379
 20
-121.070990638135
 10
89.25243324591607
 20
-121.070990638135
 10
89.24519854539703
 20
-121.070990638135
 10
89.23589678758687
 20
-121.0668565235527
 10
89.23038463481046
 20
-121.0436021290273
 10
89.23038463481046
 20
-121.0436021290273
 10
89.18387584575959
 20
-120.8510212914018
 10
89.18387584575959
 20
-120.8510212914018
 10
89.31168888826235
 20
-120.804512502351
 10
89.36922198286604
 20
-120.7812581078255
 10
89.41745331965953
 20
-120.7600707705912
 10
89.41745331965953
 20
-120.7600707705912
 10
89.41745331965953
 20
-120.3475205862326
 10
89.41745331965953
 20
-120.3475205862326
 10
89.41745331965953
 20
-120.3475205862326
 10
89.37094453060865
 20
-120.3475205862326
 10
89.37094453060865
 20
-120.3475205862326
 10
89.37094453060865
 20
-120.3475205862326
 10
89.30238713045219
 20
-120.3475205862326
 10
89.30238713045219
 20
-120.3475205862326
 10
89.24313148810589
 20
-120.3475205862326
 10
89.23589678758687
 20
-120.3475205862326
 10
89.20420190912256
 20
-120.3538940128803
 10
89.20420190912256
 20
-120.3538940128803
 10
89.20420190912256
 20
-120.1592461179637
 10
89.20420190912256
 20
-120.1592461179637
 10
89.22831757751932
 20
-120.1656195446114
 10
89.23589678758687
 20
-120.1656195446114
 10
89.29687497767578
 20
-120.1656195446114
 10
89.29687497767578
 20
-120.1656195446114
 10
89.41366371462576
 20
-120.1656195446114
 10
89.41366371462576
 20
-120.1656195446114
 10
89.41366371462576
 20
-120.0958563610351
 10
89.41366371462576
 20
-120.0133463241633
 10
89.4115966573346
 20
-120.0090399548068
 10
89.40436195681558
 20
-119.8292059704767
 10
89.40436195681558
 20
-119.8102579453079
 10
89.40263940907296
 20
-119.763749156257
 10
89.40263940907296
 20
-119.763749156257
 10
89.59143064166464
 20
-119.7721896401958
 10
89.59143064166464
 20
-119.7721896401958
 10
89.60073239947482
 20
-119.7721896401958
 10
89.61899140554665
 20
-119.774256697487
 10
89.61899140554665
 20
-119.7911376653647
 10
89.61899140554665
 20
-119.8102579453079
 10
89.60624455225123
 20
-119.8207654865379
 10
89.5838514315971
 20
-119.839885766481
 10
89.5838514315971
 20
-119.8905286701142
 10
89.57833927882069
 20
-120.1191107555605
 10
89.58040633611185
 20
-120.1656195446114
 10
89.69340546802805
 20
-120.1656195446114
 10
89.70442977358084
 20
-120.1656195446114
 10
89.78952363206652
 20
-120.1571790606725
 10
89.78952363206652
 20
-120.1571790606725
 10
89.78952363206652
 20
-120.3518269555891
 10
89.78952363206652
 20
-120.3518269555891
 10
89.7561062058596
 20
-120.3495876435237
 10
89.6968505635133
 20
-120.3454535289414
 10
89.57833927882069
 20
-120.3475205862326
 10
89.57833927882069
 20
-120.3475205862326
 10
89.57833927882069
 20
-120.6860012176584
 10
89.57833927882069
 20
-120.6860012176584
 10
89.6265706156142
 20
-120.6627468231329
 10
89.68410371021787
 20
-120.6351860592509
 10
89.72647838468644
 20
-120.6119316647255
 10
89.72647838468644
 20
-120.6119316647255
 10
89.72647838468644
 20
-120.4343369924609
 10
89.72647838468644
 20
-120.4343369924609
 10
89.82638615375869
 20
-120.446911590982
 10
89.93042803741324
 20
-120.446911590982
 10
90.0320583542281
 20
-120.446911590982
 10
90.01173229086513
 20
-120.3518269555891
 10
89.98761662246838
 20
-120.2693169187174
 10
89.93215058515585
 20
-120.1359917234382
 10
89.89322100617254
 20
-120.1380587807294
 10
89.82087400098229
 20
-120.1423651500859
 10
89.78780108432389
 20
-120.1444322073771
 10
89.78780108432389
 20
-120.1444322073771
 10
89.78780108432389
 20
-119.964598223047
 10
89.78780108432389
 20
-119.964598223047
 10
89.89701061120631
 20
-119.9730387069859
 10
90.04893932210582
 20
-119.9773450763425
 10
90.12094181774755
 20
-119.9773450763425
 10
90.12094181774755
 20
-119.9773450763425
 10
90.19328882293779
 20
-119.9773450763425
 10
90.19328882293779
 20
-119.9773450763425
 10
90.19328882293779
 20
-119.8143920598902
 10
90.19328882293779
 20
-119.8038845186601
 10
90.19122176564665
 20
-119.7489352456704
 10
90.19122176564665
 20
-119.7489352456704
 10
90.38759220830589
 20
-119.774256697487
 10
90.38759220830589
 20
-119.774256697487
 10
90.39138181333966
 20
-119.774256697487
 10
90.40998532896
 20
-119.7763237547781
 10
90.40998532896
 20
-119.7932047226559
 10
90.40998532896
 20
-119.8080186332424
 10
90.40068357114983
 20
-119.8166313719556
 10
90.37656790275308
 20
-119.8314452825421
 10
90.37105574997669
 20
-119.8969020967619
 10
90.36898869268553
 20
-119.9180894339962
 10
90.36898869268553
 20
-119.9773450763425
 10
90.36898869268553
 20
-119.9773450763425
 10
90.45236000342858
 20
-119.9773450763425
 10
90.45236000342858
 20
-119.9773450763425
 10
90.52470700861883
 20
-119.9773450763425
 10
90.67663571951834
 20
-119.9730387069859
 10
90.78584524640077
 20
-119.964598223047
 10
90.78584524640077
 20
-119.964598223047
 10
90.78584524640077
 20
-120.1444322073771
 10
90.78584524640077
 20
-120.1444322073771
 10
90.76000703026139
 20
-120.1423651500859
 10
90.65596514660685
 20
-120.1380587807294
 10
90.62082517265729
 20
-120.1359917234382
 10
90.60807831936188
 20
-120.1868068818457
 10
90.57845049818873
 20
-120.2989447398905
 10
90.52091740358506
 20
-120.4384711070432
 10
90.55812443482576
 20
-120.4384711070432
 10
90.80065915698734
 20
-120.4195230818743
 10
90.85440264655723
 20
-120.4172837698089
 10
90.85440264655723
 20
-120.4172837698089
 10
90.85440264655723
 20
-120.6014241234955
 10
90.85440264655723
 20
-120.6014241234955
 10
90.82821992086934
 20
-120.6014241234955
 10
90.81340601028276
 20
-120.5971177541389
 10
90.67112356674194
 20
-120.5971177541389
 97
        0
 97
        0
 92
        1
 93
        1
 72
     4
 94
        3
 73
     0
 74
     1
 95
       20
 96
       16
 40
0.0
 40
0.0
 40
0.0
 40
0.0
 40
1.0
 40
1.0
 40
1.0
 40
2.0
 40
2.0
 40
2.0
 40
3.0
 40
3.0
 40
3.0
 40
4.0
 40
4.0
 40
4.0
 40
5.0
 40
5.0
 40
5.0
 40
5.0
 10
90.12094181774755
 20
-120.1318576088559
 10
90.12094181774755
 20
-120.1318576088559
 10
90.09303654431702
 20
-120.1318576088559
 10
90.09303654431702
 20
-120.1318576088559
 10
90.1340331805915
 20
-120.2312486136054
 10
90.1615939444735
 20
-120.3115193384117
 10
90.19122176564665
 20
-120.4384711070432
 10
90.19122176564665
 20
-120.4384711070432
 10
90.37277829771931
 20
-120.4384711070432
 10
90.37277829771931
 20
-120.4384711070432
 10
90.40068357114983
 20
-120.3454535289414
 10
90.42100963451281
 20
-120.2608764347785
 10
90.44133569787579
 20
-120.1318576088559
 10
90.44133569787579
 20
-120.1318576088559
 10
90.12094181774755
 20
-120.1318576088559
 10
90.12094181774755
 20
-120.1318576088559
 97
        0
 97
        0
 92
        1
 93
        1
 72
     4
 94
        3
 73
     0
 74
     1
 95
       17
 96
       13
 40
0.0
 40
0.0
 40
0.0
 40
0.0
 40
1.0
 40
1.0
 40
1.0
 40
2.0
 40
2.0
 40
2.0
 40
3.0
 40
3.0
 40
3.0
 40
4.0
 40
4.0
 40
4.0
 40
4.0
 10
90.17640785506006
 20
-120.9822794293898
 10
90.1615939444735
 20
-121.0117349957887
 10
90.11715221271378
 20
-121.1049248286647
 10
90.10819496445212
 20
-121.1238728538336
 10
90.27459307638969
 20
-121.1831284961799
 10
90.29319659201003
 20
-121.1895019228276
 10
90.35624183939011
 20
-121.2170626867096
 10
90.40447317618361
 20
-121.1302462804813
 10
90.42479923954659
 20
-121.0561767275485
 10
90.43754609284201
 20
-120.9822794293898
 10
90.43754609284201
 20
-120.9822794293898
 10
90.17640785506006
 20
-120.9822794293898
 10
90.17640785506006
 20
-120.9822794293898
 97
        0
 97
        0
 75
     2
 76
     1
 98
        0
  0
SPLINE
  5
D3
330
CB
100
AcDbEntity
  8
_U+30EC_U+30A4_U+30E4_U+30FC 1
370
     0
100
AcDbSpline
210
0.0
220
0.0
230
1.0
 70
    11
 71
     3
 72
   203
 73
   199
 74
     0
 42
0.0000000001
 43
0.0000000001
 12
1.0
 22
0.0
 32
0.0
 13
1.0
 23
0.0
 33
0.0
 40
0.0
 40
0.0
 40
0.0
 40
0.0
 40
1.0
 40
1.0
 40
1.0
 40
2.0
 40
2.0
 40
2.0
 40
3.0
 40
3.0
 40
3.0
 40
4.0
 40
4.0
 40
4.0
 40
5.0
 40
5.0
 40
5.0
 40
6.0
 40
6.0
 40
6.0
 40
7.0
 40
7.0
 40
7.0
 40
8.0
 40
8.0
 40
8.0
 40
9.0
 40
9.0
 40
9.0
 40
10.0
 40
10.0
 40
10.0
 40
11.0
 40
11.0
 40
11.0
 40
12.0
 40
12.0
 40
12.0
 40
13.0
 40
13.0
 40
13.0
 40
14.0
 40
14.0
 40
14.0
 40
15.0
 40
15.0
 40
15.0
 40
16.0
 40
16.0
 40
16.0
 40
17.0
 40
17.0
 40
17.0
 40
18.0
 40
18.0
 40
18.0
 40
19.0
 40
19.0
 40
19.0
 40
20.0
 40
20.0
 40
20.0
 40
21.0
 40
21.0
 40
21.0
 40
22.0
 40
22.0
 40
22.0
 40
23.0
 40
23.0
 40
23.0
 40
24.0
 40
24.0
 40
24.0
 40
25.0
 40
25.0
 40
25.0
 40
26.0
 40
26.0
 40
26.0
 40
27.0
 40
27.0
 40
27.0
 40
28.0
 40
28.0
 40
28.0
 40
29.0
 40
29.0
 40
29.0
 40
30.0
 40
30.0
 40
30.0
 40
31.0
 40
31.0
 40
31.0
 40
32.0
 40
32.0
 40
32.0
 40
33.0
 40
33.0
 40
33.0
 40
34.0
 40
34.0
 40
34.0
 40
35.0
 40
35.0
 40
35.0
 40
36.0
 40
36.0
 40
36.0
 40
37.0
 40
37.0
 40
37.0
 40
38.0
 40
38.0
 40
38.0
 40
39.0
 40
39.0
 40
39.0
 40
40.0
 40
40.0
 40
40.0
 40
41.0
 40
41.0
 40
41.0
 40
42.0
 40
42.0
 40
42.0
 40
43.0
 40
43.0
 40
43.0
 40
44.0
 40
44.0
 40
44.0
 40
45.0
 40
45.0
 40
45.0
 40
46.0
 40
46.0
 40
46.0
 40
47.0
 40
47.0
 40
47.0
 40
48.0
 40
48.0
 40
48.0
 40
49.0
 40
49.0
 40
49.0
 40
50.0
 40
50.0
 40
50.0
 40
51.0
 40
51.0
 40
51.0
 40
52.0
 40
52.0
 40
52.0
 40
53.0
 40
53.0
 40
53.0
 40
54.0
 40
54.0
 40
54.0
 40
55.0
 40
55.0
 40
55.0
 40
56.0
 40
56.0
 40
56.0
 40
57.0
 40
57.0
 40
57.0
 40
58.0
 40
58.0
 40
58.0
 40
59.0
 40
59.0
 40
59.0
 40
60.0
 40
60.0
 40
60.0
 40
61.0
 40
61.0
 40
61.0
 40
62.0
 40
62.0
 40
62.0
 40
63.0
 40
63.0
 40
63.0
 40
64.0
 40
64.0
 40
64.0
 40
65.0
 40
65.0
 40
65.0
 40
66.0
 40
66.0
 40
66.0
 40
66.0
 10
92.1528591349479
 20
-120.6648138804241
 30
0.0
 10
92.1528591349479
 20
-120.6648138804241
 30
0.0
 10
91.66400008559094
 20
-120.6648138804241
 30
0.0
 10
91.66400008559094
 20
-120.6648138804241
 30
0.0
 10
91.65469832778078
 20
-120.7092556121838
 30
0.0
 10
91.64746362726174
 20
-120.7409504906481
 30
0.0
 10
91.63643932170895
 20
-120.7791910505344
 30
0.0
 10
91.65848793281455
 20
-120.7791910505344
 30
0.0
 10
91.6715792956585
 20
-120.7812581078255
 30
0.0
 10
91.6770914484349
 20
-120.7812581078255
 30
0.0
 10
91.6770914484349
 20
-120.7812581078255
 30
0.0
 10
91.84176701262984
 20
-120.7812581078255
 30
0.0
 10
91.84176701262984
 20
-120.7812581078255
 30
0.0
 10
91.84176701262984
 20
-120.7812581078255
 30
0.0
 10
92.16974010282563
 20
-120.7812581078255
 30
0.0
 10
92.16974010282563
 20
-120.7812581078255
 30
0.0
 10
92.21383732503682
 20
-120.7812581078255
 30
0.0
 10
92.46222870952333
 20
-120.7685112545301
 30
0.0
 10
92.48978947340534
 20
-120.7685112545301
 30
0.0
 10
92.48806692566271
 20
-120.7960720184121
 30
0.0
 10
92.48634437792009
 20
-120.815020043581
 30
0.0
 10
92.48634437792009
 20
-120.8446478647541
 30
0.0
 10
92.48427732062893
 20
-120.8763427432184
 30
0.0
 10
92.48427732062893
 20
-121.0117349957887
 30
0.0
 10
92.48427732062893
 20
-121.0392957596707
 30
0.0
 10
92.48427732062893
 20
-121.0392957596707
 30
0.0
 10
92.48427732062893
 20
-121.2847588129948
 30
0.0
 10
92.48427732062893
 20
-121.2847588129948
 30
0.0
 10
92.48427732062893
 20
-121.3292005447545
 30
0.0
 10
92.48806692566271
 20
-121.5259154969623
 30
0.0
 10
92.49185653069648
 20
-121.6781887174103
 30
0.0
 10
92.49185653069648
 20
-121.6781887174103
 30
0.0
 10
92.29376354029462
 20
-121.6781887174103
 30
0.0
 10
92.29376354029462
 20
-121.6781887174103
 30
0.0
 10
92.29376354029462
 20
-121.6781887174103
 30
0.0
 10
92.29548608803725
 20
-121.6444267816549
 30
0.0
 10
92.29548608803725
 20
-121.6444267816549
 30
0.0
 10
92.29548608803725
 20
-121.6444267816549
 30
0.0
 10
91.68053654392014
 20
-121.6444267816549
 30
0.0
 10
91.68053654392014
 20
-121.6444267816549
 30
0.0
 10
91.68053654392014
 20
-121.6444267816549
 30
0.0
 10
91.6826036012113
 20
-121.6781887174103
 30
0.0
 10
91.6826036012113
 20
-121.6781887174103
 30
0.0
 10
91.6826036012113
 20
-121.6781887174103
 30
0.0
 10
91.49174531132846
 20
-121.6781887174103
 30
0.0
 10
91.49174531132846
 20
-121.6781887174103
 30
0.0
 10
91.49553491636223
 20
-121.6232394444206
 30
0.0
 10
91.49553491636223
 20
-121.6104925911252
 30
0.0
 10
91.50104706913864
 20
-121.4962876757891
 30
0.0
 10
91.50276961688125
 20
-121.4687269119071
 30
0.0
 10
91.50483667417241
 20
-121.3355739714022
 30
0.0
 10
91.50483667417241
 20
-121.3164536914591
 30
0.0
 10
91.50483667417241
 20
-121.3164536914591
 30
0.0
 10
91.50483667417241
 20
-121.1133653126036
 30
0.0
 10
91.50483667417241
 20
-121.1133653126036
 30
0.0
 10
91.38253578444603
 20
-121.36296248051
 30
0.0
 10
91.2343966785803
 20
-121.494220618498
 30
0.0
 10
91.14172361002707
 20
-121.5596774327177
 30
0.0
 10
91.14172361002707
 20
-121.5596774327177
 30
0.0
 10
90.99013940867609
 20
-121.4201510655651
 30
0.0
 10
90.99013940867609
 20
-121.4201510655651
 30
0.0
 10
91.0676540570942
 20
-121.3693359071577
 30
0.0
 10
91.19374455185435
 20
-121.2825195009294
 30
0.0
 10
91.31397838428957
 20
-121.088043860787
 30
0.0
 10
91.39356008999884
 20
-120.9610920921556
 30
0.0
 10
91.45109318460251
 20
-120.8172593556464
 30
0.0
 10
91.48072100577566
 20
-120.6648138804241
 30
0.0
 10
91.28090546763117
 20
-120.6670531924895
 30
0.0
 10
91.12346460395526
 20
-120.6734266191372
 30
0.0
 10
91.04009329321221
 20
-120.6754936764284
 30
0.0
 10
91.04009329321221
 20
-120.6754936764284
 30
0.0
 10
91.04009329321221
 20
-120.4977267493895
 30
0.0
 10
91.04009329321221
 20
-120.4977267493895
 30
0.0
 10
91.2123480674747
 20
-120.5041001760372
 30
0.0
 10
91.46039494241268
 20
-120.5084065453937
 30
0.0
 10
91.5916530804007
 20
-120.5084065453937
 30
0.0
 10
91.5916530804007
 20
-120.5084065453937
 30
0.0
 10
91.77872176524977
 20
-120.5084065453937
 30
0.0
 10
91.77872176524977
 20
-120.5084065453937
 30
0.0
 10
91.77872176524977
 20
-120.5084065453937
 30
0.0
 10
91.77872176524977
 20
-120.4004028019312
 30
0.0
 10
91.77872176524977
 20
-120.4004028019312
 30
0.0
 10
91.77872176524977
 20
-120.4004028019312
 30
0.0
 10
91.650908722747
 20
-120.4004028019312
 30
0.0
 10
91.650908722747
 20
-120.4004028019312
 30
0.0
 10
91.50276961688125
 20
-120.4004028019312
 30
0.0
 10
91.35463051101551
 20
-120.4047091712877
 30
0.0
 10
91.20855846244092
 20
-120.4110825979354
 30
0.0
 10
91.20855846244092
 20
-120.4110825979354
 30
0.0
 10
91.20855846244092
 20
-120.2396890975442
 30
0.0
 10
91.20855846244092
 20
-120.2396890975442
 30
0.0
 10
91.34360620546272
 20
-120.2501966387743
 30
0.0
 10
91.50655922191503
 20
-120.2501966387743
 30
0.0
 10
91.650908722747
 20
-120.2501966387743
 30
0.0
 10
91.650908722747
 20
-120.2501966387743
 30
0.0
 10
91.77872176524977
 20
-120.2501966387743
 30
0.0
 10
91.77872176524977
 20
-120.2501966387743
 30
0.0
 10
91.77872176524977
 20
-120.2501966387743
 30
0.0
 10
91.77872176524977
 20
-120.1318576088559
 30
0.0
 10
91.77872176524977
 20
-120.1318576088559
 30
0.0
 10
91.77872176524977
 20
-120.1318576088559
 30
0.0
 10
91.66400008559094
 20
-120.1318576088559
 30
0.0
 10
91.66400008559094
 20
-120.1318576088559
 30
0.0
 10
91.623347958865
 20
-120.1318576088559
 30
0.0
 10
91.44558103182611
 20
-120.1402980927948
 30
0.0
 10
91.40837400058541
 20
-120.1402980927948
 30
0.0
 10
91.23060707354652
 20
-120.1444322073771
 30
0.0
 10
91.1641167306812
 20
-120.1464992646682
 30
0.0
 10
91.09555933052472
 20
-120.1487385767336
 30
0.0
 10
91.09555933052472
 20
-120.1487385767336
 30
0.0
 10
91.09555933052472
 20
-119.964598223047
 30
0.0
 10
91.09555933052472
 20
-119.964598223047
 30
0.0
 10
91.19546709959697
 20
-119.9730387069859
 30
0.0
 10
91.2343966785803
 20
-119.9730387069859
 30
0.0
 10
91.5696044692951
 20
-119.981651445699
 30
0.0
 10
91.51413843198259
 20
-119.8863945555319
 30
0.0
 10
91.49002276358583
 20
-119.8588337916499
 30
0.0
 10
91.45867239467006
 20
-119.822832543829
 30
0.0
 10
91.45867239467006
 20
-119.822832543829
 30
0.0
 10
91.6123236533122
 20
-119.7403225069573
 30
0.0
 10
91.6123236533122
 20
-119.7403225069573
 30
0.0
 10
91.64746362726174
 20
-119.7763237547781
 30
0.0
 10
91.68639320624507
 20
-119.8186984292467
 30
0.0
 10
91.75116100136776
 20
-119.9285969752262
 30
0.0
 10
91.75116100136776
 20
-119.9285969752262
 30
0.0
 10
91.650908722747
 20
-119.9837185029902
 30
0.0
 10
91.650908722747
 20
-119.9837185029902
 30
0.0
 10
91.650908722747
 20
-119.9837185029902
 30
0.0
 10
91.66021048055717
 20
-119.9837185029902
 30
0.0
 10
91.66021048055717
 20
-119.9837185029902
 30
0.0
 10
91.66021048055717
 20
-119.9837185029902
 30
0.0
 10
92.11771916099835
 20
-119.9837185029902
 30
0.0
 10
92.11771916099835
 20
-119.9837185029902
 30
0.0
 10
92.11771916099835
 20
-119.9837185029902
 30
0.0
 10
92.0343478502553
 20
-119.9392767712305
 30
0.0
 10
92.0343478502553
 20
-119.9392767712305
 30
0.0
 10
92.05846351865206
 20
-119.9012084661184
 30
0.0
 10
92.10841740318818
 20
-119.8207654865379
 30
0.0
 10
92.12150876603212
 20
-119.746695933605
 30
0.0
 10
92.12150876603212
 20
-119.746695933605
 30
0.0
 10
92.30857745088119
 20
-119.8102579453079
 30
0.0
 10
92.30857745088119
 20
-119.8102579453079
 30
0.0
 10
92.31581215140022
 20
-119.812325002599
 30
0.0
 10
92.33441566702056
 20
-119.822832543829
 30
0.0
 10
92.33441566702056
 20
-119.8440198810633
 30
0.0
 10
92.33441566702056
 20
-119.8820881861753
 30
0.0
 10
92.2768825724169
 20
-119.8820881861753
 30
0.0
 10
92.2603461140877
 20
-119.8820881861753
 30
0.0
 10
92.25104435627752
 20
-119.9012084661184
 30
0.0
 10
92.23071829291455
 20
-119.9413438285216
 30
0.0
 10
92.20488007677517
 20
-119.981651445699
 30
0.0
 10
92.55490177807656
 20
-119.9752780190513
 30
0.0
 10
92.58073999421593
 20
-119.9730387069859
 30
0.0
 10
92.64723033708125
 20
-119.9668375351125
 30
0.0
 10
92.64723033708125
 20
-119.9668375351125
 30
0.0
 10
92.64723033708125
 20
-120.1487385767336
 30
0.0
 10
92.64723033708125
 20
-120.1487385767336
 30
0.0
 10
92.63069387875206
 20
-120.1487385767336
 30
0.0
 10
92.60830075809793
 20
-120.1464992646682
 30
0.0
 10
92.41571992047247
 20
-120.1380587807294
 30
0.0
 10
92.37127818871274
 20
-120.1359917234382
 30
0.0
 10
92.17869735108728
 20
-120.1318576088559
 30
0.0
 10
92.14011228165248
 20
-120.1318576088559
 30
0.0
 10
92.14011228165248
 20
-120.1318576088559
 30
0.0
 10
91.95097653951225
 20
-120.1318576088559
 30
0.0
 10
91.95097653951225
 20
-120.1318576088559
 30
0.0
 10
91.95097653951225
 20
-120.1318576088559
 30
0.0
 10
91.95097653951225
 20
-120.2501966387743
 30
0.0
 10
91.95097653951225
 20
-120.2501966387743
 30
0.0
 10
91.95097653951225
 20
-120.2501966387743
 30
0.0
 10
92.10290525041178
 20
-120.2501966387743
 30
0.0
 10
92.10290525041178
 20
-120.2501966387743
 30
0.0
 10
92.24553220350113
 20
-120.2501966387743
 30
0.0
 10
92.41227482498721
 20
-120.2501966387743
 30
0.0
 10
92.54904511575162
 20
-120.2396890975442
 30
0.0
 10
92.54904511575162
 20
-120.2396890975442
 30
0.0
 10
92.54904511575162
 20
-120.4110825979354
 30
0.0
 10
92.54904511575162
 20
-120.4110825979354
 30
0.0
 10
92.36576603593635
 20
-120.4026421139966
 30
0.0
 10
92.19351126167385
 20
-120.4004028019312
 30
0.0
 10
92.10290525041178
 20
-120.4004028019312
 30
0.0
 10
92.10290525041178
 20
-120.4004028019312
 30
0.0
 10
91.95097653951225
 20
-120.4004028019312
 30
0.0
 10
91.95097653951225
 20
-120.4004028019312
 30
0.0
 10
91.95097653951225
 20
-120.4004028019312
 30
0.0
 10
91.95097653951225
 20
-120.5084065453937
 30
0.0
 10
91.95097653951225
 20
-120.5084065453937
 30
0.0
 10
91.95097653951225
 20
-120.5084065453937
 30
0.0
 10
92.1528591349479
 20
-120.5084065453937
 30
0.0
 10
92.1528591349479
 20
-120.5084065453937
 30
0.0
 10
92.26964787189787
 20
-120.5084065453937
 30
0.0
 10
92.52148435186963
 20
-120.5041001760372
 30
0.0
 10
92.70476343168492
 20
-120.4977267493895
 30
0.0
 10
92.70476343168492
 20
-120.4977267493895
 30
0.0
 10
92.70476343168492
 20
-120.6754936764284
 30
0.0
 10
92.70476343168492
 20
-120.6754936764284
 30
0.0
 10
92.53629826245621
 20
-120.6691202497806
 30
0.0
 10
92.26206866183033
 20
-120.6648138804241
 30
0.0
 10
92.1528591349479
 20
-120.6648138804241
 30
0.0
  0
POLYLINE
  5
D4
330
CB
100
AcDbEntity
  8
_U+30EC_U+30A4_U+30E4_U+30FC 1
370
     0
100
AcDb2dPolyline
 66
     1
 10
0.0
 20
0.0
 30
0.0
  0
VERTEX
  5
D5
330
D4
100
AcDbEntity
  8
_U+30EC_U+30A4_U+30E4_U+30FC 1
370
     0
100
AcDbVertex
100
AcDb2dVertex
 10
92.29720863577987
 20
-120.9207844749781
 30
0.0
  0
VERTEX
  5
D6
330
D4
100
AcDbEntity
  8
_U+30EC_U+30A4_U+30E4_U+30FC 1
370
     0
100
AcDbVertex
100
AcDb2dVertex
 10
91.67881399617752
 20
-120.9207844749781
 30
0.0
  0
VERTEX
  5
D7
330
D4
100
AcDbEntity
  8
_U+30EC_U+30A4_U+30E4_U+30FC 1
370
     0
100
AcDbVertex
100
AcDb2dVertex
 10
91.67881399617752
 20
-121.0287882184407
 30
0.0
  0
VERTEX
  5
D8
330
D4
100
AcDbEntity
  8
_U+30EC_U+30A4_U+30E4_U+30FC 1
370
     0
100
AcDbVertex
100
AcDb2dVertex
 10
92.29720863577987
 20
-121.0287882184407
 30
0.0
  0
VERTEX
  5
D9
330
D4
100
AcDbEntity
  8
_U+30EC_U+30A4_U+30E4_U+30FC 1
370
     0
100
AcDbVertex
100
AcDb2dVertex
 10
92.29720863577987
 20
-120.9207844749781
 30
0.0
  0
SEQEND
  5
DA
330
D4
100
AcDbEntity
  8
_U+30EC_U+30A4_U+30E4_U+30FC 1
370
     0
  0
POLYLINE
  5
DB
330
CB
100
AcDbEntity
  8
_U+30EC_U+30A4_U+30E4_U+30FC 1
370
     0
100
AcDb2dPolyline
 66
     1
 10
0.0
 20
0.0
 30
0.0
  0
VERTEX
  5
DC
330
DB
100
AcDbEntity
  8
_U+30EC_U+30A4_U+30E4_U+30FC 1
370
     0
100
AcDbVertex
100
AcDb2dVertex
 10
92.29720863577987
 20
-121.1535006750068
 30
0.0
  0
VERTEX
  5
DD
330
DB
100
AcDbEntity
  8
_U+30EC_U+30A4_U+30E4_U+30FC 1
370
     0
100
AcDbVertex
100
AcDb2dVertex
 10
91.67881399617752
 20
-121.1535006750068
 30
0.0
  0
VERTEX
  5
DE
330
DB
100
AcDbEntity
  8
_U+30EC_U+30A4_U+30E4_U+30FC 1
370
     0
100
AcDbVertex
100
AcDb2dVertex
 10
91.67881399617752
 20
-121.2678778451171
 30
0.0
  0
VERTEX
  5
DF
330
DB
100
AcDbEntity
  8
_U+30EC_U+30A4_U+30E4_U+30FC 1
370
     0
100
AcDbVertex
100
AcDb2dVertex
 10
92.29720863577987
 20
-121.2678778451171
 30
0.0
  0
VERTEX
  5
E0
330
DB
100
AcDbEntity
  8
_U+30EC_U+30A4_U+30E4_U+30FC 1
370
     0
100
AcDbVertex
100
AcDb2dVertex
 10
92.29720863577987
 20
-121.1535006750068
 30
0.0
  0
SEQEND
  5
E1
330
DB
100
AcDbEntity
  8
_U+30EC_U+30A4_U+30E4_U+30FC 1
370
     0
  0
POLYLINE
  5
E2
330
CB
100
AcDbEntity
  8
_U+30EC_U+30A4_U+30E4_U+30FC 1
370
     0
100
AcDb2dPolyline
 66
     1
 10
0.0
 20
0.0
 30
0.0
  0
VERTEX
  5
E3
330
E2
100
AcDbEntity
  8
_U+30EC_U+30A4_U+30E4_U+30FC 1
370
     0
100
AcDbVertex
100
AcDb2dVertex
 10
92.29720863577987
 20
-121.3968966710397
 30
0.0
  0
VERTEX
  5
E4
330
E2
100
AcDbEntity
  8
_U+30EC_U+30A4_U+30E4_U+30FC 1
370
     0
100
AcDbVertex
100
AcDb2dVertex
 10
91.67881399617752
 20
-121.3968966710397
 30
0.0
  0
VERTEX
  5
E5
330
E2
100
AcDbEntity
  8
_U+30EC_U+30A4_U+30E4_U+30FC 1
370
     0
100
AcDbVertex
100
AcDb2dVertex
 10
91.67881399617752
 20
-121.5111015863757
 30
0.0
  0
VERTEX
  5
E6
330
E2
100
AcDbEntity
  8
_U+30EC_U+30A4_U+30E4_U+30FC 1
370
     0
100
AcDbVertex
100
AcDb2dVertex
 10
92.29720863577987
 20
-121.5111015863757
 30
0.0
  0
VERTEX
  5
E7
330
E2
100
AcDbEntity
  8
_U+30EC_U+30A4_U+30E4_U+30FC 1
370
     0
100
AcDbVertex
100
AcDb2dVertex
 10
92.29720863577987
 20
-121.3968966710397
 30
0.0
  0
SEQEND
  5
E8
330
E2
100
AcDbEntity
  8
_U+30EC_U+30A4_U+30E4_U+30FC 1
370
     0
  0
HATCH
  5
E9
330
CB
100
AcDbEntity
  8
_U+30EC_U+30A4_U+30E4_U+30FC 1
 62
   179
420
  2234388
100
AcDbHatch
 10
0.0
 20
0.0
 30
0.0
210
0.0
220
0.0
230
1.0
  2
SOLID
 70
     1
 71
     0
 91
        4
 92
        1
 93
        1
 72
     4
 94
        3
 73
     0
 74
     1
 95
      203
 96
      199
 40
0.0
 40
0.0
 40
0.0
 40
0.0
 40
1.0
 40
1.0
 40
1.0
 40
2.0
 40
2.0
 40
2.0
 40
3.0
 40
3.0
 40
3.0
 40
4.0
 40
4.0
 40
4.0
 40
5.0
 40
5.0
 40
5.0
 40
6.0
 40
6.0
 40
6.0
 40
7.0
 40
7.0
 40
7.0
 40
8.0
 40
8.0
 40
8.0
 40
9.0
 40
9.0
 40
9.0
 40
10.0
 40
10.0
 40
10.0
 40
11.0
 40
11.0
 40
11.0
 40
12.0
 40
12.0
 40
12.0
 40
13.0
 40
13.0
 40
13.0
 40
14.0
 40
14.0
 40
14.0
 40
15.0
 40
15.0
 40
15.0
 40
16.0
 40
16.0
 40
16.0
 40
17.0
 40
17.0
 40
17.0
 40
18.0
 40
18.0
 40
18.0
 40
19.0
 40
19.0
 40
19.0
 40
20.0
 40
20.0
 40
20.0
 40
21.0
 40
21.0
 40
21.0
 40
22.0
 40
22.0
 40
22.0
 40
23.0
 40
23.0
 40
23.0
 40
24.0
 40
24.0
 40
24.0
 40
25.0
 40
25.0
 40
25.0
 40
26.0
 40
26.0
 40
26.0
 40
27.0
 40
27.0
 40
27.0
 40
28.0
 40
28.0
 40
28.0
 40
29.0
 40
29.0
 40
29.0
 40
30.0
 40
30.0
 40
30.0
 40
31.0
 40
31.0
 40
31.0
 40
32.0
 40
32.0
 40
32.0
 40
33.0
 40
33.0
 40
33.0
 40
34.0
 40
34.0
 40
34.0
 40
35.0
 40
35.0
 40
35.0
 40
36.0
 40
36.0
 40
36.0
 40
37.0
 40
37.0
 40
37.0
 40
38.0
 40
38.0
 40
38.0
 40
39.0
 40
39.0
 40
39.0
 40
40.0
 40
40.0
 40
40.0
 40
41.0
 40
41.0
 40
41.0
 40
42.0
 40
42.0
 40
42.0
 40
43.0
 40
43.0
 40
43.0
 40
44.0
 40
44.0
 40
44.0
 40
45.0
 40
45.0
 40
45.0
 40
46.0
 40
46.0
 40
46.0
 40
47.0
 40
47.0
 40
47.0
 40
48.0
 40
48.0
 40
48.0
 40
49.0
 40
49.0
 40
49.0
 40
50.0
 40
50.0
 40
50.0
 40
51.0
 40
51.0
 40
51.0
 40
52.0
 40
52.0
 40
52.0
 40
53.0
 40
53.0
 40
53.0
 40
54.0
 40
54.0
 40
54.0
 40
55.0
 40
55.0
 40
55.0
 40
56.0
 40
56.0
 40
56.0
 40
57.0
 40
57.0
 40
57.0
 40
58.0
 40
58.0
 40
58.0
 40
59.0
 40
59.0
 40
59.0
 40
60.0
 40
60.0
 40
60.0
 40
61.0
 40
61.0
 40
61.0
 40
62.0
 40
62.0
 40
62.0
 40
63.0
 40
63.0
 40
63.0
 40
64.0
 40
64.0
 40
64.0
 40
65.0
 40
65.0
 40
65.0
 40
66.0
 40
66.0
 40
66.0
 40
66.0
 10
92.1528591349479
 20
-120.6648138804241
 10
92.1528591349479
 20
-120.6648138804241
 10
91.66400008559094
 20
-120.6648138804241
 10
91.66400008559094
 20
-120.6648138804241
 10
91.65469832778078
 20
-120.7092556121838
 10
91.64746362726174
 20
-120.7409504906481
 10
91.63643932170895
 20
-120.7791910505344
 10
91.65848793281455
 20
-120.7791910505344
 10
91.6715792956585
 20
-120.7812581078255
 10
91.6770914484349
 20
-120.7812581078255
 10
91.6770914484349
 20
-120.7812581078255
 10
91.84176701262984
 20
-120.7812581078255
 10
91.84176701262984
 20
-120.7812581078255
 10
91.84176701262984
 20
-120.7812581078255
 10
92.16974010282563
 20
-120.7812581078255
 10
92.16974010282563
 20
-120.7812581078255
 10
92.21383732503682
 20
-120.7812581078255
 10
92.46222870952333
 20
-120.7685112545301
 10
92.48978947340534
 20
-120.7685112545301
 10
92.48806692566271
 20
-120.7960720184121
 10
92.48634437792009
 20
-120.815020043581
 10
92.48634437792009
 20
-120.8446478647541
 10
92.48427732062893
 20
-120.8763427432184
 10
92.48427732062893
 20
-121.0117349957887
 10
92.48427732062893
 20
-121.0392957596707
 10
92.48427732062893
 20
-121.0392957596707
 10
92.48427732062893
 20
-121.2847588129948
 10
92.48427732062893
 20
-121.2847588129948
 10
92.48427732062893
 20
-121.3292005447545
 10
92.48806692566271
 20
-121.5259154969623
 10
92.49185653069648
 20
-121.6781887174103
 10
92.49185653069648
 20
-121.6781887174103
 10
92.29376354029462
 20
-121.6781887174103
 10
92.29376354029462
 20
-121.6781887174103
 10
92.29376354029462
 20
-121.6781887174103
 10
92.29548608803725
 20
-121.6444267816549
 10
92.29548608803725
 20
-121.6444267816549
 10
92.29548608803725
 20
-121.6444267816549
 10
91.68053654392014
 20
-121.6444267816549
 10
91.68053654392014
 20
-121.6444267816549
 10
91.68053654392014
 20
-121.6444267816549
 10
91.6826036012113
 20
-121.6781887174103
 10
91.6826036012113
 20
-121.6781887174103
 10
91.6826036012113
 20
-121.6781887174103
 10
91.49174531132846
 20
-121.6781887174103
 10
91.49174531132846
 20
-121.6781887174103
 10
91.49553491636223
 20
-121.6232394444206
 10
91.49553491636223
 20
-121.6104925911252
 10
91.50104706913864
 20
-121.4962876757891
 10
91.50276961688125
 20
-121.4687269119071
 10
91.50483667417241
 20
-121.3355739714022
 10
91.50483667417241
 20
-121.3164536914591
 10
91.50483667417241
 20
-121.3164536914591
 10
91.50483667417241
 20
-121.1133653126036
 10
91.50483667417241
 20
-121.1133653126036
 10
91.38253578444603
 20
-121.36296248051
 10
91.2343966785803
 20
-121.494220618498
 10
91.14172361002707
 20
-121.5596774327177
 10
91.14172361002707
 20
-121.5596774327177
 10
90.99013940867609
 20
-121.4201510655651
 10
90.99013940867609
 20
-121.4201510655651
 10
91.0676540570942
 20
-121.3693359071577
 10
91.19374455185435
 20
-121.2825195009294
 10
91.31397838428957
 20
-121.088043860787
 10
91.39356008999884
 20
-120.9610920921556
 10
91.45109318460251
 20
-120.8172593556464
 10
91.48072100577566
 20
-120.6648138804241
 10
91.28090546763117
 20
-120.6670531924895
 10
91.12346460395526
 20
-120.6734266191372
 10
91.04009329321221
 20
-120.6754936764284
 10
91.04009329321221
 20
-120.6754936764284
 10
91.04009329321221
 20
-120.4977267493895
 10
91.04009329321221
 20
-120.4977267493895
 10
91.2123480674747
 20
-120.5041001760372
 10
91.46039494241268
 20
-120.5084065453937
 10
91.5916530804007
 20
-120.5084065453937
 10
91.5916530804007
 20
-120.5084065453937
 10
91.77872176524977
 20
-120.5084065453937
 10
91.77872176524977
 20
-120.5084065453937
 10
91.77872176524977
 20
-120.5084065453937
 10
91.77872176524977
 20
-120.4004028019312
 10
91.77872176524977
 20
-120.4004028019312
 10
91.77872176524977
 20
-120.4004028019312
 10
91.650908722747
 20
-120.4004028019312
 10
91.650908722747
 20
-120.4004028019312
 10
91.50276961688125
 20
-120.4004028019312
 10
91.35463051101551
 20
-120.4047091712877
 10
91.20855846244092
 20
-120.4110825979354
 10
91.20855846244092
 20
-120.4110825979354
 10
91.20855846244092
 20
-120.2396890975442
 10
91.20855846244092
 20
-120.2396890975442
 10
91.34360620546272
 20
-120.2501966387743
 10
91.50655922191503
 20
-120.2501966387743
 10
91.650908722747
 20
-120.2501966387743
 10
91.650908722747
 20
-120.2501966387743
 10
91.77872176524977
 20
-120.2501966387743
 10
91.77872176524977
 20
-120.2501966387743
 10
91.77872176524977
 20
-120.2501966387743
 10
91.77872176524977
 20
-120.1318576088559
 10
91.77872176524977
 20
-120.1318576088559
 10
91.77872176524977
 20
-120.1318576088559
 10
91.66400008559094
 20
-120.1318576088559
 10
91.66400008559094
 20
-120.1318576088559
 10
91.623347958865
 20
-120.1318576088559
 10
91.44558103182611
 20
-120.1402980927948
 10
91.40837400058541
 20
-120.1402980927948
 10
91.23060707354652
 20
-120.1444322073771
 10
91.1641167306812
 20
-120.1464992646682
 10
91.09555933052472
 20
-120.1487385767336
 10
91.09555933052472
 20
-120.1487385767336
 10
91.09555933052472
 20
-119.964598223047
 10
91.09555933052472
 20
-119.964598223047
 10
91.19546709959697
 20
-119.9730387069859
 10
91.2343966785803
 20
-119.9730387069859
 10
91.5696044692951
 20
-119.981651445699
 10
91.51413843198259
 20
-119.8863945555319
 10
91.49002276358583
 20
-119.8588337916499
 10
91.45867239467006
 20
-119.822832543829
 10
91.45867239467006
 20
-119.822832543829
 10
91.6123236533122
 20
-119.7403225069573
 10
91.6123236533122
 20
-119.7403225069573
 10
91.64746362726174
 20
-119.7763237547781
 10
91.68639320624507
 20
-119.8186984292467
 10
91.75116100136776
 20
-119.9285969752262
 10
91.75116100136776
 20
-119.9285969752262
 10
91.650908722747
 20
-119.9837185029902
 10
91.650908722747
 20
-119.9837185029902
 10
91.650908722747
 20
-119.9837185029902
 10
91.66021048055717
 20
-119.9837185029902
 10
91.66021048055717
 20
-119.9837185029902
 10
91.66021048055717
 20
-119.9837185029902
 10
92.11771916099835
 20
-119.9837185029902
 10
92.11771916099835
 20
-119.9837185029902
 10
92.11771916099835
 20
-119.9837185029902
 10
92.0343478502553
 20
-119.9392767712305
 10
92.0343478502553
 20
-119.9392767712305
 10
92.05846351865206
 20
-119.9012084661184
 10
92.10841740318818
 20
-119.8207654865379
 10
92.12150876603212
 20
-119.746695933605
 10
92.12150876603212
 20
-119.746695933605
 10
92.30857745088119
 20
-119.8102579453079
 10
92.30857745088119
 20
-119.8102579453079
 10
92.31581215140022
 20
-119.812325002599
 10
92.33441566702056
 20
-119.822832543829
 10
92.33441566702056
 20
-119.8440198810633
 10
92.33441566702056
 20
-119.8820881861753
 10
92.2768825724169
 20
-119.8820881861753
 10
92.2603461140877
 20
-119.8820881861753
 10
92.25104435627752
 20
-119.9012084661184
 10
92.23071829291455
 20
-119.9413438285216
 10
92.20488007677517
 20
-119.981651445699
 10
92.55490177807656
 20
-119.9752780190513
 10
92.58073999421593
 20
-119.9730387069859
 10
92.64723033708125
 20
-119.9668375351125
 10
92.64723033708125
 20
-119.9668375351125
 10
92.64723033708125
 20
-120.1487385767336
 10
92.64723033708125
 20
-120.1487385767336
 10
92.63069387875206
 20
-120.1487385767336
 10
92.60830075809793
 20
-120.1464992646682
 10
92.41571992047247
 20
-120.1380587807294
 10
92.37127818871274
 20
-120.1359917234382
 10
92.17869735108728
 20
-120.1318576088559
 10
92.14011228165248
 20
-120.1318576088559
 10
92.14011228165248
 20
-120.1318576088559
 10
91.95097653951225
 20
-120.1318576088559
 10
91.95097653951225
 20
-120.1318576088559
 10
91.95097653951225
 20
-120.1318576088559
 10
91.95097653951225
 20
-120.2501966387743
 10
91.95097653951225
 20
-120.2501966387743
 10
91.95097653951225
 20
-120.2501966387743
 10
92.10290525041178
 20
-120.2501966387743
 10
92.10290525041178
 20
-120.2501966387743
 10
92.24553220350113
 20
-120.2501966387743
 10
92.41227482498721
 20
-120.2501966387743
 10
92.54904511575162
 20
-120.2396890975442
 10
92.54904511575162
 20
-120.2396890975442
 10
92.54904511575162
 20
-120.4110825979354
 10
92.54904511575162
 20
-120.4110825979354
 10
92.36576603593635
 20
-120.4026421139966
 10
92.19351126167385
 20
-120.4004028019312
 10
92.10290525041178
 20
-120.4004028019312
 10
92.10290525041178
 20
-120.4004028019312
 10
91.95097653951225
 20
-120.4004028019312
 10
91.95097653951225
 20
-120.4004028019312
 10
91.95097653951225
 20
-120.4004028019312
 10
91.95097653951225
 20
-120.5084065453937
 10
91.95097653951225
 20
-120.5084065453937
 10
91.95097653951225
 20
-120.5084065453937
 10
92.1528591349479
 20
-120.5084065453937
 10
92.1528591349479
 20
-120.5084065453937
 10
92.26964787189787
 20
-120.5084065453937
 10
92.52148435186963
 20
-120.5041001760372
 10
92.70476343168492
 20
-120.4977267493895
 10
92.70476343168492
 20
-120.4977267493895
 10
92.70476343168492
 20
-120.6754936764284
 10
92.70476343168492
 20
-120.6754936764284
 10
92.53629826245621
 20
-120.6691202497806
 10
92.26206866183033
 20
-120.6648138804241
 10
92.1528591349479
 20
-120.6648138804241
 97
        0
 97
        0
 92
        1
 93
        4
 72
     1
 10
92.29720863577987
 20
-120.9207844749781
 11
91.67881399617752
 21
-120.9207844749781
 72
     1
 10
91.67881399617752
 20
-120.9207844749781
 11
91.67881399617752
 21
-121.0287882184407
 72
     1
 10
91.67881399617752
 20
-121.0287882184407
 11
92.29720863577987
 21
-121.0287882184407
 72
     1
 10
92.29720863577987
 20
-121.0287882184407
 11
92.29720863577987
 21
-120.9207844749781
 97
        0
 92
        1
 93
        4
 72
     1
 10
92.29720863577987
 20
-121.1535006750068
 11
91.67881399617752
 21
-121.1535006750068
 72
     1
 10
91.67881399617752
 20
-121.1535006750068
 11
91.67881399617752
 21
-121.2678778451171
 72
     1
 10
91.67881399617752
 20
-121.2678778451171
 11
92.29720863577987
 21
-121.2678778451171
 72
     1
 10
92.29720863577987
 20
-121.2678778451171
 11
92.29720863577987
 21
-121.1535006750068
 97
        0
 92
        1
 93
        4
 72
     1
 10
92.29720863577987
 20
-121.3968966710397
 11
91.67881399617752
 21
-121.3968966710397
 72
     1
 10
91.67881399617752
 20
-121.3968966710397
 11
91.67881399617752
 21
-121.5111015863757
 72
     1
 10
91.67881399617752
 20
-121.5111015863757
 11
92.29720863577987
 21
-121.5111015863757
 72
     1
 10
92.29720863577987
 20
-121.5111015863757
 11
92.29720863577987
 21
-121.3968966710397
 97
        0
 75
     2
 76
     1
 98
        0
  0
SPLINE
  5
EA
330
CB
100
AcDbEntity
  8
_U+30EC_U+30A4_U+30E4_U+30FC 1
370
     0
100
AcDbSpline
210
0.0
220
0.0
230
1.0
 70
    11
 71
     3
 72
    47
 73
    43
 74
     0
 42
0.0000000001
 43
0.0000000001
 12
1.0
 22
0.0
 32
0.0
 13
1.0
 23
0.0
 33
0.0
 40
0.0
 40
0.0
 40
0.0
 40
0.0
 40
1.0
 40
1.0
 40
1.0
 40
2.0
 40
2.0
 40
2.0
 40
3.0
 40
3.0
 40
3.0
 40
4.0
 40
4.0
 40
4.0
 40
5.0
 40
5.0
 40
5.0
 40
6.0
 40
6.0
 40
6.0
 40
7.0
 40
7.0
 40
7.0
 40
8.0
 40
8.0
 40
8.0
 40
9.0
 40
9.0
 40
9.0
 40
10.0
 40
10.0
 40
10.0
 40
11.0
 40
11.0
 40
11.0
 40
12.0
 40
12.0
 40
12.0
 40
13.0
 40
13.0
 40
13.0
 40
14.0
 40
14.0
 40
14.0
 40
14.0
 10
93.88470863538299
 20
-120.6415594858986
 30
0.0
 10
93.88470863538299
 20
-120.6415594858986
 30
0.0
 10
93.79582517186354
 20
-120.6415594858986
 30
0.0
 10
93.79582517186354
 20
-120.6415594858986
 30
0.0
 10
93.79582517186354
 20
-120.7283758921269
 30
0.0
 10
93.7772216562432
 20
-121.1176716819602
 30
0.0
 10
93.6049668819807
 20
-121.3376410286934
 30
0.0
 10
93.47164168670155
 20
-121.5067952170191
 30
0.0
 10
93.29008515462887
 20
-121.5767306553697
 30
0.0
 10
93.216015601696
 20
-121.6041191644775
 30
0.0
 10
93.216015601696
 20
-121.6041191644775
 30
0.0
 10
93.04582788472466
 20
-121.4370320334428
 30
0.0
 10
93.04582788472466
 20
-121.4370320334428
 30
0.0
 10
93.13092174321032
 20
-121.4242851801474
 30
0.0
 10
93.28457300185248
 20
-121.401030785622
 30
0.0
 10
93.44924856604742
 20
-121.2127563173531
 30
0.0
 10
93.51436087071863
 20
-121.1409260764856
 30
0.0
 10
93.6049668819807
 20
-121.0012274545587
 30
0.0
 10
93.6049668819807
 20
-120.6415594858986
 30
0.0
 10
93.6049668819807
 20
-120.6415594858986
 30
0.0
 10
93.40308428654507
 20
-120.6415594858986
 30
0.0
 10
93.40308428654507
 20
-120.6415594858986
 30
0.0
 10
93.24013127009275
 20
-120.6415594858986
 30
0.0
 10
93.07717825364043
 20
-120.6458658552552
 30
0.0
 10
92.91422523718812
 20
-120.6606797658418
 30
0.0
 10
92.91422523718812
 20
-120.6606797658418
 30
0.0
 10
92.91422523718812
 20
-120.4407104191086
 30
0.0
 10
92.91422523718812
 20
-120.4407104191086
 30
0.0
 10
93.07924531093158
 20
-120.4555243296952
 30
0.0
 10
93.3290147336122
 20
-120.4596584442775
 30
0.0
 10
93.40308428654507
 20
-120.4596584442775
 30
0.0
 10
93.40308428654507
 20
-120.4596584442775
 30
0.0
 10
93.88470863538299
 20
-120.4596584442775
 30
0.0
 10
93.88470863538299
 20
-120.4596584442775
 30
0.0
 10
93.90124509371219
 20
-120.4596584442775
 30
0.0
 10
94.17891978982333
 20
-120.4596584442775
 30
0.0
 10
94.37907983751634
 20
-120.4407104191086
 30
0.0
 10
94.37907983751634
 20
-120.4407104191086
 30
0.0
 10
94.37907983751634
 20
-120.6606797658418
 30
0.0
 10
94.37907983751634
 20
-120.6606797658418
 30
0.0
 10
94.21405976377288
 20
-120.6458658552552
 30
0.0
 10
94.04938419957793
 20
-120.6415594858986
 30
0.0
 10
93.88470863538299
 20
-120.6415594858986
 30
0.0
  0
SPLINE
  5
EB
330
CB
100
AcDbEntity
  8
_U+30EC_U+30A4_U+30E4_U+30FC 1
370
     0
100
AcDbSpline
210
0.0
220
0.0
230
1.0
 70
    11
 71
     3
 72
    29
 73
    25
 74
     0
 42
0.0000000001
 43
0.0000000001
 12
1.0
 22
0.0
 32
0.0
 13
1.0
 23
0.0
 33
0.0
 40
0.0
 40
0.0
 40
0.0
 40
0.0
 40
1.0
 40
1.0
 40
1.0
 40
2.0
 40
2.0
 40
2.0
 40
3.0
 40
3.0
 40
3.0
 40
4.0
 40
4.0
 40
4.0
 40
5.0
 40
5.0
 40
5.0
 40
6.0
 40
6.0
 40
6.0
 40
7.0
 40
7.0
 40
7.0
 40
8.0
 40
8.0
 40
8.0
 40
8.0
 10
93.79582517186354
 20
-120.1127373289128
 30
0.0
 10
93.79582517186354
 20
-120.1127373289128
 30
0.0
 10
93.48645559728811
 20
-120.1127373289128
 30
0.0
 10
93.48645559728811
 20
-120.1127373289128
 30
0.0
 10
93.3882703759585
 20
-120.1127373289128
 30
0.0
 10
93.26596948623212
 20
-120.1191107555605
 30
0.0
 10
93.17157386993628
 20
-120.1318576088559
 30
0.0
 10
93.17157386993628
 20
-120.1318576088559
 30
0.0
 10
93.17157386993628
 20
-119.8969020967619
 30
0.0
 10
93.17157386993628
 20
-119.8969020967619
 30
0.0
 10
93.2752712440423
 20
-119.9117160073485
 30
0.0
 10
93.43650171275199
 20
-119.916022376705
 30
0.0
 10
93.48645559728811
 20
-119.916022376705
 30
0.0
 10
93.48645559728811
 20
-119.916022376705
 30
0.0
 10
93.79582517186354
 20
-119.916022376705
 30
0.0
 10
93.79582517186354
 20
-119.916022376705
 30
0.0
 10
93.81236163019275
 20
-119.916022376705
 30
0.0
 10
93.99012855723164
 20
-119.916022376705
 30
0.0
 10
94.11415199470063
 20
-119.8969020967619
 30
0.0
 10
94.11415199470063
 20
-119.8969020967619
 30
0.0
 10
94.11415199470063
 20
-120.1318576088559
 30
0.0
 10
94.11415199470063
 20
-120.1318576088559
 30
0.0
 10
93.97703719438769
 20
-120.1127373289128
 30
0.0
 10
93.81063908245012
 20
-120.1127373289128
 30
0.0
 10
93.79582517186354
 20
-120.1127373289128
 30
0.0
  0
HATCH
  5
EC
330
CB
100
AcDbEntity
  8
_U+30EC_U+30A4_U+30E4_U+30FC 1
 62
   179
420
  2234388
100
AcDbHatch
 10
0.0
 20
0.0
 30
0.0
210
0.0
220
0.0
230
1.0
  2
SOLID
 70
     1
 71
     0
 91
        2
 92
        1
 93
        1
 72
     4
 94
        3
 73
     0
 74
     1
 95
       47
 96
       43
 40
0.0
 40
0.0
 40
0.0
 40
0.0
 40
1.0
 40
1.0
 40
1.0
 40
2.0
 40
2.0
 40
2.0
 40
3.0
 40
3.0
 40
3.0
 40
4.0
 40
4.0
 40
4.0
 40
5.0
 40
5.0
 40
5.0
 40
6.0
 40
6.0
 40
6.0
 40
7.0
 40
7.0
 40
7.0
 40
8.0
 40
8.0
 40
8.0
 40
9.0
 40
9.0
 40
9.0
 40
10.0
 40
10.0
 40
10.0
 40
11.0
 40
11.0
 40
11.0
 40
12.0
 40
12.0
 40
12.0
 40
13.0
 40
13.0
 40
13.0
 40
14.0
 40
14.0
 40
14.0
 40
14.0
 10
93.88470863538299
 20
-120.6415594858986
 10
93.88470863538299
 20
-120.6415594858986
 10
93.79582517186354
 20
-120.6415594858986
 10
93.79582517186354
 20
-120.6415594858986
 10
93.79582517186354
 20
-120.7283758921269
 10
93.7772216562432
 20
-121.1176716819602
 10
93.6049668819807
 20
-121.3376410286934
 10
93.47164168670155
 20
-121.5067952170191
 10
93.29008515462887
 20
-121.5767306553697
 10
93.216015601696
 20
-121.6041191644775
 10
93.216015601696
 20
-121.6041191644775
 10
93.04582788472466
 20
-121.4370320334428
 10
93.04582788472466
 20
-121.4370320334428
 10
93.13092174321032
 20
-121.4242851801474
 10
93.28457300185248
 20
-121.401030785622
 10
93.44924856604742
 20
-121.2127563173531
 10
93.51436087071863
 20
-121.1409260764856
 10
93.6049668819807
 20
-121.0012274545587
 10
93.6049668819807
 20
-120.6415594858986
 10
93.6049668819807
 20
-120.6415594858986
 10
93.40308428654507
 20
-120.6415594858986
 10
93.40308428654507
 20
-120.6415594858986
 10
93.24013127009275
 20
-120.6415594858986
 10
93.07717825364043
 20
-120.6458658552552
 10
92.91422523718812
 20
-120.6606797658418
 10
92.91422523718812
 20
-120.6606797658418
 10
92.91422523718812
 20
-120.4407104191086
 10
92.91422523718812
 20
-120.4407104191086
 10
93.07924531093158
 20
-120.4555243296952
 10
93.3290147336122
 20
-120.4596584442775
 10
93.40308428654507
 20
-120.4596584442775
 10
93.40308428654507
 20
-120.4596584442775
 10
93.88470863538299
 20
-120.4596584442775
 10
93.88470863538299
 20
-120.4596584442775
 10
93.90124509371219
 20
-120.4596584442775
 10
94.17891978982333
 20
-120.4596584442775
 10
94.37907983751634
 20
-120.4407104191086
 10
94.37907983751634
 20
-120.4407104191086
 10
94.37907983751634
 20
-120.6606797658418
 10
94.37907983751634
 20
-120.6606797658418
 10
94.21405976377288
 20
-120.6458658552552
 10
94.04938419957793
 20
-120.6415594858986
 10
93.88470863538299
 20
-120.6415594858986
 97
        0
 97
        0
 92
        1
 93
        1
 72
     4
 94
        3
 73
     0
 74
     1
 95
       29
 96
       25
 40
0.0
 40
0.0
 40
0.0
 40
0.0
 40
1.0
 40
1.0
 40
1.0
 40
2.0
 40
2.0
 40
2.0
 40
3.0
 40
3.0
 40
3.0
 40
4.0
 40
4.0
 40
4.0
 40
5.0
 40
5.0
 40
5.0
 40
6.0
 40
6.0
 40
6.0
 40
7.0
 40
7.0
 40
7.0
 40
8.0
 40
8.0
 40
8.0
 40
8.0
 10
93.79582517186354
 20
-120.1127373289128
 10
93.79582517186354
 20
-120.1127373289128
 10
93.48645559728811
 20
-120.1127373289128
 10
93.48645559728811
 20
-120.1127373289128
 10
93.3882703759585
 20
-120.1127373289128
 10
93.26596948623212
 20
-120.1191107555605
 10
93.17157386993628
 20
-120.1318576088559
 10
93.17157386993628
 20
-120.1318576088559
 10
93.17157386993628
 20
-119.8969020967619
 10
93.17157386993628
 20
-119.8969020967619
 10
93.2752712440423
 20
-119.9117160073485
 10
93.43650171275199
 20
-119.916022376705
 10
93.48645559728811
 20
-119.916022376705
 10
93.48645559728811
 20
-119.916022376705
 10
93.79582517186354
 20
-119.916022376705
 10
93.79582517186354
 20
-119.916022376705
 10
93.81236163019275
 20
-119.916022376705
 10
93.99012855723164
 20
-119.916022376705
 10
94.11415199470063
 20
-119.8969020967619
 10
94.11415199470063
 20
-119.8969020967619
 10
94.11415199470063
 20
-120.1318576088559
 10
94.11415199470063
 20
-120.1318576088559
 10
93.97703719438769
 20
-120.1127373289128
 10
93.81063908245012
 20
-120.1127373289128
 10
93.79582517186354
 20
-120.1127373289128
 97
        0
 97
        0
 75
     2
 76
     1
 98
        0
  0
SPLINE
  5
ED
330
CB
100
AcDbEntity
  8
_U+30EC_U+30A4_U+30E4_U+30FC 1
370
     0
100
AcDbSpline
210
0.0
220
0.0
230
1.0
 70
    11
 71
     3
 72
    29
 73
    25
 74
     0
 42
0.0000000001
 43
0.0000000001
 12
1.0
 22
0.0
 32
0.0
 13
1.0
 23
0.0
 33
0.0
 40
0.0
 40
0.0
 40
0.0
 40
0.0
 40
1.0
 40
1.0
 40
1.0
 40
2.0
 40
2.0
 40
2.0
 40
3.0
 40
3.0
 40
3.0
 40
4.0
 40
4.0
 40
4.0
 40
5.0
 40
5.0
 40
5.0
 40
6.0
 40
6.0
 40
6.0
 40
7.0
 40
7.0
 40
7.0
 40
8.0
 40
8.0
 40
8.0
 40
8.0
 10
95.50114743706222
 20
-120.804512502351
 30
0.0
 10
95.50114743706222
 20
-120.804512502351
 30
0.0
 10
95.07740069237649
 20
-120.804512502351
 30
0.0
 10
95.07740069237649
 20
-120.804512502351
 30
0.0
 10
95.05328502397974
 20
-120.804512502351
 30
0.0
 10
94.7756103278686
 20
-120.804512502351
 30
0.0
 10
94.59026419076216
 20
-120.8298339541675
 30
0.0
 10
94.59026419076216
 20
-120.8298339541675
 30
0.0
 10
94.59026419076216
 20
-120.5993570662043
 30
0.0
 10
94.59026419076216
 20
-120.5993570662043
 30
0.0
 10
94.72910153881773
 20
-120.6226114607298
 30
0.0
 10
94.89584416030382
 20
-120.6246785180209
 30
0.0
 10
95.07740069237649
 20
-120.6246785180209
 30
0.0
 10
95.07740069237649
 20
-120.6246785180209
 30
0.0
 10
95.50114743706222
 20
-120.6246785180209
 30
0.0
 10
95.50114743706222
 20
-120.6246785180209
 30
0.0
 10
95.66444496306306
 20
-120.6246785180209
 30
0.0
 10
95.82705346996686
 20
-120.6226114607298
 30
0.0
 10
95.98828393867655
 20
-120.5993570662043
 30
0.0
 10
95.98828393867655
 20
-120.5993570662043
 30
0.0
 10
95.98828393867655
 20
-120.8298339541675
 30
0.0
 10
95.98828393867655
 20
-120.8298339541675
 30
0.0
 10
95.82705346996686
 20
-120.8065795596421
 30
0.0
 10
95.61070147349317
 20
-120.804512502351
 30
0.0
 10
95.50114743706222
 20
-120.804512502351
 30
0.0
  0
HATCH
  5
EE
330
CB
100
AcDbEntity
  8
_U+30EC_U+30A4_U+30E4_U+30FC 1
 62
   179
420
  2234388
100
AcDbHatch
 10
0.0
 20
0.0
 30
0.0
210
0.0
220
0.0
230
1.0
  2
SOLID
 70
     1
 71
     0
 91
        1
 92
        1
 93
        1
 72
     4
 94
        3
 73
     0
 74
     1
 95
       29
 96
       25
 40
0.0
 40
0.0
 40
0.0
 40
0.0
 40
1.0
 40
1.0
 40
1.0
 40
2.0
 40
2.0
 40
2.0
 40
3.0
 40
3.0
 40
3.0
 40
4.0
 40
4.0
 40
4.0
 40
5.0
 40
5.0
 40
5.0
 40
6.0
 40
6.0
 40
6.0
 40
7.0
 40
7.0
 40
7.0
 40
8.0
 40
8.0
 40
8.0
 40
8.0
 10
95.50114743706222
 20
-120.804512502351
 10
95.50114743706222
 20
-120.804512502351
 10
95.07740069237649
 20
-120.804512502351
 10
95.07740069237649
 20
-120.804512502351
 10
95.05328502397974
 20
-120.804512502351
 10
94.7756103278686
 20
-120.804512502351
 10
94.59026419076216
 20
-120.8298339541675
 10
94.59026419076216
 20
-120.8298339541675
 10
94.59026419076216
 20
-120.5993570662043
 10
94.59026419076216
 20
-120.5993570662043
 10
94.72910153881773
 20
-120.6226114607298
 10
94.89584416030382
 20
-120.6246785180209
 10
95.07740069237649
 20
-120.6246785180209
 10
95.07740069237649
 20
-120.6246785180209
 10
95.50114743706222
 20
-120.6246785180209
 10
95.50114743706222
 20
-120.6246785180209
 10
95.66444496306306
 20
-120.6246785180209
 10
95.82705346996686
 20
-120.6226114607298
 10
95.98828393867655
 20
-120.5993570662043
 10
95.98828393867655
 20
-120.5993570662043
 10
95.98828393867655
 20
-120.8298339541675
 10
95.98828393867655
 20
-120.8298339541675
 10
95.82705346996686
 20
-120.8065795596421
 10
95.61070147349317
 20
-120.804512502351
 10
95.50114743706222
 20
-120.804512502351
 97
        0
 97
        0
 75
     2
 76
     1
 98
        0
  0
SPLINE
  5
EF
330
CB
100
AcDbEntity
  8
_U+30EC_U+30A4_U+30E4_U+30FC 1
370
     0
100
AcDbSpline
210
0.0
220
0.0
230
1.0
 70
    11
 71
     3
 72
    44
 73
    40
 74
     0
 42
0.0000000001
 43
0.0000000001
 12
1.0
 22
0.0
 32
0.0
 13
1.0
 23
0.0
 33
0.0
 40
0.0
 40
0.0
 40
0.0
 40
0.0
 40
1.0
 40
1.0
 40
1.0
 40
2.0
 40
2.0
 40
2.0
 40
3.0
 40
3.0
 40
3.0
 40
4.0
 40
4.0
 40
4.0
 40
5.0
 40
5.0
 40
5.0
 40
6.0
 40
6.0
 40
6.0
 40
7.0
 40
7.0
 40
7.0
 40
8.0
 40
8.0
 40
8.0
 40
9.0
 40
9.0
 40
9.0
 40
10.0
 40
10.0
 40
10.0
 40
11.0
 40
11.0
 40
11.0
 40
12.0
 40
12.0
 40
12.0
 40
13.0
 40
13.0
 40
13.0
 40
13.0
 10
97.4383246284182
 20
-120.3666408661757
 30
0.0
 10
97.34013940708859
 20
-120.7347493187746
 30
0.0
 10
97.29569767532885
 20
-120.8933959658704
 30
0.0
 10
97.12344290106637
 20
-121.1429931337768
 30
0.0
 10
96.9625569419052
 20
-121.3736422765142
 30
0.0
 10
96.75516219369315
 20
-121.5596774327177
 30
0.0
 10
96.51056041424042
 20
-121.6528672655937
 30
0.0
 10
96.51056041424042
 20
-121.6528672655937
 30
0.0
 10
96.3420952450117
 20
-121.4730332812637
 30
0.0
 10
96.3420952450117
 20
-121.4730332812637
 30
0.0
 10
96.9033012995589
 20
-121.3207600608156
 30
0.0
 10
97.19200030122283
 20
-120.7643771399478
 30
0.0
 10
97.24781084808389
 20
-120.3242661917071
 30
0.0
 10
97.24781084808389
 20
-120.3242661917071
 30
0.0
 10
96.57739526665426
 20
-120.3242661917071
 30
0.0
 10
96.57739526665426
 20
-120.3242661917071
 30
0.0
 10
96.49574650365385
 20
-120.3242661917071
 30
0.0
 10
96.33486054449268
 20
-120.3285725610637
 30
0.0
 10
96.19774574417974
 20
-120.3475205862326
 30
0.0
 10
96.19774574417974
 20
-120.3475205862326
 30
0.0
 10
96.19774574417974
 20
-120.1275512394994
 30
0.0
 10
96.19774574417974
 20
-120.1275512394994
 30
0.0
 10
96.27353784485523
 20
-120.1487385767336
 30
0.0
 10
96.49402395591122
 20
-120.1487385767336
 30
0.0
 10
96.58084036213951
 20
-120.1487385767336
 30
0.0
 10
96.58084036213951
 20
-120.1487385767336
 30
0.0
 10
96.95876733687142
 20
-120.1487385767336
 30
0.0
 10
96.95876733687142
 20
-120.1487385767336
 30
0.0
 10
96.9956298585636
 20
-120.1487385767336
 30
0.0
 10
97.20130205903301
 20
-120.1464992646682
 30
0.0
 10
97.23471948523994
 20
-120.1402980927948
 30
0.0
 10
97.2715820069321
 20
-120.1339246661471
 30
0.0
 10
97.27364906422326
 20
-120.1318576088559
 30
0.0
 10
97.32739255379316
 20
-120.0915499916785
 30
0.0
 10
97.32739255379316
 20
-120.0915499916785
 30
0.0
 10
97.4920681179881
 20
-120.246062524192
 30
0.0
 10
97.4920681179881
 20
-120.246062524192
 30
0.0
 10
97.46622990184872
 20
-120.2756903453651
 30
0.0
 10
97.45313853900477
 20
-120.3073852238294
 30
0.0
 10
97.4383246284182
 20
-120.3666408661757
 30
0.0
  0
SPLINE
  5
F0
330
CB
100
AcDbEntity
  8
_U+30EC_U+30A4_U+30E4_U+30FC 1
370
     0
100
AcDbSpline
210
0.0
220
0.0
230
1.0
 70
    11
 71
     3
 72
    17
 73
    13
 74
     0
 42
0.0000000001
 43
0.0000000001
 12
1.0
 22
0.0
 32
0.0
 13
1.0
 23
0.0
 33
0.0
 40
0.0
 40
0.0
 40
0.0
 40
0.0
 40
1.0
 40
1.0
 40
1.0
 40
2.0
 40
2.0
 40
2.0
 40
3.0
 40
3.0
 40
3.0
 40
4.0
 40
4.0
 40
4.0
 40
4.0
 10
97.6216037082335
 20
-120.1676866019025
 30
0.0
 10
97.51067163360845
 20
-120.1676866019025
 30
0.0
 10
97.421788170089
 20
-120.0662285398619
 30
0.0
 10
97.421788170089
 20
-119.9392767712305
 30
0.0
 10
97.421788170089
 20
-119.812325002599
 30
0.0
 10
97.51067163360845
 20
-119.708627628493
 30
0.0
 10
97.6216037082335
 20
-119.708627628493
 30
0.0
 10
97.73288029240706
 20
-119.708627628493
 30
0.0
 10
97.82348630366913
 20
-119.812325002599
 30
0.0
 10
97.82348630366913
 20
-119.9392767712305
 30
0.0
 10
97.82348630366913
 20
-120.0662285398619
 30
0.0
 10
97.73288029240706
 20
-120.1676866019025
 30
0.0
 10
97.6216037082335
 20
-120.1676866019025
 30
0.0
  0
SPLINE
  5
F1
330
CB
100
AcDbEntity
  8
_U+30EC_U+30A4_U+30E4_U+30FC 1
370
     0
100
AcDbSpline
210
0.0
220
0.0
230
1.0
 70
    11
 71
     3
 72
    17
 73
    13
 74
     0
 42
0.0000000001
 43
0.0000000001
 12
1.0
 22
0.0
 32
0.0
 13
1.0
 23
0.0
 33
0.0
 40
0.0
 40
0.0
 40
0.0
 40
0.0
 40
1.0
 40
1.0
 40
1.0
 40
2.0
 40
2.0
 40
2.0
 40
3.0
 40
3.0
 40
3.0
 40
4.0
 40
4.0
 40
4.0
 40
4.0
 10
97.61988116049086
 20
-119.8376464544156
 30
0.0
 10
97.57164982369737
 20
-119.8376464544156
 30
0.0
 10
97.53272024471404
 20
-119.8820881861753
 30
0.0
 10
97.53272024471404
 20
-119.9372097139393
 30
0.0
 10
97.53272024471404
 20
-119.9942260442202
 30
0.0
 10
97.57164982369737
 20
-120.0429741453365
 30
0.0
 10
97.62367076552464
 20
-120.0429741453365
 30
0.0
 10
97.67534719780339
 20
-120.0429741453365
 30
0.0
 10
97.71048717175294
 20
-119.9921589869291
 30
0.0
 10
97.71048717175294
 20
-119.9392767712305
 30
0.0
 10
97.71048717175294
 20
-119.8820881861753
 30
0.0
 10
97.66983504502699
 20
-119.8376464544156
 30
0.0
 10
97.61988116049086
 20
-119.8376464544156
 30
0.0
  0
HATCH
  5
F2
330
CB
100
AcDbEntity
  8
_U+30EC_U+30A4_U+30E4_U+30FC 1
 62
   179
420
  2234388
100
AcDbHatch
 10
0.0
 20
0.0
 30
0.0
210
0.0
220
0.0
230
1.0
  2
SOLID
 70
     1
 71
     0
 91
        3
 92
        1
 93
        1
 72
     4
 94
        3
 73
     0
 74
     1
 95
       44
 96
       40
 40
0.0
 40
0.0
 40
0.0
 40
0.0
 40
1.0
 40
1.0
 40
1.0
 40
2.0
 40
2.0
 40
2.0
 40
3.0
 40
3.0
 40
3.0
 40
4.0
 40
4.0
 40
4.0
 40
5.0
 40
5.0
 40
5.0
 40
6.0
 40
6.0
 40
6.0
 40
7.0
 40
7.0
 40
7.0
 40
8.0
 40
8.0
 40
8.0
 40
9.0
 40
9.0
 40
9.0
 40
10.0
 40
10.0
 40
10.0
 40
11.0
 40
11.0
 40
11.0
 40
12.0
 40
12.0
 40
12.0
 40
13.0
 40
13.0
 40
13.0
 40
13.0
 10
97.4383246284182
 20
-120.3666408661757
 10
97.34013940708859
 20
-120.7347493187746
 10
97.29569767532885
 20
-120.8933959658704
 10
97.12344290106637
 20
-121.1429931337768
 10
96.9625569419052
 20
-121.3736422765142
 10
96.75516219369315
 20
-121.5596774327177
 10
96.51056041424042
 20
-121.6528672655937
 10
96.51056041424042
 20
-121.6528672655937
 10
96.3420952450117
 20
-121.4730332812637
 10
96.3420952450117
 20
-121.4730332812637
 10
96.9033012995589
 20
-121.3207600608156
 10
97.19200030122283
 20
-120.7643771399478
 10
97.24781084808389
 20
-120.3242661917071
 10
97.24781084808389
 20
-120.3242661917071
 10
96.57739526665426
 20
-120.3242661917071
 10
96.57739526665426
 20
-120.3242661917071
 10
96.49574650365385
 20
-120.3242661917071
 10
96.33486054449268
 20
-120.3285725610637
 10
96.19774574417974
 20
-120.3475205862326
 10
96.19774574417974
 20
-120.3475205862326
 10
96.19774574417974
 20
-120.1275512394994
 10
96.19774574417974
 20
-120.1275512394994
 10
96.27353784485523
 20
-120.1487385767336
 10
96.49402395591122
 20
-120.1487385767336
 10
96.58084036213951
 20
-120.1487385767336
 10
96.58084036213951
 20
-120.1487385767336
 10
96.95876733687142
 20
-120.1487385767336
 10
96.95876733687142
 20
-120.1487385767336
 10
96.9956298585636
 20
-120.1487385767336
 10
97.20130205903301
 20
-120.1464992646682
 10
97.23471948523994
 20
-120.1402980927948
 10
97.2715820069321
 20
-120.1339246661471
 10
97.27364906422326
 20
-120.1318576088559
 10
97.32739255379316
 20
-120.0915499916785
 10
97.32739255379316
 20
-120.0915499916785
 10
97.4920681179881
 20
-120.246062524192
 10
97.4920681179881
 20
-120.246062524192
 10
97.46622990184872
 20
-120.2756903453651
 10
97.45313853900477
 20
-120.3073852238294
 10
97.4383246284182
 20
-120.3666408661757
 97
        0
 97
        0
 92
        1
 93
        1
 72
     4
 94
        3
 73
     0
 74
     1
 95
       17
 96
       13
 40
0.0
 40
0.0
 40
0.0
 40
0.0
 40
1.0
 40
1.0
 40
1.0
 40
2.0
 40
2.0
 40
2.0
 40
3.0
 40
3.0
 40
3.0
 40
4.0
 40
4.0
 40
4.0
 40
4.0
 10
97.6216037082335
 20
-120.1676866019025
 10
97.51067163360845
 20
-120.1676866019025
 10
97.421788170089
 20
-120.0662285398619
 10
97.421788170089
 20
-119.9392767712305
 10
97.421788170089
 20
-119.812325002599
 10
97.51067163360845
 20
-119.708627628493
 10
97.6216037082335
 20
-119.708627628493
 10
97.73288029240706
 20
-119.708627628493
 10
97.82348630366913
 20
-119.812325002599
 10
97.82348630366913
 20
-119.9392767712305
 10
97.82348630366913
 20
-120.0662285398619
 10
97.73288029240706
 20
-120.1676866019025
 10
97.6216037082335
 20
-120.1676866019025
 97
        0
 97
        0
 92
        1
 93
        1
 72
     4
 94
        3
 73
     0
 74
     1
 95
       17
 96
       13
 40
0.0
 40
0.0
 40
0.0
 40
0.0
 40
1.0
 40
1.0
 40
1.0
 40
2.0
 40
2.0
 40
2.0
 40
3.0
 40
3.0
 40
3.0
 40
4.0
 40
4.0
 40
4.0
 40
4.0
 10
97.61988116049086
 20
-119.8376464544156
 10
97.57164982369737
 20
-119.8376464544156
 10
97.53272024471404
 20
-119.8820881861753
 10
97.53272024471404
 20
-119.9372097139393
 10
97.53272024471404
 20
-119.9942260442202
 10
97.57164982369737
 20
-120.0429741453365
 10
97.62367076552464
 20
-120.0429741453365
 10
97.67534719780339
 20
-120.0429741453365
 10
97.71048717175294
 20
-119.9921589869291
 10
97.71048717175294
 20
-119.9392767712305
 10
97.71048717175294
 20
-119.8820881861753
 10
97.66983504502699
 20
-119.8376464544156
 10
97.61988116049086
 20
-119.8376464544156
 97
        0
 97
        0
 75
     2
 76
     1
 98
        0
  0
ENDBLK
  5
CE
330
CB
100
AcDbEntity
  8
0
100
AcDbBlockEnd
  0
ENDSEC
  0
SECTION
  2
ENTITIES
  0
POLYLINE
  5
41
330
1F
100
AcDbEntity
  8
_U+30EC_U+30A4_U+30E4_U+30FC 1
  6
AI-Linetype-1
 62
   154
420
    23468
370
    25
100
AcDb2dPolyline
 66
     1
 10
0.0
 20
0.0
 30
0.0
  0
VERTEX
  5
42
330
41
100
AcDbEntity
  8
_U+30EC_U+30A4_U+30E4_U+30FC 1
  6
AI-Linetype-1
 62
   154
420
    23468
370
    25
100
AcDbVertex
100
AcDb2dVertex
 10
81.20090515061455
 20
-115.8036094154936
 30
0.0
  0
VERTEX
  5
43
330
41
100
AcDbEntity
  8
_U+30EC_U+30A4_U+30E4_U+30FC 1
  6
AI-Linetype-1
 62
   154
420
    23468
370
    25
100
AcDbVertex
100
AcDb2dVertex
 10
81.20090515061455
 20
-125.8042244129932
 30
0.0
  0
SEQEND
  5
45
330
41
100
AcDbEntity
  8
_U+30EC_U+30A4_U+30E4_U+30FC 1
  6
AI-Linetype-1
 62
   154
420
    23468
370
    25
  0
POLYLINE
  5
46
330
1F
100
AcDbEntity
  8
_U+30EC_U+30A4_U+30E4_U+30FC 1
  6
AI-Linetype-2
 62
   154
420
    23468
370
    25
100
AcDb2dPolyline
 66
     1
 10
0.0
 20
0.0
 30
0.0
  0
VERTEX
  5
47
330
46
100
AcDbEntity
  8
_U+30EC_U+30A4_U+30E4_U+30FC 1
  6
AI-Linetype-2
 62
   154
420
    23468
370
    25
100
AcDbVertex
100
AcDb2dVertex
 10
91.68606016089373
 20
-136.730669410262
 30
0.0
  0
VERTEX
  5
48
330
46
100
AcDbEntity
  8
_U+30EC_U+30A4_U+30E4_U+30FC 1
  6
AI-Linetype-2
 62
   154
420
    23468
370
    25
100
AcDbVertex
100
AcDb2dVertex
 10
101.6861104613267
 20
-136.730669410262
 30
0.0
  0
SEQEND
  5
4A
330
46
100
AcDbEntity
  8
_U+30EC_U+30A4_U+30E4_U+30FC 1
  6
AI-Linetype-2
 62
   154
420
    23468
370
    25
  0
POLYLINE
  5
4B
330
1F
100
AcDbEntity
  8
_U+30EC_U+30A4_U+30E4_U+30FC 1
 62
   179
420
  2234388
370
    25
100
AcDb2dPolyline
 66
     1
 10
0.0
 20
0.0
 30
0.0
  0
VERTEX
  5
4C
330
4B
100
AcDbEntity
  8
_U+30EC_U+30A4_U+30E4_U+30FC 1
 62
   179
420
  2234388
370
    25
100
AcDbVertex
100
AcDb2dVertex
 10
101.8862765673312
 20
-134.3049694108683
 30
0.0
  0
VERTEX
  5
4D
330
4B
100
AcDbEntity
  8
_U+30EC_U+30A4_U+30E4_U+30FC 1
 62
   179
420
  2234388
370
    25
100
AcDbVertex
100
AcDb2dVertex
 10
101.8862765673312
 20
-135.8049805216046
 30
0.0
  0
SEQEND
  5
4E
330
4B
100
AcDbEntity
  8
_U+30EC_U+30A4_U+30E4_U+30FC 1
 62
   179
420
  2234388
370
    25
  0
POLYLINE
  5
4F
330
1F
100
AcDbEntity
  8
_U+30EC_U+30A4_U+30E4_U+30FC 1
 62
   179
420
  2234388
370
    25
100
AcDb2dPolyline
 66
     1
 10
0.0
 20
0.0
 30
0.0
  0
VERTEX
  5
50
330
4F
100
AcDbEntity
  8
_U+30EC_U+30A4_U+30E4_U+30FC 1
 62
   179
420
  2234388
370
    25
100
AcDbVertex
100
AcDb2dVertex
 10
81.88614068868829
 20
-135.8049805216046
 30
0.0
  0
VERTEX
  5
51
330
4F
100
AcDbEntity
  8
_U+30EC_U+30A4_U+30E4_U+30FC 1
 62
   179
420
  2234388
370
    25
100
AcDbVertex
100
AcDb2dVertex
 10
101.8862765673312
 20
-135.8049805216046
 30
0.0
  0
SEQEND
  5
52
330
4F
100
AcDbEntity
  8
_U+30EC_U+30A4_U+30E4_U+30FC 1
 62
   179
420
  2234388
370
    25
  0
POLYLINE
  5
53
330
1F
100
AcDbEntity
  8
_U+30EC_U+30A4_U+30E4_U+30FC 1
 62
   179
420
  2234388
370
    25
100
AcDb2dPolyline
 66
     1
 10
0.0
 20
0.0
 30
0.0
  0
VERTEX
  5
54
330
53
100
AcDbEntity
  8
_U+30EC_U+30A4_U+30E4_U+30FC 1
 62
   179
420
  2234388
370
    25
100
AcDbVertex
100
AcDb2dVertex
 10
81.88614068868829
 20
-115.8036094154936
 30
0.0
  0
VERTEX
  5
55
330
53
100
AcDbEntity
  8
_U+30EC_U+30A4_U+30E4_U+30FC 1
 62
   179
420
  2234388
370
    25
100
AcDbVertex
100
AcDb2dVertex
 10
81.88614068868829
 20
-135.8049805216046
 30
0.0
  0
SEQEND
  5
56
330
53
100
AcDbEntity
  8
_U+30EC_U+30A4_U+30E4_U+30FC 1
 62
   179
420
  2234388
370
    25
  0
POLYLINE
  5
57
330
1F
100
AcDbEntity
  8
_U+30EC_U+30A4_U+30E4_U+30FC 1
 62
   179
420
  2234388
370
    25
100
AcDb2dPolyline
 66
     1
 10
0.0
 20
0.0
 30
0.0
  0
VERTEX
  5
58
330
57
100
AcDbEntity
  8
_U+30EC_U+30A4_U+30E4_U+30FC 1
 62
   179
420
  2234388
370
    25
100
AcDbVertex
100
AcDb2dVertex
 10
81.88614068868829
 20
-115.8036094154936
 30
0.0
  0
VERTEX
  5
59
330
57
100
AcDbEntity
  8
_U+30EC_U+30A4_U+30E4_U+30FC 1
 62
   179
420
  2234388
370
    25
100
AcDbVertex
100
AcDb2dVertex
 10
83.38611648375405
 20
-115.8036094154936
 30
0.0
  0
SEQEND
  5
5A
330
57
100
AcDbEntity
  8
_U+30EC_U+30A4_U+30E4_U+30FC 1
 62
   179
420
  2234388
370
    25
  0
POLYLINE
  5
5B
330
1F
100
AcDbEntity
  8
_U+30EC_U+30A4_U+30E4_U+30FC 1
 62
   179
420
  2234388
370
    25
100
AcDb2dPolyline
 66
     1
 10
0.0
 20
0.0
 30
0.0
  0
VERTEX
  5
5C
330
5B
100
AcDbEntity
  8
_U+30EC_U+30A4_U+30E4_U+30FC 1
 62
   179
420
  2234388
370
    25
100
AcDbVertex
100
AcDb2dVertex
 10
83.38611648375405
 20
-115.8036094154936
 30
0.0
  0
VERTEX
  5
5D
330
5B
100
AcDbEntity
  8
_U+30EC_U+30A4_U+30E4_U+30FC 1
 62
   179
420
  2234388
370
    25
100
AcDbVertex
100
AcDb2dVertex
 10
83.38611648375405
 20
-134.3049694108683
 30
0.0
  0
SEQEND
  5
5E
330
5B
100
AcDbEntity
  8
_U+30EC_U+30A4_U+30E4_U+30FC 1
 62
   179
420
  2234388
370
    25
  0
POLYLINE
  5
5F
330
1F
100
AcDbEntity
  8
_U+30EC_U+30A4_U+30E4_U+30FC 1
 62
   179
420
  2234388
370
    25
100
AcDb2dPolyline
 66
     1
 10
0.0
 20
0.0
 30
0.0
  0
VERTEX
  5
60
330
5F
100
AcDbEntity
  8
_U+30EC_U+30A4_U+30E4_U+30FC 1
 62
   179
420
  2234388
370
    25
100
AcDbVertex
100
AcDb2dVertex
 10
83.38611648375405
 20
-134.3049694108683
 30
0.0
  0
VERTEX
  5
61
330
5F
100
AcDbEntity
  8
_U+30EC_U+30A4_U+30E4_U+30FC 1
 62
   179
420
  2234388
370
    25
100
AcDbVertex
100
AcDb2dVertex
 10
101.8862765673312
 20
-134.3049694108683
 30
0.0
  0
SEQEND
  5
62
330
5F
100
AcDbEntity
  8
_U+30EC_U+30A4_U+30E4_U+30FC 1
 62
   179
420
  2234388
370
    25
  0
SPLINE
  5
63
330
1F
100
AcDbEntity
  8
_U+30EC_U+30A4_U+30E4_U+30FC 1
 62
   179
420
  2234388
370
     9
100
AcDbSpline
210
0.0
220
0.0
230
1.0
 70
    11
 71
     3
 72
    17
 73
    13
 74
     0
 42
0.0000000001
 43
0.0000000001
 12
1.0
 22
0.0
 32
0.0
 13
1.0
 23
0.0
 33
0.0
 40
0.0
 40
0.0
 40
0.0
 40
0.0
 40
1.0
 40
1.0
 40
1.0
 40
2.0
 40
2.0
 40
2.0
 40
3.0
 40
3.0
 40
3.0
 40
4.0
 40
4.0
 40
4.0
 40
4.0
 10
105.9859422960733
 20
-135.8049805216046
 30
0.0
 10
105.9859422960733
 20
-135.7491710771741
 30
0.0
 10
105.9411747972155
 20
-135.7043682994074
 30
0.0
 10
105.8860356319555
 20
-135.7043682994074
 30
0.0
 10
105.8309317444724
 20
-135.7043682994074
 30
0.0
 10
105.7861289678377
 20
-135.7491710771741
 30
0.0
 10
105.7861289678377
 20
-135.8049805216046
 30
0.0
 10
105.7861289678377
 20
-135.8600844104795
 30
0.0
 10
105.8309317444724
 20
-135.9048871882462
 30
0.0
 10
105.8860356319555
 20
-135.9048871882462
 30
0.0
 10
105.9411747972155
 20
-135.9048871882462
 30
0.0
 10
105.9859422960733
 20
-135.8600844104795
 30
0.0
 10
105.9859422960733
 20
-135.8049805216046
 30
0.0
  0
SPLINE
  5
64
330
1F
100
AcDbEntity
  8
_U+30EC_U+30A4_U+30E4_U+30FC 1
 62
   179
420
  2234388
370
     9
100
AcDbSpline
210
0.0
220
0.0
230
1.0
 70
    11
 71
     3
 72
    17
 73
    13
 74
     0
 42
0.0000000001
 43
0.0000000001
 12
1.0
 22
0.0
 32
0.0
 13
1.0
 23
0.0
 33
0.0
 40
0.0
 40
0.0
 40
0.0
 40
0.0
 40
1.0
 40
1.0
 40
1.0
 40
2.0
 40
2.0
 40
2.0
 40
3.0
 40
3.0
 40
3.0
 40
4.0
 40
4.0
 40
4.0
 40
4.0
 10
101.986183231449
 20
-139.8092199650479
 30
0.0
 10
101.986183231449
 20
-139.7540807983948
 30
0.0
 10
101.9414157325912
 20
-139.7093132984062
 30
0.0
 10
101.8862765673312
 20
-139.7093132984062
 30
0.0
 10
101.8311726798481
 20
-139.7093132984062
 30
0.0
 10
101.7863699032134
 20
-139.7540807983948
 30
0.0
 10
101.7863699032134
 20
-139.8092199650479
 30
0.0
 10
101.7863699032134
 20
-139.8643238539228
 30
0.0
 10
101.8311726798481
 20
-139.9091266316895
 30
0.0
 10
101.8862765673312
 20
-139.9091266316895
 30
0.0
 10
101.9414157325912
 20
-139.9091266316895
 30
0.0
 10
101.986183231449
 20
-139.8643238539228
 30
0.0
 10
101.986183231449
 20
-139.8092199650479
 30
0.0
  0
SPLINE
  5
65
330
1F
100
AcDbEntity
  8
_U+30EC_U+30A4_U+30E4_U+30FC 1
 62
   179
420
  2234388
370
     9
100
AcDbSpline
210
0.0
220
0.0
230
1.0
 70
    11
 71
     3
 72
    17
 73
    13
 74
     0
 42
0.0000000001
 43
0.0000000001
 12
1.0
 22
0.0
 32
0.0
 13
1.0
 23
0.0
 33
0.0
 40
0.0
 40
0.0
 40
0.0
 40
0.0
 40
1.0
 40
1.0
 40
1.0
 40
2.0
 40
2.0
 40
2.0
 40
3.0
 40
3.0
 40
3.0
 40
4.0
 40
4.0
 40
4.0
 40
4.0
 10
81.98604735280612
 20
-139.8092199650479
 30
0.0
 10
81.98604735280612
 20
-139.7540807983948
 30
0.0
 10
81.94124457617136
 20
-139.7093132984062
 30
0.0
 10
81.88614068868829
 20
-139.7093132984062
 30
0.0
 10
81.83100152342834
 20
-139.7093132984062
 30
0.0
 10
81.78623609066457
 20
-139.7540807983948
 30
0.0
 10
81.78623609066457
 20
-139.8092199650479
 30
0.0
 10
81.78623609066457
 20
-139.8643238539228
 30
0.0
 10
81.83100152342834
 20
-139.9091266316895
 30
0.0
 10
81.88614068868829
 20
-139.9091266316895
 30
0.0
 10
81.94124457617136
 20
-139.9091266316895
 30
0.0
 10
81.98604735280612
 20
-139.8643238539228
 30
0.0
 10
81.98604735280612
 20
-139.8092199650479
 30
0.0
  0
SPLINE
  5
66
330
1F
100
AcDbEntity
  8
_U+30EC_U+30A4_U+30E4_U+30FC 1
 62
   179
420
  2234388
370
     9
100
AcDbSpline
210
0.0
220
0.0
230
1.0
 70
    11
 71
     3
 72
    17
 73
    13
 74
     0
 42
0.0000000001
 43
0.0000000001
 12
1.0
 22
0.0
 32
0.0
 13
1.0
 23
0.0
 33
0.0
 40
0.0
 40
0.0
 40
0.0
 40
0.0
 40
1.0
 40
1.0
 40
1.0
 40
2.0
 40
2.0
 40
2.0
 40
3.0
 40
3.0
 40
3.0
 40
4.0
 40
4.0
 40
4.0
 40
4.0
 10
77.98628828818181
 20
-135.8049805216046
 30
0.0
 10
77.98628828818181
 20
-135.7491710771741
 30
0.0
 10
77.94148551154704
 20
-135.7043682994074
 30
0.0
 10
77.88638162406397
 20
-135.7043682994074
 30
0.0
 10
77.83057218104335
 20
-135.7043682994074
 30
0.0
 10
77.78576940440858
 20
-135.7491710771741
 30
0.0
 10
77.78576940440858
 20
-135.8049805216046
 30
0.0
 10
77.78576940440858
 20
-135.8600844104795
 30
0.0
 10
77.83057218104335
 20
-135.9048871882462
 30
0.0
 10
77.88638162406397
 20
-135.9048871882462
 30
0.0
 10
77.94148551154704
 20
-135.9048871882462
 30
0.0
 10
77.98628828818181
 20
-135.8600844104795
 30
0.0
 10
77.98628828818181
 20
-135.8049805216046
 30
0.0
  0
SPLINE
  5
67
330
1F
100
AcDbEntity
  8
_U+30EC_U+30A4_U+30E4_U+30FC 1
 62
   179
420
  2234388
370
     9
100
AcDbSpline
210
0.0
220
0.0
230
1.0
 70
    11
 71
     3
 72
    17
 73
    13
 74
     0
 42
0.0000000001
 43
0.0000000001
 12
1.0
 22
0.0
 32
0.0
 13
1.0
 23
0.0
 33
0.0
 40
0.0
 40
0.0
 40
0.0
 40
0.0
 40
1.0
 40
1.0
 40
1.0
 40
2.0
 40
2.0
 40
2.0
 40
3.0
 40
3.0
 40
3.0
 40
4.0
 40
4.0
 40
4.0
 40
4.0
 10
77.98628828818181
 20
-115.8036094154936
 30
0.0
 10
77.98628828818181
 20
-115.7481527488406
 30
0.0
 10
77.94148551154704
 20
-115.7033499710742
 30
0.0
 10
77.88638162406397
 20
-115.7033499710742
 30
0.0
 10
77.83057218104335
 20
-115.7033499710742
 30
0.0
 10
77.78576940440858
 20
-115.7481527488406
 30
0.0
 10
77.78576940440858
 20
-115.8036094154936
 30
0.0
 10
77.78576940440858
 20
-115.8587485821463
 30
0.0
 10
77.83057218104335
 20
-115.9035160821352
 30
0.0
 10
77.88638162406397
 20
-115.9035160821352
 30
0.0
 10
77.94148551154704
 20
-115.9035160821352
 30
0.0
 10
77.98628828818181
 20
-115.8587485821463
 30
0.0
 10
77.98628828818181
 20
-115.8036094154936
 30
0.0
  0
SPLINE
  5
68
330
1F
100
AcDbEntity
  8
_U+30EC_U+30A4_U+30E4_U+30FC 1
 62
   179
420
  2234388
370
     9
100
AcDbSpline
210
0.0
220
0.0
230
1.0
 70
    11
 71
     3
 72
    17
 73
    13
 74
     0
 42
0.0000000001
 43
0.0000000001
 12
1.0
 22
0.0
 32
0.0
 13
1.0
 23
0.0
 33
0.0
 40
0.0
 40
0.0
 40
0.0
 40
0.0
 40
1.0
 40
1.0
 40
1.0
 40
2.0
 40
2.0
 40
2.0
 40
3.0
 40
3.0
 40
3.0
 40
4.0
 40
4.0
 40
4.0
 40
4.0
 10
105.9859422960733
 20
-134.3049694108683
 30
0.0
 10
105.9859422960733
 20
-134.2491599664379
 30
0.0
 10
105.9411747972155
 20
-134.2043924664487
 30
0.0
 10
105.8860356319555
 20
-134.2043924664487
 30
0.0
 10
105.8309317444724
 20
-134.2043924664487
 30
0.0
 10
105.7861289678377
 20
-134.2491599664379
 30
0.0
 10
105.7861289678377
 20
-134.3049694108683
 30
0.0
 10
105.7861289678377
 20
-134.3601085775214
 30
0.0
 10
105.8309317444724
 20
-134.40487607751
 30
0.0
 10
105.8860356319555
 20
-134.40487607751
 30
0.0
 10
105.9411747972155
 20
-134.40487607751
 30
0.0
 10
105.9859422960733
 20
-134.3601085775214
 30
0.0
 10
105.9859422960733
 20
-134.3049694108683
 30
0.0
  0
POLYLINE
  5
69
330
1F
100
AcDbEntity
  8
_U+30EC_U+30A4_U+30E4_U+30FC 1
 62
   179
420
  2234388
370
     9
100
AcDb2dPolyline
 66
     1
 10
0.0
 20
0.0
 30
0.0
  0
VERTEX
  5
6A
330
69
100
AcDbEntity
  8
_U+30EC_U+30A4_U+30E4_U+30FC 1
 62
   179
420
  2234388
370
     9
100
AcDbVertex
100
AcDb2dVertex
 10
105.8860356319555
 20
-134.3049694108683
 30
0.0
  0
VERTEX
  5
6B
330
69
100
AcDbEntity
  8
_U+30EC_U+30A4_U+30E4_U+30FC 1
 62
   179
420
  2234388
370
     9
100
AcDbVertex
100
AcDb2dVertex
 10
105.8860356319555
 20
-128.6384763567294
 30
0.0
  0
SEQEND
  5
6C
330
69
100
AcDbEntity
  8
_U+30EC_U+30A4_U+30E4_U+30FC 1
 62
   179
420
  2234388
370
     9
  0
POLYLINE
  5
6D
330
1F
100
AcDbEntity
  8
_U+30EC_U+30A4_U+30E4_U+30FC 1
 62
   179
420
  2234388
370
     9
100
AcDb2dPolyline
 66
     1
 10
0.0
 20
0.0
 30
0.0
  0
VERTEX
  5
6E
330
6D
100
AcDbEntity
  8
_U+30EC_U+30A4_U+30E4_U+30FC 1
 62
   179
420
  2234388
370
     9
100
AcDbVertex
100
AcDb2dVertex
 10
105.8860356319555
 20
-134.3049694108683
 30
0.0
  0
VERTEX
  5
6F
330
6D
100
AcDbEntity
  8
_U+30EC_U+30A4_U+30E4_U+30FC 1
 62
   179
420
  2234388
370
     9
100
AcDbVertex
100
AcDb2dVertex
 10
105.8860356319555
 20
-136.8047527435765
 30
0.0
  0
SEQEND
  5
70
330
6D
100
AcDbEntity
  8
_U+30EC_U+30A4_U+30E4_U+30FC 1
 62
   179
420
  2234388
370
     9
  0
POLYLINE
  5
71
330
1F
100
AcDbEntity
  8
_U+30EC_U+30A4_U+30E4_U+30FC 1
 62
   179
420
  2234388
370
     9
100
AcDb2dPolyline
 66
     1
 10
0.0
 20
0.0
 30
0.0
  0
VERTEX
  5
72
330
71
100
AcDbEntity
  8
_U+30EC_U+30A4_U+30E4_U+30FC 1
 62
   179
420
  2234388
370
     9
100
AcDbVertex
100
AcDb2dVertex
 10
104.4259942803154
 20
-134.3049694108683
 30
0.0
  0
VERTEX
  5
73
330
71
100
AcDbEntity
  8
_U+30EC_U+30A4_U+30E4_U+30FC 1
 62
   179
420
  2234388
370
     9
100
AcDbVertex
100
AcDb2dVertex
 10
106.886513384209
 20
-134.3049694108683
 30
0.0
  0
SEQEND
  5
74
330
71
100
AcDbEntity
  8
_U+30EC_U+30A4_U+30E4_U+30FC 1
 62
   179
420
  2234388
370
     9
  0
POLYLINE
  5
75
330
1F
100
AcDbEntity
  8
_U+30EC_U+30A4_U+30E4_U+30FC 1
 62
   179
420
  2234388
370
     9
100
AcDb2dPolyline
 66
     1
 10
0.0
 20
0.0
 30
0.0
  0
VERTEX
  5
76
330
75
100
AcDbEntity
  8
_U+30EC_U+30A4_U+30E4_U+30FC 1
 62
   179
420
  2234388
370
     9
100
AcDbVertex
100
AcDb2dVertex
 10
104.4259942803154
 20
-135.8049805216046
 30
0.0
  0
VERTEX
  5
77
330
75
100
AcDbEntity
  8
_U+30EC_U+30A4_U+30E4_U+30FC 1
 62
   179
420
  2234388
370
     9
100
AcDbVertex
100
AcDb2dVertex
 10
106.886513384209
 20
-135.8049805216046
 30
0.0
  0
SEQEND
  5
78
330
75
100
AcDbEntity
  8
_U+30EC_U+30A4_U+30E4_U+30FC 1
 62
   179
420
  2234388
370
     9
  0
INSERT
  5
7A
330
1F
100
AcDbEntity
  8
_U+30EC_U+30A4_U+30E4_U+30FC 1
100
AcDbBlockReference
  2
block 2
 10
0.0
 20
0.0
 30
0.0
  0
POLYLINE
  5
89
330
1F
100
AcDbEntity
  8
_U+30EC_U+30A4_U+30E4_U+30FC 1
 62
   179
420
  2234388
370
     9
100
AcDb2dPolyline
 66
     1
 10
0.0
 20
0.0
 30
0.0
  0
VERTEX
  5
8A
330
89
100
AcDbEntity
  8
_U+30EC_U+30A4_U+30E4_U+30FC 1
 62
   179
420
  2234388
370
     9
100
AcDbVertex
100
AcDb2dVertex
 10
77.88638162406397
 20
-115.8036094154936
 30
0.0
  0
VERTEX
  5
8B
330
89
100
AcDbEntity
  8
_U+30EC_U+30A4_U+30E4_U+30FC 1
 62
   179
420
  2234388
370
     9
100
AcDbVertex
100
AcDb2dVertex
 10
77.88638162406397
 20
-135.8049805216046
 30
0.0
  0
SEQEND
  5
8C
330
89
100
AcDbEntity
  8
_U+30EC_U+30A4_U+30E4_U+30FC 1
 62
   179
420
  2234388
370
     9
  0
POLYLINE
  5
8D
330
1F
100
AcDbEntity
  8
_U+30EC_U+30A4_U+30E4_U+30FC 1
 62
   179
420
  2234388
370
     9
100
AcDb2dPolyline
 66
     1
 10
0.0
 20
0.0
 30
0.0
  0
VERTEX
  5
8E
330
8D
100
AcDbEntity
  8
_U+30EC_U+30A4_U+30E4_U+30FC 1
 62
   179
420
  2234388
370
     9
100
AcDbVertex
100
AcDb2dVertex
 10
79.34638769792723
 20
-115.8036094154936
 30
0.0
  0
VERTEX
  5
8F
330
8D
100
AcDbEntity
  8
_U+30EC_U+30A4_U+30E4_U+30FC 1
 62
   179
420
  2234388
370
     9
100
AcDbVertex
100
AcDb2dVertex
 10
76.88590387181051
 20
-115.8036094154936
 30
0.0
  0
SEQEND
  5
90
330
8D
100
AcDbEntity
  8
_U+30EC_U+30A4_U+30E4_U+30FC 1
 62
   179
420
  2234388
370
     9
  0
POLYLINE
  5
91
330
1F
100
AcDbEntity
  8
_U+30EC_U+30A4_U+30E4_U+30FC 1
 62
   179
420
  2234388
370
     9
100
AcDb2dPolyline
 66
     1
 10
0.0
 20
0.0
 30
0.0
  0
VERTEX
  5
92
330
91
100
AcDbEntity
  8
_U+30EC_U+30A4_U+30E4_U+30FC 1
 62
   179
420
  2234388
370
     9
100
AcDbVertex
100
AcDb2dVertex
 10
79.34638769792723
 20
-135.8049805216046
 30
0.0
  0
VERTEX
  5
93
330
91
100
AcDbEntity
  8
_U+30EC_U+30A4_U+30E4_U+30FC 1
 62
   179
420
  2234388
370
     9
100
AcDbVertex
100
AcDb2dVertex
 10
76.88590387181051
 20
-135.8049805216046
 30
0.0
  0
SEQEND
  5
94
330
91
100
AcDbEntity
  8
_U+30EC_U+30A4_U+30E4_U+30FC 1
 62
   179
420
  2234388
370
     9
  0
INSERT
  5
96
330
1F
100
AcDbEntity
  8
_U+30EC_U+30A4_U+30E4_U+30FC 1
100
AcDbBlockReference
  2
block 3
 10
0.0
 20
0.0
 30
0.0
  0
POLYLINE
  5
9E
330
1F
100
AcDbEntity
  8
_U+30EC_U+30A4_U+30E4_U+30FC 1
 62
   179
420
  2234388
370
     9
100
AcDb2dPolyline
 66
     1
 10
0.0
 20
0.0
 30
0.0
  0
VERTEX
  5
9F
330
9E
100
AcDbEntity
  8
_U+30EC_U+30A4_U+30E4_U+30FC 1
 62
   179
420
  2234388
370
     9
100
AcDbVertex
100
AcDb2dVertex
 10
81.88614068868829
 20
-139.8092199650479
 30
0.0
  0
VERTEX
  5
A0
330
9E
100
AcDbEntity
  8
_U+30EC_U+30A4_U+30E4_U+30FC 1
 62
   179
420
  2234388
370
     9
100
AcDbVertex
100
AcDb2dVertex
 10
101.8862765673312
 20
-139.8092199650479
 30
0.0
  0
SEQEND
  5
A1
330
9E
100
AcDbEntity
  8
_U+30EC_U+30A4_U+30E4_U+30FC 1
 62
   179
420
  2234388
370
     9
  0
POLYLINE
  5
A2
330
1F
100
AcDbEntity
  8
_U+30EC_U+30A4_U+30E4_U+30FC 1
 62
   179
420
  2234388
370
     9
100
AcDb2dPolyline
 66
     1
 10
0.0
 20
0.0
 30
0.0
  0
VERTEX
  5
A3
330
A2
100
AcDbEntity
  8
_U+30EC_U+30A4_U+30E4_U+30FC 1
 62
   179
420
  2234388
370
     9
100
AcDbVertex
100
AcDb2dVertex
 10
81.88614068868829
 20
-138.3491785765235
 30
0.0
  0
VERTEX
  5
A4
330
A2
100
AcDbEntity
  8
_U+30EC_U+30A4_U+30E4_U+30FC 1
 62
   179
420
  2234388
370
     9
100
AcDbVertex
100
AcDb2dVertex
 10
81.88614068868829
 20
-140.8089921870198
 30
0.0
  0
SEQEND
  5
A5
330
A2
100
AcDbEntity
  8
_U+30EC_U+30A4_U+30E4_U+30FC 1
 62
   179
420
  2234388
370
     9
  0
POLYLINE
  5
A6
330
1F
100
AcDbEntity
  8
_U+30EC_U+30A4_U+30E4_U+30FC 1
 62
   179
420
  2234388
370
     9
100
AcDb2dPolyline
 66
     1
 10
0.0
 20
0.0
 30
0.0
  0
VERTEX
  5
A7
330
A6
100
AcDbEntity
  8
_U+30EC_U+30A4_U+30E4_U+30FC 1
 62
   179
420
  2234388
370
     9
100
AcDbVertex
100
AcDb2dVertex
 10
101.8862765673312
 20
-138.3491785765235
 30
0.0
  0
VERTEX
  5
A8
330
A6
100
AcDbEntity
  8
_U+30EC_U+30A4_U+30E4_U+30FC 1
 62
   179
420
  2234388
370
     9
100
AcDbVertex
100
AcDb2dVertex
 10
101.8862765673312
 20
-140.8089921870198
 30
0.0
  0
SEQEND
  5
A9
330
A6
100
AcDbEntity
  8
_U+30EC_U+30A4_U+30E4_U+30FC 1
 62
   179
420
  2234388
370
     9
  0
INSERT
  5
AB
330
1F
100
AcDbEntity
  8
_U+30EC_U+30A4_U+30E4_U+30FC 1
100
AcDbBlockReference
  2
block 4
 10
0.0
 20
0.0
 30
0.0
  0
POLYLINE
  5
B3
330
1F
100
AcDbEntity
  8
_U+30EC_U+30A4_U+30E4_U+30FC 1
 62
   179
420
  2234388
370
     9
100
AcDb2dPolyline
 66
     1
 10
0.0
 20
0.0
 30
0.0
  0
VERTEX
  5
B4
330
B3
100
AcDbEntity
  8
_U+30EC_U+30A4_U+30E4_U+30FC 1
 62
   179
420
  2234388
370
     9
100
AcDbVertex
100
AcDb2dVertex
 10
81.6363740283937
 20
-120.9803763586437
 30
0.0
  0
VERTEX
  5
B5
330
B3
100
AcDbEntity
  8
_U+30EC_U+30A4_U+30E4_U+30FC 1
 62
   179
420
  2234388
370
     9
100
AcDbVertex
100
AcDb2dVertex
 10
88.13623608907707
 20
-120.9803763586437
 30
0.0
  0
SEQEND
  5
B6
330
B3
100
AcDbEntity
  8
_U+30EC_U+30A4_U+30E4_U+30FC 1
 62
   179
420
  2234388
370
     9
  0
POLYLINE
  5
B7
330
1F
100
AcDbEntity
  8
_U+30EC_U+30A4_U+30E4_U+30FC 1
 62
   179
420
  2234388
370
     9
100
AcDb2dPolyline
 66
     1
 10
0.0
 20
0.0
 30
0.0
  0
VERTEX
  5
B8
330
B7
100
AcDbEntity
  8
_U+30EC_U+30A4_U+30E4_U+30FC 1
 62
   179
420
  2234388
370
     9
100
AcDbVertex
100
AcDb2dVertex
 10
81.6363740283937
 20
-120.9803763586437
 30
0.0
  0
VERTEX
  5
B9
330
B7
100
AcDbEntity
  8
_U+30EC_U+30A4_U+30E4_U+30FC 1
 62
   179
420
  2234388
370
     9
100
AcDbVertex
100
AcDb2dVertex
 10
82.6023501148607
 20
-120.7220019142639
 30
0.0
  0
SEQEND
  5
BA
330
B7
100
AcDbEntity
  8
_U+30EC_U+30A4_U+30E4_U+30FC 1
 62
   179
420
  2234388
370
     9
  0
POLYLINE
  5
BB
330
1F
100
AcDbEntity
  8
_U+30EC_U+30A4_U+30E4_U+30FC 1
 62
   179
420
  2234388
370
     9
100
AcDb2dPolyline
 66
     1
 10
0.0
 20
0.0
 30
0.0
  0
VERTEX
  5
BC
330
BB
100
AcDbEntity
  8
_U+30EC_U+30A4_U+30E4_U+30FC 1
 62
   179
420
  2234388
370
     9
100
AcDbVertex
100
AcDb2dVertex
 10
81.6363740283937
 20
-120.9803763586437
 30
0.0
  0
VERTEX
  5
BD
330
BB
100
AcDbEntity
  8
_U+30EC_U+30A4_U+30E4_U+30FC 1
 62
   179
420
  2234388
370
     9
100
AcDbVertex
100
AcDb2dVertex
 10
82.6023501148607
 20
-121.2394563585791
 30
0.0
  0
SEQEND
  5
BE
330
BB
100
AcDbEntity
  8
_U+30EC_U+30A4_U+30E4_U+30FC 1
 62
   179
420
  2234388
370
     9
  0
POLYLINE
  5
BF
330
1F
100
AcDbEntity
  8
_U+30EC_U+30A4_U+30E4_U+30FC 1
 62
   179
420
  2234388
370
     9
100
AcDb2dPolyline
 66
     1
 10
0.0
 20
0.0
 30
0.0
  0
VERTEX
  5
C0
330
BF
100
AcDbEntity
  8
_U+30EC_U+30A4_U+30E4_U+30FC 1
 62
   179
420
  2234388
370
     9
100
AcDbVertex
100
AcDb2dVertex
 10
93.45855678234024
 20
-136.5050327436516
 30
0.0
  0
VERTEX
  5
C1
330
BF
100
AcDbEntity
  8
_U+30EC_U+30A4_U+30E4_U+30FC 1
 62
   179
420
  2234388
370
     9
100
AcDbVertex
100
AcDb2dVertex
 10
93.71763677573057
 20
-135.5390213550039
 30
0.0
  0
SEQEND
  5
C2
330
BF
100
AcDbEntity
  8
_U+30EC_U+30A4_U+30E4_U+30FC 1
 62
   179
420
  2234388
370
     9
  0
POLYLINE
  5
C3
330
1F
100
AcDbEntity
  8
_U+30EC_U+30A4_U+30E4_U+30FC 1
 62
   179
420
  2234388
370
     9
100
AcDb2dPolyline
 66
     1
 10
0.0
 20
0.0
 30
0.0
  0
VERTEX
  5
C4
330
C3
100
AcDbEntity
  8
_U+30EC_U+30A4_U+30E4_U+30FC 1
 62
   179
420
  2234388
370
     9
100
AcDbVertex
100
AcDb2dVertex
 10
93.45855678234024
 20
-136.5050327436516
 30
0.0
  0
VERTEX
  5
C5
330
C3
100
AcDbEntity
  8
_U+30EC_U+30A4_U+30E4_U+30FC 1
 62
   179
420
  2234388
370
     9
100
AcDbVertex
100
AcDb2dVertex
 10
93.45855678234024
 20
-122.5975096915727
 30
0.0
  0
SEQEND
  5
C6
330
C3
100
AcDbEntity
  8
_U+30EC_U+30A4_U+30E4_U+30FC 1
 62
   179
420
  2234388
370
     9
  0
POLYLINE
  5
C7
330
1F
100
AcDbEntity
  8
_U+30EC_U+30A4_U+30E4_U+30FC 1
 62
   179
420
  2234388
370
     9
100
AcDb2dPolyline
 66
     1
 10
0.0
 20
0.0
 30
0.0
  0
VERTEX
  5
C8
330
C7
100
AcDbEntity
  8
_U+30EC_U+30A4_U+30E4_U+30FC 1
 62
   179
420
  2234388
370
     9
100
AcDbVertex
100
AcDb2dVertex
 10
93.45855678234024
 20
-136.5050327436516
 30
0.0
  0
VERTEX
  5
C9
330
C7
100
AcDbEntity
  8
_U+30EC_U+30A4_U+30E4_U+30FC 1
 62
   179
420
  2234388
370
     9
100
AcDbVertex
100
AcDb2dVertex
 10
93.20018234448747
 20
-135.5390213550039
 30
0.0
  0
SEQEND
  5
CA
330
C7
100
AcDbEntity
  8
_U+30EC_U+30A4_U+30E4_U+30FC 1
 62
   179
420
  2234388
370
     9
  0
INSERT
  5
CC
330
1F
100
AcDbEntity
  8
_U+30EC_U+30A4_U+30E4_U+30FC 1
100
AcDbBlockReference
  2
block 5
 10
0.0
 20
0.0
 30
0.0
  0
ENDSEC
  0
SECTION
  2
OBJECTS
  0
DICTIONARY
  5
C
330
0
100
AcDbDictionary
281
     1
  3
ACAD_GROUP
350
D
  3
ACAD_LAYOUT
350
1A
  3
ACAD_MATERIAL
350
3B
  3
ACAD_MLEADERSTYLE
350
F4
  3
ACAD_MLINESTYLE
350
17
  3
ACAD_PLOTSETTINGS
350
19
  3
ACAD_PLOTSTYLENAME
350
E
  3
ACAD_TABLESTYLE
350
F3
  3
ACAD_VISUALSTYLE
350
2A
  0
SUN
  5
3F
330
29
100
AcDbSun
 90
        1
290
     0
 63
     7
421
 16777215
 40
1.0
291
     1
 91
  2455826
 92
 54000000
292
     0
 70
     2
 71
   256
280
     1
  0
DICTIONARY
  5
D
102
{ACAD_REACTORS
330
C
102
}
330
C
100
AcDbDictionary
281
     1
  0
DICTIONARY
  5
1A
102
{ACAD_REACTORS
330
C
102
}
330
C
100
AcDbDictionary
281
     1
  3
Layout1
350
1E
  3
Layout2
350
26
  3
Model
350
22
  0
DICTIONARY
  5
3B
102
{ACAD_REACTORS
330
C
102
}
330
C
100
AcDbDictionary
281
     1
  3
ByBlock
350
3D
  3
ByLayer
350
3C
  3
Global
350
3E
  0
DICTIONARY
  5
F4
102
{ACAD_REACTORS
330
C
102
}
330
C
100
AcDbDictionary
281
     1
  0
DICTIONARY
  5
17
102
{ACAD_REACTORS
330
C
102
}
330
C
100
AcDbDictionary
281
     1
  3
Standard
350
18
  0
DICTIONARY
  5
19
102
{ACAD_REACTORS
330
C
102
}
330
C
100
AcDbDictionary
281
     1
  0
ACDBDICTIONARYWDFLT
  5
E
102
{ACAD_REACTORS
330
C
102
}
330
C
100
AcDbDictionary
281
     1
  3
Normal
350
F
100
AcDbDictionaryWithDefault
340
F
  0
DICTIONARY
  5
F3
102
{ACAD_REACTORS
330
C
102
}
330
C
100
AcDbDictionary
281
     1
  0
DICTIONARY
  5
2A
102
{ACAD_REACTORS
330
C
102
}
330
C
100
AcDbDictionary
281
     1
  3
2dWireframe
350
2F
  3
3D Hidden
350
31
  3
3dWireframe
350
30
  3
Basic
350
32
  3
Brighten
350
36
  3
ColorChange
350
3A
  3
Conceptual
350
34
  3
Dim
350
35
  3
Facepattern
350
39
  3
Flat
350
2B
  3
FlatWithEdges
350
2C
  3
Gouraud
350
2D
  3
GouraudWithEdges
350
2E
  3
Linepattern
350
38
  3
Realistic
350
33
  3
Thicken
350
37
  0
LAYOUT
  5
1E
102
{ACAD_REACTORS
330
1A
102
}
330
1A
100
AcDbPlotSettings
  1

  2
none_device
  4

  6

 40
0.0
 41
0.0
 42
0.0
 43
0.0
 44
0.0
 45
0.0
 46
0.0
 47
0.0
 48
0.0
 49
0.0
140
0.0
141
0.0
142
1.0
143
1.0
 70
   688
 72
     0
 73
     0
 74
     5
  7

 75
    16
 76
     0
 77
     2
 78
   300
147
1.0
148
0.0
149
0.0
100
AcDbLayout
  1
Layout1
 70
     1
 71
     1
 10
0.0
 20
0.0
 11
12.0
 21
9.0
 12
0.0
 22
0.0
 32
0.0
 14
1.000000000000000E+20
 24
1.000000000000000E+20
 34
1.000000000000000E+20
 15
-1.000000000000000E+20
 25
-1.000000000000000E+20
 35
-1.000000000000000E+20
146
0.0
 13
0.0
 23
0.0
 33
0.0
 16
1.0
 26
0.0
 36
0.0
 17
0.0
 27
1.0
 37
0.0
 76
     0
330
1B
  0
LAYOUT
  5
26
102
{ACAD_REACTORS
330
1A
102
}
330
1A
100
AcDbPlotSettings
  1

  2
none_device
  4

  6

 40
0.0
 41
0.0
 42
0.0
 43
0.0
 44
0.0
 45
0.0
 46
0.0
 47
0.0
 48
0.0
 49
0.0
140
0.0
141
0.0
142
1.0
143
1.0
 70
   688
 72
     0
 73
     0
 74
     5
  7

 75
    16
 76
     0
 77
     2
 78
   300
147
1.0
148
0.0
149
0.0
100
AcDbLayout
  1
Layout2
 70
     1
 71
     2
 10
0.0
 20
0.0
 11
0.0
 21
0.0
 12
0.0
 22
0.0
 32
0.0
 14
0.0
 24
0.0
 34
0.0
 15
0.0
 25
0.0
 35
0.0
146
0.0
 13
0.0
 23
0.0
 33
0.0
 16
1.0
 26
0.0
 36
0.0
 17
0.0
 27
1.0
 37
0.0
 76
     0
330
23
  0
LAYOUT
  5
22
102
{ACAD_REACTORS
330
1A
102
}
330
1A
100
AcDbPlotSettings
  1

  2
none_device
  4

  6

 40
0.0
 41
0.0
 42
0.0
 43
0.0
 44
0.0
 45
0.0
 46
0.0
 47
0.0
 48
0.0
 49
0.0
140
0.0
141
0.0
142
1.0
143
1.0
 70
  1712
 72
     0
 73
     0
 74
     0
  7

 75
     0
 76
     0
 77
     2
 78
   300
147
1.0
148
0.0
149
0.0
100
AcDbLayout
  1
Model
 70
     1
 71
     0
 10
0.0
 20
0.0
 11
12.0
 21
9.0
 12
0.0
 22
0.0
 32
0.0
 14
1.000000000000000E+20
 24
1.000000000000000E+20
 34
1.000000000000000E+20
 15
-1.000000000000000E+20
 25
-1.000000000000000E+20
 35
-1.000000000000000E+20
146
0.0
 13
0.0
 23
0.0
 33
0.0
 16
1.0
 26
0.0
 36
0.0
 17
0.0
 27
1.0
 37
0.0
 76
     0
330
1F
331
29
  0
MATERIAL
  5
3D
102
{ACAD_REACTORS
330
3B
102
}
330
3B
100
AcDbMaterial
  1
ByBlock
 72
     1
 94
      127
  0
MATERIAL
  5
3C
102
{ACAD_REACTORS
330
3B
102
}
330
3B
100
AcDbMaterial
  1
ByLayer
 72
     1
 94
      127
  0
MATERIAL
  5
3E
102
{ACAD_REACTORS
330
3B
102
}
330
3B
100
AcDbMaterial
  1
Global
 72
     1
 94
      127
  0
MLINESTYLE
  5
18
102
{ACAD_REACTORS
330
17
102
}
330
17
100
AcDbMlineStyle
  2
Standard
 70
     0
  3

 62
   256
 51
90.0
 52
90.0
 71
     2
 49
0.5
 62
   256
  6
BYLAYER
 49
-0.5
 62
   256
  6
BYLAYER
  0
ACDBPLACEHOLDER
  5
F
102
{ACAD_REACTORS
330
E
102
}
330
E
  0
VISUALSTYLE
  5
2F
102
{ACAD_REACTORS
330
2A
102
}
330
2A
100
AcDbVisualStyle
  2
2dWireframe
 70
     4
177
     2
291
     0
 71
     0
176
     1
 72
     2
176
     1
 73
     0
176
     1
 90
        0
176
     1
 40
-0.6
176
     1
 41
-30.0
176
     1
 62
     5
 63
     7
421
 16777215
176
     1
 74
     1
176
     1
 91
        4
176
     1
 64
     7
176
     1
 65
   257
176
     1
 75
     1
176
     1
175
     1
176
     1
 42
1.0
176
     1
 92
        0
176
     1
 66
   257
176
     1
 43
1.0
176
     1
 76
     1
176
     1
 77
     6
176
     1
 78
     2
176
     1
 67
     7
176
     1
 79
     5
176
     1
170
     0
176
     1
171
     0
176
     1
290
     0
176
     1
 93
        1
176
     1
 44
0.0
176
     1
173
     0
176
     1
  0
VISUALSTYLE
  5
31
102
{ACAD_REACTORS
330
2A
102
}
330
2A
100
AcDbVisualStyle
  2
3D Hidden
 70
     6
177
     2
291
     0
 71
     1
176
     1
 72
     2
176
     1
 73
     2
176
     1
 90
        0
176
     1
 40
-0.6
176
     1
 41
-30.0
176
     1
 62
     5
 63
     7
421
 16777215
176
     1
 74
     2
176
     1
 91
        2
176
     1
 64
     7
176
     1
 65
   257
176
     1
 75
     2
176
     1
175
     1
176
     1
 42
40.0
176
     1
 92
        0
176
     1
 66
   257
176
     1
 43
1.0
176
     1
 76
     1
176
     1
 77
     6
176
     1
 78
     2
176
     1
 67
     7
176
     1
 79
     3
176
     1
170
     0
176
     1
171
     0
176
     1
290
     0
176
     1
 93
        1
176
     1
 44
0.0
176
     1
173
     0
176
     1
  0
VISUALSTYLE
  5
30
102
{ACAD_REACTORS
330
2A
102
}
330
2A
100
AcDbVisualStyle
  2
3dWireframe
 70
     5
177
     2
291
     0
 71
     0
176
     1
 72
     2
176
     1
 73
     0
176
     1
 90
        0
176
     1
 40
-0.6
176
     1
 41
-30.0
176
     1
 62
     5
 63
     7
421
 16777215
176
     1
 74
     1
176
     1
 91
        4
176
     1
 64
     7
176
     1
 65
   257
176
     1
 75
     1
176
     1
175
     1
176
     1
 42
1.0
176
     1
 92
        0
176
     1
 66
   257
176
     1
 43
1.0
176
     1
 76
     1
176
     1
 77
     6
176
     1
 78
     2
176
     1
 67
     7
176
     1
 79
     5
176
     1
170
     0
176
     1
171
     0
176
     1
290
     0
176
     1
 93
        1
176
     1
 44
0.0
176
     1
173
     0
176
     1
  0
VISUALSTYLE
  5
32
102
{ACAD_REACTORS
330
2A
102
}
330
2A
100
AcDbVisualStyle
  2
Basic
 70
     7
177
     2
291
     1
 71
     1
176
     1
 72
     0
176
     1
 73
     1
176
     1
 90
        0
176
     1
 40
-0.6
176
     1
 41
-30.0
176
     1
 62
     5
 63
     7
421
 16777215
176
     1
 74
     0
176
     1
 91
        4
176
     1
 64
     7
176
     1
 65
   257
176
     1
 75
     1
176
     1
175
     1
176
     1
 42
1.0
176
     1
 92
        8
176
     1
 66
     7
176
     1
 43
1.0
176
     1
 76
     1
176
     1
 77
     6
176
     1
 78
     2
176
     1
 67
     7
176
     1
 79
     5
176
     1
170
     0
176
     1
171
     0
176
     1
290
     0
176
     1
 93
        1
176
     1
 44
0.0
176
     1
173
     0
176
     1
  0
VISUALSTYLE
  5
36
102
{ACAD_REACTORS
330
2A
102
}
330
2A
100
AcDbVisualStyle
  2
Brighten
 70
    12
177
     2
291
     1
 71
     2
176
     1
 72
     2
176
     1
 73
     0
176
     1
 90
        0
176
     1
 40
-0.6
176
     1
 41
-30.0
176
     1
 62
     5
 63
     7
421
 16777215
176
     1
 74
     1
176
     1
 91
        4
176
     1
 64
     7
176
     1
 65
   257
176
     1
 75
     1
176
     1
175
     1
176
     1
 42
1.0
176
     1
 92
        8
176
     1
 66
     7
176
     1
 43
1.0
176
     1
 76
     1
176
     1
 77
     6
176
     1
 78
     2
176
     1
 67
     7
176
     1
 79
     5
176
     1
170
     0
176
     1
171
     0
176
     1
290
     0
176
     1
 93
        1
176
     1
 44
50.0
176
     1
173
     0
176
     1
  0
VISUALSTYLE
  5
3A
102
{ACAD_REACTORS
330
2A
102
}
330
2A
100
AcDbVisualStyle
  2
ColorChange
 70
    16
177
     2
291
     1
 71
     2
176
     1
 72
     2
176
     1
 73
     3
176
     1
 90
        0
176
     1
 40
-0.6
176
     1
 41
-30.0
176
     1
 62
     5
 63
     8
421
  8421504
176
     1
 74
     1
176
     1
 91
        4
176
     1
 64
     7
176
     1
 65
   257
176
     1
 75
     1
176
     1
175
     1
176
     1
 42
1.0
176
     1
 92
        8
176
     1
 66
     8
424
  8421504
176
     1
 43
1.0
176
     1
 76
     1
176
     1
 77
     6
176
     1
 78
     2
176
     1
 67
     7
176
     1
 79
     5
176
     1
170
     0
176
     1
171
     0
176
     1
290
     0
176
     1
 93
        1
176
     1
 44
0.0
176
     1
173
     0
176
     1
  0
VISUALSTYLE
  5
34
102
{ACAD_REACTORS
330
2A
102
}
330
2A
100
AcDbVisualStyle
  2
Conceptual
 70
     9
177
     2
291
     0
 71
     3
176
     1
 72
     2
176
     1
 73
     0
176
     1
 90
        0
176
     1
 40
-0.6
176
     1
 41
-30.0
176
     1
 62
     5
 63
     7
421
 16777215
176
     1
 74
     2
176
     1
 91
        2
176
     1
 64
     7
176
     1
 65
   257
176
     1
 75
     1
176
     1
175
     1
176
     1
 42
40.0
176
     1
 92
        8
176
     1
 66
     7
176
     1
 43
1.0
176
     1
 76
     1
176
     1
 77
     6
176
     1
 78
     2
176
     1
 67
     7
176
     1
 79
     3
176
     1
170
     0
176
     1
171
     0
176
     1
290
     0
176
     1
 93
        1
176
     1
 44
0.0
176
     1
173
     0
176
     1
  0
VISUALSTYLE
  5
35
102
{ACAD_REACTORS
330
2A
102
}
330
2A
100
AcDbVisualStyle
  2
Dim
 70
    11
177
     2
291
     1
 71
     2
176
     1
 72
     2
176
     1
 73
     0
176
     1
 90
        0
176
     1
 40
-0.6
176
     1
 41
-30.0
176
     1
 62
     5
 63
     7
421
 16777215
176
     1
 74
     1
176
     1
 91
        4
176
     1
 64
     7
176
     1
 65
   257
176
     1
 75
     1
176
     1
175
     1
176
     1
 42
1.0
176
     1
 92
        8
176
     1
 66
     7
176
     1
 43
1.0
176
     1
 76
     1
176
     1
 77
     6
176
     1
 78
     2
176
     1
 67
     7
176
     1
 79
     5
176
     1
170
     0
176
     1
171
     0
176
     1
290
     0
176
     1
 93
        1
176
     1
 44
-50.0
176
     1
173
     0
176
     1
  0
VISUALSTYLE
  5
39
102
{ACAD_REACTORS
330
2A
102
}
330
2A
100
AcDbVisualStyle
  2
Facepattern
 70
    15
177
     2
291
     1
 71
     2
176
     1
 72
     2
176
     1
 73
     0
176
     1
 90
        0
176
     1
 40
-0.6
176
     1
 41
-30.0
176
     1
 62
     5
 63
     7
421
 16777215
176
     1
 74
     1
176
     1
 91
        4
176
     1
 64
     7
176
     1
 65
   257
176
     1
 75
     1
176
     1
175
     1
176
     1
 42
1.0
176
     1
 92
        8
176
     1
 66
     7
176
     1
 43
1.0
176
     1
 76
     1
176
     1
 77
     6
176
     1
 78
     2
176
     1
 67
     7
176
     1
 79
     5
176
     1
170
     0
176
     1
171
     0
176
     1
290
     0
176
     1
 93
        1
176
     1
 44
0.0
176
     1
173
     0
176
     1
  0
VISUALSTYLE
  5
2B
102
{ACAD_REACTORS
330
2A
102
}
330
2A
100
AcDbVisualStyle
  2
Flat
 70
     0
177
     2
291
     1
 71
     2
176
     1
 72
     1
176
     1
 73
     1
176
     1
 90
        2
176
     1
 40
-0.6
176
     1
 41
30.0
176
     1
 62
     5
 63
     7
421
 16777215
176
     1
 74
     0
176
     1
 91
        4
176
     1
 64
     7
176
     1
 65
   257
176
     1
 75
     1
176
     1
175
     1
176
     1
 42
1.0
176
     1
 92
        8
176
     1
 66
     7
176
     1
 43
1.0
176
     1
 76
     1
176
     1
 77
     6
176
     1
 78
     2
176
     1
 67
     7
176
     1
 79
     5
176
     1
170
     0
176
     1
171
     0
176
     1
290
     0
176
     1
 93
       13
176
     1
 44
0.0
176
     1
173
     0
176
     1
  0
VISUALSTYLE
  5
2C
102
{ACAD_REACTORS
330
2A
102
}
330
2A
100
AcDbVisualStyle
  2
FlatWithEdges
 70
     1
177
     2
291
     1
 71
     2
176
     1
 72
     1
176
     1
 73
     1
176
     1
 90
        2
176
     1
 40
-0.6
176
     1
 41
30.0
176
     1
 62
     5
 63
     7
421
 16777215
176
     1
 74
     1
176
     1
 91
        4
176
     1
 64
     7
176
     1
 65
   257
176
     1
 75
     1
176
     1
175
     1
176
     1
 42
1.0
176
     1
 92
        0
176
     1
 66
   257
176
     1
 43
1.0
176
     1
 76
     1
176
     1
 77
     6
176
     1
 78
     2
176
     1
 67
     7
176
     1
 79
     5
176
     1
170
     0
176
     1
171
     0
176
     1
290
     0
176
     1
 93
       13
176
     1
 44
0.0
176
     1
173
     0
176
     1
  0
VISUALSTYLE
  5
2D
102
{ACAD_REACTORS
330
2A
102
}
330
2A
100
AcDbVisualStyle
  2
Gouraud
 70
     2
177
     2
291
     1
 71
     2
176
     1
 72
     2
176
     1
 73
     1
176
     1
 90
        2
176
     1
 40
-0.6
176
     1
 41
30.0
176
     1
 62
     5
 63
     7
421
 16777215
176
     1
 74
     0
176
     1
 91
        4
176
     1
 64
     7
176
     1
 65
   257
176
     1
 75
     1
176
     1
175
     1
176
     1
 42
1.0
176
     1
 92
        0
176
     1
 66
     7
176
     1
 43
1.0
176
     1
 76
     1
176
     1
 77
     6
176
     1
 78
     2
176
     1
 67
     7
176
     1
 79
     5
176
     1
170
     0
176
     1
171
     0
176
     1
290
     0
176
     1
 93
       13
176
     1
 44
0.0
176
     1
173
     0
176
     1
  0
VISUALSTYLE
  5
2E
102
{ACAD_REACTORS
330
2A
102
}
330
2A
100
AcDbVisualStyle
  2
GouraudWithEdges
 70
     3
177
     2
291
     1
 71
     2
176
     1
 72
     2
176
     1
 73
     1
176
     1
 90
        2
176
     1
 40
-0.6
176
     1
 41
30.0
176
     1
 62
     5
 63
     7
421
 16777215
176
     1
 74
     1
176
     1
 91
        4
176
     1
 64
     7
176
     1
 65
   257
176
     1
 75
     1
176
     1
175
     1
176
     1
 42
1.0
176
     1
 92
        0
176
     1
 66
   257
176
     1
 43
1.0
176
     1
 76
     1
176
     1
 77
     6
176
     1
 78
     2
176
     1
 67
     7
176
     1
 79
     5
176
     1
170
     0
176
     1
171
     0
176
     1
290
     0
176
     1
 93
       13
176
     1
 44
0.0
176
     1
173
     0
176
     1
  0
VISUALSTYLE
  5
38
102
{ACAD_REACTORS
330
2A
102
}
330
2A
100
AcDbVisualStyle
  2
Linepattern
 70
    14
177
     2
291
     1
 71
     2
176
     1
 72
     2
176
     1
 73
     0
176
     1
 90
        0
176
     1
 40
-0.6
176
     1
 41
-30.0
176
     1
 62
     5
 63
     7
421
 16777215
176
     1
 74
     1
176
     1
 91
        4
176
     1
 64
     7
176
     1
 65
   257
176
     1
 75
     7
176
     1
175
     7
176
     1
 42
1.0
176
     1
 92
        8
176
     1
 66
     7
176
     1
 43
1.0
176
     1
 76
     1
176
     1
 77
     6
176
     1
 78
     2
176
     1
 67
     7
176
     1
 79
     5
176
     1
170
     0
176
     1
171
     0
176
     1
290
     0
176
     1
 93
        1
176
     1
 44
0.0
176
     1
173
     0
176
     1
  0
VISUALSTYLE
  5
33
102
{ACAD_REACTORS
330
2A
102
}
330
2A
100
AcDbVisualStyle
  2
Realistic
 70
     8
177
     2
291
     0
 71
     2
176
     1
 72
     2
176
     1
 73
     0
176
     1
 90
        0
176
     1
 40
-0.6
176
     1
 41
-30.0
176
     1
 62
     5
 63
     7
421
 16777215
176
     1
 74
     1
176
     1
 91
        0
176
     1
 64
     7
176
     1
 65
   257
176
     1
 75
     1
176
     1
175
     1
176
     1
 42
1.0
176
     1
 92
        8
176
     1
 66
     8
424
  7895160
176
     1
 43
1.0
176
     1
 76
     1
176
     1
 77
     6
176
     1
 78
     2
176
     1
 67
     7
176
     1
 79
     5
176
     1
170
     0
176
     1
171
     0
176
     1
290
     0
176
     1
 93
       13
176
     1
 44
0.0
176
     1
173
     0
176
     1
  0
VISUALSTYLE
  5
37
102
{ACAD_REACTORS
330
2A
102
}
330
2A
100
AcDbVisualStyle
  2
Thicken
 70
    13
177
     2
291
     1
 71
     2
176
     1
 72
     2
176
     1
 73
     0
176
     1
 90
        0
176
     1
 40
-0.6
176
     1
 41
-30.0
176
     1
 62
     5
 63
     7
421
 16777215
176
     1
 74
     1
176
     1
 91
        4
176
     1
 64
     7
176
     1
 65
   257
176
     1
 75
     1
176
     1
175
     1
176
     1
 42
1.0
176
     1
 92
       12
176
     1
 66
     7
176
     1
 43
1.0
176
     1
 76
     1
176
     1
 77
     6
176
     1
 78
     2
176
     1
 67
     7
176
     1
 79
     5
176
     1
170
     0
176
     1
171
     0
176
     1
290
     0
176
     1
 93
        1
176
     1
 44
0.0
176
     1
173
     0
176
     1
  0
ENDSEC
  0
EOF
