  0
SECTION
  2
HEADER
  9
$ACADVER
  1
AC1024
  9
$ACADMAINTVER
 70
     6
  9
$DWGCODEPAGE
  3
UNDEFINED
  9
$INSBASE
 10
0.0
 20
0.0
 30
0.0
  9
$EXTMIN
 10
1.000000000000000E+20
 20
1.000000000000000E+20
 30
1.000000000000000E+20
  9
$EXTMAX
 10
-1.000000000000000E+20
 20
-1.000000000000000E+20
 30
-1.000000000000000E+20
  9
$LIMMIN
 10
0.0
 20
0.0
  9
$LIMMAX
 10
12.0
 20
9.0
  9
$ORTHOMODE
 70
     0
  9
$REGENMODE
 70
     1
  9
$FILLMODE
 70
     1
  9
$QTEXTMODE
 70
     0
  9
$MIRRTEXT
 70
     1
  9
$LTSCALE
 40
1.0
  9
$ATTMODE
 70
     1
  9
$TEXTSIZE
 40
0.2
  9
$TRACEWID
 40
0.05
  9
$TEXTSTYLE
  7
Standard
  9
$CLAYER
  8
0
  9
$CELTYPE
  6
ByLayer
  9
$CECOLOR
 62
   256
  9
$CELTSCALE
 40
1.0
  9
$DISPSILH
 70
     0
  9
$DIMSCALE
 40
1.0
  9
$DIMASZ
 40
0.18
  9
$DIMEXO
 40
0.0625
  9
$DIMDLI
 40
0.38
  9
$DIMRND
 40
0.0
  9
$DIMDLE
 40
0.0
  9
$DIMEXE
 40
0.18
  9
$DIMTP
 40
0.0
  9
$DIMTM
 40
0.0
  9
$DIMTXT
 40
0.18
  9
$DIMCEN
 40
0.09
  9
$DIMTSZ
 40
0.0
  9
$DIMTOL
 70
     0
  9
$DIMLIM
 70
     0
  9
$DIMTIH
 70
     1
  9
$DIMTOH
 70
     1
  9
$DIMSE1
 70
     0
  9
$DIMSE2
 70
     0
  9
$DIMTAD
 70
     0
  9
$DIMZIN
 70
     0
  9
$DIMBLK
  1

  9
$DIMASO
 70
     1
  9
$DIMSHO
 70
     1
  9
$DIMPOST
  1

  9
$DIMAPOST
  1

  9
$DIMALT
 70
     0
  9
$DIMALTD
 70
     2
  9
$DIMALTF
 40
25.4
  9
$DIMLFAC
 40
1.0
  9
$DIMTOFL
 70
     0
  9
$DIMTVP
 40
0.0
  9
$DIMTIX
 70
     0
  9
$DIMSOXD
 70
     0
  9
$DIMSAH
 70
     0
  9
$DIMBLK1
  1

  9
$DIMBLK2
  1

  9
$DIMSTYLE
  2
Standard
  9
$DIMCLRD
 70
     0
  9
$DIMCLRE
 70
     0
  9
$DIMCLRT
 70
     0
  9
$DIMTFAC
 40
1.0
  9
$DIMGAP
 40
0.09
  9
$DIMJUST
 70
     0
  9
$DIMSD1
 70
     0
  9
$DIMSD2
 70
     0
  9
$DIMTOLJ
 70
     1
  9
$DIMTZIN
 70
     0
  9
$DIMALTZ
 70
     0
  9
$DIMALTTZ
 70
     0
  9
$DIMUPT
 70
     0
  9
$DIMDEC
 70
     4
  9
$DIMTDEC
 70
     4
  9
$DIMALTU
 70
     2
  9
$DIMALTTD
 70
     2
  9
$DIMTXSTY
  7
Standard
  9
$DIMAUNIT
 70
     0
  9
$DIMADEC
 70
     0
  9
$DIMALTRND
 40
0.0
  9
$DIMAZIN
 70
     0
  9
$DIMDSEP
 70
    46
  9
$DIMATFIT
 70
     3
  9
$DIMFRAC
 70
     0
  9
$DIMLDRBLK
  1

  9
$DIMLUNIT
 70
     2
  9
$DIMLWD
 70
    -2
  9
$DIMLWE
 70
    -2
  9
$DIMTMOVE
 70
     0
  9
$DIMFXL
 40
1.0
  9
$DIMFXLON
 70
     0
  9
$DIMJOGANG
 40
0.7853981633974483
  9
$DIMTFILL
 70
     0
  9
$DIMTFILLCLR
 70
     0
  9
$DIMARCSYM
 70
     0
  9
$DIMLTYPE
  6

  9
$DIMLTEX1
  6

  9
$DIMLTEX2
  6

  9
$DIMTXTDIRECTION
 70
     0
  9
$LUNITS
 70
     2
  9
$LUPREC
 70
     4
  9
$SKETCHINC
 40
0.1
  9
$FILLETRAD
 40
0.5
  9
$AUNITS
 70
     0
  9
$AUPREC
 70
     0
  9
$MENU
  1
.
  9
$ELEVATION
 40
0.0
  9
$PELEVATION
 40
0.0
  9
$THICKNESS
 40
0.0
  9
$LIMCHECK
 70
     0
  9
$CHAMFERA
 40
0.5
  9
$CHAMFERB
 40
0.5
  9
$CHAMFERC
 40
1.0
  9
$CHAMFERD
 40
0.0
  9
$SKPOLY
 70
     0
  9
$TDCREATE
 40
2457917.596678229
  9
$TDUCREATE
 40
2457917.221678241
  9
$TDUPDATE
 40
2457917.596678229
  9
$TDUUPDATE
 40
2457917.221678241
  9
$TDINDWG
 40
0.0000000116
  9
$TDUSRTIMER
 40
0.0000000116
  9
$USRTIMER
 70
     1
  9
$ANGBASE
 50
0.0
  9
$ANGDIR
 70
     0
  9
$PDMODE
 70
     0
  9
$PDSIZE
 40
0.0
  9
$PLINEWID
 40
0.0
  9
$SPLFRAME
 70
     0
  9
$SPLINETYPE
 70
     6
  9
$SPLINESEGS
 70
     8
  9
$HANDSEED
  5
F5
  9
$SURFTAB1
 70
     6
  9
$SURFTAB2
 70
     6
  9
$SURFTYPE
 70
     6
  9
$SURFU
 70
     6
  9
$SURFV
 70
     6
  9
$UCSBASE
  2

  9
$UCSNAME
  2

  9
$UCSORG
 10
0.0
 20
0.0
 30
0.0
  9
$UCSXDIR
 10
1.0
 20
0.0
 30
0.0
  9
$UCSYDIR
 10
0.0
 20
1.0
 30
0.0
  9
$UCSORTHOREF
  2

  9
$UCSORTHOVIEW
 70
     0
  9
$UCSORGTOP
 10
0.0
 20
0.0
 30
0.0
  9
$UCSORGBOTTOM
 10
0.0
 20
0.0
 30
0.0
  9
$UCSORGLEFT
 10
0.0
 20
0.0
 30
0.0
  9
$UCSORGRIGHT
 10
0.0
 20
0.0
 30
0.0
  9
$UCSORGFRONT
 10
0.0
 20
0.0
 30
0.0
  9
$UCSORGBACK
 10
0.0
 20
0.0
 30
0.0
  9
$PUCSBASE
  2

  9
$PUCSNAME
  2

  9
$PUCSORG
 10
0.0
 20
0.0
 30
0.0
  9
$PUCSXDIR
 10
1.0
 20
0.0
 30
0.0
  9
$PUCSYDIR
 10
0.0
 20
1.0
 30
0.0
  9
$PUCSORTHOREF
  2

  9
$PUCSORTHOVIEW
 70
     0
  9
$PUCSORGTOP
 10
0.0
 20
0.0
 30
0.0
  9
$PUCSORGBOTTOM
 10
0.0
 20
0.0
 30
0.0
  9
$PUCSORGLEFT
 10
0.0
 20
0.0
 30
0.0
  9
$PUCSORGRIGHT
 10
0.0
 20
0.0
 30
0.0
  9
$PUCSORGFRONT
 10
0.0
 20
0.0
 30
0.0
  9
$PUCSORGBACK
 10
0.0
 20
0.0
 30
0.0
  9
$USERI1
 70
     0
  9
$USERI2
 70
     0
  9
$USERI3
 70
     0
  9
$USERI4
 70
     0
  9
$USERI5
 70
     0
  9
$USERR1
 40
0.0
  9
$USERR2
 40
0.0
  9
$USERR3
 40
0.0
  9
$USERR4
 40
0.0
  9
$USERR5
 40
0.0
  9
$WORLDVIEW
 70
     1
  9
$SHADEDGE
 70
     3
  9
$SHADEDIF
 70
    70
  9
$TILEMODE
 70
     1
  9
$MAXACTVP
 70
    64
  9
$PINSBASE
 10
0.0
 20
0.0
 30
0.0
  9
$PLIMCHECK
 70
     0
  9
$PEXTMIN
 10
1.000000000000000E+20
 20
1.000000000000000E+20
 30
1.000000000000000E+20
  9
$PEXTMAX
 10
-1.000000000000000E+20
 20
-1.000000000000000E+20
 30
-1.000000000000000E+20
  9
$PLIMMIN
 10
0.0
 20
0.0
  9
$PLIMMAX
 10
12.0
 20
9.0
  9
$UNITMODE
 70
     0
  9
$VISRETAIN
 70
     1
  9
$PLINEGEN
 70
     0
  9
$PSLTSCALE
 70
     1
  9
$TREEDEPTH
 70
  3020
  9
$CMLSTYLE
  2
Standard
  9
$CMLJUST
 70
     0
  9
$CMLSCALE
 40
1.0
  9
$PROXYGRAPHICS
 70
     1
  9
$MEASUREMENT
 70
     0
  9
$CELWEIGHT
370
    -1
  9
$ENDCAPS
280
     0
  9
$JOINSTYLE
280
     0
  9
$LWDISPLAY
290
     1
  9
$INSUNITS
 70
     1
  9
$HYPERLINKBASE
  1

  9
$STYLESHEET
  1

  9
$XEDIT
290
     1
  9
$CEPSNTYPE
380
     0
  9
$PSTYLEMODE
290
     1
  9
$FINGERPRINTGUID
  2
{8E1277E9-262D-0B5D-B2C5-AF893783AD1C}
  9
$VERSIONGUID
  2
{FAEB1C32-E019-11D5-929B-00C0DF256EC4}
  9
$EXTNAMES
290
     1
  9
$PSVPSCALE
 40
0.0
  9
$OLESTARTUP
290
     0
  9
$SORTENTS
280
   127
  9
$INDEXCTL
280
     0
  9
$HIDETEXT
280
     1
  9
$XCLIPFRAME
280
     2
  9
$HALOGAP
280
     0
  9
$OBSCOLOR
 70
   257
  9
$OBSLTYPE
280
     0
  9
$INTERSECTIONDISPLAY
280
     0
  9
$INTERSECTIONCOLOR
 70
   257
  9
$DIMASSOC
280
     2
  9
$PROJECTNAME
  1

  9
$CAMERADISPLAY
290
     0
  9
$LENSLENGTH
 40
50.0
  9
$CAMERAHEIGHT
 40
0.0
  9
$STEPSPERSEC
 40
2.0
  9
$STEPSIZE
 40
6.0
  9
$3DDWFPREC
 40
2.0
  9
$PSOLWIDTH
 40
0.25
  9
$PSOLHEIGHT
 40
4.0
  9
$LOFTANG1
 40
1.570796326794897
  9
$LOFTANG2
 40
1.570796326794897
  9
$LOFTMAG1
 40
0.0
  9
$LOFTMAG2
 40
0.0
  9
$LOFTPARAM
 70
     7
  9
$LOFTNORMALS
280
     1
  9
$LATITUDE
 40
37.795
  9
$LONGITUDE
 40
-122.394
  9
$NORTHDIRECTION
 40
0.0
  9
$TIMEZONE
 70
 -8000
  9
$LIGHTGLYPHDISPLAY
280
     1
  9
$TILEMODELIGHTSYNCH
280
     1
  9
$CMATERIAL
347
3C
  9
$SOLIDHIST
280
     1
  9
$SHOWHIST
280
     1
  9
$DWFFRAME
280
     2
  9
$DGNFRAME
280
     2
  9
$REALWORLDSCALE
290
     1
  9
$INTERFERECOLOR
 62
   256
  9
$CSHADOW
280
     0
  9
$SHADOWPLANELOCATION
 40
0.0
  0
ENDSEC
  0
SECTION
  2
CLASSES
  0
CLASS
  1
ACDBDICTIONARYWDFLT
  2
AcDbDictionaryWithDefault
  3
ObjectDBX Classes
 90
        0
 91
        4
280
     0
281
     0
  0
CLASS
  1
VISUALSTYLE
  2
AcDbVisualStyle
  3
ObjectDBX Classes
 90
     4095
 91
        4
280
     0
281
     0
  0
CLASS
  1
MATERIAL
  2
AcDbMaterial
  3
ObjectDBX Classes
 90
     1153
 91
        4
280
     0
281
     0
  0
CLASS
  1
SUN
  2
AcDbSun
  3
SCENEOE
 90
     1024
 91
        4
280
     0
281
     0
  0
ENDSEC
  0
SECTION
  2
TABLES
  0
TABLE
  2
VPORT
  5
8
330
0
100
AcDbSymbolTable
 70
     1
  0
VPORT
  5
29
330
8
100
AcDbSymbolTableRecord
100
AcDbViewportTableRecord
  2
*Active
 70
     0
 10
0.0
 20
0.0
 11
1.0
 21
1.0
 12
0.0
 22
0.0
 13
0.0
 23
0.0
 14
0.5
 24
0.5
 15
0.5
 25
0.5
 16
0.0
 26
0.0
 36
1.0
 17
91.00082462281999
 27
-128.4993055234307
 37
0.0
 40
256.9986110468615
 41
0.7081814508812795
 42
50.0
 43
0.0
 44
0.0
 50
0.0
 51
0.0
 71
     0
 72
   100
 73
     1
 74
     3
 75
     0
 76
     0
 77
     0
 78
     0
281
     0
 65
     1
110
0.0
120
0.0
130
0.0
111
1.0
121
0.0
131
0.0
112
0.0
122
1.0
132
0.0
 79
     0
146
0.0
 60
     3
 61
     5
292
     1
282
     1
141
0.0
142
0.0
 63
   250
361
3F
  0
ENDTAB
  0
TABLE
  2
LTYPE
  5
5
330
0
100
AcDbSymbolTable
 70
     3
  0
LTYPE
  5
14
330
5
100
AcDbSymbolTableRecord
100
AcDbLinetypeTableRecord
  2
ByBlock
 70
     0
  3

 72
    65
 73
     0
 40
0.0
  0
LTYPE
  5
15
330
5
100
AcDbSymbolTableRecord
100
AcDbLinetypeTableRecord
  2
ByLayer
 70
     0
  3

 72
    65
 73
     0
 40
0.0
  0
LTYPE
  5
16
330
5
100
AcDbSymbolTableRecord
100
AcDbLinetypeTableRecord
  2
Continuous
 70
     0
  3
Solid line
 72
    65
 73
     0
 40
0.0
  0
LTYPE
  5
44
330
5
100
AcDbSymbolTableRecord
100
AcDbLinetypeTableRecord
  2
AI-Linetype-1
 70
     0
  3
Adobe Illustrator Linetype No. 1
 72
    65
 73
     2
 40
1.411111110758333
 49
0.7055555553791667
 74
     0
 49
-0.7055555553791667
 74
     0
  0
LTYPE
  5
49
330
5
100
AcDbSymbolTableRecord
100
AcDbLinetypeTableRecord
  2
AI-Linetype-2
 70
     0
  3
Adobe Illustrator Linetype No. 2
 72
    65
 73
     2
 40
1.411111110758333
 49
0.7055555553791667
 74
     0
 49
-0.7055555553791667
 74
     0
  0
ENDTAB
  0
TABLE
  2
LAYER
  5
2
330
0
100
AcDbSymbolTable
 70
     2
  0
LAYER
  5
10
330
2
100
AcDbSymbolTableRecord
100
AcDbLayerTableRecord
  2
0
 70
     0
 62
     7
  6
Continuous
370
    -3
390
F
347
3E
  0
LAYER
  5
40
330
2
100
AcDbSymbolTableRecord
100
AcDbLayerTableRecord
  2
_U+30EC_U+30A4_U+30E4_U+30FC 1
 70
     0
 62
     7
  6
Continuous
370
    -3
390
F
347
3E
  0
ENDTAB
  0
TABLE
  2
STYLE
  5
3
330
0
100
AcDbSymbolTable
 70
     1
  0
STYLE
  5
11
330
3
100
AcDbSymbolTableRecord
100
AcDbTextStyleTableRecord
  2
Standard
 70
     0
 40
0.0
 41
1.0
 50
0.0
 71
     0
 42
0.2
  3
txt
  4

  0
ENDTAB
  0
TABLE
  2
VIEW
  5
6
330
0
100
AcDbSymbolTable
 70
     0
  0
ENDTAB
  0
TABLE
  2
UCS
  5
7
330
0
100
AcDbSymbolTable
 70
     0
  0
ENDTAB
  0
TABLE
  2
APPID
  5
9
330
0
100
AcDbSymbolTable
 70
     1
  0
APPID
  5
12
330
9
100
AcDbSymbolTableRecord
100
AcDbRegAppTableRecord
  2
ACAD
 70
     0
  0
ENDTAB
  0
TABLE
  2
DIMSTYLE
  5
A
330
0
100
AcDbSymbolTable
 70
     1
100
AcDbDimStyleTable
  0
DIMSTYLE
105
27
330
A
100
AcDbSymbolTableRecord
100
AcDbDimStyleTableRecord
  2
Standard
 70
     0
178
     0
340
11
  0
ENDTAB
  0
TABLE
  2
BLOCK_RECORD
  5
1
330
0
100
AcDbSymbolTable
 70
     5
  0
BLOCK_RECORD
  5
1F
330
1
100
AcDbSymbolTableRecord
100
AcDbBlockTableRecord
  2
*Model_Space
340
22
 70
     0
280
     1
281
     0
  0
BLOCK_RECORD
  5
1B
330
1
100
AcDbSymbolTableRecord
100
AcDbBlockTableRecord
  2
*Paper_Space
340
1E
 70
     0
280
     1
281
     0
  0
BLOCK_RECORD
  5
23
330
1
100
AcDbSymbolTableRecord
100
AcDbBlockTableRecord
  2
*Paper_Space0
340
26
 70
     0
280
     1
281
     0
  0
BLOCK_RECORD
  5
63
330
1
100
AcDbSymbolTableRecord
100
AcDbBlockTableRecord
  2
block 2
340
0
102
{BLKREFS
331
64
102
}
 70
     0
280
     1
281
     0
  0
BLOCK_RECORD
  5
B9
330
1
100
AcDbSymbolTableRecord
100
AcDbBlockTableRecord
  2
block 3
340
0
102
{BLKREFS
331
BA
102
}
 70
     0
280
     1
281
     0
  0
BLOCK_RECORD
  5
D5
330
1
100
AcDbSymbolTableRecord
100
AcDbBlockTableRecord
  2
block 4
340
0
102
{BLKREFS
331
D6
102
}
 70
     0
280
     1
281
     0
  0
BLOCK_RECORD
  5
EA
330
1
100
AcDbSymbolTableRecord
100
AcDbBlockTableRecord
  2
block 5
340
0
102
{BLKREFS
331
EB
102
}
 70
     0
280
     1
281
     0
  0
ENDTAB
  0
ENDSEC
  0
SECTION
  2
BLOCKS
  0
BLOCK
  5
20
330
1F
100
AcDbEntity
  8
0
100
AcDbBlockBegin
  2
*Model_Space
 70
     0
 10
0.0
 20
0.0
 30
0.0
  3
*Model_Space
  1

  0
ENDBLK
  5
21
330
1F
100
AcDbEntity
  8
0
100
AcDbBlockEnd
  0
BLOCK
  5
1C
330
1B
100
AcDbEntity
 67
     1
  8
0
100
AcDbBlockBegin
  2
*Paper_Space
 70
     0
 10
0.0
 20
0.0
 30
0.0
  3
*Paper_Space
  1

  0
ENDBLK
  5
1D
330
1B
100
AcDbEntity
 67
     1
  8
0
100
AcDbBlockEnd
  0
BLOCK
  5
24
330
23
100
AcDbEntity
  8
0
100
AcDbBlockBegin
  2
*Paper_Space0
 70
     0
 10
0.0
 20
0.0
 30
0.0
  3
*Paper_Space0
  1

  0
ENDBLK
  5
25
330
23
100
AcDbEntity
  8
0
100
AcDbBlockEnd
  0
BLOCK
  5
65
330
63
100
AcDbEntity
  8
0
100
AcDbBlockBegin
  2
block 2
 70
     0
 10
0.0
 20
0.0
 30
0.0
  3
block 2
  1

  0
SPLINE
  5
67
330
63
100
AcDbEntity
  8
_U+30EC_U+30A4_U+30E4_U+30FC 1
370
     0
100
AcDbSpline
210
0.0
220
0.0
230
1.0
 70
    11
 71
     3
 72
   242
 73
   238
 74
     0
 42
0.0000000001
 43
0.0000000001
 12
1.0
 22
0.0
 32
0.0
 13
1.0
 23
0.0
 33
0.0
 40
0.0
 40
0.0
 40
0.0
 40
0.0
 40
1.0
 40
1.0
 40
1.0
 40
2.0
 40
2.0
 40
2.0
 40
3.0
 40
3.0
 40
3.0
 40
4.0
 40
4.0
 40
4.0
 40
5.0
 40
5.0
 40
5.0
 40
6.0
 40
6.0
 40
6.0
 40
7.0
 40
7.0
 40
7.0
 40
8.0
 40
8.0
 40
8.0
 40
9.0
 40
9.0
 40
9.0
 40
10.0
 40
10.0
 40
10.0
 40
11.0
 40
11.0
 40
11.0
 40
12.0
 40
12.0
 40
12.0
 40
13.0
 40
13.0
 40
13.0
 40
14.0
 40
14.0
 40
14.0
 40
15.0
 40
15.0
 40
15.0
 40
16.0
 40
16.0
 40
16.0
 40
17.0
 40
17.0
 40
17.0
 40
18.0
 40
18.0
 40
18.0
 40
19.0
 40
19.0
 40
19.0
 40
20.0
 40
20.0
 40
20.0
 40
21.0
 40
21.0
 40
21.0
 40
22.0
 40
22.0
 40
22.0
 40
23.0
 40
23.0
 40
23.0
 40
24.0
 40
24.0
 40
24.0
 40
25.0
 40
25.0
 40
25.0
 40
26.0
 40
26.0
 40
26.0
 40
27.0
 40
27.0
 40
27.0
 40
28.0
 40
28.0
 40
28.0
 40
29.0
 40
29.0
 40
29.0
 40
30.0
 40
30.0
 40
30.0
 40
31.0
 40
31.0
 40
31.0
 40
32.0
 40
32.0
 40
32.0
 40
33.0
 40
33.0
 40
33.0
 40
34.0
 40
34.0
 40
34.0
 40
35.0
 40
35.0
 40
35.0
 40
36.0
 40
36.0
 40
36.0
 40
37.0
 40
37.0
 40
37.0
 40
38.0
 40
38.0
 40
38.0
 40
39.0
 40
39.0
 40
39.0
 40
40.0
 40
40.0
 40
40.0
 40
41.0
 40
41.0
 40
41.0
 40
42.0
 40
42.0
 40
42.0
 40
43.0
 40
43.0
 40
43.0
 40
44.0
 40
44.0
 40
44.0
 40
45.0
 40
45.0
 40
45.0
 40
46.0
 40
46.0
 40
46.0
 40
47.0
 40
47.0
 40
47.0
 40
48.0
 40
48.0
 40
48.0
 40
49.0
 40
49.0
 40
49.0
 40
50.0
 40
50.0
 40
50.0
 40
51.0
 40
51.0
 40
51.0
 40
52.0
 40
52.0
 40
52.0
 40
53.0
 40
53.0
 40
53.0
 40
54.0
 40
54.0
 40
54.0
 40
55.0
 40
55.0
 40
55.0
 40
56.0
 40
56.0
 40
56.0
 40
57.0
 40
57.0
 40
57.0
 40
58.0
 40
58.0
 40
58.0
 40
59.0
 40
59.0
 40
59.0
 40
60.0
 40
60.0
 40
60.0
 40
61.0
 40
61.0
 40
61.0
 40
62.0
 40
62.0
 40
62.0
 40
63.0
 40
63.0
 40
63.0
 40
64.0
 40
64.0
 40
64.0
 40
65.0
 40
65.0
 40
65.0
 40
66.0
 40
66.0
 40
66.0
 40
67.0
 40
67.0
 40
67.0
 40
68.0
 40
68.0
 40
68.0
 40
69.0
 40
69.0
 40
69.0
 40
70.0
 40
70.0
 40
70.0
 40
71.0
 40
71.0
 40
71.0
 40
72.0
 40
72.0
 40
72.0
 40
73.0
 40
73.0
 40
73.0
 40
74.0
 40
74.0
 40
74.0
 40
75.0
 40
75.0
 40
75.0
 40
76.0
 40
76.0
 40
76.0
 40
77.0
 40
77.0
 40
77.0
 40
78.0
 40
78.0
 40
78.0
 40
79.0
 40
79.0
 40
79.0
 40
79.0
 10
94.1592827455574
 20
-118.8687133491891
 30
0.0
 10
94.1592827455574
 20
-118.8687133491891
 30
0.0
 10
93.93741859630731
 20
-118.8687133491891
 30
0.0
 10
93.93741859630731
 20
-118.8687133491891
 30
0.0
 10
93.93741859630731
 20
-118.8687133491891
 30
0.0
 10
93.6945393645972
 20
-118.8687133491891
 30
0.0
 10
93.6945393645972
 20
-118.8687133491891
 30
0.0
 10
93.6945393645972
 20
-118.8687133491891
 30
0.0
 10
93.80581594877077
 20
-118.9110880236577
 30
0.0
 10
93.80581594877077
 20
-118.9110880236577
 30
0.0
 10
93.81511770658095
 20
-118.9153943930142
 30
0.0
 10
93.82614201213374
 20
-118.9215955648877
 30
0.0
 10
93.82614201213374
 20
-118.9343424181831
 30
0.0
 10
93.82614201213374
 20
-118.9555297554174
 30
0.0
 10
93.79823673870322
 20
-118.9619031820651
 30
0.0
 10
93.7799777326314
 20
-118.9660372966474
 30
0.0
 10
93.77067597482123
 20
-118.9892916911728
 30
0.0
 10
93.74449324913333
 20
-119.0549207601668
 30
0.0
 10
93.72795679080413
 20
-119.0993624919266
 30
0.0
 10
93.72795679080413
 20
-119.0993624919266
 30
0.0
 10
93.96497936018932
 20
-119.0993624919266
 30
0.0
 10
93.96497936018932
 20
-119.0993624919266
 30
0.0
 10
94.04456106589859
 20
-119.0993624919266
 30
0.0
 10
94.21681584016108
 20
-119.09505612257
 30
0.0
 10
94.34083927763007
 20
-119.0866156386311
 30
0.0
 10
94.34083927763007
 20
-119.0866156386311
 30
0.0
 10
94.34083927763007
 20
-119.26438256567
 30
0.0
 10
94.34083927763007
 20
-119.26438256567
 30
0.0
 10
94.26883678198836
 20
-119.2600761963135
 30
0.0
 10
94.250233266368
 20
-119.2600761963135
 30
0.0
 10
94.09279240269208
 20
-119.2559420817312
 30
0.0
 10
94.06488712926156
 20
-119.4102823594704
 30
0.0
 10
94.02630205982676
 20
-119.4907253390509
 30
0.0
 10
93.98737248084343
 20
-119.5604885226272
 30
0.0
 10
94.09279240269208
 20
-119.6197441649735
 30
0.0
 10
94.18546547124531
 20
-119.6874402912587
 30
0.0
 10
94.27607148250738
 20
-119.7699503281304
 30
0.0
 10
94.27607148250738
 20
-119.7699503281304
 30
0.0
 10
94.17237410840136
 20
-119.9370374591651
 30
0.0
 10
94.17237410840136
 20
-119.9370374591651
 30
0.0
 10
94.15204804503838
 20
-119.9180894339962
 30
0.0
 10
94.14102373948558
 20
-119.9096489500573
 30
0.0
 10
94.04283851815596
 20
-119.8248996011202
 30
0.0
 10
94.00011933413886
 20
-119.7868312960082
 30
0.0
 10
93.94844290186012
 20
-119.7510023029616
 30
0.0
 10
93.87816295396102
 20
-119.7065605712018
 30
0.0
 10
93.69281681685457
 20
-119.8927679821796
 30
0.0
 10
93.51332734207305
 20
-119.916022376705
 30
0.0
 10
93.25942380481015
 20
-119.9456501978782
 30
0.0
 10
93.25942380481015
 20
-119.9456501978782
 30
0.0
 10
93.16881779354807
 20
-119.7658162135481
 30
0.0
 10
93.16881779354807
 20
-119.7658162135481
 30
0.0
 10
93.44649248965922
 20
-119.7615098441916
 30
0.0
 10
93.60014374830136
 20
-119.736188392375
 30
0.0
 10
93.73346894358052
 20
-119.6261175916213
 30
0.0
 10
93.6297715694745
 20
-119.5753024332138
 30
0.0
 10
93.55225692105638
 20
-119.5479139241061
 30
0.0
 10
93.52056204259209
 20
-119.5351670708107
 30
0.0
 10
93.50402558426289
 20
-119.5627278346927
 30
0.0
 10
93.49093422141894
 20
-119.5816758598615
 30
0.0
 10
93.4668185530222
 20
-119.6156100503912
 30
0.0
 10
93.4668185530222
 20
-119.6156100503912
 30
0.0
 10
93.2945637787597
 20
-119.5331000135195
 30
0.0
 10
93.2945637787597
 20
-119.5331000135195
 30
0.0
 10
93.36691078394995
 20
-119.4526570339389
 30
0.0
 10
93.42065427351984
 20
-119.3574001437718
 30
0.0
 10
93.47060815805597
 20
-119.2559420817312
 30
0.0
 10
93.30386553656987
 20
-119.2600761963135
 30
0.0
 10
93.28560653049804
 20
-119.2600761963135
 30
0.0
 10
93.2132595253078
 20
-119.26438256567
 30
0.0
 10
93.2132595253078
 20
-119.26438256567
 30
0.0
 10
93.2132595253078
 20
-119.0866156386311
 30
0.0
 10
93.2132595253078
 20
-119.0866156386311
 30
0.0
 10
93.33556041503417
 20
-119.0929890652788
 30
0.0
 10
93.51883949484946
 20
-119.0972954346354
 30
0.0
 10
93.54088810595506
 20
-119.0972954346354
 30
0.0
 10
93.55570201654163
 20
-119.0633612441057
 30
0.0
 10
93.60393335333514
 20
-118.9427829021219
 30
0.0
 10
93.62046981166434
 20
-118.8687133491891
 30
0.0
 10
93.60393335333514
 20
-118.8687133491891
 30
0.0
 10
93.44821503740184
 20
-118.8750867758368
 30
0.0
 10
93.2780273204305
 20
-118.8878336291322
 30
0.0
 10
93.2780273204305
 20
-118.8878336291322
 30
0.0
 10
93.2780273204305
 20
-119.0211588244114
 30
0.0
 10
93.2780273204305
 20
-119.0211588244114
 30
0.0
 10
93.2353081364134
 20
-119.046480276228
 30
0.0
 10
93.18363170413465
 20
-119.0781751546923
 30
0.0
 10
93.06684296718468
 20
-119.1438042236863
 30
0.0
 10
93.06684296718468
 20
-119.1438042236863
 30
0.0
 10
93.06684296718468
 20
-119.2897040174866
 30
0.0
 10
93.06684296718468
 20
-119.2897040174866
 30
0.0
 10
93.06684296718468
 20
-119.2897040174866
 30
0.0
 10
93.06684296718468
 20
-119.7573757296093
 30
0.0
 10
93.06684296718468
 20
-119.7573757296093
 30
0.0
 10
93.06684296718468
 20
-119.8841552434665
 30
0.0
 10
93.0354925982689
 20
-119.9434108858128
 30
0.0
 10
92.78744572333092
 20
-119.9349704018739
 30
0.0
 10
92.78744572333092
 20
-119.9349704018739
 30
0.0
 10
92.69649520252032
 20
-119.7277479084361
 30
0.0
 10
92.69649520252032
 20
-119.7277479084361
 30
0.0
 10
92.75230574938138
 20
-119.7403225069573
 30
0.0
 10
92.79468042384994
 20
-119.7446288763139
 30
0.0
 10
92.8298203977995
 20
-119.7446288763139
 30
0.0
 10
92.89665525021334
 20
-119.7446288763139
 30
0.0
 10
92.90595700802352
 20
-119.7213744817884
 30
0.0
 10
92.90595700802352
 20
-119.6557454127944
 30
0.0
 10
92.90595700802352
 20
-119.6557454127944
 30
0.0
 10
92.90595700802352
 20
-119.226314260558
 30
0.0
 10
92.90595700802352
 20
-119.226314260558
 30
0.0
 10
92.82051863998932
 20
-119.2664496229612
 30
0.0
 10
92.80570472940275
 20
-119.2728230496089
 30
0.0
 10
92.7650526026768
 20
-119.291943329552
 30
0.0
 10
92.76126299764302
 20
-119.312958412012
 30
0.0
 10
92.75781790215777
 20
-119.3425862331852
 30
0.0
 10
92.74093693428004
 20
-119.3425862331852
 30
0.0
 10
92.73370223376102
 20
-119.3425862331852
 30
0.0
 10
92.72440047595084
 20
-119.3384521186029
 30
0.0
 10
92.71888832317445
 20
-119.3151977240774
 30
0.0
 10
92.71888832317445
 20
-119.3151977240774
 30
0.0
 10
92.67237953412358
 20
-119.122616886452
 30
0.0
 10
92.67237953412358
 20
-119.122616886452
 30
0.0
 10
92.80019257662634
 20
-119.0761080974011
 30
0.0
 10
92.85772567123001
 20
-119.0528537028757
 30
0.0
 10
92.90595700802352
 20
-119.0316663656414
 30
0.0
 10
92.90595700802352
 20
-119.0316663656414
 30
0.0
 10
92.90595700802352
 20
-118.6191161812827
 30
0.0
 10
92.90595700802352
 20
-118.6191161812827
 30
0.0
 10
92.90595700802352
 20
-118.6191161812827
 30
0.0
 10
92.85944821897264
 20
-118.6191161812827
 30
0.0
 10
92.85944821897264
 20
-118.6191161812827
 30
0.0
 10
92.85944821897264
 20
-118.6191161812827
 30
0.0
 10
92.79089081881617
 20
-118.6191161812827
 30
0.0
 10
92.79089081881617
 20
-118.6191161812827
 30
0.0
 10
92.73163517646988
 20
-118.6191161812827
 30
0.0
 10
92.72440047595084
 20
-118.6191161812827
 30
0.0
 10
92.69305010703508
 20
-118.6254896079304
 30
0.0
 10
92.69305010703508
 20
-118.6254896079304
 30
0.0
 10
92.69305010703508
 20
-118.4308417130138
 30
0.0
 10
92.69305010703508
 20
-118.4308417130138
 30
0.0
 10
92.7168212658833
 20
-118.4372151396615
 30
0.0
 10
92.72440047595084
 20
-118.4372151396615
 30
0.0
 10
92.78537866603978
 20
-118.4372151396615
 30
0.0
 10
92.78537866603978
 20
-118.4372151396615
 30
0.0
 10
92.90216740298975
 20
-118.4372151396615
 30
0.0
 10
92.90216740298975
 20
-118.4372151396615
 30
0.0
 10
92.90216740298975
 20
-118.3674519560852
 30
0.0
 10
92.90216740298975
 20
-118.2849419192135
 30
0.0
 10
92.90044485524712
 20
-118.2806355498569
 30
0.0
 10
92.89286564517957
 20
-118.1008015655269
 30
0.0
 10
92.89286564517957
 20
-118.081853540358
 30
0.0
 10
92.89114309743694
 20
-118.0353447513071
 30
0.0
 10
92.89114309743694
 20
-118.0353447513071
 30
0.0
 10
93.07993433002864
 20
-118.043785235246
 30
0.0
 10
93.07993433002864
 20
-118.043785235246
 30
0.0
 10
93.08923608783881
 20
-118.043785235246
 30
0.0
 10
93.10783960345915
 20
-118.0458522925371
 30
0.0
 10
93.10783960345915
 20
-118.0627332604149
 30
0.0
 10
93.10783960345915
 20
-118.081853540358
 30
0.0
 10
93.0947482406152
 20
-118.092361081588
 30
0.0
 10
93.07235511996109
 20
-118.1114813615312
 30
0.0
 10
93.07235511996109
 20
-118.1621242651643
 30
0.0
 10
93.06684296718468
 20
-118.3907063506107
 30
0.0
 10
93.06891002447583
 20
-118.4372151396615
 30
0.0
 10
93.1815646468435
 20
-118.4372151396615
 30
0.0
 10
93.19293346194483
 20
-118.4372151396615
 30
0.0
 10
93.2780273204305
 20
-118.4287746557227
 30
0.0
 10
93.2780273204305
 20
-118.4287746557227
 30
0.0
 10
93.2780273204305
 20
-118.6234225506393
 30
0.0
 10
93.2780273204305
 20
-118.6234225506393
 30
0.0
 10
93.24460989422357
 20
-118.6211832385739
 30
0.0
 10
93.18535425187727
 20
-118.6170491239916
 30
0.0
 10
93.06684296718468
 20
-118.6191161812827
 30
0.0
 10
93.06684296718468
 20
-118.6191161812827
 30
0.0
 10
93.06684296718468
 20
-118.9575968127085
 30
0.0
 10
93.06684296718468
 20
-118.9575968127085
 30
0.0
 10
93.11507430397818
 20
-118.9343424181831
 30
0.0
 10
93.17260739858185
 20
-118.9067816543011
 30
0.0
 10
93.21498207305042
 20
-118.8835272597756
 30
0.0
 10
93.21498207305042
 20
-118.8835272597756
 30
0.0
 10
93.21498207305042
 20
-118.705932587511
 30
0.0
 10
93.21498207305042
 20
-118.705932587511
 30
0.0
 10
93.3152343516712
 20
-118.7185071860322
 30
0.0
 10
93.41858721622869
 20
-118.7185071860322
 30
0.0
 10
93.52056204259209
 20
-118.7185071860322
 30
0.0
 10
93.50023597922912
 20
-118.6234225506393
 30
0.0
 10
93.47612031083236
 20
-118.5409125137676
 30
0.0
 10
93.42065427351984
 20
-118.4075873184884
 30
0.0
 10
93.38172469453652
 20
-118.4096543757795
 30
0.0
 10
93.30937768934628
 20
-118.4139607451361
 30
0.0
 10
93.27630477268788
 20
-118.4160278024273
 30
0.0
 10
93.27630477268788
 20
-118.4160278024273
 30
0.0
 10
93.27630477268788
 20
-118.2361938180972
 30
0.0
 10
93.27630477268788
 20
-118.2361938180972
 30
0.0
 10
93.38551429957029
 20
-118.2446343020361
 30
0.0
 10
93.53709850092129
 20
-118.2489406713926
 30
0.0
 10
93.60944550611153
 20
-118.2489406713926
 30
0.0
 10
93.60944550611153
 20
-118.2489406713926
 30
0.0
 10
93.68179251130178
 20
-118.2489406713926
 30
0.0
 10
93.68179251130178
 20
-118.2489406713926
 30
0.0
 10
93.68179251130178
 20
-118.0859876549403
 30
0.0
 10
93.68179251130178
 20
-118.0754801137103
 30
0.0
 10
93.67972545401062
 20
-118.0205308407206
 30
0.0
 10
93.67972545401062
 20
-118.0205308407206
 30
0.0
 10
93.87609589666987
 20
-118.0458522925371
 30
0.0
 10
93.87609589666987
 20
-118.0458522925371
 30
0.0
 10
93.87988550170364
 20
-118.0458522925371
 30
0.0
 10
93.898489017324
 20
-118.0479193498283
 30
0.0
 10
93.898489017324
 20
-118.064800317706
 30
0.0
 10
93.898489017324
 20
-118.0796142282926
 30
0.0
 10
93.88918725951382
 20
-118.0882269670057
 30
0.0
 10
93.86507159111707
 20
-118.1030408775923
 30
0.0
 10
93.85955943834067
 20
-118.168497691812
 30
0.0
 10
93.85749238104952
 20
-118.1896850290463
 30
0.0
 10
93.85749238104952
 20
-118.2489406713926
 30
0.0
 10
93.85749238104952
 20
-118.2489406713926
 30
0.0
 10
93.94086369179257
 20
-118.2489406713926
 30
0.0
 10
93.94086369179257
 20
-118.2489406713926
 30
0.0
 10
94.01321069698281
 20
-118.2489406713926
 30
0.0
 10
94.16513940788234
 20
-118.2446343020361
 30
0.0
 10
94.27434893476475
 20
-118.2361938180972
 30
0.0
 10
94.27434893476475
 20
-118.2361938180972
 30
0.0
 10
94.27434893476475
 20
-118.4160278024273
 30
0.0
 10
94.27434893476475
 20
-118.4160278024273
 30
0.0
 10
94.24816620907686
 20
-118.4139607451361
 30
0.0
 10
94.14481334451936
 20
-118.4096543757795
 30
0.0
 10
94.10932886102128
 20
-118.4075873184884
 30
0.0
 10
94.09658200772586
 20
-118.4584024768958
 30
0.0
 10
94.0669541865527
 20
-118.5705403349407
 30
0.0
 10
94.00942109194904
 20
-118.7100667020933
 30
0.0
 10
94.04662812318973
 20
-118.7100667020933
 30
0.0
 10
94.28916284535133
 20
-118.6911186769244
 30
0.0
 10
94.34290633492122
 20
-118.688879364859
 30
0.0
 10
94.34290633492122
 20
-118.688879364859
 30
0.0
 10
94.34290633492122
 20
-118.8730197185456
 30
0.0
 10
94.34290633492122
 20
-118.8730197185456
 30
0.0
 10
94.31672360923332
 20
-118.8730197185456
 30
0.0
 10
94.30190969864675
 20
-118.8687133491891
 30
0.0
 10
94.1592827455574
 20
-118.8687133491891
 30
0.0
  0
SPLINE
  5
68
330
63
100
AcDbEntity
  8
_U+30EC_U+30A4_U+30E4_U+30FC 1
370
     0
100
AcDbSpline
210
0.0
220
0.0
230
1.0
 70
    11
 71
     3
 72
    20
 73
    16
 74
     0
 42
0.0000000001
 43
0.0000000001
 12
1.0
 22
0.0
 32
0.0
 13
1.0
 23
0.0
 33
0.0
 40
0.0
 40
0.0
 40
0.0
 40
0.0
 40
1.0
 40
1.0
 40
1.0
 40
2.0
 40
2.0
 40
2.0
 40
3.0
 40
3.0
 40
3.0
 40
4.0
 40
4.0
 40
4.0
 40
5.0
 40
5.0
 40
5.0
 40
5.0
 10
93.60944550611153
 20
-118.4034532039061
 30
0.0
 10
93.60944550611153
 20
-118.4034532039061
 30
0.0
 10
93.58188474222953
 20
-118.4034532039061
 30
0.0
 10
93.58188474222953
 20
-118.4034532039061
 30
0.0
 10
93.62253686895548
 20
-118.5028442086555
 30
0.0
 10
93.65009763283749
 20
-118.5831149334619
 30
0.0
 10
93.67972545401062
 20
-118.7100667020933
 30
0.0
 10
93.67972545401062
 20
-118.7100667020933
 30
0.0
 10
93.8612819860833
 20
-118.7100667020933
 30
0.0
 10
93.8612819860833
 20
-118.7100667020933
 30
0.0
 10
93.88918725951382
 20
-118.6170491239916
 30
0.0
 10
93.90951332287679
 20
-118.5324720298287
 30
0.0
 10
93.92983938623976
 20
-118.4034532039061
 30
0.0
 10
93.92983938623976
 20
-118.4034532039061
 30
0.0
 10
93.60944550611153
 20
-118.4034532039061
 30
0.0
 10
93.60944550611153
 20
-118.4034532039061
 30
0.0
  0
SPLINE
  5
69
330
63
100
AcDbEntity
  8
_U+30EC_U+30A4_U+30E4_U+30FC 1
370
     0
100
AcDbSpline
210
0.0
220
0.0
230
1.0
 70
    11
 71
     3
 72
    17
 73
    13
 74
     0
 42
0.0000000001
 43
0.0000000001
 12
1.0
 22
0.0
 32
0.0
 13
1.0
 23
0.0
 33
0.0
 40
0.0
 40
0.0
 40
0.0
 40
0.0
 40
1.0
 40
1.0
 40
1.0
 40
2.0
 40
2.0
 40
2.0
 40
3.0
 40
3.0
 40
3.0
 40
4.0
 40
4.0
 40
4.0
 40
4.0
 10
93.66491154342405
 20
-119.25387502444
 30
0.0
 10
93.65009763283749
 20
-119.2833305908389
 30
0.0
 10
93.60565590107775
 20
-119.3765204237149
 30
0.0
 10
93.59635414326758
 20
-119.3954684488838
 30
0.0
 10
93.76309676475367
 20
-119.4547240912301
 30
0.0
 10
93.78170028037403
 20
-119.4610975178778
 30
0.0
 10
93.8447455277541
 20
-119.4886582817598
 30
0.0
 10
93.89263235499907
 20
-119.4018418755315
 30
0.0
 10
93.91330292791056
 20
-119.3277723225986
 30
0.0
 10
93.92604978120599
 20
-119.25387502444
 30
0.0
 10
93.92604978120599
 20
-119.25387502444
 30
0.0
 10
93.66491154342405
 20
-119.25387502444
 30
0.0
 10
93.66491154342405
 20
-119.25387502444
 30
0.0
  0
HATCH
  5
6A
330
63
100
AcDbEntity
  8
_U+30EC_U+30A4_U+30E4_U+30FC 1
 62
   179
420
  2234388
100
AcDbHatch
 10
0.0
 20
0.0
 30
0.0
210
0.0
220
0.0
230
1.0
  2
SOLID
 70
     1
 71
     0
 91
        3
 92
        1
 93
        1
 72
     4
 94
        3
 73
     0
 74
     1
 95
      242
 96
      238
 40
0.0
 40
0.0
 40
0.0
 40
0.0
 40
1.0
 40
1.0
 40
1.0
 40
2.0
 40
2.0
 40
2.0
 40
3.0
 40
3.0
 40
3.0
 40
4.0
 40
4.0
 40
4.0
 40
5.0
 40
5.0
 40
5.0
 40
6.0
 40
6.0
 40
6.0
 40
7.0
 40
7.0
 40
7.0
 40
8.0
 40
8.0
 40
8.0
 40
9.0
 40
9.0
 40
9.0
 40
10.0
 40
10.0
 40
10.0
 40
11.0
 40
11.0
 40
11.0
 40
12.0
 40
12.0
 40
12.0
 40
13.0
 40
13.0
 40
13.0
 40
14.0
 40
14.0
 40
14.0
 40
15.0
 40
15.0
 40
15.0
 40
16.0
 40
16.0
 40
16.0
 40
17.0
 40
17.0
 40
17.0
 40
18.0
 40
18.0
 40
18.0
 40
19.0
 40
19.0
 40
19.0
 40
20.0
 40
20.0
 40
20.0
 40
21.0
 40
21.0
 40
21.0
 40
22.0
 40
22.0
 40
22.0
 40
23.0
 40
23.0
 40
23.0
 40
24.0
 40
24.0
 40
24.0
 40
25.0
 40
25.0
 40
25.0
 40
26.0
 40
26.0
 40
26.0
 40
27.0
 40
27.0
 40
27.0
 40
28.0
 40
28.0
 40
28.0
 40
29.0
 40
29.0
 40
29.0
 40
30.0
 40
30.0
 40
30.0
 40
31.0
 40
31.0
 40
31.0
 40
32.0
 40
32.0
 40
32.0
 40
33.0
 40
33.0
 40
33.0
 40
34.0
 40
34.0
 40
34.0
 40
35.0
 40
35.0
 40
35.0
 40
36.0
 40
36.0
 40
36.0
 40
37.0
 40
37.0
 40
37.0
 40
38.0
 40
38.0
 40
38.0
 40
39.0
 40
39.0
 40
39.0
 40
40.0
 40
40.0
 40
40.0
 40
41.0
 40
41.0
 40
41.0
 40
42.0
 40
42.0
 40
42.0
 40
43.0
 40
43.0
 40
43.0
 40
44.0
 40
44.0
 40
44.0
 40
45.0
 40
45.0
 40
45.0
 40
46.0
 40
46.0
 40
46.0
 40
47.0
 40
47.0
 40
47.0
 40
48.0
 40
48.0
 40
48.0
 40
49.0
 40
49.0
 40
49.0
 40
50.0
 40
50.0
 40
50.0
 40
51.0
 40
51.0
 40
51.0
 40
52.0
 40
52.0
 40
52.0
 40
53.0
 40
53.0
 40
53.0
 40
54.0
 40
54.0
 40
54.0
 40
55.0
 40
55.0
 40
55.0
 40
56.0
 40
56.0
 40
56.0
 40
57.0
 40
57.0
 40
57.0
 40
58.0
 40
58.0
 40
58.0
 40
59.0
 40
59.0
 40
59.0
 40
60.0
 40
60.0
 40
60.0
 40
61.0
 40
61.0
 40
61.0
 40
62.0
 40
62.0
 40
62.0
 40
63.0
 40
63.0
 40
63.0
 40
64.0
 40
64.0
 40
64.0
 40
65.0
 40
65.0
 40
65.0
 40
66.0
 40
66.0
 40
66.0
 40
67.0
 40
67.0
 40
67.0
 40
68.0
 40
68.0
 40
68.0
 40
69.0
 40
69.0
 40
69.0
 40
70.0
 40
70.0
 40
70.0
 40
71.0
 40
71.0
 40
71.0
 40
72.0
 40
72.0
 40
72.0
 40
73.0
 40
73.0
 40
73.0
 40
74.0
 40
74.0
 40
74.0
 40
75.0
 40
75.0
 40
75.0
 40
76.0
 40
76.0
 40
76.0
 40
77.0
 40
77.0
 40
77.0
 40
78.0
 40
78.0
 40
78.0
 40
79.0
 40
79.0
 40
79.0
 40
79.0
 10
94.1592827455574
 20
-118.8687133491891
 10
94.1592827455574
 20
-118.8687133491891
 10
93.93741859630731
 20
-118.8687133491891
 10
93.93741859630731
 20
-118.8687133491891
 10
93.93741859630731
 20
-118.8687133491891
 10
93.6945393645972
 20
-118.8687133491891
 10
93.6945393645972
 20
-118.8687133491891
 10
93.6945393645972
 20
-118.8687133491891
 10
93.80581594877077
 20
-118.9110880236577
 10
93.80581594877077
 20
-118.9110880236577
 10
93.81511770658095
 20
-118.9153943930142
 10
93.82614201213374
 20
-118.9215955648877
 10
93.82614201213374
 20
-118.9343424181831
 10
93.82614201213374
 20
-118.9555297554174
 10
93.79823673870322
 20
-118.9619031820651
 10
93.7799777326314
 20
-118.9660372966474
 10
93.77067597482123
 20
-118.9892916911728
 10
93.74449324913333
 20
-119.0549207601668
 10
93.72795679080413
 20
-119.0993624919266
 10
93.72795679080413
 20
-119.0993624919266
 10
93.96497936018932
 20
-119.0993624919266
 10
93.96497936018932
 20
-119.0993624919266
 10
94.04456106589859
 20
-119.0993624919266
 10
94.21681584016108
 20
-119.09505612257
 10
94.34083927763007
 20
-119.0866156386311
 10
94.34083927763007
 20
-119.0866156386311
 10
94.34083927763007
 20
-119.26438256567
 10
94.34083927763007
 20
-119.26438256567
 10
94.26883678198836
 20
-119.2600761963135
 10
94.250233266368
 20
-119.2600761963135
 10
94.09279240269208
 20
-119.2559420817312
 10
94.06488712926156
 20
-119.4102823594704
 10
94.02630205982676
 20
-119.4907253390509
 10
93.98737248084343
 20
-119.5604885226272
 10
94.09279240269208
 20
-119.6197441649735
 10
94.18546547124531
 20
-119.6874402912587
 10
94.27607148250738
 20
-119.7699503281304
 10
94.27607148250738
 20
-119.7699503281304
 10
94.17237410840136
 20
-119.9370374591651
 10
94.17237410840136
 20
-119.9370374591651
 10
94.15204804503838
 20
-119.9180894339962
 10
94.14102373948558
 20
-119.9096489500573
 10
94.04283851815596
 20
-119.8248996011202
 10
94.00011933413886
 20
-119.7868312960082
 10
93.94844290186012
 20
-119.7510023029616
 10
93.87816295396102
 20
-119.7065605712018
 10
93.69281681685457
 20
-119.8927679821796
 10
93.51332734207305
 20
-119.916022376705
 10
93.25942380481015
 20
-119.9456501978782
 10
93.25942380481015
 20
-119.9456501978782
 10
93.16881779354807
 20
-119.7658162135481
 10
93.16881779354807
 20
-119.7658162135481
 10
93.44649248965922
 20
-119.7615098441916
 10
93.60014374830136
 20
-119.736188392375
 10
93.73346894358052
 20
-119.6261175916213
 10
93.6297715694745
 20
-119.5753024332138
 10
93.55225692105638
 20
-119.5479139241061
 10
93.52056204259209
 20
-119.5351670708107
 10
93.50402558426289
 20
-119.5627278346927
 10
93.49093422141894
 20
-119.5816758598615
 10
93.4668185530222
 20
-119.6156100503912
 10
93.4668185530222
 20
-119.6156100503912
 10
93.2945637787597
 20
-119.5331000135195
 10
93.2945637787597
 20
-119.5331000135195
 10
93.36691078394995
 20
-119.4526570339389
 10
93.42065427351984
 20
-119.3574001437718
 10
93.47060815805597
 20
-119.2559420817312
 10
93.30386553656987
 20
-119.2600761963135
 10
93.28560653049804
 20
-119.2600761963135
 10
93.2132595253078
 20
-119.26438256567
 10
93.2132595253078
 20
-119.26438256567
 10
93.2132595253078
 20
-119.0866156386311
 10
93.2132595253078
 20
-119.0866156386311
 10
93.33556041503417
 20
-119.0929890652788
 10
93.51883949484946
 20
-119.0972954346354
 10
93.54088810595506
 20
-119.0972954346354
 10
93.55570201654163
 20
-119.0633612441057
 10
93.60393335333514
 20
-118.9427829021219
 10
93.62046981166434
 20
-118.8687133491891
 10
93.60393335333514
 20
-118.8687133491891
 10
93.44821503740184
 20
-118.8750867758368
 10
93.2780273204305
 20
-118.8878336291322
 10
93.2780273204305
 20
-118.8878336291322
 10
93.2780273204305
 20
-119.0211588244114
 10
93.2780273204305
 20
-119.0211588244114
 10
93.2353081364134
 20
-119.046480276228
 10
93.18363170413465
 20
-119.0781751546923
 10
93.06684296718468
 20
-119.1438042236863
 10
93.06684296718468
 20
-119.1438042236863
 10
93.06684296718468
 20
-119.2897040174866
 10
93.06684296718468
 20
-119.2897040174866
 10
93.06684296718468
 20
-119.2897040174866
 10
93.06684296718468
 20
-119.7573757296093
 10
93.06684296718468
 20
-119.7573757296093
 10
93.06684296718468
 20
-119.8841552434665
 10
93.0354925982689
 20
-119.9434108858128
 10
92.78744572333092
 20
-119.9349704018739
 10
92.78744572333092
 20
-119.9349704018739
 10
92.69649520252032
 20
-119.7277479084361
 10
92.69649520252032
 20
-119.7277479084361
 10
92.75230574938138
 20
-119.7403225069573
 10
92.79468042384994
 20
-119.7446288763139
 10
92.8298203977995
 20
-119.7446288763139
 10
92.89665525021334
 20
-119.7446288763139
 10
92.90595700802352
 20
-119.7213744817884
 10
92.90595700802352
 20
-119.6557454127944
 10
92.90595700802352
 20
-119.6557454127944
 10
92.90595700802352
 20
-119.226314260558
 10
92.90595700802352
 20
-119.226314260558
 10
92.82051863998932
 20
-119.2664496229612
 10
92.80570472940275
 20
-119.2728230496089
 10
92.7650526026768
 20
-119.291943329552
 10
92.76126299764302
 20
-119.312958412012
 10
92.75781790215777
 20
-119.3425862331852
 10
92.74093693428004
 20
-119.3425862331852
 10
92.73370223376102
 20
-119.3425862331852
 10
92.72440047595084
 20
-119.3384521186029
 10
92.71888832317445
 20
-119.3151977240774
 10
92.71888832317445
 20
-119.3151977240774
 10
92.67237953412358
 20
-119.122616886452
 10
92.67237953412358
 20
-119.122616886452
 10
92.80019257662634
 20
-119.0761080974011
 10
92.85772567123001
 20
-119.0528537028757
 10
92.90595700802352
 20
-119.0316663656414
 10
92.90595700802352
 20
-119.0316663656414
 10
92.90595700802352
 20
-118.6191161812827
 10
92.90595700802352
 20
-118.6191161812827
 10
92.90595700802352
 20
-118.6191161812827
 10
92.85944821897264
 20
-118.6191161812827
 10
92.85944821897264
 20
-118.6191161812827
 10
92.85944821897264
 20
-118.6191161812827
 10
92.79089081881617
 20
-118.6191161812827
 10
92.79089081881617
 20
-118.6191161812827
 10
92.73163517646988
 20
-118.6191161812827
 10
92.72440047595084
 20
-118.6191161812827
 10
92.69305010703508
 20
-118.6254896079304
 10
92.69305010703508
 20
-118.6254896079304
 10
92.69305010703508
 20
-118.4308417130138
 10
92.69305010703508
 20
-118.4308417130138
 10
92.7168212658833
 20
-118.4372151396615
 10
92.72440047595084
 20
-118.4372151396615
 10
92.78537866603978
 20
-118.4372151396615
 10
92.78537866603978
 20
-118.4372151396615
 10
92.90216740298975
 20
-118.4372151396615
 10
92.90216740298975
 20
-118.4372151396615
 10
92.90216740298975
 20
-118.3674519560852
 10
92.90216740298975
 20
-118.2849419192135
 10
92.90044485524712
 20
-118.2806355498569
 10
92.89286564517957
 20
-118.1008015655269
 10
92.89286564517957
 20
-118.081853540358
 10
92.89114309743694
 20
-118.0353447513071
 10
92.89114309743694
 20
-118.0353447513071
 10
93.07993433002864
 20
-118.043785235246
 10
93.07993433002864
 20
-118.043785235246
 10
93.08923608783881
 20
-118.043785235246
 10
93.10783960345915
 20
-118.0458522925371
 10
93.10783960345915
 20
-118.0627332604149
 10
93.10783960345915
 20
-118.081853540358
 10
93.0947482406152
 20
-118.092361081588
 10
93.07235511996109
 20
-118.1114813615312
 10
93.07235511996109
 20
-118.1621242651643
 10
93.06684296718468
 20
-118.3907063506107
 10
93.06891002447583
 20
-118.4372151396615
 10
93.1815646468435
 20
-118.4372151396615
 10
93.19293346194483
 20
-118.4372151396615
 10
93.2780273204305
 20
-118.4287746557227
 10
93.2780273204305
 20
-118.4287746557227
 10
93.2780273204305
 20
-118.6234225506393
 10
93.2780273204305
 20
-118.6234225506393
 10
93.24460989422357
 20
-118.6211832385739
 10
93.18535425187727
 20
-118.6170491239916
 10
93.06684296718468
 20
-118.6191161812827
 10
93.06684296718468
 20
-118.6191161812827
 10
93.06684296718468
 20
-118.9575968127085
 10
93.06684296718468
 20
-118.9575968127085
 10
93.11507430397818
 20
-118.9343424181831
 10
93.17260739858185
 20
-118.9067816543011
 10
93.21498207305042
 20
-118.8835272597756
 10
93.21498207305042
 20
-118.8835272597756
 10
93.21498207305042
 20
-118.705932587511
 10
93.21498207305042
 20
-118.705932587511
 10
93.3152343516712
 20
-118.7185071860322
 10
93.41858721622869
 20
-118.7185071860322
 10
93.52056204259209
 20
-118.7185071860322
 10
93.50023597922912
 20
-118.6234225506393
 10
93.47612031083236
 20
-118.5409125137676
 10
93.42065427351984
 20
-118.4075873184884
 10
93.38172469453652
 20
-118.4096543757795
 10
93.30937768934628
 20
-118.4139607451361
 10
93.27630477268788
 20
-118.4160278024273
 10
93.27630477268788
 20
-118.4160278024273
 10
93.27630477268788
 20
-118.2361938180972
 10
93.27630477268788
 20
-118.2361938180972
 10
93.38551429957029
 20
-118.2446343020361
 10
93.53709850092129
 20
-118.2489406713926
 10
93.60944550611153
 20
-118.2489406713926
 10
93.60944550611153
 20
-118.2489406713926
 10
93.68179251130178
 20
-118.2489406713926
 10
93.68179251130178
 20
-118.2489406713926
 10
93.68179251130178
 20
-118.0859876549403
 10
93.68179251130178
 20
-118.0754801137103
 10
93.67972545401062
 20
-118.0205308407206
 10
93.67972545401062
 20
-118.0205308407206
 10
93.87609589666987
 20
-118.0458522925371
 10
93.87609589666987
 20
-118.0458522925371
 10
93.87988550170364
 20
-118.0458522925371
 10
93.898489017324
 20
-118.0479193498283
 10
93.898489017324
 20
-118.064800317706
 10
93.898489017324
 20
-118.0796142282926
 10
93.88918725951382
 20
-118.0882269670057
 10
93.86507159111707
 20
-118.1030408775923
 10
93.85955943834067
 20
-118.168497691812
 10
93.85749238104952
 20
-118.1896850290463
 10
93.85749238104952
 20
-118.2489406713926
 10
93.85749238104952
 20
-118.2489406713926
 10
93.94086369179257
 20
-118.2489406713926
 10
93.94086369179257
 20
-118.2489406713926
 10
94.01321069698281
 20
-118.2489406713926
 10
94.16513940788234
 20
-118.2446343020361
 10
94.27434893476475
 20
-118.2361938180972
 10
94.27434893476475
 20
-118.2361938180972
 10
94.27434893476475
 20
-118.4160278024273
 10
94.27434893476475
 20
-118.4160278024273
 10
94.24816620907686
 20
-118.4139607451361
 10
94.14481334451936
 20
-118.4096543757795
 10
94.10932886102128
 20
-118.4075873184884
 10
94.09658200772586
 20
-118.4584024768958
 10
94.0669541865527
 20
-118.5705403349407
 10
94.00942109194904
 20
-118.7100667020933
 10
94.04662812318973
 20
-118.7100667020933
 10
94.28916284535133
 20
-118.6911186769244
 10
94.34290633492122
 20
-118.688879364859
 10
94.34290633492122
 20
-118.688879364859
 10
94.34290633492122
 20
-118.8730197185456
 10
94.34290633492122
 20
-118.8730197185456
 10
94.31672360923332
 20
-118.8730197185456
 10
94.30190969864675
 20
-118.8687133491891
 10
94.1592827455574
 20
-118.8687133491891
 97
        0
 97
        0
 92
        1
 93
        1
 72
     4
 94
        3
 73
     0
 74
     1
 95
       20
 96
       16
 40
0.0
 40
0.0
 40
0.0
 40
0.0
 40
1.0
 40
1.0
 40
1.0
 40
2.0
 40
2.0
 40
2.0
 40
3.0
 40
3.0
 40
3.0
 40
4.0
 40
4.0
 40
4.0
 40
5.0
 40
5.0
 40
5.0
 40
5.0
 10
93.60944550611153
 20
-118.4034532039061
 10
93.60944550611153
 20
-118.4034532039061
 10
93.58188474222953
 20
-118.4034532039061
 10
93.58188474222953
 20
-118.4034532039061
 10
93.62253686895548
 20
-118.5028442086555
 10
93.65009763283749
 20
-118.5831149334619
 10
93.67972545401062
 20
-118.7100667020933
 10
93.67972545401062
 20
-118.7100667020933
 10
93.8612819860833
 20
-118.7100667020933
 10
93.8612819860833
 20
-118.7100667020933
 10
93.88918725951382
 20
-118.6170491239916
 10
93.90951332287679
 20
-118.5324720298287
 10
93.92983938623976
 20
-118.4034532039061
 10
93.92983938623976
 20
-118.4034532039061
 10
93.60944550611153
 20
-118.4034532039061
 10
93.60944550611153
 20
-118.4034532039061
 97
        0
 97
        0
 92
        1
 93
        1
 72
     4
 94
        3
 73
     0
 74
     1
 95
       17
 96
       13
 40
0.0
 40
0.0
 40
0.0
 40
0.0
 40
1.0
 40
1.0
 40
1.0
 40
2.0
 40
2.0
 40
2.0
 40
3.0
 40
3.0
 40
3.0
 40
4.0
 40
4.0
 40
4.0
 40
4.0
 10
93.66491154342405
 20
-119.25387502444
 10
93.65009763283749
 20
-119.2833305908389
 10
93.60565590107775
 20
-119.3765204237149
 10
93.59635414326758
 20
-119.3954684488838
 10
93.76309676475367
 20
-119.4547240912301
 10
93.78170028037403
 20
-119.4610975178778
 10
93.8447455277541
 20
-119.4886582817598
 10
93.89263235499907
 20
-119.4018418755315
 10
93.91330292791056
 20
-119.3277723225986
 10
93.92604978120599
 20
-119.25387502444
 10
93.92604978120599
 20
-119.25387502444
 10
93.66491154342405
 20
-119.25387502444
 10
93.66491154342405
 20
-119.25387502444
 97
        0
 97
        0
 75
     2
 76
     1
 98
        0
  0
SPLINE
  5
6B
330
63
100
AcDbEntity
  8
_U+30EC_U+30A4_U+30E4_U+30FC 1
370
     0
100
AcDbSpline
210
0.0
220
0.0
230
1.0
 70
    11
 71
     3
 72
   203
 73
   199
 74
     0
 42
0.0000000001
 43
0.0000000001
 12
1.0
 22
0.0
 32
0.0
 13
1.0
 23
0.0
 33
0.0
 40
0.0
 40
0.0
 40
0.0
 40
0.0
 40
1.0
 40
1.0
 40
1.0
 40
2.0
 40
2.0
 40
2.0
 40
3.0
 40
3.0
 40
3.0
 40
4.0
 40
4.0
 40
4.0
 40
5.0
 40
5.0
 40
5.0
 40
6.0
 40
6.0
 40
6.0
 40
7.0
 40
7.0
 40
7.0
 40
8.0
 40
8.0
 40
8.0
 40
9.0
 40
9.0
 40
9.0
 40
10.0
 40
10.0
 40
10.0
 40
11.0
 40
11.0
 40
11.0
 40
12.0
 40
12.0
 40
12.0
 40
13.0
 40
13.0
 40
13.0
 40
14.0
 40
14.0
 40
14.0
 40
15.0
 40
15.0
 40
15.0
 40
16.0
 40
16.0
 40
16.0
 40
17.0
 40
17.0
 40
17.0
 40
18.0
 40
18.0
 40
18.0
 40
19.0
 40
19.0
 40
19.0
 40
20.0
 40
20.0
 40
20.0
 40
21.0
 40
21.0
 40
21.0
 40
22.0
 40
22.0
 40
22.0
 40
23.0
 40
23.0
 40
23.0
 40
24.0
 40
24.0
 40
24.0
 40
25.0
 40
25.0
 40
25.0
 40
26.0
 40
26.0
 40
26.0
 40
27.0
 40
27.0
 40
27.0
 40
28.0
 40
28.0
 40
28.0
 40
29.0
 40
29.0
 40
29.0
 40
30.0
 40
30.0
 40
30.0
 40
31.0
 40
31.0
 40
31.0
 40
32.0
 40
32.0
 40
32.0
 40
33.0
 40
33.0
 40
33.0
 40
34.0
 40
34.0
 40
34.0
 40
35.0
 40
35.0
 40
35.0
 40
36.0
 40
36.0
 40
36.0
 40
37.0
 40
37.0
 40
37.0
 40
38.0
 40
38.0
 40
38.0
 40
39.0
 40
39.0
 40
39.0
 40
40.0
 40
40.0
 40
40.0
 40
41.0
 40
41.0
 40
41.0
 40
42.0
 40
42.0
 40
42.0
 40
43.0
 40
43.0
 40
43.0
 40
44.0
 40
44.0
 40
44.0
 40
45.0
 40
45.0
 40
45.0
 40
46.0
 40
46.0
 40
46.0
 40
47.0
 40
47.0
 40
47.0
 40
48.0
 40
48.0
 40
48.0
 40
49.0
 40
49.0
 40
49.0
 40
50.0
 40
50.0
 40
50.0
 40
51.0
 40
51.0
 40
51.0
 40
52.0
 40
52.0
 40
52.0
 40
53.0
 40
53.0
 40
53.0
 40
54.0
 40
54.0
 40
54.0
 40
55.0
 40
55.0
 40
55.0
 40
56.0
 40
56.0
 40
56.0
 40
57.0
 40
57.0
 40
57.0
 40
58.0
 40
58.0
 40
58.0
 40
59.0
 40
59.0
 40
59.0
 40
60.0
 40
60.0
 40
60.0
 40
61.0
 40
61.0
 40
61.0
 40
62.0
 40
62.0
 40
62.0
 40
63.0
 40
63.0
 40
63.0
 40
64.0
 40
64.0
 40
64.0
 40
65.0
 40
65.0
 40
65.0
 40
66.0
 40
66.0
 40
66.0
 40
66.0
 10
95.64136282331188
 20
-118.9364094754742
 30
0.0
 10
95.64136282331188
 20
-118.9364094754742
 30
0.0
 10
95.15250377395493
 20
-118.9364094754742
 30
0.0
 10
95.15250377395493
 20
-118.9364094754742
 30
0.0
 10
95.14320201614476
 20
-118.980851207234
 30
0.0
 10
95.13596731562573
 20
-119.0125460856983
 30
0.0
 10
95.12459850052441
 20
-119.0507866455845
 30
0.0
 10
95.14699162117853
 20
-119.0507866455845
 30
0.0
 10
95.16008298402248
 20
-119.0528537028757
 30
0.0
 10
95.16559513679888
 20
-119.0528537028757
 30
0.0
 10
95.16559513679888
 20
-119.0528537028757
 30
0.0
 10
95.33027070099382
 20
-119.0528537028757
 30
0.0
 10
95.33027070099382
 20
-119.0528537028757
 30
0.0
 10
95.33027070099382
 20
-119.0528537028757
 30
0.0
 10
95.65789928164108
 20
-119.0528537028757
 30
0.0
 10
95.65789928164108
 20
-119.0528537028757
 30
0.0
 10
95.70268552294934
 20
-119.0528537028757
 30
0.0
 10
95.95073239788732
 20
-119.0401068495803
 30
0.0
 10
95.97829316176932
 20
-119.0401068495803
 30
0.0
 10
95.9765706140267
 20
-119.0676676134622
 30
0.0
 10
95.97484806628407
 20
-119.0866156386311
 30
0.0
 10
95.97484806628407
 20
-119.1162434598043
 30
0.0
 10
95.97278100899292
 20
-119.1479383382686
 30
0.0
 10
95.97278100899292
 20
-119.2833305908389
 30
0.0
 10
95.97278100899292
 20
-119.3108913547209
 30
0.0
 10
95.97278100899292
 20
-119.3108913547209
 30
0.0
 10
95.97278100899292
 20
-119.5563544080449
 30
0.0
 10
95.97278100899292
 20
-119.5563544080449
 30
0.0
 10
95.97278100899292
 20
-119.6007961398047
 30
0.0
 10
95.9765706140267
 20
-119.7975110920124
 30
0.0
 10
95.98036021906047
 20
-119.9497843124605
 30
0.0
 10
95.98036021906047
 20
-119.9497843124605
 30
0.0
 10
95.78226722865861
 20
-119.9497843124605
 30
0.0
 10
95.78226722865861
 20
-119.9497843124605
 30
0.0
 10
95.78226722865861
 20
-119.9497843124605
 30
0.0
 10
95.78398977640123
 20
-119.916022376705
 30
0.0
 10
95.78398977640123
 20
-119.916022376705
 30
0.0
 10
95.78398977640123
 20
-119.916022376705
 30
0.0
 10
95.16938474183266
 20
-119.916022376705
 30
0.0
 10
95.16938474183266
 20
-119.916022376705
 30
0.0
 10
95.16938474183266
 20
-119.916022376705
 30
0.0
 10
95.17110728957529
 20
-119.9497843124605
 30
0.0
 10
95.17110728957529
 20
-119.9497843124605
 30
0.0
 10
95.17110728957529
 20
-119.9497843124605
 30
0.0
 10
94.98024899969244
 20
-119.9497843124605
 30
0.0
 10
94.98024899969244
 20
-119.9497843124605
 30
0.0
 10
94.98403860472622
 20
-119.8948350394707
 30
0.0
 10
94.98403860472622
 20
-119.8820881861753
 30
0.0
 10
94.98955075750261
 20
-119.7678832708393
 30
0.0
 10
94.99161781479377
 20
-119.7403225069573
 30
0.0
 10
94.99334036253639
 20
-119.6071695664524
 30
0.0
 10
94.99334036253639
 20
-119.5880492865092
 30
0.0
 10
94.99334036253639
 20
-119.5880492865092
 30
0.0
 10
94.99334036253639
 20
-119.3849609076538
 30
0.0
 10
94.99334036253639
 20
-119.3849609076538
 30
0.0
 10
94.87103947281003
 20
-119.6345580755601
 30
0.0
 10
94.72290036694427
 20
-119.7658162135481
 30
0.0
 10
94.63022729839106
 20
-119.8312730277679
 30
0.0
 10
94.63022729839106
 20
-119.8312730277679
 30
0.0
 10
94.47864309704006
 20
-119.6917466606153
 30
0.0
 10
94.47864309704006
 20
-119.6917466606153
 30
0.0
 10
94.5561577454582
 20
-119.6409315022078
 30
0.0
 10
94.68224824021833
 20
-119.5541150959795
 30
0.0
 10
94.80248207265355
 20
-119.3596394558372
 30
0.0
 10
94.88206377836282
 20
-119.2326876872057
 30
0.0
 10
94.93959687296649
 20
-119.0888549506965
 30
0.0
 10
94.96922469413964
 20
-118.9364094754742
 30
0.0
 10
94.76906464644662
 20
-118.9386487875396
 30
0.0
 10
94.61196829231923
 20
-118.9450222141874
 30
0.0
 10
94.52859698157619
 20
-118.9470892714785
 30
0.0
 10
94.52859698157619
 20
-118.9470892714785
 30
0.0
 10
94.52859698157619
 20
-118.7693223444396
 30
0.0
 10
94.52859698157619
 20
-118.7693223444396
 30
0.0
 10
94.70085175583868
 20
-118.7756957710873
 30
0.0
 10
94.94889863077667
 20
-118.7800021404439
 30
0.0
 10
95.0805012783132
 20
-118.7800021404439
 30
0.0
 10
95.0805012783132
 20
-118.7800021404439
 30
0.0
 10
95.26722545361375
 20
-118.7800021404439
 30
0.0
 10
95.26722545361375
 20
-118.7800021404439
 30
0.0
 10
95.26722545361375
 20
-118.7800021404439
 30
0.0
 10
95.26722545361375
 20
-118.6719983969813
 30
0.0
 10
95.26722545361375
 20
-118.6719983969813
 30
0.0
 10
95.26722545361375
 20
-118.6719983969813
 30
0.0
 10
95.13975692065951
 20
-118.6719983969813
 30
0.0
 10
95.13975692065951
 20
-118.6719983969813
 30
0.0
 10
94.99161781479377
 20
-118.6719983969813
 30
0.0
 10
94.84347870892802
 20
-118.6763047663379
 30
0.0
 10
94.69706215080491
 20
-118.6826781929856
 30
0.0
 10
94.69706215080491
 20
-118.6826781929856
 30
0.0
 10
94.69706215080491
 20
-118.5112846925944
 30
0.0
 10
94.69706215080491
 20
-118.5112846925944
 30
0.0
 10
94.8321098938267
 20
-118.5217922338244
 30
0.0
 10
94.99506291027902
 20
-118.5217922338244
 30
0.0
 10
95.13975692065951
 20
-118.5217922338244
 30
0.0
 10
95.13975692065951
 20
-118.5217922338244
 30
0.0
 10
95.26722545361375
 20
-118.5217922338244
 30
0.0
 10
95.26722545361375
 20
-118.5217922338244
 30
0.0
 10
95.26722545361375
 20
-118.5217922338244
 30
0.0
 10
95.26722545361375
 20
-118.4034532039061
 30
0.0
 10
95.26722545361375
 20
-118.4034532039061
 30
0.0
 10
95.26722545361375
 20
-118.4034532039061
 30
0.0
 10
95.15250377395493
 20
-118.4034532039061
 30
0.0
 10
95.15250377395493
 20
-118.4034532039061
 30
0.0
 10
95.11185164722899
 20
-118.4034532039061
 30
0.0
 10
94.9340847201901
 20
-118.411893687845
 30
0.0
 10
94.8968776889494
 20
-118.411893687845
 30
0.0
 10
94.7191107619105
 20
-118.4160278024273
 30
0.0
 10
94.65262041904518
 20
-118.4180948597184
 30
0.0
 10
94.58406301888871
 20
-118.4203341717838
 30
0.0
 10
94.58406301888871
 20
-118.4203341717838
 30
0.0
 10
94.58406301888871
 20
-118.2361938180972
 30
0.0
 10
94.58406301888871
 20
-118.2361938180972
 30
0.0
 10
94.68397078796096
 20
-118.2446343020361
 30
0.0
 10
94.72290036694427
 20
-118.2446343020361
 30
0.0
 10
95.05810815765909
 20
-118.2532470407492
 30
0.0
 10
95.00264212034656
 20
-118.157990150582
 30
0.0
 10
94.97852645194982
 20
-118.1304293867
 30
0.0
 10
94.94683157348553
 20
-118.0944281388792
 30
0.0
 10
94.94683157348553
 20
-118.0944281388792
 30
0.0
 10
95.10082734167618
 20
-118.0119181020074
 30
0.0
 10
95.10082734167618
 20
-118.0119181020074
 30
0.0
 10
95.13596731562573
 20
-118.0479193498283
 30
0.0
 10
95.17489689460906
 20
-118.0902940242969
 30
0.0
 10
95.23966468973175
 20
-118.2001925702763
 30
0.0
 10
95.23966468973175
 20
-118.2001925702763
 30
0.0
 10
95.13975692065951
 20
-118.2553140980403
 30
0.0
 10
95.13975692065951
 20
-118.2553140980403
 30
0.0
 10
95.13975692065951
 20
-118.2553140980403
 30
0.0
 10
95.14871416892116
 20
-118.2553140980403
 30
0.0
 10
95.14871416892116
 20
-118.2553140980403
 30
0.0
 10
95.14871416892116
 20
-118.2553140980403
 30
0.0
 10
95.60622284936234
 20
-118.2553140980403
 30
0.0
 10
95.60622284936234
 20
-118.2553140980403
 30
0.0
 10
95.60622284936234
 20
-118.2553140980403
 30
0.0
 10
95.52285153861929
 20
-118.2108723662806
 30
0.0
 10
95.52285153861929
 20
-118.2108723662806
 30
0.0
 10
95.54696720701604
 20
-118.1728040611686
 30
0.0
 10
95.59692109155216
 20
-118.092361081588
 30
0.0
 10
95.61001245439611
 20
-118.0182915286552
 30
0.0
 10
95.61001245439611
 20
-118.0182915286552
 30
0.0
 10
95.79708113924518
 20
-118.081853540358
 30
0.0
 10
95.79708113924518
 20
-118.081853540358
 30
0.0
 10
95.8043158397642
 20
-118.0839205976492
 30
0.0
 10
95.82291935538456
 20
-118.0944281388792
 30
0.0
 10
95.82291935538456
 20
-118.1156154761135
 30
0.0
 10
95.82291935538456
 20
-118.1536837812255
 30
0.0
 10
95.76538626078089
 20
-118.1536837812255
 30
0.0
 10
95.74884980245169
 20
-118.1536837812255
 30
0.0
 10
95.73954804464151
 20
-118.1728040611686
 30
0.0
 10
95.71922198127854
 20
-118.2129394235718
 30
0.0
 10
95.69338376513916
 20
-118.2532470407492
 30
0.0
 10
96.04306095689202
 20
-118.2468736141015
 30
0.0
 10
96.06924368257991
 20
-118.2446343020361
 30
0.0
 10
96.13573402544523
 20
-118.2384331301626
 30
0.0
 10
96.13573402544523
 20
-118.2384331301626
 30
0.0
 10
96.13573402544523
 20
-118.4203341717838
 30
0.0
 10
96.13573402544523
 20
-118.4203341717838
 30
0.0
 10
96.11919756711603
 20
-118.4203341717838
 30
0.0
 10
96.09680444646192
 20
-118.4180948597184
 30
0.0
 10
95.90422360883645
 20
-118.4096543757795
 30
0.0
 10
95.85978187707673
 20
-118.4075873184884
 30
0.0
 10
95.66720103945126
 20
-118.4034532039061
 30
0.0
 10
95.62827146046794
 20
-118.4034532039061
 30
0.0
 10
95.62827146046794
 20
-118.4034532039061
 30
0.0
 10
95.43948022787625
 20
-118.4034532039061
 30
0.0
 10
95.43948022787625
 20
-118.4034532039061
 30
0.0
 10
95.43948022787625
 20
-118.4034532039061
 30
0.0
 10
95.43948022787625
 20
-118.5217922338244
 30
0.0
 10
95.43948022787625
 20
-118.5217922338244
 30
0.0
 10
95.43948022787625
 20
-118.5217922338244
 30
0.0
 10
95.59140893877576
 20
-118.5217922338244
 30
0.0
 10
95.59140893877576
 20
-118.5217922338244
 30
0.0
 10
95.7340358918651
 20
-118.5217922338244
 30
0.0
 10
95.9007785133512
 20
-118.5217922338244
 30
0.0
 10
96.03754880411562
 20
-118.5112846925944
 30
0.0
 10
96.03754880411562
 20
-118.5112846925944
 30
0.0
 10
96.03754880411562
 20
-118.6826781929856
 30
0.0
 10
96.03754880411562
 20
-118.6826781929856
 30
0.0
 10
95.85426972430032
 20
-118.6742377090467
 30
0.0
 10
95.68201495003784
 20
-118.6719983969813
 30
0.0
 10
95.59140893877576
 20
-118.6719983969813
 30
0.0
 10
95.59140893877576
 20
-118.6719983969813
 30
0.0
 10
95.43948022787625
 20
-118.6719983969813
 30
0.0
 10
95.43948022787625
 20
-118.6719983969813
 30
0.0
 10
95.43948022787625
 20
-118.6719983969813
 30
0.0
 10
95.43948022787625
 20
-118.7800021404439
 30
0.0
 10
95.43948022787625
 20
-118.7800021404439
 30
0.0
 10
95.43948022787625
 20
-118.7800021404439
 30
0.0
 10
95.64136282331188
 20
-118.7800021404439
 30
0.0
 10
95.64136282331188
 20
-118.7800021404439
 30
0.0
 10
95.75815156026185
 20
-118.7800021404439
 30
0.0
 10
96.00998804023362
 20
-118.7756957710873
 30
0.0
 10
96.19326712004892
 20
-118.7693223444396
 30
0.0
 10
96.19326712004892
 20
-118.7693223444396
 30
0.0
 10
96.19326712004892
 20
-118.9470892714785
 30
0.0
 10
96.19326712004892
 20
-118.9470892714785
 30
0.0
 10
96.02480195082019
 20
-118.9407158448308
 30
0.0
 10
95.7505723501943
 20
-118.9364094754742
 30
0.0
 10
95.64136282331188
 20
-118.9364094754742
 30
0.0
  0
POLYLINE
  5
6C
330
63
100
AcDbEntity
  8
_U+30EC_U+30A4_U+30E4_U+30FC 1
370
     0
100
AcDb2dPolyline
 66
     1
 10
0.0
 20
0.0
 30
0.0
  0
VERTEX
  5
6D
330
6C
100
AcDbEntity
  8
_U+30EC_U+30A4_U+30E4_U+30FC 1
370
     0
100
AcDbVertex
100
AcDb2dVertex
 10
95.78571232414386
 20
-119.1923800700283
 30
0.0
  0
VERTEX
  5
6E
330
6C
100
AcDbEntity
  8
_U+30EC_U+30A4_U+30E4_U+30FC 1
370
     0
100
AcDbVertex
100
AcDb2dVertex
 10
95.1673176845415
 20
-119.1923800700283
 30
0.0
  0
VERTEX
  5
6F
330
6C
100
AcDbEntity
  8
_U+30EC_U+30A4_U+30E4_U+30FC 1
370
     0
100
AcDbVertex
100
AcDb2dVertex
 10
95.1673176845415
 20
-119.3003838134909
 30
0.0
  0
VERTEX
  5
70
330
6C
100
AcDbEntity
  8
_U+30EC_U+30A4_U+30E4_U+30FC 1
370
     0
100
AcDbVertex
100
AcDb2dVertex
 10
95.78571232414386
 20
-119.3003838134909
 30
0.0
  0
VERTEX
  5
71
330
6C
100
AcDbEntity
  8
_U+30EC_U+30A4_U+30E4_U+30FC 1
370
     0
100
AcDbVertex
100
AcDb2dVertex
 10
95.78571232414386
 20
-119.1923800700283
 30
0.0
  0
SEQEND
  5
72
330
6C
100
AcDbEntity
  8
_U+30EC_U+30A4_U+30E4_U+30FC 1
370
     0
  0
POLYLINE
  5
73
330
63
100
AcDbEntity
  8
_U+30EC_U+30A4_U+30E4_U+30FC 1
370
     0
100
AcDb2dPolyline
 66
     1
 10
0.0
 20
0.0
 30
0.0
  0
VERTEX
  5
74
330
73
100
AcDbEntity
  8
_U+30EC_U+30A4_U+30E4_U+30FC 1
370
     0
100
AcDbVertex
100
AcDb2dVertex
 10
95.78571232414386
 20
-119.4250962700569
 30
0.0
  0
VERTEX
  5
75
330
73
100
AcDbEntity
  8
_U+30EC_U+30A4_U+30E4_U+30FC 1
370
     0
100
AcDbVertex
100
AcDb2dVertex
 10
95.1673176845415
 20
-119.4250962700569
 30
0.0
  0
VERTEX
  5
76
330
73
100
AcDbEntity
  8
_U+30EC_U+30A4_U+30E4_U+30FC 1
370
     0
100
AcDbVertex
100
AcDb2dVertex
 10
95.1673176845415
 20
-119.5394734401672
 30
0.0
  0
VERTEX
  5
77
330
73
100
AcDbEntity
  8
_U+30EC_U+30A4_U+30E4_U+30FC 1
370
     0
100
AcDbVertex
100
AcDb2dVertex
 10
95.78571232414386
 20
-119.5394734401672
 30
0.0
  0
VERTEX
  5
78
330
73
100
AcDbEntity
  8
_U+30EC_U+30A4_U+30E4_U+30FC 1
370
     0
100
AcDbVertex
100
AcDb2dVertex
 10
95.78571232414386
 20
-119.4250962700569
 30
0.0
  0
SEQEND
  5
79
330
73
100
AcDbEntity
  8
_U+30EC_U+30A4_U+30E4_U+30FC 1
370
     0
  0
POLYLINE
  5
7A
330
63
100
AcDbEntity
  8
_U+30EC_U+30A4_U+30E4_U+30FC 1
370
     0
100
AcDb2dPolyline
 66
     1
 10
0.0
 20
0.0
 30
0.0
  0
VERTEX
  5
7B
330
7A
100
AcDbEntity
  8
_U+30EC_U+30A4_U+30E4_U+30FC 1
370
     0
100
AcDbVertex
100
AcDb2dVertex
 10
95.78571232414386
 20
-119.6684922660898
 30
0.0
  0
VERTEX
  5
7C
330
7A
100
AcDbEntity
  8
_U+30EC_U+30A4_U+30E4_U+30FC 1
370
     0
100
AcDbVertex
100
AcDb2dVertex
 10
95.1673176845415
 20
-119.6684922660898
 30
0.0
  0
VERTEX
  5
7D
330
7A
100
AcDbEntity
  8
_U+30EC_U+30A4_U+30E4_U+30FC 1
370
     0
100
AcDbVertex
100
AcDb2dVertex
 10
95.1673176845415
 20
-119.7826971814259
 30
0.0
  0
VERTEX
  5
7E
330
7A
100
AcDbEntity
  8
_U+30EC_U+30A4_U+30E4_U+30FC 1
370
     0
100
AcDbVertex
100
AcDb2dVertex
 10
95.78571232414386
 20
-119.7826971814259
 30
0.0
  0
VERTEX
  5
7F
330
7A
100
AcDbEntity
  8
_U+30EC_U+30A4_U+30E4_U+30FC 1
370
     0
100
AcDbVertex
100
AcDb2dVertex
 10
95.78571232414386
 20
-119.6684922660898
 30
0.0
  0
SEQEND
  5
80
330
7A
100
AcDbEntity
  8
_U+30EC_U+30A4_U+30E4_U+30FC 1
370
     0
  0
HATCH
  5
81
330
63
100
AcDbEntity
  8
_U+30EC_U+30A4_U+30E4_U+30FC 1
 62
   179
420
  2234388
100
AcDbHatch
 10
0.0
 20
0.0
 30
0.0
210
0.0
220
0.0
230
1.0
  2
SOLID
 70
     1
 71
     0
 91
        4
 92
        1
 93
        1
 72
     4
 94
        3
 73
     0
 74
     1
 95
      203
 96
      199
 40
0.0
 40
0.0
 40
0.0
 40
0.0
 40
1.0
 40
1.0
 40
1.0
 40
2.0
 40
2.0
 40
2.0
 40
3.0
 40
3.0
 40
3.0
 40
4.0
 40
4.0
 40
4.0
 40
5.0
 40
5.0
 40
5.0
 40
6.0
 40
6.0
 40
6.0
 40
7.0
 40
7.0
 40
7.0
 40
8.0
 40
8.0
 40
8.0
 40
9.0
 40
9.0
 40
9.0
 40
10.0
 40
10.0
 40
10.0
 40
11.0
 40
11.0
 40
11.0
 40
12.0
 40
12.0
 40
12.0
 40
13.0
 40
13.0
 40
13.0
 40
14.0
 40
14.0
 40
14.0
 40
15.0
 40
15.0
 40
15.0
 40
16.0
 40
16.0
 40
16.0
 40
17.0
 40
17.0
 40
17.0
 40
18.0
 40
18.0
 40
18.0
 40
19.0
 40
19.0
 40
19.0
 40
20.0
 40
20.0
 40
20.0
 40
21.0
 40
21.0
 40
21.0
 40
22.0
 40
22.0
 40
22.0
 40
23.0
 40
23.0
 40
23.0
 40
24.0
 40
24.0
 40
24.0
 40
25.0
 40
25.0
 40
25.0
 40
26.0
 40
26.0
 40
26.0
 40
27.0
 40
27.0
 40
27.0
 40
28.0
 40
28.0
 40
28.0
 40
29.0
 40
29.0
 40
29.0
 40
30.0
 40
30.0
 40
30.0
 40
31.0
 40
31.0
 40
31.0
 40
32.0
 40
32.0
 40
32.0
 40
33.0
 40
33.0
 40
33.0
 40
34.0
 40
34.0
 40
34.0
 40
35.0
 40
35.0
 40
35.0
 40
36.0
 40
36.0
 40
36.0
 40
37.0
 40
37.0
 40
37.0
 40
38.0
 40
38.0
 40
38.0
 40
39.0
 40
39.0
 40
39.0
 40
40.0
 40
40.0
 40
40.0
 40
41.0
 40
41.0
 40
41.0
 40
42.0
 40
42.0
 40
42.0
 40
43.0
 40
43.0
 40
43.0
 40
44.0
 40
44.0
 40
44.0
 40
45.0
 40
45.0
 40
45.0
 40
46.0
 40
46.0
 40
46.0
 40
47.0
 40
47.0
 40
47.0
 40
48.0
 40
48.0
 40
48.0
 40
49.0
 40
49.0
 40
49.0
 40
50.0
 40
50.0
 40
50.0
 40
51.0
 40
51.0
 40
51.0
 40
52.0
 40
52.0
 40
52.0
 40
53.0
 40
53.0
 40
53.0
 40
54.0
 40
54.0
 40
54.0
 40
55.0
 40
55.0
 40
55.0
 40
56.0
 40
56.0
 40
56.0
 40
57.0
 40
57.0
 40
57.0
 40
58.0
 40
58.0
 40
58.0
 40
59.0
 40
59.0
 40
59.0
 40
60.0
 40
60.0
 40
60.0
 40
61.0
 40
61.0
 40
61.0
 40
62.0
 40
62.0
 40
62.0
 40
63.0
 40
63.0
 40
63.0
 40
64.0
 40
64.0
 40
64.0
 40
65.0
 40
65.0
 40
65.0
 40
66.0
 40
66.0
 40
66.0
 40
66.0
 10
95.64136282331188
 20
-118.9364094754742
 10
95.64136282331188
 20
-118.9364094754742
 10
95.15250377395493
 20
-118.9364094754742
 10
95.15250377395493
 20
-118.9364094754742
 10
95.14320201614476
 20
-118.980851207234
 10
95.13596731562573
 20
-119.0125460856983
 10
95.12459850052441
 20
-119.0507866455845
 10
95.14699162117853
 20
-119.0507866455845
 10
95.16008298402248
 20
-119.0528537028757
 10
95.16559513679888
 20
-119.0528537028757
 10
95.16559513679888
 20
-119.0528537028757
 10
95.33027070099382
 20
-119.0528537028757
 10
95.33027070099382
 20
-119.0528537028757
 10
95.33027070099382
 20
-119.0528537028757
 10
95.65789928164108
 20
-119.0528537028757
 10
95.65789928164108
 20
-119.0528537028757
 10
95.70268552294934
 20
-119.0528537028757
 10
95.95073239788732
 20
-119.0401068495803
 10
95.97829316176932
 20
-119.0401068495803
 10
95.9765706140267
 20
-119.0676676134622
 10
95.97484806628407
 20
-119.0866156386311
 10
95.97484806628407
 20
-119.1162434598043
 10
95.97278100899292
 20
-119.1479383382686
 10
95.97278100899292
 20
-119.2833305908389
 10
95.97278100899292
 20
-119.3108913547209
 10
95.97278100899292
 20
-119.3108913547209
 10
95.97278100899292
 20
-119.5563544080449
 10
95.97278100899292
 20
-119.5563544080449
 10
95.97278100899292
 20
-119.6007961398047
 10
95.9765706140267
 20
-119.7975110920124
 10
95.98036021906047
 20
-119.9497843124605
 10
95.98036021906047
 20
-119.9497843124605
 10
95.78226722865861
 20
-119.9497843124605
 10
95.78226722865861
 20
-119.9497843124605
 10
95.78226722865861
 20
-119.9497843124605
 10
95.78398977640123
 20
-119.916022376705
 10
95.78398977640123
 20
-119.916022376705
 10
95.78398977640123
 20
-119.916022376705
 10
95.16938474183266
 20
-119.916022376705
 10
95.16938474183266
 20
-119.916022376705
 10
95.16938474183266
 20
-119.916022376705
 10
95.17110728957529
 20
-119.9497843124605
 10
95.17110728957529
 20
-119.9497843124605
 10
95.17110728957529
 20
-119.9497843124605
 10
94.98024899969244
 20
-119.9497843124605
 10
94.98024899969244
 20
-119.9497843124605
 10
94.98403860472622
 20
-119.8948350394707
 10
94.98403860472622
 20
-119.8820881861753
 10
94.98955075750261
 20
-119.7678832708393
 10
94.99161781479377
 20
-119.7403225069573
 10
94.99334036253639
 20
-119.6071695664524
 10
94.99334036253639
 20
-119.5880492865092
 10
94.99334036253639
 20
-119.5880492865092
 10
94.99334036253639
 20
-119.3849609076538
 10
94.99334036253639
 20
-119.3849609076538
 10
94.87103947281003
 20
-119.6345580755601
 10
94.72290036694427
 20
-119.7658162135481
 10
94.63022729839106
 20
-119.8312730277679
 10
94.63022729839106
 20
-119.8312730277679
 10
94.47864309704006
 20
-119.6917466606153
 10
94.47864309704006
 20
-119.6917466606153
 10
94.5561577454582
 20
-119.6409315022078
 10
94.68224824021833
 20
-119.5541150959795
 10
94.80248207265355
 20
-119.3596394558372
 10
94.88206377836282
 20
-119.2326876872057
 10
94.93959687296649
 20
-119.0888549506965
 10
94.96922469413964
 20
-118.9364094754742
 10
94.76906464644662
 20
-118.9386487875396
 10
94.61196829231923
 20
-118.9450222141874
 10
94.52859698157619
 20
-118.9470892714785
 10
94.52859698157619
 20
-118.9470892714785
 10
94.52859698157619
 20
-118.7693223444396
 10
94.52859698157619
 20
-118.7693223444396
 10
94.70085175583868
 20
-118.7756957710873
 10
94.94889863077667
 20
-118.7800021404439
 10
95.0805012783132
 20
-118.7800021404439
 10
95.0805012783132
 20
-118.7800021404439
 10
95.26722545361375
 20
-118.7800021404439
 10
95.26722545361375
 20
-118.7800021404439
 10
95.26722545361375
 20
-118.7800021404439
 10
95.26722545361375
 20
-118.6719983969813
 10
95.26722545361375
 20
-118.6719983969813
 10
95.26722545361375
 20
-118.6719983969813
 10
95.13975692065951
 20
-118.6719983969813
 10
95.13975692065951
 20
-118.6719983969813
 10
94.99161781479377
 20
-118.6719983969813
 10
94.84347870892802
 20
-118.6763047663379
 10
94.69706215080491
 20
-118.6826781929856
 10
94.69706215080491
 20
-118.6826781929856
 10
94.69706215080491
 20
-118.5112846925944
 10
94.69706215080491
 20
-118.5112846925944
 10
94.8321098938267
 20
-118.5217922338244
 10
94.99506291027902
 20
-118.5217922338244
 10
95.13975692065951
 20
-118.5217922338244
 10
95.13975692065951
 20
-118.5217922338244
 10
95.26722545361375
 20
-118.5217922338244
 10
95.26722545361375
 20
-118.5217922338244
 10
95.26722545361375
 20
-118.5217922338244
 10
95.26722545361375
 20
-118.4034532039061
 10
95.26722545361375
 20
-118.4034532039061
 10
95.26722545361375
 20
-118.4034532039061
 10
95.15250377395493
 20
-118.4034532039061
 10
95.15250377395493
 20
-118.4034532039061
 10
95.11185164722899
 20
-118.4034532039061
 10
94.9340847201901
 20
-118.411893687845
 10
94.8968776889494
 20
-118.411893687845
 10
94.7191107619105
 20
-118.4160278024273
 10
94.65262041904518
 20
-118.4180948597184
 10
94.58406301888871
 20
-118.4203341717838
 10
94.58406301888871
 20
-118.4203341717838
 10
94.58406301888871
 20
-118.2361938180972
 10
94.58406301888871
 20
-118.2361938180972
 10
94.68397078796096
 20
-118.2446343020361
 10
94.72290036694427
 20
-118.2446343020361
 10
95.05810815765909
 20
-118.2532470407492
 10
95.00264212034656
 20
-118.157990150582
 10
94.97852645194982
 20
-118.1304293867
 10
94.94683157348553
 20
-118.0944281388792
 10
94.94683157348553
 20
-118.0944281388792
 10
95.10082734167618
 20
-118.0119181020074
 10
95.10082734167618
 20
-118.0119181020074
 10
95.13596731562573
 20
-118.0479193498283
 10
95.17489689460906
 20
-118.0902940242969
 10
95.23966468973175
 20
-118.2001925702763
 10
95.23966468973175
 20
-118.2001925702763
 10
95.13975692065951
 20
-118.2553140980403
 10
95.13975692065951
 20
-118.2553140980403
 10
95.13975692065951
 20
-118.2553140980403
 10
95.14871416892116
 20
-118.2553140980403
 10
95.14871416892116
 20
-118.2553140980403
 10
95.14871416892116
 20
-118.2553140980403
 10
95.60622284936234
 20
-118.2553140980403
 10
95.60622284936234
 20
-118.2553140980403
 10
95.60622284936234
 20
-118.2553140980403
 10
95.52285153861929
 20
-118.2108723662806
 10
95.52285153861929
 20
-118.2108723662806
 10
95.54696720701604
 20
-118.1728040611686
 10
95.59692109155216
 20
-118.092361081588
 10
95.61001245439611
 20
-118.0182915286552
 10
95.61001245439611
 20
-118.0182915286552
 10
95.79708113924518
 20
-118.081853540358
 10
95.79708113924518
 20
-118.081853540358
 10
95.8043158397642
 20
-118.0839205976492
 10
95.82291935538456
 20
-118.0944281388792
 10
95.82291935538456
 20
-118.1156154761135
 10
95.82291935538456
 20
-118.1536837812255
 10
95.76538626078089
 20
-118.1536837812255
 10
95.74884980245169
 20
-118.1536837812255
 10
95.73954804464151
 20
-118.1728040611686
 10
95.71922198127854
 20
-118.2129394235718
 10
95.69338376513916
 20
-118.2532470407492
 10
96.04306095689202
 20
-118.2468736141015
 10
96.06924368257991
 20
-118.2446343020361
 10
96.13573402544523
 20
-118.2384331301626
 10
96.13573402544523
 20
-118.2384331301626
 10
96.13573402544523
 20
-118.4203341717838
 10
96.13573402544523
 20
-118.4203341717838
 10
96.11919756711603
 20
-118.4203341717838
 10
96.09680444646192
 20
-118.4180948597184
 10
95.90422360883645
 20
-118.4096543757795
 10
95.85978187707673
 20
-118.4075873184884
 10
95.66720103945126
 20
-118.4034532039061
 10
95.62827146046794
 20
-118.4034532039061
 10
95.62827146046794
 20
-118.4034532039061
 10
95.43948022787625
 20
-118.4034532039061
 10
95.43948022787625
 20
-118.4034532039061
 10
95.43948022787625
 20
-118.4034532039061
 10
95.43948022787625
 20
-118.5217922338244
 10
95.43948022787625
 20
-118.5217922338244
 10
95.43948022787625
 20
-118.5217922338244
 10
95.59140893877576
 20
-118.5217922338244
 10
95.59140893877576
 20
-118.5217922338244
 10
95.7340358918651
 20
-118.5217922338244
 10
95.9007785133512
 20
-118.5217922338244
 10
96.03754880411562
 20
-118.5112846925944
 10
96.03754880411562
 20
-118.5112846925944
 10
96.03754880411562
 20
-118.6826781929856
 10
96.03754880411562
 20
-118.6826781929856
 10
95.85426972430032
 20
-118.6742377090467
 10
95.68201495003784
 20
-118.6719983969813
 10
95.59140893877576
 20
-118.6719983969813
 10
95.59140893877576
 20
-118.6719983969813
 10
95.43948022787625
 20
-118.6719983969813
 10
95.43948022787625
 20
-118.6719983969813
 10
95.43948022787625
 20
-118.6719983969813
 10
95.43948022787625
 20
-118.7800021404439
 10
95.43948022787625
 20
-118.7800021404439
 10
95.43948022787625
 20
-118.7800021404439
 10
95.64136282331188
 20
-118.7800021404439
 10
95.64136282331188
 20
-118.7800021404439
 10
95.75815156026185
 20
-118.7800021404439
 10
96.00998804023362
 20
-118.7756957710873
 10
96.19326712004892
 20
-118.7693223444396
 10
96.19326712004892
 20
-118.7693223444396
 10
96.19326712004892
 20
-118.9470892714785
 10
96.19326712004892
 20
-118.9470892714785
 10
96.02480195082019
 20
-118.9407158448308
 10
95.7505723501943
 20
-118.9364094754742
 10
95.64136282331188
 20
-118.9364094754742
 97
        0
 97
        0
 92
        1
 93
        4
 72
     1
 10
95.78571232414386
 20
-119.1923800700283
 11
95.1673176845415
 21
-119.1923800700283
 72
     1
 10
95.1673176845415
 20
-119.1923800700283
 11
95.1673176845415
 21
-119.3003838134909
 72
     1
 10
95.1673176845415
 20
-119.3003838134909
 11
95.78571232414386
 21
-119.3003838134909
 72
     1
 10
95.78571232414386
 20
-119.3003838134909
 11
95.78571232414386
 21
-119.1923800700283
 97
        0
 92
        1
 93
        4
 72
     1
 10
95.78571232414386
 20
-119.4250962700569
 11
95.1673176845415
 21
-119.4250962700569
 72
     1
 10
95.1673176845415
 20
-119.4250962700569
 11
95.1673176845415
 21
-119.5394734401672
 72
     1
 10
95.1673176845415
 20
-119.5394734401672
 11
95.78571232414386
 21
-119.5394734401672
 72
     1
 10
95.78571232414386
 20
-119.5394734401672
 11
95.78571232414386
 21
-119.4250962700569
 97
        0
 92
        1
 93
        4
 72
     1
 10
95.78571232414386
 20
-119.6684922660898
 11
95.1673176845415
 21
-119.6684922660898
 72
     1
 10
95.1673176845415
 20
-119.6684922660898
 11
95.1673176845415
 21
-119.7826971814259
 72
     1
 10
95.1673176845415
 20
-119.7826971814259
 11
95.78571232414386
 21
-119.7826971814259
 72
     1
 10
95.78571232414386
 20
-119.7826971814259
 11
95.78571232414386
 21
-119.6684922660898
 97
        0
 75
     2
 76
     1
 98
        0
  0
SPLINE
  5
82
330
63
100
AcDbEntity
  8
_U+30EC_U+30A4_U+30E4_U+30FC 1
370
     0
100
AcDbSpline
210
0.0
220
0.0
230
1.0
 70
    11
 71
     3
 72
    47
 73
    43
 74
     0
 42
0.0000000001
 43
0.0000000001
 12
1.0
 22
0.0
 32
0.0
 13
1.0
 23
0.0
 33
0.0
 40
0.0
 40
0.0
 40
0.0
 40
0.0
 40
1.0
 40
1.0
 40
1.0
 40
2.0
 40
2.0
 40
2.0
 40
3.0
 40
3.0
 40
3.0
 40
4.0
 40
4.0
 40
4.0
 40
5.0
 40
5.0
 40
5.0
 40
6.0
 40
6.0
 40
6.0
 40
7.0
 40
7.0
 40
7.0
 40
8.0
 40
8.0
 40
8.0
 40
9.0
 40
9.0
 40
9.0
 40
10.0
 40
10.0
 40
10.0
 40
11.0
 40
11.0
 40
11.0
 40
12.0
 40
12.0
 40
12.0
 40
13.0
 40
13.0
 40
13.0
 40
14.0
 40
14.0
 40
14.0
 40
14.0
 10
97.37321232374698
 20
-118.9131550809488
 30
0.0
 10
97.37321232374698
 20
-118.9131550809488
 30
0.0
 10
97.28432886022753
 20
-118.9131550809488
 30
0.0
 10
97.28432886022753
 20
-118.9131550809488
 30
0.0
 10
97.28432886022753
 20
-118.9999714871771
 30
0.0
 10
97.26572534460719
 20
-119.3892672770103
 30
0.0
 10
97.09347057034469
 20
-119.6092366237435
 30
0.0
 10
96.96014537506552
 20
-119.7783908120693
 30
0.0
 10
96.77858884299286
 20
-119.8483262504199
 30
0.0
 10
96.70451929005999
 20
-119.8757147595276
 30
0.0
 10
96.70451929005999
 20
-119.8757147595276
 30
0.0
 10
96.53433157308865
 20
-119.708627628493
 30
0.0
 10
96.53433157308865
 20
-119.708627628493
 30
0.0
 10
96.61942543157431
 20
-119.6958807751976
 30
0.0
 10
96.77307669021646
 20
-119.6726263806721
 30
0.0
 10
96.93809676395992
 20
-119.4843519124032
 30
0.0
 10
97.00286455908262
 20
-119.4125216715358
 30
0.0
 10
97.09347057034469
 20
-119.2728230496089
 30
0.0
 10
97.09347057034469
 20
-118.9131550809488
 30
0.0
 10
97.09347057034469
 20
-118.9131550809488
 30
0.0
 10
96.89158797490906
 20
-118.9131550809488
 30
0.0
 10
96.89158797490906
 20
-118.9131550809488
 30
0.0
 10
96.72863495845674
 20
-118.9131550809488
 30
0.0
 10
96.56568194200442
 20
-118.9174614503054
 30
0.0
 10
96.4027289255521
 20
-118.9322753608919
 30
0.0
 10
96.4027289255521
 20
-118.9322753608919
 30
0.0
 10
96.4027289255521
 20
-118.7123060141587
 30
0.0
 10
96.4027289255521
 20
-118.7123060141587
 30
0.0
 10
96.56740448974705
 20
-118.7271199247453
 30
0.0
 10
96.81751842197617
 20
-118.7312540393276
 30
0.0
 10
96.89158797490906
 20
-118.7312540393276
 30
0.0
 10
96.89158797490906
 20
-118.7312540393276
 30
0.0
 10
97.37321232374698
 20
-118.7312540393276
 30
0.0
 10
97.37321232374698
 20
-118.7312540393276
 30
0.0
 10
97.38974878207618
 20
-118.7312540393276
 30
0.0
 10
97.66742347818732
 20
-118.7312540393276
 30
0.0
 10
97.86758352588033
 20
-118.7123060141587
 30
0.0
 10
97.86758352588033
 20
-118.7123060141587
 30
0.0
 10
97.86758352588033
 20
-118.9322753608919
 30
0.0
 10
97.86758352588033
 20
-118.9322753608919
 30
0.0
 10
97.70256345213686
 20
-118.9174614503054
 30
0.0
 10
97.53788788794192
 20
-118.9131550809488
 30
0.0
 10
97.37321232374698
 20
-118.9131550809488
 30
0.0
  0
SPLINE
  5
83
330
63
100
AcDbEntity
  8
_U+30EC_U+30A4_U+30E4_U+30FC 1
370
     0
100
AcDbSpline
210
0.0
220
0.0
230
1.0
 70
    11
 71
     3
 72
    29
 73
    25
 74
     0
 42
0.0000000001
 43
0.0000000001
 12
1.0
 22
0.0
 32
0.0
 13
1.0
 23
0.0
 33
0.0
 40
0.0
 40
0.0
 40
0.0
 40
0.0
 40
1.0
 40
1.0
 40
1.0
 40
2.0
 40
2.0
 40
2.0
 40
3.0
 40
3.0
 40
3.0
 40
4.0
 40
4.0
 40
4.0
 40
5.0
 40
5.0
 40
5.0
 40
6.0
 40
6.0
 40
6.0
 40
7.0
 40
7.0
 40
7.0
 40
8.0
 40
8.0
 40
8.0
 40
8.0
 10
97.28432886022753
 20
-118.3843329239629
 30
0.0
 10
97.28432886022753
 20
-118.3843329239629
 30
0.0
 10
96.9749592856521
 20
-118.3843329239629
 30
0.0
 10
96.9749592856521
 20
-118.3843329239629
 30
0.0
 10
96.87677406432248
 20
-118.3843329239629
 30
0.0
 10
96.75447317459611
 20
-118.3907063506107
 30
0.0
 10
96.66007755830026
 20
-118.4034532039061
 30
0.0
 10
96.66007755830026
 20
-118.4034532039061
 30
0.0
 10
96.66007755830026
 20
-118.168497691812
 30
0.0
 10
96.66007755830026
 20
-118.168497691812
 30
0.0
 10
96.76377493240628
 20
-118.1833116023986
 30
0.0
 10
96.92500540111598
 20
-118.1876179717552
 30
0.0
 10
96.9749592856521
 20
-118.1876179717552
 30
0.0
 10
96.9749592856521
 20
-118.1876179717552
 30
0.0
 10
97.28432886022753
 20
-118.1876179717552
 30
0.0
 10
97.28432886022753
 20
-118.1876179717552
 30
0.0
 10
97.30086531855673
 20
-118.1876179717552
 30
0.0
 10
97.47863224559562
 20
-118.1876179717552
 30
0.0
 10
97.60265568306461
 20
-118.168497691812
 30
0.0
 10
97.60265568306461
 20
-118.168497691812
 30
0.0
 10
97.60265568306461
 20
-118.4034532039061
 30
0.0
 10
97.60265568306461
 20
-118.4034532039061
 30
0.0
 10
97.46554088275167
 20
-118.3843329239629
 30
0.0
 10
97.29914277081411
 20
-118.3843329239629
 30
0.0
 10
97.28432886022753
 20
-118.3843329239629
 30
0.0
  0
HATCH
  5
84
330
63
100
AcDbEntity
  8
_U+30EC_U+30A4_U+30E4_U+30FC 1
 62
   179
420
  2234388
100
AcDbHatch
 10
0.0
 20
0.0
 30
0.0
210
0.0
220
0.0
230
1.0
  2
SOLID
 70
     1
 71
     0
 91
        2
 92
        1
 93
        1
 72
     4
 94
        3
 73
     0
 74
     1
 95
       47
 96
       43
 40
0.0
 40
0.0
 40
0.0
 40
0.0
 40
1.0
 40
1.0
 40
1.0
 40
2.0
 40
2.0
 40
2.0
 40
3.0
 40
3.0
 40
3.0
 40
4.0
 40
4.0
 40
4.0
 40
5.0
 40
5.0
 40
5.0
 40
6.0
 40
6.0
 40
6.0
 40
7.0
 40
7.0
 40
7.0
 40
8.0
 40
8.0
 40
8.0
 40
9.0
 40
9.0
 40
9.0
 40
10.0
 40
10.0
 40
10.0
 40
11.0
 40
11.0
 40
11.0
 40
12.0
 40
12.0
 40
12.0
 40
13.0
 40
13.0
 40
13.0
 40
14.0
 40
14.0
 40
14.0
 40
14.0
 10
97.37321232374698
 20
-118.9131550809488
 10
97.37321232374698
 20
-118.9131550809488
 10
97.28432886022753
 20
-118.9131550809488
 10
97.28432886022753
 20
-118.9131550809488
 10
97.28432886022753
 20
-118.9999714871771
 10
97.26572534460719
 20
-119.3892672770103
 10
97.09347057034469
 20
-119.6092366237435
 10
96.96014537506552
 20
-119.7783908120693
 10
96.77858884299286
 20
-119.8483262504199
 10
96.70451929005999
 20
-119.8757147595276
 10
96.70451929005999
 20
-119.8757147595276
 10
96.53433157308865
 20
-119.708627628493
 10
96.53433157308865
 20
-119.708627628493
 10
96.61942543157431
 20
-119.6958807751976
 10
96.77307669021646
 20
-119.6726263806721
 10
96.93809676395992
 20
-119.4843519124032
 10
97.00286455908262
 20
-119.4125216715358
 10
97.09347057034469
 20
-119.2728230496089
 10
97.09347057034469
 20
-118.9131550809488
 10
97.09347057034469
 20
-118.9131550809488
 10
96.89158797490906
 20
-118.9131550809488
 10
96.89158797490906
 20
-118.9131550809488
 10
96.72863495845674
 20
-118.9131550809488
 10
96.56568194200442
 20
-118.9174614503054
 10
96.4027289255521
 20
-118.9322753608919
 10
96.4027289255521
 20
-118.9322753608919
 10
96.4027289255521
 20
-118.7123060141587
 10
96.4027289255521
 20
-118.7123060141587
 10
96.56740448974705
 20
-118.7271199247453
 10
96.81751842197617
 20
-118.7312540393276
 10
96.89158797490906
 20
-118.7312540393276
 10
96.89158797490906
 20
-118.7312540393276
 10
97.37321232374698
 20
-118.7312540393276
 10
97.37321232374698
 20
-118.7312540393276
 10
97.38974878207618
 20
-118.7312540393276
 10
97.66742347818732
 20
-118.7312540393276
 10
97.86758352588033
 20
-118.7123060141587
 10
97.86758352588033
 20
-118.7123060141587
 10
97.86758352588033
 20
-118.9322753608919
 10
97.86758352588033
 20
-118.9322753608919
 10
97.70256345213686
 20
-118.9174614503054
 10
97.53788788794192
 20
-118.9131550809488
 10
97.37321232374698
 20
-118.9131550809488
 97
        0
 97
        0
 92
        1
 93
        1
 72
     4
 94
        3
 73
     0
 74
     1
 95
       29
 96
       25
 40
0.0
 40
0.0
 40
0.0
 40
0.0
 40
1.0
 40
1.0
 40
1.0
 40
2.0
 40
2.0
 40
2.0
 40
3.0
 40
3.0
 40
3.0
 40
4.0
 40
4.0
 40
4.0
 40
5.0
 40
5.0
 40
5.0
 40
6.0
 40
6.0
 40
6.0
 40
7.0
 40
7.0
 40
7.0
 40
8.0
 40
8.0
 40
8.0
 40
8.0
 10
97.28432886022753
 20
-118.3843329239629
 10
97.28432886022753
 20
-118.3843329239629
 10
96.9749592856521
 20
-118.3843329239629
 10
96.9749592856521
 20
-118.3843329239629
 10
96.87677406432248
 20
-118.3843329239629
 10
96.75447317459611
 20
-118.3907063506107
 10
96.66007755830026
 20
-118.4034532039061
 10
96.66007755830026
 20
-118.4034532039061
 10
96.66007755830026
 20
-118.168497691812
 10
96.66007755830026
 20
-118.168497691812
 10
96.76377493240628
 20
-118.1833116023986
 10
96.92500540111598
 20
-118.1876179717552
 10
96.9749592856521
 20
-118.1876179717552
 10
96.9749592856521
 20
-118.1876179717552
 10
97.28432886022753
 20
-118.1876179717552
 10
97.28432886022753
 20
-118.1876179717552
 10
97.30086531855673
 20
-118.1876179717552
 10
97.47863224559562
 20
-118.1876179717552
 10
97.60265568306461
 20
-118.168497691812
 10
97.60265568306461
 20
-118.168497691812
 10
97.60265568306461
 20
-118.4034532039061
 10
97.60265568306461
 20
-118.4034532039061
 10
97.46554088275167
 20
-118.3843329239629
 10
97.29914277081411
 20
-118.3843329239629
 10
97.28432886022753
 20
-118.3843329239629
 97
        0
 97
        0
 75
     2
 76
     1
 98
        0
  0
SPLINE
  5
85
330
63
100
AcDbEntity
  8
_U+30EC_U+30A4_U+30E4_U+30FC 1
370
     0
100
AcDbSpline
210
0.0
220
0.0
230
1.0
 70
    11
 71
     3
 72
    29
 73
    25
 74
     0
 42
0.0000000001
 43
0.0000000001
 12
1.0
 22
0.0
 32
0.0
 13
1.0
 23
0.0
 33
0.0
 40
0.0
 40
0.0
 40
0.0
 40
0.0
 40
1.0
 40
1.0
 40
1.0
 40
2.0
 40
2.0
 40
2.0
 40
3.0
 40
3.0
 40
3.0
 40
4.0
 40
4.0
 40
4.0
 40
5.0
 40
5.0
 40
5.0
 40
6.0
 40
6.0
 40
6.0
 40
7.0
 40
7.0
 40
7.0
 40
8.0
 40
8.0
 40
8.0
 40
8.0
 10
98.98999563497473
 20
-119.0761080974011
 30
0.0
 10
98.98999563497473
 20
-119.0761080974011
 30
0.0
 10
98.56590438074048
 20
-119.0761080974011
 30
0.0
 10
98.56590438074048
 20
-119.0761080974011
 30
0.0
 10
98.54178871234373
 20
-119.0761080974011
 30
0.0
 10
98.26376950668406
 20
-119.0761080974011
 30
0.0
 10
98.07876787912615
 20
-119.1014295492177
 30
0.0
 10
98.07876787912615
 20
-119.1014295492177
 30
0.0
 10
98.07876787912615
 20
-118.8709526612545
 30
0.0
 10
98.07876787912615
 20
-118.8709526612545
 30
0.0
 10
98.21760522718172
 20
-118.8942070557799
 30
0.0
 10
98.3843478486678
 20
-118.8962741130711
 30
0.0
 10
98.56590438074048
 20
-118.8962741130711
 30
0.0
 10
98.56590438074048
 20
-118.8962741130711
 30
0.0
 10
98.98999563497473
 20
-118.8962741130711
 30
0.0
 10
98.98999563497473
 20
-118.8962741130711
 30
0.0
 10
99.15260414187853
 20
-118.8962741130711
 30
0.0
 10
99.31590166787936
 20
-118.8942070557799
 30
0.0
 10
99.47678762704054
 20
-118.8709526612545
 30
0.0
 10
99.47678762704054
 20
-118.8709526612545
 30
0.0
 10
99.47678762704054
 20
-119.1014295492177
 30
0.0
 10
99.47678762704054
 20
-119.1014295492177
 30
0.0
 10
99.31590166787936
 20
-119.0781751546923
 30
0.0
 10
99.09920516185714
 20
-119.0761080974011
 30
0.0
 10
98.98999563497473
 20
-119.0761080974011
 30
0.0
  0
HATCH
  5
86
330
63
100
AcDbEntity
  8
_U+30EC_U+30A4_U+30E4_U+30FC 1
 62
   179
420
  2234388
100
AcDbHatch
 10
0.0
 20
0.0
 30
0.0
210
0.0
220
0.0
230
1.0
  2
SOLID
 70
     1
 71
     0
 91
        1
 92
        1
 93
        1
 72
     4
 94
        3
 73
     0
 74
     1
 95
       29
 96
       25
 40
0.0
 40
0.0
 40
0.0
 40
0.0
 40
1.0
 40
1.0
 40
1.0
 40
2.0
 40
2.0
 40
2.0
 40
3.0
 40
3.0
 40
3.0
 40
4.0
 40
4.0
 40
4.0
 40
5.0
 40
5.0
 40
5.0
 40
6.0
 40
6.0
 40
6.0
 40
7.0
 40
7.0
 40
7.0
 40
8.0
 40
8.0
 40
8.0
 40
8.0
 10
98.98999563497473
 20
-119.0761080974011
 10
98.98999563497473
 20
-119.0761080974011
 10
98.56590438074048
 20
-119.0761080974011
 10
98.56590438074048
 20
-119.0761080974011
 10
98.54178871234373
 20
-119.0761080974011
 10
98.26376950668406
 20
-119.0761080974011
 10
98.07876787912615
 20
-119.1014295492177
 10
98.07876787912615
 20
-119.1014295492177
 10
98.07876787912615
 20
-118.8709526612545
 10
98.07876787912615
 20
-118.8709526612545
 10
98.21760522718172
 20
-118.8942070557799
 10
98.3843478486678
 20
-118.8962741130711
 10
98.56590438074048
 20
-118.8962741130711
 10
98.56590438074048
 20
-118.8962741130711
 10
98.98999563497473
 20
-118.8962741130711
 10
98.98999563497473
 20
-118.8962741130711
 10
99.15260414187853
 20
-118.8962741130711
 10
99.31590166787936
 20
-118.8942070557799
 10
99.47678762704054
 20
-118.8709526612545
 10
99.47678762704054
 20
-118.8709526612545
 10
99.47678762704054
 20
-119.1014295492177
 10
99.47678762704054
 20
-119.1014295492177
 10
99.31590166787936
 20
-119.0781751546923
 10
99.09920516185714
 20
-119.0761080974011
 10
98.98999563497473
 20
-119.0761080974011
 97
        0
 97
        0
 75
     2
 76
     1
 98
        0
  0
SPLINE
  5
87
330
63
100
AcDbEntity
  8
_U+30EC_U+30A4_U+30E4_U+30FC 1
370
     0
100
AcDbSpline
210
0.0
220
0.0
230
1.0
 70
    11
 71
     3
 72
    44
 73
    40
 74
     0
 42
0.0000000001
 43
0.0000000001
 12
1.0
 22
0.0
 32
0.0
 13
1.0
 23
0.0
 33
0.0
 40
0.0
 40
0.0
 40
0.0
 40
0.0
 40
1.0
 40
1.0
 40
1.0
 40
2.0
 40
2.0
 40
2.0
 40
3.0
 40
3.0
 40
3.0
 40
4.0
 40
4.0
 40
4.0
 40
5.0
 40
5.0
 40
5.0
 40
6.0
 40
6.0
 40
6.0
 40
7.0
 40
7.0
 40
7.0
 40
8.0
 40
8.0
 40
8.0
 40
9.0
 40
9.0
 40
9.0
 40
10.0
 40
10.0
 40
10.0
 40
11.0
 40
11.0
 40
11.0
 40
12.0
 40
12.0
 40
12.0
 40
13.0
 40
13.0
 40
13.0
 40
13.0
 10
100.9268283167822
 20
-118.6382364612259
 30
0.0
 10
100.8286430954526
 20
-119.0063449138248
 30
0.0
 10
100.7842013636928
 20
-119.1649915609206
 30
0.0
 10
100.6119465894303
 20
-119.4145887288269
 30
0.0
 10
100.4510606302692
 20
-119.6452378715644
 30
0.0
 10
100.2436658820571
 20
-119.8312730277679
 30
0.0
 10
99.99906410260441
 20
-119.9244628606439
 30
0.0
 10
99.99906410260441
 20
-119.9244628606439
 30
0.0
 10
99.83059893337568
 20
-119.7446288763139
 30
0.0
 10
99.83059893337568
 20
-119.7446288763139
 30
0.0
 10
100.3918049879229
 20
-119.5923556558658
 30
0.0
 10
100.6805039895868
 20
-119.035972734998
 30
0.0
 10
100.7359700268994
 20
-118.5958617867573
 30
0.0
 10
100.7359700268994
 20
-118.5958617867573
 30
0.0
 10
100.0658989550183
 20
-118.5958617867573
 30
0.0
 10
100.0658989550183
 20
-118.5958617867573
 30
0.0
 10
99.98425019201783
 20
-118.5958617867573
 30
0.0
 10
99.82336423285666
 20
-118.6001681561139
 30
0.0
 10
99.68624943254372
 20
-118.6191161812827
 30
0.0
 10
99.68624943254372
 20
-118.6191161812827
 30
0.0
 10
99.68624943254372
 20
-118.3991468345495
 30
0.0
 10
99.68624943254372
 20
-118.3991468345495
 30
0.0
 10
99.76204153321922
 20
-118.4203341717838
 30
0.0
 10
99.98252764427521
 20
-118.4203341717838
 30
0.0
 10
100.069688560052
 20
-118.4203341717838
 30
0.0
 10
100.069688560052
 20
-118.4203341717838
 30
0.0
 10
100.4472710252354
 20
-118.4203341717838
 30
0.0
 10
100.4472710252354
 20
-118.4203341717838
 30
0.0
 10
100.4844780564761
 20
-118.4203341717838
 30
0.0
 10
100.689805747397
 20
-118.4180948597184
 30
0.0
 10
100.7232231736039
 20
-118.411893687845
 30
0.0
 10
100.7600856952961
 20
-118.4055202611972
 30
0.0
 10
100.7621527525872
 20
-118.4034532039061
 30
0.0
 10
100.8158962421571
 20
-118.3631455867287
 30
0.0
 10
100.8158962421571
 20
-118.3631455867287
 30
0.0
 10
100.9805718063521
 20
-118.5176581192421
 30
0.0
 10
100.9805718063521
 20
-118.5176581192421
 30
0.0
 10
100.9547335902127
 20
-118.5472859404153
 30
0.0
 10
100.9416422273688
 20
-118.5789808188796
 30
0.0
 10
100.9268283167822
 20
-118.6382364612259
 30
0.0
  0
SPLINE
  5
88
330
63
100
AcDbEntity
  8
_U+30EC_U+30A4_U+30E4_U+30FC 1
370
     0
100
AcDbSpline
210
0.0
220
0.0
230
1.0
 70
    11
 71
     3
 72
    17
 73
    13
 74
     0
 42
0.0000000001
 43
0.0000000001
 12
1.0
 22
0.0
 32
0.0
 13
1.0
 23
0.0
 33
0.0
 40
0.0
 40
0.0
 40
0.0
 40
0.0
 40
1.0
 40
1.0
 40
1.0
 40
2.0
 40
2.0
 40
2.0
 40
3.0
 40
3.0
 40
3.0
 40
4.0
 40
4.0
 40
4.0
 40
4.0
 10
101.1101073965975
 20
-118.4392821969527
 30
0.0
 10
100.9991753219724
 20
-118.4392821969527
 30
0.0
 10
100.910291858453
 20
-118.3378241349121
 30
0.0
 10
100.910291858453
 20
-118.2108723662806
 30
0.0
 10
100.910291858453
 20
-118.0839205976492
 30
0.0
 10
100.9991753219724
 20
-117.9802232235431
 30
0.0
 10
101.1101073965975
 20
-117.9802232235431
 30
0.0
 10
101.2213839807711
 20
-117.9802232235431
 30
0.0
 10
101.3119899920331
 20
-118.0839205976492
 30
0.0
 10
101.3119899920331
 20
-118.2108723662806
 30
0.0
 10
101.3119899920331
 20
-118.3378241349121
 30
0.0
 10
101.2213839807711
 20
-118.4392821969527
 30
0.0
 10
101.1101073965975
 20
-118.4392821969527
 30
0.0
  0
SPLINE
  5
89
330
63
100
AcDbEntity
  8
_U+30EC_U+30A4_U+30E4_U+30FC 1
370
     0
100
AcDbSpline
210
0.0
220
0.0
230
1.0
 70
    11
 71
     3
 72
    17
 73
    13
 74
     0
 42
0.0000000001
 43
0.0000000001
 12
1.0
 22
0.0
 32
0.0
 13
1.0
 23
0.0
 33
0.0
 40
0.0
 40
0.0
 40
0.0
 40
0.0
 40
1.0
 40
1.0
 40
1.0
 40
2.0
 40
2.0
 40
2.0
 40
3.0
 40
3.0
 40
3.0
 40
4.0
 40
4.0
 40
4.0
 40
4.0
 10
101.1083848488549
 20
-118.1092420494657
 30
0.0
 10
101.0601535120614
 20
-118.1092420494657
 30
0.0
 10
101.021223933078
 20
-118.1536837812255
 30
0.0
 10
101.021223933078
 20
-118.2088053089895
 30
0.0
 10
101.021223933078
 20
-118.2658216392704
 30
0.0
 10
101.0601535120614
 20
-118.3145697403866
 30
0.0
 10
101.1121744538886
 20
-118.3145697403866
 30
0.0
 10
101.1638508861674
 20
-118.3145697403866
 30
0.0
 10
101.1989908601169
 20
-118.2637545819792
 30
0.0
 10
101.1989908601169
 20
-118.2108723662806
 30
0.0
 10
101.1989908601169
 20
-118.1536837812255
 30
0.0
 10
101.158338733391
 20
-118.1092420494657
 30
0.0
 10
101.1083848488549
 20
-118.1092420494657
 30
0.0
  0
HATCH
  5
8A
330
63
100
AcDbEntity
  8
_U+30EC_U+30A4_U+30E4_U+30FC 1
 62
   179
420
  2234388
100
AcDbHatch
 10
0.0
 20
0.0
 30
0.0
210
0.0
220
0.0
230
1.0
  2
SOLID
 70
     1
 71
     0
 91
        3
 92
        1
 93
        1
 72
     4
 94
        3
 73
     0
 74
     1
 95
       44
 96
       40
 40
0.0
 40
0.0
 40
0.0
 40
0.0
 40
1.0
 40
1.0
 40
1.0
 40
2.0
 40
2.0
 40
2.0
 40
3.0
 40
3.0
 40
3.0
 40
4.0
 40
4.0
 40
4.0
 40
5.0
 40
5.0
 40
5.0
 40
6.0
 40
6.0
 40
6.0
 40
7.0
 40
7.0
 40
7.0
 40
8.0
 40
8.0
 40
8.0
 40
9.0
 40
9.0
 40
9.0
 40
10.0
 40
10.0
 40
10.0
 40
11.0
 40
11.0
 40
11.0
 40
12.0
 40
12.0
 40
12.0
 40
13.0
 40
13.0
 40
13.0
 40
13.0
 10
100.9268283167822
 20
-118.6382364612259
 10
100.8286430954526
 20
-119.0063449138248
 10
100.7842013636928
 20
-119.1649915609206
 10
100.6119465894303
 20
-119.4145887288269
 10
100.4510606302692
 20
-119.6452378715644
 10
100.2436658820571
 20
-119.8312730277679
 10
99.99906410260441
 20
-119.9244628606439
 10
99.99906410260441
 20
-119.9244628606439
 10
99.83059893337568
 20
-119.7446288763139
 10
99.83059893337568
 20
-119.7446288763139
 10
100.3918049879229
 20
-119.5923556558658
 10
100.6805039895868
 20
-119.035972734998
 10
100.7359700268994
 20
-118.5958617867573
 10
100.7359700268994
 20
-118.5958617867573
 10
100.0658989550183
 20
-118.5958617867573
 10
100.0658989550183
 20
-118.5958617867573
 10
99.98425019201783
 20
-118.5958617867573
 10
99.82336423285666
 20
-118.6001681561139
 10
99.68624943254372
 20
-118.6191161812827
 10
99.68624943254372
 20
-118.6191161812827
 10
99.68624943254372
 20
-118.3991468345495
 10
99.68624943254372
 20
-118.3991468345495
 10
99.76204153321922
 20
-118.4203341717838
 10
99.98252764427521
 20
-118.4203341717838
 10
100.069688560052
 20
-118.4203341717838
 10
100.069688560052
 20
-118.4203341717838
 10
100.4472710252354
 20
-118.4203341717838
 10
100.4472710252354
 20
-118.4203341717838
 10
100.4844780564761
 20
-118.4203341717838
 10
100.689805747397
 20
-118.4180948597184
 10
100.7232231736039
 20
-118.411893687845
 10
100.7600856952961
 20
-118.4055202611972
 10
100.7621527525872
 20
-118.4034532039061
 10
100.8158962421571
 20
-118.3631455867287
 10
100.8158962421571
 20
-118.3631455867287
 10
100.9805718063521
 20
-118.5176581192421
 10
100.9805718063521
 20
-118.5176581192421
 10
100.9547335902127
 20
-118.5472859404153
 10
100.9416422273688
 20
-118.5789808188796
 10
100.9268283167822
 20
-118.6382364612259
 97
        0
 97
        0
 92
        1
 93
        1
 72
     4
 94
        3
 73
     0
 74
     1
 95
       17
 96
       13
 40
0.0
 40
0.0
 40
0.0
 40
0.0
 40
1.0
 40
1.0
 40
1.0
 40
2.0
 40
2.0
 40
2.0
 40
3.0
 40
3.0
 40
3.0
 40
4.0
 40
4.0
 40
4.0
 40
4.0
 10
101.1101073965975
 20
-118.4392821969527
 10
100.9991753219724
 20
-118.4392821969527
 10
100.910291858453
 20
-118.3378241349121
 10
100.910291858453
 20
-118.2108723662806
 10
100.910291858453
 20
-118.0839205976492
 10
100.9991753219724
 20
-117.9802232235431
 10
101.1101073965975
 20
-117.9802232235431
 10
101.2213839807711
 20
-117.9802232235431
 10
101.3119899920331
 20
-118.0839205976492
 10
101.3119899920331
 20
-118.2108723662806
 10
101.3119899920331
 20
-118.3378241349121
 10
101.2213839807711
 20
-118.4392821969527
 10
101.1101073965975
 20
-118.4392821969527
 97
        0
 97
        0
 92
        1
 93
        1
 72
     4
 94
        3
 73
     0
 74
     1
 95
       17
 96
       13
 40
0.0
 40
0.0
 40
0.0
 40
0.0
 40
1.0
 40
1.0
 40
1.0
 40
2.0
 40
2.0
 40
2.0
 40
3.0
 40
3.0
 40
3.0
 40
4.0
 40
4.0
 40
4.0
 40
4.0
 10
101.1083848488549
 20
-118.1092420494657
 10
101.0601535120614
 20
-118.1092420494657
 10
101.021223933078
 20
-118.1536837812255
 10
101.021223933078
 20
-118.2088053089895
 10
101.021223933078
 20
-118.2658216392704
 10
101.0601535120614
 20
-118.3145697403866
 10
101.1121744538886
 20
-118.3145697403866
 10
101.1638508861674
 20
-118.3145697403866
 10
101.1989908601169
 20
-118.2637545819792
 10
101.1989908601169
 20
-118.2108723662806
 10
101.1989908601169
 20
-118.1536837812255
 10
101.158338733391
 20
-118.1092420494657
 10
101.1083848488549
 20
-118.1092420494657
 97
        0
 97
        0
 75
     2
 76
     1
 98
        0
  0
ENDBLK
  5
66
330
63
100
AcDbEntity
  8
0
100
AcDbBlockEnd
  0
BLOCK
  5
BB
330
B9
100
AcDbEntity
  8
0
100
AcDbBlockBegin
  2
block 3
 70
     0
 10
0.0
 20
0.0
 30
0.0
  3
block 3
  1

  0
SPLINE
  5
BD
330
B9
100
AcDbEntity
  8
_U+30EC_U+30A4_U+30E4_U+30FC 1
370
     0
100
AcDbSpline
210
0.0
220
0.0
230
1.0
 70
    11
 71
     3
 72
    26
 73
    22
 74
     0
 42
0.0000000001
 43
0.0000000001
 12
1.0
 22
0.0
 32
0.0
 13
1.0
 23
0.0
 33
0.0
 40
0.0
 40
0.0
 40
0.0
 40
0.0
 40
1.0
 40
1.0
 40
1.0
 40
2.0
 40
2.0
 40
2.0
 40
3.0
 40
3.0
 40
3.0
 40
4.0
 40
4.0
 40
4.0
 40
5.0
 40
5.0
 40
5.0
 40
6.0
 40
6.0
 40
6.0
 40
7.0
 40
7.0
 40
7.0
 40
7.0
 10
105.2342312019901
 20
-131.8358805008952
 30
0.0
 10
105.2342312019901
 20
-131.8358805008952
 30
0.0
 10
104.1300780989675
 20
-131.8358805008952
 30
0.0
 10
104.1300780989675
 20
-131.8358805008952
 30
0.0
 10
104.1300780989675
 20
-131.8358805008952
 30
0.0
 10
104.1300780989675
 20
-132.1214789166224
 30
0.0
 10
104.1300780989675
 20
-132.1214789166224
 30
0.0
 10
104.1300780989675
 20
-132.1214789166224
 30
0.0
 10
103.9819389931017
 20
-132.1214789166224
 30
0.0
 10
103.9819389931017
 20
-132.1214789166224
 30
0.0
 10
103.9671250825152
 20
-131.8341579531526
 30
0.0
 10
103.8041720660628
 20
-131.7938503359752
 30
0.0
 10
103.6897948959526
 20
-131.7683566293843
 30
0.0
 10
103.6897948959526
 20
-131.7683566293843
 30
0.0
 10
103.6897948959526
 20
-131.6419216250756
 30
0.0
 10
103.6897948959526
 20
-131.6419216250756
 30
0.0
 10
103.6897948959526
 20
-131.6419216250756
 30
0.0
 10
105.2342312019901
 20
-131.6419216250756
 30
0.0
 10
105.2342312019901
 20
-131.6419216250756
 30
0.0
 10
105.2342312019901
 20
-131.6419216250756
 30
0.0
 10
105.2342312019901
 20
-131.8358805008952
 30
0.0
 10
105.2342312019901
 20
-131.8358805008952
 30
0.0
  0
HATCH
  5
BE
330
B9
100
AcDbEntity
  8
_U+30EC_U+30A4_U+30E4_U+30FC 1
 62
   179
420
  2234388
100
AcDbHatch
 10
0.0
 20
0.0
 30
0.0
210
0.0
220
0.0
230
1.0
  2
SOLID
 70
     1
 71
     0
 91
        1
 92
        1
 93
        1
 72
     4
 94
        3
 73
     0
 74
     1
 95
       26
 96
       22
 40
0.0
 40
0.0
 40
0.0
 40
0.0
 40
1.0
 40
1.0
 40
1.0
 40
2.0
 40
2.0
 40
2.0
 40
3.0
 40
3.0
 40
3.0
 40
4.0
 40
4.0
 40
4.0
 40
5.0
 40
5.0
 40
5.0
 40
6.0
 40
6.0
 40
6.0
 40
7.0
 40
7.0
 40
7.0
 40
7.0
 10
105.2342312019901
 20
-131.8358805008952
 10
105.2342312019901
 20
-131.8358805008952
 10
104.1300780989675
 20
-131.8358805008952
 10
104.1300780989675
 20
-131.8358805008952
 10
104.1300780989675
 20
-131.8358805008952
 10
104.1300780989675
 20
-132.1214789166224
 10
104.1300780989675
 20
-132.1214789166224
 10
104.1300780989675
 20
-132.1214789166224
 10
103.9819389931017
 20
-132.1214789166224
 10
103.9819389931017
 20
-132.1214789166224
 10
103.9671250825152
 20
-131.8341579531526
 10
103.8041720660628
 20
-131.7938503359752
 10
103.6897948959526
 20
-131.7683566293843
 10
103.6897948959526
 20
-131.7683566293843
 10
103.6897948959526
 20
-131.6419216250756
 10
103.6897948959526
 20
-131.6419216250756
 10
103.6897948959526
 20
-131.6419216250756
 10
105.2342312019901
 20
-131.6419216250756
 10
105.2342312019901
 20
-131.6419216250756
 10
105.2342312019901
 20
-131.6419216250756
 10
105.2342312019901
 20
-131.8358805008952
 10
105.2342312019901
 20
-131.8358805008952
 97
        0
 97
        0
 75
     2
 76
     1
 98
        0
  0
POLYLINE
  5
BF
330
B9
100
AcDbEntity
  8
_U+30EC_U+30A4_U+30E4_U+30FC 1
370
     0
100
AcDb2dPolyline
 66
     1
 10
0.0
 20
0.0
 30
0.0
  0
VERTEX
  5
C0
330
BF
100
AcDbEntity
  8
_U+30EC_U+30A4_U+30E4_U+30FC 1
370
     0
100
AcDbVertex
100
AcDb2dVertex
 10
105.2342312019901
 20
-131.157196690301
 30
0.0
  0
VERTEX
  5
C1
330
BF
100
AcDbEntity
  8
_U+30EC_U+30A4_U+30E4_U+30FC 1
370
     0
100
AcDbVertex
100
AcDb2dVertex
 10
104.9823947220183
 20
-131.157196690301
 30
0.0
  0
VERTEX
  5
C2
330
BF
100
AcDbEntity
  8
_U+30EC_U+30A4_U+30E4_U+30FC 1
370
     0
100
AcDbVertex
100
AcDb2dVertex
 10
104.9823947220183
 20
-130.9394666556332
 30
0.0
  0
VERTEX
  5
C3
330
BF
100
AcDbEntity
  8
_U+30EC_U+30A4_U+30E4_U+30FC 1
370
     0
100
AcDbVertex
100
AcDb2dVertex
 10
105.2342312019901
 20
-130.9394666556332
 30
0.0
  0
VERTEX
  5
C4
330
BF
100
AcDbEntity
  8
_U+30EC_U+30A4_U+30E4_U+30FC 1
370
     0
100
AcDbVertex
100
AcDb2dVertex
 10
105.2342312019901
 20
-131.157196690301
 30
0.0
  0
SEQEND
  5
C5
330
BF
100
AcDbEntity
  8
_U+30EC_U+30A4_U+30E4_U+30FC 1
370
     0
  0
HATCH
  5
C6
330
B9
100
AcDbEntity
  8
_U+30EC_U+30A4_U+30E4_U+30FC 1
 62
   179
420
  2234388
100
AcDbHatch
 10
0.0
 20
0.0
 30
0.0
210
0.0
220
0.0
230
1.0
  2
SOLID
 70
     1
 71
     0
 91
        1
 92
        1
 93
        4
 72
     1
 10
105.2342312019901
 20
-131.157196690301
 11
104.9823947220183
 21
-131.157196690301
 72
     1
 10
104.9823947220183
 20
-131.157196690301
 11
104.9823947220183
 21
-130.9394666556332
 72
     1
 10
104.9823947220183
 20
-130.9394666556332
 11
105.2342312019901
 21
-130.9394666556332
 72
     1
 10
105.2342312019901
 20
-130.9394666556332
 11
105.2342312019901
 21
-131.157196690301
 97
        0
 75
     2
 76
     1
 98
        0
  0
SPLINE
  5
C7
330
B9
100
AcDbEntity
  8
_U+30EC_U+30A4_U+30E4_U+30FC 1
370
     0
100
AcDbSpline
210
0.0
220
0.0
230
1.0
 70
    11
 71
     3
 72
    53
 73
    49
 74
     0
 42
0.0000000001
 43
0.0000000001
 12
1.0
 22
0.0
 32
0.0
 13
1.0
 23
0.0
 33
0.0
 40
0.0
 40
0.0
 40
0.0
 40
0.0
 40
1.0
 40
1.0
 40
1.0
 40
2.0
 40
2.0
 40
2.0
 40
3.0
 40
3.0
 40
3.0
 40
4.0
 40
4.0
 40
4.0
 40
5.0
 40
5.0
 40
5.0
 40
6.0
 40
6.0
 40
6.0
 40
7.0
 40
7.0
 40
7.0
 40
8.0
 40
8.0
 40
8.0
 40
9.0
 40
9.0
 40
9.0
 40
10.0
 40
10.0
 40
10.0
 40
11.0
 40
11.0
 40
11.0
 40
12.0
 40
12.0
 40
12.0
 40
13.0
 40
13.0
 40
13.0
 40
14.0
 40
14.0
 40
14.0
 40
15.0
 40
15.0
 40
15.0
 40
16.0
 40
16.0
 40
16.0
 40
16.0
 10
105.2848741056232
 20
-130.3193494682882
 30
0.0
 10
105.2848741056232
 20
-130.3868733397991
 30
0.0
 10
105.2679931377455
 20
-130.4750677842215
 30
0.0
 10
105.2046033808169
 20
-130.5625732095469
 30
0.0
 10
105.0947048348374
 20
-130.7127793727037
 30
0.0
 10
104.9634466968494
 20
-130.7310383787756
 30
0.0
 10
104.8556152081611
 20
-130.7475748371048
 30
0.0
 10
104.8556152081611
 20
-130.7475748371048
 30
0.0
 10
104.8556152081611
 20
-130.5553385090278
 30
0.0
 10
104.8556152081611
 20
-130.5553385090278
 30
0.0
 10
105.05439721766
 20
-130.5077961913314
 30
0.0
 10
105.0840250388332
 20
-130.3978976453519
 30
0.0
 10
105.0840250388332
 20
-130.3176269205456
 30
0.0
 10
105.0840250388332
 20
-130.1967040690133
 30
0.0
 10
104.9844617793094
 20
-130.0651014214768
 30
0.0
 10
104.7519178340551
 20
-130.0651014214768
 30
0.0
 10
104.495947239501
 20
-130.0651014214768
 30
0.0
 10
104.4260118011505
 20
-130.2204752278616
 30
0.0
 10
104.4260118011505
 20
-130.3248616210646
 30
0.0
 10
104.4260118011505
 20
-130.3524223849466
 30
0.0
 10
104.4260118011505
 20
-130.4750677842215
 30
0.0
 10
104.5552028818473
 20
-130.5518934135426
 30
0.0
 10
104.5552028818473
 20
-130.5518934135426
 30
0.0
 10
104.5362548566784
 20
-130.7038221244421
 30
0.0
 10
104.5362548566784
 20
-130.7038221244421
 30
0.0
 10
104.5362548566784
 20
-130.7038221244421
 30
0.0
 10
103.6897948959526
 20
-130.599435731239
 30
0.0
 10
103.6897948959526
 20
-130.599435731239
 30
0.0
 10
103.6897948959526
 20
-130.599435731239
 30
0.0
 10
103.6897948959526
 20
-129.9259195638727
 30
0.0
 10
103.6897948959526
 20
-129.9259195638727
 30
0.0
 10
103.6897948959526
 20
-129.9259195638727
 30
0.0
 10
103.8844427908692
 20
-129.9259195638727
 30
0.0
 10
103.8844427908692
 20
-129.9259195638727
 30
0.0
 10
103.8844427908692
 20
-129.9259195638727
 30
0.0
 10
103.8844427908692
 20
-130.4585313258923
 30
0.0
 10
103.8844427908692
 20
-130.4585313258923
 30
0.0
 10
103.8844427908692
 20
-130.4585313258923
 30
0.0
 10
104.3075005164578
 20
-130.5150308918504
 30
0.0
 10
104.3075005164578
 20
-130.5150308918504
 30
0.0
 10
104.2737385807024
 20
-130.4619764213776
 30
0.0
 10
104.233430963525
 20
-130.3906629448329
 30
0.0
 10
104.233430963525
 20
-130.288343608921
 30
0.0
 10
104.233430963525
 20
-130.068546516962
 30
0.0
 10
104.419810629277
 20
-129.8635633355897
 30
0.0
 10
104.7329698088862
 20
-129.8635633355897
 30
0.0
 10
105.0502631030777
 20
-129.8635633355897
 30
0.0
 10
105.2848741056232
 20
-130.0575222114092
 30
0.0
 10
105.2848741056232
 20
-130.3193494682882
 30
0.0
  0
HATCH
  5
C8
330
B9
100
AcDbEntity
  8
_U+30EC_U+30A4_U+30E4_U+30FC 1
 62
   179
420
  2234388
100
AcDbHatch
 10
0.0
 20
0.0
 30
0.0
210
0.0
220
0.0
230
1.0
  2
SOLID
 70
     1
 71
     0
 91
        1
 92
        1
 93
        1
 72
     4
 94
        3
 73
     0
 74
     1
 95
       53
 96
       49
 40
0.0
 40
0.0
 40
0.0
 40
0.0
 40
1.0
 40
1.0
 40
1.0
 40
2.0
 40
2.0
 40
2.0
 40
3.0
 40
3.0
 40
3.0
 40
4.0
 40
4.0
 40
4.0
 40
5.0
 40
5.0
 40
5.0
 40
6.0
 40
6.0
 40
6.0
 40
7.0
 40
7.0
 40
7.0
 40
8.0
 40
8.0
 40
8.0
 40
9.0
 40
9.0
 40
9.0
 40
10.0
 40
10.0
 40
10.0
 40
11.0
 40
11.0
 40
11.0
 40
12.0
 40
12.0
 40
12.0
 40
13.0
 40
13.0
 40
13.0
 40
14.0
 40
14.0
 40
14.0
 40
15.0
 40
15.0
 40
15.0
 40
16.0
 40
16.0
 40
16.0
 40
16.0
 10
105.2848741056232
 20
-130.3193494682882
 10
105.2848741056232
 20
-130.3868733397991
 10
105.2679931377455
 20
-130.4750677842215
 10
105.2046033808169
 20
-130.5625732095469
 10
105.0947048348374
 20
-130.7127793727037
 10
104.9634466968494
 20
-130.7310383787756
 10
104.8556152081611
 20
-130.7475748371048
 10
104.8556152081611
 20
-130.7475748371048
 10
104.8556152081611
 20
-130.5553385090278
 10
104.8556152081611
 20
-130.5553385090278
 10
105.05439721766
 20
-130.5077961913314
 10
105.0840250388332
 20
-130.3978976453519
 10
105.0840250388332
 20
-130.3176269205456
 10
105.0840250388332
 20
-130.1967040690133
 10
104.9844617793094
 20
-130.0651014214768
 10
104.7519178340551
 20
-130.0651014214768
 10
104.495947239501
 20
-130.0651014214768
 10
104.4260118011505
 20
-130.2204752278616
 10
104.4260118011505
 20
-130.3248616210646
 10
104.4260118011505
 20
-130.3524223849466
 10
104.4260118011505
 20
-130.4750677842215
 10
104.5552028818473
 20
-130.5518934135426
 10
104.5552028818473
 20
-130.5518934135426
 10
104.5362548566784
 20
-130.7038221244421
 10
104.5362548566784
 20
-130.7038221244421
 10
104.5362548566784
 20
-130.7038221244421
 10
103.6897948959526
 20
-130.599435731239
 10
103.6897948959526
 20
-130.599435731239
 10
103.6897948959526
 20
-130.599435731239
 10
103.6897948959526
 20
-129.9259195638727
 10
103.6897948959526
 20
-129.9259195638727
 10
103.6897948959526
 20
-129.9259195638727
 10
103.8844427908692
 20
-129.9259195638727
 10
103.8844427908692
 20
-129.9259195638727
 10
103.8844427908692
 20
-129.9259195638727
 10
103.8844427908692
 20
-130.4585313258923
 10
103.8844427908692
 20
-130.4585313258923
 10
103.8844427908692
 20
-130.4585313258923
 10
104.3075005164578
 20
-130.5150308918504
 10
104.3075005164578
 20
-130.5150308918504
 10
104.2737385807024
 20
-130.4619764213776
 10
104.233430963525
 20
-130.3906629448329
 10
104.233430963525
 20
-130.288343608921
 10
104.233430963525
 20
-130.068546516962
 10
104.419810629277
 20
-129.8635633355897
 10
104.7329698088862
 20
-129.8635633355897
 10
105.0502631030777
 20
-129.8635633355897
 10
105.2848741056232
 20
-130.0575222114092
 10
105.2848741056232
 20
-130.3193494682882
 97
        0
 97
        0
 75
     2
 76
     1
 98
        0
  0
ENDBLK
  5
BC
330
B9
100
AcDbEntity
  8
0
100
AcDbBlockEnd
  0
BLOCK
  5
D7
330
D5
100
AcDbEntity
  8
0
100
AcDbBlockBegin
  2
block 4
 70
     0
 10
0.0
 20
0.0
 30
0.0
  3
block 4
  1

  0
SPLINE
  5
D9
330
D5
100
AcDbEntity
  8
_U+30EC_U+30A4_U+30E4_U+30FC 1
370
     0
100
AcDbSpline
210
0.0
220
0.0
230
1.0
 70
    11
 71
     3
 72
    44
 73
    40
 74
     0
 42
0.0000000001
 43
0.0000000001
 12
1.0
 22
0.0
 32
0.0
 13
1.0
 23
0.0
 33
0.0
 40
0.0
 40
0.0
 40
0.0
 40
0.0
 40
1.0
 40
1.0
 40
1.0
 40
2.0
 40
2.0
 40
2.0
 40
3.0
 40
3.0
 40
3.0
 40
4.0
 40
4.0
 40
4.0
 40
5.0
 40
5.0
 40
5.0
 40
6.0
 40
6.0
 40
6.0
 40
7.0
 40
7.0
 40
7.0
 40
8.0
 40
8.0
 40
8.0
 40
9.0
 40
9.0
 40
9.0
 40
10.0
 40
10.0
 40
10.0
 40
11.0
 40
11.0
 40
11.0
 40
12.0
 40
12.0
 40
12.0
 40
13.0
 40
13.0
 40
13.0
 40
13.0
 10
76.65234101816331
 20
-126.4708333017156
 30
0.0
 10
76.81098766525906
 20
-126.6596245343073
 30
0.0
 10
76.88505721819193
 20
-126.7398952591136
 30
0.0
 10
77.02888995470111
 20
-126.7819254240337
 30
0.0
 10
77.02888995470111
 20
-126.7819254240337
 30
0.0
 10
77.02888995470111
 20
-126.1087537662159
 30
0.0
 10
77.02888995470111
 20
-126.1087537662159
 30
0.0
 10
77.02888995470111
 20
-126.1087537662159
 30
0.0
 10
77.23404539084774
 20
-126.1087537662159
 30
0.0
 10
77.23404539084774
 20
-126.1087537662159
 30
0.0
 10
77.23404539084774
 20
-126.1087537662159
 30
0.0
 10
77.23404539084774
 20
-126.9979329109589
 30
0.0
 10
77.23404539084774
 20
-126.9979329109589
 30
0.0
 10
76.8764444794788
 20
-126.9707166566254
 30
0.0
 10
76.79824081196364
 20
-126.9138725811188
 30
0.0
 10
76.499895542941
 20
-126.5807318476951
 30
0.0
 10
76.30111353344209
 20
-126.3592122079935
 30
0.0
 10
76.23341740715692
 20
-126.3027126420354
 30
0.0
 10
76.09595809729547
 20
-126.3027126420354
 30
0.0
 10
75.97744681260286
 20
-126.3027126420354
 30
0.0
 10
75.84618867461485
 20
-126.3647243607699
 30
0.0
 10
75.84618867461485
 20
-126.5349120777413
 30
0.0
 10
75.84618867461485
 20
-126.7602213224766
 30
0.0
 10
76.07683781735233
 20
-126.7674560229956
 30
0.0
 10
76.19328204475377
 20
-126.7712456280294
 30
0.0
 10
76.19328204475377
 20
-126.7712456280294
 30
0.0
 10
76.19328204475377
 20
-126.965204503849
 30
0.0
 10
76.19328204475377
 20
-126.965204503849
 30
0.0
 10
76.06633027612232
 20
-126.9576252937814
 30
0.0
 10
75.95419241807743
 20
-126.9486680455198
 30
0.0
 10
75.83568113338484
 20
-126.8790771167177
 30
0.0
 10
75.67496742899793
 20
-126.7839924813248
 30
0.0
 10
75.64103323846821
 20
-126.6227620126152
 30
0.0
 10
75.64103323846821
 20
-126.5221652244459
 30
0.0
 10
75.64103323846821
 20
-126.2823865786725
 30
0.0
 10
75.82517359215483
 20
-126.1032416134395
 30
0.0
 10
76.09802515458661
 20
-126.1032416134395
 30
0.0
 10
76.32643498525867
 20
-126.1032416134395
 30
0.0
 10
76.42599824478239
 20
-126.2038384016088
 30
0.0
 10
76.65234101816331
 20
-126.4708333017156
 30
0.0
  0
HATCH
  5
DA
330
D5
100
AcDbEntity
  8
_U+30EC_U+30A4_U+30E4_U+30FC 1
 62
   179
420
  2234388
100
AcDbHatch
 10
0.0
 20
0.0
 30
0.0
210
0.0
220
0.0
230
1.0
  2
SOLID
 70
     1
 71
     0
 91
        1
 92
        1
 93
        1
 72
     4
 94
        3
 73
     0
 74
     1
 95
       44
 96
       40
 40
0.0
 40
0.0
 40
0.0
 40
0.0
 40
1.0
 40
1.0
 40
1.0
 40
2.0
 40
2.0
 40
2.0
 40
3.0
 40
3.0
 40
3.0
 40
4.0
 40
4.0
 40
4.0
 40
5.0
 40
5.0
 40
5.0
 40
6.0
 40
6.0
 40
6.0
 40
7.0
 40
7.0
 40
7.0
 40
8.0
 40
8.0
 40
8.0
 40
9.0
 40
9.0
 40
9.0
 40
10.0
 40
10.0
 40
10.0
 40
11.0
 40
11.0
 40
11.0
 40
12.0
 40
12.0
 40
12.0
 40
13.0
 40
13.0
 40
13.0
 40
13.0
 10
76.65234101816331
 20
-126.4708333017156
 10
76.81098766525906
 20
-126.6596245343073
 10
76.88505721819193
 20
-126.7398952591136
 10
77.02888995470111
 20
-126.7819254240337
 10
77.02888995470111
 20
-126.7819254240337
 10
77.02888995470111
 20
-126.1087537662159
 10
77.02888995470111
 20
-126.1087537662159
 10
77.02888995470111
 20
-126.1087537662159
 10
77.23404539084774
 20
-126.1087537662159
 10
77.23404539084774
 20
-126.1087537662159
 10
77.23404539084774
 20
-126.1087537662159
 10
77.23404539084774
 20
-126.9979329109589
 10
77.23404539084774
 20
-126.9979329109589
 10
76.8764444794788
 20
-126.9707166566254
 10
76.79824081196364
 20
-126.9138725811188
 10
76.499895542941
 20
-126.5807318476951
 10
76.30111353344209
 20
-126.3592122079935
 10
76.23341740715692
 20
-126.3027126420354
 10
76.09595809729547
 20
-126.3027126420354
 10
75.97744681260286
 20
-126.3027126420354
 10
75.84618867461485
 20
-126.3647243607699
 10
75.84618867461485
 20
-126.5349120777413
 10
75.84618867461485
 20
-126.7602213224766
 10
76.07683781735233
 20
-126.7674560229956
 10
76.19328204475377
 20
-126.7712456280294
 10
76.19328204475377
 20
-126.7712456280294
 10
76.19328204475377
 20
-126.965204503849
 10
76.19328204475377
 20
-126.965204503849
 10
76.06633027612232
 20
-126.9576252937814
 10
75.95419241807743
 20
-126.9486680455198
 10
75.83568113338484
 20
-126.8790771167177
 10
75.67496742899793
 20
-126.7839924813248
 10
75.64103323846821
 20
-126.6227620126152
 10
75.64103323846821
 20
-126.5221652244459
 10
75.64103323846821
 20
-126.2823865786725
 10
75.82517359215483
 20
-126.1032416134395
 10
76.09802515458661
 20
-126.1032416134395
 10
76.32643498525867
 20
-126.1032416134395
 10
76.42599824478239
 20
-126.2038384016088
 10
76.65234101816331
 20
-126.4708333017156
 97
        0
 97
        0
 75
     2
 76
     1
 98
        0
  0
SPLINE
  5
DB
330
D5
100
AcDbEntity
  8
_U+30EC_U+30A4_U+30E4_U+30FC 1
370
     0
100
AcDbSpline
210
0.0
220
0.0
230
1.0
 70
    11
 71
     3
 72
    29
 73
    25
 74
     0
 42
0.0000000001
 43
0.0000000001
 12
1.0
 22
0.0
 32
0.0
 13
1.0
 23
0.0
 33
0.0
 40
0.0
 40
0.0
 40
0.0
 40
0.0
 40
1.0
 40
1.0
 40
1.0
 40
2.0
 40
2.0
 40
2.0
 40
3.0
 40
3.0
 40
3.0
 40
4.0
 40
4.0
 40
4.0
 40
5.0
 40
5.0
 40
5.0
 40
6.0
 40
6.0
 40
6.0
 40
7.0
 40
7.0
 40
7.0
 40
8.0
 40
8.0
 40
8.0
 40
8.0
 10
77.05627846380885
 20
-125.1899468002997
 30
0.0
 10
77.26574026931205
 20
-125.28330888795
 30
0.0
 10
77.28486054925517
 20
-125.4335150511069
 30
0.0
 10
77.28486054925517
 20
-125.5341118392762
 30
0.0
 10
77.28486054925517
 20
-125.6732936968803
 30
0.0
 10
77.23835176020431
 20
-125.7959390961552
 30
0.0
 10
77.05627846380885
 20
-125.8782768782527
 30
0.0
 10
76.8618028236665
 20
-125.9678493608692
 30
0.0
 10
76.6247802542813
 20
-125.9843858191984
 30
0.0
 10
76.46182723782898
 20
-125.9843858191984
 30
0.0
 10
76.31799450131982
 20
-125.9843858191984
 30
0.0
 10
76.06633027612232
 20
-125.9695719086118
 30
0.0
 10
75.86737601184913
 20
-125.8782768782527
 30
0.0
 10
75.66428763299365
 20
-125.7849147906024
 30
0.0
 10
75.64103323846821
 20
-125.6457329329983
 30
0.0
 10
75.64103323846821
 20
-125.5341118392762
 30
0.0
 10
75.64103323846821
 20
-125.3969970389633
 30
0.0
 10
75.68547497022794
 20
-125.2722845823972
 30
0.0
 10
75.86737601184913
 20
-125.1899468002997
 30
0.0
 10
76.0599568494746
 20
-125.104163922717
 30
0.0
 10
76.28836668014667
 20
-125.083837859354
 30
0.0
 10
76.46182723782898
 20
-125.083837859354
 30
0.0
 10
76.63322073822017
 20
-125.083837859354
 30
0.0
 10
76.86386988095765
 20
-125.1020968654259
 30
0.0
 10
77.05627846380885
 20
-125.1899468002997
 30
0.0
  0
SPLINE
  5
DC
330
D5
100
AcDbEntity
  8
_U+30EC_U+30A4_U+30E4_U+30FC 1
370
     0
100
AcDbSpline
210
0.0
220
0.0
230
1.0
 70
    11
 71
     3
 72
    17
 73
    13
 74
     0
 42
0.0000000001
 43
0.0000000001
 12
1.0
 22
0.0
 32
0.0
 13
1.0
 23
0.0
 33
0.0
 40
0.0
 40
0.0
 40
0.0
 40
0.0
 40
1.0
 40
1.0
 40
1.0
 40
2.0
 40
2.0
 40
2.0
 40
3.0
 40
3.0
 40
3.0
 40
4.0
 40
4.0
 40
4.0
 40
4.0
 10
75.83361407609368
 20
-125.5341118392762
 30
0.0
 10
75.83361407609368
 20
-125.7501193262014
 30
0.0
 10
76.11697317975548
 20
-125.7904269433788
 30
0.0
 10
76.46182723782898
 20
-125.7904269433788
 30
0.0
 10
76.78135984408591
 20
-125.7904269433788
 30
0.0
 10
77.09021265433856
 20
-125.7594210840115
 30
0.0
 10
77.09021265433856
 20
-125.5341118392762
 30
0.0
 10
77.09021265433856
 20
-125.3201714096422
 30
0.0
 10
76.80874835319365
 20
-125.2777967351736
 30
0.0
 10
76.46182723782898
 20
-125.2777967351736
 30
0.0
 10
76.14246688634633
 20
-125.2777967351736
 30
0.0
 10
75.83361407609368
 20
-125.310869651832
 30
0.0
 10
75.83361407609368
 20
-125.5341118392762
 30
0.0
  0
HATCH
  5
DD
330
D5
100
AcDbEntity
  8
_U+30EC_U+30A4_U+30E4_U+30FC 1
 62
   179
420
  2234388
100
AcDbHatch
 10
0.0
 20
0.0
 30
0.0
210
0.0
220
0.0
230
1.0
  2
SOLID
 70
     1
 71
     0
 91
        2
 92
        1
 93
        1
 72
     4
 94
        3
 73
     0
 74
     1
 95
       29
 96
       25
 40
0.0
 40
0.0
 40
0.0
 40
0.0
 40
1.0
 40
1.0
 40
1.0
 40
2.0
 40
2.0
 40
2.0
 40
3.0
 40
3.0
 40
3.0
 40
4.0
 40
4.0
 40
4.0
 40
5.0
 40
5.0
 40
5.0
 40
6.0
 40
6.0
 40
6.0
 40
7.0
 40
7.0
 40
7.0
 40
8.0
 40
8.0
 40
8.0
 40
8.0
 10
77.05627846380885
 20
-125.1899468002997
 10
77.26574026931205
 20
-125.28330888795
 10
77.28486054925517
 20
-125.4335150511069
 10
77.28486054925517
 20
-125.5341118392762
 10
77.28486054925517
 20
-125.6732936968803
 10
77.23835176020431
 20
-125.7959390961552
 10
77.05627846380885
 20
-125.8782768782527
 10
76.8618028236665
 20
-125.9678493608692
 10
76.6247802542813
 20
-125.9843858191984
 10
76.46182723782898
 20
-125.9843858191984
 10
76.31799450131982
 20
-125.9843858191984
 10
76.06633027612232
 20
-125.9695719086118
 10
75.86737601184913
 20
-125.8782768782527
 10
75.66428763299365
 20
-125.7849147906024
 10
75.64103323846821
 20
-125.6457329329983
 10
75.64103323846821
 20
-125.5341118392762
 10
75.64103323846821
 20
-125.3969970389633
 10
75.68547497022794
 20
-125.2722845823972
 10
75.86737601184913
 20
-125.1899468002997
 10
76.0599568494746
 20
-125.104163922717
 10
76.28836668014667
 20
-125.083837859354
 10
76.46182723782898
 20
-125.083837859354
 10
76.63322073822017
 20
-125.083837859354
 10
76.86386988095765
 20
-125.1020968654259
 10
77.05627846380885
 20
-125.1899468002997
 97
        0
 97
        0
 92
        1
 93
        1
 72
     4
 94
        3
 73
     0
 74
     1
 95
       17
 96
       13
 40
0.0
 40
0.0
 40
0.0
 40
0.0
 40
1.0
 40
1.0
 40
1.0
 40
2.0
 40
2.0
 40
2.0
 40
3.0
 40
3.0
 40
3.0
 40
4.0
 40
4.0
 40
4.0
 40
4.0
 10
75.83361407609368
 20
-125.5341118392762
 10
75.83361407609368
 20
-125.7501193262014
 10
76.11697317975548
 20
-125.7904269433788
 10
76.46182723782898
 20
-125.7904269433788
 10
76.78135984408591
 20
-125.7904269433788
 10
77.09021265433856
 20
-125.7594210840115
 10
77.09021265433856
 20
-125.5341118392762
 10
77.09021265433856
 20
-125.3201714096422
 10
76.80874835319365
 20
-125.2777967351736
 10
76.46182723782898
 20
-125.2777967351736
 10
76.14246688634633
 20
-125.2777967351736
 10
75.83361407609368
 20
-125.310869651832
 10
75.83361407609368
 20
-125.5341118392762
 97
        0
 97
        0
 75
     2
 76
     1
 98
        0
  0
ENDBLK
  5
D8
330
D5
100
AcDbEntity
  8
0
100
AcDbBlockEnd
  0
BLOCK
  5
EC
330
EA
100
AcDbEntity
  8
0
100
AcDbBlockBegin
  2
block 5
 70
     0
 10
0.0
 20
0.0
 30
0.0
  3
block 5
  1

  0
SPLINE
  5
EE
330
EA
100
AcDbEntity
  8
_U+30EC_U+30A4_U+30E4_U+30FC 1
370
     0
100
AcDbSpline
210
0.0
220
0.0
230
1.0
 70
    11
 71
     3
 72
    44
 73
    40
 74
     0
 42
0.0000000001
 43
0.0000000001
 12
1.0
 22
0.0
 32
0.0
 13
1.0
 23
0.0
 33
0.0
 40
0.0
 40
0.0
 40
0.0
 40
0.0
 40
1.0
 40
1.0
 40
1.0
 40
2.0
 40
2.0
 40
2.0
 40
3.0
 40
3.0
 40
3.0
 40
4.0
 40
4.0
 40
4.0
 40
5.0
 40
5.0
 40
5.0
 40
6.0
 40
6.0
 40
6.0
 40
7.0
 40
7.0
 40
7.0
 40
8.0
 40
8.0
 40
8.0
 40
9.0
 40
9.0
 40
9.0
 40
10.0
 40
10.0
 40
10.0
 40
11.0
 40
11.0
 40
11.0
 40
12.0
 40
12.0
 40
12.0
 40
13.0
 40
13.0
 40
13.0
 40
13.0
 10
91.16721731661792
 20
-138.6296087978079
 30
0.0
 10
90.97842608402622
 20
-138.7884276996779
 30
0.0
 10
90.89815535921991
 20
-138.8624972526108
 30
0.0
 10
90.85612519429986
 20
-139.0061577343457
 30
0.0
 10
90.85612519429986
 20
-139.0061577343457
 30
0.0
 10
91.52929685211768
 20
-139.0061577343457
 30
0.0
 10
91.52929685211768
 20
-139.0061577343457
 30
0.0
 10
91.52929685211768
 20
-139.0061577343457
 30
0.0
 10
91.52929685211768
 20
-139.2114854252666
 30
0.0
 10
91.52929685211768
 20
-139.2114854252666
 30
0.0
 10
91.52929685211768
 20
-139.2114854252666
 30
0.0
 10
90.6401177073747
 20
-139.2114854252666
 30
0.0
 10
90.6401177073747
 20
-139.2114854252666
 30
0.0
 10
90.66733396170817
 20
-138.8538845138976
 30
0.0
 10
90.7241780372148
 20
-138.7756808463825
 30
0.0
 10
91.05731877063845
 20
-138.4773355773598
 30
0.0
 10
91.27883841034001
 20
-138.2785535678609
 30
0.0
 10
91.33533797629812
 20
-138.2106851868015
 30
0.0
 10
91.33533797629812
 20
-138.07322587694
 30
0.0
 10
91.33533797629812
 20
-137.9547145922474
 30
0.0
 10
91.27332625756361
 20
-137.8238009638079
 30
0.0
 10
91.10313854059227
 20
-137.8238009638079
 30
0.0
 10
90.87782929585694
 20
-137.8238009638079
 30
0.0
 10
90.8705945953379
 20
-138.0542778517712
 30
0.0
 10
90.86680499030413
 20
-138.1707220791726
 30
0.0
 10
90.86680499030413
 20
-138.1707220791726
 30
0.0
 10
90.67284611448457
 20
-138.1707220791726
 30
0.0
 10
90.67284611448457
 20
-138.1707220791726
 30
0.0
 10
90.68042532455212
 20
-138.0435980557669
 30
0.0
 10
90.68938257281377
 20
-137.9316324524963
 30
0.0
 10
90.75897350161581
 20
-137.8131211678037
 30
0.0
 10
90.8540581370087
 20
-137.6522352086425
 30
0.0
 10
91.01528860571841
 20
-137.6184732728871
 30
0.0
 10
91.1158853938877
 20
-137.6184732728871
 30
0.0
 10
91.3556640396611
 20
-137.6184732728871
 30
0.0
 10
91.53480900489409
 20
-137.8024413717994
 30
0.0
 10
91.53480900489409
 20
-138.0752929342312
 30
0.0
 10
91.53480900489409
 20
-138.3040472744518
 30
0.0
 10
91.43421221672479
 20
-138.403266024427
 30
0.0
 10
91.16721731661792
 20
-138.6296087978079
 30
0.0
  0
HATCH
  5
EF
330
EA
100
AcDbEntity
  8
_U+30EC_U+30A4_U+30E4_U+30FC 1
 62
   179
420
  2234388
100
AcDbHatch
 10
0.0
 20
0.0
 30
0.0
210
0.0
220
0.0
230
1.0
  2
SOLID
 70
     1
 71
     0
 91
        1
 92
        1
 93
        1
 72
     4
 94
        3
 73
     0
 74
     1
 95
       44
 96
       40
 40
0.0
 40
0.0
 40
0.0
 40
0.0
 40
1.0
 40
1.0
 40
1.0
 40
2.0
 40
2.0
 40
2.0
 40
3.0
 40
3.0
 40
3.0
 40
4.0
 40
4.0
 40
4.0
 40
5.0
 40
5.0
 40
5.0
 40
6.0
 40
6.0
 40
6.0
 40
7.0
 40
7.0
 40
7.0
 40
8.0
 40
8.0
 40
8.0
 40
9.0
 40
9.0
 40
9.0
 40
10.0
 40
10.0
 40
10.0
 40
11.0
 40
11.0
 40
11.0
 40
12.0
 40
12.0
 40
12.0
 40
13.0
 40
13.0
 40
13.0
 40
13.0
 10
91.16721731661792
 20
-138.6296087978079
 10
90.97842608402622
 20
-138.7884276996779
 10
90.89815535921991
 20
-138.8624972526108
 10
90.85612519429986
 20
-139.0061577343457
 10
90.85612519429986
 20
-139.0061577343457
 10
91.52929685211768
 20
-139.0061577343457
 10
91.52929685211768
 20
-139.0061577343457
 10
91.52929685211768
 20
-139.0061577343457
 10
91.52929685211768
 20
-139.2114854252666
 10
91.52929685211768
 20
-139.2114854252666
 10
91.52929685211768
 20
-139.2114854252666
 10
90.6401177073747
 20
-139.2114854252666
 10
90.6401177073747
 20
-139.2114854252666
 10
90.66733396170817
 20
-138.8538845138976
 10
90.7241780372148
 20
-138.7756808463825
 10
91.05731877063845
 20
-138.4773355773598
 10
91.27883841034001
 20
-138.2785535678609
 10
91.33533797629812
 20
-138.2106851868015
 10
91.33533797629812
 20
-138.07322587694
 10
91.33533797629812
 20
-137.9547145922474
 10
91.27332625756361
 20
-137.8238009638079
 10
91.10313854059227
 20
-137.8238009638079
 10
90.87782929585694
 20
-137.8238009638079
 10
90.8705945953379
 20
-138.0542778517712
 10
90.86680499030413
 20
-138.1707220791726
 10
90.86680499030413
 20
-138.1707220791726
 10
90.67284611448457
 20
-138.1707220791726
 10
90.67284611448457
 20
-138.1707220791726
 10
90.68042532455212
 20
-138.0435980557669
 10
90.68938257281377
 20
-137.9316324524963
 10
90.75897350161581
 20
-137.8131211678037
 10
90.8540581370087
 20
-137.6522352086425
 10
91.01528860571841
 20
-137.6184732728871
 10
91.1158853938877
 20
-137.6184732728871
 10
91.3556640396611
 20
-137.6184732728871
 10
91.53480900489409
 20
-137.8024413717994
 10
91.53480900489409
 20
-138.0752929342312
 10
91.53480900489409
 20
-138.3040472744518
 10
91.43421221672479
 20
-138.403266024427
 10
91.16721731661792
 20
-138.6296087978079
 97
        0
 97
        0
 75
     2
 76
     1
 98
        0
  0
SPLINE
  5
F0
330
EA
100
AcDbEntity
  8
_U+30EC_U+30A4_U+30E4_U+30FC 1
370
     0
100
AcDbSpline
210
0.0
220
0.0
230
1.0
 70
    11
 71
     3
 72
    29
 73
    25
 74
     0
 42
0.0000000001
 43
0.0000000001
 12
1.0
 22
0.0
 32
0.0
 13
1.0
 23
0.0
 33
0.0
 40
0.0
 40
0.0
 40
0.0
 40
0.0
 40
1.0
 40
1.0
 40
1.0
 40
2.0
 40
2.0
 40
2.0
 40
3.0
 40
3.0
 40
3.0
 40
4.0
 40
4.0
 40
4.0
 40
5.0
 40
5.0
 40
5.0
 40
6.0
 40
6.0
 40
6.0
 40
7.0
 40
7.0
 40
7.0
 40
8.0
 40
8.0
 40
8.0
 40
8.0
 10
92.44810381803381
 20
-139.0337184982277
 30
0.0
 10
92.35474173038354
 20
-139.2431803037309
 30
0.0
 10
92.20453556722664
 20
-139.2621283288998
 30
0.0
 10
92.10393877905736
 20
-139.2621283288998
 30
0.0
 10
91.96475692145326
 20
-139.2621283288998
 30
0.0
 10
91.84211152217837
 20
-139.2156195398489
 30
0.0
 10
91.75977374008089
 20
-139.0337184982277
 30
0.0
 10
91.6702012574644
 20
-138.8390706033111
 30
0.0
 10
91.6536647991352
 20
-138.6020480339259
 30
0.0
 10
91.6536647991352
 20
-138.4394395270221
 30
0.0
 10
91.6536647991352
 20
-138.2954345357387
 30
0.0
 10
91.66847870972177
 20
-138.0435980557669
 30
0.0
 10
91.75977374008089
 20
-137.844816046268
 30
0.0
 10
91.85313582773117
 20
-137.6418999221868
 30
0.0
 10
91.99231768533525
 20
-137.6184732728871
 30
0.0
 10
92.10393877905736
 20
-137.6184732728871
 30
0.0
 10
92.2410535793703
 20
-137.6184732728871
 30
0.0
 10
92.36576603593635
 20
-137.6629150046468
 30
0.0
 10
92.44810381803381
 20
-137.844816046268
 30
0.0
 10
92.53388669561653
 20
-138.0373968838934
 30
0.0
 10
92.5542127589795
 20
-138.2658067145655
 30
0.0
 10
92.5542127589795
 20
-138.4394395270221
 30
0.0
 10
92.5542127589795
 20
-138.610660772639
 30
0.0
 10
92.53595375290769
 20
-138.8411376606022
 30
0.0
 10
92.44810381803381
 20
-139.0337184982277
 30
0.0
  0
SPLINE
  5
F1
330
EA
100
AcDbEntity
  8
_U+30EC_U+30A4_U+30E4_U+30FC 1
370
     0
100
AcDbSpline
210
0.0
220
0.0
230
1.0
 70
    11
 71
     3
 72
    17
 73
    13
 74
     0
 42
0.0000000001
 43
0.0000000001
 12
1.0
 22
0.0
 32
0.0
 13
1.0
 23
0.0
 33
0.0
 40
0.0
 40
0.0
 40
0.0
 40
0.0
 40
1.0
 40
1.0
 40
1.0
 40
2.0
 40
2.0
 40
2.0
 40
3.0
 40
3.0
 40
3.0
 40
4.0
 40
4.0
 40
4.0
 40
4.0
 10
92.10393877905736
 20
-137.8110541105125
 30
0.0
 10
91.8879312921322
 20
-137.8110541105125
 30
0.0
 10
91.84762367495476
 20
-138.0945854689486
 30
0.0
 10
91.84762367495476
 20
-138.4394395270221
 30
0.0
 10
91.84762367495476
 20
-138.7587998785048
 30
0.0
 10
91.87862953432202
 20
-139.0674804339831
 30
0.0
 10
92.10393877905736
 20
-139.0674804339831
 30
0.0
 10
92.31787920869137
 20
-139.0674804339831
 30
0.0
 10
92.36025388315994
 20
-138.7863606423867
 30
0.0
 10
92.36025388315994
 20
-138.4394395270221
 30
0.0
 10
92.36025388315994
 20
-138.1197346659909
 30
0.0
 10
92.32718096650154
 20
-137.8110541105125
 30
0.0
 10
92.10393877905736
 20
-137.8110541105125
 30
0.0
  0
HATCH
  5
F2
330
EA
100
AcDbEntity
  8
_U+30EC_U+30A4_U+30E4_U+30FC 1
 62
   179
420
  2234388
100
AcDbHatch
 10
0.0
 20
0.0
 30
0.0
210
0.0
220
0.0
230
1.0
  2
SOLID
 70
     1
 71
     0
 91
        2
 92
        1
 93
        1
 72
     4
 94
        3
 73
     0
 74
     1
 95
       29
 96
       25
 40
0.0
 40
0.0
 40
0.0
 40
0.0
 40
1.0
 40
1.0
 40
1.0
 40
2.0
 40
2.0
 40
2.0
 40
3.0
 40
3.0
 40
3.0
 40
4.0
 40
4.0
 40
4.0
 40
5.0
 40
5.0
 40
5.0
 40
6.0
 40
6.0
 40
6.0
 40
7.0
 40
7.0
 40
7.0
 40
8.0
 40
8.0
 40
8.0
 40
8.0
 10
92.44810381803381
 20
-139.0337184982277
 10
92.35474173038354
 20
-139.2431803037309
 10
92.20453556722664
 20
-139.2621283288998
 10
92.10393877905736
 20
-139.2621283288998
 10
91.96475692145326
 20
-139.2621283288998
 10
91.84211152217837
 20
-139.2156195398489
 10
91.75977374008089
 20
-139.0337184982277
 10
91.6702012574644
 20
-138.8390706033111
 10
91.6536647991352
 20
-138.6020480339259
 10
91.6536647991352
 20
-138.4394395270221
 10
91.6536647991352
 20
-138.2954345357387
 10
91.66847870972177
 20
-138.0435980557669
 10
91.75977374008089
 20
-137.844816046268
 10
91.85313582773117
 20
-137.6418999221868
 10
91.99231768533525
 20
-137.6184732728871
 10
92.10393877905736
 20
-137.6184732728871
 10
92.2410535793703
 20
-137.6184732728871
 10
92.36576603593635
 20
-137.6629150046468
 10
92.44810381803381
 20
-137.844816046268
 10
92.53388669561653
 20
-138.0373968838934
 10
92.5542127589795
 20
-138.2658067145655
 10
92.5542127589795
 20
-138.4394395270221
 10
92.5542127589795
 20
-138.610660772639
 10
92.53595375290769
 20
-138.8411376606022
 10
92.44810381803381
 20
-139.0337184982277
 97
        0
 97
        0
 92
        1
 93
        1
 72
     4
 94
        3
 73
     0
 74
     1
 95
       17
 96
       13
 40
0.0
 40
0.0
 40
0.0
 40
0.0
 40
1.0
 40
1.0
 40
1.0
 40
2.0
 40
2.0
 40
2.0
 40
3.0
 40
3.0
 40
3.0
 40
4.0
 40
4.0
 40
4.0
 40
4.0
 10
92.10393877905736
 20
-137.8110541105125
 10
91.8879312921322
 20
-137.8110541105125
 10
91.84762367495476
 20
-138.0945854689486
 10
91.84762367495476
 20
-138.4394395270221
 10
91.84762367495476
 20
-138.7587998785048
 10
91.87862953432202
 20
-139.0674804339831
 10
92.10393877905736
 20
-139.0674804339831
 10
92.31787920869137
 20
-139.0674804339831
 10
92.36025388315994
 20
-138.7863606423867
 10
92.36025388315994
 20
-138.4394395270221
 10
92.36025388315994
 20
-138.1197346659909
 10
92.32718096650154
 20
-137.8110541105125
 10
92.10393877905736
 20
-137.8110541105125
 97
        0
 97
        0
 75
     2
 76
     1
 98
        0
  0
ENDBLK
  5
ED
330
EA
100
AcDbEntity
  8
0
100
AcDbBlockEnd
  0
ENDSEC
  0
SECTION
  2
ENTITIES
  0
POLYLINE
  5
41
330
1F
100
AcDbEntity
  8
_U+30EC_U+30A4_U+30E4_U+30FC 1
  6
AI-Linetype-1
 62
   154
420
    23468
370
    25
100
AcDb2dPolyline
 66
     1
 10
0.0
 20
0.0
 30
0.0
  0
VERTEX
  5
42
330
41
100
AcDbEntity
  8
_U+30EC_U+30A4_U+30E4_U+30FC 1
  6
AI-Linetype-1
 62
   154
420
    23468
370
    25
100
AcDbVertex
100
AcDb2dVertex
 10
83.80592202859947
 20
-115.8087952488255
 30
0.0
  0
VERTEX
  5
43
330
41
100
AcDbEntity
  8
_U+30EC_U+30A4_U+30E4_U+30FC 1
  6
AI-Linetype-1
 62
   154
420
    23468
370
    25
100
AcDbVertex
100
AcDb2dVertex
 10
83.80592202859947
 20
-125.8090221907699
 30
0.0
  0
SEQEND
  5
45
330
41
100
AcDbEntity
  8
_U+30EC_U+30A4_U+30E4_U+30FC 1
  6
AI-Linetype-1
 62
   154
420
    23468
370
    25
  0
POLYLINE
  5
46
330
1F
100
AcDbEntity
  8
_U+30EC_U+30A4_U+30E4_U+30FC 1
  6
AI-Linetype-2
 62
   154
420
    23468
370
    25
100
AcDb2dPolyline
 66
     1
 10
0.0
 20
0.0
 30
0.0
  0
VERTEX
  5
47
330
46
100
AcDbEntity
  8
_U+30EC_U+30A4_U+30E4_U+30FC 1
  6
AI-Linetype-2
 62
   154
420
    23468
370
    25
100
AcDbVertex
100
AcDb2dVertex
 10
91.62989794010433
 20
-133.704153577685
 30
0.0
  0
VERTEX
  5
48
330
46
100
AcDbEntity
  8
_U+30EC_U+30A4_U+30E4_U+30FC 1
  6
AI-Linetype-2
 62
   154
420
    23468
370
    25
100
AcDbVertex
100
AcDb2dVertex
 10
101.6296333079262
 20
-133.704153577685
 30
0.0
  0
SEQEND
  5
4A
330
46
100
AcDbEntity
  8
_U+30EC_U+30A4_U+30E4_U+30FC 1
  6
AI-Linetype-2
 62
   154
420
    23468
370
    25
  0
POLYLINE
  5
4B
330
1F
100
AcDbEntity
  8
_U+30EC_U+30A4_U+30E4_U+30FC 1
 62
   179
420
  2234388
370
     9
100
AcDb2dPolyline
 66
     1
 10
0.0
 20
0.0
 30
0.0
  0
VERTEX
  5
4C
330
4B
100
AcDbEntity
  8
_U+30EC_U+30A4_U+30E4_U+30FC 1
 62
   179
420
  2234388
370
     9
100
AcDbVertex
100
AcDb2dVertex
 10
84.43668867917394
 20
-119.0073960813591
 30
0.0
  0
VERTEX
  5
4D
330
4B
100
AcDbEntity
  8
_U+30EC_U+30A4_U+30E4_U+30FC 1
 62
   179
420
  2234388
370
     9
100
AcDbVertex
100
AcDb2dVertex
 10
91.97300959801748
 20
-119.0073960813591
 30
0.0
  0
SEQEND
  5
4E
330
4B
100
AcDbEntity
  8
_U+30EC_U+30A4_U+30E4_U+30FC 1
 62
   179
420
  2234388
370
     9
  0
POLYLINE
  5
4F
330
1F
100
AcDbEntity
  8
_U+30EC_U+30A4_U+30E4_U+30FC 1
 62
   179
420
  2234388
370
     9
100
AcDb2dPolyline
 66
     1
 10
0.0
 20
0.0
 30
0.0
  0
VERTEX
  5
50
330
4F
100
AcDbEntity
  8
_U+30EC_U+30A4_U+30E4_U+30FC 1
 62
   179
420
  2234388
370
     9
100
AcDbVertex
100
AcDb2dVertex
 10
84.43668867917394
 20
-119.0073960813591
 30
0.0
  0
VERTEX
  5
51
330
4F
100
AcDbEntity
  8
_U+30EC_U+30A4_U+30E4_U+30FC 1
 62
   179
420
  2234388
370
     9
100
AcDbVertex
100
AcDb2dVertex
 10
85.40270004341782
 20
-118.7483160814241
 30
0.0
  0
SEQEND
  5
52
330
4F
100
AcDbEntity
  8
_U+30EC_U+30A4_U+30E4_U+30FC 1
 62
   179
420
  2234388
370
     9
  0
POLYLINE
  5
53
330
1F
100
AcDbEntity
  8
_U+30EC_U+30A4_U+30E4_U+30FC 1
 62
   179
420
  2234388
370
     9
100
AcDb2dPolyline
 66
     1
 10
0.0
 20
0.0
 30
0.0
  0
VERTEX
  5
54
330
53
100
AcDbEntity
  8
_U+30EC_U+30A4_U+30E4_U+30FC 1
 62
   179
420
  2234388
370
     9
100
AcDbVertex
100
AcDb2dVertex
 10
84.43668867917394
 20
-119.0073960813591
 30
0.0
  0
VERTEX
  5
55
330
53
100
AcDbEntity
  8
_U+30EC_U+30A4_U+30E4_U+30FC 1
 62
   179
420
  2234388
370
     9
100
AcDbVertex
100
AcDb2dVertex
 10
85.40270004341782
 20
-119.2660880257392
 30
0.0
  0
SEQEND
  5
56
330
53
100
AcDbEntity
  8
_U+30EC_U+30A4_U+30E4_U+30FC 1
 62
   179
420
  2234388
370
     9
  0
POLYLINE
  5
57
330
1F
100
AcDbEntity
  8
_U+30EC_U+30A4_U+30E4_U+30FC 1
 62
   179
420
  2234388
370
     9
100
AcDb2dPolyline
 66
     1
 10
0.0
 20
0.0
 30
0.0
  0
VERTEX
  5
58
330
57
100
AcDbEntity
  8
_U+30EC_U+30A4_U+30E4_U+30FC 1
 62
   179
420
  2234388
370
     9
100
AcDbVertex
100
AcDb2dVertex
 10
93.66179442102886
 20
-133.2039146889213
 30
0.0
  0
VERTEX
  5
59
330
57
100
AcDbEntity
  8
_U+30EC_U+30A4_U+30E4_U+30FC 1
 62
   179
420
  2234388
370
     9
100
AcDbVertex
100
AcDb2dVertex
 10
93.92087204832337
 20
-132.2379385780517
 30
0.0
  0
SEQEND
  5
5A
330
57
100
AcDbEntity
  8
_U+30EC_U+30A4_U+30E4_U+30FC 1
 62
   179
420
  2234388
370
     9
  0
POLYLINE
  5
5B
330
1F
100
AcDbEntity
  8
_U+30EC_U+30A4_U+30E4_U+30FC 1
 62
   179
420
  2234388
370
     9
100
AcDb2dPolyline
 66
     1
 10
0.0
 20
0.0
 30
0.0
  0
VERTEX
  5
5C
330
5B
100
AcDbEntity
  8
_U+30EC_U+30A4_U+30E4_U+30FC 1
 62
   179
420
  2234388
370
     9
100
AcDbVertex
100
AcDb2dVertex
 10
93.66179442102886
 20
-133.2039146889213
 30
0.0
  0
VERTEX
  5
5D
330
5B
100
AcDbEntity
  8
_U+30EC_U+30A4_U+30E4_U+30FC 1
 62
   179
420
  2234388
370
     9
100
AcDbVertex
100
AcDb2dVertex
 10
93.66179442102886
 20
-120.7802102475827
 30
0.0
  0
SEQEND
  5
5E
330
5B
100
AcDbEntity
  8
_U+30EC_U+30A4_U+30E4_U+30FC 1
 62
   179
420
  2234388
370
     9
  0
POLYLINE
  5
5F
330
1F
100
AcDbEntity
  8
_U+30EC_U+30A4_U+30E4_U+30FC 1
 62
   179
420
  2234388
370
     9
100
AcDb2dPolyline
 66
     1
 10
0.0
 20
0.0
 30
0.0
  0
VERTEX
  5
60
330
5F
100
AcDbEntity
  8
_U+30EC_U+30A4_U+30E4_U+30FC 1
 62
   179
420
  2234388
370
     9
100
AcDbVertex
100
AcDb2dVertex
 10
93.66179442102886
 20
-133.2039146889213
 30
0.0
  0
VERTEX
  5
61
330
5F
100
AcDbEntity
  8
_U+30EC_U+30A4_U+30E4_U+30FC 1
 62
   179
420
  2234388
370
     9
100
AcDbVertex
100
AcDb2dVertex
 10
93.40274733931962
 20
-132.2379385780517
 30
0.0
  0
SEQEND
  5
62
330
5F
100
AcDbEntity
  8
_U+30EC_U+30A4_U+30E4_U+30FC 1
 62
   179
420
  2234388
370
     9
  0
INSERT
  5
64
330
1F
100
AcDbEntity
  8
_U+30EC_U+30A4_U+30E4_U+30FC 1
100
AcDbBlockReference
  2
block 2
 10
0.0
 20
0.0
 30
0.0
  0
POLYLINE
  5
8B
330
1F
100
AcDbEntity
  8
_U+30EC_U+30A4_U+30E4_U+30FC 1
 62
   179
420
  2234388
370
    25
100
AcDb2dPolyline
 66
     1
 10
0.0
 20
0.0
 30
0.0
  0
VERTEX
  5
8C
330
8B
100
AcDbEntity
  8
_U+30EC_U+30A4_U+30E4_U+30FC 1
 62
   179
420
  2234388
370
    25
100
AcDbVertex
100
AcDb2dVertex
 10
101.8301143465418
 20
-134.3094496886447
 30
0.0
  0
VERTEX
  5
8D
330
8B
100
AcDbEntity
  8
_U+30EC_U+30A4_U+30E4_U+30FC 1
 62
   179
420
  2234388
370
    25
100
AcDbVertex
100
AcDb2dVertex
 10
101.8301143465418
 20
-135.809460799381
 30
0.0
  0
SEQEND
  5
8E
330
8B
100
AcDbEntity
  8
_U+30EC_U+30A4_U+30E4_U+30FC 1
 62
   179
420
  2234388
370
    25
  0
POLYLINE
  5
8F
330
1F
100
AcDbEntity
  8
_U+30EC_U+30A4_U+30E4_U+30FC 1
 62
   179
420
  2234388
370
    25
100
AcDb2dPolyline
 66
     1
 10
0.0
 20
0.0
 30
0.0
  0
VERTEX
  5
90
330
8F
100
AcDbEntity
  8
_U+30EC_U+30A4_U+30E4_U+30FC 1
 62
   179
420
  2234388
370
    25
100
AcDbVertex
100
AcDb2dVertex
 10
81.82980207901448
 20
-135.809460799381
 30
0.0
  0
VERTEX
  5
91
330
8F
100
AcDbEntity
  8
_U+30EC_U+30A4_U+30E4_U+30FC 1
 62
   179
420
  2234388
370
    25
100
AcDbVertex
100
AcDb2dVertex
 10
101.8301143465418
 20
-135.809460799381
 30
0.0
  0
SEQEND
  5
92
330
8F
100
AcDbEntity
  8
_U+30EC_U+30A4_U+30E4_U+30FC 1
 62
   179
420
  2234388
370
    25
  0
POLYLINE
  5
93
330
1F
100
AcDbEntity
  8
_U+30EC_U+30A4_U+30E4_U+30FC 1
 62
   179
420
  2234388
370
    25
100
AcDb2dPolyline
 66
     1
 10
0.0
 20
0.0
 30
0.0
  0
VERTEX
  5
94
330
93
100
AcDbEntity
  8
_U+30EC_U+30A4_U+30E4_U+30FC 1
 62
   179
420
  2234388
370
    25
100
AcDbVertex
100
AcDb2dVertex
 10
81.82980207901448
 20
-115.8087952488255
 30
0.0
  0
VERTEX
  5
95
330
93
100
AcDbEntity
  8
_U+30EC_U+30A4_U+30E4_U+30FC 1
 62
   179
420
  2234388
370
    25
100
AcDbVertex
100
AcDb2dVertex
 10
81.82980207901448
 20
-135.809460799381
 30
0.0
  0
SEQEND
  5
96
330
93
100
AcDbEntity
  8
_U+30EC_U+30A4_U+30E4_U+30FC 1
 62
   179
420
  2234388
370
    25
  0
POLYLINE
  5
97
330
1F
100
AcDbEntity
  8
_U+30EC_U+30A4_U+30E4_U+30FC 1
 62
   179
420
  2234388
370
    25
100
AcDb2dPolyline
 66
     1
 10
0.0
 20
0.0
 30
0.0
  0
VERTEX
  5
98
330
97
100
AcDbEntity
  8
_U+30EC_U+30A4_U+30E4_U+30FC 1
 62
   179
420
  2234388
370
    25
100
AcDbVertex
100
AcDb2dVertex
 10
81.82980207901448
 20
-115.8087952488255
 30
0.0
  0
VERTEX
  5
99
330
97
100
AcDbEntity
  8
_U+30EC_U+30A4_U+30E4_U+30FC 1
 62
   179
420
  2234388
370
    25
100
AcDbVertex
100
AcDb2dVertex
 10
83.32977787408025
 20
-115.8087952488255
 30
0.0
  0
SEQEND
  5
9A
330
97
100
AcDbEntity
  8
_U+30EC_U+30A4_U+30E4_U+30FC 1
 62
   179
420
  2234388
370
    25
  0
POLYLINE
  5
9B
330
1F
100
AcDbEntity
  8
_U+30EC_U+30A4_U+30E4_U+30FC 1
 62
   179
420
  2234388
370
    25
100
AcDb2dPolyline
 66
     1
 10
0.0
 20
0.0
 30
0.0
  0
VERTEX
  5
9C
330
9B
100
AcDbEntity
  8
_U+30EC_U+30A4_U+30E4_U+30FC 1
 62
   179
420
  2234388
370
    25
100
AcDbVertex
100
AcDb2dVertex
 10
83.32977787408025
 20
-115.8087952488255
 30
0.0
  0
VERTEX
  5
9D
330
9B
100
AcDbEntity
  8
_U+30EC_U+30A4_U+30E4_U+30FC 1
 62
   179
420
  2234388
370
    25
100
AcDbVertex
100
AcDb2dVertex
 10
83.32977787408025
 20
-134.3094496886447
 30
0.0
  0
SEQEND
  5
9E
330
9B
100
AcDbEntity
  8
_U+30EC_U+30A4_U+30E4_U+30FC 1
 62
   179
420
  2234388
370
    25
  0
POLYLINE
  5
9F
330
1F
100
AcDbEntity
  8
_U+30EC_U+30A4_U+30E4_U+30FC 1
 62
   179
420
  2234388
370
    25
100
AcDb2dPolyline
 66
     1
 10
0.0
 20
0.0
 30
0.0
  0
VERTEX
  5
A0
330
9F
100
AcDbEntity
  8
_U+30EC_U+30A4_U+30E4_U+30FC 1
 62
   179
420
  2234388
370
    25
100
AcDbVertex
100
AcDb2dVertex
 10
83.32977787408025
 20
-134.3094496886447
 30
0.0
  0
VERTEX
  5
A1
330
9F
100
AcDbEntity
  8
_U+30EC_U+30A4_U+30E4_U+30FC 1
 62
   179
420
  2234388
370
    25
100
AcDbVertex
100
AcDb2dVertex
 10
101.8301143465418
 20
-134.3094496886447
 30
0.0
  0
SEQEND
  5
A2
330
9F
100
AcDbEntity
  8
_U+30EC_U+30A4_U+30E4_U+30FC 1
 62
   179
420
  2234388
370
    25
  0
SPLINE
  5
A3
330
1F
100
AcDbEntity
  8
_U+30EC_U+30A4_U+30E4_U+30FC 1
 62
   179
420
  2234388
370
     9
100
AcDbSpline
210
0.0
220
0.0
230
1.0
 70
    11
 71
     3
 72
    17
 73
    13
 74
     0
 42
0.0000000001
 43
0.0000000001
 12
1.0
 22
0.0
 32
0.0
 13
1.0
 23
0.0
 33
0.0
 40
0.0
 40
0.0
 40
0.0
 40
0.0
 40
1.0
 40
1.0
 40
1.0
 40
2.0
 40
2.0
 40
2.0
 40
3.0
 40
3.0
 40
3.0
 40
4.0
 40
4.0
 40
4.0
 40
4.0
 10
105.9297800752839
 20
-135.809460799381
 30
0.0
 10
105.9297800752839
 20
-135.7536513549506
 30
0.0
 10
105.885012576426
 20
-135.7088485771838
 30
0.0
 10
105.8298734111661
 20
-135.7088485771838
 30
0.0
 10
105.7747721957788
 20
-135.7088485771838
 30
0.0
 10
105.7299694180121
 20
-135.7536513549506
 30
0.0
 10
105.7299694180121
 20
-135.809460799381
 30
0.0
 10
105.7299694180121
 20
-135.8645646882559
 30
0.0
 10
105.7747721957788
 20
-135.9093674660226
 30
0.0
 10
105.8298734111661
 20
-135.9093674660226
 30
0.0
 10
105.885012576426
 20
-135.9093674660226
 30
0.0
 10
105.9297800752839
 20
-135.8645646882559
 30
0.0
 10
105.9297800752839
 20
-135.809460799381
 30
0.0
  0
SPLINE
  5
A4
330
1F
100
AcDbEntity
  8
_U+30EC_U+30A4_U+30E4_U+30FC 1
 62
   179
420
  2234388
370
     9
100
AcDbSpline
210
0.0
220
0.0
230
1.0
 70
    11
 71
     3
 72
    17
 73
    13
 74
     0
 42
0.0000000001
 43
0.0000000001
 12
1.0
 22
0.0
 32
0.0
 13
1.0
 23
0.0
 33
0.0
 40
0.0
 40
0.0
 40
0.0
 40
0.0
 40
1.0
 40
1.0
 40
1.0
 40
2.0
 40
2.0
 40
2.0
 40
3.0
 40
3.0
 40
3.0
 40
4.0
 40
4.0
 40
4.0
 40
4.0
 10
101.9300210106596
 20
-139.8092199650479
 30
0.0
 10
101.9300210106596
 20
-139.7540807983948
 30
0.0
 10
101.8852535118017
 20
-139.7093132984062
 30
0.0
 10
101.8301143465418
 20
-139.7093132984062
 30
0.0
 10
101.7750104590587
 20
-139.7093132984062
 30
0.0
 10
101.730207682424
 20
-139.7540807983948
 30
0.0
 10
101.730207682424
 20
-139.8092199650479
 30
0.0
 10
101.730207682424
 20
-139.8643238539228
 30
0.0
 10
101.7750104590587
 20
-139.9091266316895
 30
0.0
 10
101.8301143465418
 20
-139.9091266316895
 30
0.0
 10
101.8852535118017
 20
-139.9091266316895
 30
0.0
 10
101.9300210106596
 20
-139.8643238539228
 30
0.0
 10
101.9300210106596
 20
-139.8092199650479
 30
0.0
  0
SPLINE
  5
A5
330
1F
100
AcDbEntity
  8
_U+30EC_U+30A4_U+30E4_U+30FC 1
 62
   179
420
  2234388
370
     9
100
AcDbSpline
210
0.0
220
0.0
230
1.0
 70
    11
 71
     3
 72
    17
 73
    13
 74
     0
 42
0.0000000001
 43
0.0000000001
 12
1.0
 22
0.0
 32
0.0
 13
1.0
 23
0.0
 33
0.0
 40
0.0
 40
0.0
 40
0.0
 40
0.0
 40
1.0
 40
1.0
 40
1.0
 40
2.0
 40
2.0
 40
2.0
 40
3.0
 40
3.0
 40
3.0
 40
4.0
 40
4.0
 40
4.0
 40
4.0
 10
81.92970874313232
 20
-139.8092199650479
 30
0.0
 10
81.92970874313232
 20
-139.7540807983948
 30
0.0
 10
81.88490596649757
 20
-139.7093132984062
 30
0.0
 10
81.82980207901448
 20
-139.7093132984062
 30
0.0
 10
81.77466291375454
 20
-139.7093132984062
 30
0.0
 10
81.72989541489666
 20
-139.7540807983948
 30
0.0
 10
81.72989541489666
 20
-139.8092199650479
 30
0.0
 10
81.72989541489666
 20
-139.8643238539228
 30
0.0
 10
81.77466291375454
 20
-139.9091266316895
 30
0.0
 10
81.82980207901448
 20
-139.9091266316895
 30
0.0
 10
81.88490596649757
 20
-139.9091266316895
 30
0.0
 10
81.92970874313232
 20
-139.8643238539228
 30
0.0
 10
81.92970874313232
 20
-139.8092199650479
 30
0.0
  0
SPLINE
  5
A6
330
1F
100
AcDbEntity
  8
_U+30EC_U+30A4_U+30E4_U+30FC 1
 62
   179
420
  2234388
370
     9
100
AcDbSpline
210
0.0
220
0.0
230
1.0
 70
    11
 71
     3
 72
    17
 73
    13
 74
     0
 42
0.0000000001
 43
0.0000000001
 12
1.0
 22
0.0
 32
0.0
 13
1.0
 23
0.0
 33
0.0
 40
0.0
 40
0.0
 40
0.0
 40
0.0
 40
1.0
 40
1.0
 40
1.0
 40
2.0
 40
2.0
 40
2.0
 40
3.0
 40
3.0
 40
3.0
 40
4.0
 40
4.0
 40
4.0
 40
4.0
 10
77.92994967850801
 20
-135.809460799381
 30
0.0
 10
77.92994967850801
 20
-135.7536513549506
 30
0.0
 10
77.88518217965013
 20
-135.7088485771838
 30
0.0
 10
77.83004301439018
 20
-135.7088485771838
 30
0.0
 10
77.77423357136955
 20
-135.7088485771838
 30
0.0
 10
77.7294307947348
 20
-135.7536513549506
 30
0.0
 10
77.7294307947348
 20
-135.809460799381
 30
0.0
 10
77.7294307947348
 20
-135.8645646882559
 30
0.0
 10
77.77423357136955
 20
-135.9093674660226
 30
0.0
 10
77.83004301439018
 20
-135.9093674660226
 30
0.0
 10
77.88518217965013
 20
-135.9093674660226
 30
0.0
 10
77.92994967850801
 20
-135.8645646882559
 30
0.0
 10
77.92994967850801
 20
-135.809460799381
 30
0.0
  0
SPLINE
  5
A7
330
1F
100
AcDbEntity
  8
_U+30EC_U+30A4_U+30E4_U+30FC 1
 62
   179
420
  2234388
370
     9
100
AcDbSpline
210
0.0
220
0.0
230
1.0
 70
    11
 71
     3
 72
    17
 73
    13
 74
     0
 42
0.0000000001
 43
0.0000000001
 12
1.0
 22
0.0
 32
0.0
 13
1.0
 23
0.0
 33
0.0
 40
0.0
 40
0.0
 40
0.0
 40
0.0
 40
1.0
 40
1.0
 40
1.0
 40
2.0
 40
2.0
 40
2.0
 40
3.0
 40
3.0
 40
3.0
 40
4.0
 40
4.0
 40
4.0
 40
4.0
 10
77.92994967850801
 20
-115.8087952488255
 30
0.0
 10
77.92994967850801
 20
-115.7529858043951
 30
0.0
 10
77.88518217965013
 20
-115.7081830266287
 30
0.0
 10
77.83004301439018
 20
-115.7081830266287
 30
0.0
 10
77.77423357136955
 20
-115.7081830266287
 30
0.0
 10
77.7294307947348
 20
-115.7529858043951
 30
0.0
 10
77.7294307947348
 20
-115.8087952488255
 30
0.0
 10
77.7294307947348
 20
-115.8638991377008
 30
0.0
 10
77.77423357136955
 20
-115.9087019154672
 30
0.0
 10
77.83004301439018
 20
-115.9087019154672
 30
0.0
 10
77.88518217965013
 20
-115.9087019154672
 30
0.0
 10
77.92994967850801
 20
-115.8638991377008
 30
0.0
 10
77.92994967850801
 20
-115.8087952488255
 30
0.0
  0
SPLINE
  5
A8
330
1F
100
AcDbEntity
  8
_U+30EC_U+30A4_U+30E4_U+30FC 1
 62
   179
420
  2234388
370
     9
100
AcDbSpline
210
0.0
220
0.0
230
1.0
 70
    11
 71
     3
 72
    17
 73
    13
 74
     0
 42
0.0000000001
 43
0.0000000001
 12
1.0
 22
0.0
 32
0.0
 13
1.0
 23
0.0
 33
0.0
 40
0.0
 40
0.0
 40
0.0
 40
0.0
 40
1.0
 40
1.0
 40
1.0
 40
2.0
 40
2.0
 40
2.0
 40
3.0
 40
3.0
 40
3.0
 40
4.0
 40
4.0
 40
4.0
 40
4.0
 10
105.9297800752839
 20
-134.3094496886447
 30
0.0
 10
105.9297800752839
 20
-134.2536402442143
 30
0.0
 10
105.885012576426
 20
-134.2088727442257
 30
0.0
 10
105.8298734111661
 20
-134.2088727442257
 30
0.0
 10
105.7747721957788
 20
-134.2088727442257
 30
0.0
 10
105.7299694180121
 20
-134.2536402442143
 30
0.0
 10
105.7299694180121
 20
-134.3094496886447
 30
0.0
 10
105.7299694180121
 20
-134.3645888552978
 30
0.0
 10
105.7747721957788
 20
-134.4093563552864
 30
0.0
 10
105.8298734111661
 20
-134.4093563552864
 30
0.0
 10
105.885012576426
 20
-134.4093563552864
 30
0.0
 10
105.9297800752839
 20
-134.3645888552978
 30
0.0
 10
105.9297800752839
 20
-134.3094496886447
 30
0.0
  0
POLYLINE
  5
A9
330
1F
100
AcDbEntity
  8
_U+30EC_U+30A4_U+30E4_U+30FC 1
 62
   179
420
  2234388
370
     9
100
AcDb2dPolyline
 66
     1
 10
0.0
 20
0.0
 30
0.0
  0
VERTEX
  5
AA
330
A9
100
AcDbEntity
  8
_U+30EC_U+30A4_U+30E4_U+30FC 1
 62
   179
420
  2234388
370
     9
100
AcDbVertex
100
AcDb2dVertex
 10
105.8298734111661
 20
-134.3094496886447
 30
0.0
  0
VERTEX
  5
AB
330
A9
100
AcDbEntity
  8
_U+30EC_U+30A4_U+30E4_U+30FC 1
 62
   179
420
  2234388
370
     9
100
AcDbVertex
100
AcDb2dVertex
 10
105.8298734111661
 20
-128.6429566345058
 30
0.0
  0
SEQEND
  5
AC
330
A9
100
AcDbEntity
  8
_U+30EC_U+30A4_U+30E4_U+30FC 1
 62
   179
420
  2234388
370
     9
  0
POLYLINE
  5
AD
330
1F
100
AcDbEntity
  8
_U+30EC_U+30A4_U+30E4_U+30FC 1
 62
   179
420
  2234388
370
     9
100
AcDb2dPolyline
 66
     1
 10
0.0
 20
0.0
 30
0.0
  0
VERTEX
  5
AE
330
AD
100
AcDbEntity
  8
_U+30EC_U+30A4_U+30E4_U+30FC 1
 62
   179
420
  2234388
370
     9
100
AcDbVertex
100
AcDb2dVertex
 10
105.8298734111661
 20
-134.3094496886447
 30
0.0
  0
VERTEX
  5
AF
330
AD
100
AcDbEntity
  8
_U+30EC_U+30A4_U+30E4_U+30FC 1
 62
   179
420
  2234388
370
     9
100
AcDbVertex
100
AcDb2dVertex
 10
105.8298734111661
 20
-136.8092330213535
 30
0.0
  0
SEQEND
  5
B0
330
AD
100
AcDbEntity
  8
_U+30EC_U+30A4_U+30E4_U+30FC 1
 62
   179
420
  2234388
370
     9
  0
POLYLINE
  5
B1
330
1F
100
AcDbEntity
  8
_U+30EC_U+30A4_U+30E4_U+30FC 1
 62
   179
420
  2234388
370
     9
100
AcDb2dPolyline
 66
     1
 10
0.0
 20
0.0
 30
0.0
  0
VERTEX
  5
B2
330
B1
100
AcDbEntity
  8
_U+30EC_U+30A4_U+30E4_U+30FC 1
 62
   179
420
  2234388
370
     9
100
AcDbVertex
100
AcDb2dVertex
 10
104.3698673373028
 20
-134.3094496886447
 30
0.0
  0
VERTEX
  5
B3
330
B1
100
AcDbEntity
  8
_U+30EC_U+30A4_U+30E4_U+30FC 1
 62
   179
420
  2234388
370
     9
100
AcDbVertex
100
AcDb2dVertex
 10
106.8303511634196
 20
-134.3094496886447
 30
0.0
  0
SEQEND
  5
B4
330
B1
100
AcDbEntity
  8
_U+30EC_U+30A4_U+30E4_U+30FC 1
 62
   179
420
  2234388
370
     9
  0
POLYLINE
  5
B5
330
1F
100
AcDbEntity
  8
_U+30EC_U+30A4_U+30E4_U+30FC 1
 62
   179
420
  2234388
370
     9
100
AcDb2dPolyline
 66
     1
 10
0.0
 20
0.0
 30
0.0
  0
VERTEX
  5
B6
330
B5
100
AcDbEntity
  8
_U+30EC_U+30A4_U+30E4_U+30FC 1
 62
   179
420
  2234388
370
     9
100
AcDbVertex
100
AcDb2dVertex
 10
104.3698673373028
 20
-135.809460799381
 30
0.0
  0
VERTEX
  5
B7
330
B5
100
AcDbEntity
  8
_U+30EC_U+30A4_U+30E4_U+30FC 1
 62
   179
420
  2234388
370
     9
100
AcDbVertex
100
AcDb2dVertex
 10
106.8303511634196
 20
-135.809460799381
 30
0.0
  0
SEQEND
  5
B8
330
B5
100
AcDbEntity
  8
_U+30EC_U+30A4_U+30E4_U+30FC 1
 62
   179
420
  2234388
370
     9
  0
INSERT
  5
BA
330
1F
100
AcDbEntity
  8
_U+30EC_U+30A4_U+30E4_U+30FC 1
100
AcDbBlockReference
  2
block 3
 10
0.0
 20
0.0
 30
0.0
  0
POLYLINE
  5
C9
330
1F
100
AcDbEntity
  8
_U+30EC_U+30A4_U+30E4_U+30FC 1
 62
   179
420
  2234388
370
     9
100
AcDb2dPolyline
 66
     1
 10
0.0
 20
0.0
 30
0.0
  0
VERTEX
  5
CA
330
C9
100
AcDbEntity
  8
_U+30EC_U+30A4_U+30E4_U+30FC 1
 62
   179
420
  2234388
370
     9
100
AcDbVertex
100
AcDb2dVertex
 10
77.83004301439018
 20
-115.8087952488255
 30
0.0
  0
VERTEX
  5
CB
330
C9
100
AcDbEntity
  8
_U+30EC_U+30A4_U+30E4_U+30FC 1
 62
   179
420
  2234388
370
     9
100
AcDbVertex
100
AcDb2dVertex
 10
77.83004301439018
 20
-135.809460799381
 30
0.0
  0
SEQEND
  5
CC
330
C9
100
AcDbEntity
  8
_U+30EC_U+30A4_U+30E4_U+30FC 1
 62
   179
420
  2234388
370
     9
  0
POLYLINE
  5
CD
330
1F
100
AcDbEntity
  8
_U+30EC_U+30A4_U+30E4_U+30FC 1
 62
   179
420
  2234388
370
     9
100
AcDb2dPolyline
 66
     1
 10
0.0
 20
0.0
 30
0.0
  0
VERTEX
  5
CE
330
CD
100
AcDbEntity
  8
_U+30EC_U+30A4_U+30E4_U+30FC 1
 62
   179
420
  2234388
370
     9
100
AcDbVertex
100
AcDb2dVertex
 10
79.29008436603031
 20
-115.8087952488255
 30
0.0
  0
VERTEX
  5
CF
330
CD
100
AcDbEntity
  8
_U+30EC_U+30A4_U+30E4_U+30FC 1
 62
   179
420
  2234388
370
     9
100
AcDbVertex
100
AcDb2dVertex
 10
76.8296005399136
 20
-115.8087952488255
 30
0.0
  0
SEQEND
  5
D0
330
CD
100
AcDbEntity
  8
_U+30EC_U+30A4_U+30E4_U+30FC 1
 62
   179
420
  2234388
370
     9
  0
POLYLINE
  5
D1
330
1F
100
AcDbEntity
  8
_U+30EC_U+30A4_U+30E4_U+30FC 1
 62
   179
420
  2234388
370
     9
100
AcDb2dPolyline
 66
     1
 10
0.0
 20
0.0
 30
0.0
  0
VERTEX
  5
D2
330
D1
100
AcDbEntity
  8
_U+30EC_U+30A4_U+30E4_U+30FC 1
 62
   179
420
  2234388
370
     9
100
AcDbVertex
100
AcDb2dVertex
 10
79.29008436603031
 20
-135.809460799381
 30
0.0
  0
VERTEX
  5
D3
330
D1
100
AcDbEntity
  8
_U+30EC_U+30A4_U+30E4_U+30FC 1
 62
   179
420
  2234388
370
     9
100
AcDbVertex
100
AcDb2dVertex
 10
76.8296005399136
 20
-135.809460799381
 30
0.0
  0
SEQEND
  5
D4
330
D1
100
AcDbEntity
  8
_U+30EC_U+30A4_U+30E4_U+30FC 1
 62
   179
420
  2234388
370
     9
  0
INSERT
  5
D6
330
1F
100
AcDbEntity
  8
_U+30EC_U+30A4_U+30E4_U+30FC 1
100
AcDbBlockReference
  2
block 4
 10
0.0
 20
0.0
 30
0.0
  0
POLYLINE
  5
DE
330
1F
100
AcDbEntity
  8
_U+30EC_U+30A4_U+30E4_U+30FC 1
 62
   179
420
  2234388
370
     9
100
AcDb2dPolyline
 66
     1
 10
0.0
 20
0.0
 30
0.0
  0
VERTEX
  5
DF
330
DE
100
AcDbEntity
  8
_U+30EC_U+30A4_U+30E4_U+30FC 1
 62
   179
420
  2234388
370
     9
100
AcDbVertex
100
AcDb2dVertex
 10
81.82980207901448
 20
-139.8092199650479
 30
0.0
  0
VERTEX
  5
E0
330
DE
100
AcDbEntity
  8
_U+30EC_U+30A4_U+30E4_U+30FC 1
 62
   179
420
  2234388
370
     9
100
AcDbVertex
100
AcDb2dVertex
 10
101.8301143465418
 20
-139.8092199650479
 30
0.0
  0
SEQEND
  5
E1
330
DE
100
AcDbEntity
  8
_U+30EC_U+30A4_U+30E4_U+30FC 1
 62
   179
420
  2234388
370
     9
  0
POLYLINE
  5
E2
330
1F
100
AcDbEntity
  8
_U+30EC_U+30A4_U+30E4_U+30FC 1
 62
   179
420
  2234388
370
     9
100
AcDb2dPolyline
 66
     1
 10
0.0
 20
0.0
 30
0.0
  0
VERTEX
  5
E3
330
E2
100
AcDbEntity
  8
_U+30EC_U+30A4_U+30E4_U+30FC 1
 62
   179
420
  2234388
370
     9
100
AcDbVertex
100
AcDb2dVertex
 10
81.82980207901448
 20
-138.3491785765235
 30
0.0
  0
VERTEX
  5
E4
330
E2
100
AcDbEntity
  8
_U+30EC_U+30A4_U+30E4_U+30FC 1
 62
   179
420
  2234388
370
     9
100
AcDbVertex
100
AcDb2dVertex
 10
81.82980207901448
 20
-140.8089921870198
 30
0.0
  0
SEQEND
  5
E5
330
E2
100
AcDbEntity
  8
_U+30EC_U+30A4_U+30E4_U+30FC 1
 62
   179
420
  2234388
370
     9
  0
POLYLINE
  5
E6
330
1F
100
AcDbEntity
  8
_U+30EC_U+30A4_U+30E4_U+30FC 1
 62
   179
420
  2234388
370
     9
100
AcDb2dPolyline
 66
     1
 10
0.0
 20
0.0
 30
0.0
  0
VERTEX
  5
E7
330
E6
100
AcDbEntity
  8
_U+30EC_U+30A4_U+30E4_U+30FC 1
 62
   179
420
  2234388
370
     9
100
AcDbVertex
100
AcDb2dVertex
 10
101.8301143465418
 20
-138.3491785765235
 30
0.0
  0
VERTEX
  5
E8
330
E6
100
AcDbEntity
  8
_U+30EC_U+30A4_U+30E4_U+30FC 1
 62
   179
420
  2234388
370
     9
100
AcDbVertex
100
AcDb2dVertex
 10
101.8301143465418
 20
-140.8089921870198
 30
0.0
  0
SEQEND
  5
E9
330
E6
100
AcDbEntity
  8
_U+30EC_U+30A4_U+30E4_U+30FC 1
 62
   179
420
  2234388
370
     9
  0
INSERT
  5
EB
330
1F
100
AcDbEntity
  8
_U+30EC_U+30A4_U+30E4_U+30FC 1
100
AcDbBlockReference
  2
block 5
 10
0.0
 20
0.0
 30
0.0
  0
ENDSEC
  0
SECTION
  2
OBJECTS
  0
DICTIONARY
  5
C
330
0
100
AcDbDictionary
281
     1
  3
ACAD_GROUP
350
D
  3
ACAD_LAYOUT
350
1A
  3
ACAD_MATERIAL
350
3B
  3
ACAD_MLEADERSTYLE
350
F4
  3
ACAD_MLINESTYLE
350
17
  3
ACAD_PLOTSETTINGS
350
19
  3
ACAD_PLOTSTYLENAME
350
E
  3
ACAD_TABLESTYLE
350
F3
  3
ACAD_VISUALSTYLE
350
2A
  0
SUN
  5
3F
330
29
100
AcDbSun
 90
        1
290
     0
 63
     7
421
 16777215
 40
1.0
291
     1
 91
  2455826
 92
 54000000
292
     0
 70
     2
 71
   256
280
     1
  0
DICTIONARY
  5
D
102
{ACAD_REACTORS
330
C
102
}
330
C
100
AcDbDictionary
281
     1
  0
DICTIONARY
  5
1A
102
{ACAD_REACTORS
330
C
102
}
330
C
100
AcDbDictionary
281
     1
  3
Layout1
350
1E
  3
Layout2
350
26
  3
Model
350
22
  0
DICTIONARY
  5
3B
102
{ACAD_REACTORS
330
C
102
}
330
C
100
AcDbDictionary
281
     1
  3
ByBlock
350
3D
  3
ByLayer
350
3C
  3
Global
350
3E
  0
DICTIONARY
  5
F4
102
{ACAD_REACTORS
330
C
102
}
330
C
100
AcDbDictionary
281
     1
  0
DICTIONARY
  5
17
102
{ACAD_REACTORS
330
C
102
}
330
C
100
AcDbDictionary
281
     1
  3
Standard
350
18
  0
DICTIONARY
  5
19
102
{ACAD_REACTORS
330
C
102
}
330
C
100
AcDbDictionary
281
     1
  0
ACDBDICTIONARYWDFLT
  5
E
102
{ACAD_REACTORS
330
C
102
}
330
C
100
AcDbDictionary
281
     1
  3
Normal
350
F
100
AcDbDictionaryWithDefault
340
F
  0
DICTIONARY
  5
F3
102
{ACAD_REACTORS
330
C
102
}
330
C
100
AcDbDictionary
281
     1
  0
DICTIONARY
  5
2A
102
{ACAD_REACTORS
330
C
102
}
330
C
100
AcDbDictionary
281
     1
  3
2dWireframe
350
2F
  3
3D Hidden
350
31
  3
3dWireframe
350
30
  3
Basic
350
32
  3
Brighten
350
36
  3
ColorChange
350
3A
  3
Conceptual
350
34
  3
Dim
350
35
  3
Facepattern
350
39
  3
Flat
350
2B
  3
FlatWithEdges
350
2C
  3
Gouraud
350
2D
  3
GouraudWithEdges
350
2E
  3
Linepattern
350
38
  3
Realistic
350
33
  3
Thicken
350
37
  0
LAYOUT
  5
1E
102
{ACAD_REACTORS
330
1A
102
}
330
1A
100
AcDbPlotSettings
  1

  2
none_device
  4

  6

 40
0.0
 41
0.0
 42
0.0
 43
0.0
 44
0.0
 45
0.0
 46
0.0
 47
0.0
 48
0.0
 49
0.0
140
0.0
141
0.0
142
1.0
143
1.0
 70
   688
 72
     0
 73
     0
 74
     5
  7

 75
    16
 76
     0
 77
     2
 78
   300
147
1.0
148
0.0
149
0.0
100
AcDbLayout
  1
Layout1
 70
     1
 71
     1
 10
0.0
 20
0.0
 11
12.0
 21
9.0
 12
0.0
 22
0.0
 32
0.0
 14
1.000000000000000E+20
 24
1.000000000000000E+20
 34
1.000000000000000E+20
 15
-1.000000000000000E+20
 25
-1.000000000000000E+20
 35
-1.000000000000000E+20
146
0.0
 13
0.0
 23
0.0
 33
0.0
 16
1.0
 26
0.0
 36
0.0
 17
0.0
 27
1.0
 37
0.0
 76
     0
330
1B
  0
LAYOUT
  5
26
102
{ACAD_REACTORS
330
1A
102
}
330
1A
100
AcDbPlotSettings
  1

  2
none_device
  4

  6

 40
0.0
 41
0.0
 42
0.0
 43
0.0
 44
0.0
 45
0.0
 46
0.0
 47
0.0
 48
0.0
 49
0.0
140
0.0
141
0.0
142
1.0
143
1.0
 70
   688
 72
     0
 73
     0
 74
     5
  7

 75
    16
 76
     0
 77
     2
 78
   300
147
1.0
148
0.0
149
0.0
100
AcDbLayout
  1
Layout2
 70
     1
 71
     2
 10
0.0
 20
0.0
 11
0.0
 21
0.0
 12
0.0
 22
0.0
 32
0.0
 14
0.0
 24
0.0
 34
0.0
 15
0.0
 25
0.0
 35
0.0
146
0.0
 13
0.0
 23
0.0
 33
0.0
 16
1.0
 26
0.0
 36
0.0
 17
0.0
 27
1.0
 37
0.0
 76
     0
330
23
  0
LAYOUT
  5
22
102
{ACAD_REACTORS
330
1A
102
}
330
1A
100
AcDbPlotSettings
  1

  2
none_device
  4

  6

 40
0.0
 41
0.0
 42
0.0
 43
0.0
 44
0.0
 45
0.0
 46
0.0
 47
0.0
 48
0.0
 49
0.0
140
0.0
141
0.0
142
1.0
143
1.0
 70
  1712
 72
     0
 73
     0
 74
     0
  7

 75
     0
 76
     0
 77
     2
 78
   300
147
1.0
148
0.0
149
0.0
100
AcDbLayout
  1
Model
 70
     1
 71
     0
 10
0.0
 20
0.0
 11
12.0
 21
9.0
 12
0.0
 22
0.0
 32
0.0
 14
1.000000000000000E+20
 24
1.000000000000000E+20
 34
1.000000000000000E+20
 15
-1.000000000000000E+20
 25
-1.000000000000000E+20
 35
-1.000000000000000E+20
146
0.0
 13
0.0
 23
0.0
 33
0.0
 16
1.0
 26
0.0
 36
0.0
 17
0.0
 27
1.0
 37
0.0
 76
     0
330
1F
331
29
  0
MATERIAL
  5
3D
102
{ACAD_REACTORS
330
3B
102
}
330
3B
100
AcDbMaterial
  1
ByBlock
 72
     1
 94
      127
  0
MATERIAL
  5
3C
102
{ACAD_REACTORS
330
3B
102
}
330
3B
100
AcDbMaterial
  1
ByLayer
 72
     1
 94
      127
  0
MATERIAL
  5
3E
102
{ACAD_REACTORS
330
3B
102
}
330
3B
100
AcDbMaterial
  1
Global
 72
     1
 94
      127
  0
MLINESTYLE
  5
18
102
{ACAD_REACTORS
330
17
102
}
330
17
100
AcDbMlineStyle
  2
Standard
 70
     0
  3

 62
   256
 51
90.0
 52
90.0
 71
     2
 49
0.5
 62
   256
  6
BYLAYER
 49
-0.5
 62
   256
  6
BYLAYER
  0
ACDBPLACEHOLDER
  5
F
102
{ACAD_REACTORS
330
E
102
}
330
E
  0
VISUALSTYLE
  5
2F
102
{ACAD_REACTORS
330
2A
102
}
330
2A
100
AcDbVisualStyle
  2
2dWireframe
 70
     4
177
     2
291
     0
 71
     0
176
     1
 72
     2
176
     1
 73
     0
176
     1
 90
        0
176
     1
 40
-0.6
176
     1
 41
-30.0
176
     1
 62
     5
 63
     7
421
 16777215
176
     1
 74
     1
176
     1
 91
        4
176
     1
 64
     7
176
     1
 65
   257
176
     1
 75
     1
176
     1
175
     1
176
     1
 42
1.0
176
     1
 92
        0
176
     1
 66
   257
176
     1
 43
1.0
176
     1
 76
     1
176
     1
 77
     6
176
     1
 78
     2
176
     1
 67
     7
176
     1
 79
     5
176
     1
170
     0
176
     1
171
     0
176
     1
290
     0
176
     1
 93
        1
176
     1
 44
0.0
176
     1
173
     0
176
     1
  0
VISUALSTYLE
  5
31
102
{ACAD_REACTORS
330
2A
102
}
330
2A
100
AcDbVisualStyle
  2
3D Hidden
 70
     6
177
     2
291
     0
 71
     1
176
     1
 72
     2
176
     1
 73
     2
176
     1
 90
        0
176
     1
 40
-0.6
176
     1
 41
-30.0
176
     1
 62
     5
 63
     7
421
 16777215
176
     1
 74
     2
176
     1
 91
        2
176
     1
 64
     7
176
     1
 65
   257
176
     1
 75
     2
176
     1
175
     1
176
     1
 42
40.0
176
     1
 92
        0
176
     1
 66
   257
176
     1
 43
1.0
176
     1
 76
     1
176
     1
 77
     6
176
     1
 78
     2
176
     1
 67
     7
176
     1
 79
     3
176
     1
170
     0
176
     1
171
     0
176
     1
290
     0
176
     1
 93
        1
176
     1
 44
0.0
176
     1
173
     0
176
     1
  0
VISUALSTYLE
  5
30
102
{ACAD_REACTORS
330
2A
102
}
330
2A
100
AcDbVisualStyle
  2
3dWireframe
 70
     5
177
     2
291
     0
 71
     0
176
     1
 72
     2
176
     1
 73
     0
176
     1
 90
        0
176
     1
 40
-0.6
176
     1
 41
-30.0
176
     1
 62
     5
 63
     7
421
 16777215
176
     1
 74
     1
176
     1
 91
        4
176
     1
 64
     7
176
     1
 65
   257
176
     1
 75
     1
176
     1
175
     1
176
     1
 42
1.0
176
     1
 92
        0
176
     1
 66
   257
176
     1
 43
1.0
176
     1
 76
     1
176
     1
 77
     6
176
     1
 78
     2
176
     1
 67
     7
176
     1
 79
     5
176
     1
170
     0
176
     1
171
     0
176
     1
290
     0
176
     1
 93
        1
176
     1
 44
0.0
176
     1
173
     0
176
     1
  0
VISUALSTYLE
  5
32
102
{ACAD_REACTORS
330
2A
102
}
330
2A
100
AcDbVisualStyle
  2
Basic
 70
     7
177
     2
291
     1
 71
     1
176
     1
 72
     0
176
     1
 73
     1
176
     1
 90
        0
176
     1
 40
-0.6
176
     1
 41
-30.0
176
     1
 62
     5
 63
     7
421
 16777215
176
     1
 74
     0
176
     1
 91
        4
176
     1
 64
     7
176
     1
 65
   257
176
     1
 75
     1
176
     1
175
     1
176
     1
 42
1.0
176
     1
 92
        8
176
     1
 66
     7
176
     1
 43
1.0
176
     1
 76
     1
176
     1
 77
     6
176
     1
 78
     2
176
     1
 67
     7
176
     1
 79
     5
176
     1
170
     0
176
     1
171
     0
176
     1
290
     0
176
     1
 93
        1
176
     1
 44
0.0
176
     1
173
     0
176
     1
  0
VISUALSTYLE
  5
36
102
{ACAD_REACTORS
330
2A
102
}
330
2A
100
AcDbVisualStyle
  2
Brighten
 70
    12
177
     2
291
     1
 71
     2
176
     1
 72
     2
176
     1
 73
     0
176
     1
 90
        0
176
     1
 40
-0.6
176
     1
 41
-30.0
176
     1
 62
     5
 63
     7
421
 16777215
176
     1
 74
     1
176
     1
 91
        4
176
     1
 64
     7
176
     1
 65
   257
176
     1
 75
     1
176
     1
175
     1
176
     1
 42
1.0
176
     1
 92
        8
176
     1
 66
     7
176
     1
 43
1.0
176
     1
 76
     1
176
     1
 77
     6
176
     1
 78
     2
176
     1
 67
     7
176
     1
 79
     5
176
     1
170
     0
176
     1
171
     0
176
     1
290
     0
176
     1
 93
        1
176
     1
 44
50.0
176
     1
173
     0
176
     1
  0
VISUALSTYLE
  5
3A
102
{ACAD_REACTORS
330
2A
102
}
330
2A
100
AcDbVisualStyle
  2
ColorChange
 70
    16
177
     2
291
     1
 71
     2
176
     1
 72
     2
176
     1
 73
     3
176
     1
 90
        0
176
     1
 40
-0.6
176
     1
 41
-30.0
176
     1
 62
     5
 63
     8
421
  8421504
176
     1
 74
     1
176
     1
 91
        4
176
     1
 64
     7
176
     1
 65
   257
176
     1
 75
     1
176
     1
175
     1
176
     1
 42
1.0
176
     1
 92
        8
176
     1
 66
     8
424
  8421504
176
     1
 43
1.0
176
     1
 76
     1
176
     1
 77
     6
176
     1
 78
     2
176
     1
 67
     7
176
     1
 79
     5
176
     1
170
     0
176
     1
171
     0
176
     1
290
     0
176
     1
 93
        1
176
     1
 44
0.0
176
     1
173
     0
176
     1
  0
VISUALSTYLE
  5
34
102
{ACAD_REACTORS
330
2A
102
}
330
2A
100
AcDbVisualStyle
  2
Conceptual
 70
     9
177
     2
291
     0
 71
     3
176
     1
 72
     2
176
     1
 73
     0
176
     1
 90
        0
176
     1
 40
-0.6
176
     1
 41
-30.0
176
     1
 62
     5
 63
     7
421
 16777215
176
     1
 74
     2
176
     1
 91
        2
176
     1
 64
     7
176
     1
 65
   257
176
     1
 75
     1
176
     1
175
     1
176
     1
 42
40.0
176
     1
 92
        8
176
     1
 66
     7
176
     1
 43
1.0
176
     1
 76
     1
176
     1
 77
     6
176
     1
 78
     2
176
     1
 67
     7
176
     1
 79
     3
176
     1
170
     0
176
     1
171
     0
176
     1
290
     0
176
     1
 93
        1
176
     1
 44
0.0
176
     1
173
     0
176
     1
  0
VISUALSTYLE
  5
35
102
{ACAD_REACTORS
330
2A
102
}
330
2A
100
AcDbVisualStyle
  2
Dim
 70
    11
177
     2
291
     1
 71
     2
176
     1
 72
     2
176
     1
 73
     0
176
     1
 90
        0
176
     1
 40
-0.6
176
     1
 41
-30.0
176
     1
 62
     5
 63
     7
421
 16777215
176
     1
 74
     1
176
     1
 91
        4
176
     1
 64
     7
176
     1
 65
   257
176
     1
 75
     1
176
     1
175
     1
176
     1
 42
1.0
176
     1
 92
        8
176
     1
 66
     7
176
     1
 43
1.0
176
     1
 76
     1
176
     1
 77
     6
176
     1
 78
     2
176
     1
 67
     7
176
     1
 79
     5
176
     1
170
     0
176
     1
171
     0
176
     1
290
     0
176
     1
 93
        1
176
     1
 44
-50.0
176
     1
173
     0
176
     1
  0
VISUALSTYLE
  5
39
102
{ACAD_REACTORS
330
2A
102
}
330
2A
100
AcDbVisualStyle
  2
Facepattern
 70
    15
177
     2
291
     1
 71
     2
176
     1
 72
     2
176
     1
 73
     0
176
     1
 90
        0
176
     1
 40
-0.6
176
     1
 41
-30.0
176
     1
 62
     5
 63
     7
421
 16777215
176
     1
 74
     1
176
     1
 91
        4
176
     1
 64
     7
176
     1
 65
   257
176
     1
 75
     1
176
     1
175
     1
176
     1
 42
1.0
176
     1
 92
        8
176
     1
 66
     7
176
     1
 43
1.0
176
     1
 76
     1
176
     1
 77
     6
176
     1
 78
     2
176
     1
 67
     7
176
     1
 79
     5
176
     1
170
     0
176
     1
171
     0
176
     1
290
     0
176
     1
 93
        1
176
     1
 44
0.0
176
     1
173
     0
176
     1
  0
VISUALSTYLE
  5
2B
102
{ACAD_REACTORS
330
2A
102
}
330
2A
100
AcDbVisualStyle
  2
Flat
 70
     0
177
     2
291
     1
 71
     2
176
     1
 72
     1
176
     1
 73
     1
176
     1
 90
        2
176
     1
 40
-0.6
176
     1
 41
30.0
176
     1
 62
     5
 63
     7
421
 16777215
176
     1
 74
     0
176
     1
 91
        4
176
     1
 64
     7
176
     1
 65
   257
176
     1
 75
     1
176
     1
175
     1
176
     1
 42
1.0
176
     1
 92
        8
176
     1
 66
     7
176
     1
 43
1.0
176
     1
 76
     1
176
     1
 77
     6
176
     1
 78
     2
176
     1
 67
     7
176
     1
 79
     5
176
     1
170
     0
176
     1
171
     0
176
     1
290
     0
176
     1
 93
       13
176
     1
 44
0.0
176
     1
173
     0
176
     1
  0
VISUALSTYLE
  5
2C
102
{ACAD_REACTORS
330
2A
102
}
330
2A
100
AcDbVisualStyle
  2
FlatWithEdges
 70
     1
177
     2
291
     1
 71
     2
176
     1
 72
     1
176
     1
 73
     1
176
     1
 90
        2
176
     1
 40
-0.6
176
     1
 41
30.0
176
     1
 62
     5
 63
     7
421
 16777215
176
     1
 74
     1
176
     1
 91
        4
176
     1
 64
     7
176
     1
 65
   257
176
     1
 75
     1
176
     1
175
     1
176
     1
 42
1.0
176
     1
 92
        0
176
     1
 66
   257
176
     1
 43
1.0
176
     1
 76
     1
176
     1
 77
     6
176
     1
 78
     2
176
     1
 67
     7
176
     1
 79
     5
176
     1
170
     0
176
     1
171
     0
176
     1
290
     0
176
     1
 93
       13
176
     1
 44
0.0
176
     1
173
     0
176
     1
  0
VISUALSTYLE
  5
2D
102
{ACAD_REACTORS
330
2A
102
}
330
2A
100
AcDbVisualStyle
  2
Gouraud
 70
     2
177
     2
291
     1
 71
     2
176
     1
 72
     2
176
     1
 73
     1
176
     1
 90
        2
176
     1
 40
-0.6
176
     1
 41
30.0
176
     1
 62
     5
 63
     7
421
 16777215
176
     1
 74
     0
176
     1
 91
        4
176
     1
 64
     7
176
     1
 65
   257
176
     1
 75
     1
176
     1
175
     1
176
     1
 42
1.0
176
     1
 92
        0
176
     1
 66
     7
176
     1
 43
1.0
176
     1
 76
     1
176
     1
 77
     6
176
     1
 78
     2
176
     1
 67
     7
176
     1
 79
     5
176
     1
170
     0
176
     1
171
     0
176
     1
290
     0
176
     1
 93
       13
176
     1
 44
0.0
176
     1
173
     0
176
     1
  0
VISUALSTYLE
  5
2E
102
{ACAD_REACTORS
330
2A
102
}
330
2A
100
AcDbVisualStyle
  2
GouraudWithEdges
 70
     3
177
     2
291
     1
 71
     2
176
     1
 72
     2
176
     1
 73
     1
176
     1
 90
        2
176
     1
 40
-0.6
176
     1
 41
30.0
176
     1
 62
     5
 63
     7
421
 16777215
176
     1
 74
     1
176
     1
 91
        4
176
     1
 64
     7
176
     1
 65
   257
176
     1
 75
     1
176
     1
175
     1
176
     1
 42
1.0
176
     1
 92
        0
176
     1
 66
   257
176
     1
 43
1.0
176
     1
 76
     1
176
     1
 77
     6
176
     1
 78
     2
176
     1
 67
     7
176
     1
 79
     5
176
     1
170
     0
176
     1
171
     0
176
     1
290
     0
176
     1
 93
       13
176
     1
 44
0.0
176
     1
173
     0
176
     1
  0
VISUALSTYLE
  5
38
102
{ACAD_REACTORS
330
2A
102
}
330
2A
100
AcDbVisualStyle
  2
Linepattern
 70
    14
177
     2
291
     1
 71
     2
176
     1
 72
     2
176
     1
 73
     0
176
     1
 90
        0
176
     1
 40
-0.6
176
     1
 41
-30.0
176
     1
 62
     5
 63
     7
421
 16777215
176
     1
 74
     1
176
     1
 91
        4
176
     1
 64
     7
176
     1
 65
   257
176
     1
 75
     7
176
     1
175
     7
176
     1
 42
1.0
176
     1
 92
        8
176
     1
 66
     7
176
     1
 43
1.0
176
     1
 76
     1
176
     1
 77
     6
176
     1
 78
     2
176
     1
 67
     7
176
     1
 79
     5
176
     1
170
     0
176
     1
171
     0
176
     1
290
     0
176
     1
 93
        1
176
     1
 44
0.0
176
     1
173
     0
176
     1
  0
VISUALSTYLE
  5
33
102
{ACAD_REACTORS
330
2A
102
}
330
2A
100
AcDbVisualStyle
  2
Realistic
 70
     8
177
     2
291
     0
 71
     2
176
     1
 72
     2
176
     1
 73
     0
176
     1
 90
        0
176
     1
 40
-0.6
176
     1
 41
-30.0
176
     1
 62
     5
 63
     7
421
 16777215
176
     1
 74
     1
176
     1
 91
        0
176
     1
 64
     7
176
     1
 65
   257
176
     1
 75
     1
176
     1
175
     1
176
     1
 42
1.0
176
     1
 92
        8
176
     1
 66
     8
424
  7895160
176
     1
 43
1.0
176
     1
 76
     1
176
     1
 77
     6
176
     1
 78
     2
176
     1
 67
     7
176
     1
 79
     5
176
     1
170
     0
176
     1
171
     0
176
     1
290
     0
176
     1
 93
       13
176
     1
 44
0.0
176
     1
173
     0
176
     1
  0
VISUALSTYLE
  5
37
102
{ACAD_REACTORS
330
2A
102
}
330
2A
100
AcDbVisualStyle
  2
Thicken
 70
    13
177
     2
291
     1
 71
     2
176
     1
 72
     2
176
     1
 73
     0
176
     1
 90
        0
176
     1
 40
-0.6
176
     1
 41
-30.0
176
     1
 62
     5
 63
     7
421
 16777215
176
     1
 74
     1
176
     1
 91
        4
176
     1
 64
     7
176
     1
 65
   257
176
     1
 75
     1
176
     1
175
     1
176
     1
 42
1.0
176
     1
 92
       12
176
     1
 66
     7
176
     1
 43
1.0
176
     1
 76
     1
176
     1
 77
     6
176
     1
 78
     2
176
     1
 67
     7
176
     1
 79
     5
176
     1
170
     0
176
     1
171
     0
176
     1
290
     0
176
     1
 93
        1
176
     1
 44
0.0
176
     1
173
     0
176
     1
  0
ENDSEC
  0
EOF
