  0
SECTION
  2
HEADER
  9
$ACADVER
  1
AC1024
  9
$ACADMAINTVER
 70
   226
  9
$DWGCODEPAGE
  3
ANSI_932
  9
$INSBASE
 10
0.0
 20
0.0
 30
0.0
  9
$EXTMIN
 10
1.000000000000000E+20
 20
1.000000000000000E+20
 30
1.000000000000000E+20
  9
$EXTMAX
 10
-1.000000000000000E+20
 20
-1.000000000000000E+20
 30
-1.000000000000000E+20
  9
$LIMMIN
 10
0.0
 20
0.0
  9
$LIMMAX
 10
12.0
 20
9.0
  9
$ORTHOMODE
 70
     0
  9
$REGENMODE
 70
     1
  9
$FILLMODE
 70
     1
  9
$QTEXTMODE
 70
     0
  9
$MIRRTEXT
 70
     0
  9
$LTSCALE
 40
1.0
  9
$ATTMODE
 70
     1
  9
$TEXTSIZE
 40
0.2
  9
$TRACEWID
 40
0.05
  9
$TEXTSTYLE
  7
Standard
  9
$CLAYER
  8
0
  9
$CELTYPE
  6
ByLayer
  9
$CECOLOR
 62
   256
  9
$CELTSCALE
 40
1.0
  9
$DISPSILH
 70
     0
  9
$DIMSCALE
 40
1.0
  9
$DIMASZ
 40
0.18
  9
$DIMEXO
 40
0.0625
  9
$DIMDLI
 40
0.38
  9
$DIMRND
 40
0.0
  9
$DIMDLE
 40
0.0
  9
$DIMEXE
 40
0.18
  9
$DIMTP
 40
0.0
  9
$DIMTM
 40
0.0
  9
$DIMTXT
 40
0.18
  9
$DIMCEN
 40
0.09
  9
$DIMTSZ
 40
0.0
  9
$DIMTOL
 70
     0
  9
$DIMLIM
 70
     0
  9
$DIMTIH
 70
     1
  9
$DIMTOH
 70
     1
  9
$DIMSE1
 70
     0
  9
$DIMSE2
 70
     0
  9
$DIMTAD
 70
     0
  9
$DIMZIN
 70
     0
  9
$DIMBLK
  1

  9
$DIMASO
 70
     1
  9
$DIMSHO
 70
     1
  9
$DIMPOST
  1

  9
$DIMAPOST
  1

  9
$DIMALT
 70
     0
  9
$DIMALTD
 70
     2
  9
$DIMALTF
 40
25.4
  9
$DIMLFAC
 40
1.0
  9
$DIMTOFL
 70
     0
  9
$DIMTVP
 40
0.0
  9
$DIMTIX
 70
     0
  9
$DIMSOXD
 70
     0
  9
$DIMSAH
 70
     0
  9
$DIMBLK1
  1

  9
$DIMBLK2
  1

  9
$DIMSTYLE
  2
Standard
  9
$DIMCLRD
 70
     0
  9
$DIMCLRE
 70
     0
  9
$DIMCLRT
 70
     0
  9
$DIMTFAC
 40
1.0
  9
$DIMGAP
 40
0.09
  9
$DIMJUST
 70
     0
  9
$DIMSD1
 70
     0
  9
$DIMSD2
 70
     0
  9
$DIMTOLJ
 70
     1
  9
$DIMTZIN
 70
     0
  9
$DIMALTZ
 70
     0
  9
$DIMALTTZ
 70
     0
  9
$DIMUPT
 70
     0
  9
$DIMDEC
 70
     4
  9
$DIMTDEC
 70
     4
  9
$DIMALTU
 70
     2
  9
$DIMALTTD
 70
     2
  9
$DIMTXSTY
  7
Standard
  9
$DIMAUNIT
 70
     0
  9
$DIMADEC
 70
     0
  9
$DIMALTRND
 40
0.0
  9
$DIMAZIN
 70
     0
  9
$DIMDSEP
 70
    46
  9
$DIMATFIT
 70
     3
  9
$DIMFRAC
 70
     0
  9
$DIMLDRBLK
  1

  9
$DIMLUNIT
 70
     2
  9
$DIMLWD
 70
    -2
  9
$DIMLWE
 70
    -2
  9
$DIMTMOVE
 70
     0
  9
$DIMFXL
 40
1.0
  9
$DIMFXLON
 70
     0
  9
$DIMJOGANG
 40
0.7853981633974483
  9
$DIMTFILL
 70
     0
  9
$DIMTFILLCLR
 70
     0
  9
$DIMARCSYM
 70
     0
  9
$DIMLTYPE
  6

  9
$DIMLTEX1
  6

  9
$DIMLTEX2
  6

  9
$DIMTXTDIRECTION
 70
     0
  9
$LUNITS
 70
     2
  9
$LUPREC
 70
     4
  9
$SKETCHINC
 40
0.1
  9
$FILLETRAD
 40
0.0
  9
$AUNITS
 70
     0
  9
$AUPREC
 70
     0
  9
$MENU
  1
.
  9
$ELEVATION
 40
0.0
  9
$PELEVATION
 40
0.0
  9
$THICKNESS
 40
0.0
  9
$LIMCHECK
 70
     0
  9
$CHAMFERA
 40
0.0
  9
$CHAMFERB
 40
0.0
  9
$CHAMFERC
 40
0.0
  9
$CHAMFERD
 40
0.0
  9
$SKPOLY
 70
     0
  9
$TDCREATE
 40
2459569.488969908
  9
$TDUCREATE
 40
2459569.113969908
  9
$TDUPDATE
 40
2459569.488969908
  9
$TDUUPDATE
 40
2459569.113969908
  9
$TDINDWG
 40
0.0000115741
  9
$TDUSRTIMER
 40
0.0000115741
  9
$USRTIMER
 70
     1
  9
$ANGBASE
 50
0.0
  9
$ANGDIR
 70
     0
  9
$PDMODE
 70
     0
  9
$PDSIZE
 40
0.0
  9
$PLINEWID
 40
0.0
  9
$SPLFRAME
 70
     0
  9
$SPLINETYPE
 70
     6
  9
$SPLINESEGS
 70
     8
  9
$HANDSEED
  5
110
  9
$SURFTAB1
 70
     6
  9
$SURFTAB2
 70
     6
  9
$SURFTYPE
 70
     6
  9
$SURFU
 70
     6
  9
$SURFV
 70
     6
  9
$UCSBASE
  2

  9
$UCSNAME
  2

  9
$UCSORG
 10
0.0
 20
0.0
 30
0.0
  9
$UCSXDIR
 10
1.0
 20
0.0
 30
0.0
  9
$UCSYDIR
 10
0.0
 20
1.0
 30
0.0
  9
$UCSORTHOREF
  2

  9
$UCSORTHOVIEW
 70
     0
  9
$UCSORGTOP
 10
0.0
 20
0.0
 30
0.0
  9
$UCSORGBOTTOM
 10
0.0
 20
0.0
 30
0.0
  9
$UCSORGLEFT
 10
0.0
 20
0.0
 30
0.0
  9
$UCSORGRIGHT
 10
0.0
 20
0.0
 30
0.0
  9
$UCSORGFRONT
 10
0.0
 20
0.0
 30
0.0
  9
$UCSORGBACK
 10
0.0
 20
0.0
 30
0.0
  9
$PUCSBASE
  2

  9
$PUCSNAME
  2

  9
$PUCSORG
 10
0.0
 20
0.0
 30
0.0
  9
$PUCSXDIR
 10
1.0
 20
0.0
 30
0.0
  9
$PUCSYDIR
 10
0.0
 20
1.0
 30
0.0
  9
$PUCSORTHOREF
  2

  9
$PUCSORTHOVIEW
 70
     0
  9
$PUCSORGTOP
 10
0.0
 20
0.0
 30
0.0
  9
$PUCSORGBOTTOM
 10
0.0
 20
0.0
 30
0.0
  9
$PUCSORGLEFT
 10
0.0
 20
0.0
 30
0.0
  9
$PUCSORGRIGHT
 10
0.0
 20
0.0
 30
0.0
  9
$PUCSORGFRONT
 10
0.0
 20
0.0
 30
0.0
  9
$PUCSORGBACK
 10
0.0
 20
0.0
 30
0.0
  9
$USERI1
 70
     0
  9
$USERI2
 70
     0
  9
$USERI3
 70
     0
  9
$USERI4
 70
     0
  9
$USERI5
 70
     0
  9
$USERR1
 40
0.0
  9
$USERR2
 40
0.0
  9
$USERR3
 40
0.0
  9
$USERR4
 40
0.0
  9
$USERR5
 40
0.0
  9
$WORLDVIEW
 70
     1
  9
$SHADEDGE
 70
     3
  9
$SHADEDIF
 70
    70
  9
$TILEMODE
 70
     1
  9
$MAXACTVP
 70
    64
  9
$PINSBASE
 10
0.0
 20
0.0
 30
0.0
  9
$PLIMCHECK
 70
     0
  9
$PEXTMIN
 10
1.000000000000000E+20
 20
1.000000000000000E+20
 30
1.000000000000000E+20
  9
$PEXTMAX
 10
-1.000000000000000E+20
 20
-1.000000000000000E+20
 30
-1.000000000000000E+20
  9
$PLIMMIN
 10
0.0
 20
0.0
  9
$PLIMMAX
 10
12.0
 20
9.0
  9
$UNITMODE
 70
     0
  9
$VISRETAIN
 70
     1
  9
$PLINEGEN
 70
     0
  9
$PSLTSCALE
 70
     1
  9
$TREEDEPTH
 70
  3020
  9
$CMLSTYLE
  2
Standard
  9
$CMLJUST
 70
     0
  9
$CMLSCALE
 40
1.0
  9
$PROXYGRAPHICS
 70
     1
  9
$MEASUREMENT
 70
     0
  9
$CELWEIGHT
370
    -1
  9
$ENDCAPS
280
     0
  9
$JOINSTYLE
280
     0
  9
$LWDISPLAY
290
     1
  9
$INSUNITS
 70
     4
  9
$HYPERLINKBASE
  1

  9
$STYLESHEET
  1

  9
$XEDIT
290
     1
  9
$CEPSNTYPE
380
     0
  9
$PSTYLEMODE
290
     1
  9
$FINGERPRINTGUID
  2
{4C49E38D-28E6-FC44-B5A3-6049C5A958CD}
  9
$VERSIONGUID
  2
{2D214975-7B6A-154A-95CD-7E3351BF78DE}
  9
$EXTNAMES
290
     1
  9
$PSVPSCALE
 40
0.0
  9
$OLESTARTUP
290
     0
  9
$SORTENTS
280
   127
  9
$INDEXCTL
280
     0
  9
$HIDETEXT
280
     1
  9
$XCLIPFRAME
280
     2
  9
$HALOGAP
280
     0
  9
$OBSCOLOR
 70
   257
  9
$OBSLTYPE
280
     0
  9
$INTERSECTIONDISPLAY
280
     0
  9
$INTERSECTIONCOLOR
 70
   257
  9
$DIMASSOC
280
     2
  9
$PROJECTNAME
  1

  9
$CAMERADISPLAY
290
     0
  9
$LENSLENGTH
 40
50.0
  9
$CAMERAHEIGHT
 40
0.0
  9
$STEPSPERSEC
 40
2.0
  9
$STEPSIZE
 40
6.0
  9
$3DDWFPREC
 40
2.0
  9
$PSOLWIDTH
 40
0.25
  9
$PSOLHEIGHT
 40
4.0
  9
$LOFTANG1
 40
1.570796326794896
  9
$LOFTANG2
 40
1.570796326794896
  9
$LOFTMAG1
 40
0.0
  9
$LOFTMAG2
 40
0.0
  9
$LOFTPARAM
 70
     7
  9
$LOFTNORMALS
280
     1
  9
$LATITUDE
 40
37.795
  9
$LONGITUDE
 40
-122.394
  9
$NORTHDIRECTION
 40
0.0
  9
$TIMEZONE
 70
 -8000
  9
$LIGHTGLYPHDISPLAY
280
     1
  9
$TILEMODELIGHTSYNCH
280
     1
  9
$CMATERIAL
347
11
  9
$SOLIDHIST
280
     0
  9
$SHOWHIST
280
     1
  9
$DWFFRAME
280
     2
  9
$DGNFRAME
280
     0
  9
$REALWORLDSCALE
290
     1
  9
$INTERFERECOLOR
 62
     1
  9
$INTERFEREOBJVS
345
33
  9
$INTERFEREVPVS
346
30
  9
$CSHADOW
280
     0
  9
$SHADOWPLANELOCATION
 40
0.0
  0
ENDSEC
  0
SECTION
  2
CLASSES
  0
CLASS
  1
ACDBDICTIONARYWDFLT
  2
AcDbDictionaryWithDefault
  3
ObjectDBX Classes
 90
        0
 91
        1
280
     0
281
     0
  0
CLASS
  1
MATERIAL
  2
AcDbMaterial
  3
ObjectDBX Classes
 90
     1153
 91
        3
280
     0
281
     0
  0
CLASS
  1
VISUALSTYLE
  2
AcDbVisualStyle
  3
ObjectDBX Classes
 90
     4095
 91
       24
280
     0
281
     0
  0
CLASS
  1
SCALE
  2
AcDbScale
  3
ObjectDBX Classes
 90
     1153
 91
       17
280
     0
281
     0
  0
CLASS
  1
TABLESTYLE
  2
AcDbTableStyle
  3
ObjectDBX Classes
 90
     4095
 91
        1
280
     0
281
     0
  0
CLASS
  1
MLEADERSTYLE
  2
AcDbMLeaderStyle
  3
ACDB_MLEADERSTYLE_CLASS
 90
     4095
 91
        1
280
     0
281
     0
  0
CLASS
  1
ACDBSECTIONVIEWSTYLE
  2
AcDbSectionViewStyle
  3
ObjectDBX Classes
 90
     1025
 91
        1
280
     0
281
     0
  0
CLASS
  1
ACDBDETAILVIEWSTYLE
  2
AcDbDetailViewStyle
  3
ObjectDBX Classes
 90
     1025
 91
        1
280
     0
281
     0
  0
CLASS
  1
DICTIONARYVAR
  2
AcDbDictionaryVar
  3
ObjectDBX Classes
 90
        0
 91
        5
280
     0
281
     0
  0
CLASS
  1
CELLSTYLEMAP
  2
AcDbCellStyleMap
  3
ObjectDBX Classes
 90
     1152
 91
        1
280
     0
281
     0
  0
ENDSEC
  0
SECTION
  2
TABLES
  0
TABLE
  2
VPORT
  5
8
330
0
100
AcDbSymbolTable
 70
     1
  0
VPORT
  5
57
330
8
100
AcDbSymbolTableRecord
100
AcDbViewportTableRecord
  2
*Active
 70
     0
 10
0.0
 20
0.0
 11
1.0
 21
1.0
 12
0.0
 22
0.0
 13
0.0
 23
0.0
 14
1.0
 24
1.0
 15
0.0
 25
0.0
 16
0.0
 26
0.0
 36
1.0
 17
104.9999999737534
 27
-148.4999999628701
 37
0.0
 40
302.939999924255
 41
0.7070707070707534
 42
50.0
 43
0.0
 44
0.0
 50
0.0
 51
0.0
 71
     0
 72
   100
 73
     1
 74
     0
 75
     1
 76
     0
 77
     0
 78
     0
281
     0
 65
     1
110
0.0
120
0.0
130
0.0
111
1.0
121
0.0
131
0.0
112
0.0
122
1.0
132
0.0
 79
     0
146
0.0
 60
     3
 61
     5
292
     1
282
     1
141
0.0
142
0.0
 63
   250
421
  3355443
  0
ENDTAB
  0
TABLE
  2
LTYPE
  5
5
330
0
100
AcDbSymbolTable
 70
     3
  0
LTYPE
  5
5B
330
5
100
AcDbSymbolTableRecord
100
AcDbLinetypeTableRecord
  2
ByBlock
 70
     0
  3

 72
    65
 73
     0
 40
0.0
  0
LTYPE
  5
5C
330
5
100
AcDbSymbolTableRecord
100
AcDbLinetypeTableRecord
  2
ByLayer
 70
     0
  3

 72
    65
 73
     0
 40
0.0
  0
LTYPE
  5
5D
330
5
100
AcDbSymbolTableRecord
100
AcDbLinetypeTableRecord
  2
Continuous
 70
     0
  3
Solid line
 72
    65
 73
     0
 40
0.0
  0
LTYPE
  5
AE
330
5
100
AcDbSymbolTableRecord
100
AcDbLinetypeTableRecord
  2
AI-Linetype-0
 70
     0
  3
Adobe Illustrator Linetype No. 0
 72
    65
 73
     2
 40
1.411111110758333
 49
0.7055555553791667
 74
     0
 49
-0.7055555553791667
 74
     0
  0
LTYPE
  5
B0
330
5
100
AcDbSymbolTableRecord
100
AcDbLinetypeTableRecord
  2
AI-Linetype-1
 70
     0
  3
Adobe Illustrator Linetype No. 1
 72
    65
 73
     2
 40
1.411111110758333
 49
0.7055555553791667
 74
     0
 49
-0.7055555553791667
 74
     0
  0
ENDTAB
  0
TABLE
  2
LAYER
  5
2
330
0
100
AcDbSymbolTable
 70
     2
  0
LAYER
  5
54
330
2
100
AcDbSymbolTableRecord
100
AcDbLayerTableRecord
  2
0
 70
     0
 62
     7
  6
Continuous
370
    -3
390
F
347
21
  0
LAYER
  5
78
330
2
100
AcDbSymbolTableRecord
100
AcDbLayerTableRecord
  2
レイヤー 1
 70
     0
 62
     7
  6
Continuous
370
     0
390
F
347
21
  0
ENDTAB
  0
TABLE
  2
STYLE
  5
3
330
0
100
AcDbSymbolTable
 70
     2
  0
STYLE
  5
55
330
3
100
AcDbSymbolTableRecord
100
AcDbTextStyleTableRecord
  2
Standard
 70
     0
 40
0.0
 41
1.0
 50
0.0
 71
     0
 42
0.2
  3
txt
  4

  0
STYLE
  5
5A
330
3
100
AcDbSymbolTableRecord
100
AcDbTextStyleTableRecord
  2
Annotative
 70
     0
 40
0.0
 41
1.0
 50
0.0
 71
     0
 42
0.2
  3
txt
  4

1001
AcadAnnotative
1000
AnnotativeData
1002
{
1070
     1
1070
     1
1002
}
  0
ENDTAB
  0
TABLE
  2
VIEW
  5
6
330
0
100
AcDbSymbolTable
 70
     0
  0
ENDTAB
  0
TABLE
  2
UCS
  5
7
330
0
100
AcDbSymbolTable
 70
     0
  0
ENDTAB
  0
TABLE
  2
APPID
  5
9
330
0
100
AcDbSymbolTable
 70
     2
  0
APPID
  5
56
330
9
100
AcDbSymbolTableRecord
100
AcDbRegAppTableRecord
  2
ACAD
 70
     0
  0
APPID
  5
5E
330
9
100
AcDbSymbolTableRecord
100
AcDbRegAppTableRecord
  2
AcadAnnotative
 70
     0
  0
ENDTAB
  0
TABLE
  2
DIMSTYLE
  5
A
330
0
100
AcDbSymbolTable
 70
     2
100
AcDbDimStyleTable
 71
     0
  0
DIMSTYLE
105
58
330
A
100
AcDbSymbolTableRecord
100
AcDbDimStyleTableRecord
  2
Standard
 70
     0
340
55
  0
DIMSTYLE
105
59
330
A
100
AcDbSymbolTableRecord
100
AcDbDimStyleTableRecord
  2
Annotative
 70
     0
340
55
1001
AcadAnnotative
1000
AnnotativeData
1002
{
1070
     1
1070
     1
1002
}
  0
ENDTAB
  0
TABLE
  2
BLOCK_RECORD
  5
1
330
0
100
AcDbSymbolTable
 70
     8
  0
BLOCK_RECORD
  5
70
330
1
100
AcDbSymbolTableRecord
100
AcDbBlockTableRecord
  2
*Model_Space
340
73
 70
     0
280
     1
281
     0
  0
BLOCK_RECORD
  5
6C
330
1
100
AcDbSymbolTableRecord
100
AcDbBlockTableRecord
  2
*Paper_Space
340
6F
 70
     0
280
     1
281
     0
  0
BLOCK_RECORD
  5
74
330
1
100
AcDbSymbolTableRecord
100
AcDbBlockTableRecord
  2
*Paper_Space0
340
77
 70
     0
280
     1
281
     0
  0
BLOCK_RECORD
  5
89
330
1
100
AcDbSymbolTableRecord
100
AcDbBlockTableRecord
  2
Block_0
340
0
102
{BLKREFS
331
8A
102
}
 70
     0
280
     1
281
     0
  0
BLOCK_RECORD
  5
92
330
1
100
AcDbSymbolTableRecord
100
AcDbBlockTableRecord
  2
Block_1
340
0
102
{BLKREFS
331
93
102
}
 70
     0
280
     1
281
     0
  0
BLOCK_RECORD
  5
96
330
1
100
AcDbSymbolTableRecord
100
AcDbBlockTableRecord
  2
Block_2
340
0
102
{BLKREFS
331
97
102
}
 70
     0
280
     1
281
     0
  0
BLOCK_RECORD
  5
A1
330
1
100
AcDbSymbolTableRecord
100
AcDbBlockTableRecord
  2
Block_3
340
0
102
{BLKREFS
331
A2
102
}
 70
     0
280
     1
281
     0
  0
BLOCK_RECORD
  5
A5
330
1
100
AcDbSymbolTableRecord
100
AcDbBlockTableRecord
  2
Block_4
340
0
102
{BLKREFS
331
A6
102
}
 70
     0
280
     1
281
     0
  0
BLOCK_RECORD
  5
B7
330
1
100
AcDbSymbolTableRecord
100
AcDbBlockTableRecord
  2
Block_5
340
0
102
{BLKREFS
331
B8
102
}
 70
     0
280
     1
281
     0
  0
BLOCK_RECORD
  5
BB
330
1
100
AcDbSymbolTableRecord
100
AcDbBlockTableRecord
  2
Block_6
340
0
102
{BLKREFS
331
BC
102
}
 70
     0
280
     1
281
     0
  0
ENDTAB
  0
ENDSEC
  0
SECTION
  2
BLOCKS
  0
BLOCK
  5
71
330
70
100
AcDbEntity
  8
0
100
AcDbBlockBegin
  2
*Model_Space
 70
     0
 10
0.0
 20
0.0
 30
0.0
  3
*Model_Space
  1

  0
ENDBLK
  5
72
330
70
100
AcDbEntity
  8
0
100
AcDbBlockEnd
  0
BLOCK
  5
6D
330
6C
100
AcDbEntity
 67
     1
  8
0
100
AcDbBlockBegin
  2
*Paper_Space
 70
     0
 10
0.0
 20
0.0
 30
0.0
  3
*Paper_Space
  1

  0
ENDBLK
  5
6E
330
6C
100
AcDbEntity
 67
     1
  8
0
100
AcDbBlockEnd
  0
BLOCK
  5
75
330
74
100
AcDbEntity
 67
     1
  8
0
100
AcDbBlockBegin
  2
*Paper_Space0
 70
     0
 10
0.0
 20
0.0
 30
0.0
  3
*Paper_Space0
  1

  0
ENDBLK
  5
76
330
74
100
AcDbEntity
 67
     1
  8
0
100
AcDbBlockEnd
  0
BLOCK
  5
8B
330
89
100
AcDbEntity
  8
0
100
AcDbBlockBegin
  2
Block_0
 70
     0
 10
0.0
 20
0.0
 30
0.0
  3
Block_0
  1

  0
SPLINE
  5
8D
330
89
100
AcDbEntity
  8
レイヤー 1
100
AcDbSpline
210
0.0
220
0.0
230
1.0
 70
    11
 71
     3
 72
    26
 73
    22
 74
     0
 42
0.0000000001
 43
0.0000000001
 40
0.0
 40
0.0
 40
0.0
 40
0.0
 40
1.0
 40
1.0
 40
1.0
 40
2.0
 40
2.0
 40
2.0
 40
3.0
 40
3.0
 40
3.0
 40
4.0
 40
4.0
 40
4.0
 40
5.0
 40
5.0
 40
5.0
 40
6.0
 40
6.0
 40
6.0
 40
7.0
 40
7.0
 40
7.0
 40
7.0
 10
116.6547227355932
 20
-149.8148003097685
 30
0.0
 10
116.6547227355932
 20
-149.8148003097685
 30
0.0
 10
115.5505696325707
 20
-149.8148003097685
 30
0.0
 10
115.5505696325707
 20
-149.8148003097685
 30
0.0
 10
115.5505696325707
 20
-149.8148003097685
 30
0.0
 10
115.5505696325707
 20
-150.1003987254957
 30
0.0
 10
115.5505696325707
 20
-150.1003987254957
 30
0.0
 10
115.5505696325707
 20
-150.1003987254957
 30
0.0
 10
115.4024305267049
 20
-150.1003987254957
 30
0.0
 10
115.4024305267049
 20
-150.1003987254957
 30
0.0
 10
115.3876166161184
 20
-149.8130777620259
 30
0.0
 10
115.224663599666
 20
-149.7727701448485
 30
0.0
 10
115.1102864295557
 20
-149.7472764382576
 30
0.0
 10
115.1102864295557
 20
-149.7472764382576
 30
0.0
 10
115.1102864295557
 20
-149.6208414339489
 30
0.0
 10
115.1102864295557
 20
-149.6208414339489
 30
0.0
 10
115.1102864295557
 20
-149.6208414339489
 30
0.0
 10
116.6547227355932
 20
-149.6208414339489
 30
0.0
 10
116.6547227355932
 20
-149.6208414339489
 30
0.0
 10
116.6547227355932
 20
-149.6208414339489
 30
0.0
 10
116.6547227355932
 20
-149.8148003097685
 30
0.0
 10
116.6547227355932
 20
-149.8148003097685
 30
0.0
  0
HATCH
  5
8E
330
89
100
AcDbEntity
  8
レイヤー 1
 62
   250
420
  2299925
440
 33554687
100
AcDbHatch
 10
0.0
 20
0.0
 30
0.0
210
0.0
220
0.0
230
1.0
  2
SOLID
 70
     1
 71
     1
 91
        1
 92
        1
 93
        1
 72
     4
 94
        3
 73
     0
 74
     0
 95
       26
 96
       22
 40
0.0
 40
0.0
 40
0.0
 40
0.0
 40
1.0
 40
1.0
 40
1.0
 40
2.0
 40
2.0
 40
2.0
 40
3.0
 40
3.0
 40
3.0
 40
4.0
 40
4.0
 40
4.0
 40
5.0
 40
5.0
 40
5.0
 40
6.0
 40
6.0
 40
6.0
 40
7.0
 40
7.0
 40
7.0
 40
7.0
 10
116.6547227355932
 20
-149.8148003097685
 10
116.6547227355932
 20
-149.8148003097685
 10
115.5505696325707
 20
-149.8148003097685
 10
115.5505696325707
 20
-149.8148003097685
 10
115.5505696325707
 20
-149.8148003097685
 10
115.5505696325707
 20
-150.1003987254957
 10
115.5505696325707
 20
-150.1003987254957
 10
115.5505696325707
 20
-150.1003987254957
 10
115.4024305267049
 20
-150.1003987254957
 10
115.4024305267049
 20
-150.1003987254957
 10
115.3876166161184
 20
-149.8130777620259
 10
115.224663599666
 20
-149.7727701448485
 10
115.1102864295557
 20
-149.7472764382576
 10
115.1102864295557
 20
-149.7472764382576
 10
115.1102864295557
 20
-149.6208414339489
 10
115.1102864295557
 20
-149.6208414339489
 10
115.1102864295557
 20
-149.6208414339489
 10
116.6547227355932
 20
-149.6208414339489
 10
116.6547227355932
 20
-149.6208414339489
 10
116.6547227355932
 20
-149.6208414339489
 10
116.6547227355932
 20
-149.8148003097685
 10
116.6547227355932
 20
-149.8148003097685
 97
        0
 97
        1
330
8D
 75
     2
 76
     1
 98
        1
 10
0.0
 20
0.0
450
        0
451
        0
460
0.0
461
0.0
452
        0
462
0.0
453
        0
470

  0
ENDBLK
  5
8C
330
89
100
AcDbEntity
  8
0
100
AcDbBlockEnd
  0
BLOCK
  5
94
330
92
100
AcDbEntity
  8
0
100
AcDbBlockBegin
  2
Block_1
 70
     0
 10
0.0
 20
0.0
 30
0.0
  3
Block_1
  1

  0
INSERT
  5
97
330
92
100
AcDbEntity
  8
レイヤー 1
100
AcDbBlockReference
  2
Block_2
 10
0.0
 20
0.0
 30
0.0
  0
ENDBLK
  5
95
330
92
100
AcDbEntity
  8
0
100
AcDbBlockEnd
  0
BLOCK
  5
98
330
96
100
AcDbEntity
  8
0
100
AcDbBlockBegin
  2
Block_2
 70
     0
 10
0.0
 20
0.0
 30
0.0
  3
Block_2
  1

  0
SPLINE
  5
9A
330
96
100
AcDbEntity
  8
レイヤー 1
100
AcDbSpline
210
0.0
220
0.0
230
1.0
 70
    11
 71
     3
 72
    26
 73
    22
 74
     0
 42
0.0000000001
 43
0.0000000001
 40
0.0
 40
0.0
 40
0.0
 40
0.0
 40
1.0
 40
1.0
 40
1.0
 40
2.0
 40
2.0
 40
2.0
 40
3.0
 40
3.0
 40
3.0
 40
4.0
 40
4.0
 40
4.0
 40
5.0
 40
5.0
 40
5.0
 40
6.0
 40
6.0
 40
6.0
 40
7.0
 40
7.0
 40
7.0
 40
7.0
 10
93.65423174741978
 20
-146.9822428017961
 30
0.0
 10
93.65423174741978
 20
-146.9822428017961
 30
0.0
 10
92.5500786443972
 20
-146.9822428017961
 30
0.0
 10
92.5500786443972
 20
-146.9822428017961
 30
0.0
 10
92.5500786443972
 20
-146.9822428017961
 30
0.0
 10
92.5500786443972
 20
-147.2678412175233
 30
0.0
 10
92.5500786443972
 20
-147.2678412175233
 30
0.0
 10
92.5500786443972
 20
-147.2678412175233
 30
0.0
 10
92.40193953853147
 20
-147.2678412175233
 30
0.0
 10
92.40193953853147
 20
-147.2678412175233
 30
0.0
 10
92.38712562794487
 20
-146.9805202540535
 30
0.0
 10
92.22417261149258
 20
-146.940212636876
 30
0.0
 10
92.11013995093081
 20
-146.9147189302852
 30
0.0
 10
92.11013995093081
 20
-146.9147189302852
 30
0.0
 10
92.11013995093081
 20
-146.7882839259765
 30
0.0
 10
92.11013995093081
 20
-146.7882839259765
 30
0.0
 10
92.11013995093081
 20
-146.7882839259765
 30
0.0
 10
93.65423174741978
 20
-146.7882839259765
 30
0.0
 10
93.65423174741978
 20
-146.7882839259765
 30
0.0
 10
93.65423174741978
 20
-146.7882839259765
 30
0.0
 10
93.65423174741978
 20
-146.9822428017961
 30
0.0
 10
93.65423174741978
 20
-146.9822428017961
 30
0.0
  0
HATCH
  5
9B
330
96
100
AcDbEntity
  8
レイヤー 1
 62
   250
420
  2299925
440
 33554687
100
AcDbHatch
 10
0.0
 20
0.0
 30
0.0
210
0.0
220
0.0
230
1.0
  2
SOLID
 70
     1
 71
     1
 91
        1
 92
        1
 93
        1
 72
     4
 94
        3
 73
     0
 74
     0
 95
       26
 96
       22
 40
0.0
 40
0.0
 40
0.0
 40
0.0
 40
1.0
 40
1.0
 40
1.0
 40
2.0
 40
2.0
 40
2.0
 40
3.0
 40
3.0
 40
3.0
 40
4.0
 40
4.0
 40
4.0
 40
5.0
 40
5.0
 40
5.0
 40
6.0
 40
6.0
 40
6.0
 40
7.0
 40
7.0
 40
7.0
 40
7.0
 10
93.65423174741978
 20
-146.9822428017961
 10
93.65423174741978
 20
-146.9822428017961
 10
92.5500786443972
 20
-146.9822428017961
 10
92.5500786443972
 20
-146.9822428017961
 10
92.5500786443972
 20
-146.9822428017961
 10
92.5500786443972
 20
-147.2678412175233
 10
92.5500786443972
 20
-147.2678412175233
 10
92.5500786443972
 20
-147.2678412175233
 10
92.40193953853147
 20
-147.2678412175233
 10
92.40193953853147
 20
-147.2678412175233
 10
92.38712562794487
 20
-146.9805202540535
 10
92.22417261149258
 20
-146.940212636876
 10
92.11013995093081
 20
-146.9147189302852
 10
92.11013995093081
 20
-146.9147189302852
 10
92.11013995093081
 20
-146.7882839259765
 10
92.11013995093081
 20
-146.7882839259765
 10
92.11013995093081
 20
-146.7882839259765
 10
93.65423174741978
 20
-146.7882839259765
 10
93.65423174741978
 20
-146.7882839259765
 10
93.65423174741978
 20
-146.7882839259765
 10
93.65423174741978
 20
-146.9822428017961
 10
93.65423174741978
 20
-146.9822428017961
 97
        0
 97
        1
330
9A
 75
     2
 76
     1
 98
        1
 10
0.0
 20
0.0
450
        0
451
        0
460
0.0
461
0.0
452
        0
462
0.0
453
        0
470

  0
SPLINE
  5
9C
330
96
100
AcDbEntity
  8
レイヤー 1
100
AcDbSpline
210
0.0
220
0.0
230
1.0
 70
     9
 71
     3
 72
    53
 73
    49
 74
     0
 42
0.0000000001
 43
0.0000000001
 40
0.0
 40
0.0
 40
0.0
 40
0.0
 40
1.0
 40
1.0
 40
1.0
 40
2.0
 40
2.0
 40
2.0
 40
3.0
 40
3.0
 40
3.0
 40
4.0
 40
4.0
 40
4.0
 40
5.0
 40
5.0
 40
5.0
 40
6.0
 40
6.0
 40
6.0
 40
7.0
 40
7.0
 40
7.0
 40
8.0
 40
8.0
 40
8.0
 40
9.0
 40
9.0
 40
9.0
 40
10.0
 40
10.0
 40
10.0
 40
11.0
 40
11.0
 40
11.0
 40
12.0
 40
12.0
 40
12.0
 40
13.0
 40
13.0
 40
13.0
 40
14.0
 40
14.0
 40
14.0
 40
15.0
 40
15.0
 40
15.0
 40
16.0
 40
16.0
 40
16.0
 40
16.0
 10
93.70521916060146
 20
-145.9394123984109
 30
0.0
 10
93.70521916060146
 20
-146.0069362699218
 30
0.0
 10
93.68799368317523
 20
-146.0951307143443
 30
0.0
 10
93.62460392624663
 20
-146.1826361396696
 30
0.0
 10
93.51470538026715
 20
-146.3328423028265
 30
0.0
 10
93.38344724227914
 20
-146.3511013088983
 30
0.0
 10
93.27561575359082
 20
-146.3676377672275
 30
0.0
 10
93.27561575359082
 20
-146.3676377672275
 30
0.0
 10
93.27561575359082
 20
-146.1754014391506
 30
0.0
 10
93.27561575359082
 20
-146.1754014391506
 30
0.0
 10
93.47439776308974
 20
-146.1278591214541
 30
0.0
 10
93.50402558426289
 20
-146.0179605754747
 30
0.0
 10
93.50402558426289
 20
-145.9376898506683
 30
0.0
 10
93.50402558426289
 20
-145.8167669991361
 30
0.0
 10
93.4048068342877
 20
-145.6851643515995
 30
0.0
 10
93.17191837948481
 20
-145.6851643515995
 30
0.0
 10
92.91594778493074
 20
-145.6851643515995
 30
0.0
 10
92.84635685612869
 20
-145.8405381579843
 30
0.0
 10
92.84635685612869
 20
-145.9449245511874
 30
0.0
 10
92.84635685612869
 20
-145.9724853150694
 30
0.0
 10
92.84635685612869
 20
-146.0951307143443
 30
0.0
 10
92.97520342727704
 20
-146.1719563436653
 30
0.0
 10
92.97520342727704
 20
-146.1719563436653
 30
0.0
 10
92.95625540210817
 20
-146.3238850545648
 30
0.0
 10
92.95625540210817
 20
-146.3238850545648
 30
0.0
 10
92.95625540210817
 20
-146.3238850545648
 30
0.0
 10
92.11013995093081
 20
-146.2194986613618
 30
0.0
 10
92.11013995093081
 20
-146.2194986613618
 30
0.0
 10
92.11013995093081
 20
-146.2194986613618
 30
0.0
 10
92.11013995093081
 20
-145.5459824939954
 30
0.0
 10
92.11013995093081
 20
-145.5459824939954
 30
0.0
 10
92.11013995093081
 20
-145.5459824939954
 30
0.0
 10
92.30478784584741
 20
-145.5459824939954
 30
0.0
 10
92.30478784584741
 20
-145.5459824939954
 30
0.0
 10
92.30478784584741
 20
-145.5459824939954
 30
0.0
 10
92.30478784584741
 20
-146.0785942560151
 30
0.0
 10
92.30478784584741
 20
-146.0785942560151
 30
0.0
 10
92.30478784584741
 20
-146.0785942560151
 30
0.0
 10
92.72784557143609
 20
-146.1350938219732
 30
0.0
 10
92.72784557143609
 20
-146.1350938219732
 30
0.0
 10
92.69373912613213
 20
-146.0820393515003
 30
0.0
 10
92.65377601850323
 20
-146.0107258749556
 30
0.0
 10
92.65377601850323
 20
-145.9084065390437
 30
0.0
 10
92.65377601850323
 20
-145.6886094470848
 30
0.0
 10
92.83981117470672
 20
-145.4836262657124
 30
0.0
 10
93.15297035431592
 20
-145.4836262657124
 30
0.0
 10
93.47026364850744
 20
-145.4836262657124
 30
0.0
 10
93.70521916060146
 20
-145.677585141532
 30
0.0
 10
93.70521916060146
 20
-145.9394123984109
 30
0.0
  0
HATCH
  5
9D
330
96
100
AcDbEntity
  8
レイヤー 1
 62
   250
420
  2299925
440
 33554687
100
AcDbHatch
 10
0.0
 20
0.0
 30
0.0
210
0.0
220
0.0
230
1.0
  2
SOLID
 70
     1
 71
     1
 91
        1
 92
        1
 93
        1
 72
     4
 94
        3
 73
     0
 74
     0
 95
       53
 96
       49
 40
0.0
 40
0.0
 40
0.0
 40
0.0
 40
1.0
 40
1.0
 40
1.0
 40
2.0
 40
2.0
 40
2.0
 40
3.0
 40
3.0
 40
3.0
 40
4.0
 40
4.0
 40
4.0
 40
5.0
 40
5.0
 40
5.0
 40
6.0
 40
6.0
 40
6.0
 40
7.0
 40
7.0
 40
7.0
 40
8.0
 40
8.0
 40
8.0
 40
9.0
 40
9.0
 40
9.0
 40
10.0
 40
10.0
 40
10.0
 40
11.0
 40
11.0
 40
11.0
 40
12.0
 40
12.0
 40
12.0
 40
13.0
 40
13.0
 40
13.0
 40
14.0
 40
14.0
 40
14.0
 40
15.0
 40
15.0
 40
15.0
 40
16.0
 40
16.0
 40
16.0
 40
16.0
 10
93.70521916060146
 20
-145.9394123984109
 10
93.70521916060146
 20
-146.0069362699218
 10
93.68799368317523
 20
-146.0951307143443
 10
93.62460392624663
 20
-146.1826361396696
 10
93.51470538026715
 20
-146.3328423028265
 10
93.38344724227914
 20
-146.3511013088983
 10
93.27561575359082
 20
-146.3676377672275
 10
93.27561575359082
 20
-146.3676377672275
 10
93.27561575359082
 20
-146.1754014391506
 10
93.27561575359082
 20
-146.1754014391506
 10
93.47439776308974
 20
-146.1278591214541
 10
93.50402558426289
 20
-146.0179605754747
 10
93.50402558426289
 20
-145.9376898506683
 10
93.50402558426289
 20
-145.8167669991361
 10
93.4048068342877
 20
-145.6851643515995
 10
93.17191837948481
 20
-145.6851643515995
 10
92.91594778493074
 20
-145.6851643515995
 10
92.84635685612869
 20
-145.8405381579843
 10
92.84635685612869
 20
-145.9449245511874
 10
92.84635685612869
 20
-145.9724853150694
 10
92.84635685612869
 20
-146.0951307143443
 10
92.97520342727704
 20
-146.1719563436653
 10
92.97520342727704
 20
-146.1719563436653
 10
92.95625540210817
 20
-146.3238850545648
 10
92.95625540210817
 20
-146.3238850545648
 10
92.95625540210817
 20
-146.3238850545648
 10
92.11013995093081
 20
-146.2194986613618
 10
92.11013995093081
 20
-146.2194986613618
 10
92.11013995093081
 20
-146.2194986613618
 10
92.11013995093081
 20
-145.5459824939954
 10
92.11013995093081
 20
-145.5459824939954
 10
92.11013995093081
 20
-145.5459824939954
 10
92.30478784584741
 20
-145.5459824939954
 10
92.30478784584741
 20
-145.5459824939954
 10
92.30478784584741
 20
-145.5459824939954
 10
92.30478784584741
 20
-146.0785942560151
 10
92.30478784584741
 20
-146.0785942560151
 10
92.30478784584741
 20
-146.0785942560151
 10
92.72784557143609
 20
-146.1350938219732
 10
92.72784557143609
 20
-146.1350938219732
 10
92.69373912613213
 20
-146.0820393515003
 10
92.65377601850323
 20
-146.0107258749556
 10
92.65377601850323
 20
-145.9084065390437
 10
92.65377601850323
 20
-145.6886094470848
 10
92.83981117470672
 20
-145.4836262657124
 10
93.15297035431592
 20
-145.4836262657124
 10
93.47026364850744
 20
-145.4836262657124
 10
93.70521916060146
 20
-145.677585141532
 10
93.70521916060146
 20
-145.9394123984109
 97
        0
 97
        1
330
9C
 75
     2
 76
     1
 98
        1
 10
0.0
 20
0.0
450
        0
451
        0
460
0.0
461
0.0
452
        0
462
0.0
453
        0
470

  0
ENDBLK
  5
99
330
96
100
AcDbEntity
  8
0
100
AcDbBlockEnd
  0
BLOCK
  5
A3
330
A1
100
AcDbEntity
  8
0
100
AcDbBlockBegin
  2
Block_3
 70
     0
 10
0.0
 20
0.0
 30
0.0
  3
Block_3
  1

  0
INSERT
  5
A6
330
A1
100
AcDbEntity
  8
レイヤー 1
100
AcDbBlockReference
  2
Block_4
 10
0.0
 20
0.0
 30
0.0
  0
ENDBLK
  5
A4
330
A1
100
AcDbEntity
  8
0
100
AcDbBlockEnd
  0
BLOCK
  5
A7
330
A5
100
AcDbEntity
  8
0
100
AcDbBlockBegin
  2
Block_4
 70
     0
 10
0.0
 20
0.0
 30
0.0
  3
Block_4
  1

  0
SPLINE
  5
A9
330
A5
100
AcDbEntity
  8
レイヤー 1
100
AcDbSpline
210
0.0
220
0.0
230
1.0
 70
    11
 71
     3
 72
    26
 73
    22
 74
     0
 42
0.0000000001
 43
0.0000000001
 40
0.0
 40
0.0
 40
0.0
 40
0.0
 40
1.0
 40
1.0
 40
1.0
 40
2.0
 40
2.0
 40
2.0
 40
3.0
 40
3.0
 40
3.0
 40
4.0
 40
4.0
 40
4.0
 40
5.0
 40
5.0
 40
5.0
 40
6.0
 40
6.0
 40
6.0
 40
7.0
 40
7.0
 40
7.0
 40
7.0
 10
104.9649969898178
 20
-157.0997992228778
 30
0.0
 10
104.9649969898178
 20
-157.0997992228778
 30
0.0
 10
104.9649969898178
 20
-155.9956461198552
 30
0.0
 10
104.9649969898178
 20
-155.9956461198552
 30
0.0
 10
104.9649969898178
 20
-155.9956461198552
 30
0.0
 10
104.6793985740905
 20
-155.9956461198552
 30
0.0
 10
104.6793985740905
 20
-155.9956461198552
 30
0.0
 10
104.6793985740905
 20
-155.9956461198552
 30
0.0
 10
104.6793985740905
 20
-155.8475070139895
 30
0.0
 10
104.6793985740905
 20
-155.8475070139895
 30
0.0
 10
104.9667195375604
 20
-155.8326931034029
 30
0.0
 10
105.0070271547378
 20
-155.6697400869506
 30
0.0
 10
105.0325208613287
 20
-155.5553629168403
 30
0.0
 10
105.0325208613287
 20
-155.5553629168403
 30
0.0
 10
105.1589558656373
 20
-155.5553629168403
 30
0.0
 10
105.1589558656373
 20
-155.5553629168403
 30
0.0
 10
105.1589558656373
 20
-155.5553629168403
 30
0.0
 10
105.1589558656373
 20
-157.0997992228778
 30
0.0
 10
105.1589558656373
 20
-157.0997992228778
 30
0.0
 10
105.1589558656373
 20
-157.0997992228778
 30
0.0
 10
104.9649969898178
 20
-157.0997992228778
 30
0.0
 10
104.9649969898178
 20
-157.0997992228778
 30
0.0
  0
HATCH
  5
AA
330
A5
100
AcDbEntity
  8
レイヤー 1
 62
   250
420
  2299925
440
 33554687
100
AcDbHatch
 10
0.0
 20
0.0
 30
0.0
210
0.0
220
0.0
230
1.0
  2
SOLID
 70
     1
 71
     1
 91
        1
 92
        1
 93
        1
 72
     4
 94
        3
 73
     0
 74
     0
 95
       26
 96
       22
 40
0.0
 40
0.0
 40
0.0
 40
0.0
 40
1.0
 40
1.0
 40
1.0
 40
2.0
 40
2.0
 40
2.0
 40
3.0
 40
3.0
 40
3.0
 40
4.0
 40
4.0
 40
4.0
 40
5.0
 40
5.0
 40
5.0
 40
6.0
 40
6.0
 40
6.0
 40
7.0
 40
7.0
 40
7.0
 40
7.0
 10
104.9649969898178
 20
-157.0997992228778
 10
104.9649969898178
 20
-157.0997992228778
 10
104.9649969898178
 20
-155.9956461198552
 10
104.9649969898178
 20
-155.9956461198552
 10
104.9649969898178
 20
-155.9956461198552
 10
104.6793985740905
 20
-155.9956461198552
 10
104.6793985740905
 20
-155.9956461198552
 10
104.6793985740905
 20
-155.9956461198552
 10
104.6793985740905
 20
-155.8475070139895
 10
104.6793985740905
 20
-155.8475070139895
 10
104.9667195375604
 20
-155.8326931034029
 10
105.0070271547378
 20
-155.6697400869506
 10
105.0325208613287
 20
-155.5553629168403
 10
105.0325208613287
 20
-155.5553629168403
 10
105.1589558656373
 20
-155.5553629168403
 10
105.1589558656373
 20
-155.5553629168403
 10
105.1589558656373
 20
-155.5553629168403
 10
105.1589558656373
 20
-157.0997992228778
 10
105.1589558656373
 20
-157.0997992228778
 10
105.1589558656373
 20
-157.0997992228778
 10
104.9649969898178
 20
-157.0997992228778
 10
104.9649969898178
 20
-157.0997992228778
 97
        0
 97
        1
330
A9
 75
     2
 76
     1
 98
        1
 10
0.0
 20
0.0
450
        0
451
        0
460
0.0
461
0.0
452
        0
462
0.0
453
        0
470

  0
SPLINE
  5
AB
330
A5
100
AcDbEntity
  8
レイヤー 1
100
AcDbSpline
210
0.0
220
0.0
230
1.0
 70
     9
 71
     3
 72
    53
 73
    49
 74
     0
 42
0.0000000001
 43
0.0000000001
 40
0.0
 40
0.0
 40
0.0
 40
0.0
 40
1.0
 40
1.0
 40
1.0
 40
2.0
 40
2.0
 40
2.0
 40
3.0
 40
3.0
 40
3.0
 40
4.0
 40
4.0
 40
4.0
 40
5.0
 40
5.0
 40
5.0
 40
6.0
 40
6.0
 40
6.0
 40
7.0
 40
7.0
 40
7.0
 40
8.0
 40
8.0
 40
8.0
 40
9.0
 40
9.0
 40
9.0
 40
10.0
 40
10.0
 40
10.0
 40
11.0
 40
11.0
 40
11.0
 40
12.0
 40
12.0
 40
12.0
 40
13.0
 40
13.0
 40
13.0
 40
14.0
 40
14.0
 40
14.0
 40
15.0
 40
15.0
 40
15.0
 40
16.0
 40
16.0
 40
16.0
 40
16.0
 10
106.0079996479772
 20
-157.150442126511
 30
0.0
 10
105.9401312669177
 20
-157.150442126511
 30
0.0
 10
105.8526258415924
 20
-157.1335611586333
 30
0.0
 10
105.76443139717
 20
-157.0701714017047
 30
0.0
 10
105.6145697435616
 20
-156.9602728557252
 30
0.0
 10
105.5963107374898
 20
-156.8290147177372
 30
0.0
 10
105.5797742791606
 20
-156.7211832290489
 30
0.0
 10
105.5797742791606
 20
-156.7211832290489
 30
0.0
 10
105.7720106072375
 20
-156.7211832290489
 30
0.0
 10
105.7720106072375
 20
-156.7211832290489
 30
0.0
 10
105.819552924934
 20
-156.9199652385478
 30
0.0
 10
105.9294514709135
 20
-156.9495930597209
 30
0.0
 10
106.0097221957198
 20
-156.9495930597209
 30
0.0
 10
106.130645047252
 20
-156.9495930597209
 30
0.0
 10
106.2625922043371
 20
-156.8500298001972
 30
0.0
 10
106.2625922043371
 20
-156.6174858549428
 30
0.0
 10
106.2625922043371
 20
-156.3615152603888
 30
0.0
 10
106.1068738884038
 20
-156.2915798220382
 30
0.0
 10
106.0024874952007
 20
-156.2915798220382
 30
0.0
 10
105.9749267313188
 20
-156.2915798220382
 30
0.0
 10
105.8526258415924
 20
-156.2915798220382
 30
0.0
 10
105.7754557027228
 20
-156.4207709027351
 30
0.0
 10
105.7754557027228
 20
-156.4207709027351
 30
0.0
 10
105.6235269918233
 20
-156.4018228775662
 30
0.0
 10
105.6235269918233
 20
-156.4018228775662
 30
0.0
 10
105.6235269918233
 20
-156.4018228775662
 30
0.0
 10
105.7279133850263
 20
-155.5553629168403
 30
0.0
 10
105.7279133850263
 20
-155.5553629168403
 30
0.0
 10
105.7279133850263
 20
-155.5553629168403
 30
0.0
 10
106.4014295523927
 20
-155.5553629168403
 30
0.0
 10
106.4014295523927
 20
-155.5553629168403
 30
0.0
 10
106.4014295523927
 20
-155.5553629168403
 30
0.0
 10
106.4014295523927
 20
-155.7500108117569
 30
0.0
 10
106.4014295523927
 20
-155.7500108117569
 30
0.0
 10
106.4014295523927
 20
-155.7500108117569
 30
0.0
 10
105.868817790373
 20
-155.7500108117569
 30
0.0
 10
105.868817790373
 20
-155.7500108117569
 30
0.0
 10
105.868817790373
 20
-155.7500108117569
 30
0.0
 10
105.812318224415
 20
-156.1730685373456
 30
0.0
 10
105.812318224415
 20
-156.1730685373456
 30
0.0
 10
105.8653726948878
 20
-156.1393066015902
 30
0.0
 10
105.9366861714325
 20
-156.0989989844127
 30
0.0
 10
106.0390055073444
 20
-156.0989989844127
 30
0.0
 10
106.2588025993033
 20
-156.0989989844127
 30
0.0
 10
106.4637857806757
 20
-156.2853786501648
 30
0.0
 10
106.4637857806757
 20
-156.598537829774
 30
0.0
 10
106.4637857806757
 20
-156.9158311239655
 30
0.0
 10
106.2698269048561
 20
-157.150442126511
 30
0.0
 10
106.0079996479772
 20
-157.150442126511
 30
0.0
  0
HATCH
  5
AC
330
A5
100
AcDbEntity
  8
レイヤー 1
 62
   250
420
  2299925
440
 33554687
100
AcDbHatch
 10
0.0
 20
0.0
 30
0.0
210
0.0
220
0.0
230
1.0
  2
SOLID
 70
     1
 71
     1
 91
        1
 92
        1
 93
        1
 72
     4
 94
        3
 73
     0
 74
     0
 95
       53
 96
       49
 40
0.0
 40
0.0
 40
0.0
 40
0.0
 40
1.0
 40
1.0
 40
1.0
 40
2.0
 40
2.0
 40
2.0
 40
3.0
 40
3.0
 40
3.0
 40
4.0
 40
4.0
 40
4.0
 40
5.0
 40
5.0
 40
5.0
 40
6.0
 40
6.0
 40
6.0
 40
7.0
 40
7.0
 40
7.0
 40
8.0
 40
8.0
 40
8.0
 40
9.0
 40
9.0
 40
9.0
 40
10.0
 40
10.0
 40
10.0
 40
11.0
 40
11.0
 40
11.0
 40
12.0
 40
12.0
 40
12.0
 40
13.0
 40
13.0
 40
13.0
 40
14.0
 40
14.0
 40
14.0
 40
15.0
 40
15.0
 40
15.0
 40
16.0
 40
16.0
 40
16.0
 40
16.0
 10
106.0079996479772
 20
-157.150442126511
 10
105.9401312669177
 20
-157.150442126511
 10
105.8526258415924
 20
-157.1335611586333
 10
105.76443139717
 20
-157.0701714017047
 10
105.6145697435616
 20
-156.9602728557252
 10
105.5963107374898
 20
-156.8290147177372
 10
105.5797742791606
 20
-156.7211832290489
 10
105.5797742791606
 20
-156.7211832290489
 10
105.7720106072375
 20
-156.7211832290489
 10
105.7720106072375
 20
-156.7211832290489
 10
105.819552924934
 20
-156.9199652385478
 10
105.9294514709135
 20
-156.9495930597209
 10
106.0097221957198
 20
-156.9495930597209
 10
106.130645047252
 20
-156.9495930597209
 10
106.2625922043371
 20
-156.8500298001972
 10
106.2625922043371
 20
-156.6174858549428
 10
106.2625922043371
 20
-156.3615152603888
 10
106.1068738884038
 20
-156.2915798220382
 10
106.0024874952007
 20
-156.2915798220382
 10
105.9749267313188
 20
-156.2915798220382
 10
105.8526258415924
 20
-156.2915798220382
 10
105.7754557027228
 20
-156.4207709027351
 10
105.7754557027228
 20
-156.4207709027351
 10
105.6235269918233
 20
-156.4018228775662
 10
105.6235269918233
 20
-156.4018228775662
 10
105.6235269918233
 20
-156.4018228775662
 10
105.7279133850263
 20
-155.5553629168403
 10
105.7279133850263
 20
-155.5553629168403
 10
105.7279133850263
 20
-155.5553629168403
 10
106.4014295523927
 20
-155.5553629168403
 10
106.4014295523927
 20
-155.5553629168403
 10
106.4014295523927
 20
-155.5553629168403
 10
106.4014295523927
 20
-155.7500108117569
 10
106.4014295523927
 20
-155.7500108117569
 10
106.4014295523927
 20
-155.7500108117569
 10
105.868817790373
 20
-155.7500108117569
 10
105.868817790373
 20
-155.7500108117569
 10
105.868817790373
 20
-155.7500108117569
 10
105.812318224415
 20
-156.1730685373456
 10
105.812318224415
 20
-156.1730685373456
 10
105.8653726948878
 20
-156.1393066015902
 10
105.9366861714325
 20
-156.0989989844127
 10
106.0390055073444
 20
-156.0989989844127
 10
106.2588025993033
 20
-156.0989989844127
 10
106.4637857806757
 20
-156.2853786501648
 10
106.4637857806757
 20
-156.598537829774
 10
106.4637857806757
 20
-156.9158311239655
 10
106.2698269048561
 20
-157.150442126511
 10
106.0079996479772
 20
-157.150442126511
 97
        0
 97
        1
330
AB
 75
     2
 76
     1
 98
        1
 10
0.0
 20
0.0
450
        0
451
        0
460
0.0
461
0.0
452
        0
462
0.0
453
        0
470

  0
ENDBLK
  5
A8
330
A5
100
AcDbEntity
  8
0
100
AcDbBlockEnd
  0
BLOCK
  5
B9
330
B7
100
AcDbEntity
  8
0
100
AcDbBlockBegin
  2
Block_5
 70
     0
 10
0.0
 20
0.0
 30
0.0
  3
Block_5
  1

  0
INSERT
  5
BC
330
B7
100
AcDbEntity
  8
レイヤー 1
100
AcDbBlockReference
  2
Block_6
 10
0.0
 20
0.0
 30
0.0
  0
ENDBLK
  5
BA
330
B7
100
AcDbEntity
  8
0
100
AcDbBlockEnd
  0
BLOCK
  5
BD
330
BB
100
AcDbEntity
  8
0
100
AcDbBlockBegin
  2
Block_6
 70
     0
 10
0.0
 20
0.0
 30
0.0
  3
Block_6
  1

  0
SPLINE
  5
BF
330
BB
100
AcDbEntity
  8
レイヤー 1
100
AcDbSpline
210
0.0
220
0.0
230
1.0
 70
     9
 71
     3
 72
    17
 73
    13
 74
     0
 42
0.0000000001
 43
0.0000000001
 40
0.0
 40
0.0
 40
0.0
 40
0.0
 40
1.0
 40
1.0
 40
1.0
 40
2.0
 40
2.0
 40
2.0
 40
3.0
 40
3.0
 40
3.0
 40
4.0
 40
4.0
 40
4.0
 40
4.0
 10
105.0533636890144
 20
-144.7258775137317
 30
0.0
 10
105.0385497784278
 20
-144.7553330801306
 30
0.0
 10
104.9941080466681
 20
-144.8485229130066
 30
0.0
 10
104.984806288858
 20
-144.8674709381755
 30
0.0
 10
105.151548910344
 20
-144.9267265805218
 30
0.0
 10
105.1701524259644
 20
-144.9331000071695
 30
0.0
 10
105.2331976733444
 20
-144.9606607710515
 30
0.0
 10
105.2810845005894
 20
-144.8738443648232
 30
0.0
 10
105.3017550735009
 20
-144.7997748118903
 30
0.0
 10
105.3145019267964
 20
-144.7258775137317
 30
0.0
 10
105.3145019267964
 20
-144.7258775137317
 30
0.0
 10
105.0533636890144
 20
-144.7258775137317
 30
0.0
 10
105.0533636890144
 20
-144.7258775137317
 30
0.0
  0
SPLINE
  5
C0
330
BB
100
AcDbEntity
  8
レイヤー 1
100
AcDbSpline
210
0.0
220
0.0
230
1.0
 70
    11
 71
     3
 72
    20
 73
    16
 74
     0
 42
0.0000000001
 43
0.0000000001
 40
0.0
 40
0.0
 40
0.0
 40
0.0
 40
1.0
 40
1.0
 40
1.0
 40
2.0
 40
2.0
 40
2.0
 40
3.0
 40
3.0
 40
3.0
 40
4.0
 40
4.0
 40
4.0
 40
5.0
 40
5.0
 40
5.0
 40
5.0
 10
104.9978976517019
 20
-143.8754556931978
 30
0.0
 10
104.9978976517019
 20
-143.8754556931978
 30
0.0
 10
104.9703368878199
 20
-143.8754556931978
 30
0.0
 10
104.9703368878199
 20
-143.8754556931978
 30
0.0
 10
105.0109890145458
 20
-143.9748466979472
 30
0.0
 10
105.0385497784278
 20
-144.0551174227536
 30
0.0
 10
105.068177599601
 20
-144.182069191385
 30
0.0
 10
105.068177599601
 20
-144.182069191385
 30
0.0
 10
105.2497341316737
 20
-144.182069191385
 30
0.0
 10
105.2497341316737
 20
-144.182069191385
 30
0.0
 10
105.2776394051042
 20
-144.0890516132833
 30
0.0
 10
105.2979654684672
 20
-144.0044745191204
 30
0.0
 10
105.3182915318301
 20
-143.8754556931978
 30
0.0
 10
105.3182915318301
 20
-143.8754556931978
 30
0.0
 10
104.9978976517019
 20
-143.8754556931978
 30
0.0
 10
104.9978976517019
 20
-143.8754556931978
 30
0.0
  0
SPLINE
  5
C1
330
BB
100
AcDbEntity
  8
レイヤー 1
100
AcDbSpline
210
0.0
220
0.0
230
1.0
 70
     9
 71
     3
 72
   242
 73
   238
 74
     0
 42
0.0000000001
 43
0.0000000001
 40
0.0
 40
0.0
 40
0.0
 40
0.0
 40
1.0
 40
1.0
 40
1.0
 40
2.0
 40
2.0
 40
2.0
 40
3.0
 40
3.0
 40
3.0
 40
4.0
 40
4.0
 40
4.0
 40
5.0
 40
5.0
 40
5.0
 40
6.0
 40
6.0
 40
6.0
 40
7.0
 40
7.0
 40
7.0
 40
8.0
 40
8.0
 40
8.0
 40
9.0
 40
9.0
 40
9.0
 40
10.0
 40
10.0
 40
10.0
 40
11.0
 40
11.0
 40
11.0
 40
12.0
 40
12.0
 40
12.0
 40
13.0
 40
13.0
 40
13.0
 40
14.0
 40
14.0
 40
14.0
 40
15.0
 40
15.0
 40
15.0
 40
16.0
 40
16.0
 40
16.0
 40
17.0
 40
17.0
 40
17.0
 40
18.0
 40
18.0
 40
18.0
 40
19.0
 40
19.0
 40
19.0
 40
20.0
 40
20.0
 40
20.0
 40
21.0
 40
21.0
 40
21.0
 40
22.0
 40
22.0
 40
22.0
 40
23.0
 40
23.0
 40
23.0
 40
24.0
 40
24.0
 40
24.0
 40
25.0
 40
25.0
 40
25.0
 40
26.0
 40
26.0
 40
26.0
 40
27.0
 40
27.0
 40
27.0
 40
28.0
 40
28.0
 40
28.0
 40
29.0
 40
29.0
 40
29.0
 40
30.0
 40
30.0
 40
30.0
 40
31.0
 40
31.0
 40
31.0
 40
32.0
 40
32.0
 40
32.0
 40
33.0
 40
33.0
 40
33.0
 40
34.0
 40
34.0
 40
34.0
 40
35.0
 40
35.0
 40
35.0
 40
36.0
 40
36.0
 40
36.0
 40
37.0
 40
37.0
 40
37.0
 40
38.0
 40
38.0
 40
38.0
 40
39.0
 40
39.0
 40
39.0
 40
40.0
 40
40.0
 40
40.0
 40
41.0
 40
41.0
 40
41.0
 40
42.0
 40
42.0
 40
42.0
 40
43.0
 40
43.0
 40
43.0
 40
44.0
 40
44.0
 40
44.0
 40
45.0
 40
45.0
 40
45.0
 40
46.0
 40
46.0
 40
46.0
 40
47.0
 40
47.0
 40
47.0
 40
48.0
 40
48.0
 40
48.0
 40
49.0
 40
49.0
 40
49.0
 40
50.0
 40
50.0
 40
50.0
 40
51.0
 40
51.0
 40
51.0
 40
52.0
 40
52.0
 40
52.0
 40
53.0
 40
53.0
 40
53.0
 40
54.0
 40
54.0
 40
54.0
 40
55.0
 40
55.0
 40
55.0
 40
56.0
 40
56.0
 40
56.0
 40
57.0
 40
57.0
 40
57.0
 40
58.0
 40
58.0
 40
58.0
 40
59.0
 40
59.0
 40
59.0
 40
60.0
 40
60.0
 40
60.0
 40
61.0
 40
61.0
 40
61.0
 40
62.0
 40
62.0
 40
62.0
 40
63.0
 40
63.0
 40
63.0
 40
64.0
 40
64.0
 40
64.0
 40
65.0
 40
65.0
 40
65.0
 40
66.0
 40
66.0
 40
66.0
 40
67.0
 40
67.0
 40
67.0
 40
68.0
 40
68.0
 40
68.0
 40
69.0
 40
69.0
 40
69.0
 40
70.0
 40
70.0
 40
70.0
 40
71.0
 40
71.0
 40
71.0
 40
72.0
 40
72.0
 40
72.0
 40
73.0
 40
73.0
 40
73.0
 40
74.0
 40
74.0
 40
74.0
 40
75.0
 40
75.0
 40
75.0
 40
76.0
 40
76.0
 40
76.0
 40
77.0
 40
77.0
 40
77.0
 40
78.0
 40
78.0
 40
78.0
 40
79.0
 40
79.0
 40
79.0
 40
79.0
 10
105.5477348911478
 20
-144.3407158384808
 30
0.0
 10
105.5477348911478
 20
-144.3407158384808
 30
0.0
 10
105.3258707418977
 20
-144.3407158384808
 30
0.0
 10
105.3258707418977
 20
-144.3407158384808
 30
0.0
 10
105.3258707418977
 20
-144.3407158384808
 30
0.0
 10
105.0829915101876
 20
-144.3407158384808
 30
0.0
 10
105.0829915101876
 20
-144.3407158384808
 30
0.0
 10
105.0829915101876
 20
-144.3407158384808
 30
0.0
 10
105.1942680943611
 20
-144.3830905129494
 30
0.0
 10
105.1942680943611
 20
-144.3830905129494
 30
0.0
 10
105.2035698521713
 20
-144.3873968823059
 30
0.0
 10
105.2145941577241
 20
-144.3935980541794
 30
0.0
 10
105.2145941577241
 20
-144.4063449074748
 30
0.0
 10
105.2145941577241
 20
-144.4275322447091
 30
0.0
 10
105.1866888842936
 20
-144.4339056713568
 30
0.0
 10
105.1684298782218
 20
-144.4380397859391
 30
0.0
 10
105.1591281204116
 20
-144.4612941804645
 30
0.0
 10
105.1329453947237
 20
-144.5269232494585
 30
0.0
 10
105.1164089363945
 20
-144.5713649812183
 30
0.0
 10
105.1164089363945
 20
-144.5713649812183
 30
0.0
 10
105.3534315057797
 20
-144.5713649812183
 30
0.0
 10
105.3534315057797
 20
-144.5713649812183
 30
0.0
 10
105.4330132114889
 20
-144.5713649812183
 30
0.0
 10
105.6052679857514
 20
-144.5670586118617
 30
0.0
 10
105.7292914232204
 20
-144.5586181279228
 30
0.0
 10
105.7292914232204
 20
-144.5586181279228
 30
0.0
 10
105.7292914232204
 20
-144.7363850549617
 30
0.0
 10
105.7292914232204
 20
-144.7363850549617
 30
0.0
 10
105.6572889275787
 20
-144.7320786856051
 30
0.0
 10
105.6386854119584
 20
-144.7320786856051
 30
0.0
 10
105.4812445482824
 20
-144.7279445710228
 30
0.0
 10
105.4533392748519
 20
-144.8822848487621
 30
0.0
 10
105.4147542054171
 20
-144.9627278283426
 30
0.0
 10
105.3758246264338
 20
-145.0324910119189
 30
0.0
 10
105.4812445482824
 20
-145.0917466542652
 30
0.0
 10
105.5739176168356
 20
-145.1594427805504
 30
0.0
 10
105.6645236280977
 20
-145.2419528174221
 30
0.0
 10
105.6645236280977
 20
-145.2419528174221
 30
0.0
 10
105.5608262539917
 20
-145.4090399484567
 30
0.0
 10
105.5608262539917
 20
-145.4090399484567
 30
0.0
 10
105.5405001906287
 20
-145.3900919232879
 30
0.0
 10
105.5294758850759
 20
-145.381651439349
 30
0.0
 10
105.4312906637463
 20
-145.2969020904119
 30
0.0
 10
105.3885714797292
 20
-145.2588337852999
 30
0.0
 10
105.3368950474505
 20
-145.2230047922532
 30
0.0
 10
105.2666150995514
 20
-145.1785630604935
 30
0.0
 10
105.0812689624449
 20
-145.3647704714713
 30
0.0
 10
104.9017794876634
 20
-145.3880248659967
 30
0.0
 10
104.6478759504005
 20
-145.4176526871699
 30
0.0
 10
104.6478759504005
 20
-145.4176526871699
 30
0.0
 10
104.5572699391384
 20
-145.2378187028398
 30
0.0
 10
104.5572699391384
 20
-145.2378187028398
 30
0.0
 10
104.8349446352496
 20
-145.2335123334833
 30
0.0
 10
104.9885958938917
 20
-145.2081908816667
 30
0.0
 10
105.1219210891709
 20
-145.0981200809129
 30
0.0
 10
105.0182237150649
 20
-145.0473049225055
 30
0.0
 10
104.9407090666468
 20
-145.0199164133978
 30
0.0
 10
104.9090141881824
 20
-145.0071695601024
 30
0.0
 10
104.8924777298532
 20
-145.0347303239843
 30
0.0
 10
104.8793863670093
 20
-145.0536783491532
 30
0.0
 10
104.8552706986126
 20
-145.0876125396829
 30
0.0
 10
104.8552706986126
 20
-145.0876125396829
 30
0.0
 10
104.6830159243501
 20
-145.0051025028112
 30
0.0
 10
104.6830159243501
 20
-145.0051025028112
 30
0.0
 10
104.7553629295403
 20
-144.9246595232306
 30
0.0
 10
104.8091064191102
 20
-144.8294026330635
 30
0.0
 10
104.8590603036463
 20
-144.7279445710228
 30
0.0
 10
104.6923176821602
 20
-144.7320786856051
 30
0.0
 10
104.6740586760884
 20
-144.7320786856051
 30
0.0
 10
104.6017116708982
 20
-144.7363850549617
 30
0.0
 10
104.6017116708982
 20
-144.7363850549617
 30
0.0
 10
104.6017116708982
 20
-144.5586181279228
 30
0.0
 10
104.6017116708982
 20
-144.5586181279228
 30
0.0
 10
104.7240125606245
 20
-144.5649915545705
 30
0.0
 10
104.9072916404398
 20
-144.5692979239271
 30
0.0
 10
104.9293402515454
 20
-144.5692979239271
 30
0.0
 10
104.944154162132
 20
-144.5353637333974
 30
0.0
 10
104.9923854989255
 20
-144.4147853914136
 30
0.0
 10
105.0089219572547
 20
-144.3407158384808
 30
0.0
 10
104.9923854989255
 20
-144.3407158384808
 30
0.0
 10
104.8366671829922
 20
-144.3470892651285
 30
0.0
 10
104.6664794660209
 20
-144.3598361184239
 30
0.0
 10
104.6664794660209
 20
-144.3598361184239
 30
0.0
 10
104.6664794660209
 20
-144.4931613137031
 30
0.0
 10
104.6664794660209
 20
-144.4931613137031
 30
0.0
 10
104.6237602820038
 20
-144.5184827655197
 30
0.0
 10
104.572083849725
 20
-144.550177643984
 30
0.0
 10
104.455295112775
 20
-144.615806712978
 30
0.0
 10
104.455295112775
 20
-144.615806712978
 30
0.0
 10
104.455295112775
 20
-144.7617065067783
 30
0.0
 10
104.455295112775
 20
-144.7617065067783
 30
0.0
 10
104.455295112775
 20
-144.7617065067783
 30
0.0
 10
104.455295112775
 20
-145.229378218901
 30
0.0
 10
104.455295112775
 20
-145.229378218901
 30
0.0
 10
104.455295112775
 20
-145.3561577327582
 30
0.0
 10
104.4239447438593
 20
-145.4154133751045
 30
0.0
 10
104.1758978689213
 20
-145.4069728911656
 30
0.0
 10
104.1758978689213
 20
-145.4069728911656
 30
0.0
 10
104.0849473481107
 20
-145.1997503977278
 30
0.0
 10
104.0849473481107
 20
-145.1997503977278
 30
0.0
 10
104.1407578949717
 20
-145.212324996249
 30
0.0
 10
104.1831325694403
 20
-145.2166313656055
 30
0.0
 10
104.2182725433899
 20
-145.2166313656055
 30
0.0
 10
104.2851073958037
 20
-145.2166313656055
 30
0.0
 10
104.2944091536139
 20
-145.1933769710801
 30
0.0
 10
104.2944091536139
 20
-145.1277479020861
 30
0.0
 10
104.2944091536139
 20
-145.1277479020861
 30
0.0
 10
104.2944091536139
 20
-144.6983167498497
 30
0.0
 10
104.2944091536139
 20
-144.6983167498497
 30
0.0
 10
104.2089707855797
 20
-144.7384521122529
 30
0.0
 10
104.1941568749931
 20
-144.7448255389006
 30
0.0
 10
104.1535047482672
 20
-144.7639458188437
 30
0.0
 10
104.1497151432334
 20
-144.7849609013037
 30
0.0
 10
104.1462700477481
 20
-144.8145887224769
 30
0.0
 10
104.1293890798704
 20
-144.8145887224769
 30
0.0
 10
104.1221543793514
 20
-144.8145887224769
 30
0.0
 10
104.1128526215412
 20
-144.8104546078946
 30
0.0
 10
104.1073404687648
 20
-144.7872002133691
 30
0.0
 10
104.1073404687648
 20
-144.7872002133691
 30
0.0
 10
104.0608316797139
 20
-144.5946193757437
 30
0.0
 10
104.0608316797139
 20
-144.5946193757437
 30
0.0
 10
104.1886447222167
 20
-144.5481105866928
 30
0.0
 10
104.2461778168204
 20
-144.5248561921674
 30
0.0
 10
104.2944091536139
 20
-144.5036688549331
 30
0.0
 10
104.2944091536139
 20
-144.5036688549331
 30
0.0
 10
104.2944091536139
 20
-144.0911186705744
 30
0.0
 10
104.2944091536139
 20
-144.0911186705744
 30
0.0
 10
104.2944091536139
 20
-144.0911186705744
 30
0.0
 10
104.247900364563
 20
-144.0911186705744
 30
0.0
 10
104.247900364563
 20
-144.0911186705744
 30
0.0
 10
104.247900364563
 20
-144.0911186705744
 30
0.0
 10
104.1793429644065
 20
-144.0911186705744
 30
0.0
 10
104.1793429644065
 20
-144.0911186705744
 30
0.0
 10
104.1200873220602
 20
-144.0911186705744
 30
0.0
 10
104.1128526215412
 20
-144.0911186705744
 30
0.0
 10
104.0815022526254
 20
-144.0974920972221
 30
0.0
 10
104.0815022526254
 20
-144.0974920972221
 30
0.0
 10
104.0815022526254
 20
-143.9028442023055
 30
0.0
 10
104.0815022526254
 20
-143.9028442023055
 30
0.0
 10
104.1052734114737
 20
-143.9092176289532
 30
0.0
 10
104.1128526215412
 20
-143.9092176289532
 30
0.0
 10
104.1738308116301
 20
-143.9092176289532
 30
0.0
 10
104.1738308116301
 20
-143.9092176289532
 30
0.0
 10
104.2906195485801
 20
-143.9092176289532
 30
0.0
 10
104.2906195485801
 20
-143.9092176289532
 30
0.0
 10
104.2906195485801
 20
-143.8394544453769
 30
0.0
 10
104.2906195485801
 20
-143.7569444085052
 30
0.0
 10
104.2888970008375
 20
-143.7526380391486
 30
0.0
 10
104.2813177907699
 20
-143.5728040548186
 30
0.0
 10
104.2813177907699
 20
-143.5538560296497
 30
0.0
 10
104.2795952430273
 20
-143.5073472405989
 30
0.0
 10
104.2795952430273
 20
-143.5073472405989
 30
0.0
 10
104.468386475619
 20
-143.5157877245377
 30
0.0
 10
104.468386475619
 20
-143.5157877245377
 30
0.0
 10
104.4776882334292
 20
-143.5157877245377
 30
0.0
 10
104.4962917490495
 20
-143.5178547818289
 30
0.0
 10
104.4962917490495
 20
-143.5347357497066
 30
0.0
 10
104.4962917490495
 20
-143.5538560296497
 30
0.0
 10
104.4832003862056
 20
-143.5643635708797
 30
0.0
 10
104.4608072655514
 20
-143.5834838508229
 30
0.0
 10
104.4608072655514
 20
-143.634126754456
 30
0.0
 10
104.455295112775
 20
-143.8627088399023
 30
0.0
 10
104.4573621700662
 20
-143.9092176289532
 30
0.0
 10
104.5700167924339
 20
-143.9092176289532
 30
0.0
 10
104.5813856075352
 20
-143.9092176289532
 30
0.0
 10
104.6664794660209
 20
-143.9007771450144
 30
0.0
 10
104.6664794660209
 20
-143.9007771450144
 30
0.0
 10
104.6664794660209
 20
-144.095425039931
 30
0.0
 10
104.6664794660209
 20
-144.095425039931
 30
0.0
 10
104.6330620398139
 20
-144.0931857278656
 30
0.0
 10
104.5738063974676
 20
-144.0890516132833
 30
0.0
 10
104.455295112775
 20
-144.0911186705744
 30
0.0
 10
104.455295112775
 20
-144.0911186705744
 30
0.0
 10
104.455295112775
 20
-144.4295993020002
 30
0.0
 10
104.455295112775
 20
-144.4295993020002
 30
0.0
 10
104.5035264495685
 20
-144.4063449074748
 30
0.0
 10
104.5610595441722
 20
-144.3787841435928
 30
0.0
 10
104.6034342186408
 20
-144.3555297490673
 30
0.0
 10
104.6034342186408
 20
-144.3555297490673
 30
0.0
 10
104.6034342186408
 20
-144.1779350768027
 30
0.0
 10
104.6034342186408
 20
-144.1779350768027
 30
0.0
 10
104.7036864972616
 20
-144.1905096753239
 30
0.0
 10
104.807039361819
 20
-144.1905096753239
 30
0.0
 10
104.9090141881824
 20
-144.1905096753239
 30
0.0
 10
104.8886881248195
 20
-144.095425039931
 30
0.0
 10
104.8645724564227
 20
-144.0129150030593
 30
0.0
 10
104.8091064191102
 20
-143.8795898077801
 30
0.0
 10
104.7701768401269
 20
-143.8816568650712
 30
0.0
 10
104.6978298349366
 20
-143.8859632344278
 30
0.0
 10
104.6647569182782
 20
-143.8880302917189
 30
0.0
 10
104.6647569182782
 20
-143.8880302917189
 30
0.0
 10
104.6647569182782
 20
-143.7081963073889
 30
0.0
 10
104.6647569182782
 20
-143.7081963073889
 30
0.0
 10
104.7739664451607
 20
-143.7166367913278
 30
0.0
 10
104.9255506465117
 20
-143.7209431606843
 30
0.0
 10
104.9978976517019
 20
-143.7209431606843
 30
0.0
 10
104.9978976517019
 20
-143.7209431606843
 30
0.0
 10
105.0702446568921
 20
-143.7209431606843
 30
0.0
 10
105.0702446568921
 20
-143.7209431606843
 30
0.0
 10
105.0702446568921
 20
-143.557990144232
 30
0.0
 10
105.0702446568921
 20
-143.547482603002
 30
0.0
 10
105.068177599601
 20
-143.4925333300123
 30
0.0
 10
105.068177599601
 20
-143.4925333300123
 30
0.0
 10
105.2645480422602
 20
-143.5178547818289
 30
0.0
 10
105.2645480422602
 20
-143.5178547818289
 30
0.0
 10
105.268337647294
 20
-143.5178547818289
 30
0.0
 10
105.2869411629143
 20
-143.51992183912
 30
0.0
 10
105.2869411629143
 20
-143.5368028069977
 30
0.0
 10
105.2869411629143
 20
-143.5516167175843
 30
0.0
 10
105.2776394051042
 20
-143.5602294562974
 30
0.0
 10
105.2535237367074
 20
-143.575043366884
 30
0.0
 10
105.248011583931
 20
-143.6405001811037
 30
0.0
 10
105.2459445266399
 20
-143.661687518338
 30
0.0
 10
105.2459445266399
 20
-143.7209431606843
 30
0.0
 10
105.2459445266399
 20
-143.7209431606843
 30
0.0
 10
105.3293158373829
 20
-143.7209431606843
 30
0.0
 10
105.3293158373829
 20
-143.7209431606843
 30
0.0
 10
105.4016628425732
 20
-143.7209431606843
 30
0.0
 10
105.5535915534727
 20
-143.7166367913278
 30
0.0
 10
105.6628010803551
 20
-143.7081963073889
 30
0.0
 10
105.6628010803551
 20
-143.7081963073889
 30
0.0
 10
105.6628010803551
 20
-143.8880302917189
 30
0.0
 10
105.6628010803551
 20
-143.8880302917189
 30
0.0
 10
105.6366183546672
 20
-143.8859632344278
 30
0.0
 10
105.5332654901097
 20
-143.8816568650712
 30
0.0
 10
105.4977810066116
 20
-143.8795898077801
 30
0.0
 10
105.4850341533162
 20
-143.9304049661875
 30
0.0
 10
105.4554063321431
 20
-144.0425428242324
 30
0.0
 10
105.3978732375394
 20
-144.182069191385
 30
0.0
 10
105.4350802687801
 20
-144.182069191385
 30
0.0
 10
105.6776149909417
 20
-144.1631211662161
 30
0.0
 10
105.7313584805116
 20
-144.1608818541507
 30
0.0
 10
105.7313584805116
 20
-144.1608818541507
 30
0.0
 10
105.7313584805116
 20
-144.3450222078373
 30
0.0
 10
105.7313584805116
 20
-144.3450222078373
 30
0.0
 10
105.7051757548237
 20
-144.3450222078373
 30
0.0
 10
105.6903618442371
 20
-144.3407158384808
 30
0.0
 10
105.5477348911478
 20
-144.3407158384808
 30
0.0
  0
HATCH
  5
C2
330
BB
100
AcDbEntity
  8
レイヤー 1
 62
   250
420
  2299925
440
 33554687
100
AcDbHatch
 10
0.0
 20
0.0
 30
0.0
210
0.0
220
0.0
230
1.0
  2
SOLID
 70
     1
 71
     1
 91
        3
 92
        1
 93
        1
 72
     4
 94
        3
 73
     0
 74
     0
 95
       17
 96
       13
 40
0.0
 40
0.0
 40
0.0
 40
0.0
 40
1.0
 40
1.0
 40
1.0
 40
2.0
 40
2.0
 40
2.0
 40
3.0
 40
3.0
 40
3.0
 40
4.0
 40
4.0
 40
4.0
 40
4.0
 10
105.0533636890144
 20
-144.7258775137317
 10
105.0385497784278
 20
-144.7553330801306
 10
104.9941080466681
 20
-144.8485229130066
 10
104.984806288858
 20
-144.8674709381755
 10
105.151548910344
 20
-144.9267265805218
 10
105.1701524259644
 20
-144.9331000071695
 10
105.2331976733444
 20
-144.9606607710515
 10
105.2810845005894
 20
-144.8738443648232
 10
105.3017550735009
 20
-144.7997748118903
 10
105.3145019267964
 20
-144.7258775137317
 10
105.3145019267964
 20
-144.7258775137317
 10
105.0533636890144
 20
-144.7258775137317
 10
105.0533636890144
 20
-144.7258775137317
 97
        0
 97
        1
330
BF
 92
        1
 93
        1
 72
     4
 94
        3
 73
     0
 74
     0
 95
       20
 96
       16
 40
0.0
 40
0.0
 40
0.0
 40
0.0
 40
1.0
 40
1.0
 40
1.0
 40
2.0
 40
2.0
 40
2.0
 40
3.0
 40
3.0
 40
3.0
 40
4.0
 40
4.0
 40
4.0
 40
5.0
 40
5.0
 40
5.0
 40
5.0
 10
104.9978976517019
 20
-143.8754556931978
 10
104.9978976517019
 20
-143.8754556931978
 10
104.9703368878199
 20
-143.8754556931978
 10
104.9703368878199
 20
-143.8754556931978
 10
105.0109890145458
 20
-143.9748466979472
 10
105.0385497784278
 20
-144.0551174227536
 10
105.068177599601
 20
-144.182069191385
 10
105.068177599601
 20
-144.182069191385
 10
105.2497341316737
 20
-144.182069191385
 10
105.2497341316737
 20
-144.182069191385
 10
105.2776394051042
 20
-144.0890516132833
 10
105.2979654684672
 20
-144.0044745191204
 10
105.3182915318301
 20
-143.8754556931978
 10
105.3182915318301
 20
-143.8754556931978
 10
104.9978976517019
 20
-143.8754556931978
 10
104.9978976517019
 20
-143.8754556931978
 97
        0
 97
        1
330
C0
 92
        1
 93
        1
 72
     4
 94
        3
 73
     0
 74
     0
 95
      242
 96
      238
 40
0.0
 40
0.0
 40
0.0
 40
0.0
 40
1.0
 40
1.0
 40
1.0
 40
2.0
 40
2.0
 40
2.0
 40
3.0
 40
3.0
 40
3.0
 40
4.0
 40
4.0
 40
4.0
 40
5.0
 40
5.0
 40
5.0
 40
6.0
 40
6.0
 40
6.0
 40
7.0
 40
7.0
 40
7.0
 40
8.0
 40
8.0
 40
8.0
 40
9.0
 40
9.0
 40
9.0
 40
10.0
 40
10.0
 40
10.0
 40
11.0
 40
11.0
 40
11.0
 40
12.0
 40
12.0
 40
12.0
 40
13.0
 40
13.0
 40
13.0
 40
14.0
 40
14.0
 40
14.0
 40
15.0
 40
15.0
 40
15.0
 40
16.0
 40
16.0
 40
16.0
 40
17.0
 40
17.0
 40
17.0
 40
18.0
 40
18.0
 40
18.0
 40
19.0
 40
19.0
 40
19.0
 40
20.0
 40
20.0
 40
20.0
 40
21.0
 40
21.0
 40
21.0
 40
22.0
 40
22.0
 40
22.0
 40
23.0
 40
23.0
 40
23.0
 40
24.0
 40
24.0
 40
24.0
 40
25.0
 40
25.0
 40
25.0
 40
26.0
 40
26.0
 40
26.0
 40
27.0
 40
27.0
 40
27.0
 40
28.0
 40
28.0
 40
28.0
 40
29.0
 40
29.0
 40
29.0
 40
30.0
 40
30.0
 40
30.0
 40
31.0
 40
31.0
 40
31.0
 40
32.0
 40
32.0
 40
32.0
 40
33.0
 40
33.0
 40
33.0
 40
34.0
 40
34.0
 40
34.0
 40
35.0
 40
35.0
 40
35.0
 40
36.0
 40
36.0
 40
36.0
 40
37.0
 40
37.0
 40
37.0
 40
38.0
 40
38.0
 40
38.0
 40
39.0
 40
39.0
 40
39.0
 40
40.0
 40
40.0
 40
40.0
 40
41.0
 40
41.0
 40
41.0
 40
42.0
 40
42.0
 40
42.0
 40
43.0
 40
43.0
 40
43.0
 40
44.0
 40
44.0
 40
44.0
 40
45.0
 40
45.0
 40
45.0
 40
46.0
 40
46.0
 40
46.0
 40
47.0
 40
47.0
 40
47.0
 40
48.0
 40
48.0
 40
48.0
 40
49.0
 40
49.0
 40
49.0
 40
50.0
 40
50.0
 40
50.0
 40
51.0
 40
51.0
 40
51.0
 40
52.0
 40
52.0
 40
52.0
 40
53.0
 40
53.0
 40
53.0
 40
54.0
 40
54.0
 40
54.0
 40
55.0
 40
55.0
 40
55.0
 40
56.0
 40
56.0
 40
56.0
 40
57.0
 40
57.0
 40
57.0
 40
58.0
 40
58.0
 40
58.0
 40
59.0
 40
59.0
 40
59.0
 40
60.0
 40
60.0
 40
60.0
 40
61.0
 40
61.0
 40
61.0
 40
62.0
 40
62.0
 40
62.0
 40
63.0
 40
63.0
 40
63.0
 40
64.0
 40
64.0
 40
64.0
 40
65.0
 40
65.0
 40
65.0
 40
66.0
 40
66.0
 40
66.0
 40
67.0
 40
67.0
 40
67.0
 40
68.0
 40
68.0
 40
68.0
 40
69.0
 40
69.0
 40
69.0
 40
70.0
 40
70.0
 40
70.0
 40
71.0
 40
71.0
 40
71.0
 40
72.0
 40
72.0
 40
72.0
 40
73.0
 40
73.0
 40
73.0
 40
74.0
 40
74.0
 40
74.0
 40
75.0
 40
75.0
 40
75.0
 40
76.0
 40
76.0
 40
76.0
 40
77.0
 40
77.0
 40
77.0
 40
78.0
 40
78.0
 40
78.0
 40
79.0
 40
79.0
 40
79.0
 40
79.0
 10
105.5477348911478
 20
-144.3407158384808
 10
105.5477348911478
 20
-144.3407158384808
 10
105.3258707418977
 20
-144.3407158384808
 10
105.3258707418977
 20
-144.3407158384808
 10
105.3258707418977
 20
-144.3407158384808
 10
105.0829915101876
 20
-144.3407158384808
 10
105.0829915101876
 20
-144.3407158384808
 10
105.0829915101876
 20
-144.3407158384808
 10
105.1942680943611
 20
-144.3830905129494
 10
105.1942680943611
 20
-144.3830905129494
 10
105.2035698521713
 20
-144.3873968823059
 10
105.2145941577241
 20
-144.3935980541794
 10
105.2145941577241
 20
-144.4063449074748
 10
105.2145941577241
 20
-144.4275322447091
 10
105.1866888842936
 20
-144.4339056713568
 10
105.1684298782218
 20
-144.4380397859391
 10
105.1591281204116
 20
-144.4612941804645
 10
105.1329453947237
 20
-144.5269232494585
 10
105.1164089363945
 20
-144.5713649812183
 10
105.1164089363945
 20
-144.5713649812183
 10
105.3534315057797
 20
-144.5713649812183
 10
105.3534315057797
 20
-144.5713649812183
 10
105.4330132114889
 20
-144.5713649812183
 10
105.6052679857514
 20
-144.5670586118617
 10
105.7292914232204
 20
-144.5586181279228
 10
105.7292914232204
 20
-144.5586181279228
 10
105.7292914232204
 20
-144.7363850549617
 10
105.7292914232204
 20
-144.7363850549617
 10
105.6572889275787
 20
-144.7320786856051
 10
105.6386854119584
 20
-144.7320786856051
 10
105.4812445482824
 20
-144.7279445710228
 10
105.4533392748519
 20
-144.8822848487621
 10
105.4147542054171
 20
-144.9627278283426
 10
105.3758246264338
 20
-145.0324910119189
 10
105.4812445482824
 20
-145.0917466542652
 10
105.5739176168356
 20
-145.1594427805504
 10
105.6645236280977
 20
-145.2419528174221
 10
105.6645236280977
 20
-145.2419528174221
 10
105.5608262539917
 20
-145.4090399484567
 10
105.5608262539917
 20
-145.4090399484567
 10
105.5405001906287
 20
-145.3900919232879
 10
105.5294758850759
 20
-145.381651439349
 10
105.4312906637463
 20
-145.2969020904119
 10
105.3885714797292
 20
-145.2588337852999
 10
105.3368950474505
 20
-145.2230047922532
 10
105.2666150995514
 20
-145.1785630604935
 10
105.0812689624449
 20
-145.3647704714713
 10
104.9017794876634
 20
-145.3880248659967
 10
104.6478759504005
 20
-145.4176526871699
 10
104.6478759504005
 20
-145.4176526871699
 10
104.5572699391384
 20
-145.2378187028398
 10
104.5572699391384
 20
-145.2378187028398
 10
104.8349446352496
 20
-145.2335123334833
 10
104.9885958938917
 20
-145.2081908816667
 10
105.1219210891709
 20
-145.0981200809129
 10
105.0182237150649
 20
-145.0473049225055
 10
104.9407090666468
 20
-145.0199164133978
 10
104.9090141881824
 20
-145.0071695601024
 10
104.8924777298532
 20
-145.0347303239843
 10
104.8793863670093
 20
-145.0536783491532
 10
104.8552706986126
 20
-145.0876125396829
 10
104.8552706986126
 20
-145.0876125396829
 10
104.6830159243501
 20
-145.0051025028112
 10
104.6830159243501
 20
-145.0051025028112
 10
104.7553629295403
 20
-144.9246595232306
 10
104.8091064191102
 20
-144.8294026330635
 10
104.8590603036463
 20
-144.7279445710228
 10
104.6923176821602
 20
-144.7320786856051
 10
104.6740586760884
 20
-144.7320786856051
 10
104.6017116708982
 20
-144.7363850549617
 10
104.6017116708982
 20
-144.7363850549617
 10
104.6017116708982
 20
-144.5586181279228
 10
104.6017116708982
 20
-144.5586181279228
 10
104.7240125606245
 20
-144.5649915545705
 10
104.9072916404398
 20
-144.5692979239271
 10
104.9293402515454
 20
-144.5692979239271
 10
104.944154162132
 20
-144.5353637333974
 10
104.9923854989255
 20
-144.4147853914136
 10
105.0089219572547
 20
-144.3407158384808
 10
104.9923854989255
 20
-144.3407158384808
 10
104.8366671829922
 20
-144.3470892651285
 10
104.6664794660209
 20
-144.3598361184239
 10
104.6664794660209
 20
-144.3598361184239
 10
104.6664794660209
 20
-144.4931613137031
 10
104.6664794660209
 20
-144.4931613137031
 10
104.6237602820038
 20
-144.5184827655197
 10
104.572083849725
 20
-144.550177643984
 10
104.455295112775
 20
-144.615806712978
 10
104.455295112775
 20
-144.615806712978
 10
104.455295112775
 20
-144.7617065067783
 10
104.455295112775
 20
-144.7617065067783
 10
104.455295112775
 20
-144.7617065067783
 10
104.455295112775
 20
-145.229378218901
 10
104.455295112775
 20
-145.229378218901
 10
104.455295112775
 20
-145.3561577327582
 10
104.4239447438593
 20
-145.4154133751045
 10
104.1758978689213
 20
-145.4069728911656
 10
104.1758978689213
 20
-145.4069728911656
 10
104.0849473481107
 20
-145.1997503977278
 10
104.0849473481107
 20
-145.1997503977278
 10
104.1407578949717
 20
-145.212324996249
 10
104.1831325694403
 20
-145.2166313656055
 10
104.2182725433899
 20
-145.2166313656055
 10
104.2851073958037
 20
-145.2166313656055
 10
104.2944091536139
 20
-145.1933769710801
 10
104.2944091536139
 20
-145.1277479020861
 10
104.2944091536139
 20
-145.1277479020861
 10
104.2944091536139
 20
-144.6983167498497
 10
104.2944091536139
 20
-144.6983167498497
 10
104.2089707855797
 20
-144.7384521122529
 10
104.1941568749931
 20
-144.7448255389006
 10
104.1535047482672
 20
-144.7639458188437
 10
104.1497151432334
 20
-144.7849609013037
 10
104.1462700477481
 20
-144.8145887224769
 10
104.1293890798704
 20
-144.8145887224769
 10
104.1221543793514
 20
-144.8145887224769
 10
104.1128526215412
 20
-144.8104546078946
 10
104.1073404687648
 20
-144.7872002133691
 10
104.1073404687648
 20
-144.7872002133691
 10
104.0608316797139
 20
-144.5946193757437
 10
104.0608316797139
 20
-144.5946193757437
 10
104.1886447222167
 20
-144.5481105866928
 10
104.2461778168204
 20
-144.5248561921674
 10
104.2944091536139
 20
-144.5036688549331
 10
104.2944091536139
 20
-144.5036688549331
 10
104.2944091536139
 20
-144.0911186705744
 10
104.2944091536139
 20
-144.0911186705744
 10
104.2944091536139
 20
-144.0911186705744
 10
104.247900364563
 20
-144.0911186705744
 10
104.247900364563
 20
-144.0911186705744
 10
104.247900364563
 20
-144.0911186705744
 10
104.1793429644065
 20
-144.0911186705744
 10
104.1793429644065
 20
-144.0911186705744
 10
104.1200873220602
 20
-144.0911186705744
 10
104.1128526215412
 20
-144.0911186705744
 10
104.0815022526254
 20
-144.0974920972221
 10
104.0815022526254
 20
-144.0974920972221
 10
104.0815022526254
 20
-143.9028442023055
 10
104.0815022526254
 20
-143.9028442023055
 10
104.1052734114737
 20
-143.9092176289532
 10
104.1128526215412
 20
-143.9092176289532
 10
104.1738308116301
 20
-143.9092176289532
 10
104.1738308116301
 20
-143.9092176289532
 10
104.2906195485801
 20
-143.9092176289532
 10
104.2906195485801
 20
-143.9092176289532
 10
104.2906195485801
 20
-143.8394544453769
 10
104.2906195485801
 20
-143.7569444085052
 10
104.2888970008375
 20
-143.7526380391486
 10
104.2813177907699
 20
-143.5728040548186
 10
104.2813177907699
 20
-143.5538560296497
 10
104.2795952430273
 20
-143.5073472405989
 10
104.2795952430273
 20
-143.5073472405989
 10
104.468386475619
 20
-143.5157877245377
 10
104.468386475619
 20
-143.5157877245377
 10
104.4776882334292
 20
-143.5157877245377
 10
104.4962917490495
 20
-143.5178547818289
 10
104.4962917490495
 20
-143.5347357497066
 10
104.4962917490495
 20
-143.5538560296497
 10
104.4832003862056
 20
-143.5643635708797
 10
104.4608072655514
 20
-143.5834838508229
 10
104.4608072655514
 20
-143.634126754456
 10
104.455295112775
 20
-143.8627088399023
 10
104.4573621700662
 20
-143.9092176289532
 10
104.5700167924339
 20
-143.9092176289532
 10
104.5813856075352
 20
-143.9092176289532
 10
104.6664794660209
 20
-143.9007771450144
 10
104.6664794660209
 20
-143.9007771450144
 10
104.6664794660209
 20
-144.095425039931
 10
104.6664794660209
 20
-144.095425039931
 10
104.6330620398139
 20
-144.0931857278656
 10
104.5738063974676
 20
-144.0890516132833
 10
104.455295112775
 20
-144.0911186705744
 10
104.455295112775
 20
-144.0911186705744
 10
104.455295112775
 20
-144.4295993020002
 10
104.455295112775
 20
-144.4295993020002
 10
104.5035264495685
 20
-144.4063449074748
 10
104.5610595441722
 20
-144.3787841435928
 10
104.6034342186408
 20
-144.3555297490673
 10
104.6034342186408
 20
-144.3555297490673
 10
104.6034342186408
 20
-144.1779350768027
 10
104.6034342186408
 20
-144.1779350768027
 10
104.7036864972616
 20
-144.1905096753239
 10
104.807039361819
 20
-144.1905096753239
 10
104.9090141881824
 20
-144.1905096753239
 10
104.8886881248195
 20
-144.095425039931
 10
104.8645724564227
 20
-144.0129150030593
 10
104.8091064191102
 20
-143.8795898077801
 10
104.7701768401269
 20
-143.8816568650712
 10
104.6978298349366
 20
-143.8859632344278
 10
104.6647569182782
 20
-143.8880302917189
 10
104.6647569182782
 20
-143.8880302917189
 10
104.6647569182782
 20
-143.7081963073889
 10
104.6647569182782
 20
-143.7081963073889
 10
104.7739664451607
 20
-143.7166367913278
 10
104.9255506465117
 20
-143.7209431606843
 10
104.9978976517019
 20
-143.7209431606843
 10
104.9978976517019
 20
-143.7209431606843
 10
105.0702446568921
 20
-143.7209431606843
 10
105.0702446568921
 20
-143.7209431606843
 10
105.0702446568921
 20
-143.557990144232
 10
105.0702446568921
 20
-143.547482603002
 10
105.068177599601
 20
-143.4925333300123
 10
105.068177599601
 20
-143.4925333300123
 10
105.2645480422602
 20
-143.5178547818289
 10
105.2645480422602
 20
-143.5178547818289
 10
105.268337647294
 20
-143.5178547818289
 10
105.2869411629143
 20
-143.51992183912
 10
105.2869411629143
 20
-143.5368028069977
 10
105.2869411629143
 20
-143.5516167175843
 10
105.2776394051042
 20
-143.5602294562974
 10
105.2535237367074
 20
-143.575043366884
 10
105.248011583931
 20
-143.6405001811037
 10
105.2459445266399
 20
-143.661687518338
 10
105.2459445266399
 20
-143.7209431606843
 10
105.2459445266399
 20
-143.7209431606843
 10
105.3293158373829
 20
-143.7209431606843
 10
105.3293158373829
 20
-143.7209431606843
 10
105.4016628425732
 20
-143.7209431606843
 10
105.5535915534727
 20
-143.7166367913278
 10
105.6628010803551
 20
-143.7081963073889
 10
105.6628010803551
 20
-143.7081963073889
 10
105.6628010803551
 20
-143.8880302917189
 10
105.6628010803551
 20
-143.8880302917189
 10
105.6366183546672
 20
-143.8859632344278
 10
105.5332654901097
 20
-143.8816568650712
 10
105.4977810066116
 20
-143.8795898077801
 10
105.4850341533162
 20
-143.9304049661875
 10
105.4554063321431
 20
-144.0425428242324
 10
105.3978732375394
 20
-144.182069191385
 10
105.4350802687801
 20
-144.182069191385
 10
105.6776149909417
 20
-144.1631211662161
 10
105.7313584805116
 20
-144.1608818541507
 10
105.7313584805116
 20
-144.1608818541507
 10
105.7313584805116
 20
-144.3450222078373
 10
105.7313584805116
 20
-144.3450222078373
 10
105.7051757548237
 20
-144.3450222078373
 10
105.6903618442371
 20
-144.3407158384808
 10
105.5477348911478
 20
-144.3407158384808
 97
        0
 97
        1
330
C1
 75
     2
 76
     1
 98
        1
 10
0.0
 20
0.0
450
        0
451
        0
460
0.0
461
0.0
452
        0
462
0.0
453
        0
470

  0
SPLINE
  5
C3
330
BB
100
AcDbEntity
  8
レイヤー 1
100
AcDbSpline
210
0.0
220
0.0
230
1.0
 70
    11
 71
     3
 72
    17
 73
    13
 74
     0
 42
0.0000000001
 43
0.0000000001
 40
0.0
 40
0.0
 40
0.0
 40
0.0
 40
1.0
 40
1.0
 40
1.0
 40
2.0
 40
2.0
 40
2.0
 40
3.0
 40
3.0
 40
3.0
 40
4.0
 40
4.0
 40
4.0
 40
4.0
 10
107.1741644697342
 20
-145.1404947553815
 30
0.0
 10
107.1741644697342
 20
-145.1404947553815
 30
0.0
 10
106.5557698301319
 20
-145.1404947553815
 30
0.0
 10
106.5557698301319
 20
-145.1404947553815
 30
0.0
 10
106.5557698301319
 20
-145.1404947553815
 30
0.0
 10
106.5557698301319
 20
-145.2546996707176
 30
0.0
 10
106.5557698301319
 20
-145.2546996707176
 30
0.0
 10
106.5557698301319
 20
-145.2546996707176
 30
0.0
 10
107.1741644697342
 20
-145.2546996707176
 30
0.0
 10
107.1741644697342
 20
-145.2546996707176
 30
0.0
 10
107.1741644697342
 20
-145.2546996707176
 30
0.0
 10
107.1741644697342
 20
-145.1404947553815
 30
0.0
 10
107.1741644697342
 20
-145.1404947553815
 30
0.0
  0
SPLINE
  5
C4
330
BB
100
AcDbEntity
  8
レイヤー 1
100
AcDbSpline
210
0.0
220
0.0
230
1.0
 70
    11
 71
     3
 72
    17
 73
    13
 74
     0
 42
0.0000000001
 43
0.0000000001
 40
0.0
 40
0.0
 40
0.0
 40
0.0
 40
1.0
 40
1.0
 40
1.0
 40
2.0
 40
2.0
 40
2.0
 40
3.0
 40
3.0
 40
3.0
 40
4.0
 40
4.0
 40
4.0
 40
4.0
 10
107.1741644697342
 20
-144.8970987593486
 30
0.0
 10
107.1741644697342
 20
-144.8970987593486
 30
0.0
 10
106.5557698301319
 20
-144.8970987593486
 30
0.0
 10
106.5557698301319
 20
-144.8970987593486
 30
0.0
 10
106.5557698301319
 20
-144.8970987593486
 30
0.0
 10
106.5557698301319
 20
-145.0114759294589
 30
0.0
 10
106.5557698301319
 20
-145.0114759294589
 30
0.0
 10
106.5557698301319
 20
-145.0114759294589
 30
0.0
 10
107.1741644697342
 20
-145.0114759294589
 30
0.0
 10
107.1741644697342
 20
-145.0114759294589
 30
0.0
 10
107.1741644697342
 20
-145.0114759294589
 30
0.0
 10
107.1741644697342
 20
-144.8970987593486
 30
0.0
 10
107.1741644697342
 20
-144.8970987593486
 30
0.0
  0
SPLINE
  5
C5
330
BB
100
AcDbEntity
  8
レイヤー 1
100
AcDbSpline
210
0.0
220
0.0
230
1.0
 70
    11
 71
     3
 72
    17
 73
    13
 74
     0
 42
0.0000000001
 43
0.0000000001
 40
0.0
 40
0.0
 40
0.0
 40
0.0
 40
1.0
 40
1.0
 40
1.0
 40
2.0
 40
2.0
 40
2.0
 40
3.0
 40
3.0
 40
3.0
 40
4.0
 40
4.0
 40
4.0
 40
4.0
 10
107.1741644697342
 20
-144.66438255932
 30
0.0
 10
107.1741644697342
 20
-144.66438255932
 30
0.0
 10
106.5557698301319
 20
-144.66438255932
 30
0.0
 10
106.5557698301319
 20
-144.66438255932
 30
0.0
 10
106.5557698301319
 20
-144.66438255932
 30
0.0
 10
106.5557698301319
 20
-144.7723863027826
 30
0.0
 10
106.5557698301319
 20
-144.7723863027826
 30
0.0
 10
106.5557698301319
 20
-144.7723863027826
 30
0.0
 10
107.1741644697342
 20
-144.7723863027826
 30
0.0
 10
107.1741644697342
 20
-144.7723863027826
 30
0.0
 10
107.1741644697342
 20
-144.7723863027826
 30
0.0
 10
107.1741644697342
 20
-144.66438255932
 30
0.0
 10
107.1741644697342
 20
-144.66438255932
 30
0.0
  0
SPLINE
  5
C6
330
BB
100
AcDbEntity
  8
レイヤー 1
100
AcDbSpline
210
0.0
220
0.0
230
1.0
 70
     9
 71
     3
 72
   203
 73
   199
 74
     0
 42
0.0000000001
 43
0.0000000001
 40
0.0
 40
0.0
 40
0.0
 40
0.0
 40
1.0
 40
1.0
 40
1.0
 40
2.0
 40
2.0
 40
2.0
 40
3.0
 40
3.0
 40
3.0
 40
4.0
 40
4.0
 40
4.0
 40
5.0
 40
5.0
 40
5.0
 40
6.0
 40
6.0
 40
6.0
 40
7.0
 40
7.0
 40
7.0
 40
8.0
 40
8.0
 40
8.0
 40
9.0
 40
9.0
 40
9.0
 40
10.0
 40
10.0
 40
10.0
 40
11.0
 40
11.0
 40
11.0
 40
12.0
 40
12.0
 40
12.0
 40
13.0
 40
13.0
 40
13.0
 40
14.0
 40
14.0
 40
14.0
 40
15.0
 40
15.0
 40
15.0
 40
16.0
 40
16.0
 40
16.0
 40
17.0
 40
17.0
 40
17.0
 40
18.0
 40
18.0
 40
18.0
 40
19.0
 40
19.0
 40
19.0
 40
20.0
 40
20.0
 40
20.0
 40
21.0
 40
21.0
 40
21.0
 40
22.0
 40
22.0
 40
22.0
 40
23.0
 40
23.0
 40
23.0
 40
24.0
 40
24.0
 40
24.0
 40
25.0
 40
25.0
 40
25.0
 40
26.0
 40
26.0
 40
26.0
 40
27.0
 40
27.0
 40
27.0
 40
28.0
 40
28.0
 40
28.0
 40
29.0
 40
29.0
 40
29.0
 40
30.0
 40
30.0
 40
30.0
 40
31.0
 40
31.0
 40
31.0
 40
32.0
 40
32.0
 40
32.0
 40
33.0
 40
33.0
 40
33.0
 40
34.0
 40
34.0
 40
34.0
 40
35.0
 40
35.0
 40
35.0
 40
36.0
 40
36.0
 40
36.0
 40
37.0
 40
37.0
 40
37.0
 40
38.0
 40
38.0
 40
38.0
 40
39.0
 40
39.0
 40
39.0
 40
40.0
 40
40.0
 40
40.0
 40
41.0
 40
41.0
 40
41.0
 40
42.0
 40
42.0
 40
42.0
 40
43.0
 40
43.0
 40
43.0
 40
44.0
 40
44.0
 40
44.0
 40
45.0
 40
45.0
 40
45.0
 40
46.0
 40
46.0
 40
46.0
 40
47.0
 40
47.0
 40
47.0
 40
48.0
 40
48.0
 40
48.0
 40
49.0
 40
49.0
 40
49.0
 40
50.0
 40
50.0
 40
50.0
 40
51.0
 40
51.0
 40
51.0
 40
52.0
 40
52.0
 40
52.0
 40
53.0
 40
53.0
 40
53.0
 40
54.0
 40
54.0
 40
54.0
 40
55.0
 40
55.0
 40
55.0
 40
56.0
 40
56.0
 40
56.0
 40
57.0
 40
57.0
 40
57.0
 40
58.0
 40
58.0
 40
58.0
 40
59.0
 40
59.0
 40
59.0
 40
60.0
 40
60.0
 40
60.0
 40
61.0
 40
61.0
 40
61.0
 40
62.0
 40
62.0
 40
62.0
 40
63.0
 40
63.0
 40
63.0
 40
64.0
 40
64.0
 40
64.0
 40
65.0
 40
65.0
 40
65.0
 40
66.0
 40
66.0
 40
66.0
 40
66.0
 10
107.0298149689022
 20
-144.4084119647659
 30
0.0
 10
107.0298149689022
 20
-144.4084119647659
 30
0.0
 10
106.5409559195453
 20
-144.4084119647659
 30
0.0
 10
106.5409559195453
 20
-144.4084119647659
 30
0.0
 10
106.5316541617351
 20
-144.4528536965257
 30
0.0
 10
106.5244194612161
 20
-144.4845485749899
 30
0.0
 10
106.5130506461148
 20
-144.5227891348762
 30
0.0
 10
106.5354437667689
 20
-144.5227891348762
 30
0.0
 10
106.5485351296128
 20
-144.5248561921674
 30
0.0
 10
106.5540472823893
 20
-144.5248561921674
 30
0.0
 10
106.5540472823893
 20
-144.5248561921674
 30
0.0
 10
106.7187228465842
 20
-144.5248561921674
 30
0.0
 10
106.7187228465842
 20
-144.5248561921674
 30
0.0
 10
106.7187228465842
 20
-144.5248561921674
 30
0.0
 10
107.0463514272314
 20
-144.5248561921674
 30
0.0
 10
107.0463514272314
 20
-144.5248561921674
 30
0.0
 10
107.0911376685397
 20
-144.5248561921674
 30
0.0
 10
107.3391845434777
 20
-144.512109338872
 30
0.0
 10
107.3667453073597
 20
-144.512109338872
 30
0.0
 10
107.3650227596171
 20
-144.5396701027539
 30
0.0
 10
107.3633002118744
 20
-144.5586181279228
 30
0.0
 10
107.3633002118744
 20
-144.588245949096
 30
0.0
 10
107.3612331545833
 20
-144.6199408275603
 30
0.0
 10
107.3612331545833
 20
-144.7553330801306
 30
0.0
 10
107.3612331545833
 20
-144.7828938440126
 30
0.0
 10
107.3612331545833
 20
-144.7828938440126
 30
0.0
 10
107.3612331545833
 20
-145.0283568973366
 30
0.0
 10
107.3612331545833
 20
-145.0283568973366
 30
0.0
 10
107.3612331545833
 20
-145.0727986290964
 30
0.0
 10
107.3650227596171
 20
-145.2695135813041
 30
0.0
 10
107.3688123646508
 20
-145.4217868017522
 30
0.0
 10
107.3688123646508
 20
-145.4217868017522
 30
0.0
 10
107.170719374249
 20
-145.4217868017522
 30
0.0
 10
107.170719374249
 20
-145.4217868017522
 30
0.0
 10
107.170719374249
 20
-145.4217868017522
 30
0.0
 10
107.1724419219916
 20
-145.3880248659967
 30
0.0
 10
107.1724419219916
 20
-145.3880248659967
 30
0.0
 10
107.1724419219916
 20
-145.3880248659967
 30
0.0
 10
106.557836887423
 20
-145.3880248659967
 30
0.0
 10
106.557836887423
 20
-145.3880248659967
 30
0.0
 10
106.557836887423
 20
-145.3880248659967
 30
0.0
 10
106.5595594351656
 20
-145.4217868017522
 30
0.0
 10
106.5595594351656
 20
-145.4217868017522
 30
0.0
 10
106.5595594351656
 20
-145.4217868017522
 30
0.0
 10
106.3687011452828
 20
-145.4217868017522
 30
0.0
 10
106.3687011452828
 20
-145.4217868017522
 30
0.0
 10
106.3724907503166
 20
-145.3668375287624
 30
0.0
 10
106.3724907503166
 20
-145.354090675467
 30
0.0
 10
106.378002903093
 20
-145.239885760131
 30
0.0
 10
106.3800699603841
 20
-145.212324996249
 30
0.0
 10
106.3817925081268
 20
-145.0791720557441
 30
0.0
 10
106.3817925081268
 20
-145.0600517758009
 30
0.0
 10
106.3817925081268
 20
-145.0600517758009
 30
0.0
 10
106.3817925081268
 20
-144.8569633969454
 30
0.0
 10
106.3817925081268
 20
-144.8569633969454
 30
0.0
 10
106.2594916184004
 20
-145.1065605648518
 30
0.0
 10
106.1113525125346
 20
-145.2378187028398
 30
0.0
 10
106.0186794439814
 20
-145.3032755170596
 30
0.0
 10
106.0186794439814
 20
-145.3032755170596
 30
0.0
 10
105.8670952426304
 20
-145.1637491499069
 30
0.0
 10
105.8670952426304
 20
-145.1637491499069
 30
0.0
 10
105.9446098910485
 20
-145.1129339914995
 30
0.0
 10
106.0707003858087
 20
-145.0261175852712
 30
0.0
 10
106.1909342182439
 20
-144.8316419451289
 30
0.0
 10
106.2705159239532
 20
-144.7046901764974
 30
0.0
 10
106.3280490185569
 20
-144.5608574399883
 30
0.0
 10
106.35767683973
 20
-144.4084119647659
 30
0.0
 10
106.157516792037
 20
-144.4106512768313
 30
0.0
 10
106.0004204379096
 20
-144.4170247034791
 30
0.0
 10
105.9170491271665
 20
-144.4190917607702
 30
0.0
 10
105.9170491271665
 20
-144.4190917607702
 30
0.0
 10
105.9170491271665
 20
-144.2413248337313
 30
0.0
 10
105.9170491271665
 20
-144.2413248337313
 30
0.0
 10
106.089303901429
 20
-144.247698260379
 30
0.0
 10
106.337350776367
 20
-144.2520046297356
 30
0.0
 10
106.4689534239036
 20
-144.2520046297356
 30
0.0
 10
106.4689534239036
 20
-144.2520046297356
 30
0.0
 10
106.6556775992041
 20
-144.2520046297356
 30
0.0
 10
106.6556775992041
 20
-144.2520046297356
 30
0.0
 10
106.6556775992041
 20
-144.2520046297356
 30
0.0
 10
106.6556775992041
 20
-144.144000886273
 30
0.0
 10
106.6556775992041
 20
-144.144000886273
 30
0.0
 10
106.6556775992041
 20
-144.144000886273
 30
0.0
 10
106.5282090662499
 20
-144.144000886273
 30
0.0
 10
106.5282090662499
 20
-144.144000886273
 30
0.0
 10
106.3800699603841
 20
-144.144000886273
 30
0.0
 10
106.2319308545184
 20
-144.1483072556296
 30
0.0
 10
106.0855142963953
 20
-144.1546806822773
 30
0.0
 10
106.0855142963953
 20
-144.1546806822773
 30
0.0
 10
106.0855142963953
 20
-143.9832871818861
 30
0.0
 10
106.0855142963953
 20
-143.9832871818861
 30
0.0
 10
106.2205620394171
 20
-143.9937947231161
 30
0.0
 10
106.3835150558694
 20
-143.9937947231161
 30
0.0
 10
106.5282090662499
 20
-143.9937947231161
 30
0.0
 10
106.5282090662499
 20
-143.9937947231161
 30
0.0
 10
106.6556775992041
 20
-143.9937947231161
 30
0.0
 10
106.6556775992041
 20
-143.9937947231161
 30
0.0
 10
106.6556775992041
 20
-143.9937947231161
 30
0.0
 10
106.6556775992041
 20
-143.8754556931978
 30
0.0
 10
106.6556775992041
 20
-143.8754556931978
 30
0.0
 10
106.6556775992041
 20
-143.8754556931978
 30
0.0
 10
106.5409559195453
 20
-143.8754556931978
 30
0.0
 10
106.5409559195453
 20
-143.8754556931978
 30
0.0
 10
106.5003037928193
 20
-143.8754556931978
 30
0.0
 10
106.3225368657805
 20
-143.8838961771367
 30
0.0
 10
106.2853298345397
 20
-143.8838961771367
 30
0.0
 10
106.1075629075009
 20
-143.8880302917189
 30
0.0
 10
106.0410725646355
 20
-143.8900973490101
 30
0.0
 10
105.9725151644791
 20
-143.8923366610755
 30
0.0
 10
105.9725151644791
 20
-143.8923366610755
 30
0.0
 10
105.9725151644791
 20
-143.7081963073889
 30
0.0
 10
105.9725151644791
 20
-143.7081963073889
 30
0.0
 10
106.0724229335513
 20
-143.7166367913278
 30
0.0
 10
106.1113525125346
 20
-143.7166367913278
 30
0.0
 10
106.4465603032495
 20
-143.7252495300409
 30
0.0
 10
106.3910942659369
 20
-143.6299926398737
 30
0.0
 10
106.3669785975402
 20
-143.6024318759917
 30
0.0
 10
106.3352837190759
 20
-143.5664306281709
 30
0.0
 10
106.3352837190759
 20
-143.5664306281709
 30
0.0
 10
106.4892794872665
 20
-143.4839205912991
 30
0.0
 10
106.4892794872665
 20
-143.4839205912991
 30
0.0
 10
106.5244194612161
 20
-143.51992183912
 30
0.0
 10
106.5633490401994
 20
-143.5622965135886
 30
0.0
 10
106.6281168353221
 20
-143.672195059568
 30
0.0
 10
106.6281168353221
 20
-143.672195059568
 30
0.0
 10
106.5282090662499
 20
-143.727316587332
 30
0.0
 10
106.5282090662499
 20
-143.727316587332
 30
0.0
 10
106.5282090662499
 20
-143.727316587332
 30
0.0
 10
106.5371663145115
 20
-143.727316587332
 30
0.0
 10
106.5371663145115
 20
-143.727316587332
 30
0.0
 10
106.5371663145115
 20
-143.727316587332
 30
0.0
 10
106.9946749949527
 20
-143.727316587332
 30
0.0
 10
106.9946749949527
 20
-143.727316587332
 30
0.0
 10
106.9946749949527
 20
-143.727316587332
 30
0.0
 10
106.9113036842097
 20
-143.6828748555723
 30
0.0
 10
106.9113036842097
 20
-143.6828748555723
 30
0.0
 10
106.9354193526064
 20
-143.6448065504603
 30
0.0
 10
106.9853732371425
 20
-143.5643635708797
 30
0.0
 10
106.9984645999865
 20
-143.4902940179468
 30
0.0
 10
106.9984645999865
 20
-143.4902940179468
 30
0.0
 10
107.1855332848355
 20
-143.5538560296497
 30
0.0
 10
107.1855332848355
 20
-143.5538560296497
 30
0.0
 10
107.1927679853546
 20
-143.5559230869408
 30
0.0
 10
107.2113715009749
 20
-143.5664306281709
 30
0.0
 10
107.2113715009749
 20
-143.5876179654052
 30
0.0
 10
107.2113715009749
 20
-143.6256862705172
 30
0.0
 10
107.1538384063712
 20
-143.6256862705172
 30
0.0
 10
107.137301948042
 20
-143.6256862705172
 30
0.0
 10
107.1280001902319
 20
-143.6448065504603
 30
0.0
 10
107.1076741268689
 20
-143.6849419128634
 30
0.0
 10
107.0818359107295
 20
-143.7252495300409
 30
0.0
 10
107.4315131024824
 20
-143.7188761033932
 30
0.0
 10
107.4576958281703
 20
-143.7166367913278
 30
0.0
 10
107.5241861710356
 20
-143.7104356194543
 30
0.0
 10
107.5241861710356
 20
-143.7104356194543
 30
0.0
 10
107.5241861710356
 20
-143.8923366610755
 30
0.0
 10
107.5241861710356
 20
-143.8923366610755
 30
0.0
 10
107.5076497127064
 20
-143.8923366610755
 30
0.0
 10
107.4852565920523
 20
-143.8900973490101
 30
0.0
 10
107.2926757544268
 20
-143.8816568650712
 30
0.0
 10
107.2482340226671
 20
-143.8795898077801
 30
0.0
 10
107.0556531850416
 20
-143.8754556931978
 30
0.0
 10
107.0167236060583
 20
-143.8754556931978
 30
0.0
 10
107.0167236060583
 20
-143.8754556931978
 30
0.0
 10
106.8279323734666
 20
-143.8754556931978
 30
0.0
 10
106.8279323734666
 20
-143.8754556931978
 30
0.0
 10
106.8279323734666
 20
-143.8754556931978
 30
0.0
 10
106.8279323734666
 20
-143.9937947231161
 30
0.0
 10
106.8279323734666
 20
-143.9937947231161
 30
0.0
 10
106.8279323734666
 20
-143.9937947231161
 30
0.0
 10
106.9798610843661
 20
-143.9937947231161
 30
0.0
 10
106.9798610843661
 20
-143.9937947231161
 30
0.0
 10
107.1224880374555
 20
-143.9937947231161
 30
0.0
 10
107.2892306589416
 20
-143.9937947231161
 30
0.0
 10
107.426000949706
 20
-143.9832871818861
 30
0.0
 10
107.426000949706
 20
-143.9832871818861
 30
0.0
 10
107.426000949706
 20
-144.1546806822773
 30
0.0
 10
107.426000949706
 20
-144.1546806822773
 30
0.0
 10
107.2427218698907
 20
-144.1462401983384
 30
0.0
 10
107.0704670956282
 20
-144.144000886273
 30
0.0
 10
106.9798610843661
 20
-144.144000886273
 30
0.0
 10
106.9798610843661
 20
-144.144000886273
 30
0.0
 10
106.8279323734666
 20
-144.144000886273
 30
0.0
 10
106.8279323734666
 20
-144.144000886273
 30
0.0
 10
106.8279323734666
 20
-144.144000886273
 30
0.0
 10
106.8279323734666
 20
-144.2520046297356
 30
0.0
 10
106.8279323734666
 20
-144.2520046297356
 30
0.0
 10
106.8279323734666
 20
-144.2520046297356
 30
0.0
 10
107.0298149689022
 20
-144.2520046297356
 30
0.0
 10
107.0298149689022
 20
-144.2520046297356
 30
0.0
 10
107.1466037058522
 20
-144.2520046297356
 30
0.0
 10
107.398440185824
 20
-144.247698260379
 30
0.0
 10
107.5817192656393
 20
-144.2413248337313
 30
0.0
 10
107.5817192656393
 20
-144.2413248337313
 30
0.0
 10
107.5817192656393
 20
-144.4190917607702
 30
0.0
 10
107.5817192656393
 20
-144.4190917607702
 30
0.0
 10
107.4132540964106
 20
-144.4127183341225
 30
0.0
 10
107.1390244957847
 20
-144.4084119647659
 30
0.0
 10
107.0298149689022
 20
-144.4084119647659
 30
0.0
  0
HATCH
  5
C7
330
BB
100
AcDbEntity
  8
レイヤー 1
 62
   250
420
  2299925
440
 33554687
100
AcDbHatch
 10
0.0
 20
0.0
 30
0.0
210
0.0
220
0.0
230
1.0
  2
SOLID
 70
     1
 71
     1
 91
        4
 92
        1
 93
        1
 72
     4
 94
        3
 73
     0
 74
     0
 95
       17
 96
       13
 40
0.0
 40
0.0
 40
0.0
 40
0.0
 40
1.0
 40
1.0
 40
1.0
 40
2.0
 40
2.0
 40
2.0
 40
3.0
 40
3.0
 40
3.0
 40
4.0
 40
4.0
 40
4.0
 40
4.0
 10
107.1741644697342
 20
-145.1404947553815
 10
107.1741644697342
 20
-145.1404947553815
 10
106.5557698301319
 20
-145.1404947553815
 10
106.5557698301319
 20
-145.1404947553815
 10
106.5557698301319
 20
-145.1404947553815
 10
106.5557698301319
 20
-145.2546996707176
 10
106.5557698301319
 20
-145.2546996707176
 10
106.5557698301319
 20
-145.2546996707176
 10
107.1741644697342
 20
-145.2546996707176
 10
107.1741644697342
 20
-145.2546996707176
 10
107.1741644697342
 20
-145.2546996707176
 10
107.1741644697342
 20
-145.1404947553815
 10
107.1741644697342
 20
-145.1404947553815
 97
        0
 97
        1
330
C3
 92
        1
 93
        1
 72
     4
 94
        3
 73
     0
 74
     0
 95
       17
 96
       13
 40
0.0
 40
0.0
 40
0.0
 40
0.0
 40
1.0
 40
1.0
 40
1.0
 40
2.0
 40
2.0
 40
2.0
 40
3.0
 40
3.0
 40
3.0
 40
4.0
 40
4.0
 40
4.0
 40
4.0
 10
107.1741644697342
 20
-144.8970987593486
 10
107.1741644697342
 20
-144.8970987593486
 10
106.5557698301319
 20
-144.8970987593486
 10
106.5557698301319
 20
-144.8970987593486
 10
106.5557698301319
 20
-144.8970987593486
 10
106.5557698301319
 20
-145.0114759294589
 10
106.5557698301319
 20
-145.0114759294589
 10
106.5557698301319
 20
-145.0114759294589
 10
107.1741644697342
 20
-145.0114759294589
 10
107.1741644697342
 20
-145.0114759294589
 10
107.1741644697342
 20
-145.0114759294589
 10
107.1741644697342
 20
-144.8970987593486
 10
107.1741644697342
 20
-144.8970987593486
 97
        0
 97
        1
330
C4
 92
        1
 93
        1
 72
     4
 94
        3
 73
     0
 74
     0
 95
       17
 96
       13
 40
0.0
 40
0.0
 40
0.0
 40
0.0
 40
1.0
 40
1.0
 40
1.0
 40
2.0
 40
2.0
 40
2.0
 40
3.0
 40
3.0
 40
3.0
 40
4.0
 40
4.0
 40
4.0
 40
4.0
 10
107.1741644697342
 20
-144.66438255932
 10
107.1741644697342
 20
-144.66438255932
 10
106.5557698301319
 20
-144.66438255932
 10
106.5557698301319
 20
-144.66438255932
 10
106.5557698301319
 20
-144.66438255932
 10
106.5557698301319
 20
-144.7723863027826
 10
106.5557698301319
 20
-144.7723863027826
 10
106.5557698301319
 20
-144.7723863027826
 10
107.1741644697342
 20
-144.7723863027826
 10
107.1741644697342
 20
-144.7723863027826
 10
107.1741644697342
 20
-144.7723863027826
 10
107.1741644697342
 20
-144.66438255932
 10
107.1741644697342
 20
-144.66438255932
 97
        0
 97
        1
330
C5
 92
        1
 93
        1
 72
     4
 94
        3
 73
     0
 74
     0
 95
      203
 96
      199
 40
0.0
 40
0.0
 40
0.0
 40
0.0
 40
1.0
 40
1.0
 40
1.0
 40
2.0
 40
2.0
 40
2.0
 40
3.0
 40
3.0
 40
3.0
 40
4.0
 40
4.0
 40
4.0
 40
5.0
 40
5.0
 40
5.0
 40
6.0
 40
6.0
 40
6.0
 40
7.0
 40
7.0
 40
7.0
 40
8.0
 40
8.0
 40
8.0
 40
9.0
 40
9.0
 40
9.0
 40
10.0
 40
10.0
 40
10.0
 40
11.0
 40
11.0
 40
11.0
 40
12.0
 40
12.0
 40
12.0
 40
13.0
 40
13.0
 40
13.0
 40
14.0
 40
14.0
 40
14.0
 40
15.0
 40
15.0
 40
15.0
 40
16.0
 40
16.0
 40
16.0
 40
17.0
 40
17.0
 40
17.0
 40
18.0
 40
18.0
 40
18.0
 40
19.0
 40
19.0
 40
19.0
 40
20.0
 40
20.0
 40
20.0
 40
21.0
 40
21.0
 40
21.0
 40
22.0
 40
22.0
 40
22.0
 40
23.0
 40
23.0
 40
23.0
 40
24.0
 40
24.0
 40
24.0
 40
25.0
 40
25.0
 40
25.0
 40
26.0
 40
26.0
 40
26.0
 40
27.0
 40
27.0
 40
27.0
 40
28.0
 40
28.0
 40
28.0
 40
29.0
 40
29.0
 40
29.0
 40
30.0
 40
30.0
 40
30.0
 40
31.0
 40
31.0
 40
31.0
 40
32.0
 40
32.0
 40
32.0
 40
33.0
 40
33.0
 40
33.0
 40
34.0
 40
34.0
 40
34.0
 40
35.0
 40
35.0
 40
35.0
 40
36.0
 40
36.0
 40
36.0
 40
37.0
 40
37.0
 40
37.0
 40
38.0
 40
38.0
 40
38.0
 40
39.0
 40
39.0
 40
39.0
 40
40.0
 40
40.0
 40
40.0
 40
41.0
 40
41.0
 40
41.0
 40
42.0
 40
42.0
 40
42.0
 40
43.0
 40
43.0
 40
43.0
 40
44.0
 40
44.0
 40
44.0
 40
45.0
 40
45.0
 40
45.0
 40
46.0
 40
46.0
 40
46.0
 40
47.0
 40
47.0
 40
47.0
 40
48.0
 40
48.0
 40
48.0
 40
49.0
 40
49.0
 40
49.0
 40
50.0
 40
50.0
 40
50.0
 40
51.0
 40
51.0
 40
51.0
 40
52.0
 40
52.0
 40
52.0
 40
53.0
 40
53.0
 40
53.0
 40
54.0
 40
54.0
 40
54.0
 40
55.0
 40
55.0
 40
55.0
 40
56.0
 40
56.0
 40
56.0
 40
57.0
 40
57.0
 40
57.0
 40
58.0
 40
58.0
 40
58.0
 40
59.0
 40
59.0
 40
59.0
 40
60.0
 40
60.0
 40
60.0
 40
61.0
 40
61.0
 40
61.0
 40
62.0
 40
62.0
 40
62.0
 40
63.0
 40
63.0
 40
63.0
 40
64.0
 40
64.0
 40
64.0
 40
65.0
 40
65.0
 40
65.0
 40
66.0
 40
66.0
 40
66.0
 40
66.0
 10
107.0298149689022
 20
-144.4084119647659
 10
107.0298149689022
 20
-144.4084119647659
 10
106.5409559195453
 20
-144.4084119647659
 10
106.5409559195453
 20
-144.4084119647659
 10
106.5316541617351
 20
-144.4528536965257
 10
106.5244194612161
 20
-144.4845485749899
 10
106.5130506461148
 20
-144.5227891348762
 10
106.5354437667689
 20
-144.5227891348762
 10
106.5485351296128
 20
-144.5248561921674
 10
106.5540472823893
 20
-144.5248561921674
 10
106.5540472823893
 20
-144.5248561921674
 10
106.7187228465842
 20
-144.5248561921674
 10
106.7187228465842
 20
-144.5248561921674
 10
106.7187228465842
 20
-144.5248561921674
 10
107.0463514272314
 20
-144.5248561921674
 10
107.0463514272314
 20
-144.5248561921674
 10
107.0911376685397
 20
-144.5248561921674
 10
107.3391845434777
 20
-144.512109338872
 10
107.3667453073597
 20
-144.512109338872
 10
107.3650227596171
 20
-144.5396701027539
 10
107.3633002118744
 20
-144.5586181279228
 10
107.3633002118744
 20
-144.588245949096
 10
107.3612331545833
 20
-144.6199408275603
 10
107.3612331545833
 20
-144.7553330801306
 10
107.3612331545833
 20
-144.7828938440126
 10
107.3612331545833
 20
-144.7828938440126
 10
107.3612331545833
 20
-145.0283568973366
 10
107.3612331545833
 20
-145.0283568973366
 10
107.3612331545833
 20
-145.0727986290964
 10
107.3650227596171
 20
-145.2695135813041
 10
107.3688123646508
 20
-145.4217868017522
 10
107.3688123646508
 20
-145.4217868017522
 10
107.170719374249
 20
-145.4217868017522
 10
107.170719374249
 20
-145.4217868017522
 10
107.170719374249
 20
-145.4217868017522
 10
107.1724419219916
 20
-145.3880248659967
 10
107.1724419219916
 20
-145.3880248659967
 10
107.1724419219916
 20
-145.3880248659967
 10
106.557836887423
 20
-145.3880248659967
 10
106.557836887423
 20
-145.3880248659967
 10
106.557836887423
 20
-145.3880248659967
 10
106.5595594351656
 20
-145.4217868017522
 10
106.5595594351656
 20
-145.4217868017522
 10
106.5595594351656
 20
-145.4217868017522
 10
106.3687011452828
 20
-145.4217868017522
 10
106.3687011452828
 20
-145.4217868017522
 10
106.3724907503166
 20
-145.3668375287624
 10
106.3724907503166
 20
-145.354090675467
 10
106.378002903093
 20
-145.239885760131
 10
106.3800699603841
 20
-145.212324996249
 10
106.3817925081268
 20
-145.0791720557441
 10
106.3817925081268
 20
-145.0600517758009
 10
106.3817925081268
 20
-145.0600517758009
 10
106.3817925081268
 20
-144.8569633969454
 10
106.3817925081268
 20
-144.8569633969454
 10
106.2594916184004
 20
-145.1065605648518
 10
106.1113525125346
 20
-145.2378187028398
 10
106.0186794439814
 20
-145.3032755170596
 10
106.0186794439814
 20
-145.3032755170596
 10
105.8670952426304
 20
-145.1637491499069
 10
105.8670952426304
 20
-145.1637491499069
 10
105.9446098910485
 20
-145.1129339914995
 10
106.0707003858087
 20
-145.0261175852712
 10
106.1909342182439
 20
-144.8316419451289
 10
106.2705159239532
 20
-144.7046901764974
 10
106.3280490185569
 20
-144.5608574399883
 10
106.35767683973
 20
-144.4084119647659
 10
106.157516792037
 20
-144.4106512768313
 10
106.0004204379096
 20
-144.4170247034791
 10
105.9170491271665
 20
-144.4190917607702
 10
105.9170491271665
 20
-144.4190917607702
 10
105.9170491271665
 20
-144.2413248337313
 10
105.9170491271665
 20
-144.2413248337313
 10
106.089303901429
 20
-144.247698260379
 10
106.337350776367
 20
-144.2520046297356
 10
106.4689534239036
 20
-144.2520046297356
 10
106.4689534239036
 20
-144.2520046297356
 10
106.6556775992041
 20
-144.2520046297356
 10
106.6556775992041
 20
-144.2520046297356
 10
106.6556775992041
 20
-144.2520046297356
 10
106.6556775992041
 20
-144.144000886273
 10
106.6556775992041
 20
-144.144000886273
 10
106.6556775992041
 20
-144.144000886273
 10
106.5282090662499
 20
-144.144000886273
 10
106.5282090662499
 20
-144.144000886273
 10
106.3800699603841
 20
-144.144000886273
 10
106.2319308545184
 20
-144.1483072556296
 10
106.0855142963953
 20
-144.1546806822773
 10
106.0855142963953
 20
-144.1546806822773
 10
106.0855142963953
 20
-143.9832871818861
 10
106.0855142963953
 20
-143.9832871818861
 10
106.2205620394171
 20
-143.9937947231161
 10
106.3835150558694
 20
-143.9937947231161
 10
106.5282090662499
 20
-143.9937947231161
 10
106.5282090662499
 20
-143.9937947231161
 10
106.6556775992041
 20
-143.9937947231161
 10
106.6556775992041
 20
-143.9937947231161
 10
106.6556775992041
 20
-143.9937947231161
 10
106.6556775992041
 20
-143.8754556931978
 10
106.6556775992041
 20
-143.8754556931978
 10
106.6556775992041
 20
-143.8754556931978
 10
106.5409559195453
 20
-143.8754556931978
 10
106.5409559195453
 20
-143.8754556931978
 10
106.5003037928193
 20
-143.8754556931978
 10
106.3225368657805
 20
-143.8838961771367
 10
106.2853298345397
 20
-143.8838961771367
 10
106.1075629075009
 20
-143.8880302917189
 10
106.0410725646355
 20
-143.8900973490101
 10
105.9725151644791
 20
-143.8923366610755
 10
105.9725151644791
 20
-143.8923366610755
 10
105.9725151644791
 20
-143.7081963073889
 10
105.9725151644791
 20
-143.7081963073889
 10
106.0724229335513
 20
-143.7166367913278
 10
106.1113525125346
 20
-143.7166367913278
 10
106.4465603032495
 20
-143.7252495300409
 10
106.3910942659369
 20
-143.6299926398737
 10
106.3669785975402
 20
-143.6024318759917
 10
106.3352837190759
 20
-143.5664306281709
 10
106.3352837190759
 20
-143.5664306281709
 10
106.4892794872665
 20
-143.4839205912991
 10
106.4892794872665
 20
-143.4839205912991
 10
106.5244194612161
 20
-143.51992183912
 10
106.5633490401994
 20
-143.5622965135886
 10
106.6281168353221
 20
-143.672195059568
 10
106.6281168353221
 20
-143.672195059568
 10
106.5282090662499
 20
-143.727316587332
 10
106.5282090662499
 20
-143.727316587332
 10
106.5282090662499
 20
-143.727316587332
 10
106.5371663145115
 20
-143.727316587332
 10
106.5371663145115
 20
-143.727316587332
 10
106.5371663145115
 20
-143.727316587332
 10
106.9946749949527
 20
-143.727316587332
 10
106.9946749949527
 20
-143.727316587332
 10
106.9946749949527
 20
-143.727316587332
 10
106.9113036842097
 20
-143.6828748555723
 10
106.9113036842097
 20
-143.6828748555723
 10
106.9354193526064
 20
-143.6448065504603
 10
106.9853732371425
 20
-143.5643635708797
 10
106.9984645999865
 20
-143.4902940179468
 10
106.9984645999865
 20
-143.4902940179468
 10
107.1855332848355
 20
-143.5538560296497
 10
107.1855332848355
 20
-143.5538560296497
 10
107.1927679853546
 20
-143.5559230869408
 10
107.2113715009749
 20
-143.5664306281709
 10
107.2113715009749
 20
-143.5876179654052
 10
107.2113715009749
 20
-143.6256862705172
 10
107.1538384063712
 20
-143.6256862705172
 10
107.137301948042
 20
-143.6256862705172
 10
107.1280001902319
 20
-143.6448065504603
 10
107.1076741268689
 20
-143.6849419128634
 10
107.0818359107295
 20
-143.7252495300409
 10
107.4315131024824
 20
-143.7188761033932
 10
107.4576958281703
 20
-143.7166367913278
 10
107.5241861710356
 20
-143.7104356194543
 10
107.5241861710356
 20
-143.7104356194543
 10
107.5241861710356
 20
-143.8923366610755
 10
107.5241861710356
 20
-143.8923366610755
 10
107.5076497127064
 20
-143.8923366610755
 10
107.4852565920523
 20
-143.8900973490101
 10
107.2926757544268
 20
-143.8816568650712
 10
107.2482340226671
 20
-143.8795898077801
 10
107.0556531850416
 20
-143.8754556931978
 10
107.0167236060583
 20
-143.8754556931978
 10
107.0167236060583
 20
-143.8754556931978
 10
106.8279323734666
 20
-143.8754556931978
 10
106.8279323734666
 20
-143.8754556931978
 10
106.8279323734666
 20
-143.8754556931978
 10
106.8279323734666
 20
-143.9937947231161
 10
106.8279323734666
 20
-143.9937947231161
 10
106.8279323734666
 20
-143.9937947231161
 10
106.9798610843661
 20
-143.9937947231161
 10
106.9798610843661
 20
-143.9937947231161
 10
107.1224880374555
 20
-143.9937947231161
 10
107.2892306589416
 20
-143.9937947231161
 10
107.426000949706
 20
-143.9832871818861
 10
107.426000949706
 20
-143.9832871818861
 10
107.426000949706
 20
-144.1546806822773
 10
107.426000949706
 20
-144.1546806822773
 10
107.2427218698907
 20
-144.1462401983384
 10
107.0704670956282
 20
-144.144000886273
 10
106.9798610843661
 20
-144.144000886273
 10
106.9798610843661
 20
-144.144000886273
 10
106.8279323734666
 20
-144.144000886273
 10
106.8279323734666
 20
-144.144000886273
 10
106.8279323734666
 20
-144.144000886273
 10
106.8279323734666
 20
-144.2520046297356
 10
106.8279323734666
 20
-144.2520046297356
 10
106.8279323734666
 20
-144.2520046297356
 10
107.0298149689022
 20
-144.2520046297356
 10
107.0298149689022
 20
-144.2520046297356
 10
107.1466037058522
 20
-144.2520046297356
 10
107.398440185824
 20
-144.247698260379
 10
107.5817192656393
 20
-144.2413248337313
 10
107.5817192656393
 20
-144.2413248337313
 10
107.5817192656393
 20
-144.4190917607702
 10
107.5817192656393
 20
-144.4190917607702
 10
107.4132540964106
 20
-144.4127183341225
 10
107.1390244957847
 20
-144.4084119647659
 10
107.0298149689022
 20
-144.4084119647659
 97
        0
 97
        1
330
C6
 75
     2
 76
     1
 98
        1
 10
0.0
 20
0.0
450
        0
451
        0
460
0.0
461
0.0
452
        0
462
0.0
453
        0
470

  0
SPLINE
  5
C8
330
BB
100
AcDbEntity
  8
レイヤー 1
100
AcDbSpline
210
0.0
220
0.0
230
1.0
 70
     9
 71
     3
 72
    29
 73
    25
 74
     0
 42
0.0000000001
 43
0.0000000001
 40
0.0
 40
0.0
 40
0.0
 40
0.0
 40
1.0
 40
1.0
 40
1.0
 40
2.0
 40
2.0
 40
2.0
 40
3.0
 40
3.0
 40
3.0
 40
4.0
 40
4.0
 40
4.0
 40
5.0
 40
5.0
 40
5.0
 40
6.0
 40
6.0
 40
6.0
 40
7.0
 40
7.0
 40
7.0
 40
8.0
 40
8.0
 40
8.0
 40
8.0
 10
108.6727810058179
 20
-143.8563354132546
 30
0.0
 10
108.6727810058179
 20
-143.8563354132546
 30
0.0
 10
108.3634114312425
 20
-143.8563354132546
 30
0.0
 10
108.3634114312425
 20
-143.8563354132546
 30
0.0
 10
108.2652262099129
 20
-143.8563354132546
 30
0.0
 10
108.1429253201865
 20
-143.8627088399023
 30
0.0
 10
108.0485297038906
 20
-143.8754556931978
 30
0.0
 10
108.0485297038906
 20
-143.8754556931978
 30
0.0
 10
108.0485297038906
 20
-143.6405001811037
 30
0.0
 10
108.0485297038906
 20
-143.6405001811037
 30
0.0
 10
108.1522270779966
 20
-143.6553140916903
 30
0.0
 10
108.3134575467063
 20
-143.6596204610469
 30
0.0
 10
108.3634114312425
 20
-143.6596204610469
 30
0.0
 10
108.3634114312425
 20
-143.6596204610469
 30
0.0
 10
108.6727810058179
 20
-143.6596204610469
 30
0.0
 10
108.6727810058179
 20
-143.6596204610469
 30
0.0
 10
108.6893174641471
 20
-143.6596204610469
 30
0.0
 10
108.867084391186
 20
-143.6596204610469
 30
0.0
 10
108.991107828655
 20
-143.6405001811037
 30
0.0
 10
108.991107828655
 20
-143.6405001811037
 30
0.0
 10
108.991107828655
 20
-143.8754556931978
 30
0.0
 10
108.991107828655
 20
-143.8754556931978
 30
0.0
 10
108.853993028342
 20
-143.8563354132546
 30
0.0
 10
108.6875949164045
 20
-143.8563354132546
 30
0.0
 10
108.6727810058179
 20
-143.8563354132546
 30
0.0
  0
SPLINE
  5
C9
330
BB
100
AcDbEntity
  8
レイヤー 1
100
AcDbSpline
210
0.0
220
0.0
230
1.0
 70
     9
 71
     3
 72
    47
 73
    43
 74
     0
 42
0.0000000001
 43
0.0000000001
 40
0.0
 40
0.0
 40
0.0
 40
0.0
 40
1.0
 40
1.0
 40
1.0
 40
2.0
 40
2.0
 40
2.0
 40
3.0
 40
3.0
 40
3.0
 40
4.0
 40
4.0
 40
4.0
 40
5.0
 40
5.0
 40
5.0
 40
6.0
 40
6.0
 40
6.0
 40
7.0
 40
7.0
 40
7.0
 40
8.0
 40
8.0
 40
8.0
 40
9.0
 40
9.0
 40
9.0
 40
10.0
 40
10.0
 40
10.0
 40
11.0
 40
11.0
 40
11.0
 40
12.0
 40
12.0
 40
12.0
 40
13.0
 40
13.0
 40
13.0
 40
14.0
 40
14.0
 40
14.0
 40
14.0
 10
108.7616644693373
 20
-144.3851575702405
 30
0.0
 10
108.7616644693373
 20
-144.3851575702405
 30
0.0
 10
108.6727810058179
 20
-144.3851575702405
 30
0.0
 10
108.6727810058179
 20
-144.3851575702405
 30
0.0
 10
108.6727810058179
 20
-144.4719739764688
 30
0.0
 10
108.6541774901975
 20
-144.861269766302
 30
0.0
 10
108.4819227159351
 20
-145.0812391130352
 30
0.0
 10
108.3485975206559
 20
-145.250393301361
 30
0.0
 10
108.1670409885832
 20
-145.3203287397116
 30
0.0
 10
108.0929714356503
 20
-145.3477172488193
 30
0.0
 10
108.0929714356503
 20
-145.3477172488193
 30
0.0
 10
107.922783718679
 20
-145.1806301177847
 30
0.0
 10
107.922783718679
 20
-145.1806301177847
 30
0.0
 10
108.0078775771647
 20
-145.1678832644893
 30
0.0
 10
108.1615288358068
 20
-145.1446288699638
 30
0.0
 10
108.3265489095503
 20
-144.9563544016949
 30
0.0
 10
108.391316704673
 20
-144.8845241608275
 30
0.0
 10
108.4819227159351
 20
-144.7448255389006
 30
0.0
 10
108.4819227159351
 20
-144.3851575702405
 30
0.0
 10
108.4819227159351
 20
-144.3851575702405
 30
0.0
 10
108.2800401204994
 20
-144.3851575702405
 30
0.0
 10
108.2800401204994
 20
-144.3851575702405
 30
0.0
 10
108.1170871040471
 20
-144.3851575702405
 30
0.0
 10
107.9541340875948
 20
-144.3894639395971
 30
0.0
 10
107.7911810711425
 20
-144.4042778501836
 30
0.0
 10
107.7911810711425
 20
-144.4042778501836
 30
0.0
 10
107.7911810711425
 20
-144.1843085034505
 30
0.0
 10
107.7911810711425
 20
-144.1843085034505
 30
0.0
 10
107.9558566353374
 20
-144.199122414037
 30
0.0
 10
108.2059705675666
 20
-144.2032565286193
 30
0.0
 10
108.2800401204994
 20
-144.2032565286193
 30
0.0
 10
108.2800401204994
 20
-144.2032565286193
 30
0.0
 10
108.7616644693373
 20
-144.2032565286193
 30
0.0
 10
108.7616644693373
 20
-144.2032565286193
 30
0.0
 10
108.7782009276665
 20
-144.2032565286193
 30
0.0
 10
109.0558756237777
 20
-144.2032565286193
 30
0.0
 10
109.2560356714707
 20
-144.1843085034505
 30
0.0
 10
109.2560356714707
 20
-144.1843085034505
 30
0.0
 10
109.2560356714707
 20
-144.4042778501836
 30
0.0
 10
109.2560356714707
 20
-144.4042778501836
 30
0.0
 10
109.0910155977272
 20
-144.3894639395971
 30
0.0
 10
108.9263400335323
 20
-144.3851575702405
 30
0.0
 10
108.7616644693373
 20
-144.3851575702405
 30
0.0
  0
HATCH
  5
CA
330
BB
100
AcDbEntity
  8
レイヤー 1
 62
   250
420
  2299925
440
 33554687
100
AcDbHatch
 10
0.0
 20
0.0
 30
0.0
210
0.0
220
0.0
230
1.0
  2
SOLID
 70
     1
 71
     1
 91
        2
 92
        1
 93
        1
 72
     4
 94
        3
 73
     0
 74
     0
 95
       29
 96
       25
 40
0.0
 40
0.0
 40
0.0
 40
0.0
 40
1.0
 40
1.0
 40
1.0
 40
2.0
 40
2.0
 40
2.0
 40
3.0
 40
3.0
 40
3.0
 40
4.0
 40
4.0
 40
4.0
 40
5.0
 40
5.0
 40
5.0
 40
6.0
 40
6.0
 40
6.0
 40
7.0
 40
7.0
 40
7.0
 40
8.0
 40
8.0
 40
8.0
 40
8.0
 10
108.6727810058179
 20
-143.8563354132546
 10
108.6727810058179
 20
-143.8563354132546
 10
108.3634114312425
 20
-143.8563354132546
 10
108.3634114312425
 20
-143.8563354132546
 10
108.2652262099129
 20
-143.8563354132546
 10
108.1429253201865
 20
-143.8627088399023
 10
108.0485297038906
 20
-143.8754556931978
 10
108.0485297038906
 20
-143.8754556931978
 10
108.0485297038906
 20
-143.6405001811037
 10
108.0485297038906
 20
-143.6405001811037
 10
108.1522270779966
 20
-143.6553140916903
 10
108.3134575467063
 20
-143.6596204610469
 10
108.3634114312425
 20
-143.6596204610469
 10
108.3634114312425
 20
-143.6596204610469
 10
108.6727810058179
 20
-143.6596204610469
 10
108.6727810058179
 20
-143.6596204610469
 10
108.6893174641471
 20
-143.6596204610469
 10
108.867084391186
 20
-143.6596204610469
 10
108.991107828655
 20
-143.6405001811037
 10
108.991107828655
 20
-143.6405001811037
 10
108.991107828655
 20
-143.8754556931978
 10
108.991107828655
 20
-143.8754556931978
 10
108.853993028342
 20
-143.8563354132546
 10
108.6875949164045
 20
-143.8563354132546
 10
108.6727810058179
 20
-143.8563354132546
 97
        0
 97
        1
330
C8
 92
        1
 93
        1
 72
     4
 94
        3
 73
     0
 74
     0
 95
       47
 96
       43
 40
0.0
 40
0.0
 40
0.0
 40
0.0
 40
1.0
 40
1.0
 40
1.0
 40
2.0
 40
2.0
 40
2.0
 40
3.0
 40
3.0
 40
3.0
 40
4.0
 40
4.0
 40
4.0
 40
5.0
 40
5.0
 40
5.0
 40
6.0
 40
6.0
 40
6.0
 40
7.0
 40
7.0
 40
7.0
 40
8.0
 40
8.0
 40
8.0
 40
9.0
 40
9.0
 40
9.0
 40
10.0
 40
10.0
 40
10.0
 40
11.0
 40
11.0
 40
11.0
 40
12.0
 40
12.0
 40
12.0
 40
13.0
 40
13.0
 40
13.0
 40
14.0
 40
14.0
 40
14.0
 40
14.0
 10
108.7616644693373
 20
-144.3851575702405
 10
108.7616644693373
 20
-144.3851575702405
 10
108.6727810058179
 20
-144.3851575702405
 10
108.6727810058179
 20
-144.3851575702405
 10
108.6727810058179
 20
-144.4719739764688
 10
108.6541774901975
 20
-144.861269766302
 10
108.4819227159351
 20
-145.0812391130352
 10
108.3485975206559
 20
-145.250393301361
 10
108.1670409885832
 20
-145.3203287397116
 10
108.0929714356503
 20
-145.3477172488193
 10
108.0929714356503
 20
-145.3477172488193
 10
107.922783718679
 20
-145.1806301177847
 10
107.922783718679
 20
-145.1806301177847
 10
108.0078775771647
 20
-145.1678832644893
 10
108.1615288358068
 20
-145.1446288699638
 10
108.3265489095503
 20
-144.9563544016949
 10
108.391316704673
 20
-144.8845241608275
 10
108.4819227159351
 20
-144.7448255389006
 10
108.4819227159351
 20
-144.3851575702405
 10
108.4819227159351
 20
-144.3851575702405
 10
108.2800401204994
 20
-144.3851575702405
 10
108.2800401204994
 20
-144.3851575702405
 10
108.1170871040471
 20
-144.3851575702405
 10
107.9541340875948
 20
-144.3894639395971
 10
107.7911810711425
 20
-144.4042778501836
 10
107.7911810711425
 20
-144.4042778501836
 10
107.7911810711425
 20
-144.1843085034505
 10
107.7911810711425
 20
-144.1843085034505
 10
107.9558566353374
 20
-144.199122414037
 10
108.2059705675666
 20
-144.2032565286193
 10
108.2800401204994
 20
-144.2032565286193
 10
108.2800401204994
 20
-144.2032565286193
 10
108.7616644693373
 20
-144.2032565286193
 10
108.7616644693373
 20
-144.2032565286193
 10
108.7782009276665
 20
-144.2032565286193
 10
109.0558756237777
 20
-144.2032565286193
 10
109.2560356714707
 20
-144.1843085034505
 10
109.2560356714707
 20
-144.1843085034505
 10
109.2560356714707
 20
-144.4042778501836
 10
109.2560356714707
 20
-144.4042778501836
 10
109.0910155977272
 20
-144.3894639395971
 10
108.9263400335323
 20
-144.3851575702405
 10
108.7616644693373
 20
-144.3851575702405
 97
        0
 97
        1
330
C9
 75
     2
 76
     1
 98
        1
 10
0.0
 20
0.0
450
        0
451
        0
460
0.0
461
0.0
452
        0
462
0.0
453
        0
470

  0
SPLINE
  5
CB
330
BB
100
AcDbEntity
  8
レイヤー 1
100
AcDbSpline
210
0.0
220
0.0
230
1.0
 70
     9
 71
     3
 72
    29
 73
    25
 74
     0
 42
0.0000000001
 43
0.0000000001
 40
0.0
 40
0.0
 40
0.0
 40
0.0
 40
1.0
 40
1.0
 40
1.0
 40
2.0
 40
2.0
 40
2.0
 40
3.0
 40
3.0
 40
3.0
 40
4.0
 40
4.0
 40
4.0
 40
5.0
 40
5.0
 40
5.0
 40
6.0
 40
6.0
 40
6.0
 40
7.0
 40
7.0
 40
7.0
 40
8.0
 40
8.0
 40
8.0
 40
8.0
 10
110.3784477805651
 20
-144.5481105866928
 30
0.0
 10
110.3784477805651
 20
-144.5481105866928
 30
0.0
 10
109.9543565263308
 20
-144.5481105866928
 30
0.0
 10
109.9543565263308
 20
-144.5481105866928
 30
0.0
 10
109.9302408579341
 20
-144.5481105866928
 30
0.0
 10
109.6522216522744
 20
-144.5481105866928
 30
0.0
 10
109.4672200247165
 20
-144.5734320385094
 30
0.0
 10
109.4672200247165
 20
-144.5734320385094
 30
0.0
 10
109.4672200247165
 20
-144.3429551505462
 30
0.0
 10
109.4672200247165
 20
-144.3429551505462
 30
0.0
 10
109.6060573727721
 20
-144.3662095450716
 30
0.0
 10
109.7727999942582
 20
-144.3682766023628
 30
0.0
 10
109.9543565263308
 20
-144.3682766023628
 30
0.0
 10
109.9543565263308
 20
-144.3682766023628
 30
0.0
 10
110.3784477805651
 20
-144.3682766023628
 30
0.0
 10
110.3784477805651
 20
-144.3682766023628
 30
0.0
 10
110.5410562874689
 20
-144.3682766023628
 30
0.0
 10
110.7043538134697
 20
-144.3662095450716
 30
0.0
 10
110.8652397726309
 20
-144.3429551505462
 30
0.0
 10
110.8652397726309
 20
-144.3429551505462
 30
0.0
 10
110.8652397726309
 20
-144.5734320385094
 30
0.0
 10
110.8652397726309
 20
-144.5734320385094
 30
0.0
 10
110.7043538134697
 20
-144.550177643984
 30
0.0
 10
110.4876573074475
 20
-144.5481105866928
 30
0.0
 10
110.3784477805651
 20
-144.5481105866928
 30
0.0
  0
HATCH
  5
CC
330
BB
100
AcDbEntity
  8
レイヤー 1
 62
   250
420
  2299925
440
 33554687
100
AcDbHatch
 10
0.0
 20
0.0
 30
0.0
210
0.0
220
0.0
230
1.0
  2
SOLID
 70
     1
 71
     1
 91
        1
 92
        1
 93
        1
 72
     4
 94
        3
 73
     0
 74
     0
 95
       29
 96
       25
 40
0.0
 40
0.0
 40
0.0
 40
0.0
 40
1.0
 40
1.0
 40
1.0
 40
2.0
 40
2.0
 40
2.0
 40
3.0
 40
3.0
 40
3.0
 40
4.0
 40
4.0
 40
4.0
 40
5.0
 40
5.0
 40
5.0
 40
6.0
 40
6.0
 40
6.0
 40
7.0
 40
7.0
 40
7.0
 40
8.0
 40
8.0
 40
8.0
 40
8.0
 10
110.3784477805651
 20
-144.5481105866928
 10
110.3784477805651
 20
-144.5481105866928
 10
109.9543565263308
 20
-144.5481105866928
 10
109.9543565263308
 20
-144.5481105866928
 10
109.9302408579341
 20
-144.5481105866928
 10
109.6522216522744
 20
-144.5481105866928
 10
109.4672200247165
 20
-144.5734320385094
 10
109.4672200247165
 20
-144.5734320385094
 10
109.4672200247165
 20
-144.3429551505462
 10
109.4672200247165
 20
-144.3429551505462
 10
109.6060573727721
 20
-144.3662095450716
 10
109.7727999942582
 20
-144.3682766023628
 10
109.9543565263308
 20
-144.3682766023628
 10
109.9543565263308
 20
-144.3682766023628
 10
110.3784477805651
 20
-144.3682766023628
 10
110.3784477805651
 20
-144.3682766023628
 10
110.5410562874689
 20
-144.3682766023628
 10
110.7043538134697
 20
-144.3662095450716
 10
110.8652397726309
 20
-144.3429551505462
 10
110.8652397726309
 20
-144.3429551505462
 10
110.8652397726309
 20
-144.5734320385094
 10
110.8652397726309
 20
-144.5734320385094
 10
110.7043538134697
 20
-144.550177643984
 10
110.4876573074475
 20
-144.5481105866928
 10
110.3784477805651
 20
-144.5481105866928
 97
        0
 97
        1
330
CB
 75
     2
 76
     1
 98
        1
 10
0.0
 20
0.0
450
        0
451
        0
460
0.0
461
0.0
452
        0
462
0.0
453
        0
470

  0
SPLINE
  5
CD
330
BB
100
AcDbEntity
  8
レイヤー 1
100
AcDbSpline
210
0.0
220
0.0
230
1.0
 70
     9
 71
     3
 72
    17
 73
    13
 74
     0
 42
0.0000000001
 43
0.0000000001
 40
0.0
 40
0.0
 40
0.0
 40
0.0
 40
1.0
 40
1.0
 40
1.0
 40
2.0
 40
2.0
 40
2.0
 40
3.0
 40
3.0
 40
3.0
 40
4.0
 40
4.0
 40
4.0
 40
4.0
 10
112.4968369944452
 20
-143.5812445387574
 30
0.0
 10
112.4486056576517
 20
-143.5812445387574
 30
0.0
 10
112.4096760786684
 20
-143.6256862705172
 30
0.0
 10
112.4096760786684
 20
-143.6808077982812
 30
0.0
 10
112.4096760786684
 20
-143.737824128562
 30
0.0
 10
112.4486056576517
 20
-143.7865722296783
 30
0.0
 10
112.500626599479
 20
-143.7865722296783
 30
0.0
 10
112.5523030317577
 20
-143.7865722296783
 30
0.0
 10
112.5874430057073
 20
-143.7357570712709
 30
0.0
 10
112.5874430057073
 20
-143.6828748555723
 30
0.0
 10
112.5874430057073
 20
-143.6256862705172
 30
0.0
 10
112.5467908789813
 20
-143.5812445387574
 30
0.0
 10
112.4968369944452
 20
-143.5812445387574
 30
0.0
  0
SPLINE
  5
CE
330
BB
100
AcDbEntity
  8
レイヤー 1
100
AcDbSpline
210
0.0
220
0.0
230
1.0
 70
     9
 71
     3
 72
    17
 73
    13
 74
     0
 42
0.0000000001
 43
0.0000000001
 40
0.0
 40
0.0
 40
0.0
 40
0.0
 40
1.0
 40
1.0
 40
1.0
 40
2.0
 40
2.0
 40
2.0
 40
3.0
 40
3.0
 40
3.0
 40
4.0
 40
4.0
 40
4.0
 40
4.0
 10
112.4985595421878
 20
-143.9112846862444
 30
0.0
 10
112.3876274675628
 20
-143.9112846862444
 30
0.0
 10
112.2987440040434
 20
-143.8098266242038
 30
0.0
 10
112.2987440040434
 20
-143.6828748555723
 30
0.0
 10
112.2987440040434
 20
-143.5559230869408
 30
0.0
 10
112.3876274675628
 20
-143.4522257128348
 30
0.0
 10
112.4985595421878
 20
-143.4522257128348
 30
0.0
 10
112.6098361263614
 20
-143.4522257128348
 30
0.0
 10
112.7004421376235
 20
-143.5559230869408
 30
0.0
 10
112.7004421376235
 20
-143.6828748555723
 30
0.0
 10
112.7004421376235
 20
-143.8098266242038
 30
0.0
 10
112.6098361263614
 20
-143.9112846862444
 30
0.0
 10
112.4985595421878
 20
-143.9112846862444
 30
0.0
  0
SPLINE
  5
CF
330
BB
100
AcDbEntity
  8
レイヤー 1
100
AcDbSpline
210
0.0
220
0.0
230
1.0
 70
     9
 71
     3
 72
    44
 73
    40
 74
     0
 42
0.0000000001
 43
0.0000000001
 40
0.0
 40
0.0
 40
0.0
 40
0.0
 40
1.0
 40
1.0
 40
1.0
 40
2.0
 40
2.0
 40
2.0
 40
3.0
 40
3.0
 40
3.0
 40
4.0
 40
4.0
 40
4.0
 40
5.0
 40
5.0
 40
5.0
 40
6.0
 40
6.0
 40
6.0
 40
7.0
 40
7.0
 40
7.0
 40
8.0
 40
8.0
 40
8.0
 40
9.0
 40
9.0
 40
9.0
 40
10.0
 40
10.0
 40
10.0
 40
11.0
 40
11.0
 40
11.0
 40
12.0
 40
12.0
 40
12.0
 40
13.0
 40
13.0
 40
13.0
 40
13.0
 10
112.3152804623726
 20
-144.1102389505175
 30
0.0
 10
112.2170952410429
 20
-144.4783474031165
 30
0.0
 10
112.1726535092832
 20
-144.6369940502123
 30
0.0
 10
112.0003987350207
 20
-144.8865912181186
 30
0.0
 10
111.8395127758595
 20
-145.1172403608561
 30
0.0
 10
111.6321180276475
 20
-145.3032755170596
 30
0.0
 10
111.3875162481948
 20
-145.3964653499356
 30
0.0
 10
111.3875162481948
 20
-145.3964653499356
 30
0.0
 10
111.2190510789661
 20
-145.2166313656055
 30
0.0
 10
111.2190510789661
 20
-145.2166313656055
 30
0.0
 10
111.7802571335132
 20
-145.0643581451575
 30
0.0
 10
112.0689561351772
 20
-144.5079752242897
 30
0.0
 10
112.1244221724897
 20
-144.067864276049
 30
0.0
 10
112.1244221724897
 20
-144.067864276049
 30
0.0
 10
111.4543511006086
 20
-144.067864276049
 30
0.0
 10
111.4543511006086
 20
-144.067864276049
 30
0.0
 10
111.3727023376082
 20
-144.067864276049
 30
0.0
 10
111.211816378447
 20
-144.0721706454056
 30
0.0
 10
111.0747015781341
 20
-144.0911186705744
 30
0.0
 10
111.0747015781341
 20
-144.0911186705744
 30
0.0
 10
111.0747015781341
 20
-143.8711493238412
 30
0.0
 10
111.0747015781341
 20
-143.8711493238412
 30
0.0
 10
111.1504936788096
 20
-143.8923366610755
 30
0.0
 10
111.3709797898656
 20
-143.8923366610755
 30
0.0
 10
111.4581407056424
 20
-143.8923366610755
 30
0.0
 10
111.4581407056424
 20
-143.8923366610755
 30
0.0
 10
111.8357231708258
 20
-143.8923366610755
 30
0.0
 10
111.8357231708258
 20
-143.8923366610755
 30
0.0
 10
111.8729302020665
 20
-143.8923366610755
 30
0.0
 10
112.0782578929873
 20
-143.8900973490101
 30
0.0
 10
112.1116753191943
 20
-143.8838961771367
 30
0.0
 10
112.1485378408864
 20
-143.8775227504889
 30
0.0
 10
112.1506048981776
 20
-143.8754556931978
 30
0.0
 10
112.2043483877475
 20
-143.8351480760204
 30
0.0
 10
112.2043483877475
 20
-143.8351480760204
 30
0.0
 10
112.3690239519424
 20
-143.9896606085338
 30
0.0
 10
112.3690239519424
 20
-143.9896606085338
 30
0.0
 10
112.3431857358031
 20
-144.019288429707
 30
0.0
 10
112.3300943729591
 20
-144.0509833081712
 30
0.0
 10
112.3152804623726
 20
-144.1102389505175
 30
0.0
  0
HATCH
  5
D0
330
BB
100
AcDbEntity
  8
レイヤー 1
 62
   250
420
  2299925
440
 33554687
100
AcDbHatch
 10
0.0
 20
0.0
 30
0.0
210
0.0
220
0.0
230
1.0
  2
SOLID
 70
     1
 71
     1
 91
        3
 92
        1
 93
        1
 72
     4
 94
        3
 73
     0
 74
     0
 95
       17
 96
       13
 40
0.0
 40
0.0
 40
0.0
 40
0.0
 40
1.0
 40
1.0
 40
1.0
 40
2.0
 40
2.0
 40
2.0
 40
3.0
 40
3.0
 40
3.0
 40
4.0
 40
4.0
 40
4.0
 40
4.0
 10
112.4968369944452
 20
-143.5812445387574
 10
112.4486056576517
 20
-143.5812445387574
 10
112.4096760786684
 20
-143.6256862705172
 10
112.4096760786684
 20
-143.6808077982812
 10
112.4096760786684
 20
-143.737824128562
 10
112.4486056576517
 20
-143.7865722296783
 10
112.500626599479
 20
-143.7865722296783
 10
112.5523030317577
 20
-143.7865722296783
 10
112.5874430057073
 20
-143.7357570712709
 10
112.5874430057073
 20
-143.6828748555723
 10
112.5874430057073
 20
-143.6256862705172
 10
112.5467908789813
 20
-143.5812445387574
 10
112.4968369944452
 20
-143.5812445387574
 97
        0
 97
        1
330
CD
 92
        1
 93
        1
 72
     4
 94
        3
 73
     0
 74
     0
 95
       17
 96
       13
 40
0.0
 40
0.0
 40
0.0
 40
0.0
 40
1.0
 40
1.0
 40
1.0
 40
2.0
 40
2.0
 40
2.0
 40
3.0
 40
3.0
 40
3.0
 40
4.0
 40
4.0
 40
4.0
 40
4.0
 10
112.4985595421878
 20
-143.9112846862444
 10
112.3876274675628
 20
-143.9112846862444
 10
112.2987440040434
 20
-143.8098266242038
 10
112.2987440040434
 20
-143.6828748555723
 10
112.2987440040434
 20
-143.5559230869408
 10
112.3876274675628
 20
-143.4522257128348
 10
112.4985595421878
 20
-143.4522257128348
 10
112.6098361263614
 20
-143.4522257128348
 10
112.7004421376235
 20
-143.5559230869408
 10
112.7004421376235
 20
-143.6828748555723
 10
112.7004421376235
 20
-143.8098266242038
 10
112.6098361263614
 20
-143.9112846862444
 10
112.4985595421878
 20
-143.9112846862444
 97
        0
 97
        1
330
CE
 92
        1
 93
        1
 72
     4
 94
        3
 73
     0
 74
     0
 95
       44
 96
       40
 40
0.0
 40
0.0
 40
0.0
 40
0.0
 40
1.0
 40
1.0
 40
1.0
 40
2.0
 40
2.0
 40
2.0
 40
3.0
 40
3.0
 40
3.0
 40
4.0
 40
4.0
 40
4.0
 40
5.0
 40
5.0
 40
5.0
 40
6.0
 40
6.0
 40
6.0
 40
7.0
 40
7.0
 40
7.0
 40
8.0
 40
8.0
 40
8.0
 40
9.0
 40
9.0
 40
9.0
 40
10.0
 40
10.0
 40
10.0
 40
11.0
 40
11.0
 40
11.0
 40
12.0
 40
12.0
 40
12.0
 40
13.0
 40
13.0
 40
13.0
 40
13.0
 10
112.3152804623726
 20
-144.1102389505175
 10
112.2170952410429
 20
-144.4783474031165
 10
112.1726535092832
 20
-144.6369940502123
 10
112.0003987350207
 20
-144.8865912181186
 10
111.8395127758595
 20
-145.1172403608561
 10
111.6321180276475
 20
-145.3032755170596
 10
111.3875162481948
 20
-145.3964653499356
 10
111.3875162481948
 20
-145.3964653499356
 10
111.2190510789661
 20
-145.2166313656055
 10
111.2190510789661
 20
-145.2166313656055
 10
111.7802571335132
 20
-145.0643581451575
 10
112.0689561351772
 20
-144.5079752242897
 10
112.1244221724897
 20
-144.067864276049
 10
112.1244221724897
 20
-144.067864276049
 10
111.4543511006086
 20
-144.067864276049
 10
111.4543511006086
 20
-144.067864276049
 10
111.3727023376082
 20
-144.067864276049
 10
111.211816378447
 20
-144.0721706454056
 10
111.0747015781341
 20
-144.0911186705744
 10
111.0747015781341
 20
-144.0911186705744
 10
111.0747015781341
 20
-143.8711493238412
 10
111.0747015781341
 20
-143.8711493238412
 10
111.1504936788096
 20
-143.8923366610755
 10
111.3709797898656
 20
-143.8923366610755
 10
111.4581407056424
 20
-143.8923366610755
 10
111.4581407056424
 20
-143.8923366610755
 10
111.8357231708258
 20
-143.8923366610755
 10
111.8357231708258
 20
-143.8923366610755
 10
111.8729302020665
 20
-143.8923366610755
 10
112.0782578929873
 20
-143.8900973490101
 10
112.1116753191943
 20
-143.8838961771367
 10
112.1485378408864
 20
-143.8775227504889
 10
112.1506048981776
 20
-143.8754556931978
 10
112.2043483877475
 20
-143.8351480760204
 10
112.2043483877475
 20
-143.8351480760204
 10
112.3690239519424
 20
-143.9896606085338
 10
112.3690239519424
 20
-143.9896606085338
 10
112.3431857358031
 20
-144.019288429707
 10
112.3300943729591
 20
-144.0509833081712
 10
112.3152804623726
 20
-144.1102389505175
 97
        0
 97
        1
330
CF
 75
     2
 76
     1
 98
        1
 10
0.0
 20
0.0
450
        0
451
        0
460
0.0
461
0.0
452
        0
462
0.0
453
        0
470

  0
ENDBLK
  5
BE
330
BB
100
AcDbEntity
  8
0
100
AcDbBlockEnd
  0
ENDSEC
  0
SECTION
  2
ENTITIES
  0
LINE
  5
79
330
70
100
AcDbEntity
  8
レイヤー 1
 62
   250
420
  2299925
370
    25
100
AcDbLine
 10
98.25024779102056
 20
-138.6954981772528
 30
0.0
 11
98.25024779102056
 21
-153.6954328957252
 31
0.0
  0
LINE
  5
7A
330
70
100
AcDbEntity
  8
レイヤー 1
 62
   250
420
  2299925
370
    25
100
AcDbLine
 10
113.2505349083313
 20
-152.6953078959749
 30
0.0
 11
113.2505349083313
 21
-153.6954328957252
 31
0.0
  0
LINE
  5
7B
330
70
100
AcDbEntity
  8
レイヤー 1
 62
   250
420
  2299925
370
    25
100
AcDbLine
 10
98.25024779102056
 20
-153.6954328957252
 30
0.0
 11
113.2505349083313
 21
-153.6954328957252
 31
0.0
  0
LINE
  5
7C
330
70
100
AcDbEntity
  8
レイヤー 1
 62
   250
420
  2299925
370
    25
100
AcDbLine
 10
98.25024779102056
 20
-138.6954981772528
 30
0.0
 11
99.25069026549778
 21
-138.6954981772528
 31
0.0
  0
LINE
  5
7D
330
70
100
AcDbEntity
  8
レイヤー 1
 62
   250
420
  2299925
370
    25
100
AcDbLine
 10
99.25069026549778
 20
-138.6954981772528
 30
0.0
 11
99.25069026549778
 21
-152.6953078959749
 31
0.0
  0
LINE
  5
7E
330
70
100
AcDbEntity
  8
レイヤー 1
 62
   250
420
  2299925
370
    25
100
AcDbLine
 10
99.25069026549778
 20
-152.6953078959749
 30
0.0
 11
113.2505349083313
 21
-152.6953078959749
 31
0.0
  0
CIRCLE
  5
7F
330
70
100
AcDbEntity
  8
レイヤー 1
 62
   250
420
  2299925
370
     9
100
AcDbCircle
 10
117.2499411951869
 20
-152.6953078959749
 30
0.0
 40
0.0999066653797365
  0
SPLINE
  5
80
330
70
100
AcDbEntity
  8
レイヤー 1
 62
   250
420
  2299925
370
     9
100
AcDbSpline
210
0.0
220
0.0
230
1.0
 70
     9
 71
     3
 72
    17
 73
    13
 74
     0
 42
0.0000000001
 43
0.0000000001
 40
0.0
 40
0.0
 40
0.0
 40
0.0
 40
1.0
 40
1.0
 40
1.0
 40
2.0
 40
2.0
 40
2.0
 40
3.0
 40
3.0
 40
3.0
 40
4.0
 40
4.0
 40
4.0
 40
4.0
 10
117.3498478593047
 20
-153.6954328957252
 30
0.0
 10
117.3498478593047
 20
-153.6399762290719
 30
0.0
 10
117.3050828364887
 20
-153.5951734513052
 30
0.0
 10
117.2499411951869
 20
-153.5951734513052
 30
0.0
 10
117.1948373077038
 20
-153.5951734513052
 30
0.0
 10
117.150034531069
 20
-153.6399762290719
 30
0.0
 10
117.150034531069
 20
-153.6954328957252
 30
0.0
 10
117.150034531069
 20
-153.7505367846001
 30
0.0
 10
117.1948373077038
 20
-153.7953395623668
 30
0.0
 10
117.2499411951869
 20
-153.7953395623668
 30
0.0
 10
117.3050828364887
 20
-153.7953395623668
 30
0.0
 10
117.3498478593047
 20
-153.7505367846001
 30
0.0
 10
117.3498478593047
 20
-153.6954328957252
 30
0.0
  0
SPLINE
  5
81
330
70
100
AcDbEntity
  8
レイヤー 1
 62
   250
420
  2299925
370
     9
100
AcDbSpline
210
0.0
220
0.0
230
1.0
 70
     9
 71
     3
 72
    17
 73
    13
 74
     0
 42
0.0000000001
 43
0.0000000001
 40
0.0
 40
0.0
 40
0.0
 40
0.0
 40
1.0
 40
1.0
 40
1.0
 40
2.0
 40
2.0
 40
2.0
 40
3.0
 40
3.0
 40
3.0
 40
4.0
 40
4.0
 40
4.0
 40
4.0
 10
113.3504439485888
 20
-157.6951920613914
 30
0.0
 10
113.3504439485888
 20
-157.640052894739
 30
0.0
 10
113.3056411708221
 20
-157.5952853947504
 30
0.0
 10
113.2505349083313
 20
-157.5952853947504
 30
0.0
 10
113.1953957430714
 20
-157.5952853947504
 30
0.0
 10
113.1506282442135
 20
-157.640052894739
 30
0.0
 10
113.1506282442135
 20
-157.6951920613914
 30
0.0
 10
113.1506282442135
 20
-157.7506487280448
 30
0.0
 10
113.1953957430714
 20
-157.7950987280337
 30
0.0
 10
113.2505349083313
 20
-157.7950987280337
 30
0.0
 10
113.3056411708221
 20
-157.7950987280337
 30
0.0
 10
113.3504439485888
 20
-157.7506487280448
 30
0.0
 10
113.3504439485888
 20
-157.6951920613914
 30
0.0
  0
SPLINE
  5
82
330
70
100
AcDbEntity
  8
レイヤー 1
 62
   250
420
  2299925
370
     9
100
AcDbSpline
210
0.0
220
0.0
230
1.0
 70
     9
 71
     3
 72
    17
 73
    13
 74
     0
 42
0.0000000001
 43
0.0000000001
 40
0.0
 40
0.0
 40
0.0
 40
0.0
 40
1.0
 40
1.0
 40
1.0
 40
2.0
 40
2.0
 40
2.0
 40
3.0
 40
3.0
 40
3.0
 40
4.0
 40
4.0
 40
4.0
 40
4.0
 10
98.35082473289908
 20
-157.6951920613914
 30
0.0
 10
98.35082473289908
 20
-157.640052894739
 30
0.0
 10
98.30605723404119
 20
-157.5952853947504
 30
0.0
 10
98.25024779102056
 20
-157.5952853947504
 30
0.0
 10
98.19511061904435
 20
-157.5952853947504
 30
0.0
 10
98.15034112690272
 20
-157.640052894739
 30
0.0
 10
98.15034112690272
 20
-157.6951920613914
 30
0.0
 10
98.15034112690272
 20
-157.7506487280448
 30
0.0
 10
98.19511061904435
 20
-157.7950987280337
 30
0.0
 10
98.25024779102056
 20
-157.7950987280337
 30
0.0
 10
98.30605723404119
 20
-157.7950987280337
 30
0.0
 10
98.35082473289908
 20
-157.7506487280448
 30
0.0
 10
98.35082473289908
 20
-157.6951920613914
 30
0.0
  0
SPLINE
  5
83
330
70
100
AcDbEntity
  8
レイヤー 1
 62
   250
420
  2299925
370
     9
100
AcDbSpline
210
0.0
220
0.0
230
1.0
 70
     9
 71
     3
 72
    17
 73
    13
 74
     0
 42
0.0000000001
 43
0.0000000001
 40
0.0
 40
0.0
 40
0.0
 40
0.0
 40
1.0
 40
1.0
 40
1.0
 40
2.0
 40
2.0
 40
2.0
 40
3.0
 40
3.0
 40
3.0
 40
4.0
 40
4.0
 40
4.0
 40
4.0
 10
94.35039539051407
 20
-153.6954328957252
 30
0.0
 10
94.35039539051407
 20
-153.6399762290719
 30
0.0
 10
94.30559261387932
 20
-153.5951734513052
 30
0.0
 10
94.25048872639624
 20
-153.5951734513052
 30
0.0
 10
94.19534956113629
 20
-153.5951734513052
 30
0.0
 10
94.1505820622784
 20
-153.6399762290719
 30
0.0
 10
94.1505820622784
 20
-153.6954328957252
 30
0.0
 10
94.1505820622784
 20
-153.7505367846001
 30
0.0
 10
94.19534956113629
 20
-153.7953395623668
 30
0.0
 10
94.25048872639624
 20
-153.7953395623668
 30
0.0
 10
94.30559261387932
 20
-153.7953395623668
 30
0.0
 10
94.35039539051407
 20
-153.7505367846001
 30
0.0
 10
94.35039539051407
 20
-153.6954328957252
 30
0.0
  0
SPLINE
  5
84
330
70
100
AcDbEntity
  8
レイヤー 1
 62
   250
420
  2299925
370
     9
100
AcDbSpline
210
0.0
220
0.0
230
1.0
 70
     9
 71
     3
 72
    17
 73
    13
 74
     0
 42
0.0000000001
 43
0.0000000001
 40
0.0
 40
0.0
 40
0.0
 40
0.0
 40
1.0
 40
1.0
 40
1.0
 40
2.0
 40
2.0
 40
2.0
 40
3.0
 40
3.0
 40
3.0
 40
4.0
 40
4.0
 40
4.0
 40
4.0
 10
94.35039539051407
 20
-138.6954981772528
 30
0.0
 10
94.35039539051407
 20
-138.640006232822
 30
0.0
 10
94.30559261387932
 20
-138.5952387328334
 30
0.0
 10
94.25048872639624
 20
-138.5952387328334
 30
0.0
 10
94.19534956113629
 20
-138.5952387328334
 30
0.0
 10
94.1505820622784
 20
-138.640006232822
 30
0.0
 10
94.1505820622784
 20
-138.6954981772528
 30
0.0
 10
94.1505820622784
 20
-138.7506020661278
 30
0.0
 10
94.19534956113629
 20
-138.7954048438945
 30
0.0
 10
94.25048872639624
 20
-138.7954048438945
 30
0.0
 10
94.30559261387932
 20
-138.7954048438945
 30
0.0
 10
94.35039539051407
 20
-138.7506020661278
 30
0.0
 10
94.35039539051407
 20
-138.6954981772528
 30
0.0
  0
LINE
  5
85
330
70
100
AcDbEntity
  8
レイヤー 1
 62
   250
420
  2299925
370
     9
100
AcDbLine
 10
117.2499411951869
 20
-152.6953078959749
 30
0.0
 11
117.2499411951869
 21
-148.9249953969175
 31
0.0
  0
LINE
  5
86
330
70
100
AcDbEntity
  8
レイヤー 1
 62
   250
420
  2299925
370
     9
100
AcDbLine
 10
117.2499411951869
 20
-152.6953078959749
 30
0.0
 11
117.2499411951869
 21
-154.6952051176971
 31
0.0
  0
LINE
  5
87
330
70
100
AcDbEntity
  8
レイヤー 1
 62
   250
420
  2299925
370
     9
100
AcDbLine
 10
115.7902550590904
 20
-152.6953078959749
 30
0.0
 11
118.2507364474322
 21
-152.6953078959749
 31
0.0
  0
LINE
  5
88
330
70
100
AcDbEntity
  8
レイヤー 1
 62
   250
420
  2299925
370
     9
100
AcDbLine
 10
115.7902550590904
 20
-153.6954328957252
 30
0.0
 11
118.2507364474322
 21
-153.6954328957252
 31
0.0
  0
INSERT
  5
8A
330
70
100
AcDbEntity
  8
レイヤー 1
100
AcDbBlockReference
  2
Block_0
 10
0.0
 20
0.0
 30
0.0
  0
LINE
  5
8F
330
70
100
AcDbEntity
  8
レイヤー 1
 62
   250
420
  2299925
370
     9
100
AcDbLine
 10
94.25048872639624
 20
-138.6954981772528
 30
0.0
 11
94.25048872639624
 21
-153.6954328957252
 31
0.0
  0
LINE
  5
90
330
70
100
AcDbEntity
  8
レイヤー 1
 62
   250
420
  2299925
370
     9
100
AcDbLine
 10
95.71053007803637
 20
-138.6954981772528
 30
0.0
 11
93.25036375191157
 21
-138.6954981772528
 31
0.0
  0
LINE
  5
91
330
70
100
AcDbEntity
  8
レイヤー 1
 62
   250
420
  2299925
370
     9
100
AcDbLine
 10
95.71053007803637
 20
-153.6954328957252
 30
0.0
 11
93.25036375191157
 21
-153.6954328957252
 31
0.0
  0
INSERT
  5
93
330
70
100
AcDbEntity
  8
レイヤー 1
100
AcDbBlockReference
  2
Block_1
 10
0.0
 20
0.0
 30
0.0
  0
LINE
  5
9E
330
70
100
AcDbEntity
  8
レイヤー 1
 62
   250
420
  2299925
370
     9
100
AcDbLine
 10
98.25024779102056
 20
-157.6951920613914
 30
0.0
 11
113.2505349083313
 21
-157.6951920613914
 31
0.0
  0
LINE
  5
9F
330
70
100
AcDbEntity
  8
レイヤー 1
 62
   250
420
  2299925
370
     9
100
AcDbLine
 10
98.25024779102056
 20
-156.2351506728677
 30
0.0
 11
98.25024779102056
 21
-158.6952817833642
 31
0.0
  0
LINE
  5
A0
330
70
100
AcDbEntity
  8
レイヤー 1
 62
   250
420
  2299925
370
     9
100
AcDbLine
 10
113.2505349083313
 20
-156.2351506728677
 30
0.0
 11
113.2505349083313
 21
-158.6952817833642
 31
0.0
  0
INSERT
  5
A2
330
70
100
AcDbEntity
  8
レイヤー 1
100
AcDbBlockReference
  2
Block_3
 10
0.0
 20
0.0
 30
0.0
  0
LINE
  5
AD
330
70
100
AcDbEntity
  8
レイヤー 1
  6
AI-Linetype-0
 62
   154
420
    23468
370
    25
100
AcDbLine
 10
99.76126553024906
 20
-138.6954981772528
 30
0.0
 11
99.76126553024906
 21
-148.695548730308
 31
0.0
  0
LINE
  5
AF
330
70
100
AcDbEntity
  8
レイヤー 1
  6
AI-Linetype-1
 62
   154
420
    23468
370
    25
100
AcDbLine
 10
103.0506360018857
 20
-151.7813312295367
 30
0.0
 11
113.0503688023269
 21
-151.7813312295367
 31
0.0
  0
LINE
  5
B1
330
70
100
AcDbEntity
  8
レイヤー 1
 62
   250
420
  2299925
370
     9
100
AcDbLine
 10
100.261151628607
 20
-144.4777376202519
 30
0.0
 11
103.4357987698372
 21
-144.4777376202519
 31
0.0
  0
LINE
  5
B2
330
70
100
AcDbEntity
  8
レイヤー 1
 62
   250
420
  2299925
370
     9
100
AcDbLine
 10
100.261151628607
 20
-144.4777376202519
 30
0.0
 11
101.2271629928509
 21
-144.2190103980941
 31
0.0
  0
LINE
  5
B3
330
70
100
AcDbEntity
  8
レイヤー 1
 62
   250
420
  2299925
370
     9
100
AcDbLine
 10
100.261151628607
 20
-144.4777376202519
 30
0.0
 11
101.2271629928509
 21
-144.7364648424095
 31
0.0
  0
LINE
  5
B4
330
70
100
AcDbEntity
  8
レイヤー 1
 62
   250
420
  2299925
370
     9
100
AcDbLine
 10
105.0508506730782
 20
-151.281092340773
 30
0.0
 11
105.3092603887079
 21
-150.3151162299035
 31
0.0
  0
LINE
  5
B5
330
70
100
AcDbEntity
  8
レイヤー 1
 62
   250
420
  2299925
370
     9
100
AcDbLine
 10
105.0508506730782
 20
-151.281092340773
 30
0.0
 11
105.0508506730782
 21
-146.0287251198638
 31
0.0
  0
LINE
  5
B6
330
70
100
AcDbEntity
  8
レイヤー 1
 62
   250
420
  2299925
370
     9
100
AcDbLine
 10
105.0508506730782
 20
-151.281092340773
 30
0.0
 11
104.7918059574648
 21
-150.3151162299035
 31
0.0
  0
INSERT
  5
B8
330
70
100
AcDbEntity
  8
レイヤー 1
100
AcDbBlockReference
  2
Block_5
 10
0.0
 20
0.0
 30
0.0
  0
ENDSEC
  0
SECTION
  2
OBJECTS
  0
DICTIONARY
  5
C
330
0
100
AcDbDictionary
281
     1
  3
ACAD_COLOR
350
63
  3
ACAD_DETAILVIEWSTYLE
350
6A
  3
ACAD_GROUP
350
D
  3
ACAD_LAYOUT
350
62
  3
ACAD_MATERIAL
350
10
  3
ACAD_MLEADERSTYLE
350
66
  3
ACAD_MLINESTYLE
350
5F
  3
ACAD_PLOTSETTINGS
350
61
  3
ACAD_PLOTSTYLENAME
350
E
  3
ACAD_SCALELIST
350
42
  3
ACAD_SECTIONVIEWSTYLE
350
68
  3
ACAD_TABLESTYLE
350
64
  3
ACAD_VISUALSTYLE
350
29
  3
ACDB_RECOMPOSE_DATA
350
D9
  3
AcDbVariableDictionary
350
D1
  0
DICTIONARY
  5
63
102
{ACAD_REACTORS
330
C
102
}
330
C
100
AcDbDictionary
281
     1
  0
DICTIONARY
  5
6A
102
{ACAD_REACTORS
330
C
102
}
330
C
100
AcDbDictionary
281
     1
  3
Imperial24
350
6B
  0
DICTIONARY
  5
D
102
{ACAD_REACTORS
330
C
102
}
330
C
100
AcDbDictionary
281
     1
  0
DICTIONARY
  5
62
102
{ACAD_REACTORS
330
C
102
}
330
C
100
AcDbDictionary
281
     1
  3
Layout1
350
6F
  3
Layout2
350
77
  3
Model
350
73
  0
DICTIONARY
  5
10
102
{ACAD_REACTORS
330
C
102
}
330
C
100
AcDbDictionary
281
     1
  3
ByBlock
350
19
  3
ByLayer
350
11
  3
Global
350
21
  0
DICTIONARY
  5
66
102
{ACAD_REACTORS
330
C
102
}
330
C
100
AcDbDictionary
281
     1
  3
Standard
350
67
  0
DICTIONARY
  5
5F
102
{ACAD_REACTORS
330
C
102
}
330
C
100
AcDbDictionary
281
     1
  3
Standard
350
60
  0
DICTIONARY
  5
61
102
{ACAD_REACTORS
330
C
102
}
330
C
100
AcDbDictionary
281
     1
  0
ACDBDICTIONARYWDFLT
  5
E
102
{ACAD_REACTORS
330
C
102
}
330
C
100
AcDbDictionary
281
     1
  3
Normal
350
F
100
AcDbDictionaryWithDefault
340
F
  0
DICTIONARY
  5
42
102
{ACAD_REACTORS
330
C
102
}
330
C
100
AcDbDictionary
281
     1
  3
A0
350
43
  3
A1
350
44
  3
A2
350
45
  3
A3
350
46
  3
A4
350
47
  3
A5
350
48
  3
A6
350
49
  3
A7
350
4A
  3
A8
350
4B
  3
A9
350
4C
  3
B0
350
4D
  3
B1
350
4E
  3
B2
350
4F
  3
B3
350
50
  3
B4
350
51
  3
B5
350
52
  3
B6
350
53
  0
DICTIONARY
  5
68
102
{ACAD_REACTORS
330
C
102
}
330
C
100
AcDbDictionary
281
     1
  3
Imperial24
350
69
  0
DICTIONARY
  5
64
102
{ACAD_REACTORS
330
C
102
}
330
C
100
AcDbDictionary
281
     1
  3
Standard
350
65
  0
DICTIONARY
  5
29
102
{ACAD_REACTORS
330
C
102
}
330
C
100
AcDbDictionary
281
     1
  3
2dWireframe
350
2F
  3
Basic
350
2E
  3
Brighten
350
35
  3
ColorChange
350
39
  3
Conceptual
350
32
  3
Dim
350
34
  3
EdgeColorOff
350
41
  3
Facepattern
350
38
  3
Flat
350
2A
  3
FlatWithEdges
350
2B
  3
Gouraud
350
2C
  3
GouraudWithEdges
350
2D
  3
Hidden
350
31
  3
JitterOff
350
3F
  3
Linepattern
350
37
  3
OverhangOff
350
40
  3
Realistic
350
33
  3
Shaded
350
3E
  3
Shaded with edges
350
3D
  3
Shades of Gray
350
3A
  3
Sketchy
350
3B
  3
Thicken
350
36
  3
Wireframe
350
30
  3
X-Ray
350
3C
  0
XRECORD
  5
D9
102
{ACAD_REACTORS
330
C
102
}
330
C
100
AcDbXrecord
280
     1
 90
        1
330
65
  0
DICTIONARY
  5
D1
102
{ACAD_REACTORS
330
C
102
}
330
C
100
AcDbDictionary
281
     1
  3
CANNOSCALE
350
D6
  3
CMLEADERSTYLE
350
D3
  3
CTABLESTYLE
350
D2
  3
CVIEWDETAILSTYLE
350
D4
  3
CVIEWSECTIONSTYLE
350
D5
  0
ACDBDETAILVIEWSTYLE
  5
6B
102
{ACAD_XDICTIONARY
360
10E
102
}
102
{ACAD_REACTORS
330
6A
102
}
330
6A
100
AcDbModelDocViewStyle
 70
     0
  3
Imperial24
290
     0
100
AcDbDetailViewStyle
 70
     0
 71
     0
 90
        3
 71
     1
340
55
 62
   256
 40
0.24
340
0
 62
   256
 40
0.24
300

 40
0.36
280
     3
 71
     2
340
5D
 90
       25
 62
   256
 71
     3
340
55
 62
   256
 40
0.24
 90
        1
 40
0.75
 90
        1
300
%<\AcVar ViewType \f "%tc1">% %<\AcVar ViewDetailId>%\PSCALE %<\AcVar ViewScale \f "%sn">%
 71
     4
340
5D
 90
       25
 62
   256
340
5D
 90
       25
 62
   256
280
     0
  0
LAYOUT
  5
6F
102
{ACAD_REACTORS
330
62
102
}
330
62
100
AcDbPlotSettings
  1

  2

  4

  6

 40
0.0
 41
0.0
 42
0.0
 43
0.0
 44
0.0
 45
0.0
 46
0.0
 47
0.0
 48
0.0
 49
0.0
140
0.0
141
0.0
142
1.0
143
1.0
 70
   688
 72
     0
 73
     0
 74
     5
  7

 75
    16
147
1.0
 76
     0
 77
     2
 78
   300
148
0.0
149
0.0
100
AcDbLayout
  1
Layout1
 70
     1
 71
     1
 10
0.0
 20
0.0
 11
12.0
 21
9.0
 12
0.0
 22
0.0
 32
0.0
 14
0.0
 24
0.0
 34
0.0
 15
0.0
 25
0.0
 35
0.0
146
0.0
 13
0.0
 23
0.0
 33
0.0
 16
1.0
 26
0.0
 36
0.0
 17
0.0
 27
1.0
 37
0.0
 76
     0
330
6C
  0
LAYOUT
  5
77
102
{ACAD_REACTORS
330
62
102
}
330
62
100
AcDbPlotSettings
  1

  2

  4

  6

 40
0.0
 41
0.0
 42
0.0
 43
0.0
 44
0.0
 45
0.0
 46
0.0
 47
0.0
 48
0.0
 49
0.0
140
0.0
141
0.0
142
1.0
143
1.0
 70
   688
 72
     0
 73
     0
 74
     5
  7

 75
    16
147
1.0
 76
     0
 77
     2
 78
   300
148
0.0
149
0.0
100
AcDbLayout
  1
Layout2
 70
     1
 71
     2
 10
0.0
 20
0.0
 11
12.0
 21
9.0
 12
0.0
 22
0.0
 32
0.0
 14
0.0
 24
0.0
 34
0.0
 15
0.0
 25
0.0
 35
0.0
146
0.0
 13
0.0
 23
0.0
 33
0.0
 16
1.0
 26
0.0
 36
0.0
 17
0.0
 27
1.0
 37
0.0
 76
     0
330
74
  0
LAYOUT
  5
73
102
{ACAD_REACTORS
330
62
102
}
330
62
100
AcDbPlotSettings
  1

  2

  4

  6

 40
0.0
 41
0.0
 42
0.0
 43
0.0
 44
0.0
 45
0.0
 46
0.0
 47
0.0
 48
0.0
 49
0.0
140
0.0
141
0.0
142
1.0
143
1.0
 70
  1712
 72
     0
 73
     0
 74
     0
  7

 75
     0
147
1.0
 76
     0
 77
     2
 78
   300
148
0.0
149
0.0
100
AcDbLayout
  1
Model
 70
     1
 71
     0
 10
0.0
 20
0.0
 11
12.0
 21
9.0
 12
0.0
 22
0.0
 32
0.0
 14
0.0
 24
0.0
 34
0.0
 15
0.0
 25
0.0
 35
0.0
146
0.0
 13
0.0
 23
0.0
 33
0.0
 16
1.0
 26
0.0
 36
0.0
 17
0.0
 27
1.0
 37
0.0
 76
     0
330
70
  0
MATERIAL
  5
19
102
{ACAD_XDICTIONARY
360
1A
102
}
102
{ACAD_REACTORS
330
10
102
}
330
10
100
AcDbMaterial
  1
ByBlock
 72
     0
 43
0.0208333333333333
 43
0.0
 43
0.0
 43
0.0
 43
0.0
 43
0.0208333333333333
 43
0.0
 43
0.0
 43
0.0
 43
0.0
 43
1.0
 43
0.0
 43
0.0
 43
0.0
 43
0.0
 43
1.0
 77
     0
 47
0.0208333333333333
 47
0.0
 47
0.0
 47
0.0
 47
0.0
 47
0.0208333333333333
 47
0.0
 47
0.0
 47
0.0
 47
0.0
 47
1.0
 47
0.0
 47
0.0
 47
0.0
 47
0.0
 47
1.0
171
     0
 49
0.0208333333333333
 49
0.0
 49
0.0
 49
0.0
 49
0.0
 49
0.0208333333333333
 49
0.0
 49
0.0
 49
0.0
 49
0.0
 49
1.0
 49
0.0
 49
0.0
 49
0.0
 49
0.0
 49
1.0
175
     0
142
0.0208333333333333
142
0.0
142
0.0
142
0.0
142
0.0
142
0.0208333333333333
142
0.0
142
0.0
142
0.0
142
0.0
142
1.0
142
0.0
142
0.0
142
0.0
142
0.0
142
1.0
179
     0
144
0.0208333333333333
144
0.0
144
0.0
144
0.0
144
0.0
144
0.0208333333333333
144
0.0
144
0.0
144
0.0
144
0.0
144
1.0
144
0.0
144
0.0
144
0.0
144
0.0
144
1.0
147
0.0208333333333333
147
0.0
147
0.0
147
0.0
147
0.0
147
0.0208333333333333
147
0.0
147
0.0
147
0.0
147
0.0
147
1.0
147
0.0
147
0.0
147
0.0
147
0.0
147
1.0
  0
MATERIAL
  5
11
102
{ACAD_XDICTIONARY
360
12
102
}
102
{ACAD_REACTORS
330
10
102
}
330
10
100
AcDbMaterial
  1
ByLayer
 72
     0
 43
0.0208333333333333
 43
0.0
 43
0.0
 43
0.0
 43
0.0
 43
0.0208333333333333
 43
0.0
 43
0.0
 43
0.0
 43
0.0
 43
1.0
 43
0.0
 43
0.0
 43
0.0
 43
0.0
 43
1.0
 77
     0
 47
0.0208333333333333
 47
0.0
 47
0.0
 47
0.0
 47
0.0
 47
0.0208333333333333
 47
0.0
 47
0.0
 47
0.0
 47
0.0
 47
1.0
 47
0.0
 47
0.0
 47
0.0
 47
0.0
 47
1.0
171
     0
 49
0.0208333333333333
 49
0.0
 49
0.0
 49
0.0
 49
0.0
 49
0.0208333333333333
 49
0.0
 49
0.0
 49
0.0
 49
0.0
 49
1.0
 49
0.0
 49
0.0
 49
0.0
 49
0.0
 49
1.0
175
     0
142
0.0208333333333333
142
0.0
142
0.0
142
0.0
142
0.0
142
0.0208333333333333
142
0.0
142
0.0
142
0.0
142
0.0
142
1.0
142
0.0
142
0.0
142
0.0
142
0.0
142
1.0
179
     0
144
0.0208333333333333
144
0.0
144
0.0
144
0.0
144
0.0
144
0.0208333333333333
144
0.0
144
0.0
144
0.0
144
0.0
144
1.0
144
0.0
144
0.0
144
0.0
144
0.0
144
1.0
147
0.0208333333333333
147
0.0
147
0.0
147
0.0
147
0.0
147
0.0208333333333333
147
0.0
147
0.0
147
0.0
147
0.0
147
1.0
147
0.0
147
0.0
147
0.0
147
0.0
147
1.0
  0
MATERIAL
  5
21
102
{ACAD_XDICTIONARY
360
22
102
}
102
{ACAD_REACTORS
330
10
102
}
330
10
100
AcDbMaterial
  1
Global
 72
     0
 43
0.0208333333333333
 43
0.0
 43
0.0
 43
0.0
 43
0.0
 43
0.0208333333333333
 43
0.0
 43
0.0
 43
0.0
 43
0.0
 43
1.0
 43
0.0
 43
0.0
 43
0.0
 43
0.0
 43
1.0
 77
     0
 47
0.0208333333333333
 47
0.0
 47
0.0
 47
0.0
 47
0.0
 47
0.0208333333333333
 47
0.0
 47
0.0
 47
0.0
 47
0.0
 47
1.0
 47
0.0
 47
0.0
 47
0.0
 47
0.0
 47
1.0
171
     0
 49
0.0208333333333333
 49
0.0
 49
0.0
 49
0.0
 49
0.0
 49
0.0208333333333333
 49
0.0
 49
0.0
 49
0.0
 49
0.0
 49
1.0
 49
0.0
 49
0.0
 49
0.0
 49
0.0
 49
1.0
175
     0
142
0.0208333333333333
142
0.0
142
0.0
142
0.0
142
0.0
142
0.0208333333333333
142
0.0
142
0.0
142
0.0
142
0.0
142
1.0
142
0.0
142
0.0
142
0.0
142
0.0
142
1.0
179
     0
144
0.0208333333333333
144
0.0
144
0.0
144
0.0
144
0.0
144
0.0208333333333333
144
0.0
144
0.0
144
0.0
144
0.0
144
1.0
144
0.0
144
0.0
144
0.0
144
0.0
144
1.0
147
0.0208333333333333
147
0.0
147
0.0
147
0.0
147
0.0
147
0.0208333333333333
147
0.0
147
0.0
147
0.0
147
0.0
147
1.0
147
0.0
147
0.0
147
0.0
147
0.0
147
1.0
  0
MLEADERSTYLE
  5
67
102
{ACAD_XDICTIONARY
360
10A
102
}
102
{ACAD_REACTORS
330
66
102
}
330
66
100
AcDbMLeaderStyle
179
     2
170
     2
171
     1
172
     0
 90
        2
 40
0.0
 41
0.0
173
     1
 91
-1056964608
340
5B
 92
       -2
290
     1
 42
0.09
291
     1
 43
0.36
  3
Standard
 44
0.18
300

342
55
174
     1
178
     6
175
     1
176
     0
 93
-1056964608
 45
0.18
292
     0
297
     0
 46
0.18
 94
-1056964608
 47
1.0
 49
1.0
140
1.0
293
     1
141
0.0
294
     1
177
     0
142
1.0
295
     0
296
     0
143
0.125
271
     0
272
     9
273
     9
  0
MLINESTYLE
  5
60
102
{ACAD_REACTORS
330
5F
102
}
330
5F
100
AcDbMlineStyle
  2
STANDARD
 70
     0
  3

 62
   256
 51
90.0
 52
90.0
 71
     2
 49
0.5
 62
   256
  6
BYLAYER
 49
-0.5
 62
   256
  6
BYLAYER
  0
ACDBPLACEHOLDER
  5
F
102
{ACAD_REACTORS
330
E
102
}
330
E
  0
SCALE
  5
43
102
{ACAD_REACTORS
330
42
102
}
330
42
100
AcDbScale
 70
     0
300
1:1
140
1.0
141
1.0
290
     1
  0
SCALE
  5
44
102
{ACAD_REACTORS
330
42
102
}
330
42
100
AcDbScale
 70
     0
300
1/128" = 1'-0"
140
0.0078125
141
12.0
290
     0
  0
SCALE
  5
45
102
{ACAD_REACTORS
330
42
102
}
330
42
100
AcDbScale
 70
     0
300
1/64" = 1'-0"
140
0.015625
141
12.0
290
     0
  0
SCALE
  5
46
102
{ACAD_REACTORS
330
42
102
}
330
42
100
AcDbScale
 70
     0
300
1/32" = 1'-0"
140
0.03125
141
12.0
290
     0
  0
SCALE
  5
47
102
{ACAD_REACTORS
330
42
102
}
330
42
100
AcDbScale
 70
     0
300
1/16" = 1'-0"
140
0.0625
141
12.0
290
     0
  0
SCALE
  5
48
102
{ACAD_REACTORS
330
42
102
}
330
42
100
AcDbScale
 70
     0
300
3/32" = 1'-0"
140
0.09375
141
12.0
290
     0
  0
SCALE
  5
49
102
{ACAD_REACTORS
330
42
102
}
330
42
100
AcDbScale
 70
     0
300
1/8" = 1'-0"
140
0.125
141
12.0
290
     0
  0
SCALE
  5
4A
102
{ACAD_REACTORS
330
42
102
}
330
42
100
AcDbScale
 70
     0
300
3/16" = 1'-0"
140
0.1875
141
12.0
290
     0
  0
SCALE
  5
4B
102
{ACAD_REACTORS
330
42
102
}
330
42
100
AcDbScale
 70
     0
300
1/4" = 1'-0"
140
0.25
141
12.0
290
     0
  0
SCALE
  5
4C
102
{ACAD_REACTORS
330
42
102
}
330
42
100
AcDbScale
 70
     0
300
3/8" = 1'-0"
140
0.375
141
12.0
290
     0
  0
SCALE
  5
4D
102
{ACAD_REACTORS
330
42
102
}
330
42
100
AcDbScale
 70
     0
300
1/2" = 1'-0"
140
0.5
141
12.0
290
     0
  0
SCALE
  5
4E
102
{ACAD_REACTORS
330
42
102
}
330
42
100
AcDbScale
 70
     0
300
3/4" = 1'-0"
140
0.75
141
12.0
290
     0
  0
SCALE
  5
4F
102
{ACAD_REACTORS
330
42
102
}
330
42
100
AcDbScale
 70
     0
300
1" = 1'-0"
140
1.0
141
12.0
290
     0
  0
SCALE
  5
50
102
{ACAD_REACTORS
330
42
102
}
330
42
100
AcDbScale
 70
     0
300
1-1/2" = 1'-0"
140
1.5
141
12.0
290
     0
  0
SCALE
  5
51
102
{ACAD_REACTORS
330
42
102
}
330
42
100
AcDbScale
 70
     0
300
3" = 1'-0"
140
3.0
141
12.0
290
     0
  0
SCALE
  5
52
102
{ACAD_REACTORS
330
42
102
}
330
42
100
AcDbScale
 70
     0
300
6" = 1'-0"
140
6.0
141
12.0
290
     0
  0
SCALE
  5
53
102
{ACAD_REACTORS
330
42
102
}
330
42
100
AcDbScale
 70
     0
300
1'-0" = 1'-0"
140
12.0
141
12.0
290
     0
  0
ACDBSECTIONVIEWSTYLE
  5
69
102
{ACAD_XDICTIONARY
360
10C
102
}
102
{ACAD_REACTORS
330
68
102
}
330
68
100
AcDbModelDocViewStyle
 70
     0
  3
Imperial24
290
     0
100
AcDbSectionViewStyle
 70
     0
 71
     0
 90
       78
 71
     1
340
55
 62
   256
 40
0.24
340
0
340
0
 62
   256
 40
0.24
300
I, O, Q, S, X, Z
 40
0.48
 90
        3
 40
0.18
 90
        1
 71
     2
340
5D
 90
       25
 62
   256
340
5D
 90
       50
 62
   256
 40
0.24
 40
0.0
 40
0.24
 71
     3
340
55
 62
   256
 40
0.24
 90
        1
 40
0.75
 90
        1
300
%<\AcVar ViewType \f "%tc1">% %<\AcVar ViewSectionStartId>%-%<\AcVar ViewSectionEndId>%\PSCALE %<\AcVar ViewScale \f "%sn">%
 71
     4
 62
   256
 62
   257
300
ANSI31
 40
1.0
 90
        0
290
     0
290
     0
 90
        6
 40
0.0
 40
1.570796326794896
 40
0.2617993877991494
 40
1.308996938995747
 40
-0.2617993877991494
 40
1.832595714594046
  0
TABLESTYLE
  5
65
102
{ACAD_XDICTIONARY
360
D7
102
}
102
{ACAD_REACTORS
330
64
102
}
330
64
100
AcDbTableStyle
280
     0
  3
Standard
 70
     0
 71
     0
 40
0.06
 41
0.06
280
     0
281
     0
  7
Standard
140
0.18
170
     2
 62
     0
 63
     7
283
     0
 90
      512
 91
        0
  1

274
    -2
284
     1
 64
     0
275
    -2
285
     1
 65
     0
276
    -2
286
     1
 66
     0
277
    -2
287
     1
 67
     0
278
    -2
288
     1
 68
     0
279
    -2
289
     1
 69
     0
  7
Standard
140
0.25
170
     5
 62
     0
 63
     7
283
     0
 90
      512
 91
        0
  1

274
    -2
284
     1
 64
     0
275
    -2
285
     1
 65
     0
276
    -2
286
     1
 66
     0
277
    -2
287
     1
 67
     0
278
    -2
288
     1
 68
     0
279
    -2
289
     1
 69
     0
  7
Standard
140
0.18
170
     5
 62
     0
 63
     7
283
     0
 90
      512
 91
        0
  1

274
    -2
284
     1
 64
     0
275
    -2
285
     1
 65
     0
276
    -2
286
     1
 66
     0
277
    -2
287
     1
 67
     0
278
    -2
288
     1
 68
     0
279
    -2
289
     1
 69
     0
  0
VISUALSTYLE
  5
2F
102
{ACAD_XDICTIONARY
360
E4
102
}
102
{ACAD_REACTORS
330
29
102
}
330
29
100
AcDbVisualStyle
  2
2dWireframe
 70
     4
177
     2
291
     0
 71
     0
176
     1
 72
     2
176
     1
 73
     0
176
     1
 90
        0
176
     1
 40
0.6
176
     1
 41
30.0
176
     1
 63
     7
421
 16777215
176
     1
 74
     1
176
     1
 91
        4
176
     1
 64
     7
176
     1
 65
   257
176
     1
 75
     1
176
     1
175
     1
176
     1
 42
1.0
176
     1
 92
        0
176
     1
 66
   257
176
     1
 43
1.0
176
     1
 76
     1
176
     1
 77
     6
176
     1
 78
     2
176
     1
 67
     7
176
     1
 79
     5
176
     1
170
     0
176
     1
171
     0
176
     1
290
     0
176
     1
 93
        1
176
     1
 44
0.0
176
     1
173
     0
176
     1
1001
ACAD
1000
AcDbSavedByObjectVersion
1070
     0
  0
VISUALSTYLE
  5
2E
102
{ACAD_XDICTIONARY
360
E2
102
}
102
{ACAD_REACTORS
330
29
102
}
330
29
100
AcDbVisualStyle
  2
Basic
 70
     7
177
     2
291
     1
 71
     1
176
     1
 72
     0
176
     1
 73
     1
176
     1
 90
        0
176
     1
 40
0.6
176
     1
 41
30.0
176
     1
 63
     7
421
 16777215
176
     1
 74
     0
176
     1
 91
        4
176
     1
 64
     7
176
     1
 65
   257
176
     1
 75
     1
176
     1
175
     1
176
     1
 42
1.0
176
     1
 92
        8
176
     1
 66
     7
176
     1
 43
1.0
176
     1
 76
     1
176
     1
 77
     6
176
     1
 78
     2
176
     1
 67
     7
176
     1
 79
     5
176
     1
170
     0
176
     1
171
     0
176
     1
290
     0
176
     1
 93
        1
176
     1
 44
0.0
176
     1
173
     0
176
     1
1001
ACAD
1000
AcDbSavedByObjectVersion
1070
     0
  0
VISUALSTYLE
  5
35
102
{ACAD_XDICTIONARY
360
F0
102
}
102
{ACAD_REACTORS
330
29
102
}
330
29
100
AcDbVisualStyle
  2
Brighten
 70
    12
177
     2
291
     1
 71
     2
176
     1
 72
     2
176
     1
 73
     0
176
     1
 90
        0
176
     1
 40
0.6
176
     1
 41
30.0
176
     1
 63
     7
421
 16777215
176
     1
 74
     1
176
     1
 91
        4
176
     1
 64
     7
176
     1
 65
   257
176
     1
 75
     1
176
     1
175
     1
176
     1
 42
1.0
176
     1
 92
        8
176
     1
 66
     7
176
     1
 43
1.0
176
     1
 76
     1
176
     1
 77
     6
176
     1
 78
     2
176
     1
 67
     7
176
     1
 79
     5
176
     1
170
     0
176
     1
171
     0
176
     1
290
     0
176
     1
 93
        1
176
     1
 44
50.0
176
     1
173
     0
176
     1
1001
ACAD
1000
AcDbSavedByObjectVersion
1070
     0
  0
VISUALSTYLE
  5
39
102
{ACAD_XDICTIONARY
360
F8
102
}
102
{ACAD_REACTORS
330
29
102
}
330
29
100
AcDbVisualStyle
  2
ColorChange
 70
    16
177
     2
291
     1
 71
     2
176
     1
 72
     2
176
     1
 73
     3
176
     1
 90
        0
176
     1
 40
0.6
176
     1
 41
30.0
176
     1
 63
     8
421
  8421504
176
     1
 74
     1
176
     1
 91
        4
176
     1
 64
     7
176
     1
 65
   257
176
     1
 75
     1
176
     1
175
     1
176
     1
 42
1.0
176
     1
 92
        8
176
     1
 66
     8
424
  8421504
176
     1
 43
1.0
176
     1
 76
     1
176
     1
 77
     6
176
     1
 78
     2
176
     1
 67
     7
176
     1
 79
     5
176
     1
170
     0
176
     1
171
     0
176
     1
290
     0
176
     1
 93
        1
176
     1
 44
0.0
176
     1
173
     0
176
     1
1001
ACAD
1000
AcDbSavedByObjectVersion
1070
     0
  0
VISUALSTYLE
  5
32
102
{ACAD_XDICTIONARY
360
EA
102
}
102
{ACAD_REACTORS
330
29
102
}
330
29
100
AcDbVisualStyle
  2
Conceptual
 70
     9
177
     2
291
     0
 71
     3
176
     1
 72
     2
176
     1
 73
     0
176
     1
 90
        0
176
     1
 40
0.6
176
     1
 41
30.0
176
     1
 63
     7
421
 16777215
176
     1
 74
     2
176
     1
 91
        2
176
     1
 64
     7
176
     1
 65
   257
176
     1
 75
     1
176
     1
175
     1
176
     1
 42
179.0
176
     1
 92
        8
176
     1
 66
     7
176
     1
 43
1.0
176
     1
 76
     1
176
     1
 77
     6
176
     1
 78
     2
176
     1
 67
     7
176
     1
 79
     3
176
     1
170
     0
176
     1
171
     0
176
     1
290
     0
176
     1
 93
        1
176
     1
 44
0.0
176
     1
173
     0
176
     1
1001
ACAD
1000
AcDbSavedByObjectVersion
1070
     0
  0
VISUALSTYLE
  5
34
102
{ACAD_XDICTIONARY
360
EE
102
}
102
{ACAD_REACTORS
330
29
102
}
330
29
100
AcDbVisualStyle
  2
Dim
 70
    11
177
     2
291
     1
 71
     2
176
     1
 72
     2
176
     1
 73
     0
176
     1
 90
        0
176
     1
 40
0.6
176
     1
 41
30.0
176
     1
 63
     7
421
 16777215
176
     1
 74
     1
176
     1
 91
        4
176
     1
 64
     7
176
     1
 65
   257
176
     1
 75
     1
176
     1
175
     1
176
     1
 42
1.0
176
     1
 92
        8
176
     1
 66
     7
176
     1
 43
1.0
176
     1
 76
     1
176
     1
 77
     6
176
     1
 78
     2
176
     1
 67
     7
176
     1
 79
     5
176
     1
170
     0
176
     1
171
     0
176
     1
290
     0
176
     1
 93
        1
176
     1
 44
-50.0
176
     1
173
     0
176
     1
1001
ACAD
1000
AcDbSavedByObjectVersion
1070
     0
  0
VISUALSTYLE
  5
41
102
{ACAD_XDICTIONARY
360
108
102
}
102
{ACAD_REACTORS
330
29
102
}
330
29
100
AcDbVisualStyle
  2
EdgeColorOff
 70
    22
177
     2
291
     1
 71
     2
176
     0
 72
     2
176
     0
 73
     0
176
     0
 90
        0
176
     0
 40
0.6
176
     0
 41
30.0
176
     0
 63
     7
421
 16777215
176
     0
 74
     1
176
     0
 91
        4
176
     0
 64
     7
176
     0
 65
   257
176
     0
 75
     1
176
     0
175
     1
176
     0
 42
1.0
176
     0
 92
        8
176
     2
 66
     7
176
     0
 43
1.0
176
     0
 76
     1
176
     0
 77
     6
176
     0
 78
     2
176
     0
 67
     7
176
     0
 79
     5
176
     0
170
     0
176
     0
171
     0
176
     0
290
     0
176
     0
 93
        1
176
     0
 44
0.0
176
     0
173
     0
176
     0
1001
ACAD
1000
AcDbSavedByObjectVersion
1070
     0
  0
VISUALSTYLE
  5
38
102
{ACAD_XDICTIONARY
360
F6
102
}
102
{ACAD_REACTORS
330
29
102
}
330
29
100
AcDbVisualStyle
  2
Facepattern
 70
    15
177
     2
291
     1
 71
     2
176
     1
 72
     2
176
     1
 73
     0
176
     1
 90
        0
176
     1
 40
0.6
176
     1
 41
30.0
176
     1
 63
     7
421
 16777215
176
     1
 74
     1
176
     1
 91
        4
176
     1
 64
     7
176
     1
 65
   257
176
     1
 75
     1
176
     1
175
     1
176
     1
 42
1.0
176
     1
 92
        8
176
     1
 66
     7
176
     1
 43
1.0
176
     1
 76
     1
176
     1
 77
     6
176
     1
 78
     2
176
     1
 67
     7
176
     1
 79
     5
176
     1
170
     0
176
     1
171
     0
176
     1
290
     0
176
     1
 93
        1
176
     1
 44
0.0
176
     1
173
     0
176
     1
1001
ACAD
1000
AcDbSavedByObjectVersion
1070
     0
  0
VISUALSTYLE
  5
2A
102
{ACAD_XDICTIONARY
360
DA
102
}
102
{ACAD_REACTORS
330
29
102
}
330
29
100
AcDbVisualStyle
  2
Flat
 70
     0
177
     2
291
     1
 71
     2
176
     1
 72
     1
176
     1
 73
     1
176
     1
 90
        2
176
     1
 40
0.6
176
     1
 41
30.0
176
     1
 63
     7
421
 16777215
176
     1
 74
     0
176
     1
 91
        0
176
     1
 64
     7
176
     1
 65
   257
176
     1
 75
     1
176
     1
175
     1
176
     1
 42
1.0
176
     1
 92
        8
176
     1
 66
     7
176
     1
 43
1.0
176
     1
 76
     1
176
     1
 77
     6
176
     1
 78
     2
176
     1
 67
     7
176
     1
 79
     5
176
     1
170
     0
176
     1
171
     0
176
     1
290
     0
176
     1
 93
       13
176
     1
 44
0.0
176
     1
173
     0
176
     1
1001
ACAD
1000
AcDbSavedByObjectVersion
1070
     0
  0
VISUALSTYLE
  5
2B
102
{ACAD_XDICTIONARY
360
DC
102
}
102
{ACAD_REACTORS
330
29
102
}
330
29
100
AcDbVisualStyle
  2
FlatWithEdges
 70
     1
177
     2
291
     1
 71
     2
176
     1
 72
     1
176
     1
 73
     1
176
     1
 90
        2
176
     1
 40
0.6
176
     1
 41
30.0
176
     1
 63
     7
421
 16777215
176
     1
 74
     1
176
     1
 91
        0
176
     1
 64
     7
176
     1
 65
   257
176
     1
 75
     1
176
     1
175
     1
176
     1
 42
1.0
176
     1
 92
        0
176
     1
 66
   257
176
     1
 43
1.0
176
     1
 76
     1
176
     1
 77
     6
176
     1
 78
     2
176
     1
 67
     7
176
     1
 79
     5
176
     1
170
     0
176
     1
171
     0
176
     1
290
     0
176
     1
 93
       13
176
     1
 44
0.0
176
     1
173
     0
176
     1
1001
ACAD
1000
AcDbSavedByObjectVersion
1070
     0
  0
VISUALSTYLE
  5
2C
102
{ACAD_XDICTIONARY
360
DE
102
}
102
{ACAD_REACTORS
330
29
102
}
330
29
100
AcDbVisualStyle
  2
Gouraud
 70
     2
177
     2
291
     1
 71
     2
176
     1
 72
     2
176
     1
 73
     1
176
     1
 90
        2
176
     1
 40
0.6
176
     1
 41
30.0
176
     1
 63
     7
421
 16777215
176
     1
 74
     0
176
     1
 91
        0
176
     1
 64
     7
176
     1
 65
   257
176
     1
 75
     1
176
     1
175
     1
176
     1
 42
1.0
176
     1
 92
        0
176
     1
 66
     7
176
     1
 43
1.0
176
     1
 76
     1
176
     1
 77
     6
176
     1
 78
     2
176
     1
 67
     7
176
     1
 79
     5
176
     1
170
     0
176
     1
171
     0
176
     1
290
     0
176
     1
 93
       13
176
     1
 44
0.0
176
     1
173
     0
176
     1
1001
ACAD
1000
AcDbSavedByObjectVersion
1070
     0
  0
VISUALSTYLE
  5
2D
102
{ACAD_XDICTIONARY
360
E0
102
}
102
{ACAD_REACTORS
330
29
102
}
330
29
100
AcDbVisualStyle
  2
GouraudWithEdges
 70
     3
177
     2
291
     1
 71
     2
176
     1
 72
     2
176
     1
 73
     1
176
     1
 90
        2
176
     1
 40
0.6
176
     1
 41
30.0
176
     1
 63
     7
421
 16777215
176
     1
 74
     1
176
     1
 91
        0
176
     1
 64
     7
176
     1
 65
   257
176
     1
 75
     1
176
     1
175
     1
176
     1
 42
1.0
176
     1
 92
        0
176
     1
 66
   257
176
     1
 43
1.0
176
     1
 76
     1
176
     1
 77
     6
176
     1
 78
     2
176
     1
 67
     7
176
     1
 79
     5
176
     1
170
     0
176
     1
171
     0
176
     1
290
     0
176
     1
 93
       13
176
     1
 44
0.0
176
     1
173
     0
176
     1
1001
ACAD
1000
AcDbSavedByObjectVersion
1070
     0
  0
VISUALSTYLE
  5
31
102
{ACAD_XDICTIONARY
360
E8
102
}
102
{ACAD_REACTORS
330
29
102
}
330
29
100
AcDbVisualStyle
  2
Hidden
 70
     6
177
     2
291
     0
 71
     1
176
     1
 72
     2
176
     1
 73
     2
176
     1
 90
        0
176
     1
 40
0.6
176
     1
 41
30.0
176
     1
 63
     7
421
 16777215
176
     1
 74
     2
176
     1
 91
        2
176
     1
 64
     7
176
     1
 65
   257
176
     1
 75
     2
176
     1
175
     1
176
     1
 42
40.0
176
     1
 92
        0
176
     1
 66
   257
176
     1
 43
1.0
176
     1
 76
     1
176
     1
 77
     6
176
     1
 78
     2
176
     1
 67
     7
176
     1
 79
     3
176
     1
170
     0
176
     1
171
     0
176
     1
290
     0
176
     1
 93
        1
176
     1
 44
0.0
176
     1
173
     0
176
     1
1001
ACAD
1000
AcDbSavedByObjectVersion
1070
     0
  0
VISUALSTYLE
  5
3F
102
{ACAD_XDICTIONARY
360
104
102
}
102
{ACAD_REACTORS
330
29
102
}
330
29
100
AcDbVisualStyle
  2
JitterOff
 70
    20
177
     2
291
     1
 71
     2
176
     0
 72
     2
176
     0
 73
     0
176
     0
 90
        0
176
     0
 40
0.6
176
     0
 41
30.0
176
     0
 63
     7
421
 16777215
176
     0
 74
     1
176
     0
 91
        4
176
     0
 64
     7
176
     0
 65
   257
176
     0
 75
     1
176
     0
175
     1
176
     0
 42
1.0
176
     0
 92
       10
176
     2
 66
     7
176
     0
 43
1.0
176
     0
 76
     1
176
     0
 77
     6
176
     0
 78
     2
176
     0
 67
     7
176
     0
 79
     5
176
     0
170
     0
176
     0
171
     0
176
     0
290
     0
176
     0
 93
        1
176
     0
 44
0.0
176
     0
173
     0
176
     0
1001
ACAD
1000
AcDbSavedByObjectVersion
1070
     0
  0
VISUALSTYLE
  5
37
102
{ACAD_XDICTIONARY
360
F4
102
}
102
{ACAD_REACTORS
330
29
102
}
330
29
100
AcDbVisualStyle
  2
Linepattern
 70
    14
177
     2
291
     1
 71
     2
176
     1
 72
     2
176
     1
 73
     0
176
     1
 90
        0
176
     1
 40
0.6
176
     1
 41
30.0
176
     1
 63
     7
421
 16777215
176
     1
 74
     1
176
     1
 91
        4
176
     1
 64
     7
176
     1
 65
   257
176
     1
 75
     7
176
     1
175
     7
176
     1
 42
1.0
176
     1
 92
        8
176
     1
 66
     7
176
     1
 43
1.0
176
     1
 76
     1
176
     1
 77
     6
176
     1
 78
     2
176
     1
 67
     7
176
     1
 79
     5
176
     1
170
     0
176
     1
171
     0
176
     1
290
     0
176
     1
 93
        1
176
     1
 44
0.0
176
     1
173
     0
176
     1
1001
ACAD
1000
AcDbSavedByObjectVersion
1070
     0
  0
VISUALSTYLE
  5
40
102
{ACAD_XDICTIONARY
360
106
102
}
102
{ACAD_REACTORS
330
29
102
}
330
29
100
AcDbVisualStyle
  2
OverhangOff
 70
    21
177
     2
291
     1
 71
     2
176
     0
 72
     2
176
     0
 73
     0
176
     0
 90
        0
176
     0
 40
0.6
176
     0
 41
30.0
176
     0
 63
     7
421
 16777215
176
     0
 74
     1
176
     0
 91
        4
176
     0
 64
     7
176
     0
 65
   257
176
     0
 75
     1
176
     0
175
     1
176
     0
 42
1.0
176
     0
 92
        9
176
     2
 66
     7
176
     0
 43
1.0
176
     0
 76
     1
176
     0
 77
     6
176
     0
 78
     2
176
     0
 67
     7
176
     0
 79
     5
176
     0
170
     0
176
     0
171
     0
176
     0
290
     0
176
     0
 93
        1
176
     0
 44
0.0
176
     0
173
     0
176
     0
1001
ACAD
1000
AcDbSavedByObjectVersion
1070
     0
  0
VISUALSTYLE
  5
33
102
{ACAD_XDICTIONARY
360
EC
102
}
102
{ACAD_REACTORS
330
29
102
}
330
29
100
AcDbVisualStyle
  2
Realistic
 70
     8
177
     2
291
     0
 71
     2
176
     1
 72
     3
176
     1
 73
     0
176
     1
 90
        2
176
     1
 40
0.6
176
     1
 41
30.0
176
     1
 63
     7
421
 16777215
176
     1
 74
     0
176
     1
 91
        0
176
     1
 64
     7
176
     1
 65
   257
176
     1
 75
     1
176
     1
175
     1
176
     1
 42
1.0
176
     1
 92
        8
176
     1
 66
   257
176
     1
 43
1.0
176
     1
 76
     1
176
     1
 77
     6
176
     1
 78
     2
176
     1
 67
     7
176
     1
 79
     3
176
     1
170
     0
176
     1
171
     0
176
     1
290
     0
176
     1
 93
       13
176
     1
 44
0.0
176
     1
173
     0
176
     1
1001
ACAD
1000
AcDbSavedByObjectVersion
1070
     0
  0
VISUALSTYLE
  5
3E
102
{ACAD_XDICTIONARY
360
102
102
}
102
{ACAD_REACTORS
330
29
102
}
330
29
100
AcDbVisualStyle
  2
Shaded
 70
    27
177
     2
291
     0
 71
     2
176
     1
 72
     2
176
     1
 73
     1
176
     1
 90
        2
176
     1
 40
0.6
176
     1
 41
30.0
176
     1
 63
     7
421
 16777215
176
     1
 74
     0
176
     1
 91
        4
176
     1
 64
     7
176
     1
 65
   257
176
     1
 75
     1
176
     1
175
     1
176
     1
 42
1.0
176
     1
 92
        8
176
     1
 66
   257
176
     1
 43
1.0
176
     1
 76
     1
176
     1
 77
     6
176
     1
 78
     2
176
     1
 67
     8
425
  7895160
176
     1
 79
     3
176
     1
170
     0
176
     1
171
     0
176
     1
290
     0
176
     1
 93
        5
176
     1
 44
0.0
176
     1
173
     0
176
     1
1001
ACAD
1000
AcDbSavedByObjectVersion
1070
     0
  0
VISUALSTYLE
  5
3D
102
{ACAD_XDICTIONARY
360
100
102
}
102
{ACAD_REACTORS
330
29
102
}
330
29
100
AcDbVisualStyle
  2
Shaded with edges
 70
    26
177
     2
291
     0
 71
     2
176
     1
 72
     2
176
     1
 73
     1
176
     1
 90
        2
176
     1
 40
0.6
176
     1
 41
30.0
176
     1
 63
     7
421
 16777215
176
     1
 74
     1
176
     1
 91
        2
176
     1
 64
     7
176
     1
 65
   257
176
     1
 75
     2
176
     1
175
     1
176
     1
 42
1.0
176
     1
 92
        8
176
     1
 66
   257
176
     1
 43
1.0
176
     1
 76
     1
176
     1
 77
     6
176
     1
 78
     2
176
     1
 67
     7
176
     1
 79
     3
176
     1
170
     0
176
     1
171
     0
176
     1
290
     0
176
     1
 93
        5
176
     1
 44
0.0
176
     1
173
     0
176
     1
1001
ACAD
1000
AcDbSavedByObjectVersion
1070
     0
  0
VISUALSTYLE
  5
3A
102
{ACAD_XDICTIONARY
360
FA
102
}
102
{ACAD_REACTORS
330
29
102
}
330
29
100
AcDbVisualStyle
  2
Shades of Gray
 70
    23
177
     2
291
     0
 71
     2
176
     1
 72
     2
176
     1
 73
     3
176
     1
 90
        0
176
     1
 40
0.6
176
     1
 41
30.0
176
     1
 63
     7
421
 16777215
176
     1
 74
     2
176
     1
 91
        2
176
     1
 64
     7
176
     1
 65
     7
176
     1
 75
     1
176
     1
175
     1
176
     1
 42
40.0
176
     1
 92
        8
176
     1
 66
     7
176
     1
 43
1.0
176
     1
 76
     1
176
     1
 77
     6
176
     1
 78
     2
176
     1
 67
     7
176
     1
 79
     3
176
     1
170
     0
176
     1
171
     0
176
     1
290
     0
176
     1
 93
        1
176
     1
 44
0.0
176
     1
173
     0
176
     1
1001
ACAD
1000
AcDbSavedByObjectVersion
1070
     0
  0
VISUALSTYLE
  5
3B
102
{ACAD_XDICTIONARY
360
FC
102
}
102
{ACAD_REACTORS
330
29
102
}
330
29
100
AcDbVisualStyle
  2
Sketchy
 70
    24
177
     2
291
     0
 71
     1
176
     1
 72
     2
176
     1
 73
     2
176
     1
 90
        0
176
     1
 40
0.6
176
     1
 41
30.0
176
     1
 63
     7
421
 16777215
176
     1
 74
     2
176
     1
 91
        2
176
     1
 64
     7
176
     1
 65
     7
176
     1
 75
     1
176
     1
175
     1
176
     1
 42
40.0
176
     1
 92
       11
176
     1
 66
     7
176
     1
 43
1.0
176
     1
 76
     1
176
     1
 77
     6
176
     1
 78
     2
176
     1
 67
     7
176
     1
 79
     6
176
     1
170
     0
176
     1
171
     0
176
     1
290
     0
176
     1
 93
        1
176
     1
 44
0.0
176
     1
173
     0
176
     1
1001
ACAD
1000
AcDbSavedByObjectVersion
1070
     0
  0
VISUALSTYLE
  5
36
102
{ACAD_XDICTIONARY
360
F2
102
}
102
{ACAD_REACTORS
330
29
102
}
330
29
100
AcDbVisualStyle
  2
Thicken
 70
    13
177
     2
291
     1
 71
     2
176
     1
 72
     2
176
     1
 73
     0
176
     1
 90
        0
176
     1
 40
0.6
176
     1
 41
30.0
176
     1
 63
     7
421
 16777215
176
     1
 74
     1
176
     1
 91
        4
176
     1
 64
     7
176
     1
 65
   257
176
     1
 75
     1
176
     1
175
     1
176
     1
 42
1.0
176
     1
 92
       12
176
     1
 66
     7
176
     1
 43
1.0
176
     1
 76
     1
176
     1
 77
     6
176
     1
 78
     2
176
     1
 67
     7
176
     1
 79
     5
176
     1
170
     0
176
     1
171
     0
176
     1
290
     0
176
     1
 93
        1
176
     1
 44
0.0
176
     1
173
     0
176
     1
1001
ACAD
1000
AcDbSavedByObjectVersion
1070
     0
  0
VISUALSTYLE
  5
30
102
{ACAD_XDICTIONARY
360
E6
102
}
102
{ACAD_REACTORS
330
29
102
}
330
29
100
AcDbVisualStyle
  2
Wireframe
 70
     5
177
     2
291
     0
 71
     0
176
     1
 72
     2
176
     1
 73
     0
176
     1
 90
        0
176
     1
 40
0.6
176
     1
 41
30.0
176
     1
 63
     7
421
 16777215
176
     1
 74
     1
176
     1
 91
        4
176
     1
 64
     7
176
     1
 65
   257
176
     1
 75
     1
176
     1
175
     1
176
     1
 42
1.0
176
     1
 92
        0
176
     1
 66
   257
176
     1
 43
1.0
176
     1
 76
     1
176
     1
 77
     6
176
     1
 78
     2
176
     1
 67
     7
176
     1
 79
     3
176
     1
170
     0
176
     1
171
     0
176
     1
290
     0
176
     1
 93
        1
176
     1
 44
0.0
176
     1
173
     0
176
     1
1001
ACAD
1000
AcDbSavedByObjectVersion
1070
     0
  0
VISUALSTYLE
  5
3C
102
{ACAD_XDICTIONARY
360
FE
102
}
102
{ACAD_REACTORS
330
29
102
}
330
29
100
AcDbVisualStyle
  2
X-Ray
 70
    25
177
     2
291
     0
 71
     2
176
     1
 72
     2
176
     1
 73
     1
176
     1
 90
        1
176
     1
 40
0.5
176
     1
 41
30.0
176
     1
 63
     7
421
 16777215
176
     1
 74
     1
176
     1
 91
        0
176
     1
 64
     7
176
     1
 65
   257
176
     1
 75
     1
176
     1
175
     1
176
     1
 42
1.0
176
     1
 92
        8
176
     1
 66
     7
176
     1
 43
1.0
176
     1
 76
     1
176
     1
 77
     6
176
     1
 78
     2
176
     1
 67
     7
176
     1
 79
     3
176
     1
170
     0
176
     1
171
     0
176
     1
290
     0
176
     1
 93
       13
176
     1
 44
0.0
176
     1
173
     0
176
     1
1001
ACAD
1000
AcDbSavedByObjectVersion
1070
     0
  0
DICTIONARYVAR
  5
D6
102
{ACAD_REACTORS
330
D1
102
}
330
D1
100
DictionaryVariables
280
     0
  1
1:1
  0
DICTIONARYVAR
  5
D3
102
{ACAD_REACTORS
330
D1
102
}
330
D1
100
DictionaryVariables
280
     0
  1
STANDARD
  0
DICTIONARYVAR
  5
D2
102
{ACAD_REACTORS
330
D1
102
}
330
D1
100
DictionaryVariables
280
     0
  1
STANDARD
  0
DICTIONARYVAR
  5
D4
102
{ACAD_REACTORS
330
D1
102
}
330
D1
100
DictionaryVariables
280
     0
  1
Imperial24
  0
DICTIONARYVAR
  5
D5
102
{ACAD_REACTORS
330
D1
102
}
330
D1
100
DictionaryVariables
280
     0
  1
Imperial24
  0
DICTIONARY
  5
10E
330
6B
100
AcDbDictionary
280
     1
281
     1
  3
ACAD_XREC_ROUNDTRIP
360
10F
  0
DICTIONARY
  5
1A
330
19
100
AcDbDictionary
280
     1
281
     1
  3
BUMPTILE
360
1C
  3
DIFFUSETILE
360
1B
  3
OPACITYTILE
360
1F
  3
REFLECTIONTILE
360
1E
  3
REFRACTIONTILE
360
20
  3
SPECULARTILE
360
1D
  0
DICTIONARY
  5
12
330
11
100
AcDbDictionary
280
     1
281
     1
  3
BUMPTILE
360
14
  3
DIFFUSETILE
360
13
  3
OPACITYTILE
360
17
  3
REFLECTIONTILE
360
16
  3
REFRACTIONTILE
360
18
  3
SPECULARTILE
360
15
  0
DICTIONARY
  5
22
330
21
100
AcDbDictionary
280
     1
281
     1
  3
BUMPTILE
360
24
  3
DIFFUSETILE
360
23
  3
OPACITYTILE
360
27
  3
REFLECTIONTILE
360
26
  3
REFRACTIONTILE
360
28
  3
SPECULARTILE
360
25
  0
DICTIONARY
  5
10A
330
67
100
AcDbDictionary
280
     1
281
     1
  3
ACAD_XREC_ROUNDTRIP
360
10B
  0
DICTIONARY
  5
10C
330
69
100
AcDbDictionary
280
     1
281
     1
  3
ACAD_XREC_ROUNDTRIP
360
10D
  0
DICTIONARY
  5
D7
330
65
100
AcDbDictionary
280
     1
281
     1
  3
ACAD_ROUNDTRIP_2008_TABLESTYLE_CELLSTYLEMAP
360
D8
  0
DICTIONARY
  5
E4
330
2F
100
AcDbDictionary
280
     1
281
     1
  3
ACAD_XREC_ROUNDTRIP
360
E5
  0
DICTIONARY
  5
E2
330
2E
100
AcDbDictionary
280
     1
281
     1
  3
ACAD_XREC_ROUNDTRIP
360
E3
  0
DICTIONARY
  5
F0
330
35
100
AcDbDictionary
280
     1
281
     1
  3
ACAD_XREC_ROUNDTRIP
360
F1
  0
DICTIONARY
  5
F8
330
39
100
AcDbDictionary
280
     1
281
     1
  3
ACAD_XREC_ROUNDTRIP
360
F9
  0
DICTIONARY
  5
EA
330
32
100
AcDbDictionary
280
     1
281
     1
  3
ACAD_XREC_ROUNDTRIP
360
EB
  0
DICTIONARY
  5
EE
330
34
100
AcDbDictionary
280
     1
281
     1
  3
ACAD_XREC_ROUNDTRIP
360
EF
  0
DICTIONARY
  5
108
330
41
100
AcDbDictionary
280
     1
281
     1
  3
ACAD_XREC_ROUNDTRIP
360
109
  0
DICTIONARY
  5
F6
330
38
100
AcDbDictionary
280
     1
281
     1
  3
ACAD_XREC_ROUNDTRIP
360
F7
  0
DICTIONARY
  5
DA
330
2A
100
AcDbDictionary
280
     1
281
     1
  3
ACAD_XREC_ROUNDTRIP
360
DB
  0
DICTIONARY
  5
DC
330
2B
100
AcDbDictionary
280
     1
281
     1
  3
ACAD_XREC_ROUNDTRIP
360
DD
  0
DICTIONARY
  5
DE
330
2C
100
AcDbDictionary
280
     1
281
     1
  3
ACAD_XREC_ROUNDTRIP
360
DF
  0
DICTIONARY
  5
E0
330
2D
100
AcDbDictionary
280
     1
281
     1
  3
ACAD_XREC_ROUNDTRIP
360
E1
  0
DICTIONARY
  5
E8
330
31
100
AcDbDictionary
280
     1
281
     1
  3
ACAD_XREC_ROUNDTRIP
360
E9
  0
DICTIONARY
  5
104
330
3F
100
AcDbDictionary
280
     1
281
     1
  3
ACAD_XREC_ROUNDTRIP
360
105
  0
DICTIONARY
  5
F4
330
37
100
AcDbDictionary
280
     1
281
     1
  3
ACAD_XREC_ROUNDTRIP
360
F5
  0
DICTIONARY
  5
106
330
40
100
AcDbDictionary
280
     1
281
     1
  3
ACAD_XREC_ROUNDTRIP
360
107
  0
DICTIONARY
  5
EC
330
33
100
AcDbDictionary
280
     1
281
     1
  3
ACAD_XREC_ROUNDTRIP
360
ED
  0
DICTIONARY
  5
102
330
3E
100
AcDbDictionary
280
     1
281
     1
  3
ACAD_XREC_ROUNDTRIP
360
103
  0
DICTIONARY
  5
100
330
3D
100
AcDbDictionary
280
     1
281
     1
  3
ACAD_XREC_ROUNDTRIP
360
101
  0
DICTIONARY
  5
FA
330
3A
100
AcDbDictionary
280
     1
281
     1
  3
ACAD_XREC_ROUNDTRIP
360
FB
  0
DICTIONARY
  5
FC
330
3B
100
AcDbDictionary
280
     1
281
     1
  3
ACAD_XREC_ROUNDTRIP
360
FD
  0
DICTIONARY
  5
F2
330
36
100
AcDbDictionary
280
     1
281
     1
  3
ACAD_XREC_ROUNDTRIP
360
F3
  0
DICTIONARY
  5
E6
330
30
100
AcDbDictionary
280
     1
281
     1
  3
ACAD_XREC_ROUNDTRIP
360
E7
  0
DICTIONARY
  5
FE
330
3C
100
AcDbDictionary
280
     1
281
     1
  3
ACAD_XREC_ROUNDTRIP
360
FF
  0
XRECORD
  5
10F
102
{ACAD_REACTORS
330
10E
102
}
330
10E
100
AcDbXrecord
280
     1
102
DISPLAYNAME
  1
Imperial24
102
FLAGS
 90
        0
  0
XRECORD
  5
1C
102
{ACAD_REACTORS
330
1A
102
}
330
1A
100
AcDbXrecord
280
     1
270
     1
271
     1
  0
XRECORD
  5
1B
102
{ACAD_REACTORS
330
1A
102
}
330
1A
100
AcDbXrecord
280
     1
270
     1
271
     1
  0
XRECORD
  5
1F
102
{ACAD_REACTORS
330
1A
102
}
330
1A
100
AcDbXrecord
280
     1
270
     1
271
     1
  0
XRECORD
  5
1E
102
{ACAD_REACTORS
330
1A
102
}
330
1A
100
AcDbXrecord
280
     1
270
     1
271
     1
  0
XRECORD
  5
20
102
{ACAD_REACTORS
330
1A
102
}
330
1A
100
AcDbXrecord
280
     1
270
     1
271
     1
  0
XRECORD
  5
1D
102
{ACAD_REACTORS
330
1A
102
}
330
1A
100
AcDbXrecord
280
     1
270
     1
271
     1
  0
XRECORD
  5
14
102
{ACAD_REACTORS
330
12
102
}
330
12
100
AcDbXrecord
280
     1
270
     1
271
     1
  0
XRECORD
  5
13
102
{ACAD_REACTORS
330
12
102
}
330
12
100
AcDbXrecord
280
     1
270
     1
271
     1
  0
XRECORD
  5
17
102
{ACAD_REACTORS
330
12
102
}
330
12
100
AcDbXrecord
280
     1
270
     1
271
     1
  0
XRECORD
  5
16
102
{ACAD_REACTORS
330
12
102
}
330
12
100
AcDbXrecord
280
     1
270
     1
271
     1
  0
XRECORD
  5
18
102
{ACAD_REACTORS
330
12
102
}
330
12
100
AcDbXrecord
280
     1
270
     1
271
     1
  0
XRECORD
  5
15
102
{ACAD_REACTORS
330
12
102
}
330
12
100
AcDbXrecord
280
     1
270
     1
271
     1
  0
XRECORD
  5
24
102
{ACAD_REACTORS
330
22
102
}
330
22
100
AcDbXrecord
280
     1
270
     1
271
     1
  0
XRECORD
  5
23
102
{ACAD_REACTORS
330
22
102
}
330
22
100
AcDbXrecord
280
     1
270
     1
271
     1
  0
XRECORD
  5
27
102
{ACAD_REACTORS
330
22
102
}
330
22
100
AcDbXrecord
280
     1
270
     1
271
     1
  0
XRECORD
  5
26
102
{ACAD_REACTORS
330
22
102
}
330
22
100
AcDbXrecord
280
     1
270
     1
271
     1
  0
XRECORD
  5
28
102
{ACAD_REACTORS
330
22
102
}
330
22
100
AcDbXrecord
280
     1
270
     1
271
     1
  0
XRECORD
  5
25
102
{ACAD_REACTORS
330
22
102
}
330
22
100
AcDbXrecord
280
     1
270
     1
271
     1
  0
XRECORD
  5
10B
102
{ACAD_REACTORS
330
10A
102
}
330
10A
100
AcDbXrecord
280
     1
102
ACAD_ROUNDTRIP_2012_MLEADER_STYLE
298
     1
  0
XRECORD
  5
10D
102
{ACAD_REACTORS
330
10C
102
}
330
10C
100
AcDbXrecord
280
     1
102
DISPLAYNAME
  1
Imperial24
102
FLAGS
 90
        0
  0
CELLSTYLEMAP
  5
D8
102
{ACAD_REACTORS
330
D7
102
}
330
D7
100
AcDbCellStyleMap
 90
        3
300
CELLSTYLE
  1
TABLEFORMAT_BEGIN
 90
        5
170
     1
 91
        0
 92
    32768
 62
   257
 93
        1
300
CONTENTFORMAT
  1
CONTENTFORMAT_BEGIN
 90
        0
 91
        0
 92
      512
 93
        0
300

 40
0.0
140
1.0
 94
        5
 62
     0
340
55
144
0.25
309
CONTENTFORMAT_END
171
     0
 94
        0
309
TABLEFORMAT_END
  1
CELLSTYLE_BEGIN
 90
        1
 91
        1
300
_TITLE
309
CELLSTYLE_END
300
CELLSTYLE
  1
TABLEFORMAT_BEGIN
 90
        5
170
     1
 91
        0
 92
        0
 62
   257
 93
        1
300
CONTENTFORMAT
  1
CONTENTFORMAT_BEGIN
 90
        0
 91
        0
 92
      512
 93
        0
300

 40
0.0
140
1.0
 94
        5
 62
     0
340
55
144
0.18
309
CONTENTFORMAT_END
171
     0
 94
        0
309
TABLEFORMAT_END
  1
CELLSTYLE_BEGIN
 90
        2
 91
        1
300
_HEADER
309
CELLSTYLE_END
300
CELLSTYLE
  1
TABLEFORMAT_BEGIN
 90
        5
170
     1
 91
        0
 92
        0
 62
   257
 93
        1
300
CONTENTFORMAT
  1
CONTENTFORMAT_BEGIN
 90
        0
 91
        0
 92
      512
 93
        0
300

 40
0.0
140
1.0
 94
        2
 62
     0
340
55
144
0.18
309
CONTENTFORMAT_END
171
     0
 94
        0
309
TABLEFORMAT_END
  1
CELLSTYLE_BEGIN
 90
        3
 91
        2
300
_DATA
309
CELLSTYLE_END
  0
XRECORD
  5
E5
102
{ACAD_REACTORS
330
E4
102
}
330
E4
100
AcDbXrecord
280
     1
102
RTVSPost2010Prop28
280
     1
102
RTVSPost2010PropOp28
 70
     1
102
RTVSPost2010Prop29
280
     1
102
RTVSPost2010PropOp29
 70
     1
102
RTVSPost2010Prop30
280
     0
102
RTVSPost2010PropOp30
 70
     1
102
RTVSPost2010Prop31
280
     0
102
RTVSPost2010PropOp31
 70
     1
102
RTVSPost2010Prop32
280
     0
102
RTVSPost2010PropOp32
 70
     1
102
RTVSPost2010Prop33
280
     0
102
RTVSPost2010PropOp33
 70
     1
102
RTVSPost2010Prop34
280
     0
102
RTVSPost2010PropOp34
 70
     1
102
RTVSPost2010Prop35
280
     0
102
RTVSPost2010PropOp35
 70
     1
102
RTVSPost2010Prop36
280
     0
102
RTVSPost2010PropOp36
 70
     1
102
RTVSPost2010Prop37
 90
       50
102
RTVSPost2010PropOp37
 70
     1
102
RTVSPost2010Prop38
140
0.0
102
RTVSPost2010PropOp38
 70
     1
102
RTVSPost2010Prop39
140
1.0
102
RTVSPost2010PropOp39
 70
     1
102
RTVSPost2010Prop40
 90
        0
102
RTVSPost2010PropOp40
 70
     1
102
RTVSPost2010Prop41ColorIndex
 90
       18
102
RTVSPost2010Prop41ColorRGB
 90
        0
102
RTVSPost2010PropOp41
 70
     1
102
RTVSPost2010Prop42
 90
       50
102
RTVSPost2010PropOp42
 70
     1
102
RTVSPost2010Prop43
 90
        3
102
RTVSPost2010PropOp43
 70
     1
102
RTVSPost2010Prop44ColorIndex
 90
        5
102
RTVSPost2010Prop44ColorRGB
 90
      255
102
RTVSPost2010PropOp44
 70
     1
102
RTVSPost2010Prop45
280
     0
102
RTVSPost2010PropOp45
 70
     1
102
RTVSPost2010Prop46
 90
       50
102
RTVSPost2010PropOp46
 70
     1
102
RTVSPost2010Prop47
 90
       50
102
RTVSPost2010PropOp47
 70
     1
102
RTVSPost2010Prop48
 90
       50
102
RTVSPost2010PropOp48
 70
     1
102
RTVSPost2010Prop49
280
     0
102
RTVSPost2010PropOp49
 70
     1
102
RTVSPost2010Prop50
 90
       50
102
RTVSPost2010PropOp50
 70
     1
102
RTVSPost2010Prop51ColorIndex
 90
      256
102
RTVSPost2010Prop51ColorRGB
 90
-16777216
102
RTVSPost2010PropOp51
 70
     0
102
RTVSPost2010Prop52
140
1.0
102
RTVSPost2010PropOp52
 70
     0
102
RTVSPost2010Prop53
 90
        2
102
RTVSPost2010PropOp53
 70
     1
102
RTVSPost2010Prop54
  1
strokes_ogs.tif
102
RTVSPost2010PropOp54
 70
     1
102
RTVSPost2010Prop55
280
     0
102
RTVSPost2010PropOp55
 70
     1
102
RTVSPost2010Prop56
140
1.0
102
RTVSPost2010PropOp56
 70
     1
102
RTVSPost2010Prop57
140
1.0
102
RTVSPost2010PropOp57
 70
     1
  0
XRECORD
  5
E3
102
{ACAD_REACTORS
330
E2
102
}
330
E2
100
AcDbXrecord
280
     1
102
RTVSPost2010Prop28
280
     0
102
RTVSPost2010PropOp28
 70
     1
102
RTVSPost2010Prop29
280
     1
102
RTVSPost2010PropOp29
 70
     1
102
RTVSPost2010Prop30
280
     1
102
RTVSPost2010PropOp30
 70
     1
102
RTVSPost2010Prop31
280
     0
102
RTVSPost2010PropOp31
 70
     1
102
RTVSPost2010Prop32
280
     0
102
RTVSPost2010PropOp32
 70
     1
102
RTVSPost2010Prop33
280
     0
102
RTVSPost2010PropOp33
 70
     1
102
RTVSPost2010Prop34
280
     0
102
RTVSPost2010PropOp34
 70
     1
102
RTVSPost2010Prop35
280
     0
102
RTVSPost2010PropOp35
 70
     1
102
RTVSPost2010Prop36
280
     0
102
RTVSPost2010PropOp36
 70
     1
102
RTVSPost2010Prop37
 90
       50
102
RTVSPost2010PropOp37
 70
     1
102
RTVSPost2010Prop38
140
0.0
102
RTVSPost2010PropOp38
 70
     1
102
RTVSPost2010Prop39
140
1.0
102
RTVSPost2010PropOp39
 70
     1
102
RTVSPost2010Prop40
 90
        0
102
RTVSPost2010PropOp40
 70
     1
102
RTVSPost2010Prop41ColorIndex
 90
       18
102
RTVSPost2010Prop41ColorRGB
 90
        0
102
RTVSPost2010PropOp41
 70
     1
102
RTVSPost2010Prop42
 90
       50
102
RTVSPost2010PropOp42
 70
     1
102
RTVSPost2010Prop43
 90
        3
102
RTVSPost2010PropOp43
 70
     1
102
RTVSPost2010Prop44ColorIndex
 90
        5
102
RTVSPost2010Prop44ColorRGB
 90
      255
102
RTVSPost2010PropOp44
 70
     1
102
RTVSPost2010Prop45
280
     0
102
RTVSPost2010PropOp45
 70
     1
102
RTVSPost2010Prop46
 90
       50
102
RTVSPost2010PropOp46
 70
     1
102
RTVSPost2010Prop47
 90
       50
102
RTVSPost2010PropOp47
 70
     1
102
RTVSPost2010Prop48
 90
       50
102
RTVSPost2010PropOp48
 70
     1
102
RTVSPost2010Prop49
280
     0
102
RTVSPost2010PropOp49
 70
     1
102
RTVSPost2010Prop50
 90
       50
102
RTVSPost2010PropOp50
 70
     1
102
RTVSPost2010Prop51ColorIndex
 90
      256
102
RTVSPost2010Prop51ColorRGB
 90
-16777216
102
RTVSPost2010PropOp51
 70
     0
102
RTVSPost2010Prop52
140
1.0
102
RTVSPost2010PropOp52
 70
     0
102
RTVSPost2010Prop53
 90
        2
102
RTVSPost2010PropOp53
 70
     1
102
RTVSPost2010Prop54
  1
strokes_ogs.tif
102
RTVSPost2010PropOp54
 70
     1
102
RTVSPost2010Prop55
280
     0
102
RTVSPost2010PropOp55
 70
     1
102
RTVSPost2010Prop56
140
1.0
102
RTVSPost2010PropOp56
 70
     1
102
RTVSPost2010Prop57
140
1.0
102
RTVSPost2010PropOp57
 70
     1
  0
XRECORD
  5
F1
102
{ACAD_REACTORS
330
F0
102
}
330
F0
100
AcDbXrecord
280
     1
102
RTVSPost2010Prop28
280
     0
102
RTVSPost2010PropOp28
 70
     1
102
RTVSPost2010Prop29
280
     1
102
RTVSPost2010PropOp29
 70
     1
102
RTVSPost2010Prop30
280
     1
102
RTVSPost2010PropOp30
 70
     1
102
RTVSPost2010Prop31
280
     0
102
RTVSPost2010PropOp31
 70
     1
102
RTVSPost2010Prop32
280
     0
102
RTVSPost2010PropOp32
 70
     1
102
RTVSPost2010Prop33
280
     0
102
RTVSPost2010PropOp33
 70
     1
102
RTVSPost2010Prop34
280
     0
102
RTVSPost2010PropOp34
 70
     1
102
RTVSPost2010Prop35
280
     0
102
RTVSPost2010PropOp35
 70
     1
102
RTVSPost2010Prop36
280
     0
102
RTVSPost2010PropOp36
 70
     1
102
RTVSPost2010Prop37
 90
       50
102
RTVSPost2010PropOp37
 70
     1
102
RTVSPost2010Prop38
140
0.0
102
RTVSPost2010PropOp38
 70
     1
102
RTVSPost2010Prop39
140
1.0
102
RTVSPost2010PropOp39
 70
     1
102
RTVSPost2010Prop40
 90
        0
102
RTVSPost2010PropOp40
 70
     1
102
RTVSPost2010Prop41ColorIndex
 90
       18
102
RTVSPost2010Prop41ColorRGB
 90
        0
102
RTVSPost2010PropOp41
 70
     1
102
RTVSPost2010Prop42
 90
       50
102
RTVSPost2010PropOp42
 70
     1
102
RTVSPost2010Prop43
 90
        3
102
RTVSPost2010PropOp43
 70
     1
102
RTVSPost2010Prop44ColorIndex
 90
        5
102
RTVSPost2010Prop44ColorRGB
 90
      255
102
RTVSPost2010PropOp44
 70
     1
102
RTVSPost2010Prop45
280
     0
102
RTVSPost2010PropOp45
 70
     1
102
RTVSPost2010Prop46
 90
       50
102
RTVSPost2010PropOp46
 70
     1
102
RTVSPost2010Prop47
 90
       50
102
RTVSPost2010PropOp47
 70
     1
102
RTVSPost2010Prop48
 90
       50
102
RTVSPost2010PropOp48
 70
     1
102
RTVSPost2010Prop49
280
     0
102
RTVSPost2010PropOp49
 70
     1
102
RTVSPost2010Prop50
 90
       50
102
RTVSPost2010PropOp50
 70
     1
102
RTVSPost2010Prop51ColorIndex
 90
      256
102
RTVSPost2010Prop51ColorRGB
 90
-16777216
102
RTVSPost2010PropOp51
 70
     0
102
RTVSPost2010Prop52
140
1.0
102
RTVSPost2010PropOp52
 70
     0
102
RTVSPost2010Prop53
 90
        2
102
RTVSPost2010PropOp53
 70
     1
102
RTVSPost2010Prop54
  1
strokes_ogs.tif
102
RTVSPost2010PropOp54
 70
     1
102
RTVSPost2010Prop55
280
     0
102
RTVSPost2010PropOp55
 70
     1
102
RTVSPost2010Prop56
140
1.0
102
RTVSPost2010PropOp56
 70
     1
102
RTVSPost2010Prop57
140
1.0
102
RTVSPost2010PropOp57
 70
     1
  0
XRECORD
  5
F9
102
{ACAD_REACTORS
330
F8
102
}
330
F8
100
AcDbXrecord
280
     1
102
RTVSPost2010Prop28
280
     0
102
RTVSPost2010PropOp28
 70
     1
102
RTVSPost2010Prop29
280
     1
102
RTVSPost2010PropOp29
 70
     1
102
RTVSPost2010Prop30
280
     1
102
RTVSPost2010PropOp30
 70
     1
102
RTVSPost2010Prop31
280
     0
102
RTVSPost2010PropOp31
 70
     1
102
RTVSPost2010Prop32
280
     0
102
RTVSPost2010PropOp32
 70
     1
102
RTVSPost2010Prop33
280
     0
102
RTVSPost2010PropOp33
 70
     1
102
RTVSPost2010Prop34
280
     0
102
RTVSPost2010PropOp34
 70
     1
102
RTVSPost2010Prop35
280
     0
102
RTVSPost2010PropOp35
 70
     1
102
RTVSPost2010Prop36
280
     0
102
RTVSPost2010PropOp36
 70
     1
102
RTVSPost2010Prop37
 90
       50
102
RTVSPost2010PropOp37
 70
     1
102
RTVSPost2010Prop38
140
0.0
102
RTVSPost2010PropOp38
 70
     1
102
RTVSPost2010Prop39
140
1.0
102
RTVSPost2010PropOp39
 70
     1
102
RTVSPost2010Prop40
 90
        0
102
RTVSPost2010PropOp40
 70
     1
102
RTVSPost2010Prop41ColorIndex
 90
       18
102
RTVSPost2010Prop41ColorRGB
 90
        0
102
RTVSPost2010PropOp41
 70
     1
102
RTVSPost2010Prop42
 90
       50
102
RTVSPost2010PropOp42
 70
     1
102
RTVSPost2010Prop43
 90
        3
102
RTVSPost2010PropOp43
 70
     1
102
RTVSPost2010Prop44ColorIndex
 90
        5
102
RTVSPost2010Prop44ColorRGB
 90
      255
102
RTVSPost2010PropOp44
 70
     1
102
RTVSPost2010Prop45
280
     0
102
RTVSPost2010PropOp45
 70
     1
102
RTVSPost2010Prop46
 90
       50
102
RTVSPost2010PropOp46
 70
     1
102
RTVSPost2010Prop47
 90
       50
102
RTVSPost2010PropOp47
 70
     1
102
RTVSPost2010Prop48
 90
       50
102
RTVSPost2010PropOp48
 70
     1
102
RTVSPost2010Prop49
280
     0
102
RTVSPost2010PropOp49
 70
     1
102
RTVSPost2010Prop50
 90
       50
102
RTVSPost2010PropOp50
 70
     1
102
RTVSPost2010Prop51ColorIndex
 90
      256
102
RTVSPost2010Prop51ColorRGB
 90
-16777216
102
RTVSPost2010PropOp51
 70
     0
102
RTVSPost2010Prop52
140
1.0
102
RTVSPost2010PropOp52
 70
     0
102
RTVSPost2010Prop53
 90
        2
102
RTVSPost2010PropOp53
 70
     1
102
RTVSPost2010Prop54
  1
strokes_ogs.tif
102
RTVSPost2010PropOp54
 70
     1
102
RTVSPost2010Prop55
280
     0
102
RTVSPost2010PropOp55
 70
     1
102
RTVSPost2010Prop56
140
1.0
102
RTVSPost2010PropOp56
 70
     1
102
RTVSPost2010Prop57
140
1.0
102
RTVSPost2010PropOp57
 70
     1
  0
XRECORD
  5
EB
102
{ACAD_REACTORS
330
EA
102
}
330
EA
100
AcDbXrecord
280
     1
102
RTVSPost2010Prop28
280
     0
102
RTVSPost2010PropOp28
 70
     1
102
RTVSPost2010Prop29
280
     1
102
RTVSPost2010PropOp29
 70
     1
102
RTVSPost2010Prop30
280
     1
102
RTVSPost2010PropOp30
 70
     1
102
RTVSPost2010Prop31
280
     0
102
RTVSPost2010PropOp31
 70
     1
102
RTVSPost2010Prop32
280
     0
102
RTVSPost2010PropOp32
 70
     1
102
RTVSPost2010Prop33
280
     0
102
RTVSPost2010PropOp33
 70
     1
102
RTVSPost2010Prop34
280
     0
102
RTVSPost2010PropOp34
 70
     1
102
RTVSPost2010Prop35
280
     0
102
RTVSPost2010PropOp35
 70
     1
102
RTVSPost2010Prop36
280
     0
102
RTVSPost2010PropOp36
 70
     1
102
RTVSPost2010Prop37
 90
       50
102
RTVSPost2010PropOp37
 70
     1
102
RTVSPost2010Prop38
140
0.0
102
RTVSPost2010PropOp38
 70
     1
102
RTVSPost2010Prop39
140
1.0
102
RTVSPost2010PropOp39
 70
     1
102
RTVSPost2010Prop40
 90
        0
102
RTVSPost2010PropOp40
 70
     1
102
RTVSPost2010Prop41ColorIndex
 90
       18
102
RTVSPost2010Prop41ColorRGB
 90
        0
102
RTVSPost2010PropOp41
 70
     1
102
RTVSPost2010Prop42
 90
       50
102
RTVSPost2010PropOp42
 70
     1
102
RTVSPost2010Prop43
 90
        3
102
RTVSPost2010PropOp43
 70
     1
102
RTVSPost2010Prop44ColorIndex
 90
        5
102
RTVSPost2010Prop44ColorRGB
 90
      255
102
RTVSPost2010PropOp44
 70
     1
102
RTVSPost2010Prop45
280
     0
102
RTVSPost2010PropOp45
 70
     1
102
RTVSPost2010Prop46
 90
       50
102
RTVSPost2010PropOp46
 70
     1
102
RTVSPost2010Prop47
 90
       50
102
RTVSPost2010PropOp47
 70
     1
102
RTVSPost2010Prop48
 90
       50
102
RTVSPost2010PropOp48
 70
     1
102
RTVSPost2010Prop49
280
     0
102
RTVSPost2010PropOp49
 70
     1
102
RTVSPost2010Prop50
 90
       50
102
RTVSPost2010PropOp50
 70
     1
102
RTVSPost2010Prop51ColorIndex
 90
      256
102
RTVSPost2010Prop51ColorRGB
 90
-16777216
102
RTVSPost2010PropOp51
 70
     0
102
RTVSPost2010Prop52
140
1.0
102
RTVSPost2010PropOp52
 70
     0
102
RTVSPost2010Prop53
 90
        2
102
RTVSPost2010PropOp53
 70
     1
102
RTVSPost2010Prop54
  1
strokes_ogs.tif
102
RTVSPost2010PropOp54
 70
     1
102
RTVSPost2010Prop55
280
     0
102
RTVSPost2010PropOp55
 70
     1
102
RTVSPost2010Prop56
140
1.0
102
RTVSPost2010PropOp56
 70
     1
102
RTVSPost2010Prop57
140
1.0
102
RTVSPost2010PropOp57
 70
     1
  0
XRECORD
  5
EF
102
{ACAD_REACTORS
330
EE
102
}
330
EE
100
AcDbXrecord
280
     1
102
RTVSPost2010Prop28
280
     0
102
RTVSPost2010PropOp28
 70
     1
102
RTVSPost2010Prop29
280
     1
102
RTVSPost2010PropOp29
 70
     1
102
RTVSPost2010Prop30
280
     1
102
RTVSPost2010PropOp30
 70
     1
102
RTVSPost2010Prop31
280
     0
102
RTVSPost2010PropOp31
 70
     1
102
RTVSPost2010Prop32
280
     0
102
RTVSPost2010PropOp32
 70
     1
102
RTVSPost2010Prop33
280
     0
102
RTVSPost2010PropOp33
 70
     1
102
RTVSPost2010Prop34
280
     0
102
RTVSPost2010PropOp34
 70
     1
102
RTVSPost2010Prop35
280
     0
102
RTVSPost2010PropOp35
 70
     1
102
RTVSPost2010Prop36
280
     0
102
RTVSPost2010PropOp36
 70
     1
102
RTVSPost2010Prop37
 90
       50
102
RTVSPost2010PropOp37
 70
     1
102
RTVSPost2010Prop38
140
0.0
102
RTVSPost2010PropOp38
 70
     1
102
RTVSPost2010Prop39
140
1.0
102
RTVSPost2010PropOp39
 70
     1
102
RTVSPost2010Prop40
 90
        0
102
RTVSPost2010PropOp40
 70
     1
102
RTVSPost2010Prop41ColorIndex
 90
       18
102
RTVSPost2010Prop41ColorRGB
 90
        0
102
RTVSPost2010PropOp41
 70
     1
102
RTVSPost2010Prop42
 90
       50
102
RTVSPost2010PropOp42
 70
     1
102
RTVSPost2010Prop43
 90
        3
102
RTVSPost2010PropOp43
 70
     1
102
RTVSPost2010Prop44ColorIndex
 90
        5
102
RTVSPost2010Prop44ColorRGB
 90
      255
102
RTVSPost2010PropOp44
 70
     1
102
RTVSPost2010Prop45
280
     0
102
RTVSPost2010PropOp45
 70
     1
102
RTVSPost2010Prop46
 90
       50
102
RTVSPost2010PropOp46
 70
     1
102
RTVSPost2010Prop47
 90
       50
102
RTVSPost2010PropOp47
 70
     1
102
RTVSPost2010Prop48
 90
       50
102
RTVSPost2010PropOp48
 70
     1
102
RTVSPost2010Prop49
280
     0
102
RTVSPost2010PropOp49
 70
     1
102
RTVSPost2010Prop50
 90
       50
102
RTVSPost2010PropOp50
 70
     1
102
RTVSPost2010Prop51ColorIndex
 90
      256
102
RTVSPost2010Prop51ColorRGB
 90
-16777216
102
RTVSPost2010PropOp51
 70
     0
102
RTVSPost2010Prop52
140
1.0
102
RTVSPost2010PropOp52
 70
     0
102
RTVSPost2010Prop53
 90
        2
102
RTVSPost2010PropOp53
 70
     1
102
RTVSPost2010Prop54
  1
strokes_ogs.tif
102
RTVSPost2010PropOp54
 70
     1
102
RTVSPost2010Prop55
280
     0
102
RTVSPost2010PropOp55
 70
     1
102
RTVSPost2010Prop56
140
1.0
102
RTVSPost2010PropOp56
 70
     1
102
RTVSPost2010Prop57
140
1.0
102
RTVSPost2010PropOp57
 70
     1
  0
XRECORD
  5
109
102
{ACAD_REACTORS
330
108
102
}
330
108
100
AcDbXrecord
280
     1
102
RTVSPost2010Prop28
280
     0
102
RTVSPost2010PropOp28
 70
     0
102
RTVSPost2010Prop29
280
     1
102
RTVSPost2010PropOp29
 70
     0
102
RTVSPost2010Prop30
280
     1
102
RTVSPost2010PropOp30
 70
     0
102
RTVSPost2010Prop31
280
     0
102
RTVSPost2010PropOp31
 70
     0
102
RTVSPost2010Prop32
280
     0
102
RTVSPost2010PropOp32
 70
     0
102
RTVSPost2010Prop33
280
     0
102
RTVSPost2010PropOp33
 70
     0
102
RTVSPost2010Prop34
280
     0
102
RTVSPost2010PropOp34
 70
     0
102
RTVSPost2010Prop35
280
     0
102
RTVSPost2010PropOp35
 70
     0
102
RTVSPost2010Prop36
280
     0
102
RTVSPost2010PropOp36
 70
     0
102
RTVSPost2010Prop37
 90
       50
102
RTVSPost2010PropOp37
 70
     0
102
RTVSPost2010Prop38
140
0.0
102
RTVSPost2010PropOp38
 70
     0
102
RTVSPost2010Prop39
140
1.0
102
RTVSPost2010PropOp39
 70
     0
102
RTVSPost2010Prop40
 90
        0
102
RTVSPost2010PropOp40
 70
     0
102
RTVSPost2010Prop41ColorIndex
 90
       18
102
RTVSPost2010Prop41ColorRGB
 90
        0
102
RTVSPost2010PropOp41
 70
     0
102
RTVSPost2010Prop42
 90
       50
102
RTVSPost2010PropOp42
 70
     0
102
RTVSPost2010Prop43
 90
        3
102
RTVSPost2010PropOp43
 70
     0
102
RTVSPost2010Prop44ColorIndex
 90
        5
102
RTVSPost2010Prop44ColorRGB
 90
      255
102
RTVSPost2010PropOp44
 70
     0
102
RTVSPost2010Prop45
280
     0
102
RTVSPost2010PropOp45
 70
     0
102
RTVSPost2010Prop46
 90
       50
102
RTVSPost2010PropOp46
 70
     0
102
RTVSPost2010Prop47
 90
       50
102
RTVSPost2010PropOp47
 70
     0
102
RTVSPost2010Prop48
 90
       50
102
RTVSPost2010PropOp48
 70
     0
102
RTVSPost2010Prop49
280
     0
102
RTVSPost2010PropOp49
 70
     0
102
RTVSPost2010Prop50
 90
       50
102
RTVSPost2010PropOp50
 70
     0
102
RTVSPost2010Prop51ColorIndex
 90
      256
102
RTVSPost2010Prop51ColorRGB
 90
-16777216
102
RTVSPost2010PropOp51
 70
     0
102
RTVSPost2010Prop52
140
1.0
102
RTVSPost2010PropOp52
 70
     0
102
RTVSPost2010Prop53
 90
        2
102
RTVSPost2010PropOp53
 70
     0
102
RTVSPost2010Prop54
  1
strokes_ogs.tif
102
RTVSPost2010PropOp54
 70
     0
102
RTVSPost2010Prop55
280
     0
102
RTVSPost2010PropOp55
 70
     0
102
RTVSPost2010Prop56
140
1.0
102
RTVSPost2010PropOp56
 70
     0
102
RTVSPost2010Prop57
140
1.0
102
RTVSPost2010PropOp57
 70
     0
  0
XRECORD
  5
F7
102
{ACAD_REACTORS
330
F6
102
}
330
F6
100
AcDbXrecord
280
     1
102
RTVSPost2010Prop28
280
     0
102
RTVSPost2010PropOp28
 70
     1
102
RTVSPost2010Prop29
280
     1
102
RTVSPost2010PropOp29
 70
     1
102
RTVSPost2010Prop30
280
     1
102
RTVSPost2010PropOp30
 70
     1
102
RTVSPost2010Prop31
280
     0
102
RTVSPost2010PropOp31
 70
     1
102
RTVSPost2010Prop32
280
     0
102
RTVSPost2010PropOp32
 70
     1
102
RTVSPost2010Prop33
280
     0
102
RTVSPost2010PropOp33
 70
     1
102
RTVSPost2010Prop34
280
     0
102
RTVSPost2010PropOp34
 70
     1
102
RTVSPost2010Prop35
280
     0
102
RTVSPost2010PropOp35
 70
     1
102
RTVSPost2010Prop36
280
     0
102
RTVSPost2010PropOp36
 70
     1
102
RTVSPost2010Prop37
 90
       50
102
RTVSPost2010PropOp37
 70
     1
102
RTVSPost2010Prop38
140
0.0
102
RTVSPost2010PropOp38
 70
     1
102
RTVSPost2010Prop39
140
1.0
102
RTVSPost2010PropOp39
 70
     1
102
RTVSPost2010Prop40
 90
        0
102
RTVSPost2010PropOp40
 70
     1
102
RTVSPost2010Prop41ColorIndex
 90
       18
102
RTVSPost2010Prop41ColorRGB
 90
        0
102
RTVSPost2010PropOp41
 70
     1
102
RTVSPost2010Prop42
 90
       50
102
RTVSPost2010PropOp42
 70
     1
102
RTVSPost2010Prop43
 90
        3
102
RTVSPost2010PropOp43
 70
     1
102
RTVSPost2010Prop44ColorIndex
 90
        5
102
RTVSPost2010Prop44ColorRGB
 90
      255
102
RTVSPost2010PropOp44
 70
     1
102
RTVSPost2010Prop45
280
     0
102
RTVSPost2010PropOp45
 70
     1
102
RTVSPost2010Prop46
 90
       50
102
RTVSPost2010PropOp46
 70
     1
102
RTVSPost2010Prop47
 90
       50
102
RTVSPost2010PropOp47
 70
     1
102
RTVSPost2010Prop48
 90
       50
102
RTVSPost2010PropOp48
 70
     1
102
RTVSPost2010Prop49
280
     0
102
RTVSPost2010PropOp49
 70
     1
102
RTVSPost2010Prop50
 90
       50
102
RTVSPost2010PropOp50
 70
     1
102
RTVSPost2010Prop51ColorIndex
 90
      256
102
RTVSPost2010Prop51ColorRGB
 90
-16777216
102
RTVSPost2010PropOp51
 70
     0
102
RTVSPost2010Prop52
140
1.0
102
RTVSPost2010PropOp52
 70
     0
102
RTVSPost2010Prop53
 90
        2
102
RTVSPost2010PropOp53
 70
     1
102
RTVSPost2010Prop54
  1
strokes_ogs.tif
102
RTVSPost2010PropOp54
 70
     1
102
RTVSPost2010Prop55
280
     0
102
RTVSPost2010PropOp55
 70
     1
102
RTVSPost2010Prop56
140
1.0
102
RTVSPost2010PropOp56
 70
     1
102
RTVSPost2010Prop57
140
1.0
102
RTVSPost2010PropOp57
 70
     1
  0
XRECORD
  5
DB
102
{ACAD_REACTORS
330
DA
102
}
330
DA
100
AcDbXrecord
280
     1
102
RTVSPost2010Prop28
280
     0
102
RTVSPost2010PropOp28
 70
     1
102
RTVSPost2010Prop29
280
     1
102
RTVSPost2010PropOp29
 70
     1
102
RTVSPost2010Prop30
280
     1
102
RTVSPost2010PropOp30
 70
     1
102
RTVSPost2010Prop31
280
     0
102
RTVSPost2010PropOp31
 70
     1
102
RTVSPost2010Prop32
280
     0
102
RTVSPost2010PropOp32
 70
     1
102
RTVSPost2010Prop33
280
     0
102
RTVSPost2010PropOp33
 70
     1
102
RTVSPost2010Prop34
280
     0
102
RTVSPost2010PropOp34
 70
     1
102
RTVSPost2010Prop35
280
     0
102
RTVSPost2010PropOp35
 70
     1
102
RTVSPost2010Prop36
280
     0
102
RTVSPost2010PropOp36
 70
     1
102
RTVSPost2010Prop37
 90
       50
102
RTVSPost2010PropOp37
 70
     1
102
RTVSPost2010Prop38
140
0.0
102
RTVSPost2010PropOp38
 70
     1
102
RTVSPost2010Prop39
140
1.0
102
RTVSPost2010PropOp39
 70
     1
102
RTVSPost2010Prop40
 90
        0
102
RTVSPost2010PropOp40
 70
     1
102
RTVSPost2010Prop41ColorIndex
 90
       18
102
RTVSPost2010Prop41ColorRGB
 90
        0
102
RTVSPost2010PropOp41
 70
     1
102
RTVSPost2010Prop42
 90
       50
102
RTVSPost2010PropOp42
 70
     1
102
RTVSPost2010Prop43
 90
        3
102
RTVSPost2010PropOp43
 70
     1
102
RTVSPost2010Prop44ColorIndex
 90
        5
102
RTVSPost2010Prop44ColorRGB
 90
      255
102
RTVSPost2010PropOp44
 70
     1
102
RTVSPost2010Prop45
280
     0
102
RTVSPost2010PropOp45
 70
     1
102
RTVSPost2010Prop46
 90
       50
102
RTVSPost2010PropOp46
 70
     1
102
RTVSPost2010Prop47
 90
       50
102
RTVSPost2010PropOp47
 70
     1
102
RTVSPost2010Prop48
 90
       50
102
RTVSPost2010PropOp48
 70
     1
102
RTVSPost2010Prop49
280
     0
102
RTVSPost2010PropOp49
 70
     1
102
RTVSPost2010Prop50
 90
       50
102
RTVSPost2010PropOp50
 70
     1
102
RTVSPost2010Prop51ColorIndex
 90
      256
102
RTVSPost2010Prop51ColorRGB
 90
-16777216
102
RTVSPost2010PropOp51
 70
     0
102
RTVSPost2010Prop52
140
1.0
102
RTVSPost2010PropOp52
 70
     0
102
RTVSPost2010Prop53
 90
        2
102
RTVSPost2010PropOp53
 70
     1
102
RTVSPost2010Prop54
  1
strokes_ogs.tif
102
RTVSPost2010PropOp54
 70
     1
102
RTVSPost2010Prop55
280
     0
102
RTVSPost2010PropOp55
 70
     1
102
RTVSPost2010Prop56
140
1.0
102
RTVSPost2010PropOp56
 70
     1
102
RTVSPost2010Prop57
140
1.0
102
RTVSPost2010PropOp57
 70
     1
  0
XRECORD
  5
DD
102
{ACAD_REACTORS
330
DC
102
}
330
DC
100
AcDbXrecord
280
     1
102
RTVSPost2010Prop28
280
     0
102
RTVSPost2010PropOp28
 70
     1
102
RTVSPost2010Prop29
280
     1
102
RTVSPost2010PropOp29
 70
     1
102
RTVSPost2010Prop30
280
     1
102
RTVSPost2010PropOp30
 70
     1
102
RTVSPost2010Prop31
280
     0
102
RTVSPost2010PropOp31
 70
     1
102
RTVSPost2010Prop32
280
     0
102
RTVSPost2010PropOp32
 70
     1
102
RTVSPost2010Prop33
280
     0
102
RTVSPost2010PropOp33
 70
     1
102
RTVSPost2010Prop34
280
     0
102
RTVSPost2010PropOp34
 70
     1
102
RTVSPost2010Prop35
280
     0
102
RTVSPost2010PropOp35
 70
     1
102
RTVSPost2010Prop36
280
     0
102
RTVSPost2010PropOp36
 70
     1
102
RTVSPost2010Prop37
 90
       50
102
RTVSPost2010PropOp37
 70
     1
102
RTVSPost2010Prop38
140
0.0
102
RTVSPost2010PropOp38
 70
     1
102
RTVSPost2010Prop39
140
1.0
102
RTVSPost2010PropOp39
 70
     1
102
RTVSPost2010Prop40
 90
        0
102
RTVSPost2010PropOp40
 70
     1
102
RTVSPost2010Prop41ColorIndex
 90
       18
102
RTVSPost2010Prop41ColorRGB
 90
        0
102
RTVSPost2010PropOp41
 70
     1
102
RTVSPost2010Prop42
 90
       50
102
RTVSPost2010PropOp42
 70
     1
102
RTVSPost2010Prop43
 90
        3
102
RTVSPost2010PropOp43
 70
     1
102
RTVSPost2010Prop44ColorIndex
 90
        5
102
RTVSPost2010Prop44ColorRGB
 90
      255
102
RTVSPost2010PropOp44
 70
     1
102
RTVSPost2010Prop45
280
     0
102
RTVSPost2010PropOp45
 70
     1
102
RTVSPost2010Prop46
 90
       50
102
RTVSPost2010PropOp46
 70
     1
102
RTVSPost2010Prop47
 90
       50
102
RTVSPost2010PropOp47
 70
     1
102
RTVSPost2010Prop48
 90
       50
102
RTVSPost2010PropOp48
 70
     1
102
RTVSPost2010Prop49
280
     0
102
RTVSPost2010PropOp49
 70
     1
102
RTVSPost2010Prop50
 90
       50
102
RTVSPost2010PropOp50
 70
     1
102
RTVSPost2010Prop51ColorIndex
 90
      256
102
RTVSPost2010Prop51ColorRGB
 90
-16777216
102
RTVSPost2010PropOp51
 70
     0
102
RTVSPost2010Prop52
140
1.0
102
RTVSPost2010PropOp52
 70
     0
102
RTVSPost2010Prop53
 90
        2
102
RTVSPost2010PropOp53
 70
     1
102
RTVSPost2010Prop54
  1
strokes_ogs.tif
102
RTVSPost2010PropOp54
 70
     1
102
RTVSPost2010Prop55
280
     0
102
RTVSPost2010PropOp55
 70
     1
102
RTVSPost2010Prop56
140
1.0
102
RTVSPost2010PropOp56
 70
     1
102
RTVSPost2010Prop57
140
1.0
102
RTVSPost2010PropOp57
 70
     1
  0
XRECORD
  5
DF
102
{ACAD_REACTORS
330
DE
102
}
330
DE
100
AcDbXrecord
280
     1
102
RTVSPost2010Prop28
280
     0
102
RTVSPost2010PropOp28
 70
     1
102
RTVSPost2010Prop29
280
     1
102
RTVSPost2010PropOp29
 70
     1
102
RTVSPost2010Prop30
280
     1
102
RTVSPost2010PropOp30
 70
     1
102
RTVSPost2010Prop31
280
     0
102
RTVSPost2010PropOp31
 70
     1
102
RTVSPost2010Prop32
280
     0
102
RTVSPost2010PropOp32
 70
     1
102
RTVSPost2010Prop33
280
     0
102
RTVSPost2010PropOp33
 70
     1
102
RTVSPost2010Prop34
280
     0
102
RTVSPost2010PropOp34
 70
     1
102
RTVSPost2010Prop35
280
     0
102
RTVSPost2010PropOp35
 70
     1
102
RTVSPost2010Prop36
280
     0
102
RTVSPost2010PropOp36
 70
     1
102
RTVSPost2010Prop37
 90
       50
102
RTVSPost2010PropOp37
 70
     1
102
RTVSPost2010Prop38
140
0.0
102
RTVSPost2010PropOp38
 70
     1
102
RTVSPost2010Prop39
140
1.0
102
RTVSPost2010PropOp39
 70
     1
102
RTVSPost2010Prop40
 90
        0
102
RTVSPost2010PropOp40
 70
     1
102
RTVSPost2010Prop41ColorIndex
 90
       18
102
RTVSPost2010Prop41ColorRGB
 90
        0
102
RTVSPost2010PropOp41
 70
     1
102
RTVSPost2010Prop42
 90
       50
102
RTVSPost2010PropOp42
 70
     1
102
RTVSPost2010Prop43
 90
        3
102
RTVSPost2010PropOp43
 70
     1
102
RTVSPost2010Prop44ColorIndex
 90
        5
102
RTVSPost2010Prop44ColorRGB
 90
      255
102
RTVSPost2010PropOp44
 70
     1
102
RTVSPost2010Prop45
280
     0
102
RTVSPost2010PropOp45
 70
     1
102
RTVSPost2010Prop46
 90
       50
102
RTVSPost2010PropOp46
 70
     1
102
RTVSPost2010Prop47
 90
       50
102
RTVSPost2010PropOp47
 70
     1
102
RTVSPost2010Prop48
 90
       50
102
RTVSPost2010PropOp48
 70
     1
102
RTVSPost2010Prop49
280
     0
102
RTVSPost2010PropOp49
 70
     1
102
RTVSPost2010Prop50
 90
       50
102
RTVSPost2010PropOp50
 70
     1
102
RTVSPost2010Prop51ColorIndex
 90
      256
102
RTVSPost2010Prop51ColorRGB
 90
-16777216
102
RTVSPost2010PropOp51
 70
     0
102
RTVSPost2010Prop52
140
1.0
102
RTVSPost2010PropOp52
 70
     0
102
RTVSPost2010Prop53
 90
        2
102
RTVSPost2010PropOp53
 70
     1
102
RTVSPost2010Prop54
  1
strokes_ogs.tif
102
RTVSPost2010PropOp54
 70
     1
102
RTVSPost2010Prop55
280
     0
102
RTVSPost2010PropOp55
 70
     1
102
RTVSPost2010Prop56
140
1.0
102
RTVSPost2010PropOp56
 70
     1
102
RTVSPost2010Prop57
140
1.0
102
RTVSPost2010PropOp57
 70
     1
  0
XRECORD
  5
E1
102
{ACAD_REACTORS
330
E0
102
}
330
E0
100
AcDbXrecord
280
     1
102
RTVSPost2010Prop28
280
     0
102
RTVSPost2010PropOp28
 70
     1
102
RTVSPost2010Prop29
280
     1
102
RTVSPost2010PropOp29
 70
     1
102
RTVSPost2010Prop30
280
     1
102
RTVSPost2010PropOp30
 70
     1
102
RTVSPost2010Prop31
280
     0
102
RTVSPost2010PropOp31
 70
     1
102
RTVSPost2010Prop32
280
     0
102
RTVSPost2010PropOp32
 70
     1
102
RTVSPost2010Prop33
280
     0
102
RTVSPost2010PropOp33
 70
     1
102
RTVSPost2010Prop34
280
     0
102
RTVSPost2010PropOp34
 70
     1
102
RTVSPost2010Prop35
280
     0
102
RTVSPost2010PropOp35
 70
     1
102
RTVSPost2010Prop36
280
     0
102
RTVSPost2010PropOp36
 70
     1
102
RTVSPost2010Prop37
 90
       50
102
RTVSPost2010PropOp37
 70
     1
102
RTVSPost2010Prop38
140
0.0
102
RTVSPost2010PropOp38
 70
     1
102
RTVSPost2010Prop39
140
1.0
102
RTVSPost2010PropOp39
 70
     1
102
RTVSPost2010Prop40
 90
        0
102
RTVSPost2010PropOp40
 70
     1
102
RTVSPost2010Prop41ColorIndex
 90
       18
102
RTVSPost2010Prop41ColorRGB
 90
        0
102
RTVSPost2010PropOp41
 70
     1
102
RTVSPost2010Prop42
 90
       50
102
RTVSPost2010PropOp42
 70
     1
102
RTVSPost2010Prop43
 90
        3
102
RTVSPost2010PropOp43
 70
     1
102
RTVSPost2010Prop44ColorIndex
 90
        5
102
RTVSPost2010Prop44ColorRGB
 90
      255
102
RTVSPost2010PropOp44
 70
     1
102
RTVSPost2010Prop45
280
     0
102
RTVSPost2010PropOp45
 70
     1
102
RTVSPost2010Prop46
 90
       50
102
RTVSPost2010PropOp46
 70
     1
102
RTVSPost2010Prop47
 90
       50
102
RTVSPost2010PropOp47
 70
     1
102
RTVSPost2010Prop48
 90
       50
102
RTVSPost2010PropOp48
 70
     1
102
RTVSPost2010Prop49
280
     0
102
RTVSPost2010PropOp49
 70
     1
102
RTVSPost2010Prop50
 90
       50
102
RTVSPost2010PropOp50
 70
     1
102
RTVSPost2010Prop51ColorIndex
 90
      256
102
RTVSPost2010Prop51ColorRGB
 90
-16777216
102
RTVSPost2010PropOp51
 70
     0
102
RTVSPost2010Prop52
140
1.0
102
RTVSPost2010PropOp52
 70
     0
102
RTVSPost2010Prop53
 90
        2
102
RTVSPost2010PropOp53
 70
     1
102
RTVSPost2010Prop54
  1
strokes_ogs.tif
102
RTVSPost2010PropOp54
 70
     1
102
RTVSPost2010Prop55
280
     0
102
RTVSPost2010PropOp55
 70
     1
102
RTVSPost2010Prop56
140
1.0
102
RTVSPost2010PropOp56
 70
     1
102
RTVSPost2010Prop57
140
1.0
102
RTVSPost2010PropOp57
 70
     1
  0
XRECORD
  5
E9
102
{ACAD_REACTORS
330
E8
102
}
330
E8
100
AcDbXrecord
280
     1
102
RTVSPost2010Prop28
280
     0
102
RTVSPost2010PropOp28
 70
     1
102
RTVSPost2010Prop29
280
     1
102
RTVSPost2010PropOp29
 70
     1
102
RTVSPost2010Prop30
280
     1
102
RTVSPost2010PropOp30
 70
     1
102
RTVSPost2010Prop31
280
     0
102
RTVSPost2010PropOp31
 70
     1
102
RTVSPost2010Prop32
280
     0
102
RTVSPost2010PropOp32
 70
     1
102
RTVSPost2010Prop33
280
     0
102
RTVSPost2010PropOp33
 70
     1
102
RTVSPost2010Prop34
280
     0
102
RTVSPost2010PropOp34
 70
     1
102
RTVSPost2010Prop35
280
     0
102
RTVSPost2010PropOp35
 70
     1
102
RTVSPost2010Prop36
280
     0
102
RTVSPost2010PropOp36
 70
     1
102
RTVSPost2010Prop37
 90
       50
102
RTVSPost2010PropOp37
 70
     1
102
RTVSPost2010Prop38
140
0.0
102
RTVSPost2010PropOp38
 70
     1
102
RTVSPost2010Prop39
140
1.0
102
RTVSPost2010PropOp39
 70
     1
102
RTVSPost2010Prop40
 90
        0
102
RTVSPost2010PropOp40
 70
     1
102
RTVSPost2010Prop41ColorIndex
 90
       18
102
RTVSPost2010Prop41ColorRGB
 90
        0
102
RTVSPost2010PropOp41
 70
     1
102
RTVSPost2010Prop42
 90
       50
102
RTVSPost2010PropOp42
 70
     1
102
RTVSPost2010Prop43
 90
        3
102
RTVSPost2010PropOp43
 70
     1
102
RTVSPost2010Prop44ColorIndex
 90
        5
102
RTVSPost2010Prop44ColorRGB
 90
      255
102
RTVSPost2010PropOp44
 70
     1
102
RTVSPost2010Prop45
280
     0
102
RTVSPost2010PropOp45
 70
     1
102
RTVSPost2010Prop46
 90
       50
102
RTVSPost2010PropOp46
 70
     1
102
RTVSPost2010Prop47
 90
       50
102
RTVSPost2010PropOp47
 70
     1
102
RTVSPost2010Prop48
 90
       50
102
RTVSPost2010PropOp48
 70
     1
102
RTVSPost2010Prop49
280
     0
102
RTVSPost2010PropOp49
 70
     1
102
RTVSPost2010Prop50
 90
       50
102
RTVSPost2010PropOp50
 70
     1
102
RTVSPost2010Prop51ColorIndex
 90
      256
102
RTVSPost2010Prop51ColorRGB
 90
-16777216
102
RTVSPost2010PropOp51
 70
     0
102
RTVSPost2010Prop52
140
1.0
102
RTVSPost2010PropOp52
 70
     0
102
RTVSPost2010Prop53
 90
        2
102
RTVSPost2010PropOp53
 70
     1
102
RTVSPost2010Prop54
  1
strokes_ogs.tif
102
RTVSPost2010PropOp54
 70
     1
102
RTVSPost2010Prop55
280
     0
102
RTVSPost2010PropOp55
 70
     1
102
RTVSPost2010Prop56
140
1.0
102
RTVSPost2010PropOp56
 70
     1
102
RTVSPost2010Prop57
140
1.0
102
RTVSPost2010PropOp57
 70
     1
  0
XRECORD
  5
105
102
{ACAD_REACTORS
330
104
102
}
330
104
100
AcDbXrecord
280
     1
102
RTVSPost2010Prop28
280
     0
102
RTVSPost2010PropOp28
 70
     0
102
RTVSPost2010Prop29
280
     1
102
RTVSPost2010PropOp29
 70
     0
102
RTVSPost2010Prop30
280
     1
102
RTVSPost2010PropOp30
 70
     0
102
RTVSPost2010Prop31
280
     0
102
RTVSPost2010PropOp31
 70
     0
102
RTVSPost2010Prop32
280
     0
102
RTVSPost2010PropOp32
 70
     0
102
RTVSPost2010Prop33
280
     0
102
RTVSPost2010PropOp33
 70
     0
102
RTVSPost2010Prop34
280
     0
102
RTVSPost2010PropOp34
 70
     0
102
RTVSPost2010Prop35
280
     0
102
RTVSPost2010PropOp35
 70
     0
102
RTVSPost2010Prop36
280
     0
102
RTVSPost2010PropOp36
 70
     0
102
RTVSPost2010Prop37
 90
       50
102
RTVSPost2010PropOp37
 70
     0
102
RTVSPost2010Prop38
140
0.0
102
RTVSPost2010PropOp38
 70
     0
102
RTVSPost2010Prop39
140
1.0
102
RTVSPost2010PropOp39
 70
     0
102
RTVSPost2010Prop40
 90
        0
102
RTVSPost2010PropOp40
 70
     0
102
RTVSPost2010Prop41ColorIndex
 90
       18
102
RTVSPost2010Prop41ColorRGB
 90
        0
102
RTVSPost2010PropOp41
 70
     0
102
RTVSPost2010Prop42
 90
       50
102
RTVSPost2010PropOp42
 70
     0
102
RTVSPost2010Prop43
 90
        3
102
RTVSPost2010PropOp43
 70
     0
102
RTVSPost2010Prop44ColorIndex
 90
        5
102
RTVSPost2010Prop44ColorRGB
 90
      255
102
RTVSPost2010PropOp44
 70
     0
102
RTVSPost2010Prop45
280
     0
102
RTVSPost2010PropOp45
 70
     0
102
RTVSPost2010Prop46
 90
       50
102
RTVSPost2010PropOp46
 70
     0
102
RTVSPost2010Prop47
 90
       50
102
RTVSPost2010PropOp47
 70
     0
102
RTVSPost2010Prop48
 90
       50
102
RTVSPost2010PropOp48
 70
     0
102
RTVSPost2010Prop49
280
     0
102
RTVSPost2010PropOp49
 70
     0
102
RTVSPost2010Prop50
 90
       50
102
RTVSPost2010PropOp50
 70
     0
102
RTVSPost2010Prop51ColorIndex
 90
      256
102
RTVSPost2010Prop51ColorRGB
 90
-16777216
102
RTVSPost2010PropOp51
 70
     0
102
RTVSPost2010Prop52
140
1.0
102
RTVSPost2010PropOp52
 70
     0
102
RTVSPost2010Prop53
 90
        2
102
RTVSPost2010PropOp53
 70
     0
102
RTVSPost2010Prop54
  1
strokes_ogs.tif
102
RTVSPost2010PropOp54
 70
     0
102
RTVSPost2010Prop55
280
     0
102
RTVSPost2010PropOp55
 70
     0
102
RTVSPost2010Prop56
140
1.0
102
RTVSPost2010PropOp56
 70
     0
102
RTVSPost2010Prop57
140
1.0
102
RTVSPost2010PropOp57
 70
     0
  0
XRECORD
  5
F5
102
{ACAD_REACTORS
330
F4
102
}
330
F4
100
AcDbXrecord
280
     1
102
RTVSPost2010Prop28
280
     0
102
RTVSPost2010PropOp28
 70
     1
102
RTVSPost2010Prop29
280
     1
102
RTVSPost2010PropOp29
 70
     1
102
RTVSPost2010Prop30
280
     1
102
RTVSPost2010PropOp30
 70
     1
102
RTVSPost2010Prop31
280
     0
102
RTVSPost2010PropOp31
 70
     1
102
RTVSPost2010Prop32
280
     0
102
RTVSPost2010PropOp32
 70
     1
102
RTVSPost2010Prop33
280
     0
102
RTVSPost2010PropOp33
 70
     1
102
RTVSPost2010Prop34
280
     0
102
RTVSPost2010PropOp34
 70
     1
102
RTVSPost2010Prop35
280
     0
102
RTVSPost2010PropOp35
 70
     1
102
RTVSPost2010Prop36
280
     0
102
RTVSPost2010PropOp36
 70
     1
102
RTVSPost2010Prop37
 90
       50
102
RTVSPost2010PropOp37
 70
     1
102
RTVSPost2010Prop38
140
0.0
102
RTVSPost2010PropOp38
 70
     1
102
RTVSPost2010Prop39
140
1.0
102
RTVSPost2010PropOp39
 70
     1
102
RTVSPost2010Prop40
 90
        0
102
RTVSPost2010PropOp40
 70
     1
102
RTVSPost2010Prop41ColorIndex
 90
       18
102
RTVSPost2010Prop41ColorRGB
 90
        0
102
RTVSPost2010PropOp41
 70
     1
102
RTVSPost2010Prop42
 90
       50
102
RTVSPost2010PropOp42
 70
     1
102
RTVSPost2010Prop43
 90
        3
102
RTVSPost2010PropOp43
 70
     1
102
RTVSPost2010Prop44ColorIndex
 90
        5
102
RTVSPost2010Prop44ColorRGB
 90
      255
102
RTVSPost2010PropOp44
 70
     1
102
RTVSPost2010Prop45
280
     0
102
RTVSPost2010PropOp45
 70
     1
102
RTVSPost2010Prop46
 90
       50
102
RTVSPost2010PropOp46
 70
     1
102
RTVSPost2010Prop47
 90
       50
102
RTVSPost2010PropOp47
 70
     1
102
RTVSPost2010Prop48
 90
       50
102
RTVSPost2010PropOp48
 70
     1
102
RTVSPost2010Prop49
280
     0
102
RTVSPost2010PropOp49
 70
     1
102
RTVSPost2010Prop50
 90
       50
102
RTVSPost2010PropOp50
 70
     1
102
RTVSPost2010Prop51ColorIndex
 90
      256
102
RTVSPost2010Prop51ColorRGB
 90
-16777216
102
RTVSPost2010PropOp51
 70
     0
102
RTVSPost2010Prop52
140
1.0
102
RTVSPost2010PropOp52
 70
     0
102
RTVSPost2010Prop53
 90
        2
102
RTVSPost2010PropOp53
 70
     1
102
RTVSPost2010Prop54
  1
strokes_ogs.tif
102
RTVSPost2010PropOp54
 70
     1
102
RTVSPost2010Prop55
280
     0
102
RTVSPost2010PropOp55
 70
     1
102
RTVSPost2010Prop56
140
1.0
102
RTVSPost2010PropOp56
 70
     1
102
RTVSPost2010Prop57
140
1.0
102
RTVSPost2010PropOp57
 70
     1
  0
XRECORD
  5
107
102
{ACAD_REACTORS
330
106
102
}
330
106
100
AcDbXrecord
280
     1
102
RTVSPost2010Prop28
280
     0
102
RTVSPost2010PropOp28
 70
     0
102
RTVSPost2010Prop29
280
     1
102
RTVSPost2010PropOp29
 70
     0
102
RTVSPost2010Prop30
280
     1
102
RTVSPost2010PropOp30
 70
     0
102
RTVSPost2010Prop31
280
     0
102
RTVSPost2010PropOp31
 70
     0
102
RTVSPost2010Prop32
280
     0
102
RTVSPost2010PropOp32
 70
     0
102
RTVSPost2010Prop33
280
     0
102
RTVSPost2010PropOp33
 70
     0
102
RTVSPost2010Prop34
280
     0
102
RTVSPost2010PropOp34
 70
     0
102
RTVSPost2010Prop35
280
     0
102
RTVSPost2010PropOp35
 70
     0
102
RTVSPost2010Prop36
280
     0
102
RTVSPost2010PropOp36
 70
     0
102
RTVSPost2010Prop37
 90
       50
102
RTVSPost2010PropOp37
 70
     0
102
RTVSPost2010Prop38
140
0.0
102
RTVSPost2010PropOp38
 70
     0
102
RTVSPost2010Prop39
140
1.0
102
RTVSPost2010PropOp39
 70
     0
102
RTVSPost2010Prop40
 90
        0
102
RTVSPost2010PropOp40
 70
     0
102
RTVSPost2010Prop41ColorIndex
 90
       18
102
RTVSPost2010Prop41ColorRGB
 90
        0
102
RTVSPost2010PropOp41
 70
     0
102
RTVSPost2010Prop42
 90
       50
102
RTVSPost2010PropOp42
 70
     0
102
RTVSPost2010Prop43
 90
        3
102
RTVSPost2010PropOp43
 70
     0
102
RTVSPost2010Prop44ColorIndex
 90
        5
102
RTVSPost2010Prop44ColorRGB
 90
      255
102
RTVSPost2010PropOp44
 70
     0
102
RTVSPost2010Prop45
280
     0
102
RTVSPost2010PropOp45
 70
     0
102
RTVSPost2010Prop46
 90
       50
102
RTVSPost2010PropOp46
 70
     0
102
RTVSPost2010Prop47
 90
       50
102
RTVSPost2010PropOp47
 70
     0
102
RTVSPost2010Prop48
 90
       50
102
RTVSPost2010PropOp48
 70
     0
102
RTVSPost2010Prop49
280
     0
102
RTVSPost2010PropOp49
 70
     0
102
RTVSPost2010Prop50
 90
       50
102
RTVSPost2010PropOp50
 70
     0
102
RTVSPost2010Prop51ColorIndex
 90
      256
102
RTVSPost2010Prop51ColorRGB
 90
-16777216
102
RTVSPost2010PropOp51
 70
     0
102
RTVSPost2010Prop52
140
1.0
102
RTVSPost2010PropOp52
 70
     0
102
RTVSPost2010Prop53
 90
        2
102
RTVSPost2010PropOp53
 70
     0
102
RTVSPost2010Prop54
  1
strokes_ogs.tif
102
RTVSPost2010PropOp54
 70
     0
102
RTVSPost2010Prop55
280
     0
102
RTVSPost2010PropOp55
 70
     0
102
RTVSPost2010Prop56
140
1.0
102
RTVSPost2010PropOp56
 70
     0
102
RTVSPost2010Prop57
140
1.0
102
RTVSPost2010PropOp57
 70
     0
  0
XRECORD
  5
ED
102
{ACAD_REACTORS
330
EC
102
}
330
EC
100
AcDbXrecord
280
     1
102
RTVSPost2010Prop28
280
     0
102
RTVSPost2010PropOp28
 70
     1
102
RTVSPost2010Prop29
280
     1
102
RTVSPost2010PropOp29
 70
     1
102
RTVSPost2010Prop30
280
     1
102
RTVSPost2010PropOp30
 70
     1
102
RTVSPost2010Prop31
280
     0
102
RTVSPost2010PropOp31
 70
     1
102
RTVSPost2010Prop32
280
     0
102
RTVSPost2010PropOp32
 70
     1
102
RTVSPost2010Prop33
280
     0
102
RTVSPost2010PropOp33
 70
     1
102
RTVSPost2010Prop34
280
     0
102
RTVSPost2010PropOp34
 70
     1
102
RTVSPost2010Prop35
280
     0
102
RTVSPost2010PropOp35
 70
     1
102
RTVSPost2010Prop36
280
     0
102
RTVSPost2010PropOp36
 70
     1
102
RTVSPost2010Prop37
 90
       50
102
RTVSPost2010PropOp37
 70
     1
102
RTVSPost2010Prop38
140
0.0
102
RTVSPost2010PropOp38
 70
     1
102
RTVSPost2010Prop39
140
1.0
102
RTVSPost2010PropOp39
 70
     1
102
RTVSPost2010Prop40
 90
        0
102
RTVSPost2010PropOp40
 70
     1
102
RTVSPost2010Prop41ColorIndex
 90
       18
102
RTVSPost2010Prop41ColorRGB
 90
        0
102
RTVSPost2010PropOp41
 70
     1
102
RTVSPost2010Prop42
 90
       50
102
RTVSPost2010PropOp42
 70
     1
102
RTVSPost2010Prop43
 90
        3
102
RTVSPost2010PropOp43
 70
     1
102
RTVSPost2010Prop44ColorIndex
 90
        5
102
RTVSPost2010Prop44ColorRGB
 90
      255
102
RTVSPost2010PropOp44
 70
     1
102
RTVSPost2010Prop45
280
     0
102
RTVSPost2010PropOp45
 70
     1
102
RTVSPost2010Prop46
 90
       50
102
RTVSPost2010PropOp46
 70
     1
102
RTVSPost2010Prop47
 90
       50
102
RTVSPost2010PropOp47
 70
     1
102
RTVSPost2010Prop48
 90
       50
102
RTVSPost2010PropOp48
 70
     1
102
RTVSPost2010Prop49
280
     0
102
RTVSPost2010PropOp49
 70
     1
102
RTVSPost2010Prop50
 90
       50
102
RTVSPost2010PropOp50
 70
     1
102
RTVSPost2010Prop51ColorIndex
 90
      256
102
RTVSPost2010Prop51ColorRGB
 90
-16777216
102
RTVSPost2010PropOp51
 70
     0
102
RTVSPost2010Prop52
140
1.0
102
RTVSPost2010PropOp52
 70
     0
102
RTVSPost2010Prop53
 90
        2
102
RTVSPost2010PropOp53
 70
     1
102
RTVSPost2010Prop54
  1
strokes_ogs.tif
102
RTVSPost2010PropOp54
 70
     1
102
RTVSPost2010Prop55
280
     0
102
RTVSPost2010PropOp55
 70
     1
102
RTVSPost2010Prop56
140
1.0
102
RTVSPost2010PropOp56
 70
     1
102
RTVSPost2010Prop57
140
1.0
102
RTVSPost2010PropOp57
 70
     1
  0
XRECORD
  5
103
102
{ACAD_REACTORS
330
102
102
}
330
102
100
AcDbXrecord
280
     1
102
RTVSPost2010Prop28
280
     0
102
RTVSPost2010PropOp28
 70
     1
102
RTVSPost2010Prop29
280
     1
102
RTVSPost2010PropOp29
 70
     1
102
RTVSPost2010Prop30
280
     1
102
RTVSPost2010PropOp30
 70
     1
102
RTVSPost2010Prop31
280
     0
102
RTVSPost2010PropOp31
 70
     1
102
RTVSPost2010Prop32
280
     0
102
RTVSPost2010PropOp32
 70
     1
102
RTVSPost2010Prop33
280
     0
102
RTVSPost2010PropOp33
 70
     1
102
RTVSPost2010Prop34
280
     0
102
RTVSPost2010PropOp34
 70
     1
102
RTVSPost2010Prop35
280
     0
102
RTVSPost2010PropOp35
 70
     1
102
RTVSPost2010Prop36
280
     0
102
RTVSPost2010PropOp36
 70
     1
102
RTVSPost2010Prop37
 90
       50
102
RTVSPost2010PropOp37
 70
     1
102
RTVSPost2010Prop38
140
0.0
102
RTVSPost2010PropOp38
 70
     1
102
RTVSPost2010Prop39
140
1.0
102
RTVSPost2010PropOp39
 70
     1
102
RTVSPost2010Prop40
 90
        0
102
RTVSPost2010PropOp40
 70
     1
102
RTVSPost2010Prop41ColorIndex
 90
       18
102
RTVSPost2010Prop41ColorRGB
 90
        0
102
RTVSPost2010PropOp41
 70
     1
102
RTVSPost2010Prop42
 90
       50
102
RTVSPost2010PropOp42
 70
     1
102
RTVSPost2010Prop43
 90
        3
102
RTVSPost2010PropOp43
 70
     1
102
RTVSPost2010Prop44ColorIndex
 90
        5
102
RTVSPost2010Prop44ColorRGB
 90
      255
102
RTVSPost2010PropOp44
 70
     1
102
RTVSPost2010Prop45
280
     0
102
RTVSPost2010PropOp45
 70
     1
102
RTVSPost2010Prop46
 90
       50
102
RTVSPost2010PropOp46
 70
     1
102
RTVSPost2010Prop47
 90
       50
102
RTVSPost2010PropOp47
 70
     1
102
RTVSPost2010Prop48
 90
       50
102
RTVSPost2010PropOp48
 70
     1
102
RTVSPost2010Prop49
280
     0
102
RTVSPost2010PropOp49
 70
     1
102
RTVSPost2010Prop50
 90
       50
102
RTVSPost2010PropOp50
 70
     1
102
RTVSPost2010Prop51ColorIndex
 90
      256
102
RTVSPost2010Prop51ColorRGB
 90
-16777216
102
RTVSPost2010PropOp51
 70
     0
102
RTVSPost2010Prop52
140
1.0
102
RTVSPost2010PropOp52
 70
     0
102
RTVSPost2010Prop53
 90
        2
102
RTVSPost2010PropOp53
 70
     1
102
RTVSPost2010Prop54
  1
strokes_ogs.tif
102
RTVSPost2010PropOp54
 70
     1
102
RTVSPost2010Prop55
280
     0
102
RTVSPost2010PropOp55
 70
     1
102
RTVSPost2010Prop56
140
1.0
102
RTVSPost2010PropOp56
 70
     1
102
RTVSPost2010Prop57
140
1.0
102
RTVSPost2010PropOp57
 70
     1
  0
XRECORD
  5
101
102
{ACAD_REACTORS
330
100
102
}
330
100
100
AcDbXrecord
280
     1
102
RTVSPost2010Prop28
280
     0
102
RTVSPost2010PropOp28
 70
     1
102
RTVSPost2010Prop29
280
     1
102
RTVSPost2010PropOp29
 70
     1
102
RTVSPost2010Prop30
280
     1
102
RTVSPost2010PropOp30
 70
     1
102
RTVSPost2010Prop31
280
     0
102
RTVSPost2010PropOp31
 70
     1
102
RTVSPost2010Prop32
280
     0
102
RTVSPost2010PropOp32
 70
     1
102
RTVSPost2010Prop33
280
     0
102
RTVSPost2010PropOp33
 70
     1
102
RTVSPost2010Prop34
280
     0
102
RTVSPost2010PropOp34
 70
     1
102
RTVSPost2010Prop35
280
     0
102
RTVSPost2010PropOp35
 70
     1
102
RTVSPost2010Prop36
280
     0
102
RTVSPost2010PropOp36
 70
     1
102
RTVSPost2010Prop37
 90
       50
102
RTVSPost2010PropOp37
 70
     1
102
RTVSPost2010Prop38
140
0.0
102
RTVSPost2010PropOp38
 70
     1
102
RTVSPost2010Prop39
140
1.0
102
RTVSPost2010PropOp39
 70
     1
102
RTVSPost2010Prop40
 90
        0
102
RTVSPost2010PropOp40
 70
     1
102
RTVSPost2010Prop41ColorIndex
 90
       18
102
RTVSPost2010Prop41ColorRGB
 90
        0
102
RTVSPost2010PropOp41
 70
     1
102
RTVSPost2010Prop42
 90
       50
102
RTVSPost2010PropOp42
 70
     1
102
RTVSPost2010Prop43
 90
        3
102
RTVSPost2010PropOp43
 70
     1
102
RTVSPost2010Prop44ColorIndex
 90
        5
102
RTVSPost2010Prop44ColorRGB
 90
      255
102
RTVSPost2010PropOp44
 70
     1
102
RTVSPost2010Prop45
280
     0
102
RTVSPost2010PropOp45
 70
     1
102
RTVSPost2010Prop46
 90
       50
102
RTVSPost2010PropOp46
 70
     1
102
RTVSPost2010Prop47
 90
       50
102
RTVSPost2010PropOp47
 70
     1
102
RTVSPost2010Prop48
 90
       50
102
RTVSPost2010PropOp48
 70
     1
102
RTVSPost2010Prop49
280
     0
102
RTVSPost2010PropOp49
 70
     1
102
RTVSPost2010Prop50
 90
       50
102
RTVSPost2010PropOp50
 70
     1
102
RTVSPost2010Prop51ColorIndex
 90
      256
102
RTVSPost2010Prop51ColorRGB
 90
-16777216
102
RTVSPost2010PropOp51
 70
     0
102
RTVSPost2010Prop52
140
1.0
102
RTVSPost2010PropOp52
 70
     0
102
RTVSPost2010Prop53
 90
        2
102
RTVSPost2010PropOp53
 70
     1
102
RTVSPost2010Prop54
  1
strokes_ogs.tif
102
RTVSPost2010PropOp54
 70
     1
102
RTVSPost2010Prop55
280
     0
102
RTVSPost2010PropOp55
 70
     1
102
RTVSPost2010Prop56
140
1.0
102
RTVSPost2010PropOp56
 70
     1
102
RTVSPost2010Prop57
140
1.0
102
RTVSPost2010PropOp57
 70
     1
  0
XRECORD
  5
FB
102
{ACAD_REACTORS
330
FA
102
}
330
FA
100
AcDbXrecord
280
     1
102
RTVSPost2010Prop28
280
     0
102
RTVSPost2010PropOp28
 70
     1
102
RTVSPost2010Prop29
280
     1
102
RTVSPost2010PropOp29
 70
     1
102
RTVSPost2010Prop30
280
     1
102
RTVSPost2010PropOp30
 70
     1
102
RTVSPost2010Prop31
280
     0
102
RTVSPost2010PropOp31
 70
     1
102
RTVSPost2010Prop32
280
     0
102
RTVSPost2010PropOp32
 70
     1
102
RTVSPost2010Prop33
280
     0
102
RTVSPost2010PropOp33
 70
     1
102
RTVSPost2010Prop34
280
     0
102
RTVSPost2010PropOp34
 70
     1
102
RTVSPost2010Prop35
280
     0
102
RTVSPost2010PropOp35
 70
     1
102
RTVSPost2010Prop36
280
     0
102
RTVSPost2010PropOp36
 70
     1
102
RTVSPost2010Prop37
 90
       50
102
RTVSPost2010PropOp37
 70
     1
102
RTVSPost2010Prop38
140
0.0
102
RTVSPost2010PropOp38
 70
     1
102
RTVSPost2010Prop39
140
1.0
102
RTVSPost2010PropOp39
 70
     1
102
RTVSPost2010Prop40
 90
        0
102
RTVSPost2010PropOp40
 70
     1
102
RTVSPost2010Prop41ColorIndex
 90
       18
102
RTVSPost2010Prop41ColorRGB
 90
        0
102
RTVSPost2010PropOp41
 70
     1
102
RTVSPost2010Prop42
 90
       50
102
RTVSPost2010PropOp42
 70
     1
102
RTVSPost2010Prop43
 90
        3
102
RTVSPost2010PropOp43
 70
     1
102
RTVSPost2010Prop44ColorIndex
 90
        5
102
RTVSPost2010Prop44ColorRGB
 90
      255
102
RTVSPost2010PropOp44
 70
     1
102
RTVSPost2010Prop45
280
     0
102
RTVSPost2010PropOp45
 70
     1
102
RTVSPost2010Prop46
 90
       50
102
RTVSPost2010PropOp46
 70
     1
102
RTVSPost2010Prop47
 90
       50
102
RTVSPost2010PropOp47
 70
     1
102
RTVSPost2010Prop48
 90
       50
102
RTVSPost2010PropOp48
 70
     1
102
RTVSPost2010Prop49
280
     0
102
RTVSPost2010PropOp49
 70
     1
102
RTVSPost2010Prop50
 90
       50
102
RTVSPost2010PropOp50
 70
     1
102
RTVSPost2010Prop51ColorIndex
 90
      256
102
RTVSPost2010Prop51ColorRGB
 90
-16777216
102
RTVSPost2010PropOp51
 70
     0
102
RTVSPost2010Prop52
140
1.0
102
RTVSPost2010PropOp52
 70
     0
102
RTVSPost2010Prop53
 90
        2
102
RTVSPost2010PropOp53
 70
     1
102
RTVSPost2010Prop54
  1
strokes_ogs.tif
102
RTVSPost2010PropOp54
 70
     1
102
RTVSPost2010Prop55
280
     0
102
RTVSPost2010PropOp55
 70
     1
102
RTVSPost2010Prop56
140
1.0
102
RTVSPost2010PropOp56
 70
     1
102
RTVSPost2010Prop57
140
1.0
102
RTVSPost2010PropOp57
 70
     1
  0
XRECORD
  5
FD
102
{ACAD_REACTORS
330
FC
102
}
330
FC
100
AcDbXrecord
280
     1
102
RTVSPost2010Prop28
280
     0
102
RTVSPost2010PropOp28
 70
     1
102
RTVSPost2010Prop29
280
     1
102
RTVSPost2010PropOp29
 70
     1
102
RTVSPost2010Prop30
280
     1
102
RTVSPost2010PropOp30
 70
     1
102
RTVSPost2010Prop31
280
     0
102
RTVSPost2010PropOp31
 70
     1
102
RTVSPost2010Prop32
280
     0
102
RTVSPost2010PropOp32
 70
     1
102
RTVSPost2010Prop33
280
     0
102
RTVSPost2010PropOp33
 70
     1
102
RTVSPost2010Prop34
280
     0
102
RTVSPost2010PropOp34
 70
     1
102
RTVSPost2010Prop35
280
     0
102
RTVSPost2010PropOp35
 70
     1
102
RTVSPost2010Prop36
280
     0
102
RTVSPost2010PropOp36
 70
     1
102
RTVSPost2010Prop37
 90
       50
102
RTVSPost2010PropOp37
 70
     1
102
RTVSPost2010Prop38
140
0.0
102
RTVSPost2010PropOp38
 70
     1
102
RTVSPost2010Prop39
140
1.0
102
RTVSPost2010PropOp39
 70
     1
102
RTVSPost2010Prop40
 90
        0
102
RTVSPost2010PropOp40
 70
     1
102
RTVSPost2010Prop41ColorIndex
 90
       18
102
RTVSPost2010Prop41ColorRGB
 90
        0
102
RTVSPost2010PropOp41
 70
     1
102
RTVSPost2010Prop42
 90
       50
102
RTVSPost2010PropOp42
 70
     1
102
RTVSPost2010Prop43
 90
        3
102
RTVSPost2010PropOp43
 70
     1
102
RTVSPost2010Prop44ColorIndex
 90
        5
102
RTVSPost2010Prop44ColorRGB
 90
      255
102
RTVSPost2010PropOp44
 70
     1
102
RTVSPost2010Prop45
280
     0
102
RTVSPost2010PropOp45
 70
     1
102
RTVSPost2010Prop46
 90
       50
102
RTVSPost2010PropOp46
 70
     1
102
RTVSPost2010Prop47
 90
       50
102
RTVSPost2010PropOp47
 70
     1
102
RTVSPost2010Prop48
 90
       50
102
RTVSPost2010PropOp48
 70
     1
102
RTVSPost2010Prop49
280
     0
102
RTVSPost2010PropOp49
 70
     1
102
RTVSPost2010Prop50
 90
       50
102
RTVSPost2010PropOp50
 70
     1
102
RTVSPost2010Prop51ColorIndex
 90
      256
102
RTVSPost2010Prop51ColorRGB
 90
-16777216
102
RTVSPost2010PropOp51
 70
     0
102
RTVSPost2010Prop52
140
1.0
102
RTVSPost2010PropOp52
 70
     0
102
RTVSPost2010Prop53
 90
        2
102
RTVSPost2010PropOp53
 70
     1
102
RTVSPost2010Prop54
  1
strokes_ogs.tif
102
RTVSPost2010PropOp54
 70
     1
102
RTVSPost2010Prop55
280
     0
102
RTVSPost2010PropOp55
 70
     1
102
RTVSPost2010Prop56
140
1.0
102
RTVSPost2010PropOp56
 70
     1
102
RTVSPost2010Prop57
140
1.0
102
RTVSPost2010PropOp57
 70
     1
  0
XRECORD
  5
F3
102
{ACAD_REACTORS
330
F2
102
}
330
F2
100
AcDbXrecord
280
     1
102
RTVSPost2010Prop28
280
     0
102
RTVSPost2010PropOp28
 70
     1
102
RTVSPost2010Prop29
280
     1
102
RTVSPost2010PropOp29
 70
     1
102
RTVSPost2010Prop30
280
     1
102
RTVSPost2010PropOp30
 70
     1
102
RTVSPost2010Prop31
280
     0
102
RTVSPost2010PropOp31
 70
     1
102
RTVSPost2010Prop32
280
     0
102
RTVSPost2010PropOp32
 70
     1
102
RTVSPost2010Prop33
280
     0
102
RTVSPost2010PropOp33
 70
     1
102
RTVSPost2010Prop34
280
     0
102
RTVSPost2010PropOp34
 70
     1
102
RTVSPost2010Prop35
280
     0
102
RTVSPost2010PropOp35
 70
     1
102
RTVSPost2010Prop36
280
     0
102
RTVSPost2010PropOp36
 70
     1
102
RTVSPost2010Prop37
 90
       50
102
RTVSPost2010PropOp37
 70
     1
102
RTVSPost2010Prop38
140
0.0
102
RTVSPost2010PropOp38
 70
     1
102
RTVSPost2010Prop39
140
1.0
102
RTVSPost2010PropOp39
 70
     1
102
RTVSPost2010Prop40
 90
        0
102
RTVSPost2010PropOp40
 70
     1
102
RTVSPost2010Prop41ColorIndex
 90
       18
102
RTVSPost2010Prop41ColorRGB
 90
        0
102
RTVSPost2010PropOp41
 70
     1
102
RTVSPost2010Prop42
 90
       50
102
RTVSPost2010PropOp42
 70
     1
102
RTVSPost2010Prop43
 90
        3
102
RTVSPost2010PropOp43
 70
     1
102
RTVSPost2010Prop44ColorIndex
 90
        5
102
RTVSPost2010Prop44ColorRGB
 90
      255
102
RTVSPost2010PropOp44
 70
     1
102
RTVSPost2010Prop45
280
     0
102
RTVSPost2010PropOp45
 70
     1
102
RTVSPost2010Prop46
 90
       50
102
RTVSPost2010PropOp46
 70
     1
102
RTVSPost2010Prop47
 90
       50
102
RTVSPost2010PropOp47
 70
     1
102
RTVSPost2010Prop48
 90
       50
102
RTVSPost2010PropOp48
 70
     1
102
RTVSPost2010Prop49
280
     0
102
RTVSPost2010PropOp49
 70
     1
102
RTVSPost2010Prop50
 90
       50
102
RTVSPost2010PropOp50
 70
     1
102
RTVSPost2010Prop51ColorIndex
 90
      256
102
RTVSPost2010Prop51ColorRGB
 90
-16777216
102
RTVSPost2010PropOp51
 70
     0
102
RTVSPost2010Prop52
140
1.0
102
RTVSPost2010PropOp52
 70
     0
102
RTVSPost2010Prop53
 90
        2
102
RTVSPost2010PropOp53
 70
     1
102
RTVSPost2010Prop54
  1
strokes_ogs.tif
102
RTVSPost2010PropOp54
 70
     1
102
RTVSPost2010Prop55
280
     0
102
RTVSPost2010PropOp55
 70
     1
102
RTVSPost2010Prop56
140
1.0
102
RTVSPost2010PropOp56
 70
     1
102
RTVSPost2010Prop57
140
1.0
102
RTVSPost2010PropOp57
 70
     1
  0
XRECORD
  5
E7
102
{ACAD_REACTORS
330
E6
102
}
330
E6
100
AcDbXrecord
280
     1
102
RTVSPost2010Prop28
280
     0
102
RTVSPost2010PropOp28
 70
     1
102
RTVSPost2010Prop29
280
     1
102
RTVSPost2010PropOp29
 70
     1
102
RTVSPost2010Prop30
280
     1
102
RTVSPost2010PropOp30
 70
     1
102
RTVSPost2010Prop31
280
     0
102
RTVSPost2010PropOp31
 70
     1
102
RTVSPost2010Prop32
280
     0
102
RTVSPost2010PropOp32
 70
     1
102
RTVSPost2010Prop33
280
     0
102
RTVSPost2010PropOp33
 70
     1
102
RTVSPost2010Prop34
280
     0
102
RTVSPost2010PropOp34
 70
     1
102
RTVSPost2010Prop35
280
     0
102
RTVSPost2010PropOp35
 70
     1
102
RTVSPost2010Prop36
280
     0
102
RTVSPost2010PropOp36
 70
     1
102
RTVSPost2010Prop37
 90
       50
102
RTVSPost2010PropOp37
 70
     1
102
RTVSPost2010Prop38
140
0.0
102
RTVSPost2010PropOp38
 70
     1
102
RTVSPost2010Prop39
140
1.0
102
RTVSPost2010PropOp39
 70
     1
102
RTVSPost2010Prop40
 90
        0
102
RTVSPost2010PropOp40
 70
     1
102
RTVSPost2010Prop41ColorIndex
 90
       18
102
RTVSPost2010Prop41ColorRGB
 90
        0
102
RTVSPost2010PropOp41
 70
     1
102
RTVSPost2010Prop42
 90
       50
102
RTVSPost2010PropOp42
 70
     1
102
RTVSPost2010Prop43
 90
        3
102
RTVSPost2010PropOp43
 70
     1
102
RTVSPost2010Prop44ColorIndex
 90
        5
102
RTVSPost2010Prop44ColorRGB
 90
      255
102
RTVSPost2010PropOp44
 70
     1
102
RTVSPost2010Prop45
280
     0
102
RTVSPost2010PropOp45
 70
     1
102
RTVSPost2010Prop46
 90
       50
102
RTVSPost2010PropOp46
 70
     1
102
RTVSPost2010Prop47
 90
       50
102
RTVSPost2010PropOp47
 70
     1
102
RTVSPost2010Prop48
 90
       50
102
RTVSPost2010PropOp48
 70
     1
102
RTVSPost2010Prop49
280
     0
102
RTVSPost2010PropOp49
 70
     1
102
RTVSPost2010Prop50
 90
       50
102
RTVSPost2010PropOp50
 70
     1
102
RTVSPost2010Prop51ColorIndex
 90
      256
102
RTVSPost2010Prop51ColorRGB
 90
-16777216
102
RTVSPost2010PropOp51
 70
     0
102
RTVSPost2010Prop52
140
1.0
102
RTVSPost2010PropOp52
 70
     0
102
RTVSPost2010Prop53
 90
        2
102
RTVSPost2010PropOp53
 70
     1
102
RTVSPost2010Prop54
  1
strokes_ogs.tif
102
RTVSPost2010PropOp54
 70
     1
102
RTVSPost2010Prop55
280
     0
102
RTVSPost2010PropOp55
 70
     1
102
RTVSPost2010Prop56
140
1.0
102
RTVSPost2010PropOp56
 70
     1
102
RTVSPost2010Prop57
140
1.0
102
RTVSPost2010PropOp57
 70
     1
  0
XRECORD
  5
FF
102
{ACAD_REACTORS
330
FE
102
}
330
FE
100
AcDbXrecord
280
     1
102
RTVSPost2010Prop28
280
     0
102
RTVSPost2010PropOp28
 70
     1
102
RTVSPost2010Prop29
280
     1
102
RTVSPost2010PropOp29
 70
     1
102
RTVSPost2010Prop30
280
     1
102
RTVSPost2010PropOp30
 70
     1
102
RTVSPost2010Prop31
280
     0
102
RTVSPost2010PropOp31
 70
     1
102
RTVSPost2010Prop32
280
     0
102
RTVSPost2010PropOp32
 70
     1
102
RTVSPost2010Prop33
280
     0
102
RTVSPost2010PropOp33
 70
     1
102
RTVSPost2010Prop34
280
     0
102
RTVSPost2010PropOp34
 70
     1
102
RTVSPost2010Prop35
280
     0
102
RTVSPost2010PropOp35
 70
     1
102
RTVSPost2010Prop36
280
     0
102
RTVSPost2010PropOp36
 70
     1
102
RTVSPost2010Prop37
 90
       50
102
RTVSPost2010PropOp37
 70
     1
102
RTVSPost2010Prop38
140
0.0
102
RTVSPost2010PropOp38
 70
     1
102
RTVSPost2010Prop39
140
1.0
102
RTVSPost2010PropOp39
 70
     1
102
RTVSPost2010Prop40
 90
        0
102
RTVSPost2010PropOp40
 70
     1
102
RTVSPost2010Prop41ColorIndex
 90
       18
102
RTVSPost2010Prop41ColorRGB
 90
        0
102
RTVSPost2010PropOp41
 70
     1
102
RTVSPost2010Prop42
 90
       50
102
RTVSPost2010PropOp42
 70
     1
102
RTVSPost2010Prop43
 90
        3
102
RTVSPost2010PropOp43
 70
     1
102
RTVSPost2010Prop44ColorIndex
 90
        5
102
RTVSPost2010Prop44ColorRGB
 90
      255
102
RTVSPost2010PropOp44
 70
     1
102
RTVSPost2010Prop45
280
     0
102
RTVSPost2010PropOp45
 70
     1
102
RTVSPost2010Prop46
 90
       50
102
RTVSPost2010PropOp46
 70
     1
102
RTVSPost2010Prop47
 90
       50
102
RTVSPost2010PropOp47
 70
     1
102
RTVSPost2010Prop48
 90
       50
102
RTVSPost2010PropOp48
 70
     1
102
RTVSPost2010Prop49
280
     0
102
RTVSPost2010PropOp49
 70
     1
102
RTVSPost2010Prop50
 90
       50
102
RTVSPost2010PropOp50
 70
     1
102
RTVSPost2010Prop51ColorIndex
 90
      256
102
RTVSPost2010Prop51ColorRGB
 90
-16777216
102
RTVSPost2010PropOp51
 70
     0
102
RTVSPost2010Prop52
140
1.0
102
RTVSPost2010PropOp52
 70
     0
102
RTVSPost2010Prop53
 90
        2
102
RTVSPost2010PropOp53
 70
     1
102
RTVSPost2010Prop54
  1
strokes_ogs.tif
102
RTVSPost2010PropOp54
 70
     1
102
RTVSPost2010Prop55
280
     0
102
RTVSPost2010PropOp55
 70
     1
102
RTVSPost2010Prop56
140
1.0
102
RTVSPost2010PropOp56
 70
     1
102
RTVSPost2010Prop57
140
1.0
102
RTVSPost2010PropOp57
 70
     1
  0
ENDSEC
  0
EOF
