  0
SECTION
  2
HEADER
  9
$ACADVER
  1
AC1024
  9
$ACADMAINTVER
 70
   226
  9
$DWGCODEPAGE
  3
ANSI_932
  9
$INSBASE
 10
0.0
 20
0.0
 30
0.0
  9
$EXTMIN
 10
1.000000000000000E+20
 20
1.000000000000000E+20
 30
1.000000000000000E+20
  9
$EXTMAX
 10
-1.000000000000000E+20
 20
-1.000000000000000E+20
 30
-1.000000000000000E+20
  9
$LIMMIN
 10
0.0
 20
0.0
  9
$LIMMAX
 10
12.0
 20
9.0
  9
$ORTHOMODE
 70
     0
  9
$REGENMODE
 70
     1
  9
$FILLMODE
 70
     1
  9
$QTEXTMODE
 70
     0
  9
$MIRRTEXT
 70
     0
  9
$LTSCALE
 40
1.0
  9
$ATTMODE
 70
     1
  9
$TEXTSIZE
 40
0.2
  9
$TRACEWID
 40
0.05
  9
$TEXTSTYLE
  7
Standard
  9
$CLAYER
  8
0
  9
$CELTYPE
  6
ByLayer
  9
$CECOLOR
 62
   256
  9
$CELTSCALE
 40
1.0
  9
$DISPSILH
 70
     0
  9
$DIMSCALE
 40
1.0
  9
$DIMASZ
 40
0.18
  9
$DIMEXO
 40
0.0625
  9
$DIMDLI
 40
0.38
  9
$DIMRND
 40
0.0
  9
$DIMDLE
 40
0.0
  9
$DIMEXE
 40
0.18
  9
$DIMTP
 40
0.0
  9
$DIMTM
 40
0.0
  9
$DIMTXT
 40
0.18
  9
$DIMCEN
 40
0.09
  9
$DIMTSZ
 40
0.0
  9
$DIMTOL
 70
     0
  9
$DIMLIM
 70
     0
  9
$DIMTIH
 70
     1
  9
$DIMTOH
 70
     1
  9
$DIMSE1
 70
     0
  9
$DIMSE2
 70
     0
  9
$DIMTAD
 70
     0
  9
$DIMZIN
 70
     0
  9
$DIMBLK
  1

  9
$DIMASO
 70
     1
  9
$DIMSHO
 70
     1
  9
$DIMPOST
  1

  9
$DIMAPOST
  1

  9
$DIMALT
 70
     0
  9
$DIMALTD
 70
     2
  9
$DIMALTF
 40
25.4
  9
$DIMLFAC
 40
1.0
  9
$DIMTOFL
 70
     0
  9
$DIMTVP
 40
0.0
  9
$DIMTIX
 70
     0
  9
$DIMSOXD
 70
     0
  9
$DIMSAH
 70
     0
  9
$DIMBLK1
  1

  9
$DIMBLK2
  1

  9
$DIMSTYLE
  2
Standard
  9
$DIMCLRD
 70
     0
  9
$DIMCLRE
 70
     0
  9
$DIMCLRT
 70
     0
  9
$DIMTFAC
 40
1.0
  9
$DIMGAP
 40
0.09
  9
$DIMJUST
 70
     0
  9
$DIMSD1
 70
     0
  9
$DIMSD2
 70
     0
  9
$DIMTOLJ
 70
     1
  9
$DIMTZIN
 70
     0
  9
$DIMALTZ
 70
     0
  9
$DIMALTTZ
 70
     0
  9
$DIMUPT
 70
     0
  9
$DIMDEC
 70
     4
  9
$DIMTDEC
 70
     4
  9
$DIMALTU
 70
     2
  9
$DIMALTTD
 70
     2
  9
$DIMTXSTY
  7
Standard
  9
$DIMAUNIT
 70
     0
  9
$DIMADEC
 70
     0
  9
$DIMALTRND
 40
0.0
  9
$DIMAZIN
 70
     0
  9
$DIMDSEP
 70
    46
  9
$DIMATFIT
 70
     3
  9
$DIMFRAC
 70
     0
  9
$DIMLDRBLK
  1

  9
$DIMLUNIT
 70
     2
  9
$DIMLWD
 70
    -2
  9
$DIMLWE
 70
    -2
  9
$DIMTMOVE
 70
     0
  9
$DIMFXL
 40
1.0
  9
$DIMFXLON
 70
     0
  9
$DIMJOGANG
 40
0.7853981633974483
  9
$DIMTFILL
 70
     0
  9
$DIMTFILLCLR
 70
     0
  9
$DIMARCSYM
 70
     0
  9
$DIMLTYPE
  6

  9
$DIMLTEX1
  6

  9
$DIMLTEX2
  6

  9
$DIMTXTDIRECTION
 70
     0
  9
$LUNITS
 70
     2
  9
$LUPREC
 70
     4
  9
$SKETCHINC
 40
0.1
  9
$FILLETRAD
 40
0.0
  9
$AUNITS
 70
     0
  9
$AUPREC
 70
     0
  9
$MENU
  1
.
  9
$ELEVATION
 40
0.0
  9
$PELEVATION
 40
0.0
  9
$THICKNESS
 40
0.0
  9
$LIMCHECK
 70
     0
  9
$CHAMFERA
 40
0.0
  9
$CHAMFERB
 40
0.0
  9
$CHAMFERC
 40
0.0
  9
$CHAMFERD
 40
0.0
  9
$SKPOLY
 70
     0
  9
$TDCREATE
 40
2459569.503067130
  9
$TDUCREATE
 40
2459569.128067130
  9
$TDUPDATE
 40
2459569.503067130
  9
$TDUUPDATE
 40
2459569.128067130
  9
$TDINDWG
 40
0.0000000000
  9
$TDUSRTIMER
 40
0.0000000000
  9
$USRTIMER
 70
     1
  9
$ANGBASE
 50
0.0
  9
$ANGDIR
 70
     0
  9
$PDMODE
 70
     0
  9
$PDSIZE
 40
0.0
  9
$PLINEWID
 40
0.0
  9
$SPLFRAME
 70
     0
  9
$SPLINETYPE
 70
     6
  9
$SPLINESEGS
 70
     8
  9
$HANDSEED
  5
1A6
  9
$SURFTAB1
 70
     6
  9
$SURFTAB2
 70
     6
  9
$SURFTYPE
 70
     6
  9
$SURFU
 70
     6
  9
$SURFV
 70
     6
  9
$UCSBASE
  2

  9
$UCSNAME
  2

  9
$UCSORG
 10
0.0
 20
0.0
 30
0.0
  9
$UCSXDIR
 10
1.0
 20
0.0
 30
0.0
  9
$UCSYDIR
 10
0.0
 20
1.0
 30
0.0
  9
$UCSORTHOREF
  2

  9
$UCSORTHOVIEW
 70
     0
  9
$UCSORGTOP
 10
0.0
 20
0.0
 30
0.0
  9
$UCSORGBOTTOM
 10
0.0
 20
0.0
 30
0.0
  9
$UCSORGLEFT
 10
0.0
 20
0.0
 30
0.0
  9
$UCSORGRIGHT
 10
0.0
 20
0.0
 30
0.0
  9
$UCSORGFRONT
 10
0.0
 20
0.0
 30
0.0
  9
$UCSORGBACK
 10
0.0
 20
0.0
 30
0.0
  9
$PUCSBASE
  2

  9
$PUCSNAME
  2

  9
$PUCSORG
 10
0.0
 20
0.0
 30
0.0
  9
$PUCSXDIR
 10
1.0
 20
0.0
 30
0.0
  9
$PUCSYDIR
 10
0.0
 20
1.0
 30
0.0
  9
$PUCSORTHOREF
  2

  9
$PUCSORTHOVIEW
 70
     0
  9
$PUCSORGTOP
 10
0.0
 20
0.0
 30
0.0
  9
$PUCSORGBOTTOM
 10
0.0
 20
0.0
 30
0.0
  9
$PUCSORGLEFT
 10
0.0
 20
0.0
 30
0.0
  9
$PUCSORGRIGHT
 10
0.0
 20
0.0
 30
0.0
  9
$PUCSORGFRONT
 10
0.0
 20
0.0
 30
0.0
  9
$PUCSORGBACK
 10
0.0
 20
0.0
 30
0.0
  9
$USERI1
 70
     0
  9
$USERI2
 70
     0
  9
$USERI3
 70
     0
  9
$USERI4
 70
     0
  9
$USERI5
 70
     0
  9
$USERR1
 40
0.0
  9
$USERR2
 40
0.0
  9
$USERR3
 40
0.0
  9
$USERR4
 40
0.0
  9
$USERR5
 40
0.0
  9
$WORLDVIEW
 70
     1
  9
$SHADEDGE
 70
     3
  9
$SHADEDIF
 70
    70
  9
$TILEMODE
 70
     1
  9
$MAXACTVP
 70
    64
  9
$PINSBASE
 10
0.0
 20
0.0
 30
0.0
  9
$PLIMCHECK
 70
     0
  9
$PEXTMIN
 10
1.000000000000000E+20
 20
1.000000000000000E+20
 30
1.000000000000000E+20
  9
$PEXTMAX
 10
-1.000000000000000E+20
 20
-1.000000000000000E+20
 30
-1.000000000000000E+20
  9
$PLIMMIN
 10
0.0
 20
0.0
  9
$PLIMMAX
 10
12.0
 20
9.0
  9
$UNITMODE
 70
     0
  9
$VISRETAIN
 70
     1
  9
$PLINEGEN
 70
     0
  9
$PSLTSCALE
 70
     1
  9
$TREEDEPTH
 70
  3020
  9
$CMLSTYLE
  2
Standard
  9
$CMLJUST
 70
     0
  9
$CMLSCALE
 40
1.0
  9
$PROXYGRAPHICS
 70
     1
  9
$MEASUREMENT
 70
     0
  9
$CELWEIGHT
370
    -1
  9
$ENDCAPS
280
     0
  9
$JOINSTYLE
280
     0
  9
$LWDISPLAY
290
     1
  9
$INSUNITS
 70
     4
  9
$HYPERLINKBASE
  1

  9
$STYLESHEET
  1

  9
$XEDIT
290
     1
  9
$CEPSNTYPE
380
     0
  9
$PSTYLEMODE
290
     1
  9
$FINGERPRINTGUID
  2
{155BE20E-A9EA-A34A-A880-6BB74542197A}
  9
$VERSIONGUID
  2
{66422CF7-88CF-184B-959C-BB3F937D072D}
  9
$EXTNAMES
290
     1
  9
$PSVPSCALE
 40
0.0
  9
$OLESTARTUP
290
     0
  9
$SORTENTS
280
   127
  9
$INDEXCTL
280
     0
  9
$HIDETEXT
280
     1
  9
$XCLIPFRAME
280
     2
  9
$HALOGAP
280
     0
  9
$OBSCOLOR
 70
   257
  9
$OBSLTYPE
280
     0
  9
$INTERSECTIONDISPLAY
280
     0
  9
$INTERSECTIONCOLOR
 70
   257
  9
$DIMASSOC
280
     2
  9
$PROJECTNAME
  1

  9
$CAMERADISPLAY
290
     0
  9
$LENSLENGTH
 40
50.0
  9
$CAMERAHEIGHT
 40
0.0
  9
$STEPSPERSEC
 40
2.0
  9
$STEPSIZE
 40
6.0
  9
$3DDWFPREC
 40
2.0
  9
$PSOLWIDTH
 40
0.25
  9
$PSOLHEIGHT
 40
4.0
  9
$LOFTANG1
 40
1.570796326794896
  9
$LOFTANG2
 40
1.570796326794896
  9
$LOFTMAG1
 40
0.0
  9
$LOFTMAG2
 40
0.0
  9
$LOFTPARAM
 70
     7
  9
$LOFTNORMALS
280
     1
  9
$LATITUDE
 40
37.795
  9
$LONGITUDE
 40
-122.394
  9
$NORTHDIRECTION
 40
0.0
  9
$TIMEZONE
 70
 -8000
  9
$LIGHTGLYPHDISPLAY
280
     1
  9
$TILEMODELIGHTSYNCH
280
     1
  9
$CMATERIAL
347
11
  9
$SOLIDHIST
280
     0
  9
$SHOWHIST
280
     1
  9
$DWFFRAME
280
     2
  9
$DGNFRAME
280
     0
  9
$REALWORLDSCALE
290
     1
  9
$INTERFERECOLOR
 62
     1
  9
$INTERFEREOBJVS
345
33
  9
$INTERFEREVPVS
346
30
  9
$CSHADOW
280
     0
  9
$SHADOWPLANELOCATION
 40
0.0
  0
ENDSEC
  0
SECTION
  2
CLASSES
  0
CLASS
  1
ACDBDICTIONARYWDFLT
  2
AcDbDictionaryWithDefault
  3
ObjectDBX Classes
 90
        0
 91
        1
280
     0
281
     0
  0
CLASS
  1
MATERIAL
  2
AcDbMaterial
  3
ObjectDBX Classes
 90
     1153
 91
        3
280
     0
281
     0
  0
CLASS
  1
VISUALSTYLE
  2
AcDbVisualStyle
  3
ObjectDBX Classes
 90
     4095
 91
       24
280
     0
281
     0
  0
CLASS
  1
SCALE
  2
AcDbScale
  3
ObjectDBX Classes
 90
     1153
 91
       17
280
     0
281
     0
  0
CLASS
  1
TABLESTYLE
  2
AcDbTableStyle
  3
ObjectDBX Classes
 90
     4095
 91
        1
280
     0
281
     0
  0
CLASS
  1
MLEADERSTYLE
  2
AcDbMLeaderStyle
  3
ACDB_MLEADERSTYLE_CLASS
 90
     4095
 91
        1
280
     0
281
     0
  0
CLASS
  1
ACDBSECTIONVIEWSTYLE
  2
AcDbSectionViewStyle
  3
ObjectDBX Classes
 90
     1025
 91
        1
280
     0
281
     0
  0
CLASS
  1
ACDBDETAILVIEWSTYLE
  2
AcDbDetailViewStyle
  3
ObjectDBX Classes
 90
     1025
 91
        1
280
     0
281
     0
  0
CLASS
  1
DICTIONARYVAR
  2
AcDbDictionaryVar
  3
ObjectDBX Classes
 90
        0
 91
        5
280
     0
281
     0
  0
CLASS
  1
CELLSTYLEMAP
  2
AcDbCellStyleMap
  3
ObjectDBX Classes
 90
     1152
 91
        1
280
     0
281
     0
  0
ENDSEC
  0
SECTION
  2
TABLES
  0
TABLE
  2
VPORT
  5
8
330
0
100
AcDbSymbolTable
 70
     1
  0
VPORT
  5
57
330
8
100
AcDbSymbolTableRecord
100
AcDbViewportTableRecord
  2
*Active
 70
     0
 10
0.0
 20
0.0
 11
1.0
 21
1.0
 12
0.0
 22
0.0
 13
0.0
 23
0.0
 14
1.0
 24
1.0
 15
0.0
 25
0.0
 16
0.0
 26
0.0
 36
1.0
 17
104.9999999737534
 27
-148.4999999628701
 37
0.0
 40
302.939999924255
 41
0.7070707070707534
 42
50.0
 43
0.0
 44
0.0
 50
0.0
 51
0.0
 71
     0
 72
   100
 73
     1
 74
     0
 75
     1
 76
     0
 77
     0
 78
     0
281
     0
 65
     1
110
0.0
120
0.0
130
0.0
111
1.0
121
0.0
131
0.0
112
0.0
122
1.0
132
0.0
 79
     0
146
0.0
 60
     3
 61
     5
292
     1
282
     1
141
0.0
142
0.0
 63
   250
421
  3355443
  0
ENDTAB
  0
TABLE
  2
LTYPE
  5
5
330
0
100
AcDbSymbolTable
 70
     2
  0
LTYPE
  5
5B
330
5
100
AcDbSymbolTableRecord
100
AcDbLinetypeTableRecord
  2
ByBlock
 70
     0
  3

 72
    65
 73
     0
 40
0.0
  0
LTYPE
  5
5C
330
5
100
AcDbSymbolTableRecord
100
AcDbLinetypeTableRecord
  2
ByLayer
 70
     0
  3

 72
    65
 73
     0
 40
0.0
  0
LTYPE
  5
5D
330
5
100
AcDbSymbolTableRecord
100
AcDbLinetypeTableRecord
  2
Continuous
 70
     0
  3
Solid line
 72
    65
 73
     0
 40
0.0
  0
LTYPE
  5
166
330
5
100
AcDbSymbolTableRecord
100
AcDbLinetypeTableRecord
  2
AI-Linetype-0
 70
     0
  3
Adobe Illustrator Linetype No. 0
 72
    65
 73
     2
 40
1.411111110758333
 49
0.7055555553791667
 74
     0
 49
-0.7055555553791667
 74
     0
  0
ENDTAB
  0
TABLE
  2
LAYER
  5
2
330
0
100
AcDbSymbolTable
 70
     2
  0
LAYER
  5
54
330
2
100
AcDbSymbolTableRecord
100
AcDbLayerTableRecord
  2
0
 70
     0
 62
     7
  6
Continuous
370
    -3
390
F
347
21
  0
LAYER
  5
78
330
2
100
AcDbSymbolTableRecord
100
AcDbLayerTableRecord
  2
レイヤー 1
 70
     0
 62
     7
  6
Continuous
370
     0
390
F
347
21
  0
ENDTAB
  0
TABLE
  2
STYLE
  5
3
330
0
100
AcDbSymbolTable
 70
     2
  0
STYLE
  5
55
330
3
100
AcDbSymbolTableRecord
100
AcDbTextStyleTableRecord
  2
Standard
 70
     0
 40
0.0
 41
1.0
 50
0.0
 71
     0
 42
0.2
  3
txt
  4

  0
STYLE
  5
5A
330
3
100
AcDbSymbolTableRecord
100
AcDbTextStyleTableRecord
  2
Annotative
 70
     0
 40
0.0
 41
1.0
 50
0.0
 71
     0
 42
0.2
  3
txt
  4

1001
AcadAnnotative
1000
AnnotativeData
1002
{
1070
     1
1070
     1
1002
}
  0
ENDTAB
  0
TABLE
  2
VIEW
  5
6
330
0
100
AcDbSymbolTable
 70
     0
  0
ENDTAB
  0
TABLE
  2
UCS
  5
7
330
0
100
AcDbSymbolTable
 70
     0
  0
ENDTAB
  0
TABLE
  2
APPID
  5
9
330
0
100
AcDbSymbolTable
 70
     2
  0
APPID
  5
56
330
9
100
AcDbSymbolTableRecord
100
AcDbRegAppTableRecord
  2
ACAD
 70
     0
  0
APPID
  5
5E
330
9
100
AcDbSymbolTableRecord
100
AcDbRegAppTableRecord
  2
AcadAnnotative
 70
     0
  0
ENDTAB
  0
TABLE
  2
DIMSTYLE
  5
A
330
0
100
AcDbSymbolTable
 70
     2
100
AcDbDimStyleTable
 71
     0
  0
DIMSTYLE
105
58
330
A
100
AcDbSymbolTableRecord
100
AcDbDimStyleTableRecord
  2
Standard
 70
     0
340
55
  0
DIMSTYLE
105
59
330
A
100
AcDbSymbolTableRecord
100
AcDbDimStyleTableRecord
  2
Annotative
 70
     0
340
55
1001
AcadAnnotative
1000
AnnotativeData
1002
{
1070
     1
1070
     1
1002
}
  0
ENDTAB
  0
TABLE
  2
BLOCK_RECORD
  5
1
330
0
100
AcDbSymbolTable
 70
    15
  0
BLOCK_RECORD
  5
70
330
1
100
AcDbSymbolTableRecord
100
AcDbBlockTableRecord
  2
*Model_Space
340
73
 70
     0
280
     1
281
     0
  0
BLOCK_RECORD
  5
6C
330
1
100
AcDbSymbolTableRecord
100
AcDbBlockTableRecord
  2
*Paper_Space
340
6F
 70
     0
280
     1
281
     0
  0
BLOCK_RECORD
  5
74
330
1
100
AcDbSymbolTableRecord
100
AcDbBlockTableRecord
  2
*Paper_Space0
340
77
 70
     0
280
     1
281
     0
  0
BLOCK_RECORD
  5
79
330
1
100
AcDbSymbolTableRecord
100
AcDbBlockTableRecord
  2
Block_0
340
0
102
{BLKREFS
331
7A
102
}
 70
     0
280
     1
281
     0
  0
BLOCK_RECORD
  5
7D
330
1
100
AcDbSymbolTableRecord
100
AcDbBlockTableRecord
  2
Block_1
340
0
102
{BLKREFS
331
7E
102
}
 70
     0
280
     1
281
     0
  0
BLOCK_RECORD
  5
E8
330
1
100
AcDbSymbolTableRecord
100
AcDbBlockTableRecord
  2
Block_2
340
0
102
{BLKREFS
331
E9
102
}
 70
     0
280
     1
281
     0
  0
BLOCK_RECORD
  5
EC
330
1
100
AcDbSymbolTableRecord
100
AcDbBlockTableRecord
  2
Block_3
340
0
102
{BLKREFS
331
ED
102
}
 70
     0
280
     1
281
     0
  0
BLOCK_RECORD
  5
F9
330
1
100
AcDbSymbolTableRecord
100
AcDbBlockTableRecord
  2
Block_4
340
0
102
{BLKREFS
331
FA
102
}
 70
     0
280
     1
281
     0
  0
BLOCK_RECORD
  5
FD
330
1
100
AcDbSymbolTableRecord
100
AcDbBlockTableRecord
  2
Block_5
340
0
102
{BLKREFS
331
FE
102
}
 70
     0
280
     1
281
     0
  0
BLOCK_RECORD
  5
107
330
1
100
AcDbSymbolTableRecord
100
AcDbBlockTableRecord
  2
Block_6
340
0
102
{BLKREFS
331
108
102
}
 70
     0
280
     1
281
     0
  0
BLOCK_RECORD
  5
10F
330
1
100
AcDbSymbolTableRecord
100
AcDbBlockTableRecord
  2
Block_7
340
0
102
{BLKREFS
331
110
102
}
 70
     0
280
     1
281
     0
  0
BLOCK_RECORD
  5
113
330
1
100
AcDbSymbolTableRecord
100
AcDbBlockTableRecord
  2
Block_8
340
0
102
{BLKREFS
331
114
102
}
 70
     0
280
     1
281
     0
  0
BLOCK_RECORD
  5
11E
330
1
100
AcDbSymbolTableRecord
100
AcDbBlockTableRecord
  2
Block_9
340
0
102
{BLKREFS
331
11F
102
}
 70
     0
280
     1
281
     0
  0
BLOCK_RECORD
  5
129
330
1
100
AcDbSymbolTableRecord
100
AcDbBlockTableRecord
  2
Block_10
340
0
102
{BLKREFS
331
12A
102
}
 70
     0
280
     1
281
     0
  0
BLOCK_RECORD
  5
130
330
1
100
AcDbSymbolTableRecord
100
AcDbBlockTableRecord
  2
Block_11
340
0
102
{BLKREFS
331
131
102
}
 70
     0
280
     1
281
     0
  0
BLOCK_RECORD
  5
136
330
1
100
AcDbSymbolTableRecord
100
AcDbBlockTableRecord
  2
Block_12
340
0
102
{BLKREFS
331
137
102
}
 70
     0
280
     1
281
     0
  0
BLOCK_RECORD
  5
13A
330
1
100
AcDbSymbolTableRecord
100
AcDbBlockTableRecord
  2
Block_13
340
0
102
{BLKREFS
331
13B
102
}
 70
     0
280
     1
281
     0
  0
ENDTAB
  0
ENDSEC
  0
SECTION
  2
BLOCKS
  0
BLOCK
  5
71
330
70
100
AcDbEntity
  8
0
100
AcDbBlockBegin
  2
*Model_Space
 70
     0
 10
0.0
 20
0.0
 30
0.0
  3
*Model_Space
  1

  0
ENDBLK
  5
72
330
70
100
AcDbEntity
  8
0
100
AcDbBlockEnd
  0
BLOCK
  5
6D
330
6C
100
AcDbEntity
 67
     1
  8
0
100
AcDbBlockBegin
  2
*Paper_Space
 70
     0
 10
0.0
 20
0.0
 30
0.0
  3
*Paper_Space
  1

  0
ENDBLK
  5
6E
330
6C
100
AcDbEntity
 67
     1
  8
0
100
AcDbBlockEnd
  0
BLOCK
  5
75
330
74
100
AcDbEntity
 67
     1
  8
0
100
AcDbBlockBegin
  2
*Paper_Space0
 70
     0
 10
0.0
 20
0.0
 30
0.0
  3
*Paper_Space0
  1

  0
ENDBLK
  5
76
330
74
100
AcDbEntity
 67
     1
  8
0
100
AcDbBlockEnd
  0
BLOCK
  5
7B
330
79
100
AcDbEntity
  8
0
100
AcDbBlockBegin
  2
Block_0
 70
     0
 10
0.0
 20
0.0
 30
0.0
  3
Block_0
  1

  0
INSERT
  5
7E
330
79
100
AcDbEntity
  8
レイヤー 1
100
AcDbBlockReference
  2
Block_1
 10
0.0
 20
0.0
 30
0.0
  0
INSERT
  5
137
330
79
100
AcDbEntity
  8
レイヤー 1
100
AcDbBlockReference
  2
Block_12
 10
0.0
 20
0.0
 30
0.0
  0
LWPOLYLINE
  5
164
330
79
100
AcDbEntity
  8
レイヤー 1
 62
   250
420
  2299925
370
     9
100
AcDbPolyline
 90
        3
 70
     0
 43
0.0
 10
118.4438841525959
 20
-146.3628767821069
 10
124.6174951062051
 20
-154.4764128911892
 10
135.2600948346898
 20
-154.4764128911892
  0
LWPOLYLINE
  5
165
330
79
100
AcDbEntity
  8
レイヤー 1
  6
AI-Linetype-0
 62
   154
420
    23468
370
    25
100
AcDbPolyline
 90
        6
 70
     0
 43
0.0
 10
81.22671207724662
 20
-146.4803517820774
 10
102.8047164960294
 20
-145.6573212267277
 10
102.8047164960294
 20
-150.9489878920711
 10
106.8614844480876
 20
-150.9489878920711
 10
106.8614844480876
 20
-145.7158823378242
 10
128.4394894531423
 20
-146.4214378932034
  0
ENDBLK
  5
7C
330
79
100
AcDbEntity
  8
0
100
AcDbBlockEnd
  0
BLOCK
  5
7F
330
7D
100
AcDbEntity
  8
0
100
AcDbBlockBegin
  2
Block_1
 70
     0
 10
0.0
 20
0.0
 30
0.0
  3
Block_1
  1

  0
LINE
  5
81
330
7D
100
AcDbEntity
  8
レイヤー 1
 62
    18
420
        0
370
    25
100
AcDbLine
 10
108.3273831815821
 20
-152.5027270583501
 30
0.0
 11
101.3271068115038
 21
-152.5027270583501
 31
0.0
  0
LINE
  5
82
330
7D
100
AcDbEntity
  8
レイヤー 1
 62
    18
420
        0
370
    25
100
AcDbLine
 10
81.32556041055529
 20
-147.0022865041692
 30
0.0
 11
81.32556041055529
 21
-147.5024901151551
 31
0.0
  0
LINE
  5
83
330
7D
100
AcDbEntity
  8
レイヤー 1
 62
    18
420
        0
370
    25
100
AcDbLine
 10
101.3271068115038
 20
-147.5024901151551
 30
0.0
 11
81.32556041055529
 21
-147.5024901151551
 31
0.0
  0
LINE
  5
84
330
7D
100
AcDbEntity
  8
レイヤー 1
 62
    18
420
        0
370
    25
100
AcDbLine
 10
81.32556041055529
 20
-147.0022865041692
 30
0.0
 11
81.83959291042667
 21
-147.3846976151847
 31
0.0
  0
LINE
  5
85
330
7D
100
AcDbEntity
  8
レイヤー 1
 62
    18
420
        0
370
    25
100
AcDbLine
 10
81.83959291042667
 20
-147.3846976151847
 30
0.0
 11
82.32497985474976
 21
-146.9671498375112
 31
0.0
  0
LINE
  5
86
330
7D
100
AcDbEntity
  8
レイヤー 1
 62
    18
420
        0
370
    25
100
AcDbLine
 10
82.83901235462112
 20
-147.3488553929714
 30
0.0
 11
83.32439929894421
 21
-146.931307615298
 31
0.0
  0
LINE
  5
87
330
7D
100
AcDbEntity
  8
レイヤー 1
 62
    18
420
        0
370
    25
100
AcDbLine
 10
82.32497985474976
 20
-146.9671498375112
 30
0.0
 11
82.83901235462112
 21
-147.3488553929714
 31
0.0
  0
LINE
  5
88
330
7D
100
AcDbEntity
  8
レイヤー 1
 62
    18
420
        0
370
    25
100
AcDbLine
 10
83.32439929894421
 20
-146.931307615298
 30
0.0
 11
83.83843179881589
 21
-147.3130131707582
 31
0.0
  0
LINE
  5
89
330
7D
100
AcDbEntity
  8
レイヤー 1
 62
    18
420
        0
370
    25
100
AcDbLine
 10
83.83843179881589
 20
-147.3130131707582
 30
0.0
 11
84.32385402091682
 21
-146.8954653930847
 31
0.0
  0
LINE
  5
8A
330
7D
100
AcDbEntity
  8
レイヤー 1
 62
    18
420
        0
370
    25
100
AcDbLine
 10
84.32385402091682
 20
-146.8954653930847
 30
0.0
 11
84.83749846523259
 21
-147.2772062263228
 31
0.0
  0
LINE
  5
8B
330
7D
100
AcDbEntity
  8
レイヤー 1
 62
    18
420
        0
370
    25
100
AcDbLine
 10
84.83749846523259
 20
-147.2772062263228
 30
0.0
 11
85.32327346511129
 21
-146.8596584486493
 31
0.0
  0
LINE
  5
8C
330
7D
100
AcDbEntity
  8
レイヤー 1
 62
    18
420
        0
370
    25
100
AcDbLine
 10
85.32327346511129
 20
-146.8596584486493
 30
0.0
 11
85.83727068720513
 21
-147.2413640041095
 31
0.0
  0
LINE
  5
8D
330
7D
100
AcDbEntity
  8
レイヤー 1
 62
    18
420
        0
370
    25
100
AcDbLine
 10
85.83727068720513
 20
-147.2413640041095
 30
0.0
 11
86.3223401315283
 21
-146.823816226436
 31
0.0
  0
LINE
  5
8E
330
7D
100
AcDbEntity
  8
レイヤー 1
 62
    18
420
        0
370
    25
100
AcDbLine
 10
86.3223401315283
 20
-146.823816226436
 30
0.0
 11
86.83633735362183
 21
-147.2062273374515
 31
0.0
  0
LINE
  5
8F
330
7D
100
AcDbEntity
  8
レイヤー 1
 62
    18
420
        0
370
    25
100
AcDbLine
 10
86.83633735362183
 20
-147.2062273374515
 30
0.0
 11
87.32211235350053
 21
-146.788679559778
 31
0.0
  0
LINE
  5
90
330
7D
100
AcDbEntity
  8
レイヤー 1
 62
    18
420
        0
370
    25
100
AcDbLine
 10
87.32211235350053
 20
-146.788679559778
 30
0.0
 11
87.83575679781661
 21
-147.1703851152383
 31
0.0
  0
LINE
  5
91
330
7D
100
AcDbEntity
  8
レイヤー 1
 62
    18
420
        0
370
    25
100
AcDbLine
 10
87.83575679781661
 20
-147.1703851152383
 30
0.0
 11
88.32117901991722
 21
-146.7528373375648
 31
0.0
  0
LINE
  5
92
330
7D
100
AcDbEntity
  8
レイヤー 1
 62
    18
420
        0
370
    25
100
AcDbLine
 10
88.83517624201108
 20
-147.1345781708028
 30
0.0
 11
89.32059846411201
 21
-146.7170303931297
 31
0.0
  0
LINE
  5
93
330
7D
100
AcDbEntity
  8
レイヤー 1
 62
    18
420
        0
370
    25
100
AcDbLine
 10
88.32117901991722
 20
-146.7528373375648
 30
0.0
 11
88.83517624201108
 21
-147.1345781708028
 31
0.0
  0
LINE
  5
94
330
7D
100
AcDbEntity
  8
レイヤー 1
 62
    18
420
        0
370
    25
100
AcDbLine
 10
89.32059846411201
 20
-146.7170303931297
 30
0.0
 11
89.83459568620553
 21
-147.0987359485896
 31
0.0
  0
LINE
  5
95
330
7D
100
AcDbEntity
  8
レイヤー 1
 62
    18
420
        0
370
    25
100
AcDbLine
 10
89.83459568620553
 20
-147.0987359485896
 30
0.0
 11
90.32001790830646
 21
-146.6811881709161
 31
0.0
  0
LINE
  5
96
330
7D
100
AcDbEntity
  8
レイヤー 1
 62
    18
420
        0
370
    25
100
AcDbLine
 10
90.83405040817813
 20
-147.0628937263763
 30
0.0
 11
91.31911985250132
 21
-146.6453459487028
 31
0.0
  0
LINE
  5
97
330
7D
100
AcDbEntity
  8
レイヤー 1
 62
    18
420
        0
370
    25
100
AcDbLine
 10
90.32001790830646
 20
-146.6811881709161
 30
0.0
 11
90.83405040817813
 21
-147.0628937263763
 31
0.0
  0
LINE
  5
98
330
7D
100
AcDbEntity
  8
レイヤー 1
 62
    18
420
        0
370
    25
100
AcDbLine
 10
91.83311707459484
 20
-147.0277570597183
 30
0.0
 11
92.3188567966957
 21
-146.6102092820448
 31
0.0
  0
LINE
  5
99
330
7D
100
AcDbEntity
  8
レイヤー 1
 62
    18
420
        0
370
    25
100
AcDbLine
 10
91.31911985250132
 20
-146.6453459487028
 30
0.0
 11
91.83311707459484
 21
-147.0277570597183
 31
0.0
  0
LINE
  5
9A
330
7D
100
AcDbEntity
  8
レイヤー 1
 62
    18
420
        0
370
    25
100
AcDbLine
 10
92.3188567966957
 20
-146.6102092820448
 30
0.0
 11
92.83288929656706
 21
-146.9919501152829
 31
0.0
  0
LINE
  5
9B
330
7D
100
AcDbEntity
  8
レイヤー 1
 62
    18
420
        0
370
    25
100
AcDbLine
 10
92.83288929656706
 20
-146.9919501152829
 30
0.0
 11
93.31795784916728
 21
-146.5744023376094
 31
0.0
  0
LINE
  5
9C
330
7D
100
AcDbEntity
  8
レイヤー 1
 62
    18
420
        0
370
    25
100
AcDbLine
 10
93.31795784916728
 20
-146.5744023376094
 30
0.0
 11
93.83195505827698
 21
-146.9561078930696
 31
0.0
  0
LINE
  5
9D
330
7D
100
AcDbEntity
  8
レイヤー 1
 62
    18
420
        0
370
    25
100
AcDbLine
 10
93.83195505827698
 20
-146.9561078930696
 30
0.0
 11
94.31737726811475
 21
-146.5385601153961
 31
0.0
  0
LINE
  5
9E
330
7D
100
AcDbEntity
  8
レイヤー 1
 62
    18
420
        0
370
    25
100
AcDbLine
 10
94.31737726811475
 20
-146.5385601153961
 30
0.0
 11
94.83137447722381
 21
-146.9202656708564
 31
0.0
  0
LINE
  5
9F
330
7D
100
AcDbEntity
  8
レイヤー 1
 62
    18
420
        0
370
    25
100
AcDbLine
 10
94.83137447722381
 20
-146.9202656708564
 30
0.0
 11
95.31679668706187
 21
-146.5027531709607
 31
0.0
  0
LINE
  5
A0
330
7D
100
AcDbEntity
  8
レイヤー 1
 62
    18
420
        0
370
    25
100
AcDbLine
 10
95.31679668706187
 20
-146.5027531709607
 30
0.0
 11
95.83079389617093
 21
-146.884458726421
 31
0.0
  0
LINE
  5
A1
330
7D
100
AcDbEntity
  8
レイヤー 1
 62
    18
420
        0
370
    25
100
AcDbLine
 10
95.83079389617093
 20
-146.884458726421
 30
0.0
 11
96.31621610600902
 21
-146.4669109487475
 31
0.0
  0
LINE
  5
A2
330
7D
100
AcDbEntity
  8
レイヤー 1
 62
    18
420
        0
370
    25
100
AcDbLine
 10
96.31621610600902
 20
-146.4669109487475
 30
0.0
 11
96.82986053734929
 21
-146.8493220597632
 31
0.0
  0
LINE
  5
A3
330
7D
100
AcDbEntity
  8
レイヤー 1
 62
    18
420
        0
370
    25
100
AcDbLine
 10
96.82986053734929
 20
-146.8493220597632
 30
0.0
 11
97.31563552495645
 21
-146.4317742820894
 31
0.0
  0
LINE
  5
A4
330
7D
100
AcDbEntity
  8
レイヤー 1
 62
    18
420
        0
370
    25
100
AcDbLine
 10
97.31563552495645
 20
-146.4317742820894
 30
0.0
 11
97.82963273406521
 21
-146.8134798375497
 31
0.0
  0
LINE
  5
A5
330
7D
100
AcDbEntity
  8
レイヤー 1
 62
    18
420
        0
370
    25
100
AcDbLine
 10
97.82963273406521
 20
-146.8134798375497
 30
0.0
 11
98.31470216613448
 21
-146.3959320598762
 31
0.0
  0
LINE
  5
A6
330
7D
100
AcDbEntity
  8
レイヤー 1
 62
    18
420
        0
370
    25
100
AcDbLine
 10
98.31470216613448
 20
-146.3959320598762
 30
0.0
 11
98.82873465302042
 21
-146.7776376153364
 31
0.0
  0
LINE
  5
A7
330
7D
100
AcDbEntity
  8
レイヤー 1
 62
    18
420
        0
370
    25
100
AcDbLine
 10
98.82873465302042
 20
-146.7776376153364
 30
0.0
 11
99.3144743628504
 21
-146.3601251154408
 31
0.0
  0
LINE
  5
A8
330
7D
100
AcDbEntity
  8
レイヤー 1
 62
    18
420
        0
370
    25
100
AcDbLine
 10
99.3144743628504
 20
-146.3601251154408
 30
0.0
 11
99.82847157195946
 21
-146.741830670901
 31
0.0
  0
LINE
  5
A9
330
7D
100
AcDbEntity
  8
レイヤー 1
 62
    18
420
        0
370
    25
100
AcDbLine
 10
99.82847157195946
 20
-146.741830670901
 30
0.0
 11
100.313541004029
 21
-146.3242828932275
 31
0.0
  0
LINE
  5
AA
330
7D
100
AcDbEntity
  8
レイヤー 1
 62
    18
420
        0
370
    25
100
AcDbLine
 10
100.313541004029
 20
-146.3242828932275
 30
0.0
 11
100.827573490915
 21
-146.7059884486878
 31
0.0
  0
LINE
  5
AB
330
7D
100
AcDbEntity
  8
レイヤー 1
 62
    18
420
        0
370
    25
100
AcDbLine
 10
100.827573490915
 20
-146.7059884486878
 30
0.0
 11
101.3133132007446
 21
-146.2884406710143
 31
0.0
  0
LINE
  5
AC
330
7D
100
AcDbEntity
  8
レイヤー 1
 62
    18
420
        0
370
    25
100
AcDbLine
 10
101.3757007631459
 20
-146.2402159488041
 30
0.0
 11
102.3268790082194
 21
-146.2402159488041
 31
0.0
  0
LINE
  5
AD
330
7D
100
AcDbEntity
  8
レイヤー 1
 62
    18
420
        0
370
    25
100
AcDbLine
 10
102.3268790082194
 20
-146.2402159488041
 30
0.0
 11
102.3268790082194
 21
-151.502249280822
 31
0.0
  0
LINE
  5
AE
330
7D
100
AcDbEntity
  8
レイヤー 1
 62
    18
420
        0
370
    25
100
AcDbLine
 10
101.3271068115038
 20
-147.5024901151551
 30
0.0
 11
101.3271068115038
 21
-152.5027270583501
 31
0.0
  0
LINE
  5
AF
330
7D
100
AcDbEntity
  8
レイヤー 1
 62
    18
420
        0
370
    25
100
AcDbLine
 10
107.3269054040546
 20
-151.502249280822
 30
0.0
 11
102.3268790082194
 21
-151.502249280822
 31
0.0
  0
LINE
  5
B0
330
7D
100
AcDbEntity
  8
レイヤー 1
 62
    18
420
        0
370
    25
100
AcDbLine
 10
118.3346641553824
 20
-146.6453459487028
 30
0.0
 11
117.8206669462733
 21
-147.0277570597183
 31
0.0
  0
LINE
  5
B1
330
7D
100
AcDbEntity
  8
レイヤー 1
 62
    18
420
        0
370
    25
100
AcDbLine
 10
123.3314437501261
 20
-146.823816226436
 30
0.0
 11
122.817446541017
 21
-147.2062273374515
 31
0.0
  0
LINE
  5
B2
330
7D
100
AcDbEntity
  8
レイヤー 1
 62
    18
420
        0
370
    25
100
AcDbLine
 10
118.8197335874517
 20
-147.0628937263763
 30
0.0
 11
118.3346641553824
 21
-146.6453459487028
 31
0.0
  0
LINE
  5
B3
330
7D
100
AcDbEntity
  8
レイヤー 1
 62
    18
420
        0
370
    25
100
AcDbLine
 10
119.8195057841676
 20
-147.0987359485896
 30
0.0
 11
119.3337660743376
 21
-146.6811881709161
 31
0.0
  0
LINE
  5
B4
330
7D
100
AcDbEntity
  8
レイヤー 1
 62
    18
420
        0
370
    25
100
AcDbLine
 10
117.8206669462733
 20
-147.0277570597183
 30
0.0
 11
117.335597514204
 21
-146.6102092820448
 31
0.0
  0
LINE
  5
B5
330
7D
100
AcDbEntity
  8
レイヤー 1
 62
    18
420
        0
370
    25
100
AcDbLine
 10
119.3337660743376
 20
-146.6811881709161
 30
0.0
 11
118.8197335874517
 21
-147.0628937263763
 31
0.0
  0
LINE
  5
B6
330
7D
100
AcDbEntity
  8
レイヤー 1
 62
    18
420
        0
370
    25
100
AcDbLine
 10
127.3291214259146
 20
-146.9671498375112
 30
0.0
 11
126.8151242168056
 21
-147.3488553929714
 31
0.0
  0
LINE
  5
B7
330
7D
100
AcDbEntity
  8
レイヤー 1
 62
    18
420
        0
370
    25
100
AcDbLine
 10
120.3335382710535
 20
-146.7170303931297
 30
0.0
 11
119.8195057841676
 21
-147.0987359485896
 31
0.0
  0
LINE
  5
B8
330
7D
100
AcDbEntity
  8
レイヤー 1
 62
    18
420
        0
370
    25
100
AcDbLine
 10
121.3326049122319
 20
-146.7528373375648
 30
0.0
 11
120.8186077031228
 21
-147.1345781708028
 31
0.0
  0
LINE
  5
B9
330
7D
100
AcDbEntity
  8
レイヤー 1
 62
    18
420
        0
370
    25
100
AcDbLine
 10
107.3269054040546
 20
-146.2402159488041
 30
0.0
 11
107.3269054040546
 21
-151.502249280822
 31
0.0
  0
LINE
  5
BA
330
7D
100
AcDbEntity
  8
レイヤー 1
 62
    18
420
        0
370
    25
100
AcDbLine
 10
120.8186077031228
 20
-147.1345781708028
 30
0.0
 11
120.3335382710535
 21
-146.7170303931297
 31
0.0
  0
LINE
  5
BB
330
7D
100
AcDbEntity
  8
レイヤー 1
 62
    18
420
        0
370
    25
100
AcDbLine
 10
121.8183446220618
 20
-147.1703851152383
 30
0.0
 11
121.3326049122319
 21
-146.7528373375648
 31
0.0
  0
LINE
  5
BC
330
7D
100
AcDbEntity
  8
レイヤー 1
 62
    18
420
        0
370
    25
100
AcDbLine
 10
126.8151242168056
 20
-147.3488553929714
 30
0.0
 11
126.3293845069756
 21
-146.931307615298
 31
0.0
  0
LINE
  5
BD
330
7D
100
AcDbEntity
  8
レイヤー 1
 62
    18
420
        0
370
    25
100
AcDbLine
 10
122.3323771089477
 20
-146.788679559778
 30
0.0
 11
121.8183446220618
 21
-147.1703851152383
 31
0.0
  0
LINE
  5
BE
330
7D
100
AcDbEntity
  8
レイヤー 1
 62
    18
420
        0
370
    25
100
AcDbLine
 10
122.817446541017
 20
-147.2062273374515
 30
0.0
 11
122.3323771089477
 21
-146.788679559778
 31
0.0
  0
LINE
  5
BF
330
7D
100
AcDbEntity
  8
レイヤー 1
 62
    18
420
        0
370
    25
100
AcDbLine
 10
127.8141908579839
 20
-147.3846976151847
 30
0.0
 11
127.3291214259146
 21
-146.9671498375112
 31
0.0
  0
LINE
  5
C0
330
7D
100
AcDbEntity
  8
レイヤー 1
 62
    18
420
        0
370
    25
100
AcDbLine
 10
124.3305103913045
 20
-146.8596584486493
 30
0.0
 11
123.817218737733
 21
-147.2413640041095
 31
0.0
  0
LINE
  5
C1
330
7D
100
AcDbEntity
  8
レイヤー 1
 62
    18
420
        0
370
    25
100
AcDbLine
 10
125.3302825880204
 20
-146.8954653930847
 30
0.0
 11
124.8162853789113
 21
-147.2772062263228
 31
0.0
  0
LINE
  5
C2
330
7D
100
AcDbEntity
  8
レイヤー 1
 62
    18
420
        0
370
    25
100
AcDbLine
 10
124.8162853789113
 20
-147.2772062263228
 30
0.0
 11
124.3305103913045
 21
-146.8596584486493
 31
0.0
  0
LINE
  5
C3
330
7D
100
AcDbEntity
  8
レイヤー 1
 62
    18
420
        0
370
    25
100
AcDbLine
 10
128.3282233448699
 20
-147.0022865041692
 30
0.0
 11
127.8141908579839
 21
-147.3846976151847
 31
0.0
  0
LINE
  5
C4
330
7D
100
AcDbEntity
  8
レイヤー 1
 62
    18
420
        0
370
    25
100
AcDbLine
 10
123.817218737733
 20
-147.2413640041095
 30
0.0
 11
123.3314437501261
 21
-146.823816226436
 31
0.0
  0
LINE
  5
C5
330
7D
100
AcDbEntity
  8
レイヤー 1
 62
    18
420
        0
370
    25
100
AcDbLine
 10
126.3293845069756
 20
-146.931307615298
 30
0.0
 11
125.8153520200897
 21
-147.3130131707582
 31
0.0
  0
LINE
  5
C6
330
7D
100
AcDbEntity
  8
レイヤー 1
 62
    18
420
        0
370
    25
100
AcDbLine
 10
125.8153520200897
 20
-147.3130131707582
 30
0.0
 11
125.3302825880204
 21
-146.8954653930847
 31
0.0
  0
LINE
  5
C7
330
7D
100
AcDbEntity
  8
レイヤー 1
 62
    18
420
        0
370
    25
100
AcDbLine
 10
128.3282233448699
 20
-147.0022865041692
 30
0.0
 11
128.3282233448699
 21
-147.5024901151551
 31
0.0
  0
LINE
  5
C8
330
7D
100
AcDbEntity
  8
レイヤー 1
 62
    18
420
        0
370
    25
100
AcDbLine
 10
108.3273831815821
 20
-147.5024901151551
 30
0.0
 11
128.3282233448699
 21
-147.5024901151551
 31
0.0
  0
LINE
  5
C9
330
7D
100
AcDbEntity
  8
レイヤー 1
 62
    18
420
        0
370
    25
100
AcDbLine
 10
117.335597514204
 20
-146.6102092820448
 30
0.0
 11
116.821600305095
 21
-146.9919501152829
 31
0.0
  0
LINE
  5
CA
330
7D
100
AcDbEntity
  8
レイヤー 1
 62
    18
420
        0
370
    25
100
AcDbLine
 10
116.821600305095
 20
-146.9919501152829
 30
0.0
 11
116.3358253174881
 21
-146.5744023376094
 31
0.0
  0
LINE
  5
CB
330
7D
100
AcDbEntity
  8
レイヤー 1
 62
    18
420
        0
370
    25
100
AcDbLine
 10
116.3358253174881
 20
-146.5744023376094
 30
0.0
 11
115.821828108379
 21
-146.9561078930696
 31
0.0
  0
LINE
  5
CC
330
7D
100
AcDbEntity
  8
レイヤー 1
 62
    18
420
        0
370
    25
100
AcDbLine
 10
115.821828108379
 20
-146.9561078930696
 30
0.0
 11
115.3367586763097
 21
-146.5385601153961
 31
0.0
  0
LINE
  5
CD
330
7D
100
AcDbEntity
  8
レイヤー 1
 62
    18
420
        0
370
    25
100
AcDbLine
 10
115.3367586763097
 20
-146.5385601153961
 30
0.0
 11
114.8227614672007
 21
-146.9202656708564
 31
0.0
  0
LINE
  5
CE
330
7D
100
AcDbEntity
  8
レイヤー 1
 62
    18
420
        0
370
    25
100
AcDbLine
 10
114.8227614672007
 20
-146.9202656708564
 30
0.0
 11
114.3369864795938
 21
-146.5027531709607
 31
0.0
  0
LINE
  5
CF
330
7D
100
AcDbEntity
  8
レイヤー 1
 62
    18
420
        0
370
    25
100
AcDbLine
 10
114.3369864795938
 20
-146.5027531709607
 30
0.0
 11
113.8229892704854
 21
-146.884458726421
 31
0.0
  0
LINE
  5
D0
330
7D
100
AcDbEntity
  8
レイヤー 1
 62
    18
420
        0
370
    25
100
AcDbLine
 10
113.8229892704854
 20
-146.884458726421
 30
0.0
 11
113.3379198384155
 21
-146.4669109487475
 31
0.0
  0
LINE
  5
D1
330
7D
100
AcDbEntity
  8
レイヤー 1
 62
    18
420
        0
370
    25
100
AcDbLine
 10
113.3379198384155
 20
-146.4669109487475
 30
0.0
 11
112.8239226293064
 21
-146.8493220597632
 31
0.0
  0
LINE
  5
D2
330
7D
100
AcDbEntity
  8
レイヤー 1
 62
    18
420
        0
370
    25
100
AcDbLine
 10
112.8239226293064
 20
-146.8493220597632
 30
0.0
 11
112.3388531972371
 21
-146.4317742820894
 31
0.0
  0
LINE
  5
D3
330
7D
100
AcDbEntity
  8
レイヤー 1
 62
    18
420
        0
370
    25
100
AcDbLine
 10
112.3388531972371
 20
-146.4317742820894
 30
0.0
 11
111.8248220695968
 21
-146.8134798375497
 31
0.0
  0
LINE
  5
D4
330
7D
100
AcDbEntity
  8
レイヤー 1
 62
    18
420
        0
370
    25
100
AcDbLine
 10
111.8248220695968
 20
-146.8134798375497
 30
0.0
 11
111.3390810005212
 21
-146.3959320598762
 31
0.0
  0
LINE
  5
D5
330
7D
100
AcDbEntity
  8
レイヤー 1
 62
    18
420
        0
370
    25
100
AcDbLine
 10
111.3390810005212
 20
-146.3959320598762
 30
0.0
 11
110.8250498476249
 21
-146.7776376153364
 31
0.0
  0
LINE
  5
D6
330
7D
100
AcDbEntity
  8
レイヤー 1
 62
    18
420
        0
370
    25
100
AcDbLine
 10
110.8250498476249
 20
-146.7776376153364
 30
0.0
 11
110.3399804033017
 21
-146.3601251154408
 31
0.0
  0
LINE
  5
D7
330
7D
100
AcDbEntity
  8
レイヤー 1
 62
    18
420
        0
370
    25
100
AcDbLine
 10
110.3399804033017
 20
-146.3601251154408
 30
0.0
 11
109.8259831812079
 21
-146.741830670901
 31
0.0
  0
LINE
  5
D8
330
7D
100
AcDbEntity
  8
レイヤー 1
 62
    18
420
        0
370
    25
100
AcDbLine
 10
109.8259831812079
 20
-146.741830670901
 30
0.0
 11
109.340242162627
 21
-146.3242828932275
 31
0.0
  0
LINE
  5
D9
330
7D
100
AcDbEntity
  8
レイヤー 1
 62
    18
420
        0
370
    25
100
AcDbLine
 10
109.340242162627
 20
-146.3242828932275
 30
0.0
 11
108.8262109592354
 21
-146.7059884486878
 31
0.0
  0
LINE
  5
DA
330
7D
100
AcDbEntity
  8
レイヤー 1
 62
    18
420
        0
370
    25
100
AcDbLine
 10
108.8262109592354
 20
-146.7059884486878
 30
0.0
 11
108.3411415149122
 21
-146.2884406710143
 31
0.0
  0
LINE
  5
DB
330
7D
100
AcDbEntity
  8
レイヤー 1
 62
    18
420
        0
370
    25
100
AcDbLine
 10
108.2803065292082
 20
-146.2402159488041
 30
0.0
 11
107.3269054040546
 21
-146.2402159488041
 31
0.0
  0
LINE
  5
DC
330
7D
100
AcDbEntity
  8
レイヤー 1
 62
    18
420
        0
370
    25
100
AcDbLine
 10
108.3273831815821
 20
-147.5024901151551
 30
0.0
 11
108.3273831815821
 21
-152.5027270583501
 31
0.0
  0
CIRCLE
  5
DD
330
7D
100
AcDbEntity
  8
レイヤー 1
 62
    18
420
        0
370
     9
100
AcDbCircle
 10
81.3255604105552
 20
-142.2404567831375
 30
0.0
 40
0.0999066666418783
  0
CIRCLE
  5
DE
330
7D
100
AcDbEntity
  8
レイヤー 1
 62
    18
420
        0
370
     9
100
AcDbCircle
 10
77.32580124488841
 20
-147.0022865041692
 30
0.0
 40
0.0999066666416377
  0
CIRCLE
  5
DF
330
7D
100
AcDbEntity
  8
レイヤー 1
 62
    18
420
        0
370
     9
100
AcDbCircle
 10
77.32580124488841
 20
-147.5024901151551
 30
0.0
 40
0.0999066666416377
  0
CIRCLE
  5
E0
330
7D
100
AcDbEntity
  8
レイヤー 1
 62
    18
420
        0
370
     9
100
AcDbCircle
 10
77.32580124488841
 20
-152.5027270583497
 30
0.0
 40
0.0999066666417981
  0
CIRCLE
  5
E1
330
7D
100
AcDbEntity
  8
レイヤー 1
 62
    18
420
        0
370
     9
100
AcDbCircle
 10
102.3268790082196
 20
-142.2404567831375
 30
0.0
 40
0.0999066653797766
  0
CIRCLE
  5
E2
330
7D
100
AcDbEntity
  8
レイヤー 1
 62
    18
420
        0
370
     9
100
AcDbCircle
 10
128.3282233448699
 20
-142.2404567831375
 30
0.0
 40
0.0999066653798568
  0
SPLINE
  5
E3
330
7D
100
AcDbEntity
  8
レイヤー 1
 62
    18
420
        0
370
     9
100
AcDbSpline
210
0.0
220
0.0
230
1.0
 70
     9
 71
     3
 72
    17
 73
    13
 74
     0
 42
0.0000000001
 43
0.0000000001
 40
0.0
 40
0.0
 40
0.0
 40
0.0
 40
1.0
 40
1.0
 40
1.0
 40
2.0
 40
2.0
 40
2.0
 40
3.0
 40
3.0
 40
3.0
 40
4.0
 40
4.0
 40
4.0
 40
4.0
 10
107.4268108225538
 20
-142.2404567831375
 30
0.0
 10
107.4268108225538
 20
-142.1853528942623
 30
0.0
 10
107.3820433236959
 20
-142.1405501164956
 30
0.0
 10
107.3269054040546
 20
-142.1405501164956
 30
0.0
 10
107.2718002709529
 20
-142.1405501164956
 30
0.0
 10
107.2269974943181
 20
-142.1853528942623
 30
0.0
 10
107.2269974943181
 20
-142.2404567831375
 30
0.0
 10
107.2269974943181
 20
-142.2955959497903
 30
0.0
 10
107.2718002709529
 20
-142.3403634497792
 30
0.0
 10
107.3269054040546
 20
-142.3403634497792
 30
0.0
 10
107.3820433236959
 20
-142.3403634497792
 30
0.0
 10
107.4268108225538
 20
-142.2955959497903
 30
0.0
 10
107.4268108225538
 20
-142.2404567831375
 30
0.0
  0
LINE
  5
E4
330
7D
100
AcDbEntity
  8
レイヤー 1
 62
    18
420
        0
370
     9
100
AcDbLine
 10
77.32580124488841
 20
-147.0022865041692
 30
0.0
 11
77.32580124488841
 21
-141.7443806721503
 31
0.0
  0
LINE
  5
E5
330
7D
100
AcDbEntity
  8
レイヤー 1
 62
    18
420
        0
370
     9
100
AcDbLine
 10
77.32580124488841
 20
-147.0022865041692
 30
0.0
 11
77.32580124488841
 21
-147.5024901151551
 31
0.0
  0
LINE
  5
E6
330
7D
100
AcDbEntity
  8
レイヤー 1
 62
    18
420
        0
370
     9
100
AcDbLine
 10
78.78584263341244
 20
-147.0022865041692
 30
0.0
 11
76.32571152291626
 21
-147.0022865041692
 31
0.0
  0
LINE
  5
E7
330
7D
100
AcDbEntity
  8
レイヤー 1
 62
    18
420
        0
370
     9
100
AcDbLine
 10
78.78584263341244
 20
-147.5024901151551
 30
0.0
 11
76.32571152291626
 21
-147.5024901151551
 31
0.0
  0
INSERT
  5
E9
330
7D
100
AcDbEntity
  8
レイヤー 1
100
AcDbBlockReference
  2
Block_2
 10
0.0
 20
0.0
 30
0.0
  0
LINE
  5
F7
330
7D
100
AcDbEntity
  8
レイヤー 1
 62
    18
420
        0
370
     9
100
AcDbLine
 10
81.32556041055529
 20
-142.2404567831375
 30
0.0
 11
102.3268790082194
 21
-142.2404567831375
 31
0.0
  0
LINE
  5
F8
330
7D
100
AcDbEntity
  8
レイヤー 1
 62
    18
420
        0
370
     9
100
AcDbLine
 10
81.32556041055529
 20
-144.4625334492485
 30
0.0
 11
81.32556041055529
 21
-141.240684561165
 31
0.0
  0
INSERT
  5
FA
330
7D
100
AcDbEntity
  8
レイヤー 1
100
AcDbBlockReference
  2
Block_4
 10
0.0
 20
0.0
 30
0.0
  0
LINE
  5
105
330
7D
100
AcDbEntity
  8
レイヤー 1
 62
    18
420
        0
370
     9
100
AcDbLine
 10
77.32580124488841
 20
-147.5024901151551
 30
0.0
 11
77.32580124488841
 21
-152.5027270583501
 31
0.0
  0
LINE
  5
106
330
7D
100
AcDbEntity
  8
レイヤー 1
 62
    18
420
        0
370
     9
100
AcDbLine
 10
98.78738909851968
 20
-152.5027270583501
 30
0.0
 11
76.32571152291626
 21
-152.5027270583501
 31
0.0
  0
INSERT
  5
108
330
7D
100
AcDbEntity
  8
レイヤー 1
100
AcDbBlockReference
  2
Block_6
 10
0.0
 20
0.0
 30
0.0
  0
LINE
  5
10D
330
7D
100
AcDbEntity
  8
レイヤー 1
 62
    18
420
        0
370
     9
100
AcDbLine
 10
128.3282233448699
 20
-142.2404567831375
 30
0.0
 11
107.3269054040546
 21
-142.2404567831375
 31
0.0
  0
LINE
  5
10E
330
7D
100
AcDbEntity
  8
レイヤー 1
 62
    18
420
        0
370
     9
100
AcDbLine
 10
128.3282233448699
 20
-144.4625334492485
 30
0.0
 11
128.3282233448699
 21
-141.240684561165
 31
0.0
  0
INSERT
  5
110
330
7D
100
AcDbEntity
  8
レイヤー 1
100
AcDbBlockReference
  2
Block_7
 10
0.0
 20
0.0
 30
0.0
  0
LINE
  5
11B
330
7D
100
AcDbEntity
  8
レイヤー 1
 62
    18
420
        0
370
     9
100
AcDbLine
 10
102.3268790082194
 20
-142.2404567831375
 30
0.0
 11
107.3269054040546
 21
-142.2404567831375
 31
0.0
  0
LINE
  5
11C
330
7D
100
AcDbEntity
  8
レイヤー 1
 62
    18
420
        0
370
     9
100
AcDbLine
 10
102.3268790082194
 20
-143.7004981716613
 30
0.0
 11
102.3268790082194
 21
-141.240684561165
 31
0.0
  0
LINE
  5
11D
330
7D
100
AcDbEntity
  8
レイヤー 1
 62
    18
420
        0
370
     9
100
AcDbLine
 10
107.3269054040546
 20
-143.7004981716613
 30
0.0
 11
107.3269054040546
 21
-141.240684561165
 31
0.0
  0
INSERT
  5
11F
330
7D
100
AcDbEntity
  8
レイヤー 1
100
AcDbBlockReference
  2
Block_9
 10
0.0
 20
0.0
 30
0.0
  0
SPLINE
  5
124
330
7D
100
AcDbEntity
  8
レイヤー 1
 62
    18
420
        0
370
     9
100
AcDbSpline
210
0.0
220
0.0
230
1.0
 70
     9
 71
     3
 72
    17
 73
    13
 74
     0
 42
0.0000000001
 43
0.0000000001
 40
0.0
 40
0.0
 40
0.0
 40
0.0
 40
1.0
 40
1.0
 40
1.0
 40
2.0
 40
2.0
 40
2.0
 40
3.0
 40
3.0
 40
3.0
 40
4.0
 40
4.0
 40
4.0
 40
4.0
 10
101.5872109610456
 20
-156.9262076127994
 30
0.0
 10
101.5872109610456
 20
-156.8711037239244
 30
0.0
 10
101.5422659726817
 20
-156.8263009461577
 30
0.0
 10
101.486950418537
 20
-156.8263009461577
 30
0.0
 10
101.4318465310539
 20
-156.8263009461577
 30
0.0
 10
101.3870437544192
 20
-156.8711037239244
 30
0.0
 10
101.3870437544192
 20
-156.9262076127994
 30
0.0
 10
101.3870437544192
 20
-156.9813467794524
 30
0.0
 10
101.4318465310539
 20
-157.026114279441
 30
0.0
 10
101.486950418537
 20
-157.026114279441
 30
0.0
 10
101.5422659726817
 20
-157.026114279441
 30
0.0
 10
101.5872109610456
 20
-156.9813467794524
 30
0.0
 10
101.5872109610456
 20
-156.9262076127994
 30
0.0
  0
CIRCLE
  5
125
330
7D
100
AcDbEntity
  8
レイヤー 1
 62
    18
420
        0
370
     9
100
AcDbCircle
 10
108.5709396822535
 20
-156.9262076127994
 30
0.0
 40
0.0999948598219309
  0
LINE
  5
126
330
7D
100
AcDbEntity
  8
レイヤー 1
 62
    18
420
        0
370
     9
100
AcDbLine
 10
108.5709396822535
 20
-156.9262076127994
 30
0.0
 11
101.486950418537
 21
-156.9262076127994
 31
0.0
  0
LINE
  5
127
330
7D
100
AcDbEntity
  8
レイヤー 1
 62
    18
420
        0
370
     9
100
AcDbLine
 10
108.5709396822535
 20
-155.4662015020531
 30
0.0
 11
108.5709396822535
 21
-157.9259798347719
 31
0.0
  0
LINE
  5
128
330
7D
100
AcDbEntity
  8
レイヤー 1
 62
    18
420
        0
370
     9
100
AcDbLine
 10
101.486950418537
 20
-155.4662015020531
 30
0.0
 11
101.486950418537
 21
-157.9259798347719
 31
0.0
  0
INSERT
  5
12A
330
7D
100
AcDbEntity
  8
レイヤー 1
100
AcDbBlockReference
  2
Block_10
 10
0.0
 20
0.0
 30
0.0
  0
LINE
  5
12F
330
7D
100
AcDbEntity
  8
レイヤー 1
 62
    18
420
        0
370
     9
100
AcDbLine
 10
105.2687998490136
 20
-150.5011012255166
 30
0.0
 11
113.2690223401732
 21
-150.5011012255166
 31
0.0
  0
INSERT
  5
131
330
7D
100
AcDbEntity
  8
レイヤー 1
100
AcDbBlockReference
  2
Block_11
 10
0.0
 20
0.0
 30
0.0
  0
ENDBLK
  5
80
330
7D
100
AcDbEntity
  8
0
100
AcDbBlockEnd
  0
BLOCK
  5
EA
330
E8
100
AcDbEntity
  8
0
100
AcDbBlockBegin
  2
Block_2
 70
     0
 10
0.0
 20
0.0
 30
0.0
  3
Block_2
  1

  0
INSERT
  5
ED
330
E8
100
AcDbEntity
  8
レイヤー 1
100
AcDbBlockReference
  2
Block_3
 10
0.0
 20
0.0
 30
0.0
  0
ENDBLK
  5
EB
330
E8
100
AcDbEntity
  8
0
100
AcDbBlockEnd
  0
BLOCK
  5
EE
330
EC
100
AcDbEntity
  8
0
100
AcDbBlockBegin
  2
Block_3
 70
     0
 10
0.0
 20
0.0
 30
0.0
  3
Block_3
  1

  0
SPLINE
  5
F0
330
EC
100
AcDbEntity
  8
レイヤー 1
100
AcDbSpline
210
0.0
220
0.0
230
1.0
 70
     9
 71
     3
 72
    17
 73
    13
 74
     0
 42
0.0000000001
 43
0.0000000001
 40
0.0
 40
0.0
 40
0.0
 40
0.0
 40
1.0
 40
1.0
 40
1.0
 40
2.0
 40
2.0
 40
2.0
 40
3.0
 40
3.0
 40
3.0
 40
4.0
 40
4.0
 40
4.0
 40
4.0
 10
74.48141409813313
 20
-148.1577093813633
 30
0.0
 10
74.48141409813313
 20
-148.4074788040439
 30
0.0
 10
74.76477320179492
 20
-148.4539875930948
 30
0.0
 10
75.10962725986843
 20
-148.4539875930948
 30
0.0
 10
75.42915986612534
 20
-148.4539875930948
 30
0.0
 10
75.73801267637801
 20
-148.4178140904997
 30
0.0
 10
75.73801267637801
 20
-148.1577093813633
 30
0.0
 10
75.73801267637801
 20
-147.9100070159739
 30
0.0
 10
75.45654837523308
 20
-147.8614311696319
 30
0.0
 10
75.10962725986843
 20
-147.8614311696319
 30
0.0
 10
74.79026690838577
 20
-147.8614311696319
 30
0.0
 10
74.48141409813313
 20
-147.8996717295181
 30
0.0
 10
74.48141409813313
 20
-148.1577093813633
 30
0.0
  0
SPLINE
  5
F1
330
EC
100
AcDbEntity
  8
レイヤー 1
100
AcDbSpline
210
0.0
220
0.0
230
1.0
 70
     9
 71
     3
 72
    29
 73
    25
 74
     0
 42
0.0000000001
 43
0.0000000001
 40
0.0
 40
0.0
 40
0.0
 40
0.0
 40
1.0
 40
1.0
 40
1.0
 40
2.0
 40
2.0
 40
2.0
 40
3.0
 40
3.0
 40
3.0
 40
4.0
 40
4.0
 40
4.0
 40
5.0
 40
5.0
 40
5.0
 40
6.0
 40
6.0
 40
6.0
 40
7.0
 40
7.0
 40
7.0
 40
8.0
 40
8.0
 40
8.0
 40
8.0
 10
75.70407848584828
 20
-147.759800852817
 30
0.0
 10
75.91354029135148
 20
-147.8679768510538
 30
0.0
 10
75.93266057129461
 20
-148.0412651539619
 30
0.0
 10
75.93266057129461
 20
-148.1577093813633
 30
0.0
 10
75.93266057129461
 20
-148.3185953405245
 30
0.0
 10
75.88615178224374
 20
-148.4601887649683
 30
0.0
 10
75.70407848584828
 20
-148.5552734003612
 30
0.0
 10
75.50960284570594
 20
-148.6589707744672
 30
0.0
 10
75.27258027632075
 20
-148.6782633091846
 30
0.0
 10
75.10962725986843
 20
-148.6782633091846
 30
0.0
 10
74.96579452335925
 20
-148.6782633091846
 30
0.0
 10
74.71413029816175
 20
-148.6610378317583
 30
0.0
 10
74.51517603388857
 20
-148.5552734003612
 30
0.0
 10
74.3120876550331
 20
-148.4474419116729
 30
0.0
 10
74.28883326050765
 20
-148.2865559525117
 30
0.0
 10
74.28883326050765
 20
-148.1577093813633
 30
0.0
 10
74.28883326050765
 20
-147.9988904794933
 30
0.0
 10
74.33327499226738
 20
-147.8552299977584
 30
0.0
 10
74.51517603388857
 20
-147.759800852817
 30
0.0
 10
74.70775687151403
 20
-147.6605821028418
 30
0.0
 10
74.9361667021861
 20
-147.6371554535421
 30
0.0
 10
75.10962725986843
 20
-147.6371554535421
 30
0.0
 10
75.28102076025961
 20
-147.6371554535421
 30
0.0
 10
75.51166990299709
 20
-147.6585150455506
 30
0.0
 10
75.70407848584828
 20
-147.759800852817
 30
0.0
  0
HATCH
  5
F2
330
EC
100
AcDbEntity
  8
レイヤー 1
 62
    18
420
        0
440
 33554687
100
AcDbHatch
 10
0.0
 20
0.0
 30
0.0
210
0.0
220
0.0
230
1.0
  2
SOLID
 70
     1
 71
     1
 91
        2
 92
        1
 93
        1
 72
     4
 94
        3
 73
     0
 74
     0
 95
       17
 96
       13
 40
0.0
 40
0.0
 40
0.0
 40
0.0
 40
1.0
 40
1.0
 40
1.0
 40
2.0
 40
2.0
 40
2.0
 40
3.0
 40
3.0
 40
3.0
 40
4.0
 40
4.0
 40
4.0
 40
4.0
 10
74.48141409813313
 20
-148.1577093813633
 10
74.48141409813313
 20
-148.4074788040439
 10
74.76477320179492
 20
-148.4539875930948
 10
75.10962725986843
 20
-148.4539875930948
 10
75.42915986612534
 20
-148.4539875930948
 10
75.73801267637801
 20
-148.4178140904997
 10
75.73801267637801
 20
-148.1577093813633
 10
75.73801267637801
 20
-147.9100070159739
 10
75.45654837523308
 20
-147.8614311696319
 10
75.10962725986843
 20
-147.8614311696319
 10
74.79026690838577
 20
-147.8614311696319
 10
74.48141409813313
 20
-147.8996717295181
 10
74.48141409813313
 20
-148.1577093813633
 97
        0
 97
        1
330
F0
 92
        1
 93
        1
 72
     4
 94
        3
 73
     0
 74
     0
 95
       29
 96
       25
 40
0.0
 40
0.0
 40
0.0
 40
0.0
 40
1.0
 40
1.0
 40
1.0
 40
2.0
 40
2.0
 40
2.0
 40
3.0
 40
3.0
 40
3.0
 40
4.0
 40
4.0
 40
4.0
 40
5.0
 40
5.0
 40
5.0
 40
6.0
 40
6.0
 40
6.0
 40
7.0
 40
7.0
 40
7.0
 40
8.0
 40
8.0
 40
8.0
 40
8.0
 10
75.70407848584828
 20
-147.759800852817
 10
75.91354029135148
 20
-147.8679768510538
 10
75.93266057129461
 20
-148.0412651539619
 10
75.93266057129461
 20
-148.1577093813633
 10
75.93266057129461
 20
-148.3185953405245
 10
75.88615178224374
 20
-148.4601887649683
 10
75.70407848584828
 20
-148.5552734003612
 10
75.50960284570594
 20
-148.6589707744672
 10
75.27258027632075
 20
-148.6782633091846
 10
75.10962725986843
 20
-148.6782633091846
 10
74.96579452335925
 20
-148.6782633091846
 10
74.71413029816175
 20
-148.6610378317583
 10
74.51517603388857
 20
-148.5552734003612
 10
74.3120876550331
 20
-148.4474419116729
 10
74.28883326050765
 20
-148.2865559525117
 10
74.28883326050765
 20
-148.1577093813633
 10
74.28883326050765
 20
-147.9988904794933
 10
74.33327499226738
 20
-147.8552299977584
 10
74.51517603388857
 20
-147.759800852817
 10
74.70775687151403
 20
-147.6605821028418
 10
74.9361667021861
 20
-147.6371554535421
 10
75.10962725986843
 20
-147.6371554535421
 10
75.28102076025961
 20
-147.6371554535421
 10
75.51166990299709
 20
-147.6585150455506
 10
75.70407848584828
 20
-147.759800852817
 97
        0
 97
        1
330
F1
 75
     2
 76
     1
 98
        1
 10
0.0
 20
0.0
450
        0
451
        0
460
0.0
461
0.0
452
        0
462
0.0
453
        0
470

  0
SPLINE
  5
F3
330
EC
100
AcDbEntity
  8
レイヤー 1
100
AcDbSpline
210
0.0
220
0.0
230
1.0
 70
    11
 71
     3
 72
    17
 73
    13
 74
     0
 42
0.0000000001
 43
0.0000000001
 40
0.0
 40
0.0
 40
0.0
 40
0.0
 40
1.0
 40
1.0
 40
1.0
 40
2.0
 40
2.0
 40
2.0
 40
3.0
 40
3.0
 40
3.0
 40
4.0
 40
4.0
 40
4.0
 40
4.0
 10
75.88184541288718
 20
-147.4208034570684
 30
0.0
 10
75.88184541288718
 20
-147.4208034570684
 30
0.0
 10
75.63018118768969
 20
-147.4208034570684
 30
0.0
 10
75.63018118768969
 20
-147.4208034570684
 30
0.0
 10
75.63018118768969
 20
-147.4208034570684
 30
0.0
 10
75.63018118768969
 20
-147.1689669770966
 30
0.0
 10
75.63018118768969
 20
-147.1689669770966
 30
0.0
 10
75.63018118768969
 20
-147.1689669770966
 30
0.0
 10
75.88184541288718
 20
-147.1689669770966
 30
0.0
 10
75.88184541288718
 20
-147.1689669770966
 30
0.0
 10
75.88184541288718
 20
-147.1689669770966
 30
0.0
 10
75.88184541288718
 20
-147.4208034570684
 30
0.0
 10
75.88184541288718
 20
-147.4208034570684
 30
0.0
  0
HATCH
  5
F4
330
EC
100
AcDbEntity
  8
レイヤー 1
 62
    18
420
        0
440
 33554687
100
AcDbHatch
 10
0.0
 20
0.0
 30
0.0
210
0.0
220
0.0
230
1.0
  2
SOLID
 70
     1
 71
     1
 91
        1
 92
        1
 93
        1
 72
     4
 94
        3
 73
     0
 74
     0
 95
       17
 96
       13
 40
0.0
 40
0.0
 40
0.0
 40
0.0
 40
1.0
 40
1.0
 40
1.0
 40
2.0
 40
2.0
 40
2.0
 40
3.0
 40
3.0
 40
3.0
 40
4.0
 40
4.0
 40
4.0
 40
4.0
 10
75.88184541288718
 20
-147.4208034570684
 10
75.88184541288718
 20
-147.4208034570684
 10
75.63018118768969
 20
-147.4208034570684
 10
75.63018118768969
 20
-147.4208034570684
 10
75.63018118768969
 20
-147.4208034570684
 10
75.63018118768969
 20
-147.1689669770966
 10
75.63018118768969
 20
-147.1689669770966
 10
75.63018118768969
 20
-147.1689669770966
 10
75.88184541288718
 20
-147.1689669770966
 10
75.88184541288718
 20
-147.1689669770966
 10
75.88184541288718
 20
-147.1689669770966
 10
75.88184541288718
 20
-147.4208034570684
 10
75.88184541288718
 20
-147.4208034570684
 97
        0
 97
        1
330
F3
 75
     2
 76
     1
 98
        1
 10
0.0
 20
0.0
450
        0
451
        0
460
0.0
461
0.0
452
        0
462
0.0
453
        0
470

  0
SPLINE
  5
F5
330
EC
100
AcDbEntity
  8
レイヤー 1
100
AcDbSpline
210
0.0
220
0.0
230
1.0
 70
     9
 71
     3
 72
    53
 73
    49
 74
     0
 42
0.0000000001
 43
0.0000000001
 40
0.0
 40
0.0
 40
0.0
 40
0.0
 40
1.0
 40
1.0
 40
1.0
 40
2.0
 40
2.0
 40
2.0
 40
3.0
 40
3.0
 40
3.0
 40
4.0
 40
4.0
 40
4.0
 40
5.0
 40
5.0
 40
5.0
 40
6.0
 40
6.0
 40
6.0
 40
7.0
 40
7.0
 40
7.0
 40
8.0
 40
8.0
 40
8.0
 40
9.0
 40
9.0
 40
9.0
 40
10.0
 40
10.0
 40
10.0
 40
11.0
 40
11.0
 40
11.0
 40
12.0
 40
12.0
 40
12.0
 40
13.0
 40
13.0
 40
13.0
 40
14.0
 40
14.0
 40
14.0
 40
15.0
 40
15.0
 40
15.0
 40
16.0
 40
16.0
 40
16.0
 40
16.0
 10
75.93266057129461
 20
-146.4516980970676
 30
0.0
 10
75.93266057129461
 20
-146.5299017645828
 30
0.0
 10
75.91577960341689
 20
-146.6315320813976
 30
0.0
 10
75.85221759171403
 20
-146.7331623982125
 30
0.0
 10
75.7421467909603
 20
-146.9064507011206
 30
0.0
 10
75.61106090774655
 20
-146.9278102931292
 30
0.0
 10
75.50322941905823
 20
-146.946758318298
 30
0.0
 10
75.50322941905823
 20
-146.946758318298
 30
0.0
 10
75.50322941905823
 20
-146.7245496594994
 30
0.0
 10
75.50322941905823
 20
-146.7245496594994
 30
0.0
 10
75.70201142855714
 20
-146.6697726412839
 30
0.0
 10
75.73163924973029
 20
-146.5426486178782
 30
0.0
 10
75.73163924973029
 20
-146.4496310397765
 30
0.0
 10
75.73163924973029
 20
-146.3101046726239
 30
0.0
 10
75.63224824498083
 20
-146.1578314521758
 30
0.0
 10
75.39953204495221
 20
-146.1578314521758
 30
0.0
 10
75.14356145039814
 20
-146.1578314521758
 30
0.0
 10
75.07379826682182
 20
-146.3376654365058
 30
0.0
 10
75.07379826682182
 20
-146.4582437784896
 30
0.0
 10
75.07379826682182
 20
-146.4899386569539
 30
0.0
 10
75.07379826682182
 20
-146.6315320813976
 30
0.0
 10
75.20281709274444
 20
-146.7204155449171
 30
0.0
 10
75.20281709274444
 20
-146.7204155449171
 30
0.0
 10
75.1836968128013
 20
-146.8961154146648
 30
0.0
 10
75.1836968128013
 20
-146.8961154146648
 30
0.0
 10
75.1836968128013
 20
-146.8961154146648
 30
0.0
 10
74.33758136162395
 20
-146.7755370726811
 30
0.0
 10
74.33758136162395
 20
-146.7755370726811
 30
0.0
 10
74.33758136162395
 20
-146.7755370726811
 30
0.0
 10
74.33758136162395
 20
-145.9969454930146
 30
0.0
 10
74.33758136162395
 20
-145.9969454930146
 30
0.0
 10
74.33758136162395
 20
-145.9969454930146
 30
0.0
 10
74.53222925654056
 20
-145.9969454930146
 30
0.0
 10
74.53222925654056
 20
-145.9969454930146
 30
0.0
 10
74.53222925654056
 20
-145.9969454930146
 30
0.0
 10
74.53222925654056
 20
-146.6125840562288
 30
0.0
 10
74.53222925654056
 20
-146.6125840562288
 30
0.0
 10
74.53222925654056
 20
-146.6125840562288
 30
0.0
 10
74.95528698212924
 20
-146.6780408704485
 30
0.0
 10
74.95528698212924
 20
-146.6780408704485
 30
0.0
 10
74.92135279159953
 20
-146.6167181708111
 30
0.0
 10
74.88121742919637
 20
-146.5343803887136
 30
0.0
 10
74.88121742919637
 20
-146.415869104021
 30
0.0
 10
74.88121742919637
 20
-146.1619655667581
 30
0.0
 10
75.06742484017411
 20
-145.9249429973729
 30
0.0
 10
75.38041176500907
 20
-145.9249429973729
 30
0.0
 10
75.69787731397484
 20
-145.9249429973729
 30
0.0
 10
75.93266057129461
 20
-146.1492187134627
 30
0.0
 10
75.93266057129461
 20
-146.4516980970676
 30
0.0
  0
HATCH
  5
F6
330
EC
100
AcDbEntity
  8
レイヤー 1
 62
    18
420
        0
440
 33554687
100
AcDbHatch
 10
0.0
 20
0.0
 30
0.0
210
0.0
220
0.0
230
1.0
  2
SOLID
 70
     1
 71
     1
 91
        1
 92
        1
 93
        1
 72
     4
 94
        3
 73
     0
 74
     0
 95
       53
 96
       49
 40
0.0
 40
0.0
 40
0.0
 40
0.0
 40
1.0
 40
1.0
 40
1.0
 40
2.0
 40
2.0
 40
2.0
 40
3.0
 40
3.0
 40
3.0
 40
4.0
 40
4.0
 40
4.0
 40
5.0
 40
5.0
 40
5.0
 40
6.0
 40
6.0
 40
6.0
 40
7.0
 40
7.0
 40
7.0
 40
8.0
 40
8.0
 40
8.0
 40
9.0
 40
9.0
 40
9.0
 40
10.0
 40
10.0
 40
10.0
 40
11.0
 40
11.0
 40
11.0
 40
12.0
 40
12.0
 40
12.0
 40
13.0
 40
13.0
 40
13.0
 40
14.0
 40
14.0
 40
14.0
 40
15.0
 40
15.0
 40
15.0
 40
16.0
 40
16.0
 40
16.0
 40
16.0
 10
75.93266057129461
 20
-146.4516980970676
 10
75.93266057129461
 20
-146.5299017645828
 10
75.91577960341689
 20
-146.6315320813976
 10
75.85221759171403
 20
-146.7331623982125
 10
75.7421467909603
 20
-146.9064507011206
 10
75.61106090774655
 20
-146.9278102931292
 10
75.50322941905823
 20
-146.946758318298
 10
75.50322941905823
 20
-146.946758318298
 10
75.50322941905823
 20
-146.7245496594994
 10
75.50322941905823
 20
-146.7245496594994
 10
75.70201142855714
 20
-146.6697726412839
 10
75.73163924973029
 20
-146.5426486178782
 10
75.73163924973029
 20
-146.4496310397765
 10
75.73163924973029
 20
-146.3101046726239
 10
75.63224824498083
 20
-146.1578314521758
 10
75.39953204495221
 20
-146.1578314521758
 10
75.14356145039814
 20
-146.1578314521758
 10
75.07379826682182
 20
-146.3376654365058
 10
75.07379826682182
 20
-146.4582437784896
 10
75.07379826682182
 20
-146.4899386569539
 10
75.07379826682182
 20
-146.6315320813976
 10
75.20281709274444
 20
-146.7204155449171
 10
75.20281709274444
 20
-146.7204155449171
 10
75.1836968128013
 20
-146.8961154146648
 10
75.1836968128013
 20
-146.8961154146648
 10
75.1836968128013
 20
-146.8961154146648
 10
74.33758136162395
 20
-146.7755370726811
 10
74.33758136162395
 20
-146.7755370726811
 10
74.33758136162395
 20
-146.7755370726811
 10
74.33758136162395
 20
-145.9969454930146
 10
74.33758136162395
 20
-145.9969454930146
 10
74.33758136162395
 20
-145.9969454930146
 10
74.53222925654056
 20
-145.9969454930146
 10
74.53222925654056
 20
-145.9969454930146
 10
74.53222925654056
 20
-145.9969454930146
 10
74.53222925654056
 20
-146.6125840562288
 10
74.53222925654056
 20
-146.6125840562288
 10
74.53222925654056
 20
-146.6125840562288
 10
74.95528698212924
 20
-146.6780408704485
 10
74.95528698212924
 20
-146.6780408704485
 10
74.92135279159953
 20
-146.6167181708111
 10
74.88121742919637
 20
-146.5343803887136
 10
74.88121742919637
 20
-146.415869104021
 10
74.88121742919637
 20
-146.1619655667581
 10
75.06742484017411
 20
-145.9249429973729
 10
75.38041176500907
 20
-145.9249429973729
 10
75.69787731397484
 20
-145.9249429973729
 10
75.93266057129461
 20
-146.1492187134627
 10
75.93266057129461
 20
-146.4516980970676
 97
        0
 97
        1
330
F5
 75
     2
 76
     1
 98
        1
 10
0.0
 20
0.0
450
        0
451
        0
460
0.0
461
0.0
452
        0
462
0.0
453
        0
470

  0
ENDBLK
  5
EF
330
EC
100
AcDbEntity
  8
0
100
AcDbBlockEnd
  0
BLOCK
  5
FB
330
F9
100
AcDbEntity
  8
0
100
AcDbBlockBegin
  2
Block_4
 70
     0
 10
0.0
 20
0.0
 30
0.0
  3
Block_4
  1

  0
INSERT
  5
FE
330
F9
100
AcDbEntity
  8
レイヤー 1
100
AcDbBlockReference
  2
Block_5
 10
0.0
 20
0.0
 30
0.0
  0
ENDBLK
  5
FC
330
F9
100
AcDbEntity
  8
0
100
AcDbBlockEnd
  0
BLOCK
  5
FF
330
FD
100
AcDbEntity
  8
0
100
AcDbBlockBegin
  2
Block_5
 70
     0
 10
0.0
 20
0.0
 30
0.0
  3
Block_5
  1

  0
SPLINE
  5
101
330
FD
100
AcDbEntity
  8
レイヤー 1
100
AcDbSpline
210
0.0
220
0.0
230
1.0
 70
     9
 71
     3
 72
    44
 73
    40
 74
     0
 42
0.0000000001
 43
0.0000000001
 40
0.0
 40
0.0
 40
0.0
 40
0.0
 40
1.0
 40
1.0
 40
1.0
 40
2.0
 40
2.0
 40
2.0
 40
3.0
 40
3.0
 40
3.0
 40
4.0
 40
4.0
 40
4.0
 40
5.0
 40
5.0
 40
5.0
 40
6.0
 40
6.0
 40
6.0
 40
7.0
 40
7.0
 40
7.0
 40
8.0
 40
8.0
 40
8.0
 40
9.0
 40
9.0
 40
9.0
 40
10.0
 40
10.0
 40
10.0
 40
11.0
 40
11.0
 40
11.0
 40
12.0
 40
12.0
 40
12.0
 40
13.0
 40
13.0
 40
13.0
 40
13.0
 10
91.25506725149179
 20
-140.9454019829928
 30
0.0
 10
91.03716496204974
 20
-141.1040486300886
 30
0.0
 10
90.94397512917373
 20
-141.1781181830214
 30
0.0
 10
90.89539928283171
 20
-141.3219509195306
 30
0.0
 10
90.89539928283171
 20
-141.3219509195306
 30
0.0
 10
91.67381860772392
 20
-141.3219509195306
 30
0.0
 10
91.67381860772392
 20
-141.3219509195306
 30
0.0
 10
91.67381860772392
 20
-141.3219509195306
 30
0.0
 10
91.67381860772392
 20
-141.5271063556772
 30
0.0
 10
91.67381860772392
 20
-141.5271063556772
 30
0.0
 10
91.67381860772392
 20
-141.5271063556772
 30
0.0
 10
90.64580211492536
 20
-141.5271063556772
 30
0.0
 10
90.64580211492536
 20
-141.5271063556772
 30
0.0
 10
90.67749699338966
 20
-141.1695054443083
 30
0.0
 10
90.74295380760942
 20
-141.0913017767931
 30
0.0
 10
91.12811548286034
 20
-140.7929565077705
 30
0.0
 10
91.38408607741439
 20
-140.5941744982716
 30
0.0
 10
91.44954289163415
 20
-140.5264783719864
 30
0.0
 10
91.44954289163415
 20
-140.389019062125
 30
0.0
 10
91.44954289163415
 20
-140.2705077774324
 30
0.0
 10
91.37771265076668
 20
-140.1392496394443
 30
0.0
 10
91.18099769855893
 20
-140.1392496394443
 30
0.0
 10
90.9207207346483
 20
-140.1392496394443
 30
0.0
 10
90.91228025070943
 20
-140.3698987821818
 30
0.0
 10
90.90797388135287
 20
-140.4863430095833
 30
0.0
 10
90.90797388135287
 20
-140.4863430095833
 30
0.0
 10
90.68387042003736
 20
-140.4863430095833
 30
0.0
 10
90.68387042003736
 20
-140.4863430095833
 30
0.0
 10
90.69231090397623
 20
-140.3593912409518
 30
0.0
 10
90.70281844520625
 20
-140.2472533829069
 30
0.0
 10
90.78326142478683
 20
-140.1287420982143
 30
0.0
 10
90.8931599707663
 20
-139.9680283938274
 30
0.0
 10
91.07936738174405
 20
-139.9340942032977
 30
0.0
 10
91.19581160914549
 20
-139.9340942032977
 30
0.0
 10
91.47296954093384
 20
-139.9340942032977
 30
0.0
 10
91.68019203437163
 20
-140.1182345569843
 30
0.0
 10
91.68019203437163
 20
-140.3910861194161
 30
0.0
 10
91.68019203437163
 20
-140.6194959500882
 30
0.0
 10
91.56392006174444
 20
-140.7190592096119
 30
0.0
 10
91.25506725149179
 20
-140.9454019829928
 30
0.0
  0
HATCH
  5
102
330
FD
100
AcDbEntity
  8
レイヤー 1
 62
    18
420
        0
440
 33554687
100
AcDbHatch
 10
0.0
 20
0.0
 30
0.0
210
0.0
220
0.0
230
1.0
  2
SOLID
 70
     1
 71
     1
 91
        1
 92
        1
 93
        1
 72
     4
 94
        3
 73
     0
 74
     0
 95
       44
 96
       40
 40
0.0
 40
0.0
 40
0.0
 40
0.0
 40
1.0
 40
1.0
 40
1.0
 40
2.0
 40
2.0
 40
2.0
 40
3.0
 40
3.0
 40
3.0
 40
4.0
 40
4.0
 40
4.0
 40
5.0
 40
5.0
 40
5.0
 40
6.0
 40
6.0
 40
6.0
 40
7.0
 40
7.0
 40
7.0
 40
8.0
 40
8.0
 40
8.0
 40
9.0
 40
9.0
 40
9.0
 40
10.0
 40
10.0
 40
10.0
 40
11.0
 40
11.0
 40
11.0
 40
12.0
 40
12.0
 40
12.0
 40
13.0
 40
13.0
 40
13.0
 40
13.0
 10
91.25506725149179
 20
-140.9454019829928
 10
91.03716496204974
 20
-141.1040486300886
 10
90.94397512917373
 20
-141.1781181830214
 10
90.89539928283171
 20
-141.3219509195306
 10
90.89539928283171
 20
-141.3219509195306
 10
91.67381860772392
 20
-141.3219509195306
 10
91.67381860772392
 20
-141.3219509195306
 10
91.67381860772392
 20
-141.3219509195306
 10
91.67381860772392
 20
-141.5271063556772
 10
91.67381860772392
 20
-141.5271063556772
 10
91.67381860772392
 20
-141.5271063556772
 10
90.64580211492536
 20
-141.5271063556772
 10
90.64580211492536
 20
-141.5271063556772
 10
90.67749699338966
 20
-141.1695054443083
 10
90.74295380760942
 20
-141.0913017767931
 10
91.12811548286034
 20
-140.7929565077705
 10
91.38408607741439
 20
-140.5941744982716
 10
91.44954289163415
 20
-140.5264783719864
 10
91.44954289163415
 20
-140.389019062125
 10
91.44954289163415
 20
-140.2705077774324
 10
91.37771265076668
 20
-140.1392496394443
 10
91.18099769855893
 20
-140.1392496394443
 10
90.9207207346483
 20
-140.1392496394443
 10
90.91228025070943
 20
-140.3698987821818
 10
90.90797388135287
 20
-140.4863430095833
 10
90.90797388135287
 20
-140.4863430095833
 10
90.68387042003736
 20
-140.4863430095833
 10
90.68387042003736
 20
-140.4863430095833
 10
90.69231090397623
 20
-140.3593912409518
 10
90.70281844520625
 20
-140.2472533829069
 10
90.78326142478683
 20
-140.1287420982143
 10
90.8931599707663
 20
-139.9680283938274
 10
91.07936738174405
 20
-139.9340942032977
 10
91.19581160914549
 20
-139.9340942032977
 10
91.47296954093384
 20
-139.9340942032977
 10
91.68019203437163
 20
-140.1182345569843
 10
91.68019203437163
 20
-140.3910861194161
 10
91.68019203437163
 20
-140.6194959500882
 10
91.56392006174444
 20
-140.7190592096119
 10
91.25506725149179
 20
-140.9454019829928
 97
        0
 97
        1
330
101
 75
     2
 76
     1
 98
        1
 10
0.0
 20
0.0
450
        0
451
        0
460
0.0
461
0.0
452
        0
462
0.0
453
        0
470

  0
SPLINE
  5
103
330
FD
100
AcDbEntity
  8
レイヤー 1
100
AcDbSpline
210
0.0
220
0.0
230
1.0
 70
    11
 71
     3
 72
    26
 73
    22
 74
     0
 42
0.0000000001
 43
0.0000000001
 40
0.0
 40
0.0
 40
0.0
 40
0.0
 40
1.0
 40
1.0
 40
1.0
 40
2.0
 40
2.0
 40
2.0
 40
3.0
 40
3.0
 40
3.0
 40
4.0
 40
4.0
 40
4.0
 40
5.0
 40
5.0
 40
5.0
 40
6.0
 40
6.0
 40
6.0
 40
7.0
 40
7.0
 40
7.0
 40
7.0
 10
92.2901461900351
 20
-141.5271063556772
 30
0.0
 10
92.2901461900351
 20
-141.5271063556772
 30
0.0
 10
92.2901461900351
 20
-140.4227809978804
 30
0.0
 10
92.2901461900351
 20
-140.4227809978804
 30
0.0
 10
92.2901461900351
 20
-140.4227809978804
 30
0.0
 10
91.96010604254817
 20
-140.4227809978804
 30
0.0
 10
91.96010604254817
 20
-140.4227809978804
 30
0.0
 10
91.96010604254817
 20
-140.4227809978804
 30
0.0
 10
91.96010604254817
 20
-140.2746418920147
 30
0.0
 10
91.96010604254817
 20
-140.2746418920147
 30
0.0
 10
92.29221324732625
 20
-140.2600002362023
 30
0.0
 10
92.33872203637714
 20
-140.09704721975
 30
0.0
 10
92.36834985755027
 20
-139.982842304414
 30
0.0
 10
92.36834985755027
 20
-139.982842304414
 30
0.0
 10
92.51442190612486
 20
-139.982842304414
 30
0.0
 10
92.51442190612486
 20
-139.982842304414
 30
0.0
 10
92.51442190612486
 20
-139.982842304414
 30
0.0
 10
92.51442190612486
 20
-141.5271063556772
 30
0.0
 10
92.51442190612486
 20
-141.5271063556772
 30
0.0
 10
92.51442190612486
 20
-141.5271063556772
 30
0.0
 10
92.2901461900351
 20
-141.5271063556772
 30
0.0
 10
92.2901461900351
 20
-141.5271063556772
 30
0.0
  0
HATCH
  5
104
330
FD
100
AcDbEntity
  8
レイヤー 1
 62
    18
420
        0
440
 33554687
100
AcDbHatch
 10
0.0
 20
0.0
 30
0.0
210
0.0
220
0.0
230
1.0
  2
SOLID
 70
     1
 71
     1
 91
        1
 92
        1
 93
        1
 72
     4
 94
        3
 73
     0
 74
     0
 95
       26
 96
       22
 40
0.0
 40
0.0
 40
0.0
 40
0.0
 40
1.0
 40
1.0
 40
1.0
 40
2.0
 40
2.0
 40
2.0
 40
3.0
 40
3.0
 40
3.0
 40
4.0
 40
4.0
 40
4.0
 40
5.0
 40
5.0
 40
5.0
 40
6.0
 40
6.0
 40
6.0
 40
7.0
 40
7.0
 40
7.0
 40
7.0
 10
92.2901461900351
 20
-141.5271063556772
 10
92.2901461900351
 20
-141.5271063556772
 10
92.2901461900351
 20
-140.4227809978804
 10
92.2901461900351
 20
-140.4227809978804
 10
92.2901461900351
 20
-140.4227809978804
 10
91.96010604254817
 20
-140.4227809978804
 10
91.96010604254817
 20
-140.4227809978804
 10
91.96010604254817
 20
-140.4227809978804
 10
91.96010604254817
 20
-140.2746418920147
 10
91.96010604254817
 20
-140.2746418920147
 10
92.29221324732625
 20
-140.2600002362023
 10
92.33872203637714
 20
-140.09704721975
 10
92.36834985755027
 20
-139.982842304414
 10
92.36834985755027
 20
-139.982842304414
 10
92.51442190612486
 20
-139.982842304414
 10
92.51442190612486
 20
-139.982842304414
 10
92.51442190612486
 20
-139.982842304414
 10
92.51442190612486
 20
-141.5271063556772
 10
92.51442190612486
 20
-141.5271063556772
 10
92.51442190612486
 20
-141.5271063556772
 10
92.2901461900351
 20
-141.5271063556772
 10
92.2901461900351
 20
-141.5271063556772
 97
        0
 97
        1
330
103
 75
     2
 76
     1
 98
        1
 10
0.0
 20
0.0
450
        0
451
        0
460
0.0
461
0.0
452
        0
462
0.0
453
        0
470

  0
ENDBLK
  5
100
330
FD
100
AcDbEntity
  8
0
100
AcDbBlockEnd
  0
BLOCK
  5
109
330
107
100
AcDbEntity
  8
0
100
AcDbBlockBegin
  2
Block_6
 70
     0
 10
0.0
 20
0.0
 30
0.0
  3
Block_6
  1

  0
SPLINE
  5
10B
330
107
100
AcDbEntity
  8
レイヤー 1
100
AcDbSpline
210
0.0
220
0.0
230
1.0
 70
     9
 71
     3
 72
    53
 73
    49
 74
     0
 42
0.0000000001
 43
0.0000000001
 40
0.0
 40
0.0
 40
0.0
 40
0.0
 40
1.0
 40
1.0
 40
1.0
 40
2.0
 40
2.0
 40
2.0
 40
3.0
 40
3.0
 40
3.0
 40
4.0
 40
4.0
 40
4.0
 40
5.0
 40
5.0
 40
5.0
 40
6.0
 40
6.0
 40
6.0
 40
7.0
 40
7.0
 40
7.0
 40
8.0
 40
8.0
 40
8.0
 40
9.0
 40
9.0
 40
9.0
 40
10.0
 40
10.0
 40
10.0
 40
11.0
 40
11.0
 40
11.0
 40
12.0
 40
12.0
 40
12.0
 40
13.0
 40
13.0
 40
13.0
 40
14.0
 40
14.0
 40
14.0
 40
15.0
 40
15.0
 40
15.0
 40
16.0
 40
16.0
 40
16.0
 40
16.0
 10
76.66319306894185
 20
-150.6395561689373
 30
0.0
 10
76.66319306894185
 20
-150.7177598364525
 30
0.0
 10
76.64613984628985
 20
-150.8193901532674
 30
0.0
 10
76.58275008936126
 20
-150.9210204700822
 30
0.0
 10
76.47267928860753
 20
-151.0943087729903
 30
0.0
 10
76.34159340539376
 20
-151.1156683649988
 30
0.0
 10
76.23376191670544
 20
-151.1346163901677
 30
0.0
 10
76.23376191670544
 20
-151.1346163901677
 30
0.0
 10
76.23376191670544
 20
-150.9124077313691
 30
0.0
 10
76.23376191670544
 20
-150.9124077313691
 30
0.0
 10
76.43254392620438
 20
-150.8576307131536
 30
0.0
 10
76.46217174737751
 20
-150.7305066897479
 30
0.0
 10
76.46217174737751
 20
-150.6374891116462
 30
0.0
 10
76.46217174737751
 20
-150.4979627444936
 30
0.0
 10
76.36278074262806
 20
-150.3456895240455
 30
0.0
 10
76.13006454259942
 20
-150.3456895240455
 30
0.0
 10
75.87409394804537
 20
-150.3456895240455
 30
0.0
 10
75.80433076446905
 20
-150.5255235083755
 30
0.0
 10
75.80433076446905
 20
-150.6461018503593
 30
0.0
 10
75.80433076446905
 20
-150.6777967288236
 30
0.0
 10
75.80433076446905
 20
-150.8193901532674
 30
0.0
 10
75.93334959039167
 20
-150.9082736167868
 30
0.0
 10
75.93334959039167
 20
-150.9082736167868
 30
0.0
 10
75.91422931044853
 20
-151.0839734865345
 30
0.0
 10
75.91422931044853
 20
-151.0839734865345
 30
0.0
 10
75.91422931044853
 20
-151.0839734865345
 30
0.0
 10
75.06811385927116
 20
-150.9633951445508
 30
0.0
 10
75.06811385927116
 20
-150.9633951445508
 30
0.0
 10
75.06811385927116
 20
-150.9633951445508
 30
0.0
 10
75.06811385927116
 20
-150.1848035648843
 30
0.0
 10
75.06811385927116
 20
-150.1848035648843
 30
0.0
 10
75.06811385927116
 20
-150.1848035648843
 30
0.0
 10
75.26276175418778
 20
-150.1848035648843
 30
0.0
 10
75.26276175418778
 20
-150.1848035648843
 30
0.0
 10
75.26276175418778
 20
-150.1848035648843
 30
0.0
 10
75.26276175418778
 20
-150.8004421280985
 30
0.0
 10
75.26276175418778
 20
-150.8004421280985
 30
0.0
 10
75.26276175418778
 20
-150.8004421280985
 30
0.0
 10
75.68581947977647
 20
-150.8658989423182
 30
0.0
 10
75.68581947977647
 20
-150.8658989423182
 30
0.0
 10
75.65188528924675
 20
-150.8045762426808
 30
0.0
 10
75.6117499268436
 20
-150.7222384605833
 30
0.0
 10
75.6117499268436
 20
-150.6037271758907
 30
0.0
 10
75.6117499268436
 20
-150.3498236386278
 30
0.0
 10
75.79795733782134
 20
-150.1128010692426
 30
0.0
 10
76.11094426265629
 20
-150.1128010692426
 30
0.0
 10
76.42840981162208
 20
-150.1128010692426
 30
0.0
 10
76.66319306894185
 20
-150.3370767853324
 30
0.0
 10
76.66319306894185
 20
-150.6395561689373
 30
0.0
  0
HATCH
  5
10C
330
107
100
AcDbEntity
  8
レイヤー 1
 62
    18
420
        0
440
 33554687
100
AcDbHatch
 10
0.0
 20
0.0
 30
0.0
210
0.0
220
0.0
230
1.0
  2
SOLID
 70
     1
 71
     1
 91
        1
 92
        1
 93
        1
 72
     4
 94
        3
 73
     0
 74
     0
 95
       53
 96
       49
 40
0.0
 40
0.0
 40
0.0
 40
0.0
 40
1.0
 40
1.0
 40
1.0
 40
2.0
 40
2.0
 40
2.0
 40
3.0
 40
3.0
 40
3.0
 40
4.0
 40
4.0
 40
4.0
 40
5.0
 40
5.0
 40
5.0
 40
6.0
 40
6.0
 40
6.0
 40
7.0
 40
7.0
 40
7.0
 40
8.0
 40
8.0
 40
8.0
 40
9.0
 40
9.0
 40
9.0
 40
10.0
 40
10.0
 40
10.0
 40
11.0
 40
11.0
 40
11.0
 40
12.0
 40
12.0
 40
12.0
 40
13.0
 40
13.0
 40
13.0
 40
14.0
 40
14.0
 40
14.0
 40
15.0
 40
15.0
 40
15.0
 40
16.0
 40
16.0
 40
16.0
 40
16.0
 10
76.66319306894185
 20
-150.6395561689373
 10
76.66319306894185
 20
-150.7177598364525
 10
76.64613984628985
 20
-150.8193901532674
 10
76.58275008936126
 20
-150.9210204700822
 10
76.47267928860753
 20
-151.0943087729903
 10
76.34159340539376
 20
-151.1156683649988
 10
76.23376191670544
 20
-151.1346163901677
 10
76.23376191670544
 20
-151.1346163901677
 10
76.23376191670544
 20
-150.9124077313691
 10
76.23376191670544
 20
-150.9124077313691
 10
76.43254392620438
 20
-150.8576307131536
 10
76.46217174737751
 20
-150.7305066897479
 10
76.46217174737751
 20
-150.6374891116462
 10
76.46217174737751
 20
-150.4979627444936
 10
76.36278074262806
 20
-150.3456895240455
 10
76.13006454259942
 20
-150.3456895240455
 10
75.87409394804537
 20
-150.3456895240455
 10
75.80433076446905
 20
-150.5255235083755
 10
75.80433076446905
 20
-150.6461018503593
 10
75.80433076446905
 20
-150.6777967288236
 10
75.80433076446905
 20
-150.8193901532674
 10
75.93334959039167
 20
-150.9082736167868
 10
75.93334959039167
 20
-150.9082736167868
 10
75.91422931044853
 20
-151.0839734865345
 10
75.91422931044853
 20
-151.0839734865345
 10
75.91422931044853
 20
-151.0839734865345
 10
75.06811385927116
 20
-150.9633951445508
 10
75.06811385927116
 20
-150.9633951445508
 10
75.06811385927116
 20
-150.9633951445508
 10
75.06811385927116
 20
-150.1848035648843
 10
75.06811385927116
 20
-150.1848035648843
 10
75.06811385927116
 20
-150.1848035648843
 10
75.26276175418778
 20
-150.1848035648843
 10
75.26276175418778
 20
-150.1848035648843
 10
75.26276175418778
 20
-150.1848035648843
 10
75.26276175418778
 20
-150.8004421280985
 10
75.26276175418778
 20
-150.8004421280985
 10
75.26276175418778
 20
-150.8004421280985
 10
75.68581947977647
 20
-150.8658989423182
 10
75.68581947977647
 20
-150.8658989423182
 10
75.65188528924675
 20
-150.8045762426808
 10
75.6117499268436
 20
-150.7222384605833
 10
75.6117499268436
 20
-150.6037271758907
 10
75.6117499268436
 20
-150.3498236386278
 10
75.79795733782134
 20
-150.1128010692426
 10
76.11094426265629
 20
-150.1128010692426
 10
76.42840981162208
 20
-150.1128010692426
 10
76.66319306894185
 20
-150.3370767853324
 10
76.66319306894185
 20
-150.6395561689373
 97
        0
 97
        1
330
10B
 75
     2
 76
     1
 98
        1
 10
0.0
 20
0.0
450
        0
451
        0
460
0.0
461
0.0
452
        0
462
0.0
453
        0
470

  0
ENDBLK
  5
10A
330
107
100
AcDbEntity
  8
0
100
AcDbBlockEnd
  0
BLOCK
  5
111
330
10F
100
AcDbEntity
  8
0
100
AcDbBlockBegin
  2
Block_7
 70
     0
 10
0.0
 20
0.0
 30
0.0
  3
Block_7
  1

  0
INSERT
  5
114
330
10F
100
AcDbEntity
  8
レイヤー 1
100
AcDbBlockReference
  2
Block_8
 10
0.0
 20
0.0
 30
0.0
  0
ENDBLK
  5
112
330
10F
100
AcDbEntity
  8
0
100
AcDbBlockEnd
  0
BLOCK
  5
115
330
113
100
AcDbEntity
  8
0
100
AcDbBlockBegin
  2
Block_8
 70
     0
 10
0.0
 20
0.0
 30
0.0
  3
Block_8
  1

  0
SPLINE
  5
117
330
113
100
AcDbEntity
  8
レイヤー 1
100
AcDbSpline
210
0.0
220
0.0
230
1.0
 70
     9
 71
     3
 72
    44
 73
    40
 74
     0
 42
0.0000000001
 43
0.0000000001
 40
0.0
 40
0.0
 40
0.0
 40
0.0
 40
1.0
 40
1.0
 40
1.0
 40
2.0
 40
2.0
 40
2.0
 40
3.0
 40
3.0
 40
3.0
 40
4.0
 40
4.0
 40
4.0
 40
5.0
 40
5.0
 40
5.0
 40
6.0
 40
6.0
 40
6.0
 40
7.0
 40
7.0
 40
7.0
 40
8.0
 40
8.0
 40
8.0
 40
9.0
 40
9.0
 40
9.0
 40
10.0
 40
10.0
 40
10.0
 40
11.0
 40
11.0
 40
11.0
 40
12.0
 40
12.0
 40
12.0
 40
13.0
 40
13.0
 40
13.0
 40
13.0
 10
117.2562364073179
 20
-140.9454019829928
 30
0.0
 10
117.0385063726501
 20
-141.1040486300886
 30
0.0
 10
116.9454887945483
 20
-141.1781181830214
 30
0.0
 10
116.8965684386578
 20
-141.3219509195306
 30
0.0
 10
116.8965684386578
 20
-141.3219509195306
 30
0.0
 10
117.6751600183242
 20
-141.3219509195306
 30
0.0
 10
117.6751600183242
 20
-141.3219509195306
 30
0.0
 10
117.6751600183242
 20
-141.3219509195306
 30
0.0
 10
117.6751600183242
 20
-141.5271063556772
 30
0.0
 10
117.6751600183242
 20
-141.5271063556772
 30
0.0
 10
117.6751600183242
 20
-141.5271063556772
 30
0.0
 10
116.6471435255257
 20
-141.5271063556772
 30
0.0
 10
116.6471435255257
 20
-141.5271063556772
 30
0.0
 10
116.67883840399
 20
-141.1695054443083
 30
0.0
 10
116.7442952182097
 20
-141.0913017767931
 30
0.0
 10
117.1294568934607
 20
-140.7929565077705
 30
0.0
 10
117.3854274880147
 20
-140.5941744982716
 30
0.0
 10
117.4508843022345
 20
-140.5264783719864
 30
0.0
 10
117.4508843022345
 20
-140.389019062125
 30
0.0
 10
117.4508843022345
 20
-140.2705077774324
 30
0.0
 10
117.3788818065928
 20
-140.1392496394443
 30
0.0
 10
117.182166854385
 20
-140.1392496394443
 30
0.0
 10
116.9220621452486
 20
-140.1392496394443
 30
0.0
 10
116.913793916084
 20
-140.3698987821818
 30
0.0
 10
116.9093152919532
 20
-140.4863430095833
 30
0.0
 10
116.9093152919532
 20
-140.4863430095833
 30
0.0
 10
116.6850395758634
 20
-140.4863430095833
 30
0.0
 10
116.6850395758634
 20
-140.4863430095833
 30
0.0
 10
116.6936523145766
 20
-140.3593912409518
 30
0.0
 10
116.7043321105808
 20
-140.2472533829069
 30
0.0
 10
116.7846028353872
 20
-140.1287420982143
 30
0.0
 10
116.8945013813666
 20
-139.9680283938274
 30
0.0
 10
117.0808810471187
 20
-139.9340942032977
 30
0.0
 10
117.1969807649716
 20
-139.9340942032977
 30
0.0
 10
117.4743109515342
 20
-139.9340942032977
 30
0.0
 10
117.6817056997462
 20
-140.1182345569843
 30
0.0
 10
117.6817056997462
 20
-140.3910861194161
 30
0.0
 10
117.6817056997462
 20
-140.6194959500882
 30
0.0
 10
117.5652614723448
 20
-140.7190592096119
 30
0.0
 10
117.2562364073179
 20
-140.9454019829928
 30
0.0
  0
HATCH
  5
118
330
113
100
AcDbEntity
  8
レイヤー 1
 62
    18
420
        0
440
 33554687
100
AcDbHatch
 10
0.0
 20
0.0
 30
0.0
210
0.0
220
0.0
230
1.0
  2
SOLID
 70
     1
 71
     1
 91
        1
 92
        1
 93
        1
 72
     4
 94
        3
 73
     0
 74
     0
 95
       44
 96
       40
 40
0.0
 40
0.0
 40
0.0
 40
0.0
 40
1.0
 40
1.0
 40
1.0
 40
2.0
 40
2.0
 40
2.0
 40
3.0
 40
3.0
 40
3.0
 40
4.0
 40
4.0
 40
4.0
 40
5.0
 40
5.0
 40
5.0
 40
6.0
 40
6.0
 40
6.0
 40
7.0
 40
7.0
 40
7.0
 40
8.0
 40
8.0
 40
8.0
 40
9.0
 40
9.0
 40
9.0
 40
10.0
 40
10.0
 40
10.0
 40
11.0
 40
11.0
 40
11.0
 40
12.0
 40
12.0
 40
12.0
 40
13.0
 40
13.0
 40
13.0
 40
13.0
 10
117.2562364073179
 20
-140.9454019829928
 10
117.0385063726501
 20
-141.1040486300886
 10
116.9454887945483
 20
-141.1781181830214
 10
116.8965684386578
 20
-141.3219509195306
 10
116.8965684386578
 20
-141.3219509195306
 10
117.6751600183242
 20
-141.3219509195306
 10
117.6751600183242
 20
-141.3219509195306
 10
117.6751600183242
 20
-141.3219509195306
 10
117.6751600183242
 20
-141.5271063556772
 10
117.6751600183242
 20
-141.5271063556772
 10
117.6751600183242
 20
-141.5271063556772
 10
116.6471435255257
 20
-141.5271063556772
 10
116.6471435255257
 20
-141.5271063556772
 10
116.67883840399
 20
-141.1695054443083
 10
116.7442952182097
 20
-141.0913017767931
 10
117.1294568934607
 20
-140.7929565077705
 10
117.3854274880147
 20
-140.5941744982716
 10
117.4508843022345
 20
-140.5264783719864
 10
117.4508843022345
 20
-140.389019062125
 10
117.4508843022345
 20
-140.2705077774324
 10
117.3788818065928
 20
-140.1392496394443
 10
117.182166854385
 20
-140.1392496394443
 10
116.9220621452486
 20
-140.1392496394443
 10
116.913793916084
 20
-140.3698987821818
 10
116.9093152919532
 20
-140.4863430095833
 10
116.9093152919532
 20
-140.4863430095833
 10
116.6850395758634
 20
-140.4863430095833
 10
116.6850395758634
 20
-140.4863430095833
 10
116.6936523145766
 20
-140.3593912409518
 10
116.7043321105808
 20
-140.2472533829069
 10
116.7846028353872
 20
-140.1287420982143
 10
116.8945013813666
 20
-139.9680283938274
 10
117.0808810471187
 20
-139.9340942032977
 10
117.1969807649716
 20
-139.9340942032977
 10
117.4743109515342
 20
-139.9340942032977
 10
117.6817056997462
 20
-140.1182345569843
 10
117.6817056997462
 20
-140.3910861194161
 10
117.6817056997462
 20
-140.6194959500882
 10
117.5652614723448
 20
-140.7190592096119
 10
117.2562364073179
 20
-140.9454019829928
 97
        0
 97
        1
330
117
 75
     2
 76
     1
 98
        1
 10
0.0
 20
0.0
450
        0
451
        0
460
0.0
461
0.0
452
        0
462
0.0
453
        0
470

  0
SPLINE
  5
119
330
113
100
AcDbEntity
  8
レイヤー 1
100
AcDbSpline
210
0.0
220
0.0
230
1.0
 70
    11
 71
     3
 72
    26
 73
    22
 74
     0
 42
0.0000000001
 43
0.0000000001
 40
0.0
 40
0.0
 40
0.0
 40
0.0
 40
1.0
 40
1.0
 40
1.0
 40
2.0
 40
2.0
 40
2.0
 40
3.0
 40
3.0
 40
3.0
 40
4.0
 40
4.0
 40
4.0
 40
5.0
 40
5.0
 40
5.0
 40
6.0
 40
6.0
 40
6.0
 40
7.0
 40
7.0
 40
7.0
 40
7.0
 10
118.2914876006354
 20
-141.5271063556772
 30
0.0
 10
118.2914876006354
 20
-141.5271063556772
 30
0.0
 10
118.2914876006354
 20
-140.4227809978804
 30
0.0
 10
118.2914876006354
 20
-140.4227809978804
 30
0.0
 10
118.2914876006354
 20
-140.4227809978804
 30
0.0
 10
117.9614474531485
 20
-140.4227809978804
 30
0.0
 10
117.9614474531485
 20
-140.4227809978804
 30
0.0
 10
117.9614474531485
 20
-140.4227809978804
 30
0.0
 10
117.9614474531485
 20
-140.2746418920147
 30
0.0
 10
117.9614474531485
 20
-140.2746418920147
 30
0.0
 10
118.2935546579266
 20
-140.2600002362023
 30
0.0
 10
118.3400634469775
 20
-140.09704721975
 30
0.0
 10
118.3696912681506
 20
-139.982842304414
 30
0.0
 10
118.3696912681506
 20
-139.982842304414
 30
0.0
 10
118.5157633167252
 20
-139.982842304414
 30
0.0
 10
118.5157633167252
 20
-139.982842304414
 30
0.0
 10
118.5157633167252
 20
-139.982842304414
 30
0.0
 10
118.5157633167252
 20
-141.5271063556772
 30
0.0
 10
118.5157633167252
 20
-141.5271063556772
 30
0.0
 10
118.5157633167252
 20
-141.5271063556772
 30
0.0
 10
118.2914876006354
 20
-141.5271063556772
 30
0.0
 10
118.2914876006354
 20
-141.5271063556772
 30
0.0
  0
HATCH
  5
11A
330
113
100
AcDbEntity
  8
レイヤー 1
 62
    18
420
        0
440
 33554687
100
AcDbHatch
 10
0.0
 20
0.0
 30
0.0
210
0.0
220
0.0
230
1.0
  2
SOLID
 70
     1
 71
     1
 91
        1
 92
        1
 93
        1
 72
     4
 94
        3
 73
     0
 74
     0
 95
       26
 96
       22
 40
0.0
 40
0.0
 40
0.0
 40
0.0
 40
1.0
 40
1.0
 40
1.0
 40
2.0
 40
2.0
 40
2.0
 40
3.0
 40
3.0
 40
3.0
 40
4.0
 40
4.0
 40
4.0
 40
5.0
 40
5.0
 40
5.0
 40
6.0
 40
6.0
 40
6.0
 40
7.0
 40
7.0
 40
7.0
 40
7.0
 10
118.2914876006354
 20
-141.5271063556772
 10
118.2914876006354
 20
-141.5271063556772
 10
118.2914876006354
 20
-140.4227809978804
 10
118.2914876006354
 20
-140.4227809978804
 10
118.2914876006354
 20
-140.4227809978804
 10
117.9614474531485
 20
-140.4227809978804
 10
117.9614474531485
 20
-140.4227809978804
 10
117.9614474531485
 20
-140.4227809978804
 10
117.9614474531485
 20
-140.2746418920147
 10
117.9614474531485
 20
-140.2746418920147
 10
118.2935546579266
 20
-140.2600002362023
 10
118.3400634469775
 20
-140.09704721975
 10
118.3696912681506
 20
-139.982842304414
 10
118.3696912681506
 20
-139.982842304414
 10
118.5157633167252
 20
-139.982842304414
 10
118.5157633167252
 20
-139.982842304414
 10
118.5157633167252
 20
-139.982842304414
 10
118.5157633167252
 20
-141.5271063556772
 10
118.5157633167252
 20
-141.5271063556772
 10
118.5157633167252
 20
-141.5271063556772
 10
118.2914876006354
 20
-141.5271063556772
 10
118.2914876006354
 20
-141.5271063556772
 97
        0
 97
        1
330
119
 75
     2
 76
     1
 98
        1
 10
0.0
 20
0.0
450
        0
451
        0
460
0.0
461
0.0
452
        0
462
0.0
453
        0
470

  0
ENDBLK
  5
116
330
113
100
AcDbEntity
  8
0
100
AcDbBlockEnd
  0
BLOCK
  5
120
330
11E
100
AcDbEntity
  8
0
100
AcDbBlockBegin
  2
Block_9
 70
     0
 10
0.0
 20
0.0
 30
0.0
  3
Block_9
  1

  0
SPLINE
  5
122
330
11E
100
AcDbEntity
  8
レイヤー 1
100
AcDbSpline
210
0.0
220
0.0
230
1.0
 70
     9
 71
     3
 72
    53
 73
    49
 74
     0
 42
0.0000000001
 43
0.0000000001
 40
0.0
 40
0.0
 40
0.0
 40
0.0
 40
1.0
 40
1.0
 40
1.0
 40
2.0
 40
2.0
 40
2.0
 40
3.0
 40
3.0
 40
3.0
 40
4.0
 40
4.0
 40
4.0
 40
5.0
 40
5.0
 40
5.0
 40
6.0
 40
6.0
 40
6.0
 40
7.0
 40
7.0
 40
7.0
 40
8.0
 40
8.0
 40
8.0
 40
9.0
 40
9.0
 40
9.0
 40
10.0
 40
10.0
 40
10.0
 40
11.0
 40
11.0
 40
11.0
 40
12.0
 40
12.0
 40
12.0
 40
13.0
 40
13.0
 40
13.0
 40
14.0
 40
14.0
 40
14.0
 40
15.0
 40
15.0
 40
15.0
 40
16.0
 40
16.0
 40
16.0
 40
16.0
 10
104.8108289668528
 20
-141.5779215140847
 30
0.0
 10
104.7324530445634
 20
-141.5779215140847
 30
0.0
 10
104.6309949825228
 20
-141.561040546207
 30
0.0
 10
104.5293646657079
 20
-141.4974785345041
 30
0.0
 10
104.3559041080256
 20
-141.3874077337503
 30
0.0
 10
104.3347167707913
 20
-141.2563218505366
 30
0.0
 10
104.3157687456224
 20
-141.1484903618483
 30
0.0
 10
104.3157687456224
 20
-141.1484903618483
 30
0.0
 10
104.5378051496468
 20
-141.1484903618483
 30
0.0
 10
104.5378051496468
 20
-141.1484903618483
 30
0.0
 10
104.5929266774108
 20
-141.3472723713472
 30
0.0
 10
104.7198784460422
 20
-141.3769001925203
 30
0.0
 10
104.812896024144
 20
-141.3769001925203
 30
0.0
 10
104.9524223912966
 20
-141.3769001925203
 30
0.0
 10
105.1048678665189
 20
-141.2775091877709
 30
0.0
 10
105.1048678665189
 20
-141.0447929877423
 30
0.0
 10
105.1048678665189
 20
-140.7888223931882
 30
0.0
 10
104.9250338821889
 20
-140.7190592096119
 30
0.0
 10
104.8044555402051
 20
-140.7190592096119
 30
0.0
 10
104.7727606617408
 20
-140.7190592096119
 30
0.0
 10
104.6309949825228
 20
-140.7190592096119
 30
0.0
 10
104.5421115190033
 20
-140.8480780355345
 30
0.0
 10
104.5421115190033
 20
-140.8480780355345
 30
0.0
 10
104.3665839040299
 20
-140.8289577555914
 30
0.0
 10
104.3665839040299
 20
-140.8289577555914
 30
0.0
 10
104.3665839040299
 20
-140.8289577555914
 30
0.0
 10
104.4871622460136
 20
-139.982842304414
 30
0.0
 10
104.4871622460136
 20
-139.982842304414
 30
0.0
 10
104.4871622460136
 20
-139.982842304414
 30
0.0
 10
105.2655815709058
 20
-139.982842304414
 30
0.0
 10
105.2655815709058
 20
-139.982842304414
 30
0.0
 10
105.2655815709058
 20
-139.982842304414
 30
0.0
 10
105.2655815709058
 20
-140.1774901993306
 30
0.0
 10
105.2655815709058
 20
-140.1774901993306
 30
0.0
 10
105.2655815709058
 20
-140.1774901993306
 30
0.0
 10
104.6499430076917
 20
-140.1774901993306
 30
0.0
 10
104.6499430076917
 20
-140.1774901993306
 30
0.0
 10
104.6499430076917
 20
-140.1774901993306
 30
0.0
 10
104.5844861934719
 20
-140.6005479249193
 30
0.0
 10
104.5844861934719
 20
-140.6005479249193
 30
0.0
 10
104.6458088931094
 20
-140.5666137343896
 30
0.0
 10
104.7283189299811
 20
-140.5264783719864
 30
0.0
 10
104.8466579598994
 20
-140.5264783719864
 30
0.0
 10
105.1005614971623
 20
-140.5264783719864
 30
0.0
 10
105.3375840665475
 20
-140.7126857829642
 30
0.0
 10
105.3375840665475
 20
-141.0256727077991
 30
0.0
 10
105.3375840665475
 20
-141.3431382567649
 30
0.0
 10
105.1133083504578
 20
-141.5779215140847
 30
0.0
 10
104.8108289668528
 20
-141.5779215140847
 30
0.0
  0
HATCH
  5
123
330
11E
100
AcDbEntity
  8
レイヤー 1
 62
    18
420
        0
440
 33554687
100
AcDbHatch
 10
0.0
 20
0.0
 30
0.0
210
0.0
220
0.0
230
1.0
  2
SOLID
 70
     1
 71
     1
 91
        1
 92
        1
 93
        1
 72
     4
 94
        3
 73
     0
 74
     0
 95
       53
 96
       49
 40
0.0
 40
0.0
 40
0.0
 40
0.0
 40
1.0
 40
1.0
 40
1.0
 40
2.0
 40
2.0
 40
2.0
 40
3.0
 40
3.0
 40
3.0
 40
4.0
 40
4.0
 40
4.0
 40
5.0
 40
5.0
 40
5.0
 40
6.0
 40
6.0
 40
6.0
 40
7.0
 40
7.0
 40
7.0
 40
8.0
 40
8.0
 40
8.0
 40
9.0
 40
9.0
 40
9.0
 40
10.0
 40
10.0
 40
10.0
 40
11.0
 40
11.0
 40
11.0
 40
12.0
 40
12.0
 40
12.0
 40
13.0
 40
13.0
 40
13.0
 40
14.0
 40
14.0
 40
14.0
 40
15.0
 40
15.0
 40
15.0
 40
16.0
 40
16.0
 40
16.0
 40
16.0
 10
104.8108289668528
 20
-141.5779215140847
 10
104.7324530445634
 20
-141.5779215140847
 10
104.6309949825228
 20
-141.561040546207
 10
104.5293646657079
 20
-141.4974785345041
 10
104.3559041080256
 20
-141.3874077337503
 10
104.3347167707913
 20
-141.2563218505366
 10
104.3157687456224
 20
-141.1484903618483
 10
104.3157687456224
 20
-141.1484903618483
 10
104.5378051496468
 20
-141.1484903618483
 10
104.5378051496468
 20
-141.1484903618483
 10
104.5929266774108
 20
-141.3472723713472
 10
104.7198784460422
 20
-141.3769001925203
 10
104.812896024144
 20
-141.3769001925203
 10
104.9524223912966
 20
-141.3769001925203
 10
105.1048678665189
 20
-141.2775091877709
 10
105.1048678665189
 20
-141.0447929877423
 10
105.1048678665189
 20
-140.7888223931882
 10
104.9250338821889
 20
-140.7190592096119
 10
104.8044555402051
 20
-140.7190592096119
 10
104.7727606617408
 20
-140.7190592096119
 10
104.6309949825228
 20
-140.7190592096119
 10
104.5421115190033
 20
-140.8480780355345
 10
104.5421115190033
 20
-140.8480780355345
 10
104.3665839040299
 20
-140.8289577555914
 10
104.3665839040299
 20
-140.8289577555914
 10
104.3665839040299
 20
-140.8289577555914
 10
104.4871622460136
 20
-139.982842304414
 10
104.4871622460136
 20
-139.982842304414
 10
104.4871622460136
 20
-139.982842304414
 10
105.2655815709058
 20
-139.982842304414
 10
105.2655815709058
 20
-139.982842304414
 10
105.2655815709058
 20
-139.982842304414
 10
105.2655815709058
 20
-140.1774901993306
 10
105.2655815709058
 20
-140.1774901993306
 10
105.2655815709058
 20
-140.1774901993306
 10
104.6499430076917
 20
-140.1774901993306
 10
104.6499430076917
 20
-140.1774901993306
 10
104.6499430076917
 20
-140.1774901993306
 10
104.5844861934719
 20
-140.6005479249193
 10
104.5844861934719
 20
-140.6005479249193
 10
104.6458088931094
 20
-140.5666137343896
 10
104.7283189299811
 20
-140.5264783719864
 10
104.8466579598994
 20
-140.5264783719864
 10
105.1005614971623
 20
-140.5264783719864
 10
105.3375840665475
 20
-140.7126857829642
 10
105.3375840665475
 20
-141.0256727077991
 10
105.3375840665475
 20
-141.3431382567649
 10
105.1133083504578
 20
-141.5779215140847
 10
104.8108289668528
 20
-141.5779215140847
 97
        0
 97
        1
330
122
 75
     2
 76
     1
 98
        1
 10
0.0
 20
0.0
450
        0
451
        0
460
0.0
461
0.0
452
        0
462
0.0
453
        0
470

  0
ENDBLK
  5
121
330
11E
100
AcDbEntity
  8
0
100
AcDbBlockEnd
  0
BLOCK
  5
12B
330
129
100
AcDbEntity
  8
0
100
AcDbBlockBegin
  2
Block_10
 70
     0
 10
0.0
 20
0.0
 30
0.0
  3
Block_10
  1

  0
SPLINE
  5
12D
330
129
100
AcDbEntity
  8
レイヤー 1
100
AcDbSpline
210
0.0
220
0.0
230
1.0
 70
     9
 71
     3
 72
    26
 73
    22
 74
     0
 42
0.0000000001
 43
0.0000000001
 40
0.0
 40
0.0
 40
0.0
 40
0.0
 40
1.0
 40
1.0
 40
1.0
 40
2.0
 40
2.0
 40
2.0
 40
3.0
 40
3.0
 40
3.0
 40
4.0
 40
4.0
 40
4.0
 40
5.0
 40
5.0
 40
5.0
 40
6.0
 40
6.0
 40
6.0
 40
7.0
 40
7.0
 40
7.0
 40
7.0
 10
104.9398477927754
 20
-156.2123426258775
 30
0.0
 10
104.9398477927754
 20
-156.2123426258775
 30
0.0
 10
104.7028252233902
 20
-156.2123426258775
 30
0.0
 10
104.7028252233902
 20
-156.2123426258775
 30
0.0
 10
104.7283189299811
 20
-155.9033175608505
 30
0.0
 10
104.9208997676066
 20
-155.385175199869
 30
0.0
 10
105.3270765253175
 20
-154.8794351826343
 30
0.0
 10
105.3270765253175
 20
-154.8794351826343
 30
0.0
 10
104.4892293033047
 20
-154.8794351826343
 30
0.0
 10
104.4892293033047
 20
-154.8794351826343
 30
0.0
 10
104.4892293033047
 20
-154.8794351826343
 30
0.0
 10
104.4892293033047
 20
-154.6679063198399
 30
0.0
 10
104.4892293033047
 20
-154.6679063198399
 30
0.0
 10
104.4892293033047
 20
-154.6679063198399
 30
0.0
 10
105.5639268399285
 20
-154.6679063198399
 30
0.0
 10
105.5639268399285
 20
-154.6679063198399
 30
0.0
 10
105.5639268399285
 20
-154.6679063198399
 30
0.0
 10
105.5639268399285
 20
-154.8794351826343
 30
0.0
 10
105.5639268399285
 20
-154.8794351826343
 30
0.0
 10
105.2402601190892
 20
-155.1695122224923
 30
0.0
 10
104.9736097285309
 20
-155.7617241364068
 30
0.0
 10
104.9398477927754
 20
-156.2123426258775
 30
0.0
  0
HATCH
  5
12E
330
129
100
AcDbEntity
  8
レイヤー 1
 62
    18
420
        0
440
 33554687
100
AcDbHatch
 10
0.0
 20
0.0
 30
0.0
210
0.0
220
0.0
230
1.0
  2
SOLID
 70
     1
 71
     1
 91
        1
 92
        1
 93
        1
 72
     4
 94
        3
 73
     0
 74
     0
 95
       26
 96
       22
 40
0.0
 40
0.0
 40
0.0
 40
0.0
 40
1.0
 40
1.0
 40
1.0
 40
2.0
 40
2.0
 40
2.0
 40
3.0
 40
3.0
 40
3.0
 40
4.0
 40
4.0
 40
4.0
 40
5.0
 40
5.0
 40
5.0
 40
6.0
 40
6.0
 40
6.0
 40
7.0
 40
7.0
 40
7.0
 40
7.0
 10
104.9398477927754
 20
-156.2123426258775
 10
104.9398477927754
 20
-156.2123426258775
 10
104.7028252233902
 20
-156.2123426258775
 10
104.7028252233902
 20
-156.2123426258775
 10
104.7283189299811
 20
-155.9033175608505
 10
104.9208997676066
 20
-155.385175199869
 10
105.3270765253175
 20
-154.8794351826343
 10
105.3270765253175
 20
-154.8794351826343
 10
104.4892293033047
 20
-154.8794351826343
 10
104.4892293033047
 20
-154.8794351826343
 10
104.4892293033047
 20
-154.8794351826343
 10
104.4892293033047
 20
-154.6679063198399
 10
104.4892293033047
 20
-154.6679063198399
 10
104.4892293033047
 20
-154.6679063198399
 10
105.5639268399285
 20
-154.6679063198399
 10
105.5639268399285
 20
-154.6679063198399
 10
105.5639268399285
 20
-154.6679063198399
 10
105.5639268399285
 20
-154.8794351826343
 10
105.5639268399285
 20
-154.8794351826343
 10
105.2402601190892
 20
-155.1695122224923
 10
104.9736097285309
 20
-155.7617241364068
 10
104.9398477927754
 20
-156.2123426258775
 97
        0
 97
        1
330
12D
 75
     2
 76
     1
 98
        1
 10
0.0
 20
0.0
450
        0
451
        0
460
0.0
461
0.0
452
        0
462
0.0
453
        0
470

  0
ENDBLK
  5
12C
330
129
100
AcDbEntity
  8
0
100
AcDbBlockEnd
  0
BLOCK
  5
132
330
130
100
AcDbEntity
  8
0
100
AcDbBlockBegin
  2
Block_11
 70
     0
 10
0.0
 20
0.0
 30
0.0
  3
Block_11
  1

  0
SPLINE
  5
134
330
130
100
AcDbEntity
  8
レイヤー 1
100
AcDbSpline
210
0.0
220
0.0
230
1.0
 70
    11
 71
     3
 72
    26
 73
    22
 74
     0
 42
0.0000000001
 43
0.0000000001
 40
0.0
 40
0.0
 40
0.0
 40
0.0
 40
1.0
 40
1.0
 40
1.0
 40
2.0
 40
2.0
 40
2.0
 40
3.0
 40
3.0
 40
3.0
 40
4.0
 40
4.0
 40
4.0
 40
5.0
 40
5.0
 40
5.0
 40
6.0
 40
6.0
 40
6.0
 40
7.0
 40
7.0
 40
7.0
 40
7.0
 10
110.2289306365052
 20
-149.7334960563166
 30
0.0
 10
110.2289306365052
 20
-149.7334960563166
 30
0.0
 10
110.2289306365052
 20
-148.6289984437455
 30
0.0
 10
110.2289306365052
 20
-148.6289984437455
 30
0.0
 10
110.2289306365052
 20
-148.6289984437455
 30
0.0
 10
109.8988904890183
 20
-148.6289984437455
 30
0.0
 10
109.8988904890183
 20
-148.6289984437455
 30
0.0
 10
109.8988904890183
 20
-148.6289984437455
 30
0.0
 10
109.8988904890183
 20
-148.4808593378798
 30
0.0
 10
109.8988904890183
 20
-148.4808593378798
 30
0.0
 10
110.2309976937964
 20
-148.4662176820675
 30
0.0
 10
110.2775064828473
 20
-148.3032646656151
 30
0.0
 10
110.3071343040204
 20
-148.1890597502791
 30
0.0
 10
110.3071343040204
 20
-148.1890597502791
 30
0.0
 10
110.453206352595
 20
-148.1890597502791
 30
0.0
 10
110.453206352595
 20
-148.1890597502791
 30
0.0
 10
110.453206352595
 20
-148.1890597502791
 30
0.0
 10
110.453206352595
 20
-149.7334960563166
 30
0.0
 10
110.453206352595
 20
-149.7334960563166
 30
0.0
 10
110.453206352595
 20
-149.7334960563166
 30
0.0
 10
110.2289306365052
 20
-149.7334960563166
 30
0.0
 10
110.2289306365052
 20
-149.7334960563166
 30
0.0
  0
HATCH
  5
135
330
130
100
AcDbEntity
  8
レイヤー 1
 62
    18
420
        0
440
 33554687
100
AcDbHatch
 10
0.0
 20
0.0
 30
0.0
210
0.0
220
0.0
230
1.0
  2
SOLID
 70
     1
 71
     1
 91
        1
 92
        1
 93
        1
 72
     4
 94
        3
 73
     0
 74
     0
 95
       26
 96
       22
 40
0.0
 40
0.0
 40
0.0
 40
0.0
 40
1.0
 40
1.0
 40
1.0
 40
2.0
 40
2.0
 40
2.0
 40
3.0
 40
3.0
 40
3.0
 40
4.0
 40
4.0
 40
4.0
 40
5.0
 40
5.0
 40
5.0
 40
6.0
 40
6.0
 40
6.0
 40
7.0
 40
7.0
 40
7.0
 40
7.0
 10
110.2289306365052
 20
-149.7334960563166
 10
110.2289306365052
 20
-149.7334960563166
 10
110.2289306365052
 20
-148.6289984437455
 10
110.2289306365052
 20
-148.6289984437455
 10
110.2289306365052
 20
-148.6289984437455
 10
109.8988904890183
 20
-148.6289984437455
 10
109.8988904890183
 20
-148.6289984437455
 10
109.8988904890183
 20
-148.6289984437455
 10
109.8988904890183
 20
-148.4808593378798
 10
109.8988904890183
 20
-148.4808593378798
 10
110.2309976937964
 20
-148.4662176820675
 10
110.2775064828473
 20
-148.3032646656151
 10
110.3071343040204
 20
-148.1890597502791
 10
110.3071343040204
 20
-148.1890597502791
 10
110.453206352595
 20
-148.1890597502791
 10
110.453206352595
 20
-148.1890597502791
 10
110.453206352595
 20
-148.1890597502791
 10
110.453206352595
 20
-149.7334960563166
 10
110.453206352595
 20
-149.7334960563166
 10
110.453206352595
 20
-149.7334960563166
 10
110.2289306365052
 20
-149.7334960563166
 10
110.2289306365052
 20
-149.7334960563166
 97
        0
 97
        1
330
134
 75
     2
 76
     1
 98
        1
 10
0.0
 20
0.0
450
        0
451
        0
460
0.0
461
0.0
452
        0
462
0.0
453
        0
470

  0
ENDBLK
  5
133
330
130
100
AcDbEntity
  8
0
100
AcDbBlockEnd
  0
BLOCK
  5
138
330
136
100
AcDbEntity
  8
0
100
AcDbBlockBegin
  2
Block_12
 70
     0
 10
0.0
 20
0.0
 30
0.0
  3
Block_12
  1

  0
INSERT
  5
13B
330
136
100
AcDbEntity
  8
レイヤー 1
100
AcDbBlockReference
  2
Block_13
 10
0.0
 20
0.0
 30
0.0
  0
ENDBLK
  5
139
330
136
100
AcDbEntity
  8
0
100
AcDbBlockEnd
  0
BLOCK
  5
13C
330
13A
100
AcDbEntity
  8
0
100
AcDbBlockBegin
  2
Block_13
 70
     0
 10
0.0
 20
0.0
 30
0.0
  3
Block_13
  1

  0
SPLINE
  5
13E
330
13A
100
AcDbEntity
  8
レイヤー 1
100
AcDbSpline
210
0.0
220
0.0
230
1.0
 70
     9
 71
     3
 72
    17
 73
    13
 74
     0
 42
0.0000000001
 43
0.0000000001
 40
0.0
 40
0.0
 40
0.0
 40
0.0
 40
1.0
 40
1.0
 40
1.0
 40
2.0
 40
2.0
 40
2.0
 40
3.0
 40
3.0
 40
3.0
 40
4.0
 40
4.0
 40
4.0
 40
4.0
 10
126.2162407453556
 20
-150.8045762426808
 30
0.0
 10
126.0977294606631
 20
-150.6926106394102
 30
0.0
 10
126.0054009016583
 20
-150.6292208824816
 30
0.0
 10
125.9017035275523
 20
-150.565831125553
 30
0.0
 10
125.9017035275523
 20
-150.565831125553
 30
0.0
 10
126.0126356021774
 20
-150.4535210127338
 30
0.0
 10
126.0126356021774
 20
-150.4535210127338
 30
0.0
 10
126.1273572818362
 20
-150.5000298017847
 30
0.0
 10
126.2238199554232
 20
-150.5572183868399
 30
0.0
 10
126.3330294823056
 20
-150.6588487036547
 30
0.0
 10
126.3330294823056
 20
-150.6588487036547
 30
0.0
 10
126.2162407453556
 20
-150.8045762426808
 30
0.0
 10
126.2162407453556
 20
-150.8045762426808
 30
0.0
  0
SPLINE
  5
13F
330
13A
100
AcDbEntity
  8
レイヤー 1
100
AcDbSpline
210
0.0
220
0.0
230
1.0
 70
     9
 71
     3
 72
    20
 73
    16
 74
     0
 42
0.0000000001
 43
0.0000000001
 40
0.0
 40
0.0
 40
0.0
 40
0.0
 40
1.0
 40
1.0
 40
1.0
 40
2.0
 40
2.0
 40
2.0
 40
3.0
 40
3.0
 40
3.0
 40
4.0
 40
4.0
 40
4.0
 40
5.0
 40
5.0
 40
5.0
 40
5.0
 10
125.7256591482561
 20
-149.7489989860002
 30
0.0
 10
125.6922417220491
 20
-149.7979193418908
 30
0.0
 10
125.6388427420278
 20
-149.876123009406
 30
0.0
 10
125.5165418523014
 20
-149.9860215553854
 30
0.0
 10
125.5868218002005
 20
-149.9901556699677
 30
0.0
 10
125.6126600163399
 20
-149.9901556699677
 30
0.0
 10
125.6329860797029
 20
-149.9901556699677
 30
0.0
 10
125.6329860797029
 20
-149.9901556699677
 30
0.0
 10
125.8331461273959
 20
-149.9901556699677
 30
0.0
 10
125.8331461273959
 20
-149.9901556699677
 30
0.0
 10
125.8607068912779
 20
-149.9901556699677
 30
0.0
 10
125.903426075295
 20
-149.9880886126766
 30
0.0
 10
125.9681938704177
 20
-149.9860215553854
 30
0.0
 10
125.870008649088
 20
-149.9119520024525
 30
0.0
 10
125.8276339746195
 20
-149.8654432134017
 30
0.0
 10
125.7256591482561
 20
-149.7489989860002
 30
0.0
  0
SPLINE
  5
140
330
13A
100
AcDbEntity
  8
レイヤー 1
100
AcDbSpline
210
0.0
220
0.0
230
1.0
 70
     9
 71
     3
 72
    23
 73
    19
 74
     0
 42
0.0000000001
 43
0.0000000001
 40
0.0
 40
0.0
 40
0.0
 40
0.0
 40
1.0
 40
1.0
 40
1.0
 40
2.0
 40
2.0
 40
2.0
 40
3.0
 40
3.0
 40
3.0
 40
4.0
 40
4.0
 40
4.0
 40
5.0
 40
5.0
 40
5.0
 40
6.0
 40
6.0
 40
6.0
 40
6.0
 10
125.4645209104741
 20
-150.5909803225953
 30
0.0
 10
125.4459173948538
 20
-150.614406971895
 30
0.0
 10
125.3608235363681
 20
-150.7263725751656
 30
0.0
 10
125.2385226466417
 20
-150.8069878095205
 30
0.0
 10
125.2385226466417
 20
-150.8069878095205
 30
0.0
 10
125.0924505980671
 20
-150.6864094675367
 30
0.0
 10
125.0924505980671
 20
-150.6864094675367
 30
0.0
 10
125.2240532456037
 20
-150.6102728573127
 30
0.0
 10
125.310869651832
 20
-150.5148437123713
 30
0.0
 10
125.3535888358491
 20
-150.4621337514469
 30
0.0
 10
125.3535888358491
 20
-150.4621337514469
 30
0.0
 10
125.5051730372001
 20
-150.5444715335444
 30
0.0
 10
125.5051730372001
 20
-150.5444715335444
 30
0.0
 10
125.5127522472676
 20
-150.5486056481267
 30
0.0
 10
125.5203314573352
 20
-150.5551513295487
 30
0.0
 10
125.5203314573352
 20
-150.565831125553
 30
0.0
 10
125.5203314573352
 20
-150.5909803225953
 30
0.0
 10
125.4886365788709
 20
-150.5909803225953
 30
0.0
 10
125.4645209104741
 20
-150.5909803225953
 30
0.0
  0
SPLINE
  5
141
330
13A
100
AcDbEntity
  8
レイヤー 1
100
AcDbSpline
210
0.0
220
0.0
230
1.0
 70
     9
 71
     3
 72
    17
 73
    13
 74
     0
 42
0.0000000001
 43
0.0000000001
 40
0.0
 40
0.0
 40
0.0
 40
0.0
 40
1.0
 40
1.0
 40
1.0
 40
2.0
 40
2.0
 40
2.0
 40
3.0
 40
3.0
 40
3.0
 40
4.0
 40
4.0
 40
4.0
 40
4.0
 10
125.0683349296704
 20
-149.8864582958617
 30
0.0
 10
125.0145914401005
 20
-149.8103216856377
 30
0.0
 10
124.9015923081843
 20
-149.7341850754136
 30
0.0
 10
124.8109862969222
 20
-149.7045572542405
 30
0.0
 10
124.8109862969222
 20
-149.7045572542405
 30
0.0
 10
124.8943576076653
 20
-149.539537180497
 30
0.0
 10
124.8943576076653
 20
-149.539537180497
 30
0.0
 10
124.9832410711847
 20
-149.5757106830922
 30
0.0
 10
125.0759141397379
 20
-149.6328992681473
 30
0.0
 10
125.1534287881561
 20
-149.7131699929536
 30
0.0
 10
125.1534287881561
 20
-149.7131699929536
 30
0.0
 10
125.0683349296704
 20
-149.8864582958617
 30
0.0
 10
125.0683349296704
 20
-149.8864582958617
 30
0.0
  0
SPLINE
  5
142
330
13A
100
AcDbEntity
  8
レイヤー 1
100
AcDbSpline
210
0.0
220
0.0
230
1.0
 70
     9
 71
     3
 72
    23
 73
    19
 74
     0
 42
0.0000000001
 43
0.0000000001
 40
0.0
 40
0.0
 40
0.0
 40
0.0
 40
1.0
 40
1.0
 40
1.0
 40
2.0
 40
2.0
 40
2.0
 40
3.0
 40
3.0
 40
3.0
 40
4.0
 40
4.0
 40
4.0
 40
5.0
 40
5.0
 40
5.0
 40
6.0
 40
6.0
 40
6.0
 40
6.0
 10
124.8461262708718
 20
-150.7814941029296
 30
0.0
 10
124.8461262708718
 20
-150.8025091853896
 30
0.0
 10
124.8478488186144
 20
-150.8407497452759
 30
0.0
 10
124.8258002075088
 20
-150.8407497452759
 30
0.0
 10
124.8164984496986
 20
-150.8407497452759
 30
0.0
 10
124.8092637491796
 20
-150.8342040638539
 30
0.0
 10
124.7999619913694
 20
-150.8173230959762
 30
0.0
 10
124.7999619913694
 20
-150.8173230959762
 30
0.0
 10
124.7090114705588
 20
-150.635422054355
 30
0.0
 10
124.7090114705588
 20
-150.635422054355
 30
0.0
 10
124.8981472126991
 20
-150.5065754832067
 30
0.0
 10
125.070057477413
 20
-150.229245296644
 30
0.0
 10
125.1110541136875
 20
-150.1572428010023
 30
0.0
 10
125.1110541136875
 20
-150.1572428010023
 30
0.0
 10
125.173754851519
 20
-150.3370767853324
 30
0.0
 10
125.173754851519
 20
-150.3370767853324
 30
0.0
 10
125.0573106241176
 20
-150.5337917375401
 30
0.0
 10
124.9036593654754
 20
-150.718104346001
 30
0.0
 10
124.8461262708718
 20
-150.7814941029296
 30
0.0
  0
SPLINE
  5
143
330
13A
100
AcDbEntity
  8
レイヤー 1
100
AcDbSpline
210
0.0
220
0.0
230
1.0
 70
     9
 71
     3
 72
   182
 73
   178
 74
     0
 42
0.0000000001
 43
0.0000000001
 40
0.0
 40
0.0
 40
0.0
 40
0.0
 40
1.0
 40
1.0
 40
1.0
 40
2.0
 40
2.0
 40
2.0
 40
3.0
 40
3.0
 40
3.0
 40
4.0
 40
4.0
 40
4.0
 40
5.0
 40
5.0
 40
5.0
 40
6.0
 40
6.0
 40
6.0
 40
7.0
 40
7.0
 40
7.0
 40
8.0
 40
8.0
 40
8.0
 40
9.0
 40
9.0
 40
9.0
 40
10.0
 40
10.0
 40
10.0
 40
11.0
 40
11.0
 40
11.0
 40
12.0
 40
12.0
 40
12.0
 40
13.0
 40
13.0
 40
13.0
 40
14.0
 40
14.0
 40
14.0
 40
15.0
 40
15.0
 40
15.0
 40
16.0
 40
16.0
 40
16.0
 40
17.0
 40
17.0
 40
17.0
 40
18.0
 40
18.0
 40
18.0
 40
19.0
 40
19.0
 40
19.0
 40
20.0
 40
20.0
 40
20.0
 40
21.0
 40
21.0
 40
21.0
 40
22.0
 40
22.0
 40
22.0
 40
23.0
 40
23.0
 40
23.0
 40
24.0
 40
24.0
 40
24.0
 40
25.0
 40
25.0
 40
25.0
 40
26.0
 40
26.0
 40
26.0
 40
27.0
 40
27.0
 40
27.0
 40
28.0
 40
28.0
 40
28.0
 40
29.0
 40
29.0
 40
29.0
 40
30.0
 40
30.0
 40
30.0
 40
31.0
 40
31.0
 40
31.0
 40
32.0
 40
32.0
 40
32.0
 40
33.0
 40
33.0
 40
33.0
 40
34.0
 40
34.0
 40
34.0
 40
35.0
 40
35.0
 40
35.0
 40
36.0
 40
36.0
 40
36.0
 40
37.0
 40
37.0
 40
37.0
 40
38.0
 40
38.0
 40
38.0
 40
39.0
 40
39.0
 40
39.0
 40
40.0
 40
40.0
 40
40.0
 40
41.0
 40
41.0
 40
41.0
 40
42.0
 40
42.0
 40
42.0
 40
43.0
 40
43.0
 40
43.0
 40
44.0
 40
44.0
 40
44.0
 40
45.0
 40
45.0
 40
45.0
 40
46.0
 40
46.0
 40
46.0
 40
47.0
 40
47.0
 40
47.0
 40
48.0
 40
48.0
 40
48.0
 40
49.0
 40
49.0
 40
49.0
 40
50.0
 40
50.0
 40
50.0
 40
51.0
 40
51.0
 40
51.0
 40
52.0
 40
52.0
 40
52.0
 40
53.0
 40
53.0
 40
53.0
 40
54.0
 40
54.0
 40
54.0
 40
55.0
 40
55.0
 40
55.0
 40
56.0
 40
56.0
 40
56.0
 40
57.0
 40
57.0
 40
57.0
 40
58.0
 40
58.0
 40
58.0
 40
59.0
 40
59.0
 40
59.0
 40
59.0
 10
125.8255669173283
 20
-151.4098795194392
 30
0.0
 10
125.8255669173283
 20
-151.4098795194392
 30
0.0
 10
125.2681504678149
 20
-151.4098795194392
 30
0.0
 10
125.2681504678149
 20
-151.4098795194392
 30
0.0
 10
125.0814262925143
 20
-151.4098795194392
 30
0.0
 10
124.8922905503741
 20
-151.4140136340215
 30
0.0
 10
124.7052218655251
 20
-151.4267604873169
 30
0.0
 10
124.7052218655251
 20
-151.4267604873169
 30
0.0
 10
124.7052218655251
 20
-151.2193657391049
 30
0.0
 10
124.7052218655251
 20
-151.2193657391049
 30
0.0
 10
124.8998697604417
 20
-151.2321125924003
 30
0.0
 10
125.1830566093292
 20
-151.2362467069826
 30
0.0
 10
125.2681504678149
 20
-151.2362467069826
 30
0.0
 10
125.2681504678149
 20
-151.2362467069826
 30
0.0
 10
125.4610758149889
 20
-151.2362467069826
 30
0.0
 10
125.4610758149889
 20
-151.2362467069826
 30
0.0
 10
125.4610758149889
 20
-151.2362467069826
 30
0.0
 10
125.4610758149889
 20
-151.0946532825388
 30
0.0
 10
125.4610758149889
 20
-151.0946532825388
 30
0.0
 10
125.4610758149889
 20
-151.0946532825388
 30
0.0
 10
125.3201714096422
 20
-151.0946532825388
 30
0.0
 10
125.3201714096422
 20
-151.0946532825388
 30
0.0
 10
125.1758219088102
 20
-151.0946532825388
 30
0.0
 10
125.0311278984297
 20
-151.0987873971211
 30
0.0
 10
124.8867783975977
 20
-151.1136013077077
 30
0.0
 10
124.8867783975977
 20
-151.1136013077077
 30
0.0
 10
124.8867783975977
 20
-150.9041395022045
 30
0.0
 10
124.8867783975977
 20
-150.9041395022045
 30
0.0
 10
125.0369845607546
 20
-150.9189534127911
 30
0.0
 10
125.2536810667768
 20
-150.9230875273734
 30
0.0
 10
125.3201714096422
 20
-150.9230875273734
 30
0.0
 10
125.3201714096422
 20
-150.9230875273734
 30
0.0
 10
125.4610758149889
 20
-150.9230875273734
 30
0.0
 10
125.4610758149889
 20
-150.9230875273734
 30
0.0
 10
125.4572862099551
 20
-150.8514295412802
 30
0.0
 10
125.4572862099551
 20
-150.8448838598582
 30
0.0
 10
125.4517740571787
 20
-150.7921738989339
 30
0.0
 10
125.4517740571787
 20
-150.7921738989339
 30
0.0
 10
125.5737304373566
 20
-150.8069878095205
 30
0.0
 10
125.5737304373566
 20
-150.8069878095205
 30
0.0
 10
125.5737304373566
 20
-150.8069878095205
 30
0.0
 10
125.4869140311283
 20
-150.635422054355
 30
0.0
 10
125.4869140311283
 20
-150.635422054355
 30
0.0
 10
125.5275661578542
 20
-150.641967735777
 30
0.0
 10
125.5923339529769
 20
-150.6502359649416
 30
0.0
 10
125.6071478635635
 20
-150.6502359649416
 30
0.0
 10
125.6515895953232
 20
-150.6502359649416
 30
0.0
 10
125.6664035059098
 20
-150.6292208824816
 30
0.0
 10
125.6664035059098
 20
-150.5720322974264
 30
0.0
 10
125.6664035059098
 20
-150.5720322974264
 30
0.0
 10
125.6664035059098
 20
-150.4345729875649
 30
0.0
 10
125.6664035059098
 20
-150.4345729875649
 30
0.0
 10
125.6664035059098
 20
-150.4345729875649
 30
0.0
 10
125.5737304373566
 20
-150.4345729875649
 30
0.0
 10
125.5737304373566
 20
-150.4345729875649
 30
0.0
 10
125.4572862099551
 20
-150.4345729875649
 30
0.0
 10
125.3201714096422
 20
-150.4345729875649
 30
0.0
 10
125.2126844305024
 20
-150.4473198408604
 30
0.0
 10
125.2126844305024
 20
-150.4473198408604
 30
0.0
 10
125.2126844305024
 20
-150.2568060605261
 30
0.0
 10
125.2126844305024
 20
-150.2568060605261
 30
0.0
 10
125.3591009886255
 20
-150.2736870284038
 30
0.0
 10
125.5609835840611
 20
-150.2757540856949
 30
0.0
 10
125.5737304373566
 20
-150.2757540856949
 30
0.0
 10
125.5737304373566
 20
-150.2757540856949
 30
0.0
 10
125.6664035059098
 20
-150.2757540856949
 30
0.0
 10
125.6664035059098
 20
-150.2757540856949
 30
0.0
 10
125.6664035059098
 20
-150.2757540856949
 30
0.0
 10
125.6664035059098
 20
-150.1448404572554
 30
0.0
 10
125.6664035059098
 20
-150.1448404572554
 30
0.0
 10
125.6664035059098
 20
-150.1448404572554
 30
0.0
 10
125.6329860797029
 20
-150.1448404572554
 30
0.0
 10
125.6329860797029
 20
-150.1448404572554
 30
0.0
 10
125.5940565007195
 20
-150.1448404572554
 30
0.0
 10
125.4848469738371
 20
-150.1489745718377
 30
0.0
 10
125.407332325419
 20
-150.1572428010023
 30
0.0
 10
125.407332325419
 20
-150.1572428010023
 30
0.0
 10
125.407332325419
 20
-150.076972076196
 30
0.0
 10
125.407332325419
 20
-150.076972076196
 30
0.0
 10
125.3608235363681
 20
-150.1152126360823
 30
0.0
 10
125.3387749252625
 20
-150.1300265466689
 30
0.0
 10
125.3015678940218
 20
-150.15310868642
 30
0.0
 10
125.3015678940218
 20
-150.15310868642
 30
0.0
 10
125.1368923298269
 20
-150.0242621152717
 30
0.0
 10
125.1368923298269
 20
-150.0242621152717
 30
0.0
 10
125.2054497299833
 20
-149.9901556699677
 30
0.0
 10
125.3425645302963
 20
-149.9267659130391
 30
0.0
 10
125.4793348210607
 20
-149.7831054313042
 30
0.0
 10
125.551681826251
 20
-149.7045572542405
 30
0.0
 10
125.6202392264074
 20
-149.6201524148519
 30
0.0
 10
125.6664035059098
 20
-149.518522098037
 30
0.0
 10
125.6664035059098
 20
-149.518522098037
 30
0.0
 10
125.8517496430162
 20
-149.5798447976745
 30
0.0
 10
125.8517496430162
 20
-149.5798447976745
 30
0.0
 10
125.8682861013454
 20
-149.5860459695479
 30
0.0
 10
125.8775878591556
 20
-149.594658708261
 30
0.0
 10
125.8775878591556
 20
-149.6074055615564
 30
0.0
 10
125.8775878591556
 20
-149.6242865294342
 30
0.0
 10
125.8665635536028
 20
-149.6304877013076
 30
0.0
 10
125.8441704329487
 20
-149.6432345546031
 30
0.0
 10
125.9144503808478
 20
-149.7407307568356
 30
0.0
 10
126.0570773339371
 20
-149.8378824495197
 30
0.0
 10
126.0867051551103
 20
-149.8568304746885
 30
0.0
 10
126.2183078026468
 20
-149.945713938208
 30
0.0
 10
126.318215571719
 20
-149.97327470209
 30
0.0
 10
126.3867729718755
 20
-149.9922227272589
 30
0.0
 10
126.3867729718755
 20
-149.9922227272589
 30
0.0
 10
126.2830755977695
 20
-150.1617214251331
 30
0.0
 10
126.2830755977695
 20
-150.1617214251331
 30
0.0
 10
126.2090060448366
 20
-150.13209360396
 30
0.0
 10
126.1645643130769
 20
-150.1131455787912
 30
0.0
 10
126.0608669389709
 20
-150.0473442550229
 30
0.0
 10
126.0608669389709
 20
-150.0473442550229
 30
0.0
 10
126.0608669389709
 20
-150.1572428010023
 30
0.0
 10
126.0608669389709
 20
-150.1572428010023
 30
0.0
 10
125.9885199337806
 20
-150.1489745718377
 30
0.0
 10
125.8775878591556
 20
-150.1448404572554
 30
0.0
 10
125.8310790701047
 20
-150.1448404572554
 30
0.0
 10
125.8310790701047
 20
-150.1448404572554
 30
0.0
 10
125.8310790701047
 20
-150.2757540856949
 30
0.0
 10
125.8310790701047
 20
-150.2757540856949
 30
0.0
 10
125.8310790701047
 20
-150.2757540856949
 30
0.0
 10
125.9368435015019
 20
-150.2757540856949
 30
0.0
 10
125.9368435015019
 20
-150.2757540856949
 30
0.0
 10
125.9385660492445
 20
-150.2757540856949
 30
0.0
 10
126.1425157019713
 20
-150.2736870284038
 30
0.0
 10
126.2978895083561
 20
-150.2568060605261
 30
0.0
 10
126.2978895083561
 20
-150.2568060605261
 30
0.0
 10
126.2978895083561
 20
-150.4473198408604
 30
0.0
 10
126.2978895083561
 20
-150.4473198408604
 30
0.0
 10
126.1848903764399
 20
-150.4345729875649
 30
0.0
 10
126.0477755761269
 20
-150.4345729875649
 30
0.0
 10
125.9368435015019
 20
-150.4345729875649
 30
0.0
 10
125.9368435015019
 20
-150.4345729875649
 30
0.0
 10
125.8310790701047
 20
-150.4345729875649
 30
0.0
 10
125.8310790701047
 20
-150.4345729875649
 30
0.0
 10
125.8310790701047
 20
-150.4345729875649
 30
0.0
 10
125.8310790701047
 20
-150.6609157609459
 30
0.0
 10
125.8310790701047
 20
-150.6609157609459
 30
0.0
 10
125.8310790701047
 20
-150.7794270456384
 30
0.0
 10
125.8090304589991
 20
-150.8152560386851
 30
0.0
 10
125.6684705632009
 20
-150.8300699492716
 30
0.0
 10
125.6719156586862
 20
-150.8490179744405
 30
0.0
 10
125.6664035059098
 20
-150.8596977704448
 30
0.0
 10
125.6329860797029
 20
-150.8831244197445
 30
0.0
 10
125.6312635319602
 20
-150.9020724449134
 30
0.0
 10
125.6312635319602
 20
-150.9082736167868
 30
0.0
 10
125.6295409842176
 20
-150.9230875273734
 30
0.0
 10
125.6295409842176
 20
-150.9230875273734
 30
0.0
 10
125.7497748166528
 20
-150.9230875273734
 30
0.0
 10
125.7497748166528
 20
-150.9230875273734
 30
0.0
 10
125.8941243174848
 20
-150.9230875273734
 30
0.0
 10
126.0405408756079
 20
-150.9189534127911
 30
0.0
 10
126.1866129241825
 20
-150.9041395022045
 30
0.0
 10
126.1866129241825
 20
-150.9041395022045
 30
0.0
 10
126.1866129241825
 20
-151.1115342504165
 30
0.0
 10
126.1866129241825
 20
-151.1115342504165
 30
0.0
 10
125.9978216915908
 20
-151.0946532825388
 30
0.0
 10
125.766311274982
 20
-151.0946532825388
 30
0.0
 10
125.7497748166528
 20
-151.0946532825388
 30
0.0
 10
125.7497748166528
 20
-151.0946532825388
 30
0.0
 10
125.6274739269265
 20
-151.0946532825388
 30
0.0
 10
125.6274739269265
 20
-151.0946532825388
 30
0.0
 10
125.6274739269265
 20
-151.0946532825388
 30
0.0
 10
125.6274739269265
 20
-151.2362467069826
 30
0.0
 10
125.6274739269265
 20
-151.2362467069826
 30
0.0
 10
125.6274739269265
 20
-151.2362467069826
 30
0.0
 10
125.8255669173283
 20
-151.2362467069826
 30
0.0
 10
125.8255669173283
 20
-151.2362467069826
 30
0.0
 10
126.0147026594685
 20
-151.2362467069826
 30
0.0
 10
126.2052164398028
 20
-151.2321125924003
 30
0.0
 10
126.3940076723945
 20
-151.2193657391049
 30
0.0
 10
126.3940076723945
 20
-151.2193657391049
 30
0.0
 10
126.3940076723945
 20
-151.4267604873169
 30
0.0
 10
126.3940076723945
 20
-151.4267604873169
 30
0.0
 10
126.1480278547477
 20
-151.4098795194392
 30
0.0
 10
125.8462374902398
 20
-151.4098795194392
 30
0.0
 10
125.8255669173283
 20
-151.4098795194392
 30
0.0
  0
SPLINE
  5
144
330
13A
100
AcDbEntity
  8
レイヤー 1
100
AcDbSpline
210
0.0
220
0.0
230
1.0
 70
     9
 71
     3
 72
    17
 73
    13
 74
     0
 42
0.0000000001
 43
0.0000000001
 40
0.0
 40
0.0
 40
0.0
 40
0.0
 40
1.0
 40
1.0
 40
1.0
 40
2.0
 40
2.0
 40
2.0
 40
3.0
 40
3.0
 40
3.0
 40
4.0
 40
4.0
 40
4.0
 40
4.0
 10
124.9108940659945
 20
-150.2313123539352
 30
0.0
 10
124.8182209974413
 20
-150.125547922538
 30
0.0
 10
124.7479410495422
 20
-150.0876518722003
 30
0.0
 10
124.6666367960903
 20
-150.055956993736
 30
0.0
 10
124.6666367960903
 20
-150.055956993736
 30
0.0
 10
124.7627549601287
 20
-149.8909369199925
 30
0.0
 10
124.7627549601287
 20
-149.8909369199925
 30
0.0
 10
124.8478488186144
 20
-149.9333115944611
 30
0.0
 10
124.9536132500116
 20
-150.0115152619763
 30
0.0
 10
124.9997775295139
 20
-150.0662922801917
 30
0.0
 10
124.9997775295139
 20
-150.0662922801917
 30
0.0
 10
124.9108940659945
 20
-150.2313123539352
 30
0.0
 10
124.9108940659945
 20
-150.2313123539352
 30
0.0
  0
HATCH
  5
145
330
13A
100
AcDbEntity
  8
レイヤー 1
 62
   250
420
  2299925
440
 33554687
100
AcDbHatch
 10
0.0
 20
0.0
 30
0.0
210
0.0
220
0.0
230
1.0
  2
SOLID
 70
     1
 71
     1
 91
        7
 92
        1
 93
        1
 72
     4
 94
        3
 73
     0
 74
     0
 95
       17
 96
       13
 40
0.0
 40
0.0
 40
0.0
 40
0.0
 40
1.0
 40
1.0
 40
1.0
 40
2.0
 40
2.0
 40
2.0
 40
3.0
 40
3.0
 40
3.0
 40
4.0
 40
4.0
 40
4.0
 40
4.0
 10
126.2162407453556
 20
-150.8045762426808
 10
126.0977294606631
 20
-150.6926106394102
 10
126.0054009016583
 20
-150.6292208824816
 10
125.9017035275523
 20
-150.565831125553
 10
125.9017035275523
 20
-150.565831125553
 10
126.0126356021774
 20
-150.4535210127338
 10
126.0126356021774
 20
-150.4535210127338
 10
126.1273572818362
 20
-150.5000298017847
 10
126.2238199554232
 20
-150.5572183868399
 10
126.3330294823056
 20
-150.6588487036547
 10
126.3330294823056
 20
-150.6588487036547
 10
126.2162407453556
 20
-150.8045762426808
 10
126.2162407453556
 20
-150.8045762426808
 97
        0
 97
        1
330
13E
 92
        1
 93
        1
 72
     4
 94
        3
 73
     0
 74
     0
 95
       20
 96
       16
 40
0.0
 40
0.0
 40
0.0
 40
0.0
 40
1.0
 40
1.0
 40
1.0
 40
2.0
 40
2.0
 40
2.0
 40
3.0
 40
3.0
 40
3.0
 40
4.0
 40
4.0
 40
4.0
 40
5.0
 40
5.0
 40
5.0
 40
5.0
 10
125.7256591482561
 20
-149.7489989860002
 10
125.6922417220491
 20
-149.7979193418908
 10
125.6388427420278
 20
-149.876123009406
 10
125.5165418523014
 20
-149.9860215553854
 10
125.5868218002005
 20
-149.9901556699677
 10
125.6126600163399
 20
-149.9901556699677
 10
125.6329860797029
 20
-149.9901556699677
 10
125.6329860797029
 20
-149.9901556699677
 10
125.8331461273959
 20
-149.9901556699677
 10
125.8331461273959
 20
-149.9901556699677
 10
125.8607068912779
 20
-149.9901556699677
 10
125.903426075295
 20
-149.9880886126766
 10
125.9681938704177
 20
-149.9860215553854
 10
125.870008649088
 20
-149.9119520024525
 10
125.8276339746195
 20
-149.8654432134017
 10
125.7256591482561
 20
-149.7489989860002
 97
        0
 97
        1
330
13F
 92
        1
 93
        1
 72
     4
 94
        3
 73
     0
 74
     0
 95
       23
 96
       19
 40
0.0
 40
0.0
 40
0.0
 40
0.0
 40
1.0
 40
1.0
 40
1.0
 40
2.0
 40
2.0
 40
2.0
 40
3.0
 40
3.0
 40
3.0
 40
4.0
 40
4.0
 40
4.0
 40
5.0
 40
5.0
 40
5.0
 40
6.0
 40
6.0
 40
6.0
 40
6.0
 10
125.4645209104741
 20
-150.5909803225953
 10
125.4459173948538
 20
-150.614406971895
 10
125.3608235363681
 20
-150.7263725751656
 10
125.2385226466417
 20
-150.8069878095205
 10
125.2385226466417
 20
-150.8069878095205
 10
125.0924505980671
 20
-150.6864094675367
 10
125.0924505980671
 20
-150.6864094675367
 10
125.2240532456037
 20
-150.6102728573127
 10
125.310869651832
 20
-150.5148437123713
 10
125.3535888358491
 20
-150.4621337514469
 10
125.3535888358491
 20
-150.4621337514469
 10
125.5051730372001
 20
-150.5444715335444
 10
125.5051730372001
 20
-150.5444715335444
 10
125.5127522472676
 20
-150.5486056481267
 10
125.5203314573352
 20
-150.5551513295487
 10
125.5203314573352
 20
-150.565831125553
 10
125.5203314573352
 20
-150.5909803225953
 10
125.4886365788709
 20
-150.5909803225953
 10
125.4645209104741
 20
-150.5909803225953
 97
        0
 97
        1
330
140
 92
        1
 93
        1
 72
     4
 94
        3
 73
     0
 74
     0
 95
       17
 96
       13
 40
0.0
 40
0.0
 40
0.0
 40
0.0
 40
1.0
 40
1.0
 40
1.0
 40
2.0
 40
2.0
 40
2.0
 40
3.0
 40
3.0
 40
3.0
 40
4.0
 40
4.0
 40
4.0
 40
4.0
 10
125.0683349296704
 20
-149.8864582958617
 10
125.0145914401005
 20
-149.8103216856377
 10
124.9015923081843
 20
-149.7341850754136
 10
124.8109862969222
 20
-149.7045572542405
 10
124.8109862969222
 20
-149.7045572542405
 10
124.8943576076653
 20
-149.539537180497
 10
124.8943576076653
 20
-149.539537180497
 10
124.9832410711847
 20
-149.5757106830922
 10
125.0759141397379
 20
-149.6328992681473
 10
125.1534287881561
 20
-149.7131699929536
 10
125.1534287881561
 20
-149.7131699929536
 10
125.0683349296704
 20
-149.8864582958617
 10
125.0683349296704
 20
-149.8864582958617
 97
        0
 97
        1
330
141
 92
        1
 93
        1
 72
     4
 94
        3
 73
     0
 74
     0
 95
       23
 96
       19
 40
0.0
 40
0.0
 40
0.0
 40
0.0
 40
1.0
 40
1.0
 40
1.0
 40
2.0
 40
2.0
 40
2.0
 40
3.0
 40
3.0
 40
3.0
 40
4.0
 40
4.0
 40
4.0
 40
5.0
 40
5.0
 40
5.0
 40
6.0
 40
6.0
 40
6.0
 40
6.0
 10
124.8461262708718
 20
-150.7814941029296
 10
124.8461262708718
 20
-150.8025091853896
 10
124.8478488186144
 20
-150.8407497452759
 10
124.8258002075088
 20
-150.8407497452759
 10
124.8164984496986
 20
-150.8407497452759
 10
124.8092637491796
 20
-150.8342040638539
 10
124.7999619913694
 20
-150.8173230959762
 10
124.7999619913694
 20
-150.8173230959762
 10
124.7090114705588
 20
-150.635422054355
 10
124.7090114705588
 20
-150.635422054355
 10
124.8981472126991
 20
-150.5065754832067
 10
125.070057477413
 20
-150.229245296644
 10
125.1110541136875
 20
-150.1572428010023
 10
125.1110541136875
 20
-150.1572428010023
 10
125.173754851519
 20
-150.3370767853324
 10
125.173754851519
 20
-150.3370767853324
 10
125.0573106241176
 20
-150.5337917375401
 10
124.9036593654754
 20
-150.718104346001
 10
124.8461262708718
 20
-150.7814941029296
 97
        0
 97
        1
330
142
 92
        1
 93
        1
 72
     4
 94
        3
 73
     0
 74
     0
 95
      182
 96
      178
 40
0.0
 40
0.0
 40
0.0
 40
0.0
 40
1.0
 40
1.0
 40
1.0
 40
2.0
 40
2.0
 40
2.0
 40
3.0
 40
3.0
 40
3.0
 40
4.0
 40
4.0
 40
4.0
 40
5.0
 40
5.0
 40
5.0
 40
6.0
 40
6.0
 40
6.0
 40
7.0
 40
7.0
 40
7.0
 40
8.0
 40
8.0
 40
8.0
 40
9.0
 40
9.0
 40
9.0
 40
10.0
 40
10.0
 40
10.0
 40
11.0
 40
11.0
 40
11.0
 40
12.0
 40
12.0
 40
12.0
 40
13.0
 40
13.0
 40
13.0
 40
14.0
 40
14.0
 40
14.0
 40
15.0
 40
15.0
 40
15.0
 40
16.0
 40
16.0
 40
16.0
 40
17.0
 40
17.0
 40
17.0
 40
18.0
 40
18.0
 40
18.0
 40
19.0
 40
19.0
 40
19.0
 40
20.0
 40
20.0
 40
20.0
 40
21.0
 40
21.0
 40
21.0
 40
22.0
 40
22.0
 40
22.0
 40
23.0
 40
23.0
 40
23.0
 40
24.0
 40
24.0
 40
24.0
 40
25.0
 40
25.0
 40
25.0
 40
26.0
 40
26.0
 40
26.0
 40
27.0
 40
27.0
 40
27.0
 40
28.0
 40
28.0
 40
28.0
 40
29.0
 40
29.0
 40
29.0
 40
30.0
 40
30.0
 40
30.0
 40
31.0
 40
31.0
 40
31.0
 40
32.0
 40
32.0
 40
32.0
 40
33.0
 40
33.0
 40
33.0
 40
34.0
 40
34.0
 40
34.0
 40
35.0
 40
35.0
 40
35.0
 40
36.0
 40
36.0
 40
36.0
 40
37.0
 40
37.0
 40
37.0
 40
38.0
 40
38.0
 40
38.0
 40
39.0
 40
39.0
 40
39.0
 40
40.0
 40
40.0
 40
40.0
 40
41.0
 40
41.0
 40
41.0
 40
42.0
 40
42.0
 40
42.0
 40
43.0
 40
43.0
 40
43.0
 40
44.0
 40
44.0
 40
44.0
 40
45.0
 40
45.0
 40
45.0
 40
46.0
 40
46.0
 40
46.0
 40
47.0
 40
47.0
 40
47.0
 40
48.0
 40
48.0
 40
48.0
 40
49.0
 40
49.0
 40
49.0
 40
50.0
 40
50.0
 40
50.0
 40
51.0
 40
51.0
 40
51.0
 40
52.0
 40
52.0
 40
52.0
 40
53.0
 40
53.0
 40
53.0
 40
54.0
 40
54.0
 40
54.0
 40
55.0
 40
55.0
 40
55.0
 40
56.0
 40
56.0
 40
56.0
 40
57.0
 40
57.0
 40
57.0
 40
58.0
 40
58.0
 40
58.0
 40
59.0
 40
59.0
 40
59.0
 40
59.0
 10
125.8255669173283
 20
-151.4098795194392
 10
125.8255669173283
 20
-151.4098795194392
 10
125.2681504678149
 20
-151.4098795194392
 10
125.2681504678149
 20
-151.4098795194392
 10
125.0814262925143
 20
-151.4098795194392
 10
124.8922905503741
 20
-151.4140136340215
 10
124.7052218655251
 20
-151.4267604873169
 10
124.7052218655251
 20
-151.4267604873169
 10
124.7052218655251
 20
-151.2193657391049
 10
124.7052218655251
 20
-151.2193657391049
 10
124.8998697604417
 20
-151.2321125924003
 10
125.1830566093292
 20
-151.2362467069826
 10
125.2681504678149
 20
-151.2362467069826
 10
125.2681504678149
 20
-151.2362467069826
 10
125.4610758149889
 20
-151.2362467069826
 10
125.4610758149889
 20
-151.2362467069826
 10
125.4610758149889
 20
-151.2362467069826
 10
125.4610758149889
 20
-151.0946532825388
 10
125.4610758149889
 20
-151.0946532825388
 10
125.4610758149889
 20
-151.0946532825388
 10
125.3201714096422
 20
-151.0946532825388
 10
125.3201714096422
 20
-151.0946532825388
 10
125.1758219088102
 20
-151.0946532825388
 10
125.0311278984297
 20
-151.0987873971211
 10
124.8867783975977
 20
-151.1136013077077
 10
124.8867783975977
 20
-151.1136013077077
 10
124.8867783975977
 20
-150.9041395022045
 10
124.8867783975977
 20
-150.9041395022045
 10
125.0369845607546
 20
-150.9189534127911
 10
125.2536810667768
 20
-150.9230875273734
 10
125.3201714096422
 20
-150.9230875273734
 10
125.3201714096422
 20
-150.9230875273734
 10
125.4610758149889
 20
-150.9230875273734
 10
125.4610758149889
 20
-150.9230875273734
 10
125.4572862099551
 20
-150.8514295412802
 10
125.4572862099551
 20
-150.8448838598582
 10
125.4517740571787
 20
-150.7921738989339
 10
125.4517740571787
 20
-150.7921738989339
 10
125.5737304373566
 20
-150.8069878095205
 10
125.5737304373566
 20
-150.8069878095205
 10
125.5737304373566
 20
-150.8069878095205
 10
125.4869140311283
 20
-150.635422054355
 10
125.4869140311283
 20
-150.635422054355
 10
125.5275661578542
 20
-150.641967735777
 10
125.5923339529769
 20
-150.6502359649416
 10
125.6071478635635
 20
-150.6502359649416
 10
125.6515895953232
 20
-150.6502359649416
 10
125.6664035059098
 20
-150.6292208824816
 10
125.6664035059098
 20
-150.5720322974264
 10
125.6664035059098
 20
-150.5720322974264
 10
125.6664035059098
 20
-150.4345729875649
 10
125.6664035059098
 20
-150.4345729875649
 10
125.6664035059098
 20
-150.4345729875649
 10
125.5737304373566
 20
-150.4345729875649
 10
125.5737304373566
 20
-150.4345729875649
 10
125.4572862099551
 20
-150.4345729875649
 10
125.3201714096422
 20
-150.4345729875649
 10
125.2126844305024
 20
-150.4473198408604
 10
125.2126844305024
 20
-150.4473198408604
 10
125.2126844305024
 20
-150.2568060605261
 10
125.2126844305024
 20
-150.2568060605261
 10
125.3591009886255
 20
-150.2736870284038
 10
125.5609835840611
 20
-150.2757540856949
 10
125.5737304373566
 20
-150.2757540856949
 10
125.5737304373566
 20
-150.2757540856949
 10
125.6664035059098
 20
-150.2757540856949
 10
125.6664035059098
 20
-150.2757540856949
 10
125.6664035059098
 20
-150.2757540856949
 10
125.6664035059098
 20
-150.1448404572554
 10
125.6664035059098
 20
-150.1448404572554
 10
125.6664035059098
 20
-150.1448404572554
 10
125.6329860797029
 20
-150.1448404572554
 10
125.6329860797029
 20
-150.1448404572554
 10
125.5940565007195
 20
-150.1448404572554
 10
125.4848469738371
 20
-150.1489745718377
 10
125.407332325419
 20
-150.1572428010023
 10
125.407332325419
 20
-150.1572428010023
 10
125.407332325419
 20
-150.076972076196
 10
125.407332325419
 20
-150.076972076196
 10
125.3608235363681
 20
-150.1152126360823
 10
125.3387749252625
 20
-150.1300265466689
 10
125.3015678940218
 20
-150.15310868642
 10
125.3015678940218
 20
-150.15310868642
 10
125.1368923298269
 20
-150.0242621152717
 10
125.1368923298269
 20
-150.0242621152717
 10
125.2054497299833
 20
-149.9901556699677
 10
125.3425645302963
 20
-149.9267659130391
 10
125.4793348210607
 20
-149.7831054313042
 10
125.551681826251
 20
-149.7045572542405
 10
125.6202392264074
 20
-149.6201524148519
 10
125.6664035059098
 20
-149.518522098037
 10
125.6664035059098
 20
-149.518522098037
 10
125.8517496430162
 20
-149.5798447976745
 10
125.8517496430162
 20
-149.5798447976745
 10
125.8682861013454
 20
-149.5860459695479
 10
125.8775878591556
 20
-149.594658708261
 10
125.8775878591556
 20
-149.6074055615564
 10
125.8775878591556
 20
-149.6242865294342
 10
125.8665635536028
 20
-149.6304877013076
 10
125.8441704329487
 20
-149.6432345546031
 10
125.9144503808478
 20
-149.7407307568356
 10
126.0570773339371
 20
-149.8378824495197
 10
126.0867051551103
 20
-149.8568304746885
 10
126.2183078026468
 20
-149.945713938208
 10
126.318215571719
 20
-149.97327470209
 10
126.3867729718755
 20
-149.9922227272589
 10
126.3867729718755
 20
-149.9922227272589
 10
126.2830755977695
 20
-150.1617214251331
 10
126.2830755977695
 20
-150.1617214251331
 10
126.2090060448366
 20
-150.13209360396
 10
126.1645643130769
 20
-150.1131455787912
 10
126.0608669389709
 20
-150.0473442550229
 10
126.0608669389709
 20
-150.0473442550229
 10
126.0608669389709
 20
-150.1572428010023
 10
126.0608669389709
 20
-150.1572428010023
 10
125.9885199337806
 20
-150.1489745718377
 10
125.8775878591556
 20
-150.1448404572554
 10
125.8310790701047
 20
-150.1448404572554
 10
125.8310790701047
 20
-150.1448404572554
 10
125.8310790701047
 20
-150.2757540856949
 10
125.8310790701047
 20
-150.2757540856949
 10
125.8310790701047
 20
-150.2757540856949
 10
125.9368435015019
 20
-150.2757540856949
 10
125.9368435015019
 20
-150.2757540856949
 10
125.9385660492445
 20
-150.2757540856949
 10
126.1425157019713
 20
-150.2736870284038
 10
126.2978895083561
 20
-150.2568060605261
 10
126.2978895083561
 20
-150.2568060605261
 10
126.2978895083561
 20
-150.4473198408604
 10
126.2978895083561
 20
-150.4473198408604
 10
126.1848903764399
 20
-150.4345729875649
 10
126.0477755761269
 20
-150.4345729875649
 10
125.9368435015019
 20
-150.4345729875649
 10
125.9368435015019
 20
-150.4345729875649
 10
125.8310790701047
 20
-150.4345729875649
 10
125.8310790701047
 20
-150.4345729875649
 10
125.8310790701047
 20
-150.4345729875649
 10
125.8310790701047
 20
-150.6609157609459
 10
125.8310790701047
 20
-150.6609157609459
 10
125.8310790701047
 20
-150.7794270456384
 10
125.8090304589991
 20
-150.8152560386851
 10
125.6684705632009
 20
-150.8300699492716
 10
125.6719156586862
 20
-150.8490179744405
 10
125.6664035059098
 20
-150.8596977704448
 10
125.6329860797029
 20
-150.8831244197445
 10
125.6312635319602
 20
-150.9020724449134
 10
125.6312635319602
 20
-150.9082736167868
 10
125.6295409842176
 20
-150.9230875273734
 10
125.6295409842176
 20
-150.9230875273734
 10
125.7497748166528
 20
-150.9230875273734
 10
125.7497748166528
 20
-150.9230875273734
 10
125.8941243174848
 20
-150.9230875273734
 10
126.0405408756079
 20
-150.9189534127911
 10
126.1866129241825
 20
-150.9041395022045
 10
126.1866129241825
 20
-150.9041395022045
 10
126.1866129241825
 20
-151.1115342504165
 10
126.1866129241825
 20
-151.1115342504165
 10
125.9978216915908
 20
-151.0946532825388
 10
125.766311274982
 20
-151.0946532825388
 10
125.7497748166528
 20
-151.0946532825388
 10
125.7497748166528
 20
-151.0946532825388
 10
125.6274739269265
 20
-151.0946532825388
 10
125.6274739269265
 20
-151.0946532825388
 10
125.6274739269265
 20
-151.0946532825388
 10
125.6274739269265
 20
-151.2362467069826
 10
125.6274739269265
 20
-151.2362467069826
 10
125.6274739269265
 20
-151.2362467069826
 10
125.8255669173283
 20
-151.2362467069826
 10
125.8255669173283
 20
-151.2362467069826
 10
126.0147026594685
 20
-151.2362467069826
 10
126.2052164398028
 20
-151.2321125924003
 10
126.3940076723945
 20
-151.2193657391049
 10
126.3940076723945
 20
-151.2193657391049
 10
126.3940076723945
 20
-151.4267604873169
 10
126.3940076723945
 20
-151.4267604873169
 10
126.1480278547477
 20
-151.4098795194392
 10
125.8462374902398
 20
-151.4098795194392
 10
125.8255669173283
 20
-151.4098795194392
 97
        0
 97
        1
330
143
 92
        1
 93
        1
 72
     4
 94
        3
 73
     0
 74
     0
 95
       17
 96
       13
 40
0.0
 40
0.0
 40
0.0
 40
0.0
 40
1.0
 40
1.0
 40
1.0
 40
2.0
 40
2.0
 40
2.0
 40
3.0
 40
3.0
 40
3.0
 40
4.0
 40
4.0
 40
4.0
 40
4.0
 10
124.9108940659945
 20
-150.2313123539352
 10
124.8182209974413
 20
-150.125547922538
 10
124.7479410495422
 20
-150.0876518722003
 10
124.6666367960903
 20
-150.055956993736
 10
124.6666367960903
 20
-150.055956993736
 10
124.7627549601287
 20
-149.8909369199925
 10
124.7627549601287
 20
-149.8909369199925
 10
124.8478488186144
 20
-149.9333115944611
 10
124.9536132500116
 20
-150.0115152619763
 10
124.9997775295139
 20
-150.0662922801917
 10
124.9997775295139
 20
-150.0662922801917
 10
124.9108940659945
 20
-150.2313123539352
 10
124.9108940659945
 20
-150.2313123539352
 97
        0
 97
        1
330
144
 75
     2
 76
     1
 98
        1
 10
0.0
 20
0.0
450
        0
451
        0
460
0.0
461
0.0
452
        0
462
0.0
453
        0
470

  0
SPLINE
  5
146
330
13A
100
AcDbEntity
  8
レイヤー 1
100
AcDbSpline
210
0.0
220
0.0
230
1.0
 70
    11
 71
     3
 72
    17
 73
    13
 74
     0
 42
0.0000000001
 43
0.0000000001
 40
0.0
 40
0.0
 40
0.0
 40
0.0
 40
1.0
 40
1.0
 40
1.0
 40
2.0
 40
2.0
 40
2.0
 40
3.0
 40
3.0
 40
3.0
 40
4.0
 40
4.0
 40
4.0
 40
4.0
 10
127.6817843647809
 20
-150.7794270456384
 30
0.0
 10
127.6817843647809
 20
-150.7794270456384
 30
0.0
 10
127.504017437742
 20
-150.7794270456384
 30
0.0
 10
127.504017437742
 20
-150.7794270456384
 30
0.0
 10
127.5281331061388
 20
-150.8386826879847
 30
0.0
 10
127.5760199333838
 20
-150.9106851836265
 30
0.0
 10
127.6001356017805
 20
-150.9399684952511
 30
0.0
 10
127.6242512701773
 20
-150.9254990942131
 30
0.0
 10
127.7241590392495
 20
-150.8617648277359
 30
0.0
 10
127.8037407449588
 20
-150.7794270456384
 30
0.0
 10
127.8037407449588
 20
-150.7794270456384
 30
0.0
 10
127.6817843647809
 20
-150.7794270456384
 30
0.0
 10
127.6817843647809
 20
-150.7794270456384
 30
0.0
  0
SPLINE
  5
147
330
13A
100
AcDbEntity
  8
レイヤー 1
100
AcDbSpline
210
0.0
220
0.0
230
1.0
 70
     9
 71
     3
 72
    83
 73
    79
 74
     0
 42
0.0000000001
 43
0.0000000001
 40
0.0
 40
0.0
 40
0.0
 40
0.0
 40
1.0
 40
1.0
 40
1.0
 40
2.0
 40
2.0
 40
2.0
 40
3.0
 40
3.0
 40
3.0
 40
4.0
 40
4.0
 40
4.0
 40
5.0
 40
5.0
 40
5.0
 40
6.0
 40
6.0
 40
6.0
 40
7.0
 40
7.0
 40
7.0
 40
8.0
 40
8.0
 40
8.0
 40
9.0
 40
9.0
 40
9.0
 40
10.0
 40
10.0
 40
10.0
 40
11.0
 40
11.0
 40
11.0
 40
12.0
 40
12.0
 40
12.0
 40
13.0
 40
13.0
 40
13.0
 40
14.0
 40
14.0
 40
14.0
 40
15.0
 40
15.0
 40
15.0
 40
16.0
 40
16.0
 40
16.0
 40
17.0
 40
17.0
 40
17.0
 40
18.0
 40
18.0
 40
18.0
 40
19.0
 40
19.0
 40
19.0
 40
20.0
 40
20.0
 40
20.0
 40
21.0
 40
21.0
 40
21.0
 40
22.0
 40
22.0
 40
22.0
 40
23.0
 40
23.0
 40
23.0
 40
24.0
 40
24.0
 40
24.0
 40
25.0
 40
25.0
 40
25.0
 40
26.0
 40
26.0
 40
26.0
 40
26.0
 10
127.896413813512
 20
-149.9818874408031
 30
0.0
 10
127.896413813512
 20
-149.9818874408031
 30
0.0
 10
127.8113199550263
 20
-149.9818874408031
 30
0.0
 10
127.8113199550263
 20
-149.9818874408031
 30
0.0
 10
127.8113199550263
 20
-149.9818874408031
 30
0.0
 10
127.8113199550263
 20
-150.229245296644
 30
0.0
 10
127.8113199550263
 20
-150.229245296644
 30
0.0
 10
127.8113199550263
 20
-150.229245296644
 30
0.0
 10
127.8836669602166
 20
-150.229245296644
 30
0.0
 10
127.8836669602166
 20
-150.229245296644
 30
0.0
 10
127.9408555452717
 20
-150.229245296644
 30
0.0
 10
128.0631564349981
 20
-150.2251111820618
 30
0.0
 10
128.1503173507749
 20
-150.2164984433486
 30
0.0
 10
128.1503173507749
 20
-150.2164984433486
 30
0.0
 10
128.1503173507749
 20
-150.3963324276787
 30
0.0
 10
128.1503173507749
 20
-150.3963324276787
 30
0.0
 10
128.0686685877745
 20
-150.3880641985141
 30
0.0
 10
127.9374104497865
 20
-150.3839300839318
 30
0.0
 10
127.8836669602166
 20
-150.3839300839318
 30
0.0
 10
127.8836669602166
 20
-150.3839300839318
 30
0.0
 10
127.6170165696582
 20
-150.3839300839318
 30
0.0
 10
127.6170165696582
 20
-150.3839300839318
 30
0.0
 10
127.5705077806074
 20
-150.3839300839318
 30
0.0
 10
127.4426947381046
 20
-150.3880641985141
 30
0.0
 10
127.3503661790999
 20
-150.3963324276787
 30
0.0
 10
127.3503661790999
 20
-150.3963324276787
 30
0.0
 10
127.3503661790999
 20
-150.2164984433486
 30
0.0
 10
127.3503661790999
 20
-150.2164984433486
 30
0.0
 10
127.4371825853282
 20
-150.2251111820618
 30
0.0
 10
127.5594834750545
 20
-150.229245296644
 30
0.0
 10
127.6170165696582
 20
-150.229245296644
 30
0.0
 10
127.6170165696582
 20
-150.229245296644
 30
0.0
 10
127.655601639093
 20
-150.229245296644
 30
0.0
 10
127.655601639093
 20
-150.229245296644
 30
0.0
 10
127.655601639093
 20
-150.229245296644
 30
0.0
 10
127.655601639093
 20
-149.9818874408031
 30
0.0
 10
127.655601639093
 20
-149.9818874408031
 30
0.0
 10
127.655601639093
 20
-149.9818874408031
 30
0.0
 10
127.5908338439703
 20
-149.9818874408031
 30
0.0
 10
127.5908338439703
 20
-149.9818874408031
 30
0.0
 10
127.5370903544004
 20
-149.9818874408031
 30
0.0
 10
127.3910183058258
 20
-149.9860215553854
 30
0.0
 10
127.2855983839772
 20
-149.9946342940986
 30
0.0
 10
127.2855983839772
 20
-149.9946342940986
 30
0.0
 10
127.2855983839772
 20
-149.8168673670597
 30
0.0
 10
127.2855983839772
 20
-149.8168673670597
 30
0.0
 10
127.3855061530494
 20
-149.8230685389331
 30
0.0
 10
127.524343501105
 20
-149.8275471630639
 30
0.0
 10
127.5908338439703
 20
-149.8275471630639
 30
0.0
 10
127.5908338439703
 20
-149.8275471630639
 30
0.0
 10
127.6538790913504
 20
-149.8275471630639
 30
0.0
 10
127.6538790913504
 20
-149.8275471630639
 30
0.0
 10
127.6500894863166
 20
-149.6749294330673
 30
0.0
 10
127.648366938574
 20
-149.6411674973119
 30
0.0
 10
127.6428547857976
 20
-149.5481499192102
 30
0.0
 10
127.6428547857976
 20
-149.5481499192102
 30
0.0
 10
127.8278564133555
 20
-149.5715765685099
 30
0.0
 10
127.8278564133555
 20
-149.5715765685099
 30
0.0
 10
127.8502495340096
 20
-149.573643625801
 30
0.0
 10
127.8705755973726
 20
-149.5777777403833
 30
0.0
 10
127.8705755973726
 20
-149.6008598801345
 30
0.0
 10
127.8705755973726
 20
-149.6328992681473
 30
0.0
 10
127.8316460183893
 20
-149.649780236025
 30
0.0
 10
127.8113199550263
 20
-149.6580484651896
 30
0.0
 10
127.8113199550263
 20
-149.6580484651896
 30
0.0
 10
127.8113199550263
 20
-149.8275471630639
 30
0.0
 10
127.8113199550263
 20
-149.8275471630639
 30
0.0
 10
127.8113199550263
 20
-149.8275471630639
 30
0.0
 10
127.896413813512
 20
-149.8275471630639
 30
0.0
 10
127.896413813512
 20
-149.8275471630639
 30
0.0
 10
127.9632486659258
 20
-149.8275471630639
 30
0.0
 10
128.1020860139814
 20
-149.8230685389331
 30
0.0
 10
128.2040608403448
 20
-149.8168673670597
 30
0.0
 10
128.2040608403448
 20
-149.8168673670597
 30
0.0
 10
128.2040608403448
 20
-149.9946342940986
 30
0.0
 10
128.2040608403448
 20
-149.9946342940986
 30
0.0
 10
128.1093207145004
 20
-149.9880886126766
 30
0.0
 10
127.9577365131494
 20
-149.9818874408031
 30
0.0
 10
127.896413813512
 20
-149.9818874408031
 30
0.0
  0
SPLINE
  5
148
330
13A
100
AcDbEntity
  8
レイヤー 1
100
AcDbSpline
210
0.0
220
0.0
230
1.0
 70
     9
 71
     3
 72
    38
 73
    34
 74
     0
 42
0.0000000001
 43
0.0000000001
 40
0.0
 40
0.0
 40
0.0
 40
0.0
 40
1.0
 40
1.0
 40
1.0
 40
2.0
 40
2.0
 40
2.0
 40
3.0
 40
3.0
 40
3.0
 40
4.0
 40
4.0
 40
4.0
 40
5.0
 40
5.0
 40
5.0
 40
6.0
 40
6.0
 40
6.0
 40
7.0
 40
7.0
 40
7.0
 40
8.0
 40
8.0
 40
8.0
 40
9.0
 40
9.0
 40
9.0
 40
10.0
 40
10.0
 40
10.0
 40
11.0
 40
11.0
 40
11.0
 40
11.0
 10
127.1946478631666
 20
-149.6601155224808
 30
0.0
 10
127.192925315424
 20
-149.7069688210802
 30
0.0
 10
127.1908582581328
 20
-149.8230685389331
 30
0.0
 10
127.1908582581328
 20
-149.8675102706928
 30
0.0
 10
127.1908582581328
 20
-149.8675102706928
 30
0.0
 10
127.1908582581328
 20
-150.2144313860575
 30
0.0
 10
127.1908582581328
 20
-150.2144313860575
 30
0.0
 10
127.1908582581328
 20
-150.3012477922858
 30
0.0
 10
127.192925315424
 20
-150.4428412167295
 30
0.0
 10
127.2022270732341
 20
-150.5634195587133
 30
0.0
 10
127.2022270732341
 20
-150.5634195587133
 30
0.0
 10
127.0354844517481
 20
-150.5634195587133
 30
0.0
 10
127.0354844517481
 20
-150.5634195587133
 30
0.0
 10
127.0392740567818
 20
-150.5000298017847
 30
0.0
 10
127.0427191522671
 20
-150.4473198408604
 30
0.0
 10
127.0447862095582
 20
-150.3921983130964
 30
0.0
 10
127.0465087573009
 20
-150.2695529138215
 30
0.0
 10
127.048575814592
 20
-150.2547390032349
 30
0.0
 10
127.048575814592
 20
-150.2102972714752
 30
0.0
 10
127.048575814592
 20
-150.2102972714752
 30
0.0
 10
127.048575814592
 20
-149.8888698627014
 30
0.0
 10
127.048575814592
 20
-149.8888698627014
 30
0.0
 10
127.048575814592
 20
-149.8337483349374
 30
0.0
 10
127.0372069994907
 20
-149.594658708261
 30
0.0
 10
127.0354844517481
 20
-149.5440158046279
 30
0.0
 10
127.0354844517481
 20
-149.5440158046279
 30
0.0
 10
127.2111843214958
 20
-149.5715765685099
 30
0.0
 10
127.2111843214958
 20
-149.5715765685099
 30
0.0
 10
127.2297878371161
 20
-149.573643625801
 30
0.0
 10
127.2576931105467
 20
-149.5777777403833
 30
0.0
 10
127.2576931105467
 20
-149.6032714469742
 30
0.0
 10
127.2576931105467
 20
-149.6304877013076
 30
0.0
 10
127.2132513787869
 20
-149.6518472933162
 30
0.0
 10
127.1946478631666
 20
-149.6601155224808
 30
0.0
  0
SPLINE
  5
149
330
13A
100
AcDbEntity
  8
レイヤー 1
100
AcDbSpline
210
0.0
220
0.0
230
1.0
 70
     9
 71
     3
 72
    17
 73
    13
 74
     0
 42
0.0000000001
 43
0.0000000001
 40
0.0
 40
0.0
 40
0.0
 40
0.0
 40
1.0
 40
1.0
 40
1.0
 40
2.0
 40
2.0
 40
2.0
 40
3.0
 40
3.0
 40
3.0
 40
4.0
 40
4.0
 40
4.0
 40
4.0
 10
126.8725314352957
 20
-149.9650064729254
 30
0.0
 10
126.8466932191564
 20
-149.924698855748
 30
0.0
 10
126.7874375768101
 20
-149.8275471630639
 30
0.0
 10
126.627929655843
 20
-149.7173041075359
 30
0.0
 10
126.627929655843
 20
-149.7173041075359
 30
0.0
 10
126.7392062400166
 20
-149.5839789122568
 30
0.0
 10
126.7392062400166
 20
-149.5839789122568
 30
0.0
 10
126.9021592564689
 20
-149.6856092290717
 30
0.0
 10
126.952113141005
 20
-149.7744926925911
 30
0.0
 10
126.9762288094018
 20
-149.8168673670597
 30
0.0
 10
126.9762288094018
 20
-149.8168673670597
 30
0.0
 10
126.8725314352957
 20
-149.9650064729254
 30
0.0
 10
126.8725314352957
 20
-149.9650064729254
 30
0.0
  0
SPLINE
  5
14A
330
13A
100
AcDbEntity
  8
レイヤー 1
100
AcDbSpline
210
0.0
220
0.0
230
1.0
 70
     9
 71
     3
 72
    23
 73
    19
 74
     0
 42
0.0000000001
 43
0.0000000001
 40
0.0
 40
0.0
 40
0.0
 40
0.0
 40
1.0
 40
1.0
 40
1.0
 40
2.0
 40
2.0
 40
2.0
 40
3.0
 40
3.0
 40
3.0
 40
4.0
 40
4.0
 40
4.0
 40
5.0
 40
5.0
 40
5.0
 40
6.0
 40
6.0
 40
6.0
 40
6.0
 10
126.7392062400166
 20
-150.4304388729827
 30
0.0
 10
126.72439232943
 20
-150.4704019806115
 30
0.0
 10
126.7188801766536
 20
-150.4872829484893
 30
0.0
 10
126.7002766610332
 20
-150.4872829484893
 30
0.0
 10
126.6871852981893
 20
-150.4872829484893
 30
0.0
 10
126.6778835403791
 20
-150.4704019806115
 30
0.0
 10
126.6723713876027
 20
-150.4576551273161
 30
0.0
 10
126.6723713876027
 20
-150.4576551273161
 30
0.0
 10
126.5855549813744
 20
-150.2926350535727
 30
0.0
 10
126.5855549813744
 20
-150.2926350535727
 30
0.0
 10
126.6744384448939
 20
-150.2609401751084
 30
0.0
 10
126.8056965828819
 20
-150.2061631568929
 30
0.0
 10
126.9800184144355
 20
-150.0432101404406
 30
0.0
 10
126.9800184144355
 20
-150.0432101404406
 30
0.0
 10
127.0299722989717
 20
-150.2164984433486
 30
0.0
 10
127.0299722989717
 20
-150.2164984433486
 30
0.0
 10
126.9483235359712
 20
-150.2991807349946
 30
0.0
 10
126.8708088875531
 20
-150.3563693200498
 30
0.0
 10
126.7392062400166
 20
-150.4304388729827
 30
0.0
  0
SPLINE
  5
14B
330
13A
100
AcDbEntity
  8
レイヤー 1
100
AcDbSpline
210
0.0
220
0.0
230
1.0
 70
     9
 71
     3
 72
   113
 73
   109
 74
     0
 42
0.0000000001
 43
0.0000000001
 40
0.0
 40
0.0
 40
0.0
 40
0.0
 40
1.0
 40
1.0
 40
1.0
 40
2.0
 40
2.0
 40
2.0
 40
3.0
 40
3.0
 40
3.0
 40
4.0
 40
4.0
 40
4.0
 40
5.0
 40
5.0
 40
5.0
 40
6.0
 40
6.0
 40
6.0
 40
7.0
 40
7.0
 40
7.0
 40
8.0
 40
8.0
 40
8.0
 40
9.0
 40
9.0
 40
9.0
 40
10.0
 40
10.0
 40
10.0
 40
11.0
 40
11.0
 40
11.0
 40
12.0
 40
12.0
 40
12.0
 40
13.0
 40
13.0
 40
13.0
 40
14.0
 40
14.0
 40
14.0
 40
15.0
 40
15.0
 40
15.0
 40
16.0
 40
16.0
 40
16.0
 40
17.0
 40
17.0
 40
17.0
 40
18.0
 40
18.0
 40
18.0
 40
19.0
 40
19.0
 40
19.0
 40
20.0
 40
20.0
 40
20.0
 40
21.0
 40
21.0
 40
21.0
 40
22.0
 40
22.0
 40
22.0
 40
23.0
 40
23.0
 40
23.0
 40
24.0
 40
24.0
 40
24.0
 40
25.0
 40
25.0
 40
25.0
 40
26.0
 40
26.0
 40
26.0
 40
27.0
 40
27.0
 40
27.0
 40
28.0
 40
28.0
 40
28.0
 40
29.0
 40
29.0
 40
29.0
 40
30.0
 40
30.0
 40
30.0
 40
31.0
 40
31.0
 40
31.0
 40
32.0
 40
32.0
 40
32.0
 40
33.0
 40
33.0
 40
33.0
 40
34.0
 40
34.0
 40
34.0
 40
35.0
 40
35.0
 40
35.0
 40
36.0
 40
36.0
 40
36.0
 40
36.0
 10
127.8629963873051
 20
-150.7814941029296
 30
0.0
 10
127.8629963873051
 20
-150.7814941029296
 30
0.0
 10
127.9501573030819
 20
-150.8810573624533
 30
0.0
 10
127.9501573030819
 20
-150.8810573624533
 30
0.0
 10
127.9594590608921
 20
-150.8913926489091
 30
0.0
 10
127.9687608187022
 20
-150.9041395022045
 30
0.0
 10
127.9687608187022
 20
-150.9189534127911
 30
0.0
 10
127.9687608187022
 20
-150.9210204700822
 30
0.0
 10
127.9687608187022
 20
-150.9506482912554
 30
0.0
 10
127.9353433924953
 20
-150.9506482912554
 30
0.0
 10
127.9281086919763
 20
-150.9506482912554
 30
0.0
 10
127.8926242084782
 20
-150.9465141766731
 30
0.0
 10
127.8871120557018
 20
-150.9465141766731
 30
0.0
 10
127.8519720817523
 20
-150.9782090551374
 30
0.0
 10
127.8113199550263
 20
-151.0119709908928
 30
0.0
 10
127.7241590392495
 20
-151.069159575948
 30
0.0
 10
127.8519720817523
 20
-151.1769910646363
 30
0.0
 10
127.9908094298078
 20
-151.2341796496914
 30
0.0
 10
128.2298990564842
 20
-151.2724202095777
 30
0.0
 10
128.2298990564842
 20
-151.2724202095777
 30
0.0
 10
128.0982964089476
 20
-151.4477755697769
 30
0.0
 10
128.0982964089476
 20
-151.4477755697769
 30
0.0
 10
127.86885304963
 20
-151.3757730741352
 30
0.0
 10
127.731738249317
 20
-151.2872341201643
 30
0.0
 10
127.6649033969032
 20
-151.2341796496914
 30
0.0
 10
127.5336452589152
 20
-151.1325493328766
 30
0.0
 10
127.407554764155
 20
-150.9695963164243
 30
0.0
 10
127.3410644212897
 20
-150.8045762426808
 30
0.0
 10
127.2818087789434
 20
-150.8703775664491
 30
0.0
 10
127.2170409838207
 20
-150.9230875273734
 30
0.0
 10
127.1484835836643
 20
-150.9720078832639
 30
0.0
 10
127.1484835836643
 20
-150.9720078832639
 30
0.0
 10
127.1484835836643
 20
-151.2234998536872
 30
0.0
 10
127.1484835836643
 20
-151.2234998536872
 30
0.0
 10
127.2911105367536
 20
-151.1983506566448
 30
0.0
 10
127.4540635532059
 20
-151.1539089248851
 30
0.0
 10
127.5095295905184
 20
-151.1390950142985
 30
0.0
 10
127.5095295905184
 20
-151.1390950142985
 30
0.0
 10
127.483691374379
 20
-151.3082492026243
 30
0.0
 10
127.483691374379
 20
-151.3082492026243
 30
0.0
 10
127.4816243170879
 20
-151.3082492026243
 30
0.0
 10
127.4650878587587
 20
-151.3144503744978
 30
0.0
 10
127.4633653110161
 20
-151.3144503744978
 30
0.0
 10
127.2890434794624
 20
-151.352690934384
 30
0.0
 10
127.0113687833513
 20
-151.4181477486038
 30
0.0
 10
126.8391140090888
 20
-151.4543212511989
 30
0.0
 10
126.8298122512786
 20
-151.4712022190766
 30
0.0
 10
126.8094861879157
 20
-151.5028970975409
 30
0.0
 10
126.7891601245527
 20
-151.5028970975409
 30
0.0
 10
126.7650444561559
 20
-151.5028970975409
 30
0.0
 10
126.7612548511222
 20
-151.4839490723721
 30
0.0
 10
126.7595323033795
 20
-151.4646565376547
 30
0.0
 10
126.7595323033795
 20
-151.4646565376547
 30
0.0
 10
126.7371391827254
 20
-151.2913682347466
 30
0.0
 10
126.7371391827254
 20
-151.2913682347466
 30
0.0
 10
126.8022514873966
 20
-151.2827554960334
 30
0.0
 10
126.8966471036925
 20
-151.270008642738
 30
0.0
 10
126.9910427199883
 20
-151.248993560278
 30
0.0
 10
126.9910427199883
 20
-151.248993560278
 30
0.0
 10
126.9910427199883
 20
-151.0712266332391
 30
0.0
 10
126.9910427199883
 20
-151.0712266332391
 30
0.0
 10
126.8649522252282
 20
-151.1432291288809
 30
0.0
 10
126.7819254240337
 20
-151.172856950054
 30
0.0
 10
126.6372314136532
 20
-151.2024847712272
 30
0.0
 10
126.6372314136532
 20
-151.2024847712272
 30
0.0
 10
126.5318114918045
 20
-151.0333305829013
 30
0.0
 10
126.5318114918045
 20
-151.0333305829013
 30
0.0
 10
126.8094861879157
 20
-151.0057698190194
 30
0.0
 10
126.9779513571444
 20
-150.9127522409176
 30
0.0
 10
127.1336696730777
 20
-150.7794270456384
 30
0.0
 10
127.0058566305749
 20
-150.7794270456384
 30
0.0
 10
126.7429958450503
 20
-150.7835611602208
 30
0.0
 10
126.5707410707878
 20
-150.7901068416428
 30
0.0
 10
126.5707410707878
 20
-150.7901068416428
 30
0.0
 10
126.5707410707878
 20
-150.6123399146038
 30
0.0
 10
126.5707410707878
 20
-150.6123399146038
 30
0.0
 10
126.7057888138096
 20
-150.6185410864773
 30
0.0
 10
126.965204503849
 20
-150.6250867678993
 30
0.0
 10
127.1260904630101
 20
-150.6250867678993
 30
0.0
 10
127.1260904630101
 20
-150.6250867678993
 30
0.0
 10
127.3114366001166
 20
-150.6250867678993
 30
0.0
 10
127.3114366001166
 20
-150.6250867678993
 30
0.0
 10
127.3114366001166
 20
-150.5296576229578
 30
0.0
 10
127.3093695428254
 20
-150.4790147193247
 30
0.0
 10
127.303857390049
 20
-150.4325059302738
 30
0.0
 10
127.303857390049
 20
-150.4325059302738
 30
0.0
 10
127.4929931321892
 20
-150.4493868981515
 30
0.0
 10
127.4929931321892
 20
-150.4493868981515
 30
0.0
 10
127.5353678066578
 20
-150.4535210127338
 30
0.0
 10
127.5429470167253
 20
-150.4683349233204
 30
0.0
 10
127.5429470167253
 20
-150.483148833907
 30
0.0
 10
127.5429470167253
 20
-150.5086425404978
 30
0.0
 10
127.5281331061388
 20
-150.5169107696624
 30
0.0
 10
127.483691374379
 20
-150.5424044762533
 30
0.0
 10
127.4816243170879
 20
-150.5678981828441
 30
0.0
 10
127.4816243170879
 20
-150.5740993547176
 30
0.0
 10
127.4799017693453
 20
-150.6250867678993
 30
0.0
 10
127.4799017693453
 20
-150.6250867678993
 30
0.0
 10
127.6817843647809
 20
-150.6250867678993
 30
0.0
 10
127.6817843647809
 20
-150.6250867678993
 30
0.0
 10
127.8261338656129
 20
-150.6250867678993
 30
0.0
 10
128.0817599506184
 20
-150.6185410864773
 30
0.0
 10
128.2392008142944
 20
-150.6123399146038
 30
0.0
 10
128.2392008142944
 20
-150.6123399146038
 30
0.0
 10
128.2392008142944
 20
-150.7901068416428
 30
0.0
 10
128.2392008142944
 20
-150.7901068416428
 30
0.0
 10
128.1262016823781
 20
-150.7856282175119
 30
0.0
 10
128.1058756190152
 20
-150.7856282175119
 30
0.0
 10
127.8629963873051
 20
-150.7814941029296
 30
0.0
  0
HATCH
  5
14C
330
13A
100
AcDbEntity
  8
レイヤー 1
 62
   250
420
  2299925
440
 33554687
100
AcDbHatch
 10
0.0
 20
0.0
 30
0.0
210
0.0
220
0.0
230
1.0
  2
SOLID
 70
     1
 71
     1
 91
        6
 92
        1
 93
        1
 72
     4
 94
        3
 73
     0
 74
     0
 95
       17
 96
       13
 40
0.0
 40
0.0
 40
0.0
 40
0.0
 40
1.0
 40
1.0
 40
1.0
 40
2.0
 40
2.0
 40
2.0
 40
3.0
 40
3.0
 40
3.0
 40
4.0
 40
4.0
 40
4.0
 40
4.0
 10
127.6817843647809
 20
-150.7794270456384
 10
127.6817843647809
 20
-150.7794270456384
 10
127.504017437742
 20
-150.7794270456384
 10
127.504017437742
 20
-150.7794270456384
 10
127.5281331061388
 20
-150.8386826879847
 10
127.5760199333838
 20
-150.9106851836265
 10
127.6001356017805
 20
-150.9399684952511
 10
127.6242512701773
 20
-150.9254990942131
 10
127.7241590392495
 20
-150.8617648277359
 10
127.8037407449588
 20
-150.7794270456384
 10
127.8037407449588
 20
-150.7794270456384
 10
127.6817843647809
 20
-150.7794270456384
 10
127.6817843647809
 20
-150.7794270456384
 97
        0
 97
        1
330
146
 92
        1
 93
        1
 72
     4
 94
        3
 73
     0
 74
     0
 95
       83
 96
       79
 40
0.0
 40
0.0
 40
0.0
 40
0.0
 40
1.0
 40
1.0
 40
1.0
 40
2.0
 40
2.0
 40
2.0
 40
3.0
 40
3.0
 40
3.0
 40
4.0
 40
4.0
 40
4.0
 40
5.0
 40
5.0
 40
5.0
 40
6.0
 40
6.0
 40
6.0
 40
7.0
 40
7.0
 40
7.0
 40
8.0
 40
8.0
 40
8.0
 40
9.0
 40
9.0
 40
9.0
 40
10.0
 40
10.0
 40
10.0
 40
11.0
 40
11.0
 40
11.0
 40
12.0
 40
12.0
 40
12.0
 40
13.0
 40
13.0
 40
13.0
 40
14.0
 40
14.0
 40
14.0
 40
15.0
 40
15.0
 40
15.0
 40
16.0
 40
16.0
 40
16.0
 40
17.0
 40
17.0
 40
17.0
 40
18.0
 40
18.0
 40
18.0
 40
19.0
 40
19.0
 40
19.0
 40
20.0
 40
20.0
 40
20.0
 40
21.0
 40
21.0
 40
21.0
 40
22.0
 40
22.0
 40
22.0
 40
23.0
 40
23.0
 40
23.0
 40
24.0
 40
24.0
 40
24.0
 40
25.0
 40
25.0
 40
25.0
 40
26.0
 40
26.0
 40
26.0
 40
26.0
 10
127.896413813512
 20
-149.9818874408031
 10
127.896413813512
 20
-149.9818874408031
 10
127.8113199550263
 20
-149.9818874408031
 10
127.8113199550263
 20
-149.9818874408031
 10
127.8113199550263
 20
-149.9818874408031
 10
127.8113199550263
 20
-150.229245296644
 10
127.8113199550263
 20
-150.229245296644
 10
127.8113199550263
 20
-150.229245296644
 10
127.8836669602166
 20
-150.229245296644
 10
127.8836669602166
 20
-150.229245296644
 10
127.9408555452717
 20
-150.229245296644
 10
128.0631564349981
 20
-150.2251111820618
 10
128.1503173507749
 20
-150.2164984433486
 10
128.1503173507749
 20
-150.2164984433486
 10
128.1503173507749
 20
-150.3963324276787
 10
128.1503173507749
 20
-150.3963324276787
 10
128.0686685877745
 20
-150.3880641985141
 10
127.9374104497865
 20
-150.3839300839318
 10
127.8836669602166
 20
-150.3839300839318
 10
127.8836669602166
 20
-150.3839300839318
 10
127.6170165696582
 20
-150.3839300839318
 10
127.6170165696582
 20
-150.3839300839318
 10
127.5705077806074
 20
-150.3839300839318
 10
127.4426947381046
 20
-150.3880641985141
 10
127.3503661790999
 20
-150.3963324276787
 10
127.3503661790999
 20
-150.3963324276787
 10
127.3503661790999
 20
-150.2164984433486
 10
127.3503661790999
 20
-150.2164984433486
 10
127.4371825853282
 20
-150.2251111820618
 10
127.5594834750545
 20
-150.229245296644
 10
127.6170165696582
 20
-150.229245296644
 10
127.6170165696582
 20
-150.229245296644
 10
127.655601639093
 20
-150.229245296644
 10
127.655601639093
 20
-150.229245296644
 10
127.655601639093
 20
-150.229245296644
 10
127.655601639093
 20
-149.9818874408031
 10
127.655601639093
 20
-149.9818874408031
 10
127.655601639093
 20
-149.9818874408031
 10
127.5908338439703
 20
-149.9818874408031
 10
127.5908338439703
 20
-149.9818874408031
 10
127.5370903544004
 20
-149.9818874408031
 10
127.3910183058258
 20
-149.9860215553854
 10
127.2855983839772
 20
-149.9946342940986
 10
127.2855983839772
 20
-149.9946342940986
 10
127.2855983839772
 20
-149.8168673670597
 10
127.2855983839772
 20
-149.8168673670597
 10
127.3855061530494
 20
-149.8230685389331
 10
127.524343501105
 20
-149.8275471630639
 10
127.5908338439703
 20
-149.8275471630639
 10
127.5908338439703
 20
-149.8275471630639
 10
127.6538790913504
 20
-149.8275471630639
 10
127.6538790913504
 20
-149.8275471630639
 10
127.6500894863166
 20
-149.6749294330673
 10
127.648366938574
 20
-149.6411674973119
 10
127.6428547857976
 20
-149.5481499192102
 10
127.6428547857976
 20
-149.5481499192102
 10
127.8278564133555
 20
-149.5715765685099
 10
127.8278564133555
 20
-149.5715765685099
 10
127.8502495340096
 20
-149.573643625801
 10
127.8705755973726
 20
-149.5777777403833
 10
127.8705755973726
 20
-149.6008598801345
 10
127.8705755973726
 20
-149.6328992681473
 10
127.8316460183893
 20
-149.649780236025
 10
127.8113199550263
 20
-149.6580484651896
 10
127.8113199550263
 20
-149.6580484651896
 10
127.8113199550263
 20
-149.8275471630639
 10
127.8113199550263
 20
-149.8275471630639
 10
127.8113199550263
 20
-149.8275471630639
 10
127.896413813512
 20
-149.8275471630639
 10
127.896413813512
 20
-149.8275471630639
 10
127.9632486659258
 20
-149.8275471630639
 10
128.1020860139814
 20
-149.8230685389331
 10
128.2040608403448
 20
-149.8168673670597
 10
128.2040608403448
 20
-149.8168673670597
 10
128.2040608403448
 20
-149.9946342940986
 10
128.2040608403448
 20
-149.9946342940986
 10
128.1093207145004
 20
-149.9880886126766
 10
127.9577365131494
 20
-149.9818874408031
 10
127.896413813512
 20
-149.9818874408031
 97
        0
 97
        1
330
147
 92
        1
 93
        1
 72
     4
 94
        3
 73
     0
 74
     0
 95
       38
 96
       34
 40
0.0
 40
0.0
 40
0.0
 40
0.0
 40
1.0
 40
1.0
 40
1.0
 40
2.0
 40
2.0
 40
2.0
 40
3.0
 40
3.0
 40
3.0
 40
4.0
 40
4.0
 40
4.0
 40
5.0
 40
5.0
 40
5.0
 40
6.0
 40
6.0
 40
6.0
 40
7.0
 40
7.0
 40
7.0
 40
8.0
 40
8.0
 40
8.0
 40
9.0
 40
9.0
 40
9.0
 40
10.0
 40
10.0
 40
10.0
 40
11.0
 40
11.0
 40
11.0
 40
11.0
 10
127.1946478631666
 20
-149.6601155224808
 10
127.192925315424
 20
-149.7069688210802
 10
127.1908582581328
 20
-149.8230685389331
 10
127.1908582581328
 20
-149.8675102706928
 10
127.1908582581328
 20
-149.8675102706928
 10
127.1908582581328
 20
-150.2144313860575
 10
127.1908582581328
 20
-150.2144313860575
 10
127.1908582581328
 20
-150.3012477922858
 10
127.192925315424
 20
-150.4428412167295
 10
127.2022270732341
 20
-150.5634195587133
 10
127.2022270732341
 20
-150.5634195587133
 10
127.0354844517481
 20
-150.5634195587133
 10
127.0354844517481
 20
-150.5634195587133
 10
127.0392740567818
 20
-150.5000298017847
 10
127.0427191522671
 20
-150.4473198408604
 10
127.0447862095582
 20
-150.3921983130964
 10
127.0465087573009
 20
-150.2695529138215
 10
127.048575814592
 20
-150.2547390032349
 10
127.048575814592
 20
-150.2102972714752
 10
127.048575814592
 20
-150.2102972714752
 10
127.048575814592
 20
-149.8888698627014
 10
127.048575814592
 20
-149.8888698627014
 10
127.048575814592
 20
-149.8337483349374
 10
127.0372069994907
 20
-149.594658708261
 10
127.0354844517481
 20
-149.5440158046279
 10
127.0354844517481
 20
-149.5440158046279
 10
127.2111843214958
 20
-149.5715765685099
 10
127.2111843214958
 20
-149.5715765685099
 10
127.2297878371161
 20
-149.573643625801
 10
127.2576931105467
 20
-149.5777777403833
 10
127.2576931105467
 20
-149.6032714469742
 10
127.2576931105467
 20
-149.6304877013076
 10
127.2132513787869
 20
-149.6518472933162
 10
127.1946478631666
 20
-149.6601155224808
 97
        0
 97
        1
330
148
 92
        1
 93
        1
 72
     4
 94
        3
 73
     0
 74
     0
 95
       17
 96
       13
 40
0.0
 40
0.0
 40
0.0
 40
0.0
 40
1.0
 40
1.0
 40
1.0
 40
2.0
 40
2.0
 40
2.0
 40
3.0
 40
3.0
 40
3.0
 40
4.0
 40
4.0
 40
4.0
 40
4.0
 10
126.8725314352957
 20
-149.9650064729254
 10
126.8466932191564
 20
-149.924698855748
 10
126.7874375768101
 20
-149.8275471630639
 10
126.627929655843
 20
-149.7173041075359
 10
126.627929655843
 20
-149.7173041075359
 10
126.7392062400166
 20
-149.5839789122568
 10
126.7392062400166
 20
-149.5839789122568
 10
126.9021592564689
 20
-149.6856092290717
 10
126.952113141005
 20
-149.7744926925911
 10
126.9762288094018
 20
-149.8168673670597
 10
126.9762288094018
 20
-149.8168673670597
 10
126.8725314352957
 20
-149.9650064729254
 10
126.8725314352957
 20
-149.9650064729254
 97
        0
 97
        1
330
149
 92
        1
 93
        1
 72
     4
 94
        3
 73
     0
 74
     0
 95
       23
 96
       19
 40
0.0
 40
0.0
 40
0.0
 40
0.0
 40
1.0
 40
1.0
 40
1.0
 40
2.0
 40
2.0
 40
2.0
 40
3.0
 40
3.0
 40
3.0
 40
4.0
 40
4.0
 40
4.0
 40
5.0
 40
5.0
 40
5.0
 40
6.0
 40
6.0
 40
6.0
 40
6.0
 10
126.7392062400166
 20
-150.4304388729827
 10
126.72439232943
 20
-150.4704019806115
 10
126.7188801766536
 20
-150.4872829484893
 10
126.7002766610332
 20
-150.4872829484893
 10
126.6871852981893
 20
-150.4872829484893
 10
126.6778835403791
 20
-150.4704019806115
 10
126.6723713876027
 20
-150.4576551273161
 10
126.6723713876027
 20
-150.4576551273161
 10
126.5855549813744
 20
-150.2926350535727
 10
126.5855549813744
 20
-150.2926350535727
 10
126.6744384448939
 20
-150.2609401751084
 10
126.8056965828819
 20
-150.2061631568929
 10
126.9800184144355
 20
-150.0432101404406
 10
126.9800184144355
 20
-150.0432101404406
 10
127.0299722989717
 20
-150.2164984433486
 10
127.0299722989717
 20
-150.2164984433486
 10
126.9483235359712
 20
-150.2991807349946
 10
126.8708088875531
 20
-150.3563693200498
 10
126.7392062400166
 20
-150.4304388729827
 97
        0
 97
        1
330
14A
 92
        1
 93
        1
 72
     4
 94
        3
 73
     0
 74
     0
 95
      113
 96
      109
 40
0.0
 40
0.0
 40
0.0
 40
0.0
 40
1.0
 40
1.0
 40
1.0
 40
2.0
 40
2.0
 40
2.0
 40
3.0
 40
3.0
 40
3.0
 40
4.0
 40
4.0
 40
4.0
 40
5.0
 40
5.0
 40
5.0
 40
6.0
 40
6.0
 40
6.0
 40
7.0
 40
7.0
 40
7.0
 40
8.0
 40
8.0
 40
8.0
 40
9.0
 40
9.0
 40
9.0
 40
10.0
 40
10.0
 40
10.0
 40
11.0
 40
11.0
 40
11.0
 40
12.0
 40
12.0
 40
12.0
 40
13.0
 40
13.0
 40
13.0
 40
14.0
 40
14.0
 40
14.0
 40
15.0
 40
15.0
 40
15.0
 40
16.0
 40
16.0
 40
16.0
 40
17.0
 40
17.0
 40
17.0
 40
18.0
 40
18.0
 40
18.0
 40
19.0
 40
19.0
 40
19.0
 40
20.0
 40
20.0
 40
20.0
 40
21.0
 40
21.0
 40
21.0
 40
22.0
 40
22.0
 40
22.0
 40
23.0
 40
23.0
 40
23.0
 40
24.0
 40
24.0
 40
24.0
 40
25.0
 40
25.0
 40
25.0
 40
26.0
 40
26.0
 40
26.0
 40
27.0
 40
27.0
 40
27.0
 40
28.0
 40
28.0
 40
28.0
 40
29.0
 40
29.0
 40
29.0
 40
30.0
 40
30.0
 40
30.0
 40
31.0
 40
31.0
 40
31.0
 40
32.0
 40
32.0
 40
32.0
 40
33.0
 40
33.0
 40
33.0
 40
34.0
 40
34.0
 40
34.0
 40
35.0
 40
35.0
 40
35.0
 40
36.0
 40
36.0
 40
36.0
 40
36.0
 10
127.8629963873051
 20
-150.7814941029296
 10
127.8629963873051
 20
-150.7814941029296
 10
127.9501573030819
 20
-150.8810573624533
 10
127.9501573030819
 20
-150.8810573624533
 10
127.9594590608921
 20
-150.8913926489091
 10
127.9687608187022
 20
-150.9041395022045
 10
127.9687608187022
 20
-150.9189534127911
 10
127.9687608187022
 20
-150.9210204700822
 10
127.9687608187022
 20
-150.9506482912554
 10
127.9353433924953
 20
-150.9506482912554
 10
127.9281086919763
 20
-150.9506482912554
 10
127.8926242084782
 20
-150.9465141766731
 10
127.8871120557018
 20
-150.9465141766731
 10
127.8519720817523
 20
-150.9782090551374
 10
127.8113199550263
 20
-151.0119709908928
 10
127.7241590392495
 20
-151.069159575948
 10
127.8519720817523
 20
-151.1769910646363
 10
127.9908094298078
 20
-151.2341796496914
 10
128.2298990564842
 20
-151.2724202095777
 10
128.2298990564842
 20
-151.2724202095777
 10
128.0982964089476
 20
-151.4477755697769
 10
128.0982964089476
 20
-151.4477755697769
 10
127.86885304963
 20
-151.3757730741352
 10
127.731738249317
 20
-151.2872341201643
 10
127.6649033969032
 20
-151.2341796496914
 10
127.5336452589152
 20
-151.1325493328766
 10
127.407554764155
 20
-150.9695963164243
 10
127.3410644212897
 20
-150.8045762426808
 10
127.2818087789434
 20
-150.8703775664491
 10
127.2170409838207
 20
-150.9230875273734
 10
127.1484835836643
 20
-150.9720078832639
 10
127.1484835836643
 20
-150.9720078832639
 10
127.1484835836643
 20
-151.2234998536872
 10
127.1484835836643
 20
-151.2234998536872
 10
127.2911105367536
 20
-151.1983506566448
 10
127.4540635532059
 20
-151.1539089248851
 10
127.5095295905184
 20
-151.1390950142985
 10
127.5095295905184
 20
-151.1390950142985
 10
127.483691374379
 20
-151.3082492026243
 10
127.483691374379
 20
-151.3082492026243
 10
127.4816243170879
 20
-151.3082492026243
 10
127.4650878587587
 20
-151.3144503744978
 10
127.4633653110161
 20
-151.3144503744978
 10
127.2890434794624
 20
-151.352690934384
 10
127.0113687833513
 20
-151.4181477486038
 10
126.8391140090888
 20
-151.4543212511989
 10
126.8298122512786
 20
-151.4712022190766
 10
126.8094861879157
 20
-151.5028970975409
 10
126.7891601245527
 20
-151.5028970975409
 10
126.7650444561559
 20
-151.5028970975409
 10
126.7612548511222
 20
-151.4839490723721
 10
126.7595323033795
 20
-151.4646565376547
 10
126.7595323033795
 20
-151.4646565376547
 10
126.7371391827254
 20
-151.2913682347466
 10
126.7371391827254
 20
-151.2913682347466
 10
126.8022514873966
 20
-151.2827554960334
 10
126.8966471036925
 20
-151.270008642738
 10
126.9910427199883
 20
-151.248993560278
 10
126.9910427199883
 20
-151.248993560278
 10
126.9910427199883
 20
-151.0712266332391
 10
126.9910427199883
 20
-151.0712266332391
 10
126.8649522252282
 20
-151.1432291288809
 10
126.7819254240337
 20
-151.172856950054
 10
126.6372314136532
 20
-151.2024847712272
 10
126.6372314136532
 20
-151.2024847712272
 10
126.5318114918045
 20
-151.0333305829013
 10
126.5318114918045
 20
-151.0333305829013
 10
126.8094861879157
 20
-151.0057698190194
 10
126.9779513571444
 20
-150.9127522409176
 10
127.1336696730777
 20
-150.7794270456384
 10
127.0058566305749
 20
-150.7794270456384
 10
126.7429958450503
 20
-150.7835611602208
 10
126.5707410707878
 20
-150.7901068416428
 10
126.5707410707878
 20
-150.7901068416428
 10
126.5707410707878
 20
-150.6123399146038
 10
126.5707410707878
 20
-150.6123399146038
 10
126.7057888138096
 20
-150.6185410864773
 10
126.965204503849
 20
-150.6250867678993
 10
127.1260904630101
 20
-150.6250867678993
 10
127.1260904630101
 20
-150.6250867678993
 10
127.3114366001166
 20
-150.6250867678993
 10
127.3114366001166
 20
-150.6250867678993
 10
127.3114366001166
 20
-150.5296576229578
 10
127.3093695428254
 20
-150.4790147193247
 10
127.303857390049
 20
-150.4325059302738
 10
127.303857390049
 20
-150.4325059302738
 10
127.4929931321892
 20
-150.4493868981515
 10
127.4929931321892
 20
-150.4493868981515
 10
127.5353678066578
 20
-150.4535210127338
 10
127.5429470167253
 20
-150.4683349233204
 10
127.5429470167253
 20
-150.483148833907
 10
127.5429470167253
 20
-150.5086425404978
 10
127.5281331061388
 20
-150.5169107696624
 10
127.483691374379
 20
-150.5424044762533
 10
127.4816243170879
 20
-150.5678981828441
 10
127.4816243170879
 20
-150.5740993547176
 10
127.4799017693453
 20
-150.6250867678993
 10
127.4799017693453
 20
-150.6250867678993
 10
127.6817843647809
 20
-150.6250867678993
 10
127.6817843647809
 20
-150.6250867678993
 10
127.8261338656129
 20
-150.6250867678993
 10
128.0817599506184
 20
-150.6185410864773
 10
128.2392008142944
 20
-150.6123399146038
 10
128.2392008142944
 20
-150.6123399146038
 10
128.2392008142944
 20
-150.7901068416428
 10
128.2392008142944
 20
-150.7901068416428
 10
128.1262016823781
 20
-150.7856282175119
 10
128.1058756190152
 20
-150.7856282175119
 10
127.8629963873051
 20
-150.7814941029296
 97
        0
 97
        1
330
14B
 75
     2
 76
     1
 98
        1
 10
0.0
 20
0.0
450
        0
451
        0
460
0.0
461
0.0
452
        0
462
0.0
453
        0
470

  0
SPLINE
  5
14D
330
13A
100
AcDbEntity
  8
レイヤー 1
100
AcDbSpline
210
0.0
220
0.0
230
1.0
 70
    11
 71
     3
 72
    17
 73
    13
 74
     0
 42
0.0000000001
 43
0.0000000001
 40
0.0
 40
0.0
 40
0.0
 40
0.0
 40
1.0
 40
1.0
 40
1.0
 40
2.0
 40
2.0
 40
2.0
 40
3.0
 40
3.0
 40
3.0
 40
4.0
 40
4.0
 40
4.0
 40
4.0
 10
129.7447075413485
 20
-150.2950466204123
 30
0.0
 10
129.7447075413485
 20
-150.2950466204123
 30
0.0
 10
129.3430094077684
 20
-150.2950466204123
 30
0.0
 10
129.3430094077684
 20
-150.2950466204123
 30
0.0
 10
129.3430094077684
 20
-150.2950466204123
 30
0.0
 10
129.3430094077684
 20
-150.6037271758907
 30
0.0
 10
129.3430094077684
 20
-150.6037271758907
 30
0.0
 10
129.3430094077684
 20
-150.6037271758907
 30
0.0
 10
129.7447075413485
 20
-150.6037271758907
 30
0.0
 10
129.7447075413485
 20
-150.6037271758907
 30
0.0
 10
129.7447075413485
 20
-150.6037271758907
 30
0.0
 10
129.7447075413485
 20
-150.2950466204123
 30
0.0
 10
129.7447075413485
 20
-150.2950466204123
 30
0.0
  0
SPLINE
  5
14E
330
13A
100
AcDbEntity
  8
レイヤー 1
100
AcDbSpline
210
0.0
220
0.0
230
1.0
 70
    11
 71
     3
 72
    17
 73
    13
 74
     0
 42
0.0000000001
 43
0.0000000001
 40
0.0
 40
0.0
 40
0.0
 40
0.0
 40
1.0
 40
1.0
 40
1.0
 40
2.0
 40
2.0
 40
2.0
 40
3.0
 40
3.0
 40
3.0
 40
4.0
 40
4.0
 40
4.0
 40
4.0
 10
129.7447075413485
 20
-149.8230685389331
 30
0.0
 10
129.7447075413485
 20
-149.8230685389331
 30
0.0
 10
129.3430094077684
 20
-149.8230685389331
 30
0.0
 10
129.3430094077684
 20
-149.8230685389331
 30
0.0
 10
129.3430094077684
 20
-149.8230685389331
 30
0.0
 10
129.3430094077684
 20
-150.1276149798292
 30
0.0
 10
129.3430094077684
 20
-150.1276149798292
 30
0.0
 10
129.3430094077684
 20
-150.1276149798292
 30
0.0
 10
129.7447075413485
 20
-150.1276149798292
 30
0.0
 10
129.7447075413485
 20
-150.1276149798292
 30
0.0
 10
129.7447075413485
 20
-150.1276149798292
 30
0.0
 10
129.7447075413485
 20
-149.8230685389331
 30
0.0
 10
129.7447075413485
 20
-149.8230685389331
 30
0.0
  0
SPLINE
  5
14F
330
13A
100
AcDbEntity
  8
レイヤー 1
100
AcDbSpline
210
0.0
220
0.0
230
1.0
 70
    11
 71
     3
 72
    17
 73
    13
 74
     0
 42
0.0000000001
 43
0.0000000001
 40
0.0
 40
0.0
 40
0.0
 40
0.0
 40
1.0
 40
1.0
 40
1.0
 40
2.0
 40
2.0
 40
2.0
 40
3.0
 40
3.0
 40
3.0
 40
4.0
 40
4.0
 40
4.0
 40
4.0
 10
129.1762667862823
 20
-150.2950466204123
 30
0.0
 10
129.1762667862823
 20
-150.2950466204123
 30
0.0
 10
128.792827658774
 20
-150.2950466204123
 30
0.0
 10
128.792827658774
 20
-150.2950466204123
 30
0.0
 10
128.792827658774
 20
-150.2950466204123
 30
0.0
 10
128.792827658774
 20
-150.6037271758907
 30
0.0
 10
128.792827658774
 20
-150.6037271758907
 30
0.0
 10
128.792827658774
 20
-150.6037271758907
 30
0.0
 10
129.1762667862823
 20
-150.6037271758907
 30
0.0
 10
129.1762667862823
 20
-150.6037271758907
 30
0.0
 10
129.1762667862823
 20
-150.6037271758907
 30
0.0
 10
129.1762667862823
 20
-150.2950466204123
 30
0.0
 10
129.1762667862823
 20
-150.2950466204123
 30
0.0
  0
SPLINE
  5
150
330
13A
100
AcDbEntity
  8
レイヤー 1
100
AcDbSpline
210
0.0
220
0.0
230
1.0
 70
    11
 71
     3
 72
    17
 73
    13
 74
     0
 42
0.0000000001
 43
0.0000000001
 40
0.0
 40
0.0
 40
0.0
 40
0.0
 40
1.0
 40
1.0
 40
1.0
 40
2.0
 40
2.0
 40
2.0
 40
3.0
 40
3.0
 40
3.0
 40
4.0
 40
4.0
 40
4.0
 40
4.0
 10
129.1762667862823
 20
-149.8230685389331
 30
0.0
 10
129.1762667862823
 20
-149.8230685389331
 30
0.0
 10
128.792827658774
 20
-149.8230685389331
 30
0.0
 10
128.792827658774
 20
-149.8230685389331
 30
0.0
 10
128.792827658774
 20
-149.8230685389331
 30
0.0
 10
128.792827658774
 20
-150.1276149798292
 30
0.0
 10
128.792827658774
 20
-150.1276149798292
 30
0.0
 10
128.792827658774
 20
-150.1276149798292
 30
0.0
 10
129.1762667862823
 20
-150.1276149798292
 30
0.0
 10
129.1762667862823
 20
-150.1276149798292
 30
0.0
 10
129.1762667862823
 20
-150.1276149798292
 30
0.0
 10
129.1762667862823
 20
-149.8230685389331
 30
0.0
 10
129.1762667862823
 20
-149.8230685389331
 30
0.0
  0
SPLINE
  5
151
330
13A
100
AcDbEntity
  8
レイヤー 1
100
AcDbSpline
210
0.0
220
0.0
230
1.0
 70
     9
 71
     3
 72
    77
 73
    73
 74
     0
 42
0.0000000001
 43
0.0000000001
 40
0.0
 40
0.0
 40
0.0
 40
0.0
 40
1.0
 40
1.0
 40
1.0
 40
2.0
 40
2.0
 40
2.0
 40
3.0
 40
3.0
 40
3.0
 40
4.0
 40
4.0
 40
4.0
 40
5.0
 40
5.0
 40
5.0
 40
6.0
 40
6.0
 40
6.0
 40
7.0
 40
7.0
 40
7.0
 40
8.0
 40
8.0
 40
8.0
 40
9.0
 40
9.0
 40
9.0
 40
10.0
 40
10.0
 40
10.0
 40
11.0
 40
11.0
 40
11.0
 40
12.0
 40
12.0
 40
12.0
 40
13.0
 40
13.0
 40
13.0
 40
14.0
 40
14.0
 40
14.0
 40
15.0
 40
15.0
 40
15.0
 40
16.0
 40
16.0
 40
16.0
 40
17.0
 40
17.0
 40
17.0
 40
18.0
 40
18.0
 40
18.0
 40
19.0
 40
19.0
 40
19.0
 40
20.0
 40
20.0
 40
20.0
 40
21.0
 40
21.0
 40
21.0
 40
22.0
 40
22.0
 40
22.0
 40
23.0
 40
23.0
 40
23.0
 40
24.0
 40
24.0
 40
24.0
 40
24.0
 10
129.8632188260411
 20
-151.4098795194392
 30
0.0
 10
129.8225666993152
 20
-151.4350287164815
 30
0.0
 10
129.7133571724327
 20
-151.4477755697769
 30
0.0
 10
129.6447997722763
 20
-151.4477755697769
 30
0.0
 10
129.6337754667235
 20
-151.4477755697769
 30
0.0
 10
129.6113823460693
 20
-151.4477755697769
 30
0.0
 10
129.5817545248962
 20
-151.4436414551946
 30
0.0
 10
129.5817545248962
 20
-151.4436414551946
 30
0.0
 10
129.4966606664106
 20
-151.2172986818137
 30
0.0
 10
129.4966606664106
 20
-151.2172986818137
 30
0.0
 10
129.5224988825499
 20
-151.2234998536872
 30
0.0
 10
129.572452767086
 20
-151.2321125924003
 30
0.0
 10
129.6744275934494
 20
-151.2321125924003
 30
0.0
 10
129.7429849936059
 20
-151.2321125924003
 30
0.0
 10
129.7447075413485
 20
-151.1897379179317
 30
0.0
 10
129.7447075413485
 20
-151.1325493328766
 30
0.0
 10
129.7447075413485
 20
-151.1325493328766
 30
0.0
 10
129.7447075413485
 20
-150.7835611602208
 30
0.0
 10
129.7447075413485
 20
-150.7835611602208
 30
0.0
 10
129.7447075413485
 20
-150.7835611602208
 30
0.0
 10
129.3430094077684
 20
-150.7835611602208
 30
0.0
 10
129.3430094077684
 20
-150.7835611602208
 30
0.0
 10
129.344731955511
 20
-150.9210204700822
 30
0.0
 10
129.3464545032537
 20
-151.1198024795811
 30
0.0
 10
129.3519666560301
 20
-151.2531276748603
 30
0.0
 10
129.3540337133212
 20
-151.2806884387423
 30
0.0
 10
129.3540337133212
 20
-151.325130170502
 30
0.0
 10
129.365058018874
 20
-151.3864528701395
 30
0.0
 10
129.365058018874
 20
-151.3864528701395
 30
0.0
 10
129.1538736656282
 20
-151.3864528701395
 30
0.0
 10
129.1538736656282
 20
-151.3864528701395
 30
0.0
 10
129.1762667862823
 20
-151.2617404135734
 30
0.0
 10
129.1762667862823
 20
-150.9210204700822
 30
0.0
 10
129.1762667862823
 20
-150.7835611602208
 30
0.0
 10
129.1762667862823
 20
-150.7835611602208
 30
0.0
 10
128.7890380537402
 20
-150.7835611602208
 30
0.0
 10
128.7890380537402
 20
-150.7835611602208
 30
0.0
 10
128.7687119903773
 20
-150.9909559084328
 30
0.0
 10
128.7115234053221
 20
-151.2596733562823
 30
0.0
 10
128.5392686310596
 20
-151.4436414551946
 30
0.0
 10
128.5392686310596
 20
-151.4436414551946
 30
0.0
 10
128.3742485573162
 20
-151.3209960559197
 30
0.0
 10
128.3742485573162
 20
-151.3209960559197
 30
0.0
 10
128.5968017256633
 20
-151.1008544544123
 30
0.0
 10
128.6243624895453
 20
-150.7687472496342
 30
0.0
 10
128.6243624895453
 20
-150.4366400448561
 30
0.0
 10
128.6243624895453
 20
-150.4366400448561
 30
0.0
 10
128.6243624895453
 20
-150.000835465972
 30
0.0
 10
128.6243624895453
 20
-150.000835465972
 30
0.0
 10
128.6243624895453
 20
-149.9650064729254
 30
0.0
 10
128.6226399418026
 20
-149.7321180181225
 30
0.0
 10
128.6150607317351
 20
-149.6304877013076
 30
0.0
 10
128.7373616214615
 20
-149.6411674973119
 30
0.0
 10
128.9485459747073
 20
-149.6411674973119
 30
0.0
 10
129.0742919599189
 20
-149.6411674973119
 30
0.0
 10
129.0742919599189
 20
-149.6411674973119
 30
0.0
 10
129.4763346030475
 20
-149.6411674973119
 30
0.0
 10
129.4763346030475
 20
-149.6411674973119
 30
0.0
 10
129.489081456343
 20
-149.6411674973119
 30
0.0
 10
129.7946614258846
 20
-149.6411674973119
 30
0.0
 10
129.9334987739402
 20
-149.6304877013076
 30
0.0
 10
129.9317762261976
 20
-149.6835421717805
 30
0.0
 10
129.9262640734212
 20
-149.8444281309416
 30
0.0
 10
129.9262640734212
 20
-149.8950710345748
 30
0.0
 10
129.9262640734212
 20
-149.8950710345748
 30
0.0
 10
129.9262640734212
 20
-150.5020968590758
 30
0.0
 10
129.9262640734212
 20
-150.5020968590758
 30
0.0
 10
129.9262640734212
 20
-150.5213893937932
 30
0.0
 10
129.9355658312314
 20
-151.0925862252477
 30
0.0
 10
129.9355658312314
 20
-151.2045518285183
 30
0.0
 10
129.9355658312314
 20
-151.2617404135734
 30
0.0
 10
129.9355658312314
 20
-151.3633707303883
 30
0.0
 10
129.8632188260411
 20
-151.4098795194392
 30
0.0
  0
HATCH
  5
152
330
13A
100
AcDbEntity
  8
レイヤー 1
 62
   250
420
  2299925
440
 33554687
100
AcDbHatch
 10
0.0
 20
0.0
 30
0.0
210
0.0
220
0.0
230
1.0
  2
SOLID
 70
     1
 71
     1
 91
        5
 92
        1
 93
        1
 72
     4
 94
        3
 73
     0
 74
     0
 95
       17
 96
       13
 40
0.0
 40
0.0
 40
0.0
 40
0.0
 40
1.0
 40
1.0
 40
1.0
 40
2.0
 40
2.0
 40
2.0
 40
3.0
 40
3.0
 40
3.0
 40
4.0
 40
4.0
 40
4.0
 40
4.0
 10
129.7447075413485
 20
-150.2950466204123
 10
129.7447075413485
 20
-150.2950466204123
 10
129.3430094077684
 20
-150.2950466204123
 10
129.3430094077684
 20
-150.2950466204123
 10
129.3430094077684
 20
-150.2950466204123
 10
129.3430094077684
 20
-150.6037271758907
 10
129.3430094077684
 20
-150.6037271758907
 10
129.3430094077684
 20
-150.6037271758907
 10
129.7447075413485
 20
-150.6037271758907
 10
129.7447075413485
 20
-150.6037271758907
 10
129.7447075413485
 20
-150.6037271758907
 10
129.7447075413485
 20
-150.2950466204123
 10
129.7447075413485
 20
-150.2950466204123
 97
        0
 97
        1
330
14D
 92
        1
 93
        1
 72
     4
 94
        3
 73
     0
 74
     0
 95
       17
 96
       13
 40
0.0
 40
0.0
 40
0.0
 40
0.0
 40
1.0
 40
1.0
 40
1.0
 40
2.0
 40
2.0
 40
2.0
 40
3.0
 40
3.0
 40
3.0
 40
4.0
 40
4.0
 40
4.0
 40
4.0
 10
129.7447075413485
 20
-149.8230685389331
 10
129.7447075413485
 20
-149.8230685389331
 10
129.3430094077684
 20
-149.8230685389331
 10
129.3430094077684
 20
-149.8230685389331
 10
129.3430094077684
 20
-149.8230685389331
 10
129.3430094077684
 20
-150.1276149798292
 10
129.3430094077684
 20
-150.1276149798292
 10
129.3430094077684
 20
-150.1276149798292
 10
129.7447075413485
 20
-150.1276149798292
 10
129.7447075413485
 20
-150.1276149798292
 10
129.7447075413485
 20
-150.1276149798292
 10
129.7447075413485
 20
-149.8230685389331
 10
129.7447075413485
 20
-149.8230685389331
 97
        0
 97
        1
330
14E
 92
        1
 93
        1
 72
     4
 94
        3
 73
     0
 74
     0
 95
       17
 96
       13
 40
0.0
 40
0.0
 40
0.0
 40
0.0
 40
1.0
 40
1.0
 40
1.0
 40
2.0
 40
2.0
 40
2.0
 40
3.0
 40
3.0
 40
3.0
 40
4.0
 40
4.0
 40
4.0
 40
4.0
 10
129.1762667862823
 20
-150.2950466204123
 10
129.1762667862823
 20
-150.2950466204123
 10
128.792827658774
 20
-150.2950466204123
 10
128.792827658774
 20
-150.2950466204123
 10
128.792827658774
 20
-150.2950466204123
 10
128.792827658774
 20
-150.6037271758907
 10
128.792827658774
 20
-150.6037271758907
 10
128.792827658774
 20
-150.6037271758907
 10
129.1762667862823
 20
-150.6037271758907
 10
129.1762667862823
 20
-150.6037271758907
 10
129.1762667862823
 20
-150.6037271758907
 10
129.1762667862823
 20
-150.2950466204123
 10
129.1762667862823
 20
-150.2950466204123
 97
        0
 97
        1
330
14F
 92
        1
 93
        1
 72
     4
 94
        3
 73
     0
 74
     0
 95
       17
 96
       13
 40
0.0
 40
0.0
 40
0.0
 40
0.0
 40
1.0
 40
1.0
 40
1.0
 40
2.0
 40
2.0
 40
2.0
 40
3.0
 40
3.0
 40
3.0
 40
4.0
 40
4.0
 40
4.0
 40
4.0
 10
129.1762667862823
 20
-149.8230685389331
 10
129.1762667862823
 20
-149.8230685389331
 10
128.792827658774
 20
-149.8230685389331
 10
128.792827658774
 20
-149.8230685389331
 10
128.792827658774
 20
-149.8230685389331
 10
128.792827658774
 20
-150.1276149798292
 10
128.792827658774
 20
-150.1276149798292
 10
128.792827658774
 20
-150.1276149798292
 10
129.1762667862823
 20
-150.1276149798292
 10
129.1762667862823
 20
-150.1276149798292
 10
129.1762667862823
 20
-150.1276149798292
 10
129.1762667862823
 20
-149.8230685389331
 10
129.1762667862823
 20
-149.8230685389331
 97
        0
 97
        1
330
150
 92
        1
 93
        1
 72
     4
 94
        3
 73
     0
 74
     0
 95
       77
 96
       73
 40
0.0
 40
0.0
 40
0.0
 40
0.0
 40
1.0
 40
1.0
 40
1.0
 40
2.0
 40
2.0
 40
2.0
 40
3.0
 40
3.0
 40
3.0
 40
4.0
 40
4.0
 40
4.0
 40
5.0
 40
5.0
 40
5.0
 40
6.0
 40
6.0
 40
6.0
 40
7.0
 40
7.0
 40
7.0
 40
8.0
 40
8.0
 40
8.0
 40
9.0
 40
9.0
 40
9.0
 40
10.0
 40
10.0
 40
10.0
 40
11.0
 40
11.0
 40
11.0
 40
12.0
 40
12.0
 40
12.0
 40
13.0
 40
13.0
 40
13.0
 40
14.0
 40
14.0
 40
14.0
 40
15.0
 40
15.0
 40
15.0
 40
16.0
 40
16.0
 40
16.0
 40
17.0
 40
17.0
 40
17.0
 40
18.0
 40
18.0
 40
18.0
 40
19.0
 40
19.0
 40
19.0
 40
20.0
 40
20.0
 40
20.0
 40
21.0
 40
21.0
 40
21.0
 40
22.0
 40
22.0
 40
22.0
 40
23.0
 40
23.0
 40
23.0
 40
24.0
 40
24.0
 40
24.0
 40
24.0
 10
129.8632188260411
 20
-151.4098795194392
 10
129.8225666993152
 20
-151.4350287164815
 10
129.7133571724327
 20
-151.4477755697769
 10
129.6447997722763
 20
-151.4477755697769
 10
129.6337754667235
 20
-151.4477755697769
 10
129.6113823460693
 20
-151.4477755697769
 10
129.5817545248962
 20
-151.4436414551946
 10
129.5817545248962
 20
-151.4436414551946
 10
129.4966606664106
 20
-151.2172986818137
 10
129.4966606664106
 20
-151.2172986818137
 10
129.5224988825499
 20
-151.2234998536872
 10
129.572452767086
 20
-151.2321125924003
 10
129.6744275934494
 20
-151.2321125924003
 10
129.7429849936059
 20
-151.2321125924003
 10
129.7447075413485
 20
-151.1897379179317
 10
129.7447075413485
 20
-151.1325493328766
 10
129.7447075413485
 20
-151.1325493328766
 10
129.7447075413485
 20
-150.7835611602208
 10
129.7447075413485
 20
-150.7835611602208
 10
129.7447075413485
 20
-150.7835611602208
 10
129.3430094077684
 20
-150.7835611602208
 10
129.3430094077684
 20
-150.7835611602208
 10
129.344731955511
 20
-150.9210204700822
 10
129.3464545032537
 20
-151.1198024795811
 10
129.3519666560301
 20
-151.2531276748603
 10
129.3540337133212
 20
-151.2806884387423
 10
129.3540337133212
 20
-151.325130170502
 10
129.365058018874
 20
-151.3864528701395
 10
129.365058018874
 20
-151.3864528701395
 10
129.1538736656282
 20
-151.3864528701395
 10
129.1538736656282
 20
-151.3864528701395
 10
129.1762667862823
 20
-151.2617404135734
 10
129.1762667862823
 20
-150.9210204700822
 10
129.1762667862823
 20
-150.7835611602208
 10
129.1762667862823
 20
-150.7835611602208
 10
128.7890380537402
 20
-150.7835611602208
 10
128.7890380537402
 20
-150.7835611602208
 10
128.7687119903773
 20
-150.9909559084328
 10
128.7115234053221
 20
-151.2596733562823
 10
128.5392686310596
 20
-151.4436414551946
 10
128.5392686310596
 20
-151.4436414551946
 10
128.3742485573162
 20
-151.3209960559197
 10
128.3742485573162
 20
-151.3209960559197
 10
128.5968017256633
 20
-151.1008544544123
 10
128.6243624895453
 20
-150.7687472496342
 10
128.6243624895453
 20
-150.4366400448561
 10
128.6243624895453
 20
-150.4366400448561
 10
128.6243624895453
 20
-150.000835465972
 10
128.6243624895453
 20
-150.000835465972
 10
128.6243624895453
 20
-149.9650064729254
 10
128.6226399418026
 20
-149.7321180181225
 10
128.6150607317351
 20
-149.6304877013076
 10
128.7373616214615
 20
-149.6411674973119
 10
128.9485459747073
 20
-149.6411674973119
 10
129.0742919599189
 20
-149.6411674973119
 10
129.0742919599189
 20
-149.6411674973119
 10
129.4763346030475
 20
-149.6411674973119
 10
129.4763346030475
 20
-149.6411674973119
 10
129.489081456343
 20
-149.6411674973119
 10
129.7946614258846
 20
-149.6411674973119
 10
129.9334987739402
 20
-149.6304877013076
 10
129.9317762261976
 20
-149.6835421717805
 10
129.9262640734212
 20
-149.8444281309416
 10
129.9262640734212
 20
-149.8950710345748
 10
129.9262640734212
 20
-149.8950710345748
 10
129.9262640734212
 20
-150.5020968590758
 10
129.9262640734212
 20
-150.5020968590758
 10
129.9262640734212
 20
-150.5213893937932
 10
129.9355658312314
 20
-151.0925862252477
 10
129.9355658312314
 20
-151.2045518285183
 10
129.9355658312314
 20
-151.2617404135734
 10
129.9355658312314
 20
-151.3633707303883
 10
129.8632188260411
 20
-151.4098795194392
 97
        0
 97
        1
330
151
 75
     2
 76
     1
 98
        1
 10
0.0
 20
0.0
450
        0
451
        0
460
0.0
461
0.0
452
        0
462
0.0
453
        0
470

  0
SPLINE
  5
153
330
13A
100
AcDbEntity
  8
レイヤー 1
100
AcDbSpline
210
0.0
220
0.0
230
1.0
 70
     9
 71
     3
 72
    17
 73
    13
 74
     0
 42
0.0000000001
 43
0.0000000001
 40
0.0
 40
0.0
 40
0.0
 40
0.0
 40
1.0
 40
1.0
 40
1.0
 40
2.0
 40
2.0
 40
2.0
 40
3.0
 40
3.0
 40
3.0
 40
4.0
 40
4.0
 40
4.0
 40
4.0
 10
126.1459607974565
 20
-152.1705566025823
 30
0.0
 10
126.0977294606631
 20
-152.1705566025823
 30
0.0
 10
126.0587998816797
 20
-152.2149983343421
 30
0.0
 10
126.0587998816797
 20
-152.2701198621061
 30
0.0
 10
126.0587998816797
 20
-152.3273084471612
 30
0.0
 10
126.0977294606631
 20
-152.3758842935032
 30
0.0
 10
126.1497504024903
 20
-152.3758842935032
 30
0.0
 10
126.2014268347691
 20
-152.3758842935032
 30
0.0
 10
126.2365668087186
 20
-152.3252413898701
 30
0.0
 10
126.2365668087186
 20
-152.2721869193972
 30
0.0
 10
126.2365668087186
 20
-152.2149983343421
 30
0.0
 10
126.1959146819927
 20
-152.1705566025823
 30
0.0
 10
126.1459607974565
 20
-152.1705566025823
 30
0.0
  0
SPLINE
  5
154
330
13A
100
AcDbEntity
  8
レイヤー 1
100
AcDbSpline
210
0.0
220
0.0
230
1.0
 70
     9
 71
     3
 72
    17
 73
    13
 74
     0
 42
0.0000000001
 43
0.0000000001
 40
0.0
 40
0.0
 40
0.0
 40
0.0
 40
1.0
 40
1.0
 40
1.0
 40
2.0
 40
2.0
 40
2.0
 40
3.0
 40
3.0
 40
3.0
 40
4.0
 40
4.0
 40
4.0
 40
4.0
 10
126.1476833451992
 20
-152.5005967500693
 30
0.0
 10
126.0367512705741
 20
-152.5005967500693
 30
0.0
 10
125.9478678070547
 20
-152.3993109428029
 30
0.0
 10
125.9478678070547
 20
-152.2721869193972
 30
0.0
 10
125.9478678070547
 20
-152.14540740554
 30
0.0
 10
126.0367512705741
 20
-152.041710031434
 30
0.0
 10
126.1476833451992
 20
-152.041710031434
 30
0.0
 10
126.2589599293727
 20
-152.041710031434
 30
0.0
 10
126.3495659406348
 20
-152.14540740554
 30
0.0
 10
126.3495659406348
 20
-152.2721869193972
 30
0.0
 10
126.3495659406348
 20
-152.3993109428029
 30
0.0
 10
126.2589599293727
 20
-152.5005967500693
 30
0.0
 10
126.1476833451992
 20
-152.5005967500693
 30
0.0
  0
SPLINE
  5
155
330
13A
100
AcDbEntity
  8
レイヤー 1
100
AcDbSpline
210
0.0
220
0.0
230
1.0
 70
     9
 71
     3
 72
    44
 73
    40
 74
     0
 42
0.0000000001
 43
0.0000000001
 40
0.0
 40
0.0
 40
0.0
 40
0.0
 40
1.0
 40
1.0
 40
1.0
 40
2.0
 40
2.0
 40
2.0
 40
3.0
 40
3.0
 40
3.0
 40
4.0
 40
4.0
 40
4.0
 40
5.0
 40
5.0
 40
5.0
 40
6.0
 40
6.0
 40
6.0
 40
7.0
 40
7.0
 40
7.0
 40
8.0
 40
8.0
 40
8.0
 40
9.0
 40
9.0
 40
9.0
 40
10.0
 40
10.0
 40
10.0
 40
11.0
 40
11.0
 40
11.0
 40
12.0
 40
12.0
 40
12.0
 40
13.0
 40
13.0
 40
13.0
 40
13.0
 10
125.9644042653839
 20
-152.6997232691167
 30
0.0
 10
125.8662190440543
 20
-153.0676594669414
 30
0.0
 10
125.8217773122945
 20
-153.2264783688114
 30
0.0
 10
125.649522538032
 20
-153.4759032819435
 30
0.0
 10
125.4886365788709
 20
-153.7067246794553
 30
0.0
 10
125.2812418306588
 20
-153.8927598356587
 30
0.0
 10
125.0366400512061
 20
-153.9857774137605
 30
0.0
 10
125.0366400512061
 20
-153.9857774137605
 30
0.0
 10
124.8681748819774
 20
-153.8059434294305
 30
0.0
 10
124.8681748819774
 20
-153.8059434294305
 30
0.0
 10
125.4293809365246
 20
-153.6536702089824
 30
0.0
 10
125.7180799381885
 20
-153.0972872881146
 30
0.0
 10
125.7738904850496
 20
-152.6573485946481
 30
0.0
 10
125.7738904850496
 20
-152.6573485946481
 30
0.0
 10
125.1034749036199
 20
-152.6573485946481
 30
0.0
 10
125.1034749036199
 20
-152.6573485946481
 30
0.0
 10
125.0218261406195
 20
-152.6573485946481
 30
0.0
 10
124.8609401814583
 20
-152.6614827092305
 30
0.0
 10
124.7238253811454
 20
-152.6804307343993
 30
0.0
 10
124.7238253811454
 20
-152.6804307343993
 30
0.0
 10
124.7238253811454
 20
-152.4606336424404
 30
0.0
 10
124.7238253811454
 20
-152.4606336424404
 30
0.0
 10
124.7996174818209
 20
-152.4816487249004
 30
0.0
 10
125.0201035928769
 20
-152.4816487249004
 30
0.0
 10
125.1069199991052
 20
-152.4816487249004
 30
0.0
 10
125.1069199991052
 20
-152.4816487249004
 30
0.0
 10
125.4848469738371
 20
-152.4816487249004
 30
0.0
 10
125.4848469738371
 20
-152.4816487249004
 30
0.0
 10
125.5217094955293
 20
-152.4816487249004
 30
0.0
 10
125.7273816959987
 20
-152.4795816676092
 30
0.0
 10
125.7607991222056
 20
-152.4733804957358
 30
0.0
 10
125.7976616438978
 20
-152.4668348143138
 30
0.0
 10
125.7997287011889
 20
-152.4647677570227
 30
0.0
 10
125.8534721907588
 20
-152.4244601398453
 30
0.0
 10
125.8534721907588
 20
-152.4244601398453
 30
0.0
 10
126.0181477549538
 20
-152.579144927133
 30
0.0
 10
126.0181477549538
 20
-152.579144927133
 30
0.0
 10
125.9923095388144
 20
-152.6087727483061
 30
0.0
 10
125.9792181759705
 20
-152.6404676267704
 30
0.0
 10
125.9644042653839
 20
-152.6997232691167
 30
0.0
  0
HATCH
  5
156
330
13A
100
AcDbEntity
  8
レイヤー 1
 62
   250
420
  2299925
440
 33554687
100
AcDbHatch
 10
0.0
 20
0.0
 30
0.0
210
0.0
220
0.0
230
1.0
  2
SOLID
 70
     1
 71
     1
 91
        3
 92
        1
 93
        1
 72
     4
 94
        3
 73
     0
 74
     0
 95
       17
 96
       13
 40
0.0
 40
0.0
 40
0.0
 40
0.0
 40
1.0
 40
1.0
 40
1.0
 40
2.0
 40
2.0
 40
2.0
 40
3.0
 40
3.0
 40
3.0
 40
4.0
 40
4.0
 40
4.0
 40
4.0
 10
126.1459607974565
 20
-152.1705566025823
 10
126.0977294606631
 20
-152.1705566025823
 10
126.0587998816797
 20
-152.2149983343421
 10
126.0587998816797
 20
-152.2701198621061
 10
126.0587998816797
 20
-152.3273084471612
 10
126.0977294606631
 20
-152.3758842935032
 10
126.1497504024903
 20
-152.3758842935032
 10
126.2014268347691
 20
-152.3758842935032
 10
126.2365668087186
 20
-152.3252413898701
 10
126.2365668087186
 20
-152.2721869193972
 10
126.2365668087186
 20
-152.2149983343421
 10
126.1959146819927
 20
-152.1705566025823
 10
126.1459607974565
 20
-152.1705566025823
 97
        0
 97
        1
330
153
 92
        1
 93
        1
 72
     4
 94
        3
 73
     0
 74
     0
 95
       17
 96
       13
 40
0.0
 40
0.0
 40
0.0
 40
0.0
 40
1.0
 40
1.0
 40
1.0
 40
2.0
 40
2.0
 40
2.0
 40
3.0
 40
3.0
 40
3.0
 40
4.0
 40
4.0
 40
4.0
 40
4.0
 10
126.1476833451992
 20
-152.5005967500693
 10
126.0367512705741
 20
-152.5005967500693
 10
125.9478678070547
 20
-152.3993109428029
 10
125.9478678070547
 20
-152.2721869193972
 10
125.9478678070547
 20
-152.14540740554
 10
126.0367512705741
 20
-152.041710031434
 10
126.1476833451992
 20
-152.041710031434
 10
126.2589599293727
 20
-152.041710031434
 10
126.3495659406348
 20
-152.14540740554
 10
126.3495659406348
 20
-152.2721869193972
 10
126.3495659406348
 20
-152.3993109428029
 10
126.2589599293727
 20
-152.5005967500693
 10
126.1476833451992
 20
-152.5005967500693
 97
        0
 97
        1
330
154
 92
        1
 93
        1
 72
     4
 94
        3
 73
     0
 74
     0
 95
       44
 96
       40
 40
0.0
 40
0.0
 40
0.0
 40
0.0
 40
1.0
 40
1.0
 40
1.0
 40
2.0
 40
2.0
 40
2.0
 40
3.0
 40
3.0
 40
3.0
 40
4.0
 40
4.0
 40
4.0
 40
5.0
 40
5.0
 40
5.0
 40
6.0
 40
6.0
 40
6.0
 40
7.0
 40
7.0
 40
7.0
 40
8.0
 40
8.0
 40
8.0
 40
9.0
 40
9.0
 40
9.0
 40
10.0
 40
10.0
 40
10.0
 40
11.0
 40
11.0
 40
11.0
 40
12.0
 40
12.0
 40
12.0
 40
13.0
 40
13.0
 40
13.0
 40
13.0
 10
125.9644042653839
 20
-152.6997232691167
 10
125.8662190440543
 20
-153.0676594669414
 10
125.8217773122945
 20
-153.2264783688114
 10
125.649522538032
 20
-153.4759032819435
 10
125.4886365788709
 20
-153.7067246794553
 10
125.2812418306588
 20
-153.8927598356587
 10
125.0366400512061
 20
-153.9857774137605
 10
125.0366400512061
 20
-153.9857774137605
 10
124.8681748819774
 20
-153.8059434294305
 10
124.8681748819774
 20
-153.8059434294305
 10
125.4293809365246
 20
-153.6536702089824
 10
125.7180799381885
 20
-153.0972872881146
 10
125.7738904850496
 20
-152.6573485946481
 10
125.7738904850496
 20
-152.6573485946481
 10
125.1034749036199
 20
-152.6573485946481
 10
125.1034749036199
 20
-152.6573485946481
 10
125.0218261406195
 20
-152.6573485946481
 10
124.8609401814583
 20
-152.6614827092305
 10
124.7238253811454
 20
-152.6804307343993
 10
124.7238253811454
 20
-152.6804307343993
 10
124.7238253811454
 20
-152.4606336424404
 10
124.7238253811454
 20
-152.4606336424404
 10
124.7996174818209
 20
-152.4816487249004
 10
125.0201035928769
 20
-152.4816487249004
 10
125.1069199991052
 20
-152.4816487249004
 10
125.1069199991052
 20
-152.4816487249004
 10
125.4848469738371
 20
-152.4816487249004
 10
125.4848469738371
 20
-152.4816487249004
 10
125.5217094955293
 20
-152.4816487249004
 10
125.7273816959987
 20
-152.4795816676092
 10
125.7607991222056
 20
-152.4733804957358
 10
125.7976616438978
 20
-152.4668348143138
 10
125.7997287011889
 20
-152.4647677570227
 10
125.8534721907588
 20
-152.4244601398453
 10
125.8534721907588
 20
-152.4244601398453
 10
126.0181477549538
 20
-152.579144927133
 10
126.0181477549538
 20
-152.579144927133
 10
125.9923095388144
 20
-152.6087727483061
 10
125.9792181759705
 20
-152.6404676267704
 10
125.9644042653839
 20
-152.6997232691167
 97
        0
 97
        1
330
155
 75
     2
 76
     1
 98
        1
 10
0.0
 20
0.0
450
        0
451
        0
460
0.0
461
0.0
452
        0
462
0.0
453
        0
470

  0
SPLINE
  5
157
330
13A
100
AcDbEntity
  8
レイヤー 1
100
AcDbSpline
210
0.0
220
0.0
230
1.0
 70
     9
 71
     3
 72
    29
 73
    25
 74
     0
 42
0.0000000001
 43
0.0000000001
 40
0.0
 40
0.0
 40
0.0
 40
0.0
 40
1.0
 40
1.0
 40
1.0
 40
2.0
 40
2.0
 40
2.0
 40
3.0
 40
3.0
 40
3.0
 40
4.0
 40
4.0
 40
4.0
 40
5.0
 40
5.0
 40
5.0
 40
6.0
 40
6.0
 40
6.0
 40
7.0
 40
7.0
 40
7.0
 40
8.0
 40
8.0
 40
8.0
 40
8.0
 10
127.2886989699139
 20
-152.3824299749252
 30
0.0
 10
127.2886989699139
 20
-152.3824299749252
 30
0.0
 10
126.9906982104398
 20
-152.3824299749252
 30
0.0
 10
126.9906982104398
 20
-152.3824299749252
 30
0.0
 10
126.8907904413676
 20
-152.3824299749252
 30
0.0
 10
126.7888156150042
 20
-152.3865640895075
 30
0.0
 10
126.6889078459319
 20
-152.4013780000941
 30
0.0
 10
126.6889078459319
 20
-152.4013780000941
 30
0.0
 10
126.6889078459319
 20
-152.1919161945909
 30
0.0
 10
126.6889078459319
 20
-152.1919161945909
 30
0.0
 10
126.7926052200379
 20
-152.2067301051775
 30
0.0
 10
126.9445339309374
 20
-152.2108642197598
 30
0.0
 10
126.9906982104398
 20
-152.2108642197598
 30
0.0
 10
126.9906982104398
 20
-152.2108642197598
 30
0.0
 10
127.2886989699139
 20
-152.2108642197598
 30
0.0
 10
127.2886989699139
 20
-152.2108642197598
 30
0.0
 10
127.3906737962773
 20
-152.2108642197598
 30
0.0
 10
127.4923041130922
 20
-152.2067301051775
 30
0.0
 10
127.5942789394556
 20
-152.1919161945909
 30
0.0
 10
127.5942789394556
 20
-152.1919161945909
 30
0.0
 10
127.5942789394556
 20
-152.4013780000941
 30
0.0
 10
127.5942789394556
 20
-152.4013780000941
 30
0.0
 10
127.462676291919
 20
-152.3824299749252
 30
0.0
 10
127.3017903327579
 20
-152.3824299749252
 30
0.0
 10
127.2886989699139
 20
-152.3824299749252
 30
0.0
  0
SPLINE
  5
158
330
13A
100
AcDbEntity
  8
レイヤー 1
100
AcDbSpline
210
0.0
220
0.0
230
1.0
 70
     9
 71
     3
 72
    50
 73
    46
 74
     0
 42
0.0000000001
 43
0.0000000001
 40
0.0
 40
0.0
 40
0.0
 40
0.0
 40
1.0
 40
1.0
 40
1.0
 40
2.0
 40
2.0
 40
2.0
 40
3.0
 40
3.0
 40
3.0
 40
4.0
 40
4.0
 40
4.0
 40
5.0
 40
5.0
 40
5.0
 40
6.0
 40
6.0
 40
6.0
 40
7.0
 40
7.0
 40
7.0
 40
8.0
 40
8.0
 40
8.0
 40
9.0
 40
9.0
 40
9.0
 40
10.0
 40
10.0
 40
10.0
 40
11.0
 40
11.0
 40
11.0
 40
12.0
 40
12.0
 40
12.0
 40
13.0
 40
13.0
 40
13.0
 40
14.0
 40
14.0
 40
14.0
 40
15.0
 40
15.0
 40
15.0
 40
15.0
 10
127.7203694342157
 20
-153.0084038245951
 30
0.0
 10
127.6518120340593
 20
-153.186170751634
 30
0.0
 10
127.5333007493667
 20
-153.393565499846
 30
0.0
 10
127.4127224073829
 20
-153.5330918669987
 30
0.0
 10
127.2645833015172
 20
-153.7043131126156
 30
0.0
 10
127.1223008579764
 20
-153.793196576135
 30
0.0
 10
126.8425591045741
 20
-153.9351345101273
 30
0.0
 10
126.8425591045741
 20
-153.9351345101273
 30
0.0
 10
126.6944199987083
 20
-153.7466877870842
 30
0.0
 10
126.6944199987083
 20
-153.7466877870842
 30
0.0
 10
126.8573730151606
 20
-153.723605647333
 30
0.0
 10
127.007234668769
 20
-153.6367892411047
 30
0.0
 10
127.1405598640482
 20
-153.5310248097075
 30
0.0
 10
127.3703477329144
 20
-153.3491237680863
 30
0.0
 10
127.5370903544004
 20
-153.0359645884771
 30
0.0
 10
127.579465028869
 20
-152.8540635468559
 30
0.0
 10
127.579465028869
 20
-152.8540635468559
 30
0.0
 10
126.9924207581824
 20
-152.8540635468559
 30
0.0
 10
126.9924207581824
 20
-152.8540635468559
 30
0.0
 10
126.8535834101269
 20
-152.8540635468559
 30
0.0
 10
126.5979573251213
 20
-152.8623317760205
 30
0.0
 10
126.4646321298422
 20
-152.8795572534468
 30
0.0
 10
126.4646321298422
 20
-152.8795572534468
 30
0.0
 10
126.4646321298422
 20
-152.6508029132262
 30
0.0
 10
126.4646321298422
 20
-152.6508029132262
 30
0.0
 10
126.4942599510153
 20
-152.6573485946481
 30
0.0
 10
126.5166530716694
 20
-152.6635497665216
 30
0.0
 10
126.5628173511718
 20
-152.6676838811039
 30
0.0
 10
126.6517008146912
 20
-152.6742295625258
 30
0.0
 10
126.8239555889537
 20
-152.676296619817
 30
0.0
 10
126.8980251418866
 20
-152.676296619817
 30
0.0
 10
126.8980251418866
 20
-152.676296619817
 30
0.0
 10
127.3407199117412
 20
-152.676296619817
 30
0.0
 10
127.3407199117412
 20
-152.676296619817
 30
0.0
 10
127.3999755540875
 20
-152.676296619817
 30
0.0
 10
127.5277885965903
 20
-152.6721625052347
 30
0.0
 10
127.5811875766116
 20
-152.6656168238127
 30
0.0
 10
127.6442328239917
 20
-152.6573485946481
 30
0.0
 10
127.6683484923885
 20
-152.6425346840616
 30
0.0
 10
127.6979763135616
 20
-152.6191080347619
 30
0.0
 10
127.6979763135616
 20
-152.6191080347619
 30
0.0
 10
127.8423258143936
 20
-152.7861951657965
 30
0.0
 10
127.8423258143936
 20
-152.7861951657965
 30
0.0
 10
127.7813476243046
 20
-152.8540635468559
 30
0.0
 10
127.7406954975787
 20
-152.9577609209619
 30
0.0
 10
127.7203694342157
 20
-153.0084038245951
 30
0.0
  0
HATCH
  5
159
330
13A
100
AcDbEntity
  8
レイヤー 1
 62
   250
420
  2299925
440
 33554687
100
AcDbHatch
 10
0.0
 20
0.0
 30
0.0
210
0.0
220
0.0
230
1.0
  2
SOLID
 70
     1
 71
     1
 91
        2
 92
        1
 93
        1
 72
     4
 94
        3
 73
     0
 74
     0
 95
       29
 96
       25
 40
0.0
 40
0.0
 40
0.0
 40
0.0
 40
1.0
 40
1.0
 40
1.0
 40
2.0
 40
2.0
 40
2.0
 40
3.0
 40
3.0
 40
3.0
 40
4.0
 40
4.0
 40
4.0
 40
5.0
 40
5.0
 40
5.0
 40
6.0
 40
6.0
 40
6.0
 40
7.0
 40
7.0
 40
7.0
 40
8.0
 40
8.0
 40
8.0
 40
8.0
 10
127.2886989699139
 20
-152.3824299749252
 10
127.2886989699139
 20
-152.3824299749252
 10
126.9906982104398
 20
-152.3824299749252
 10
126.9906982104398
 20
-152.3824299749252
 10
126.8907904413676
 20
-152.3824299749252
 10
126.7888156150042
 20
-152.3865640895075
 10
126.6889078459319
 20
-152.4013780000941
 10
126.6889078459319
 20
-152.4013780000941
 10
126.6889078459319
 20
-152.1919161945909
 10
126.6889078459319
 20
-152.1919161945909
 10
126.7926052200379
 20
-152.2067301051775
 10
126.9445339309374
 20
-152.2108642197598
 10
126.9906982104398
 20
-152.2108642197598
 10
126.9906982104398
 20
-152.2108642197598
 10
127.2886989699139
 20
-152.2108642197598
 10
127.2886989699139
 20
-152.2108642197598
 10
127.3906737962773
 20
-152.2108642197598
 10
127.4923041130922
 20
-152.2067301051775
 10
127.5942789394556
 20
-152.1919161945909
 10
127.5942789394556
 20
-152.1919161945909
 10
127.5942789394556
 20
-152.4013780000941
 10
127.5942789394556
 20
-152.4013780000941
 10
127.462676291919
 20
-152.3824299749252
 10
127.3017903327579
 20
-152.3824299749252
 10
127.2886989699139
 20
-152.3824299749252
 97
        0
 97
        1
330
157
 92
        1
 93
        1
 72
     4
 94
        3
 73
     0
 74
     0
 95
       50
 96
       46
 40
0.0
 40
0.0
 40
0.0
 40
0.0
 40
1.0
 40
1.0
 40
1.0
 40
2.0
 40
2.0
 40
2.0
 40
3.0
 40
3.0
 40
3.0
 40
4.0
 40
4.0
 40
4.0
 40
5.0
 40
5.0
 40
5.0
 40
6.0
 40
6.0
 40
6.0
 40
7.0
 40
7.0
 40
7.0
 40
8.0
 40
8.0
 40
8.0
 40
9.0
 40
9.0
 40
9.0
 40
10.0
 40
10.0
 40
10.0
 40
11.0
 40
11.0
 40
11.0
 40
12.0
 40
12.0
 40
12.0
 40
13.0
 40
13.0
 40
13.0
 40
14.0
 40
14.0
 40
14.0
 40
15.0
 40
15.0
 40
15.0
 40
15.0
 10
127.7203694342157
 20
-153.0084038245951
 10
127.6518120340593
 20
-153.186170751634
 10
127.5333007493667
 20
-153.393565499846
 10
127.4127224073829
 20
-153.5330918669987
 10
127.2645833015172
 20
-153.7043131126156
 10
127.1223008579764
 20
-153.793196576135
 10
126.8425591045741
 20
-153.9351345101273
 10
126.8425591045741
 20
-153.9351345101273
 10
126.6944199987083
 20
-153.7466877870842
 10
126.6944199987083
 20
-153.7466877870842
 10
126.8573730151606
 20
-153.723605647333
 10
127.007234668769
 20
-153.6367892411047
 10
127.1405598640482
 20
-153.5310248097075
 10
127.3703477329144
 20
-153.3491237680863
 10
127.5370903544004
 20
-153.0359645884771
 10
127.579465028869
 20
-152.8540635468559
 10
127.579465028869
 20
-152.8540635468559
 10
126.9924207581824
 20
-152.8540635468559
 10
126.9924207581824
 20
-152.8540635468559
 10
126.8535834101269
 20
-152.8540635468559
 10
126.5979573251213
 20
-152.8623317760205
 10
126.4646321298422
 20
-152.8795572534468
 10
126.4646321298422
 20
-152.8795572534468
 10
126.4646321298422
 20
-152.6508029132262
 10
126.4646321298422
 20
-152.6508029132262
 10
126.4942599510153
 20
-152.6573485946481
 10
126.5166530716694
 20
-152.6635497665216
 10
126.5628173511718
 20
-152.6676838811039
 10
126.6517008146912
 20
-152.6742295625258
 10
126.8239555889537
 20
-152.676296619817
 10
126.8980251418866
 20
-152.676296619817
 10
126.8980251418866
 20
-152.676296619817
 10
127.3407199117412
 20
-152.676296619817
 10
127.3407199117412
 20
-152.676296619817
 10
127.3999755540875
 20
-152.676296619817
 10
127.5277885965903
 20
-152.6721625052347
 10
127.5811875766116
 20
-152.6656168238127
 10
127.6442328239917
 20
-152.6573485946481
 10
127.6683484923885
 20
-152.6425346840616
 10
127.6979763135616
 20
-152.6191080347619
 10
127.6979763135616
 20
-152.6191080347619
 10
127.8423258143936
 20
-152.7861951657965
 10
127.8423258143936
 20
-152.7861951657965
 10
127.7813476243046
 20
-152.8540635468559
 10
127.7406954975787
 20
-152.9577609209619
 10
127.7203694342157
 20
-153.0084038245951
 97
        0
 97
        1
330
158
 75
     2
 76
     1
 98
        1
 10
0.0
 20
0.0
450
        0
451
        0
460
0.0
461
0.0
452
        0
462
0.0
453
        0
470

  0
SPLINE
  5
15A
330
13A
100
AcDbEntity
  8
レイヤー 1
100
AcDbSpline
210
0.0
220
0.0
230
1.0
 70
     9
 71
     3
 72
    50
 73
    46
 74
     0
 42
0.0000000001
 43
0.0000000001
 40
0.0
 40
0.0
 40
0.0
 40
0.0
 40
1.0
 40
1.0
 40
1.0
 40
2.0
 40
2.0
 40
2.0
 40
3.0
 40
3.0
 40
3.0
 40
4.0
 40
4.0
 40
4.0
 40
5.0
 40
5.0
 40
5.0
 40
6.0
 40
6.0
 40
6.0
 40
7.0
 40
7.0
 40
7.0
 40
8.0
 40
8.0
 40
8.0
 40
9.0
 40
9.0
 40
9.0
 40
10.0
 40
10.0
 40
10.0
 40
11.0
 40
11.0
 40
11.0
 40
12.0
 40
12.0
 40
12.0
 40
13.0
 40
13.0
 40
13.0
 40
14.0
 40
14.0
 40
14.0
 40
15.0
 40
15.0
 40
15.0
 40
15.0
 10
129.2182969512023
 20
-152.3676160643386
 30
0.0
 10
129.0350178713871
 20
-152.5812119844241
 30
0.0
 10
128.9723171335555
 20
-152.6532144800659
 30
0.0
 10
128.847949186538
 20
-152.7713812552099
 30
0.0
 10
128.847949186538
 20
-152.7713812552099
 30
0.0
 10
128.847949186538
 20
-153.338443972082
 30
0.0
 10
128.847949186538
 20
-153.338443972082
 30
0.0
 10
128.847949186538
 20
-153.4886501352389
 30
0.0
 10
128.8538058488629
 20
-153.5075981604078
 30
0.0
 10
128.8572509443482
 20
-153.6853650874467
 30
0.0
 10
128.8593180016393
 20
-153.8166232254347
 30
0.0
 10
128.8648301544157
 20
-153.8651990717768
 30
0.0
 10
128.8703423071921
 20
-153.9244547141231
 30
0.0
 10
128.8703423071921
 20
-153.9244547141231
 30
0.0
 10
128.6722493167902
 20
-153.9244547141231
 30
0.0
 10
128.6722493167902
 20
-153.9244547141231
 30
0.0
 10
128.676038921824
 20
-153.8800129823633
 30
0.0
 10
128.6794840173093
 20
-153.8335041933124
 30
0.0
 10
128.6794840173093
 20
-153.8248914545993
 30
0.0
 10
128.6794840173093
 20
-153.744620729793
 30
0.0
 10
128.6832736223431
 20
-153.393565499846
 30
0.0
 10
128.6832736223431
 20
-153.3215630042043
 30
0.0
 10
128.6832736223431
 20
-153.3215630042043
 30
0.0
 10
128.6832736223431
 20
-152.9153862464933
 30
0.0
 10
128.6832736223431
 20
-152.9153862464933
 30
0.0
 10
128.5241102109245
 20
-153.0400987030594
 30
0.0
 10
128.3535779844046
 20
-153.1503417585874
 30
0.0
 10
128.1758110573657
 20
-153.2368136552672
 30
0.0
 10
128.1758110573657
 20
-153.2368136552672
 30
0.0
 10
127.9980441303269
 20
-153.0738606388148
 30
0.0
 10
127.9980441303269
 20
-153.0738606388148
 30
0.0
 10
128.1055311094666
 20
-153.0380316457683
 30
0.0
 10
128.3294623160079
 20
-152.9639620928354
 30
0.0
 10
128.6312526805158
 20
-152.7079914982813
 30
0.0
 10
128.820388422656
 20
-152.5495171059598
 30
0.0
 10
128.9888535918847
 20
-152.3610703829167
 30
0.0
 10
129.1221787871639
 20
-152.1409287814092
 30
0.0
 10
129.1221787871639
 20
-152.1409287814092
 30
0.0
 10
129.2906439563926
 20
-152.2849337726926
 30
0.0
 10
129.2906439563926
 20
-152.2849337726926
 30
0.0
 10
129.3016682619454
 20
-152.2956135686969
 30
0.0
 10
129.309247472013
 20
-152.3104274792835
 30
0.0
 10
129.309247472013
 20
-152.3231743325789
 30
0.0
 10
129.309247472013
 20
-152.3631374402078
 30
0.0
 10
129.275830045806
 20
-152.3631374402078
 30
0.0
 10
129.2182969512023
 20
-152.3676160643386
 30
0.0
  0
HATCH
  5
15B
330
13A
100
AcDbEntity
  8
レイヤー 1
 62
   250
420
  2299925
440
 33554687
100
AcDbHatch
 10
0.0
 20
0.0
 30
0.0
210
0.0
220
0.0
230
1.0
  2
SOLID
 70
     1
 71
     1
 91
        1
 92
        1
 93
        1
 72
     4
 94
        3
 73
     0
 74
     0
 95
       50
 96
       46
 40
0.0
 40
0.0
 40
0.0
 40
0.0
 40
1.0
 40
1.0
 40
1.0
 40
2.0
 40
2.0
 40
2.0
 40
3.0
 40
3.0
 40
3.0
 40
4.0
 40
4.0
 40
4.0
 40
5.0
 40
5.0
 40
5.0
 40
6.0
 40
6.0
 40
6.0
 40
7.0
 40
7.0
 40
7.0
 40
8.0
 40
8.0
 40
8.0
 40
9.0
 40
9.0
 40
9.0
 40
10.0
 40
10.0
 40
10.0
 40
11.0
 40
11.0
 40
11.0
 40
12.0
 40
12.0
 40
12.0
 40
13.0
 40
13.0
 40
13.0
 40
14.0
 40
14.0
 40
14.0
 40
15.0
 40
15.0
 40
15.0
 40
15.0
 10
129.2182969512023
 20
-152.3676160643386
 10
129.0350178713871
 20
-152.5812119844241
 10
128.9723171335555
 20
-152.6532144800659
 10
128.847949186538
 20
-152.7713812552099
 10
128.847949186538
 20
-152.7713812552099
 10
128.847949186538
 20
-153.338443972082
 10
128.847949186538
 20
-153.338443972082
 10
128.847949186538
 20
-153.4886501352389
 10
128.8538058488629
 20
-153.5075981604078
 10
128.8572509443482
 20
-153.6853650874467
 10
128.8593180016393
 20
-153.8166232254347
 10
128.8648301544157
 20
-153.8651990717768
 10
128.8703423071921
 20
-153.9244547141231
 10
128.8703423071921
 20
-153.9244547141231
 10
128.6722493167902
 20
-153.9244547141231
 10
128.6722493167902
 20
-153.9244547141231
 10
128.676038921824
 20
-153.8800129823633
 10
128.6794840173093
 20
-153.8335041933124
 10
128.6794840173093
 20
-153.8248914545993
 10
128.6794840173093
 20
-153.744620729793
 10
128.6832736223431
 20
-153.393565499846
 10
128.6832736223431
 20
-153.3215630042043
 10
128.6832736223431
 20
-153.3215630042043
 10
128.6832736223431
 20
-152.9153862464933
 10
128.6832736223431
 20
-152.9153862464933
 10
128.5241102109245
 20
-153.0400987030594
 10
128.3535779844046
 20
-153.1503417585874
 10
128.1758110573657
 20
-153.2368136552672
 10
128.1758110573657
 20
-153.2368136552672
 10
127.9980441303269
 20
-153.0738606388148
 10
127.9980441303269
 20
-153.0738606388148
 10
128.1055311094666
 20
-153.0380316457683
 10
128.3294623160079
 20
-152.9639620928354
 10
128.6312526805158
 20
-152.7079914982813
 10
128.820388422656
 20
-152.5495171059598
 10
128.9888535918847
 20
-152.3610703829167
 10
129.1221787871639
 20
-152.1409287814092
 10
129.1221787871639
 20
-152.1409287814092
 10
129.2906439563926
 20
-152.2849337726926
 10
129.2906439563926
 20
-152.2849337726926
 10
129.3016682619454
 20
-152.2956135686969
 10
129.309247472013
 20
-152.3104274792835
 10
129.309247472013
 20
-152.3231743325789
 10
129.309247472013
 20
-152.3631374402078
 10
129.275830045806
 20
-152.3631374402078
 10
129.2182969512023
 20
-152.3676160643386
 97
        0
 97
        1
330
15A
 75
     2
 76
     1
 98
        1
 10
0.0
 20
0.0
450
        0
451
        0
460
0.0
461
0.0
452
        0
462
0.0
453
        0
470

  0
SPLINE
  5
15C
330
13A
100
AcDbEntity
  8
レイヤー 1
100
AcDbSpline
210
0.0
220
0.0
230
1.0
 70
     9
 71
     3
 72
    50
 73
    46
 74
     0
 42
0.0000000001
 43
0.0000000001
 40
0.0
 40
0.0
 40
0.0
 40
0.0
 40
1.0
 40
1.0
 40
1.0
 40
2.0
 40
2.0
 40
2.0
 40
3.0
 40
3.0
 40
3.0
 40
4.0
 40
4.0
 40
4.0
 40
5.0
 40
5.0
 40
5.0
 40
6.0
 40
6.0
 40
6.0
 40
7.0
 40
7.0
 40
7.0
 40
8.0
 40
8.0
 40
8.0
 40
9.0
 40
9.0
 40
9.0
 40
10.0
 40
10.0
 40
10.0
 40
11.0
 40
11.0
 40
11.0
 40
12.0
 40
12.0
 40
12.0
 40
13.0
 40
13.0
 40
13.0
 40
14.0
 40
14.0
 40
14.0
 40
15.0
 40
15.0
 40
15.0
 40
15.0
 10
130.7145019204464
 20
-152.8943711640333
 30
0.0
 10
130.661102940425
 20
-152.9660291501265
 30
0.0
 10
130.4330376193014
 20
-153.283322444318
 30
0.0
 10
130.3830837347653
 20
-153.3470567107952
 30
0.0
 10
130.4571532876982
 20
-153.4442084034792
 30
0.0
 10
130.5015950194579
 20
-153.5075981604078
 30
0.0
 10
130.5591281140616
 20
-153.5985486812184
 30
0.0
 10
130.5591281140616
 20
-153.5985486812184
 30
0.0
 10
130.3978976453519
 20
-153.7363525006284
 30
0.0
 10
130.3978976453519
 20
-153.7363525006284
 30
0.0
 10
130.2793863606593
 20
-153.5244791282855
 30
0.0
 10
130.1295247070509
 20
-153.3005479217443
 30
0.0
 10
129.8721760743028
 20
-153.1014214026968
 30
0.0
 10
129.8721760743028
 20
-153.1014214026968
 30
0.0
 10
130.0017116645482
 20
-152.9470811249577
 30
0.0
 10
130.0017116645482
 20
-152.9470811249577
 30
0.0
 10
130.0981743381351
 20
-153.027351849764
 30
0.0
 10
130.1887803493972
 20
-153.1162353132834
 30
0.0
 10
130.2738742078829
 20
-153.2116644582248
 30
0.0
 10
130.3331298502292
 20
-153.1355278480008
 30
0.0
 10
130.5108967772681
 20
-152.8919595971937
 30
0.0
 10
130.6276855142181
 20
-152.6635497665216
 30
0.0
 10
130.6276855142181
 20
-152.6635497665216
 30
0.0
 10
130.0389186957888
 20
-152.6635497665216
 30
0.0
 10
130.0389186957888
 20
-152.6635497665216
 30
0.0
 10
129.9293646593579
 20
-152.6635497665216
 30
0.0
 10
129.7092230578504
 20
-152.6721625052347
 30
0.0
 10
129.5259439780352
 20
-152.6824977916905
 30
0.0
 10
129.5259439780352
 20
-152.6824977916905
 30
0.0
 10
129.5259439780352
 20
-152.4627006997315
 30
0.0
 10
129.5259439780352
 20
-152.4627006997315
 30
0.0
 10
129.6868299371963
 20
-152.4816487249004
 30
0.0
 10
129.8666639215264
 20
-152.4857828394827
 30
0.0
 10
130.0313394857213
 20
-152.4857828394827
 30
0.0
 10
130.0313394857213
 20
-152.4857828394827
 30
0.0
 10
130.4719671982848
 20
-152.4857828394827
 30
0.0
 10
130.4719671982848
 20
-152.4857828394827
 30
0.0
 10
130.7682454100163
 20
-152.4857828394827
 30
0.0
 10
130.8071749889996
 20
-152.4709689288961
 30
0.0
 10
130.8795219941898
 20
-152.4310058212672
 30
0.0
 10
130.8795219941898
 20
-152.4310058212672
 30
0.0
 10
131.0255940427644
 20
-152.5894802135887
 30
0.0
 10
131.0255940427644
 20
-152.5894802135887
 30
0.0
 10
130.8922688474853
 20
-152.6614827092305
 30
0.0
 10
130.7665228622736
 20
-152.8244357256828
 30
0.0
 10
130.7145019204464
 20
-152.8943711640333
 30
0.0
  0
HATCH
  5
15D
330
13A
100
AcDbEntity
  8
レイヤー 1
 62
   250
420
  2299925
440
 33554687
100
AcDbHatch
 10
0.0
 20
0.0
 30
0.0
210
0.0
220
0.0
230
1.0
  2
SOLID
 70
     1
 71
     1
 91
        1
 92
        1
 93
        1
 72
     4
 94
        3
 73
     0
 74
     0
 95
       50
 96
       46
 40
0.0
 40
0.0
 40
0.0
 40
0.0
 40
1.0
 40
1.0
 40
1.0
 40
2.0
 40
2.0
 40
2.0
 40
3.0
 40
3.0
 40
3.0
 40
4.0
 40
4.0
 40
4.0
 40
5.0
 40
5.0
 40
5.0
 40
6.0
 40
6.0
 40
6.0
 40
7.0
 40
7.0
 40
7.0
 40
8.0
 40
8.0
 40
8.0
 40
9.0
 40
9.0
 40
9.0
 40
10.0
 40
10.0
 40
10.0
 40
11.0
 40
11.0
 40
11.0
 40
12.0
 40
12.0
 40
12.0
 40
13.0
 40
13.0
 40
13.0
 40
14.0
 40
14.0
 40
14.0
 40
15.0
 40
15.0
 40
15.0
 40
15.0
 10
130.7145019204464
 20
-152.8943711640333
 10
130.661102940425
 20
-152.9660291501265
 10
130.4330376193014
 20
-153.283322444318
 10
130.3830837347653
 20
-153.3470567107952
 10
130.4571532876982
 20
-153.4442084034792
 10
130.5015950194579
 20
-153.5075981604078
 10
130.5591281140616
 20
-153.5985486812184
 10
130.5591281140616
 20
-153.5985486812184
 10
130.3978976453519
 20
-153.7363525006284
 10
130.3978976453519
 20
-153.7363525006284
 10
130.2793863606593
 20
-153.5244791282855
 10
130.1295247070509
 20
-153.3005479217443
 10
129.8721760743028
 20
-153.1014214026968
 10
129.8721760743028
 20
-153.1014214026968
 10
130.0017116645482
 20
-152.9470811249577
 10
130.0017116645482
 20
-152.9470811249577
 10
130.0981743381351
 20
-153.027351849764
 10
130.1887803493972
 20
-153.1162353132834
 10
130.2738742078829
 20
-153.2116644582248
 10
130.3331298502292
 20
-153.1355278480008
 10
130.5108967772681
 20
-152.8919595971937
 10
130.6276855142181
 20
-152.6635497665216
 10
130.6276855142181
 20
-152.6635497665216
 10
130.0389186957888
 20
-152.6635497665216
 10
130.0389186957888
 20
-152.6635497665216
 10
129.9293646593579
 20
-152.6635497665216
 10
129.7092230578504
 20
-152.6721625052347
 10
129.5259439780352
 20
-152.6824977916905
 10
129.5259439780352
 20
-152.6824977916905
 10
129.5259439780352
 20
-152.4627006997315
 10
129.5259439780352
 20
-152.4627006997315
 10
129.6868299371963
 20
-152.4816487249004
 10
129.8666639215264
 20
-152.4857828394827
 10
130.0313394857213
 20
-152.4857828394827
 10
130.0313394857213
 20
-152.4857828394827
 10
130.4719671982848
 20
-152.4857828394827
 10
130.4719671982848
 20
-152.4857828394827
 10
130.7682454100163
 20
-152.4857828394827
 10
130.8071749889996
 20
-152.4709689288961
 10
130.8795219941898
 20
-152.4310058212672
 10
130.8795219941898
 20
-152.4310058212672
 10
131.0255940427644
 20
-152.5894802135887
 10
131.0255940427644
 20
-152.5894802135887
 10
130.8922688474853
 20
-152.6614827092305
 10
130.7665228622736
 20
-152.8244357256828
 10
130.7145019204464
 20
-152.8943711640333
 97
        0
 97
        1
330
15C
 75
     2
 76
     1
 98
        1
 10
0.0
 20
0.0
450
        0
451
        0
460
0.0
461
0.0
452
        0
462
0.0
453
        0
470

  0
SPLINE
  5
15E
330
13A
100
AcDbEntity
  8
レイヤー 1
100
AcDbSpline
210
0.0
220
0.0
230
1.0
 70
     9
 71
     3
 72
    29
 73
    25
 74
     0
 42
0.0000000001
 43
0.0000000001
 40
0.0
 40
0.0
 40
0.0
 40
0.0
 40
1.0
 40
1.0
 40
1.0
 40
2.0
 40
2.0
 40
2.0
 40
3.0
 40
3.0
 40
3.0
 40
4.0
 40
4.0
 40
4.0
 40
5.0
 40
5.0
 40
5.0
 40
6.0
 40
6.0
 40
6.0
 40
7.0
 40
7.0
 40
7.0
 40
8.0
 40
8.0
 40
8.0
 40
8.0
 10
132.136981846306
 20
-153.137594905292
 30
0.0
 10
132.136981846306
 20
-153.137594905292
 30
0.0
 10
131.7128905920718
 20
-153.137594905292
 30
0.0
 10
131.7128905920718
 20
-153.137594905292
 30
0.0
 10
131.688774923675
 20
-153.137594905292
 30
0.0
 10
131.4107557180153
 20
-153.137594905292
 30
0.0
 10
131.2257540904574
 20
-153.1627441023343
 30
0.0
 10
131.2257540904574
 20
-153.1627441023343
 30
0.0
 10
131.2257540904574
 20
-152.9322672143711
 30
0.0
 10
131.2257540904574
 20
-152.9322672143711
 30
0.0
 10
131.364591438513
 20
-152.9556938636708
 30
0.0
 10
131.5313340599991
 20
-152.9577609209619
 30
0.0
 10
131.7128905920718
 20
-152.9577609209619
 30
0.0
 10
131.7128905920718
 20
-152.9577609209619
 30
0.0
 10
132.136981846306
 20
-152.9577609209619
 30
0.0
 10
132.136981846306
 20
-152.9577609209619
 30
0.0
 10
132.2995903532098
 20
-152.9577609209619
 30
0.0
 10
132.4628878792107
 20
-152.9556938636708
 30
0.0
 10
132.6237738383718
 20
-152.9322672143711
 30
0.0
 10
132.6237738383718
 20
-152.9322672143711
 30
0.0
 10
132.6237738383718
 20
-153.1627441023343
 30
0.0
 10
132.6237738383718
 20
-153.1627441023343
 30
0.0
 10
132.4628878792107
 20
-153.1396619625831
 30
0.0
 10
132.2461913731884
 20
-153.137594905292
 30
0.0
 10
132.136981846306
 20
-153.137594905292
 30
0.0
  0
HATCH
  5
15F
330
13A
100
AcDbEntity
  8
レイヤー 1
 62
   250
420
  2299925
440
 33554687
100
AcDbHatch
 10
0.0
 20
0.0
 30
0.0
210
0.0
220
0.0
230
1.0
  2
SOLID
 70
     1
 71
     1
 91
        1
 92
        1
 93
        1
 72
     4
 94
        3
 73
     0
 74
     0
 95
       29
 96
       25
 40
0.0
 40
0.0
 40
0.0
 40
0.0
 40
1.0
 40
1.0
 40
1.0
 40
2.0
 40
2.0
 40
2.0
 40
3.0
 40
3.0
 40
3.0
 40
4.0
 40
4.0
 40
4.0
 40
5.0
 40
5.0
 40
5.0
 40
6.0
 40
6.0
 40
6.0
 40
7.0
 40
7.0
 40
7.0
 40
8.0
 40
8.0
 40
8.0
 40
8.0
 10
132.136981846306
 20
-153.137594905292
 10
132.136981846306
 20
-153.137594905292
 10
131.7128905920718
 20
-153.137594905292
 10
131.7128905920718
 20
-153.137594905292
 10
131.688774923675
 20
-153.137594905292
 10
131.4107557180153
 20
-153.137594905292
 10
131.2257540904574
 20
-153.1627441023343
 10
131.2257540904574
 20
-153.1627441023343
 10
131.2257540904574
 20
-152.9322672143711
 10
131.2257540904574
 20
-152.9322672143711
 10
131.364591438513
 20
-152.9556938636708
 10
131.5313340599991
 20
-152.9577609209619
 10
131.7128905920718
 20
-152.9577609209619
 10
131.7128905920718
 20
-152.9577609209619
 10
132.136981846306
 20
-152.9577609209619
 10
132.136981846306
 20
-152.9577609209619
 10
132.2995903532098
 20
-152.9577609209619
 10
132.4628878792107
 20
-152.9556938636708
 10
132.6237738383718
 20
-152.9322672143711
 10
132.6237738383718
 20
-152.9322672143711
 10
132.6237738383718
 20
-153.1627441023343
 10
132.6237738383718
 20
-153.1627441023343
 10
132.4628878792107
 20
-153.1396619625831
 10
132.2461913731884
 20
-153.137594905292
 10
132.136981846306
 20
-153.137594905292
 97
        0
 97
        1
330
15E
 75
     2
 76
     1
 98
        1
 10
0.0
 20
0.0
450
        0
451
        0
460
0.0
461
0.0
452
        0
462
0.0
453
        0
470

  0
SPLINE
  5
160
330
13A
100
AcDbEntity
  8
レイヤー 1
100
AcDbSpline
210
0.0
220
0.0
230
1.0
 70
     9
 71
     3
 72
    20
 73
    16
 74
     0
 42
0.0000000001
 43
0.0000000001
 40
0.0
 40
0.0
 40
0.0
 40
0.0
 40
1.0
 40
1.0
 40
1.0
 40
2.0
 40
2.0
 40
2.0
 40
3.0
 40
3.0
 40
3.0
 40
4.0
 40
4.0
 40
4.0
 40
5.0
 40
5.0
 40
5.0
 40
5.0
 10
133.7127685212593
 20
-153.4886501352389
 30
0.0
 10
133.6721163945333
 20
-153.3108832082
 30
0.0
 10
133.5870225360477
 20
-153.1692897837563
 30
0.0
 10
133.4647216463213
 20
-153.0593912377768
 30
0.0
 10
133.4647216463213
 20
-153.0593912377768
 30
0.0
 10
133.605626051668
 20
-152.9450140676665
 30
0.0
 10
133.605626051668
 20
-152.9450140676665
 30
0.0
 10
133.6590250316894
 20
-152.9873887421351
 30
0.0
 10
133.6945095151875
 20
-153.0211506778905
 30
0.0
 10
133.7609998580528
 20
-153.1289821665789
 30
0.0
 10
133.8312798059519
 20
-153.2454263939803
 30
0.0
 10
133.8498833215722
 20
-153.2981363549046
 30
0.0
 10
133.8722764422264
 20
-153.3639376786729
 30
0.0
 10
133.8722764422264
 20
-153.3639376786729
 30
0.0
 10
133.7127685212593
 20
-153.4886501352389
 30
0.0
 10
133.7127685212593
 20
-153.4886501352389
 30
0.0
  0
SPLINE
  5
161
330
13A
100
AcDbEntity
  8
レイヤー 1
100
AcDbSpline
210
0.0
220
0.0
230
1.0
 70
     9
 71
     3
 72
    77
 73
    73
 74
     0
 42
0.0000000001
 43
0.0000000001
 40
0.0
 40
0.0
 40
0.0
 40
0.0
 40
1.0
 40
1.0
 40
1.0
 40
2.0
 40
2.0
 40
2.0
 40
3.0
 40
3.0
 40
3.0
 40
4.0
 40
4.0
 40
4.0
 40
5.0
 40
5.0
 40
5.0
 40
6.0
 40
6.0
 40
6.0
 40
7.0
 40
7.0
 40
7.0
 40
8.0
 40
8.0
 40
8.0
 40
9.0
 40
9.0
 40
9.0
 40
10.0
 40
10.0
 40
10.0
 40
11.0
 40
11.0
 40
11.0
 40
12.0
 40
12.0
 40
12.0
 40
13.0
 40
13.0
 40
13.0
 40
14.0
 40
14.0
 40
14.0
 40
15.0
 40
15.0
 40
15.0
 40
16.0
 40
16.0
 40
16.0
 40
17.0
 40
17.0
 40
17.0
 40
18.0
 40
18.0
 40
18.0
 40
19.0
 40
19.0
 40
19.0
 40
20.0
 40
20.0
 40
20.0
 40
21.0
 40
21.0
 40
21.0
 40
22.0
 40
22.0
 40
22.0
 40
23.0
 40
23.0
 40
23.0
 40
24.0
 40
24.0
 40
24.0
 40
24.0
 10
134.3869737077227
 20
-152.7631130260453
 30
0.0
 10
134.3259955176338
 20
-152.758978911463
 30
0.0
 10
134.2667398752875
 20
-152.758978911463
 30
0.0
 10
134.2074842329412
 20
-152.758978911463
 30
0.0
 10
134.2074842329412
 20
-152.758978911463
 30
0.0
 10
134.2074842329412
 20
-153.5330918669987
 30
0.0
 10
134.2074842329412
 20
-153.5330918669987
 30
0.0
 10
134.2074842329412
 20
-153.7976752002658
 30
0.0
 10
134.20541717565
 20
-153.827303021439
 30
0.0
 10
134.1999050228736
 20
-153.8569308426122
 30
0.0
 10
134.1702772017005
 20
-153.9899115283428
 30
0.0
 10
134.081393738181
 20
-153.9985242670559
 30
0.0
 10
133.9277424795389
 20
-153.9985242670559
 30
0.0
 10
133.8926025055893
 20
-153.9985242670559
 30
0.0
 10
133.8777885950028
 20
-153.9985242670559
 30
0.0
 10
133.8426486210532
 20
-153.9943901524736
 30
0.0
 10
133.8426486210532
 20
-153.9943901524736
 30
0.0
 10
133.7334390941708
 20
-153.7532334685061
 30
0.0
 10
133.7334390941708
 20
-153.7532334685061
 30
0.0
 10
133.8350694109857
 20
-153.7849283469704
 30
0.0
 10
133.9074164161759
 20
-153.7849283469704
 30
0.0
 10
133.9277424795389
 20
-153.7849283469704
 30
0.0
 10
133.9887206696278
 20
-153.7849283469704
 30
0.0
 10
134.018348490801
 20
-153.7680473790927
 30
0.0
 10
134.0221380958347
 20
-153.7108587940375
 30
0.0
 10
134.0221380958347
 20
-153.6981119407421
 30
0.0
 10
134.0238606435773
 20
-153.6009602480581
 30
0.0
 10
134.0238606435773
 20
-153.5437716630029
 30
0.0
 10
134.0238606435773
 20
-153.5437716630029
 30
0.0
 10
134.0238606435773
 20
-152.7565673446233
 30
0.0
 10
134.0238606435773
 20
-152.7565673446233
 30
0.0
 10
134.0238606435773
 20
-152.7565673446233
 30
0.0
 10
133.7665120108292
 20
-152.7565673446233
 30
0.0
 10
133.7665120108292
 20
-152.7565673446233
 30
0.0
 10
133.6386989683264
 20
-152.7565673446233
 30
0.0
 10
133.5108859258237
 20
-152.7631130260453
 30
0.0
 10
133.385139940612
 20
-152.7758598793407
 30
0.0
 10
133.385139940612
 20
-152.7758598793407
 30
0.0
 10
133.385139940612
 20
-152.5684651311287
 30
0.0
 10
133.385139940612
 20
-152.5684651311287
 30
0.0
 10
133.5167425881486
 20
-152.5812119844241
 30
0.0
 10
133.7072563684829
 20
-152.5853460990064
 30
0.0
 10
133.7665120108292
 20
-152.5853460990064
 30
0.0
 10
133.7665120108292
 20
-152.5853460990064
 30
0.0
 10
134.0238606435773
 20
-152.5853460990064
 30
0.0
 10
134.0238606435773
 20
-152.5853460990064
 30
0.0
 10
134.0221380958347
 20
-152.3166286511569
 30
0.0
 10
134.0221380958347
 20
-152.2404920409329
 30
0.0
 10
134.0145588857672
 20
-152.0923529350672
 30
0.0
 10
134.0145588857672
 20
-152.0923529350672
 30
0.0
 10
134.2405571495996
 20
-152.1305934949535
 30
0.0
 10
134.2405571495996
 20
-152.1305934949535
 30
0.0
 10
134.2536485124435
 20
-152.1326605522446
 30
0.0
 10
134.2667398752875
 20
-152.138861724118
 30
0.0
 10
134.2667398752875
 20
-152.1602213161266
 30
0.0
 10
134.2667398752875
 20
-152.1791693412955
 30
0.0
 10
134.2608832129625
 20
-152.1812363985866
 30
0.0
 10
134.2109293284264
 20
-152.2149983343421
 30
0.0
 10
134.2074842329412
 20
-152.2935465114058
 30
0.0
 10
134.2074842329412
 20
-152.3083604219923
 30
0.0
 10
134.2074842329412
 20
-152.5853460990064
 30
0.0
 10
134.3628580393259
 20
-152.5812119844241
 30
0.0
 10
134.3793944976551
 20
-152.5812119844241
 30
0.0
 10
134.4090223188283
 20
-152.5767333602933
 30
0.0
 10
134.453464050588
 20
-152.572599245711
 30
0.0
 10
134.4572536556218
 20
-152.5705321884198
 30
0.0
 10
134.4961832346051
 20
-152.5684651311287
 30
0.0
 10
134.4961832346051
 20
-152.5684651311287
 30
0.0
 10
134.4961832346051
 20
-152.7758598793407
 30
0.0
 10
134.4961832346051
 20
-152.7758598793407
 30
0.0
 10
134.4703450184657
 20
-152.7737928220496
 30
0.0
 10
134.4221136816722
 20
-152.7651800833365
 30
0.0
 10
134.3869737077227
 20
-152.7631130260453
 30
0.0
  0
SPLINE
  5
162
330
13A
100
AcDbEntity
  8
レイヤー 1
100
AcDbSpline
210
0.0
220
0.0
230
1.0
 70
     9
 71
     3
 72
    53
 73
    49
 74
     0
 42
0.0000000001
 43
0.0000000001
 40
0.0
 40
0.0
 40
0.0
 40
0.0
 40
1.0
 40
1.0
 40
1.0
 40
2.0
 40
2.0
 40
2.0
 40
3.0
 40
3.0
 40
3.0
 40
4.0
 40
4.0
 40
4.0
 40
5.0
 40
5.0
 40
5.0
 40
6.0
 40
6.0
 40
6.0
 40
7.0
 40
7.0
 40
7.0
 40
8.0
 40
8.0
 40
8.0
 40
9.0
 40
9.0
 40
9.0
 40
10.0
 40
10.0
 40
10.0
 40
11.0
 40
11.0
 40
11.0
 40
12.0
 40
12.0
 40
12.0
 40
13.0
 40
13.0
 40
13.0
 40
14.0
 40
14.0
 40
14.0
 40
15.0
 40
15.0
 40
15.0
 40
16.0
 40
16.0
 40
16.0
 40
16.0
 10
133.3796277878356
 20
-152.2639186902326
 30
0.0
 10
133.3203721454893
 20
-152.4161919106806
 30
0.0
 10
133.2831651142486
 20
-152.4943955781958
 30
0.0
 10
133.2500921975902
 20
-152.5619194497067
 30
0.0
 10
133.2869547192824
 20
-152.5832790417153
 30
0.0
 10
133.2907443243162
 20
-152.5853460990064
 30
0.0
 10
133.2907443243162
 20
-152.600160009593
 30
0.0
 10
133.2907443243162
 20
-152.6129068628884
 30
0.0
 10
133.261116503143
 20
-152.6466687986439
 30
0.0
 10
133.2518147453329
 20
-152.655281537357
 30
0.0
 10
133.2500921975902
 20
-152.8519964895648
 30
0.0
 10
133.2500921975902
 20
-152.8730115720248
 30
0.0
 10
133.2500921975902
 20
-153.006336767304
 30
0.0
 10
133.2480251402991
 20
-153.0190836205994
 30
0.0
 10
133.2480251402991
 20
-153.0338975311859
 30
0.0
 10
133.2480251402991
 20
-153.0487114417725
 30
0.0
 10
133.2480251402991
 20
-153.0487114417725
 30
0.0
 10
133.2480251402991
 20
-153.5837347706318
 30
0.0
 10
133.2480251402991
 20
-153.5837347706318
 30
0.0
 10
133.2480251402991
 20
-153.6557372662735
 30
0.0
 10
133.2518147453329
 20
-153.8906927783676
 30
0.0
 10
133.2593939554004
 20
-154.0005913243471
 30
0.0
 10
133.2593939554004
 20
-154.0005913243471
 30
0.0
 10
133.0461425448634
 20
-154.0005913243471
 30
0.0
 10
133.0461425448634
 20
-154.0005913243471
 30
0.0
 10
133.0664686082264
 20
-153.8421169320256
 30
0.0
 10
133.0723252705513
 20
-153.6009602480581
 30
0.0
 10
133.0723252705513
 20
-153.5796006560495
 30
0.0
 10
133.0723252705513
 20
-153.5796006560495
 30
0.0
 10
133.0723252705513
 20
-152.8623317760205
 30
0.0
 10
133.0723252705513
 20
-152.8623317760205
 30
0.0
 10
132.9927435648421
 20
-152.9767089461308
 30
0.0
 10
132.9390000752722
 20
-153.0359645884771
 30
0.0
 10
132.9017930440315
 20
-153.0783392629457
 30
0.0
 10
132.9017930440315
 20
-153.0783392629457
 30
0.0
 10
132.7350504225454
 20
-152.9408799530842
 30
0.0
 10
132.7350504225454
 20
-152.9408799530842
 30
0.0
 10
132.9813747497408
 20
-152.724872466159
 30
0.0
 10
133.1498399189695
 20
-152.4161919106806
 30
0.0
 10
133.2480251402991
 20
-152.0796060817717
 30
0.0
 10
133.2480251402991
 20
-152.0796060817717
 30
0.0
 10
133.4406059779245
 20
-152.193983251882
 30
0.0
 10
133.4406059779245
 20
-152.193983251882
 30
0.0
 10
133.4516302834774
 20
-152.2001844237555
 30
0.0
 10
133.4592094935449
 20
-152.2046630478863
 30
0.0
 10
133.4592094935449
 20
-152.2194769584729
 30
0.0
 10
133.4592094935449
 20
-152.2446261555152
 30
0.0
 10
133.4443955829583
 20
-152.2491047796461
 30
0.0
 10
133.3796277878356
 20
-152.2639186902326
 30
0.0
  0
HATCH
  5
163
330
13A
100
AcDbEntity
  8
レイヤー 1
 62
   250
420
  2299925
440
 33554687
100
AcDbHatch
 10
0.0
 20
0.0
 30
0.0
210
0.0
220
0.0
230
1.0
  2
SOLID
 70
     1
 71
     1
 91
        3
 92
        1
 93
        1
 72
     4
 94
        3
 73
     0
 74
     0
 95
       20
 96
       16
 40
0.0
 40
0.0
 40
0.0
 40
0.0
 40
1.0
 40
1.0
 40
1.0
 40
2.0
 40
2.0
 40
2.0
 40
3.0
 40
3.0
 40
3.0
 40
4.0
 40
4.0
 40
4.0
 40
5.0
 40
5.0
 40
5.0
 40
5.0
 10
133.7127685212593
 20
-153.4886501352389
 10
133.6721163945333
 20
-153.3108832082
 10
133.5870225360477
 20
-153.1692897837563
 10
133.4647216463213
 20
-153.0593912377768
 10
133.4647216463213
 20
-153.0593912377768
 10
133.605626051668
 20
-152.9450140676665
 10
133.605626051668
 20
-152.9450140676665
 10
133.6590250316894
 20
-152.9873887421351
 10
133.6945095151875
 20
-153.0211506778905
 10
133.7609998580528
 20
-153.1289821665789
 10
133.8312798059519
 20
-153.2454263939803
 10
133.8498833215722
 20
-153.2981363549046
 10
133.8722764422264
 20
-153.3639376786729
 10
133.8722764422264
 20
-153.3639376786729
 10
133.7127685212593
 20
-153.4886501352389
 10
133.7127685212593
 20
-153.4886501352389
 97
        0
 97
        1
330
160
 92
        1
 93
        1
 72
     4
 94
        3
 73
     0
 74
     0
 95
       77
 96
       73
 40
0.0
 40
0.0
 40
0.0
 40
0.0
 40
1.0
 40
1.0
 40
1.0
 40
2.0
 40
2.0
 40
2.0
 40
3.0
 40
3.0
 40
3.0
 40
4.0
 40
4.0
 40
4.0
 40
5.0
 40
5.0
 40
5.0
 40
6.0
 40
6.0
 40
6.0
 40
7.0
 40
7.0
 40
7.0
 40
8.0
 40
8.0
 40
8.0
 40
9.0
 40
9.0
 40
9.0
 40
10.0
 40
10.0
 40
10.0
 40
11.0
 40
11.0
 40
11.0
 40
12.0
 40
12.0
 40
12.0
 40
13.0
 40
13.0
 40
13.0
 40
14.0
 40
14.0
 40
14.0
 40
15.0
 40
15.0
 40
15.0
 40
16.0
 40
16.0
 40
16.0
 40
17.0
 40
17.0
 40
17.0
 40
18.0
 40
18.0
 40
18.0
 40
19.0
 40
19.0
 40
19.0
 40
20.0
 40
20.0
 40
20.0
 40
21.0
 40
21.0
 40
21.0
 40
22.0
 40
22.0
 40
22.0
 40
23.0
 40
23.0
 40
23.0
 40
24.0
 40
24.0
 40
24.0
 40
24.0
 10
134.3869737077227
 20
-152.7631130260453
 10
134.3259955176338
 20
-152.758978911463
 10
134.2667398752875
 20
-152.758978911463
 10
134.2074842329412
 20
-152.758978911463
 10
134.2074842329412
 20
-152.758978911463
 10
134.2074842329412
 20
-153.5330918669987
 10
134.2074842329412
 20
-153.5330918669987
 10
134.2074842329412
 20
-153.7976752002658
 10
134.20541717565
 20
-153.827303021439
 10
134.1999050228736
 20
-153.8569308426122
 10
134.1702772017005
 20
-153.9899115283428
 10
134.081393738181
 20
-153.9985242670559
 10
133.9277424795389
 20
-153.9985242670559
 10
133.8926025055893
 20
-153.9985242670559
 10
133.8777885950028
 20
-153.9985242670559
 10
133.8426486210532
 20
-153.9943901524736
 10
133.8426486210532
 20
-153.9943901524736
 10
133.7334390941708
 20
-153.7532334685061
 10
133.7334390941708
 20
-153.7532334685061
 10
133.8350694109857
 20
-153.7849283469704
 10
133.9074164161759
 20
-153.7849283469704
 10
133.9277424795389
 20
-153.7849283469704
 10
133.9887206696278
 20
-153.7849283469704
 10
134.018348490801
 20
-153.7680473790927
 10
134.0221380958347
 20
-153.7108587940375
 10
134.0221380958347
 20
-153.6981119407421
 10
134.0238606435773
 20
-153.6009602480581
 10
134.0238606435773
 20
-153.5437716630029
 10
134.0238606435773
 20
-153.5437716630029
 10
134.0238606435773
 20
-152.7565673446233
 10
134.0238606435773
 20
-152.7565673446233
 10
134.0238606435773
 20
-152.7565673446233
 10
133.7665120108292
 20
-152.7565673446233
 10
133.7665120108292
 20
-152.7565673446233
 10
133.6386989683264
 20
-152.7565673446233
 10
133.5108859258237
 20
-152.7631130260453
 10
133.385139940612
 20
-152.7758598793407
 10
133.385139940612
 20
-152.7758598793407
 10
133.385139940612
 20
-152.5684651311287
 10
133.385139940612
 20
-152.5684651311287
 10
133.5167425881486
 20
-152.5812119844241
 10
133.7072563684829
 20
-152.5853460990064
 10
133.7665120108292
 20
-152.5853460990064
 10
133.7665120108292
 20
-152.5853460990064
 10
134.0238606435773
 20
-152.5853460990064
 10
134.0238606435773
 20
-152.5853460990064
 10
134.0221380958347
 20
-152.3166286511569
 10
134.0221380958347
 20
-152.2404920409329
 10
134.0145588857672
 20
-152.0923529350672
 10
134.0145588857672
 20
-152.0923529350672
 10
134.2405571495996
 20
-152.1305934949535
 10
134.2405571495996
 20
-152.1305934949535
 10
134.2536485124435
 20
-152.1326605522446
 10
134.2667398752875
 20
-152.138861724118
 10
134.2667398752875
 20
-152.1602213161266
 10
134.2667398752875
 20
-152.1791693412955
 10
134.2608832129625
 20
-152.1812363985866
 10
134.2109293284264
 20
-152.2149983343421
 10
134.2074842329412
 20
-152.2935465114058
 10
134.2074842329412
 20
-152.3083604219923
 10
134.2074842329412
 20
-152.5853460990064
 10
134.3628580393259
 20
-152.5812119844241
 10
134.3793944976551
 20
-152.5812119844241
 10
134.4090223188283
 20
-152.5767333602933
 10
134.453464050588
 20
-152.572599245711
 10
134.4572536556218
 20
-152.5705321884198
 10
134.4961832346051
 20
-152.5684651311287
 10
134.4961832346051
 20
-152.5684651311287
 10
134.4961832346051
 20
-152.7758598793407
 10
134.4961832346051
 20
-152.7758598793407
 10
134.4703450184657
 20
-152.7737928220496
 10
134.4221136816722
 20
-152.7651800833365
 10
134.3869737077227
 20
-152.7631130260453
 97
        0
 97
        1
330
161
 92
        1
 93
        1
 72
     4
 94
        3
 73
     0
 74
     0
 95
       53
 96
       49
 40
0.0
 40
0.0
 40
0.0
 40
0.0
 40
1.0
 40
1.0
 40
1.0
 40
2.0
 40
2.0
 40
2.0
 40
3.0
 40
3.0
 40
3.0
 40
4.0
 40
4.0
 40
4.0
 40
5.0
 40
5.0
 40
5.0
 40
6.0
 40
6.0
 40
6.0
 40
7.0
 40
7.0
 40
7.0
 40
8.0
 40
8.0
 40
8.0
 40
9.0
 40
9.0
 40
9.0
 40
10.0
 40
10.0
 40
10.0
 40
11.0
 40
11.0
 40
11.0
 40
12.0
 40
12.0
 40
12.0
 40
13.0
 40
13.0
 40
13.0
 40
14.0
 40
14.0
 40
14.0
 40
15.0
 40
15.0
 40
15.0
 40
16.0
 40
16.0
 40
16.0
 40
16.0
 10
133.3796277878356
 20
-152.2639186902326
 10
133.3203721454893
 20
-152.4161919106806
 10
133.2831651142486
 20
-152.4943955781958
 10
133.2500921975902
 20
-152.5619194497067
 10
133.2869547192824
 20
-152.5832790417153
 10
133.2907443243162
 20
-152.5853460990064
 10
133.2907443243162
 20
-152.600160009593
 10
133.2907443243162
 20
-152.6129068628884
 10
133.261116503143
 20
-152.6466687986439
 10
133.2518147453329
 20
-152.655281537357
 10
133.2500921975902
 20
-152.8519964895648
 10
133.2500921975902
 20
-152.8730115720248
 10
133.2500921975902
 20
-153.006336767304
 10
133.2480251402991
 20
-153.0190836205994
 10
133.2480251402991
 20
-153.0338975311859
 10
133.2480251402991
 20
-153.0487114417725
 10
133.2480251402991
 20
-153.0487114417725
 10
133.2480251402991
 20
-153.5837347706318
 10
133.2480251402991
 20
-153.5837347706318
 10
133.2480251402991
 20
-153.6557372662735
 10
133.2518147453329
 20
-153.8906927783676
 10
133.2593939554004
 20
-154.0005913243471
 10
133.2593939554004
 20
-154.0005913243471
 10
133.0461425448634
 20
-154.0005913243471
 10
133.0461425448634
 20
-154.0005913243471
 10
133.0664686082264
 20
-153.8421169320256
 10
133.0723252705513
 20
-153.6009602480581
 10
133.0723252705513
 20
-153.5796006560495
 10
133.0723252705513
 20
-153.5796006560495
 10
133.0723252705513
 20
-152.8623317760205
 10
133.0723252705513
 20
-152.8623317760205
 10
132.9927435648421
 20
-152.9767089461308
 10
132.9390000752722
 20
-153.0359645884771
 10
132.9017930440315
 20
-153.0783392629457
 10
132.9017930440315
 20
-153.0783392629457
 10
132.7350504225454
 20
-152.9408799530842
 10
132.7350504225454
 20
-152.9408799530842
 10
132.9813747497408
 20
-152.724872466159
 10
133.1498399189695
 20
-152.4161919106806
 10
133.2480251402991
 20
-152.0796060817717
 10
133.2480251402991
 20
-152.0796060817717
 10
133.4406059779245
 20
-152.193983251882
 10
133.4406059779245
 20
-152.193983251882
 10
133.4516302834774
 20
-152.2001844237555
 10
133.4592094935449
 20
-152.2046630478863
 10
133.4592094935449
 20
-152.2194769584729
 10
133.4592094935449
 20
-152.2446261555152
 10
133.4443955829583
 20
-152.2491047796461
 10
133.3796277878356
 20
-152.2639186902326
 97
        0
 97
        1
330
162
 75
     2
 76
     1
 98
        1
 10
0.0
 20
0.0
450
        0
451
        0
460
0.0
461
0.0
452
        0
462
0.0
453
        0
470

  0
ENDBLK
  5
13D
330
13A
100
AcDbEntity
  8
0
100
AcDbBlockEnd
  0
ENDSEC
  0
SECTION
  2
ENTITIES
  0
INSERT
  5
7A
330
70
100
AcDbEntity
  8
レイヤー 1
100
AcDbBlockReference
  2
Block_0
 10
0.0
 20
0.0
 30
0.0
  0
ENDSEC
  0
SECTION
  2
OBJECTS
  0
DICTIONARY
  5
C
330
0
100
AcDbDictionary
281
     1
  3
ACAD_COLOR
350
63
  3
ACAD_DETAILVIEWSTYLE
350
6A
  3
ACAD_GROUP
350
D
  3
ACAD_LAYOUT
350
62
  3
ACAD_MATERIAL
350
10
  3
ACAD_MLEADERSTYLE
350
66
  3
ACAD_MLINESTYLE
350
5F
  3
ACAD_PLOTSETTINGS
350
61
  3
ACAD_PLOTSTYLENAME
350
E
  3
ACAD_SCALELIST
350
42
  3
ACAD_SECTIONVIEWSTYLE
350
68
  3
ACAD_TABLESTYLE
350
64
  3
ACAD_VISUALSTYLE
350
29
  3
ACDB_RECOMPOSE_DATA
350
16F
  3
AcDbVariableDictionary
350
167
  0
DICTIONARY
  5
63
102
{ACAD_REACTORS
330
C
102
}
330
C
100
AcDbDictionary
281
     1
  0
DICTIONARY
  5
6A
102
{ACAD_REACTORS
330
C
102
}
330
C
100
AcDbDictionary
281
     1
  3
Imperial24
350
6B
  0
DICTIONARY
  5
D
102
{ACAD_REACTORS
330
C
102
}
330
C
100
AcDbDictionary
281
     1
  0
DICTIONARY
  5
62
102
{ACAD_REACTORS
330
C
102
}
330
C
100
AcDbDictionary
281
     1
  3
Layout1
350
6F
  3
Layout2
350
77
  3
Model
350
73
  0
DICTIONARY
  5
10
102
{ACAD_REACTORS
330
C
102
}
330
C
100
AcDbDictionary
281
     1
  3
ByBlock
350
19
  3
ByLayer
350
11
  3
Global
350
21
  0
DICTIONARY
  5
66
102
{ACAD_REACTORS
330
C
102
}
330
C
100
AcDbDictionary
281
     1
  3
Standard
350
67
  0
DICTIONARY
  5
5F
102
{ACAD_REACTORS
330
C
102
}
330
C
100
AcDbDictionary
281
     1
  3
Standard
350
60
  0
DICTIONARY
  5
61
102
{ACAD_REACTORS
330
C
102
}
330
C
100
AcDbDictionary
281
     1
  0
ACDBDICTIONARYWDFLT
  5
E
102
{ACAD_REACTORS
330
C
102
}
330
C
100
AcDbDictionary
281
     1
  3
Normal
350
F
100
AcDbDictionaryWithDefault
340
F
  0
DICTIONARY
  5
42
102
{ACAD_REACTORS
330
C
102
}
330
C
100
AcDbDictionary
281
     1
  3
A0
350
43
  3
A1
350
44
  3
A2
350
45
  3
A3
350
46
  3
A4
350
47
  3
A5
350
48
  3
A6
350
49
  3
A7
350
4A
  3
A8
350
4B
  3
A9
350
4C
  3
B0
350
4D
  3
B1
350
4E
  3
B2
350
4F
  3
B3
350
50
  3
B4
350
51
  3
B5
350
52
  3
B6
350
53
  0
DICTIONARY
  5
68
102
{ACAD_REACTORS
330
C
102
}
330
C
100
AcDbDictionary
281
     1
  3
Imperial24
350
69
  0
DICTIONARY
  5
64
102
{ACAD_REACTORS
330
C
102
}
330
C
100
AcDbDictionary
281
     1
  3
Standard
350
65
  0
DICTIONARY
  5
29
102
{ACAD_REACTORS
330
C
102
}
330
C
100
AcDbDictionary
281
     1
  3
2dWireframe
350
2F
  3
Basic
350
2E
  3
Brighten
350
35
  3
ColorChange
350
39
  3
Conceptual
350
32
  3
Dim
350
34
  3
EdgeColorOff
350
41
  3
Facepattern
350
38
  3
Flat
350
2A
  3
FlatWithEdges
350
2B
  3
Gouraud
350
2C
  3
GouraudWithEdges
350
2D
  3
Hidden
350
31
  3
JitterOff
350
3F
  3
Linepattern
350
37
  3
OverhangOff
350
40
  3
Realistic
350
33
  3
Shaded
350
3E
  3
Shaded with edges
350
3D
  3
Shades of Gray
350
3A
  3
Sketchy
350
3B
  3
Thicken
350
36
  3
Wireframe
350
30
  3
X-Ray
350
3C
  0
XRECORD
  5
16F
102
{ACAD_REACTORS
330
C
102
}
330
C
100
AcDbXrecord
280
     1
 90
        1
330
65
  0
DICTIONARY
  5
167
102
{ACAD_REACTORS
330
C
102
}
330
C
100
AcDbDictionary
281
     1
  3
CANNOSCALE
350
16C
  3
CMLEADERSTYLE
350
169
  3
CTABLESTYLE
350
168
  3
CVIEWDETAILSTYLE
350
16A
  3
CVIEWSECTIONSTYLE
350
16B
  0
ACDBDETAILVIEWSTYLE
  5
6B
102
{ACAD_XDICTIONARY
360
1A4
102
}
102
{ACAD_REACTORS
330
6A
102
}
330
6A
100
AcDbModelDocViewStyle
 70
     0
  3
Imperial24
290
     0
100
AcDbDetailViewStyle
 70
     0
 71
     0
 90
        3
 71
     1
340
55
 62
   256
 40
0.24
340
0
 62
   256
 40
0.24
300

 40
0.36
280
     3
 71
     2
340
5D
 90
       25
 62
   256
 71
     3
340
55
 62
   256
 40
0.24
 90
        1
 40
0.75
 90
        1
300
%<\AcVar ViewType \f "%tc1">% %<\AcVar ViewDetailId>%\PSCALE %<\AcVar ViewScale \f "%sn">%
 71
     4
340
5D
 90
       25
 62
   256
340
5D
 90
       25
 62
   256
280
     0
  0
LAYOUT
  5
6F
102
{ACAD_REACTORS
330
62
102
}
330
62
100
AcDbPlotSettings
  1

  2

  4

  6

 40
0.0
 41
0.0
 42
0.0
 43
0.0
 44
0.0
 45
0.0
 46
0.0
 47
0.0
 48
0.0
 49
0.0
140
0.0
141
0.0
142
1.0
143
1.0
 70
   688
 72
     0
 73
     0
 74
     5
  7

 75
    16
147
1.0
 76
     0
 77
     2
 78
   300
148
0.0
149
0.0
100
AcDbLayout
  1
Layout1
 70
     1
 71
     1
 10
0.0
 20
0.0
 11
12.0
 21
9.0
 12
0.0
 22
0.0
 32
0.0
 14
0.0
 24
0.0
 34
0.0
 15
0.0
 25
0.0
 35
0.0
146
0.0
 13
0.0
 23
0.0
 33
0.0
 16
1.0
 26
0.0
 36
0.0
 17
0.0
 27
1.0
 37
0.0
 76
     0
330
6C
  0
LAYOUT
  5
77
102
{ACAD_REACTORS
330
62
102
}
330
62
100
AcDbPlotSettings
  1

  2

  4

  6

 40
0.0
 41
0.0
 42
0.0
 43
0.0
 44
0.0
 45
0.0
 46
0.0
 47
0.0
 48
0.0
 49
0.0
140
0.0
141
0.0
142
1.0
143
1.0
 70
   688
 72
     0
 73
     0
 74
     5
  7

 75
    16
147
1.0
 76
     0
 77
     2
 78
   300
148
0.0
149
0.0
100
AcDbLayout
  1
Layout2
 70
     1
 71
     2
 10
0.0
 20
0.0
 11
12.0
 21
9.0
 12
0.0
 22
0.0
 32
0.0
 14
0.0
 24
0.0
 34
0.0
 15
0.0
 25
0.0
 35
0.0
146
0.0
 13
0.0
 23
0.0
 33
0.0
 16
1.0
 26
0.0
 36
0.0
 17
0.0
 27
1.0
 37
0.0
 76
     0
330
74
  0
LAYOUT
  5
73
102
{ACAD_REACTORS
330
62
102
}
330
62
100
AcDbPlotSettings
  1

  2

  4

  6

 40
0.0
 41
0.0
 42
0.0
 43
0.0
 44
0.0
 45
0.0
 46
0.0
 47
0.0
 48
0.0
 49
0.0
140
0.0
141
0.0
142
1.0
143
1.0
 70
  1712
 72
     0
 73
     0
 74
     0
  7

 75
     0
147
1.0
 76
     0
 77
     2
 78
   300
148
0.0
149
0.0
100
AcDbLayout
  1
Model
 70
     1
 71
     0
 10
0.0
 20
0.0
 11
12.0
 21
9.0
 12
0.0
 22
0.0
 32
0.0
 14
0.0
 24
0.0
 34
0.0
 15
0.0
 25
0.0
 35
0.0
146
0.0
 13
0.0
 23
0.0
 33
0.0
 16
1.0
 26
0.0
 36
0.0
 17
0.0
 27
1.0
 37
0.0
 76
     0
330
70
  0
MATERIAL
  5
19
102
{ACAD_XDICTIONARY
360
1A
102
}
102
{ACAD_REACTORS
330
10
102
}
330
10
100
AcDbMaterial
  1
ByBlock
 72
     0
 43
0.0208333333333333
 43
0.0
 43
0.0
 43
0.0
 43
0.0
 43
0.0208333333333333
 43
0.0
 43
0.0
 43
0.0
 43
0.0
 43
1.0
 43
0.0
 43
0.0
 43
0.0
 43
0.0
 43
1.0
 77
     0
 47
0.0208333333333333
 47
0.0
 47
0.0
 47
0.0
 47
0.0
 47
0.0208333333333333
 47
0.0
 47
0.0
 47
0.0
 47
0.0
 47
1.0
 47
0.0
 47
0.0
 47
0.0
 47
0.0
 47
1.0
171
     0
 49
0.0208333333333333
 49
0.0
 49
0.0
 49
0.0
 49
0.0
 49
0.0208333333333333
 49
0.0
 49
0.0
 49
0.0
 49
0.0
 49
1.0
 49
0.0
 49
0.0
 49
0.0
 49
0.0
 49
1.0
175
     0
142
0.0208333333333333
142
0.0
142
0.0
142
0.0
142
0.0
142
0.0208333333333333
142
0.0
142
0.0
142
0.0
142
0.0
142
1.0
142
0.0
142
0.0
142
0.0
142
0.0
142
1.0
179
     0
144
0.0208333333333333
144
0.0
144
0.0
144
0.0
144
0.0
144
0.0208333333333333
144
0.0
144
0.0
144
0.0
144
0.0
144
1.0
144
0.0
144
0.0
144
0.0
144
0.0
144
1.0
147
0.0208333333333333
147
0.0
147
0.0
147
0.0
147
0.0
147
0.0208333333333333
147
0.0
147
0.0
147
0.0
147
0.0
147
1.0
147
0.0
147
0.0
147
0.0
147
0.0
147
1.0
  0
MATERIAL
  5
11
102
{ACAD_XDICTIONARY
360
12
102
}
102
{ACAD_REACTORS
330
10
102
}
330
10
100
AcDbMaterial
  1
ByLayer
 72
     0
 43
0.0208333333333333
 43
0.0
 43
0.0
 43
0.0
 43
0.0
 43
0.0208333333333333
 43
0.0
 43
0.0
 43
0.0
 43
0.0
 43
1.0
 43
0.0
 43
0.0
 43
0.0
 43
0.0
 43
1.0
 77
     0
 47
0.0208333333333333
 47
0.0
 47
0.0
 47
0.0
 47
0.0
 47
0.0208333333333333
 47
0.0
 47
0.0
 47
0.0
 47
0.0
 47
1.0
 47
0.0
 47
0.0
 47
0.0
 47
0.0
 47
1.0
171
     0
 49
0.0208333333333333
 49
0.0
 49
0.0
 49
0.0
 49
0.0
 49
0.0208333333333333
 49
0.0
 49
0.0
 49
0.0
 49
0.0
 49
1.0
 49
0.0
 49
0.0
 49
0.0
 49
0.0
 49
1.0
175
     0
142
0.0208333333333333
142
0.0
142
0.0
142
0.0
142
0.0
142
0.0208333333333333
142
0.0
142
0.0
142
0.0
142
0.0
142
1.0
142
0.0
142
0.0
142
0.0
142
0.0
142
1.0
179
     0
144
0.0208333333333333
144
0.0
144
0.0
144
0.0
144
0.0
144
0.0208333333333333
144
0.0
144
0.0
144
0.0
144
0.0
144
1.0
144
0.0
144
0.0
144
0.0
144
0.0
144
1.0
147
0.0208333333333333
147
0.0
147
0.0
147
0.0
147
0.0
147
0.0208333333333333
147
0.0
147
0.0
147
0.0
147
0.0
147
1.0
147
0.0
147
0.0
147
0.0
147
0.0
147
1.0
  0
MATERIAL
  5
21
102
{ACAD_XDICTIONARY
360
22
102
}
102
{ACAD_REACTORS
330
10
102
}
330
10
100
AcDbMaterial
  1
Global
 72
     0
 43
0.0208333333333333
 43
0.0
 43
0.0
 43
0.0
 43
0.0
 43
0.0208333333333333
 43
0.0
 43
0.0
 43
0.0
 43
0.0
 43
1.0
 43
0.0
 43
0.0
 43
0.0
 43
0.0
 43
1.0
 77
     0
 47
0.0208333333333333
 47
0.0
 47
0.0
 47
0.0
 47
0.0
 47
0.0208333333333333
 47
0.0
 47
0.0
 47
0.0
 47
0.0
 47
1.0
 47
0.0
 47
0.0
 47
0.0
 47
0.0
 47
1.0
171
     0
 49
0.0208333333333333
 49
0.0
 49
0.0
 49
0.0
 49
0.0
 49
0.0208333333333333
 49
0.0
 49
0.0
 49
0.0
 49
0.0
 49
1.0
 49
0.0
 49
0.0
 49
0.0
 49
0.0
 49
1.0
175
     0
142
0.0208333333333333
142
0.0
142
0.0
142
0.0
142
0.0
142
0.0208333333333333
142
0.0
142
0.0
142
0.0
142
0.0
142
1.0
142
0.0
142
0.0
142
0.0
142
0.0
142
1.0
179
     0
144
0.0208333333333333
144
0.0
144
0.0
144
0.0
144
0.0
144
0.0208333333333333
144
0.0
144
0.0
144
0.0
144
0.0
144
1.0
144
0.0
144
0.0
144
0.0
144
0.0
144
1.0
147
0.0208333333333333
147
0.0
147
0.0
147
0.0
147
0.0
147
0.0208333333333333
147
0.0
147
0.0
147
0.0
147
0.0
147
1.0
147
0.0
147
0.0
147
0.0
147
0.0
147
1.0
  0
MLEADERSTYLE
  5
67
102
{ACAD_XDICTIONARY
360
1A0
102
}
102
{ACAD_REACTORS
330
66
102
}
330
66
100
AcDbMLeaderStyle
179
     2
170
     2
171
     1
172
     0
 90
        2
 40
0.0
 41
0.0
173
     1
 91
-1056964608
340
5B
 92
       -2
290
     1
 42
0.09
291
     1
 43
0.36
  3
Standard
 44
0.18
300

342
55
174
     1
178
     6
175
     1
176
     0
 93
-1056964608
 45
0.18
292
     0
297
     0
 46
0.18
 94
-1056964608
 47
1.0
 49
1.0
140
1.0
293
     1
141
0.0
294
     1
177
     0
142
1.0
295
     0
296
     0
143
0.125
271
     0
272
     9
273
     9
  0
MLINESTYLE
  5
60
102
{ACAD_REACTORS
330
5F
102
}
330
5F
100
AcDbMlineStyle
  2
STANDARD
 70
     0
  3

 62
   256
 51
90.0
 52
90.0
 71
     2
 49
0.5
 62
   256
  6
BYLAYER
 49
-0.5
 62
   256
  6
BYLAYER
  0
ACDBPLACEHOLDER
  5
F
102
{ACAD_REACTORS
330
E
102
}
330
E
  0
SCALE
  5
43
102
{ACAD_REACTORS
330
42
102
}
330
42
100
AcDbScale
 70
     0
300
1:1
140
1.0
141
1.0
290
     1
  0
SCALE
  5
44
102
{ACAD_REACTORS
330
42
102
}
330
42
100
AcDbScale
 70
     0
300
1/128" = 1'-0"
140
0.0078125
141
12.0
290
     0
  0
SCALE
  5
45
102
{ACAD_REACTORS
330
42
102
}
330
42
100
AcDbScale
 70
     0
300
1/64" = 1'-0"
140
0.015625
141
12.0
290
     0
  0
SCALE
  5
46
102
{ACAD_REACTORS
330
42
102
}
330
42
100
AcDbScale
 70
     0
300
1/32" = 1'-0"
140
0.03125
141
12.0
290
     0
  0
SCALE
  5
47
102
{ACAD_REACTORS
330
42
102
}
330
42
100
AcDbScale
 70
     0
300
1/16" = 1'-0"
140
0.0625
141
12.0
290
     0
  0
SCALE
  5
48
102
{ACAD_REACTORS
330
42
102
}
330
42
100
AcDbScale
 70
     0
300
3/32" = 1'-0"
140
0.09375
141
12.0
290
     0
  0
SCALE
  5
49
102
{ACAD_REACTORS
330
42
102
}
330
42
100
AcDbScale
 70
     0
300
1/8" = 1'-0"
140
0.125
141
12.0
290
     0
  0
SCALE
  5
4A
102
{ACAD_REACTORS
330
42
102
}
330
42
100
AcDbScale
 70
     0
300
3/16" = 1'-0"
140
0.1875
141
12.0
290
     0
  0
SCALE
  5
4B
102
{ACAD_REACTORS
330
42
102
}
330
42
100
AcDbScale
 70
     0
300
1/4" = 1'-0"
140
0.25
141
12.0
290
     0
  0
SCALE
  5
4C
102
{ACAD_REACTORS
330
42
102
}
330
42
100
AcDbScale
 70
     0
300
3/8" = 1'-0"
140
0.375
141
12.0
290
     0
  0
SCALE
  5
4D
102
{ACAD_REACTORS
330
42
102
}
330
42
100
AcDbScale
 70
     0
300
1/2" = 1'-0"
140
0.5
141
12.0
290
     0
  0
SCALE
  5
4E
102
{ACAD_REACTORS
330
42
102
}
330
42
100
AcDbScale
 70
     0
300
3/4" = 1'-0"
140
0.75
141
12.0
290
     0
  0
SCALE
  5
4F
102
{ACAD_REACTORS
330
42
102
}
330
42
100
AcDbScale
 70
     0
300
1" = 1'-0"
140
1.0
141
12.0
290
     0
  0
SCALE
  5
50
102
{ACAD_REACTORS
330
42
102
}
330
42
100
AcDbScale
 70
     0
300
1-1/2" = 1'-0"
140
1.5
141
12.0
290
     0
  0
SCALE
  5
51
102
{ACAD_REACTORS
330
42
102
}
330
42
100
AcDbScale
 70
     0
300
3" = 1'-0"
140
3.0
141
12.0
290
     0
  0
SCALE
  5
52
102
{ACAD_REACTORS
330
42
102
}
330
42
100
AcDbScale
 70
     0
300
6" = 1'-0"
140
6.0
141
12.0
290
     0
  0
SCALE
  5
53
102
{ACAD_REACTORS
330
42
102
}
330
42
100
AcDbScale
 70
     0
300
1'-0" = 1'-0"
140
12.0
141
12.0
290
     0
  0
ACDBSECTIONVIEWSTYLE
  5
69
102
{ACAD_XDICTIONARY
360
1A2
102
}
102
{ACAD_REACTORS
330
68
102
}
330
68
100
AcDbModelDocViewStyle
 70
     0
  3
Imperial24
290
     0
100
AcDbSectionViewStyle
 70
     0
 71
     0
 90
       78
 71
     1
340
55
 62
   256
 40
0.24
340
0
340
0
 62
   256
 40
0.24
300
I, O, Q, S, X, Z
 40
0.48
 90
        3
 40
0.18
 90
        1
 71
     2
340
5D
 90
       25
 62
   256
340
5D
 90
       50
 62
   256
 40
0.24
 40
0.0
 40
0.24
 71
     3
340
55
 62
   256
 40
0.24
 90
        1
 40
0.75
 90
        1
300
%<\AcVar ViewType \f "%tc1">% %<\AcVar ViewSectionStartId>%-%<\AcVar ViewSectionEndId>%\PSCALE %<\AcVar ViewScale \f "%sn">%
 71
     4
 62
   256
 62
   257
300
ANSI31
 40
1.0
 90
        0
290
     0
290
     0
 90
        6
 40
0.0
 40
1.570796326794896
 40
0.2617993877991494
 40
1.308996938995747
 40
-0.2617993877991494
 40
1.832595714594046
  0
TABLESTYLE
  5
65
102
{ACAD_XDICTIONARY
360
16D
102
}
102
{ACAD_REACTORS
330
64
102
}
330
64
100
AcDbTableStyle
280
     0
  3
Standard
 70
     0
 71
     0
 40
0.06
 41
0.06
280
     0
281
     0
  7
Standard
140
0.18
170
     2
 62
     0
 63
     7
283
     0
 90
      512
 91
        0
  1

274
    -2
284
     1
 64
     0
275
    -2
285
     1
 65
     0
276
    -2
286
     1
 66
     0
277
    -2
287
     1
 67
     0
278
    -2
288
     1
 68
     0
279
    -2
289
     1
 69
     0
  7
Standard
140
0.25
170
     5
 62
     0
 63
     7
283
     0
 90
      512
 91
        0
  1

274
    -2
284
     1
 64
     0
275
    -2
285
     1
 65
     0
276
    -2
286
     1
 66
     0
277
    -2
287
     1
 67
     0
278
    -2
288
     1
 68
     0
279
    -2
289
     1
 69
     0
  7
Standard
140
0.18
170
     5
 62
     0
 63
     7
283
     0
 90
      512
 91
        0
  1

274
    -2
284
     1
 64
     0
275
    -2
285
     1
 65
     0
276
    -2
286
     1
 66
     0
277
    -2
287
     1
 67
     0
278
    -2
288
     1
 68
     0
279
    -2
289
     1
 69
     0
  0
VISUALSTYLE
  5
2F
102
{ACAD_XDICTIONARY
360
17A
102
}
102
{ACAD_REACTORS
330
29
102
}
330
29
100
AcDbVisualStyle
  2
2dWireframe
 70
     4
177
     2
291
     0
 71
     0
176
     1
 72
     2
176
     1
 73
     0
176
     1
 90
        0
176
     1
 40
0.6
176
     1
 41
30.0
176
     1
 63
     7
421
 16777215
176
     1
 74
     1
176
     1
 91
        4
176
     1
 64
     7
176
     1
 65
   257
176
     1
 75
     1
176
     1
175
     1
176
     1
 42
1.0
176
     1
 92
        0
176
     1
 66
   257
176
     1
 43
1.0
176
     1
 76
     1
176
     1
 77
     6
176
     1
 78
     2
176
     1
 67
     7
176
     1
 79
     5
176
     1
170
     0
176
     1
171
     0
176
     1
290
     0
176
     1
 93
        1
176
     1
 44
0.0
176
     1
173
     0
176
     1
1001
ACAD
1000
AcDbSavedByObjectVersion
1070
     0
  0
VISUALSTYLE
  5
2E
102
{ACAD_XDICTIONARY
360
178
102
}
102
{ACAD_REACTORS
330
29
102
}
330
29
100
AcDbVisualStyle
  2
Basic
 70
     7
177
     2
291
     1
 71
     1
176
     1
 72
     0
176
     1
 73
     1
176
     1
 90
        0
176
     1
 40
0.6
176
     1
 41
30.0
176
     1
 63
     7
421
 16777215
176
     1
 74
     0
176
     1
 91
        4
176
     1
 64
     7
176
     1
 65
   257
176
     1
 75
     1
176
     1
175
     1
176
     1
 42
1.0
176
     1
 92
        8
176
     1
 66
     7
176
     1
 43
1.0
176
     1
 76
     1
176
     1
 77
     6
176
     1
 78
     2
176
     1
 67
     7
176
     1
 79
     5
176
     1
170
     0
176
     1
171
     0
176
     1
290
     0
176
     1
 93
        1
176
     1
 44
0.0
176
     1
173
     0
176
     1
1001
ACAD
1000
AcDbSavedByObjectVersion
1070
     0
  0
VISUALSTYLE
  5
35
102
{ACAD_XDICTIONARY
360
186
102
}
102
{ACAD_REACTORS
330
29
102
}
330
29
100
AcDbVisualStyle
  2
Brighten
 70
    12
177
     2
291
     1
 71
     2
176
     1
 72
     2
176
     1
 73
     0
176
     1
 90
        0
176
     1
 40
0.6
176
     1
 41
30.0
176
     1
 63
     7
421
 16777215
176
     1
 74
     1
176
     1
 91
        4
176
     1
 64
     7
176
     1
 65
   257
176
     1
 75
     1
176
     1
175
     1
176
     1
 42
1.0
176
     1
 92
        8
176
     1
 66
     7
176
     1
 43
1.0
176
     1
 76
     1
176
     1
 77
     6
176
     1
 78
     2
176
     1
 67
     7
176
     1
 79
     5
176
     1
170
     0
176
     1
171
     0
176
     1
290
     0
176
     1
 93
        1
176
     1
 44
50.0
176
     1
173
     0
176
     1
1001
ACAD
1000
AcDbSavedByObjectVersion
1070
     0
  0
VISUALSTYLE
  5
39
102
{ACAD_XDICTIONARY
360
18E
102
}
102
{ACAD_REACTORS
330
29
102
}
330
29
100
AcDbVisualStyle
  2
ColorChange
 70
    16
177
     2
291
     1
 71
     2
176
     1
 72
     2
176
     1
 73
     3
176
     1
 90
        0
176
     1
 40
0.6
176
     1
 41
30.0
176
     1
 63
     8
421
  8421504
176
     1
 74
     1
176
     1
 91
        4
176
     1
 64
     7
176
     1
 65
   257
176
     1
 75
     1
176
     1
175
     1
176
     1
 42
1.0
176
     1
 92
        8
176
     1
 66
     8
424
  8421504
176
     1
 43
1.0
176
     1
 76
     1
176
     1
 77
     6
176
     1
 78
     2
176
     1
 67
     7
176
     1
 79
     5
176
     1
170
     0
176
     1
171
     0
176
     1
290
     0
176
     1
 93
        1
176
     1
 44
0.0
176
     1
173
     0
176
     1
1001
ACAD
1000
AcDbSavedByObjectVersion
1070
     0
  0
VISUALSTYLE
  5
32
102
{ACAD_XDICTIONARY
360
180
102
}
102
{ACAD_REACTORS
330
29
102
}
330
29
100
AcDbVisualStyle
  2
Conceptual
 70
     9
177
     2
291
     0
 71
     3
176
     1
 72
     2
176
     1
 73
     0
176
     1
 90
        0
176
     1
 40
0.6
176
     1
 41
30.0
176
     1
 63
     7
421
 16777215
176
     1
 74
     2
176
     1
 91
        2
176
     1
 64
     7
176
     1
 65
   257
176
     1
 75
     1
176
     1
175
     1
176
     1
 42
179.0
176
     1
 92
        8
176
     1
 66
     7
176
     1
 43
1.0
176
     1
 76
     1
176
     1
 77
     6
176
     1
 78
     2
176
     1
 67
     7
176
     1
 79
     3
176
     1
170
     0
176
     1
171
     0
176
     1
290
     0
176
     1
 93
        1
176
     1
 44
0.0
176
     1
173
     0
176
     1
1001
ACAD
1000
AcDbSavedByObjectVersion
1070
     0
  0
VISUALSTYLE
  5
34
102
{ACAD_XDICTIONARY
360
184
102
}
102
{ACAD_REACTORS
330
29
102
}
330
29
100
AcDbVisualStyle
  2
Dim
 70
    11
177
     2
291
     1
 71
     2
176
     1
 72
     2
176
     1
 73
     0
176
     1
 90
        0
176
     1
 40
0.6
176
     1
 41
30.0
176
     1
 63
     7
421
 16777215
176
     1
 74
     1
176
     1
 91
        4
176
     1
 64
     7
176
     1
 65
   257
176
     1
 75
     1
176
     1
175
     1
176
     1
 42
1.0
176
     1
 92
        8
176
     1
 66
     7
176
     1
 43
1.0
176
     1
 76
     1
176
     1
 77
     6
176
     1
 78
     2
176
     1
 67
     7
176
     1
 79
     5
176
     1
170
     0
176
     1
171
     0
176
     1
290
     0
176
     1
 93
        1
176
     1
 44
-50.0
176
     1
173
     0
176
     1
1001
ACAD
1000
AcDbSavedByObjectVersion
1070
     0
  0
VISUALSTYLE
  5
41
102
{ACAD_XDICTIONARY
360
19E
102
}
102
{ACAD_REACTORS
330
29
102
}
330
29
100
AcDbVisualStyle
  2
EdgeColorOff
 70
    22
177
     2
291
     1
 71
     2
176
     0
 72
     2
176
     0
 73
     0
176
     0
 90
        0
176
     0
 40
0.6
176
     0
 41
30.0
176
     0
 63
     7
421
 16777215
176
     0
 74
     1
176
     0
 91
        4
176
     0
 64
     7
176
     0
 65
   257
176
     0
 75
     1
176
     0
175
     1
176
     0
 42
1.0
176
     0
 92
        8
176
     2
 66
     7
176
     0
 43
1.0
176
     0
 76
     1
176
     0
 77
     6
176
     0
 78
     2
176
     0
 67
     7
176
     0
 79
     5
176
     0
170
     0
176
     0
171
     0
176
     0
290
     0
176
     0
 93
        1
176
     0
 44
0.0
176
     0
173
     0
176
     0
1001
ACAD
1000
AcDbSavedByObjectVersion
1070
     0
  0
VISUALSTYLE
  5
38
102
{ACAD_XDICTIONARY
360
18C
102
}
102
{ACAD_REACTORS
330
29
102
}
330
29
100
AcDbVisualStyle
  2
Facepattern
 70
    15
177
     2
291
     1
 71
     2
176
     1
 72
     2
176
     1
 73
     0
176
     1
 90
        0
176
     1
 40
0.6
176
     1
 41
30.0
176
     1
 63
     7
421
 16777215
176
     1
 74
     1
176
     1
 91
        4
176
     1
 64
     7
176
     1
 65
   257
176
     1
 75
     1
176
     1
175
     1
176
     1
 42
1.0
176
     1
 92
        8
176
     1
 66
     7
176
     1
 43
1.0
176
     1
 76
     1
176
     1
 77
     6
176
     1
 78
     2
176
     1
 67
     7
176
     1
 79
     5
176
     1
170
     0
176
     1
171
     0
176
     1
290
     0
176
     1
 93
        1
176
     1
 44
0.0
176
     1
173
     0
176
     1
1001
ACAD
1000
AcDbSavedByObjectVersion
1070
     0
  0
VISUALSTYLE
  5
2A
102
{ACAD_XDICTIONARY
360
170
102
}
102
{ACAD_REACTORS
330
29
102
}
330
29
100
AcDbVisualStyle
  2
Flat
 70
     0
177
     2
291
     1
 71
     2
176
     1
 72
     1
176
     1
 73
     1
176
     1
 90
        2
176
     1
 40
0.6
176
     1
 41
30.0
176
     1
 63
     7
421
 16777215
176
     1
 74
     0
176
     1
 91
        0
176
     1
 64
     7
176
     1
 65
   257
176
     1
 75
     1
176
     1
175
     1
176
     1
 42
1.0
176
     1
 92
        8
176
     1
 66
     7
176
     1
 43
1.0
176
     1
 76
     1
176
     1
 77
     6
176
     1
 78
     2
176
     1
 67
     7
176
     1
 79
     5
176
     1
170
     0
176
     1
171
     0
176
     1
290
     0
176
     1
 93
       13
176
     1
 44
0.0
176
     1
173
     0
176
     1
1001
ACAD
1000
AcDbSavedByObjectVersion
1070
     0
  0
VISUALSTYLE
  5
2B
102
{ACAD_XDICTIONARY
360
172
102
}
102
{ACAD_REACTORS
330
29
102
}
330
29
100
AcDbVisualStyle
  2
FlatWithEdges
 70
     1
177
     2
291
     1
 71
     2
176
     1
 72
     1
176
     1
 73
     1
176
     1
 90
        2
176
     1
 40
0.6
176
     1
 41
30.0
176
     1
 63
     7
421
 16777215
176
     1
 74
     1
176
     1
 91
        0
176
     1
 64
     7
176
     1
 65
   257
176
     1
 75
     1
176
     1
175
     1
176
     1
 42
1.0
176
     1
 92
        0
176
     1
 66
   257
176
     1
 43
1.0
176
     1
 76
     1
176
     1
 77
     6
176
     1
 78
     2
176
     1
 67
     7
176
     1
 79
     5
176
     1
170
     0
176
     1
171
     0
176
     1
290
     0
176
     1
 93
       13
176
     1
 44
0.0
176
     1
173
     0
176
     1
1001
ACAD
1000
AcDbSavedByObjectVersion
1070
     0
  0
VISUALSTYLE
  5
2C
102
{ACAD_XDICTIONARY
360
174
102
}
102
{ACAD_REACTORS
330
29
102
}
330
29
100
AcDbVisualStyle
  2
Gouraud
 70
     2
177
     2
291
     1
 71
     2
176
     1
 72
     2
176
     1
 73
     1
176
     1
 90
        2
176
     1
 40
0.6
176
     1
 41
30.0
176
     1
 63
     7
421
 16777215
176
     1
 74
     0
176
     1
 91
        0
176
     1
 64
     7
176
     1
 65
   257
176
     1
 75
     1
176
     1
175
     1
176
     1
 42
1.0
176
     1
 92
        0
176
     1
 66
     7
176
     1
 43
1.0
176
     1
 76
     1
176
     1
 77
     6
176
     1
 78
     2
176
     1
 67
     7
176
     1
 79
     5
176
     1
170
     0
176
     1
171
     0
176
     1
290
     0
176
     1
 93
       13
176
     1
 44
0.0
176
     1
173
     0
176
     1
1001
ACAD
1000
AcDbSavedByObjectVersion
1070
     0
  0
VISUALSTYLE
  5
2D
102
{ACAD_XDICTIONARY
360
176
102
}
102
{ACAD_REACTORS
330
29
102
}
330
29
100
AcDbVisualStyle
  2
GouraudWithEdges
 70
     3
177
     2
291
     1
 71
     2
176
     1
 72
     2
176
     1
 73
     1
176
     1
 90
        2
176
     1
 40
0.6
176
     1
 41
30.0
176
     1
 63
     7
421
 16777215
176
     1
 74
     1
176
     1
 91
        0
176
     1
 64
     7
176
     1
 65
   257
176
     1
 75
     1
176
     1
175
     1
176
     1
 42
1.0
176
     1
 92
        0
176
     1
 66
   257
176
     1
 43
1.0
176
     1
 76
     1
176
     1
 77
     6
176
     1
 78
     2
176
     1
 67
     7
176
     1
 79
     5
176
     1
170
     0
176
     1
171
     0
176
     1
290
     0
176
     1
 93
       13
176
     1
 44
0.0
176
     1
173
     0
176
     1
1001
ACAD
1000
AcDbSavedByObjectVersion
1070
     0
  0
VISUALSTYLE
  5
31
102
{ACAD_XDICTIONARY
360
17E
102
}
102
{ACAD_REACTORS
330
29
102
}
330
29
100
AcDbVisualStyle
  2
Hidden
 70
     6
177
     2
291
     0
 71
     1
176
     1
 72
     2
176
     1
 73
     2
176
     1
 90
        0
176
     1
 40
0.6
176
     1
 41
30.0
176
     1
 63
     7
421
 16777215
176
     1
 74
     2
176
     1
 91
        2
176
     1
 64
     7
176
     1
 65
   257
176
     1
 75
     2
176
     1
175
     1
176
     1
 42
40.0
176
     1
 92
        0
176
     1
 66
   257
176
     1
 43
1.0
176
     1
 76
     1
176
     1
 77
     6
176
     1
 78
     2
176
     1
 67
     7
176
     1
 79
     3
176
     1
170
     0
176
     1
171
     0
176
     1
290
     0
176
     1
 93
        1
176
     1
 44
0.0
176
     1
173
     0
176
     1
1001
ACAD
1000
AcDbSavedByObjectVersion
1070
     0
  0
VISUALSTYLE
  5
3F
102
{ACAD_XDICTIONARY
360
19A
102
}
102
{ACAD_REACTORS
330
29
102
}
330
29
100
AcDbVisualStyle
  2
JitterOff
 70
    20
177
     2
291
     1
 71
     2
176
     0
 72
     2
176
     0
 73
     0
176
     0
 90
        0
176
     0
 40
0.6
176
     0
 41
30.0
176
     0
 63
     7
421
 16777215
176
     0
 74
     1
176
     0
 91
        4
176
     0
 64
     7
176
     0
 65
   257
176
     0
 75
     1
176
     0
175
     1
176
     0
 42
1.0
176
     0
 92
       10
176
     2
 66
     7
176
     0
 43
1.0
176
     0
 76
     1
176
     0
 77
     6
176
     0
 78
     2
176
     0
 67
     7
176
     0
 79
     5
176
     0
170
     0
176
     0
171
     0
176
     0
290
     0
176
     0
 93
        1
176
     0
 44
0.0
176
     0
173
     0
176
     0
1001
ACAD
1000
AcDbSavedByObjectVersion
1070
     0
  0
VISUALSTYLE
  5
37
102
{ACAD_XDICTIONARY
360
18A
102
}
102
{ACAD_REACTORS
330
29
102
}
330
29
100
AcDbVisualStyle
  2
Linepattern
 70
    14
177
     2
291
     1
 71
     2
176
     1
 72
     2
176
     1
 73
     0
176
     1
 90
        0
176
     1
 40
0.6
176
     1
 41
30.0
176
     1
 63
     7
421
 16777215
176
     1
 74
     1
176
     1
 91
        4
176
     1
 64
     7
176
     1
 65
   257
176
     1
 75
     7
176
     1
175
     7
176
     1
 42
1.0
176
     1
 92
        8
176
     1
 66
     7
176
     1
 43
1.0
176
     1
 76
     1
176
     1
 77
     6
176
     1
 78
     2
176
     1
 67
     7
176
     1
 79
     5
176
     1
170
     0
176
     1
171
     0
176
     1
290
     0
176
     1
 93
        1
176
     1
 44
0.0
176
     1
173
     0
176
     1
1001
ACAD
1000
AcDbSavedByObjectVersion
1070
     0
  0
VISUALSTYLE
  5
40
102
{ACAD_XDICTIONARY
360
19C
102
}
102
{ACAD_REACTORS
330
29
102
}
330
29
100
AcDbVisualStyle
  2
OverhangOff
 70
    21
177
     2
291
     1
 71
     2
176
     0
 72
     2
176
     0
 73
     0
176
     0
 90
        0
176
     0
 40
0.6
176
     0
 41
30.0
176
     0
 63
     7
421
 16777215
176
     0
 74
     1
176
     0
 91
        4
176
     0
 64
     7
176
     0
 65
   257
176
     0
 75
     1
176
     0
175
     1
176
     0
 42
1.0
176
     0
 92
        9
176
     2
 66
     7
176
     0
 43
1.0
176
     0
 76
     1
176
     0
 77
     6
176
     0
 78
     2
176
     0
 67
     7
176
     0
 79
     5
176
     0
170
     0
176
     0
171
     0
176
     0
290
     0
176
     0
 93
        1
176
     0
 44
0.0
176
     0
173
     0
176
     0
1001
ACAD
1000
AcDbSavedByObjectVersion
1070
     0
  0
VISUALSTYLE
  5
33
102
{ACAD_XDICTIONARY
360
182
102
}
102
{ACAD_REACTORS
330
29
102
}
330
29
100
AcDbVisualStyle
  2
Realistic
 70
     8
177
     2
291
     0
 71
     2
176
     1
 72
     3
176
     1
 73
     0
176
     1
 90
        2
176
     1
 40
0.6
176
     1
 41
30.0
176
     1
 63
     7
421
 16777215
176
     1
 74
     0
176
     1
 91
        0
176
     1
 64
     7
176
     1
 65
   257
176
     1
 75
     1
176
     1
175
     1
176
     1
 42
1.0
176
     1
 92
        8
176
     1
 66
   257
176
     1
 43
1.0
176
     1
 76
     1
176
     1
 77
     6
176
     1
 78
     2
176
     1
 67
     7
176
     1
 79
     3
176
     1
170
     0
176
     1
171
     0
176
     1
290
     0
176
     1
 93
       13
176
     1
 44
0.0
176
     1
173
     0
176
     1
1001
ACAD
1000
AcDbSavedByObjectVersion
1070
     0
  0
VISUALSTYLE
  5
3E
102
{ACAD_XDICTIONARY
360
198
102
}
102
{ACAD_REACTORS
330
29
102
}
330
29
100
AcDbVisualStyle
  2
Shaded
 70
    27
177
     2
291
     0
 71
     2
176
     1
 72
     2
176
     1
 73
     1
176
     1
 90
        2
176
     1
 40
0.6
176
     1
 41
30.0
176
     1
 63
     7
421
 16777215
176
     1
 74
     0
176
     1
 91
        4
176
     1
 64
     7
176
     1
 65
   257
176
     1
 75
     1
176
     1
175
     1
176
     1
 42
1.0
176
     1
 92
        8
176
     1
 66
   257
176
     1
 43
1.0
176
     1
 76
     1
176
     1
 77
     6
176
     1
 78
     2
176
     1
 67
     8
425
  7895160
176
     1
 79
     3
176
     1
170
     0
176
     1
171
     0
176
     1
290
     0
176
     1
 93
        5
176
     1
 44
0.0
176
     1
173
     0
176
     1
1001
ACAD
1000
AcDbSavedByObjectVersion
1070
     0
  0
VISUALSTYLE
  5
3D
102
{ACAD_XDICTIONARY
360
196
102
}
102
{ACAD_REACTORS
330
29
102
}
330
29
100
AcDbVisualStyle
  2
Shaded with edges
 70
    26
177
     2
291
     0
 71
     2
176
     1
 72
     2
176
     1
 73
     1
176
     1
 90
        2
176
     1
 40
0.6
176
     1
 41
30.0
176
     1
 63
     7
421
 16777215
176
     1
 74
     1
176
     1
 91
        2
176
     1
 64
     7
176
     1
 65
   257
176
     1
 75
     2
176
     1
175
     1
176
     1
 42
1.0
176
     1
 92
        8
176
     1
 66
   257
176
     1
 43
1.0
176
     1
 76
     1
176
     1
 77
     6
176
     1
 78
     2
176
     1
 67
     7
176
     1
 79
     3
176
     1
170
     0
176
     1
171
     0
176
     1
290
     0
176
     1
 93
        5
176
     1
 44
0.0
176
     1
173
     0
176
     1
1001
ACAD
1000
AcDbSavedByObjectVersion
1070
     0
  0
VISUALSTYLE
  5
3A
102
{ACAD_XDICTIONARY
360
190
102
}
102
{ACAD_REACTORS
330
29
102
}
330
29
100
AcDbVisualStyle
  2
Shades of Gray
 70
    23
177
     2
291
     0
 71
     2
176
     1
 72
     2
176
     1
 73
     3
176
     1
 90
        0
176
     1
 40
0.6
176
     1
 41
30.0
176
     1
 63
     7
421
 16777215
176
     1
 74
     2
176
     1
 91
        2
176
     1
 64
     7
176
     1
 65
     7
176
     1
 75
     1
176
     1
175
     1
176
     1
 42
40.0
176
     1
 92
        8
176
     1
 66
     7
176
     1
 43
1.0
176
     1
 76
     1
176
     1
 77
     6
176
     1
 78
     2
176
     1
 67
     7
176
     1
 79
     3
176
     1
170
     0
176
     1
171
     0
176
     1
290
     0
176
     1
 93
        1
176
     1
 44
0.0
176
     1
173
     0
176
     1
1001
ACAD
1000
AcDbSavedByObjectVersion
1070
     0
  0
VISUALSTYLE
  5
3B
102
{ACAD_XDICTIONARY
360
192
102
}
102
{ACAD_REACTORS
330
29
102
}
330
29
100
AcDbVisualStyle
  2
Sketchy
 70
    24
177
     2
291
     0
 71
     1
176
     1
 72
     2
176
     1
 73
     2
176
     1
 90
        0
176
     1
 40
0.6
176
     1
 41
30.0
176
     1
 63
     7
421
 16777215
176
     1
 74
     2
176
     1
 91
        2
176
     1
 64
     7
176
     1
 65
     7
176
     1
 75
     1
176
     1
175
     1
176
     1
 42
40.0
176
     1
 92
       11
176
     1
 66
     7
176
     1
 43
1.0
176
     1
 76
     1
176
     1
 77
     6
176
     1
 78
     2
176
     1
 67
     7
176
     1
 79
     6
176
     1
170
     0
176
     1
171
     0
176
     1
290
     0
176
     1
 93
        1
176
     1
 44
0.0
176
     1
173
     0
176
     1
1001
ACAD
1000
AcDbSavedByObjectVersion
1070
     0
  0
VISUALSTYLE
  5
36
102
{ACAD_XDICTIONARY
360
188
102
}
102
{ACAD_REACTORS
330
29
102
}
330
29
100
AcDbVisualStyle
  2
Thicken
 70
    13
177
     2
291
     1
 71
     2
176
     1
 72
     2
176
     1
 73
     0
176
     1
 90
        0
176
     1
 40
0.6
176
     1
 41
30.0
176
     1
 63
     7
421
 16777215
176
     1
 74
     1
176
     1
 91
        4
176
     1
 64
     7
176
     1
 65
   257
176
     1
 75
     1
176
     1
175
     1
176
     1
 42
1.0
176
     1
 92
       12
176
     1
 66
     7
176
     1
 43
1.0
176
     1
 76
     1
176
     1
 77
     6
176
     1
 78
     2
176
     1
 67
     7
176
     1
 79
     5
176
     1
170
     0
176
     1
171
     0
176
     1
290
     0
176
     1
 93
        1
176
     1
 44
0.0
176
     1
173
     0
176
     1
1001
ACAD
1000
AcDbSavedByObjectVersion
1070
     0
  0
VISUALSTYLE
  5
30
102
{ACAD_XDICTIONARY
360
17C
102
}
102
{ACAD_REACTORS
330
29
102
}
330
29
100
AcDbVisualStyle
  2
Wireframe
 70
     5
177
     2
291
     0
 71
     0
176
     1
 72
     2
176
     1
 73
     0
176
     1
 90
        0
176
     1
 40
0.6
176
     1
 41
30.0
176
     1
 63
     7
421
 16777215
176
     1
 74
     1
176
     1
 91
        4
176
     1
 64
     7
176
     1
 65
   257
176
     1
 75
     1
176
     1
175
     1
176
     1
 42
1.0
176
     1
 92
        0
176
     1
 66
   257
176
     1
 43
1.0
176
     1
 76
     1
176
     1
 77
     6
176
     1
 78
     2
176
     1
 67
     7
176
     1
 79
     3
176
     1
170
     0
176
     1
171
     0
176
     1
290
     0
176
     1
 93
        1
176
     1
 44
0.0
176
     1
173
     0
176
     1
1001
ACAD
1000
AcDbSavedByObjectVersion
1070
     0
  0
VISUALSTYLE
  5
3C
102
{ACAD_XDICTIONARY
360
194
102
}
102
{ACAD_REACTORS
330
29
102
}
330
29
100
AcDbVisualStyle
  2
X-Ray
 70
    25
177
     2
291
     0
 71
     2
176
     1
 72
     2
176
     1
 73
     1
176
     1
 90
        1
176
     1
 40
0.5
176
     1
 41
30.0
176
     1
 63
     7
421
 16777215
176
     1
 74
     1
176
     1
 91
        0
176
     1
 64
     7
176
     1
 65
   257
176
     1
 75
     1
176
     1
175
     1
176
     1
 42
1.0
176
     1
 92
        8
176
     1
 66
     7
176
     1
 43
1.0
176
     1
 76
     1
176
     1
 77
     6
176
     1
 78
     2
176
     1
 67
     7
176
     1
 79
     3
176
     1
170
     0
176
     1
171
     0
176
     1
290
     0
176
     1
 93
       13
176
     1
 44
0.0
176
     1
173
     0
176
     1
1001
ACAD
1000
AcDbSavedByObjectVersion
1070
     0
  0
DICTIONARYVAR
  5
16C
102
{ACAD_REACTORS
330
167
102
}
330
167
100
DictionaryVariables
280
     0
  1
1:1
  0
DICTIONARYVAR
  5
169
102
{ACAD_REACTORS
330
167
102
}
330
167
100
DictionaryVariables
280
     0
  1
STANDARD
  0
DICTIONARYVAR
  5
168
102
{ACAD_REACTORS
330
167
102
}
330
167
100
DictionaryVariables
280
     0
  1
STANDARD
  0
DICTIONARYVAR
  5
16A
102
{ACAD_REACTORS
330
167
102
}
330
167
100
DictionaryVariables
280
     0
  1
Imperial24
  0
DICTIONARYVAR
  5
16B
102
{ACAD_REACTORS
330
167
102
}
330
167
100
DictionaryVariables
280
     0
  1
Imperial24
  0
DICTIONARY
  5
1A4
330
6B
100
AcDbDictionary
280
     1
281
     1
  3
ACAD_XREC_ROUNDTRIP
360
1A5
  0
DICTIONARY
  5
1A
330
19
100
AcDbDictionary
280
     1
281
     1
  3
BUMPTILE
360
1C
  3
DIFFUSETILE
360
1B
  3
OPACITYTILE
360
1F
  3
REFLECTIONTILE
360
1E
  3
REFRACTIONTILE
360
20
  3
SPECULARTILE
360
1D
  0
DICTIONARY
  5
12
330
11
100
AcDbDictionary
280
     1
281
     1
  3
BUMPTILE
360
14
  3
DIFFUSETILE
360
13
  3
OPACITYTILE
360
17
  3
REFLECTIONTILE
360
16
  3
REFRACTIONTILE
360
18
  3
SPECULARTILE
360
15
  0
DICTIONARY
  5
22
330
21
100
AcDbDictionary
280
     1
281
     1
  3
BUMPTILE
360
24
  3
DIFFUSETILE
360
23
  3
OPACITYTILE
360
27
  3
REFLECTIONTILE
360
26
  3
REFRACTIONTILE
360
28
  3
SPECULARTILE
360
25
  0
DICTIONARY
  5
1A0
330
67
100
AcDbDictionary
280
     1
281
     1
  3
ACAD_XREC_ROUNDTRIP
360
1A1
  0
DICTIONARY
  5
1A2
330
69
100
AcDbDictionary
280
     1
281
     1
  3
ACAD_XREC_ROUNDTRIP
360
1A3
  0
DICTIONARY
  5
16D
330
65
100
AcDbDictionary
280
     1
281
     1
  3
ACAD_ROUNDTRIP_2008_TABLESTYLE_CELLSTYLEMAP
360
16E
  0
DICTIONARY
  5
17A
330
2F
100
AcDbDictionary
280
     1
281
     1
  3
ACAD_XREC_ROUNDTRIP
360
17B
  0
DICTIONARY
  5
178
330
2E
100
AcDbDictionary
280
     1
281
     1
  3
ACAD_XREC_ROUNDTRIP
360
179
  0
DICTIONARY
  5
186
330
35
100
AcDbDictionary
280
     1
281
     1
  3
ACAD_XREC_ROUNDTRIP
360
187
  0
DICTIONARY
  5
18E
330
39
100
AcDbDictionary
280
     1
281
     1
  3
ACAD_XREC_ROUNDTRIP
360
18F
  0
DICTIONARY
  5
180
330
32
100
AcDbDictionary
280
     1
281
     1
  3
ACAD_XREC_ROUNDTRIP
360
181
  0
DICTIONARY
  5
184
330
34
100
AcDbDictionary
280
     1
281
     1
  3
ACAD_XREC_ROUNDTRIP
360
185
  0
DICTIONARY
  5
19E
330
41
100
AcDbDictionary
280
     1
281
     1
  3
ACAD_XREC_ROUNDTRIP
360
19F
  0
DICTIONARY
  5
18C
330
38
100
AcDbDictionary
280
     1
281
     1
  3
ACAD_XREC_ROUNDTRIP
360
18D
  0
DICTIONARY
  5
170
330
2A
100
AcDbDictionary
280
     1
281
     1
  3
ACAD_XREC_ROUNDTRIP
360
171
  0
DICTIONARY
  5
172
330
2B
100
AcDbDictionary
280
     1
281
     1
  3
ACAD_XREC_ROUNDTRIP
360
173
  0
DICTIONARY
  5
174
330
2C
100
AcDbDictionary
280
     1
281
     1
  3
ACAD_XREC_ROUNDTRIP
360
175
  0
DICTIONARY
  5
176
330
2D
100
AcDbDictionary
280
     1
281
     1
  3
ACAD_XREC_ROUNDTRIP
360
177
  0
DICTIONARY
  5
17E
330
31
100
AcDbDictionary
280
     1
281
     1
  3
ACAD_XREC_ROUNDTRIP
360
17F
  0
DICTIONARY
  5
19A
330
3F
100
AcDbDictionary
280
     1
281
     1
  3
ACAD_XREC_ROUNDTRIP
360
19B
  0
DICTIONARY
  5
18A
330
37
100
AcDbDictionary
280
     1
281
     1
  3
ACAD_XREC_ROUNDTRIP
360
18B
  0
DICTIONARY
  5
19C
330
40
100
AcDbDictionary
280
     1
281
     1
  3
ACAD_XREC_ROUNDTRIP
360
19D
  0
DICTIONARY
  5
182
330
33
100
AcDbDictionary
280
     1
281
     1
  3
ACAD_XREC_ROUNDTRIP
360
183
  0
DICTIONARY
  5
198
330
3E
100
AcDbDictionary
280
     1
281
     1
  3
ACAD_XREC_ROUNDTRIP
360
199
  0
DICTIONARY
  5
196
330
3D
100
AcDbDictionary
280
     1
281
     1
  3
ACAD_XREC_ROUNDTRIP
360
197
  0
DICTIONARY
  5
190
330
3A
100
AcDbDictionary
280
     1
281
     1
  3
ACAD_XREC_ROUNDTRIP
360
191
  0
DICTIONARY
  5
192
330
3B
100
AcDbDictionary
280
     1
281
     1
  3
ACAD_XREC_ROUNDTRIP
360
193
  0
DICTIONARY
  5
188
330
36
100
AcDbDictionary
280
     1
281
     1
  3
ACAD_XREC_ROUNDTRIP
360
189
  0
DICTIONARY
  5
17C
330
30
100
AcDbDictionary
280
     1
281
     1
  3
ACAD_XREC_ROUNDTRIP
360
17D
  0
DICTIONARY
  5
194
330
3C
100
AcDbDictionary
280
     1
281
     1
  3
ACAD_XREC_ROUNDTRIP
360
195
  0
XRECORD
  5
1A5
102
{ACAD_REACTORS
330
1A4
102
}
330
1A4
100
AcDbXrecord
280
     1
102
DISPLAYNAME
  1
Imperial24
102
FLAGS
 90
        0
  0
XRECORD
  5
1C
102
{ACAD_REACTORS
330
1A
102
}
330
1A
100
AcDbXrecord
280
     1
270
     1
271
     1
  0
XRECORD
  5
1B
102
{ACAD_REACTORS
330
1A
102
}
330
1A
100
AcDbXrecord
280
     1
270
     1
271
     1
  0
XRECORD
  5
1F
102
{ACAD_REACTORS
330
1A
102
}
330
1A
100
AcDbXrecord
280
     1
270
     1
271
     1
  0
XRECORD
  5
1E
102
{ACAD_REACTORS
330
1A
102
}
330
1A
100
AcDbXrecord
280
     1
270
     1
271
     1
  0
XRECORD
  5
20
102
{ACAD_REACTORS
330
1A
102
}
330
1A
100
AcDbXrecord
280
     1
270
     1
271
     1
  0
XRECORD
  5
1D
102
{ACAD_REACTORS
330
1A
102
}
330
1A
100
AcDbXrecord
280
     1
270
     1
271
     1
  0
XRECORD
  5
14
102
{ACAD_REACTORS
330
12
102
}
330
12
100
AcDbXrecord
280
     1
270
     1
271
     1
  0
XRECORD
  5
13
102
{ACAD_REACTORS
330
12
102
}
330
12
100
AcDbXrecord
280
     1
270
     1
271
     1
  0
XRECORD
  5
17
102
{ACAD_REACTORS
330
12
102
}
330
12
100
AcDbXrecord
280
     1
270
     1
271
     1
  0
XRECORD
  5
16
102
{ACAD_REACTORS
330
12
102
}
330
12
100
AcDbXrecord
280
     1
270
     1
271
     1
  0
XRECORD
  5
18
102
{ACAD_REACTORS
330
12
102
}
330
12
100
AcDbXrecord
280
     1
270
     1
271
     1
  0
XRECORD
  5
15
102
{ACAD_REACTORS
330
12
102
}
330
12
100
AcDbXrecord
280
     1
270
     1
271
     1
  0
XRECORD
  5
24
102
{ACAD_REACTORS
330
22
102
}
330
22
100
AcDbXrecord
280
     1
270
     1
271
     1
  0
XRECORD
  5
23
102
{ACAD_REACTORS
330
22
102
}
330
22
100
AcDbXrecord
280
     1
270
     1
271
     1
  0
XRECORD
  5
27
102
{ACAD_REACTORS
330
22
102
}
330
22
100
AcDbXrecord
280
     1
270
     1
271
     1
  0
XRECORD
  5
26
102
{ACAD_REACTORS
330
22
102
}
330
22
100
AcDbXrecord
280
     1
270
     1
271
     1
  0
XRECORD
  5
28
102
{ACAD_REACTORS
330
22
102
}
330
22
100
AcDbXrecord
280
     1
270
     1
271
     1
  0
XRECORD
  5
25
102
{ACAD_REACTORS
330
22
102
}
330
22
100
AcDbXrecord
280
     1
270
     1
271
     1
  0
XRECORD
  5
1A1
102
{ACAD_REACTORS
330
1A0
102
}
330
1A0
100
AcDbXrecord
280
     1
102
ACAD_ROUNDTRIP_2012_MLEADER_STYLE
298
     1
  0
XRECORD
  5
1A3
102
{ACAD_REACTORS
330
1A2
102
}
330
1A2
100
AcDbXrecord
280
     1
102
DISPLAYNAME
  1
Imperial24
102
FLAGS
 90
        0
  0
CELLSTYLEMAP
  5
16E
102
{ACAD_REACTORS
330
16D
102
}
330
16D
100
AcDbCellStyleMap
 90
        3
300
CELLSTYLE
  1
TABLEFORMAT_BEGIN
 90
        5
170
     1
 91
        0
 92
    32768
 62
   257
 93
        1
300
CONTENTFORMAT
  1
CONTENTFORMAT_BEGIN
 90
        0
 91
        0
 92
      512
 93
        0
300

 40
0.0
140
1.0
 94
        5
 62
     0
340
55
144
0.25
309
CONTENTFORMAT_END
171
     0
 94
        0
309
TABLEFORMAT_END
  1
CELLSTYLE_BEGIN
 90
        1
 91
        1
300
_TITLE
309
CELLSTYLE_END
300
CELLSTYLE
  1
TABLEFORMAT_BEGIN
 90
        5
170
     1
 91
        0
 92
        0
 62
   257
 93
        1
300
CONTENTFORMAT
  1
CONTENTFORMAT_BEGIN
 90
        0
 91
        0
 92
      512
 93
        0
300

 40
0.0
140
1.0
 94
        5
 62
     0
340
55
144
0.18
309
CONTENTFORMAT_END
171
     0
 94
        0
309
TABLEFORMAT_END
  1
CELLSTYLE_BEGIN
 90
        2
 91
        1
300
_HEADER
309
CELLSTYLE_END
300
CELLSTYLE
  1
TABLEFORMAT_BEGIN
 90
        5
170
     1
 91
        0
 92
        0
 62
   257
 93
        1
300
CONTENTFORMAT
  1
CONTENTFORMAT_BEGIN
 90
        0
 91
        0
 92
      512
 93
        0
300

 40
0.0
140
1.0
 94
        2
 62
     0
340
55
144
0.18
309
CONTENTFORMAT_END
171
     0
 94
        0
309
TABLEFORMAT_END
  1
CELLSTYLE_BEGIN
 90
        3
 91
        2
300
_DATA
309
CELLSTYLE_END
  0
XRECORD
  5
17B
102
{ACAD_REACTORS
330
17A
102
}
330
17A
100
AcDbXrecord
280
     1
102
RTVSPost2010Prop28
280
     1
102
RTVSPost2010PropOp28
 70
     1
102
RTVSPost2010Prop29
280
     1
102
RTVSPost2010PropOp29
 70
     1
102
RTVSPost2010Prop30
280
     0
102
RTVSPost2010PropOp30
 70
     1
102
RTVSPost2010Prop31
280
     0
102
RTVSPost2010PropOp31
 70
     1
102
RTVSPost2010Prop32
280
     0
102
RTVSPost2010PropOp32
 70
     1
102
RTVSPost2010Prop33
280
     0
102
RTVSPost2010PropOp33
 70
     1
102
RTVSPost2010Prop34
280
     0
102
RTVSPost2010PropOp34
 70
     1
102
RTVSPost2010Prop35
280
     0
102
RTVSPost2010PropOp35
 70
     1
102
RTVSPost2010Prop36
280
     0
102
RTVSPost2010PropOp36
 70
     1
102
RTVSPost2010Prop37
 90
       50
102
RTVSPost2010PropOp37
 70
     1
102
RTVSPost2010Prop38
140
0.0
102
RTVSPost2010PropOp38
 70
     1
102
RTVSPost2010Prop39
140
1.0
102
RTVSPost2010PropOp39
 70
     1
102
RTVSPost2010Prop40
 90
        0
102
RTVSPost2010PropOp40
 70
     1
102
RTVSPost2010Prop41ColorIndex
 90
       18
102
RTVSPost2010Prop41ColorRGB
 90
        0
102
RTVSPost2010PropOp41
 70
     1
102
RTVSPost2010Prop42
 90
       50
102
RTVSPost2010PropOp42
 70
     1
102
RTVSPost2010Prop43
 90
        3
102
RTVSPost2010PropOp43
 70
     1
102
RTVSPost2010Prop44ColorIndex
 90
        5
102
RTVSPost2010Prop44ColorRGB
 90
      255
102
RTVSPost2010PropOp44
 70
     1
102
RTVSPost2010Prop45
280
     0
102
RTVSPost2010PropOp45
 70
     1
102
RTVSPost2010Prop46
 90
       50
102
RTVSPost2010PropOp46
 70
     1
102
RTVSPost2010Prop47
 90
       50
102
RTVSPost2010PropOp47
 70
     1
102
RTVSPost2010Prop48
 90
       50
102
RTVSPost2010PropOp48
 70
     1
102
RTVSPost2010Prop49
280
     0
102
RTVSPost2010PropOp49
 70
     1
102
RTVSPost2010Prop50
 90
       50
102
RTVSPost2010PropOp50
 70
     1
102
RTVSPost2010Prop51ColorIndex
 90
      256
102
RTVSPost2010Prop51ColorRGB
 90
-16777216
102
RTVSPost2010PropOp51
 70
     0
102
RTVSPost2010Prop52
140
1.0
102
RTVSPost2010PropOp52
 70
     0
102
RTVSPost2010Prop53
 90
        2
102
RTVSPost2010PropOp53
 70
     1
102
RTVSPost2010Prop54
  1
strokes_ogs.tif
102
RTVSPost2010PropOp54
 70
     1
102
RTVSPost2010Prop55
280
     0
102
RTVSPost2010PropOp55
 70
     1
102
RTVSPost2010Prop56
140
1.0
102
RTVSPost2010PropOp56
 70
     1
102
RTVSPost2010Prop57
140
1.0
102
RTVSPost2010PropOp57
 70
     1
  0
XRECORD
  5
179
102
{ACAD_REACTORS
330
178
102
}
330
178
100
AcDbXrecord
280
     1
102
RTVSPost2010Prop28
280
     0
102
RTVSPost2010PropOp28
 70
     1
102
RTVSPost2010Prop29
280
     1
102
RTVSPost2010PropOp29
 70
     1
102
RTVSPost2010Prop30
280
     1
102
RTVSPost2010PropOp30
 70
     1
102
RTVSPost2010Prop31
280
     0
102
RTVSPost2010PropOp31
 70
     1
102
RTVSPost2010Prop32
280
     0
102
RTVSPost2010PropOp32
 70
     1
102
RTVSPost2010Prop33
280
     0
102
RTVSPost2010PropOp33
 70
     1
102
RTVSPost2010Prop34
280
     0
102
RTVSPost2010PropOp34
 70
     1
102
RTVSPost2010Prop35
280
     0
102
RTVSPost2010PropOp35
 70
     1
102
RTVSPost2010Prop36
280
     0
102
RTVSPost2010PropOp36
 70
     1
102
RTVSPost2010Prop37
 90
       50
102
RTVSPost2010PropOp37
 70
     1
102
RTVSPost2010Prop38
140
0.0
102
RTVSPost2010PropOp38
 70
     1
102
RTVSPost2010Prop39
140
1.0
102
RTVSPost2010PropOp39
 70
     1
102
RTVSPost2010Prop40
 90
        0
102
RTVSPost2010PropOp40
 70
     1
102
RTVSPost2010Prop41ColorIndex
 90
       18
102
RTVSPost2010Prop41ColorRGB
 90
        0
102
RTVSPost2010PropOp41
 70
     1
102
RTVSPost2010Prop42
 90
       50
102
RTVSPost2010PropOp42
 70
     1
102
RTVSPost2010Prop43
 90
        3
102
RTVSPost2010PropOp43
 70
     1
102
RTVSPost2010Prop44ColorIndex
 90
        5
102
RTVSPost2010Prop44ColorRGB
 90
      255
102
RTVSPost2010PropOp44
 70
     1
102
RTVSPost2010Prop45
280
     0
102
RTVSPost2010PropOp45
 70
     1
102
RTVSPost2010Prop46
 90
       50
102
RTVSPost2010PropOp46
 70
     1
102
RTVSPost2010Prop47
 90
       50
102
RTVSPost2010PropOp47
 70
     1
102
RTVSPost2010Prop48
 90
       50
102
RTVSPost2010PropOp48
 70
     1
102
RTVSPost2010Prop49
280
     0
102
RTVSPost2010PropOp49
 70
     1
102
RTVSPost2010Prop50
 90
       50
102
RTVSPost2010PropOp50
 70
     1
102
RTVSPost2010Prop51ColorIndex
 90
      256
102
RTVSPost2010Prop51ColorRGB
 90
-16777216
102
RTVSPost2010PropOp51
 70
     0
102
RTVSPost2010Prop52
140
1.0
102
RTVSPost2010PropOp52
 70
     0
102
RTVSPost2010Prop53
 90
        2
102
RTVSPost2010PropOp53
 70
     1
102
RTVSPost2010Prop54
  1
strokes_ogs.tif
102
RTVSPost2010PropOp54
 70
     1
102
RTVSPost2010Prop55
280
     0
102
RTVSPost2010PropOp55
 70
     1
102
RTVSPost2010Prop56
140
1.0
102
RTVSPost2010PropOp56
 70
     1
102
RTVSPost2010Prop57
140
1.0
102
RTVSPost2010PropOp57
 70
     1
  0
XRECORD
  5
187
102
{ACAD_REACTORS
330
186
102
}
330
186
100
AcDbXrecord
280
     1
102
RTVSPost2010Prop28
280
     0
102
RTVSPost2010PropOp28
 70
     1
102
RTVSPost2010Prop29
280
     1
102
RTVSPost2010PropOp29
 70
     1
102
RTVSPost2010Prop30
280
     1
102
RTVSPost2010PropOp30
 70
     1
102
RTVSPost2010Prop31
280
     0
102
RTVSPost2010PropOp31
 70
     1
102
RTVSPost2010Prop32
280
     0
102
RTVSPost2010PropOp32
 70
     1
102
RTVSPost2010Prop33
280
     0
102
RTVSPost2010PropOp33
 70
     1
102
RTVSPost2010Prop34
280
     0
102
RTVSPost2010PropOp34
 70
     1
102
RTVSPost2010Prop35
280
     0
102
RTVSPost2010PropOp35
 70
     1
102
RTVSPost2010Prop36
280
     0
102
RTVSPost2010PropOp36
 70
     1
102
RTVSPost2010Prop37
 90
       50
102
RTVSPost2010PropOp37
 70
     1
102
RTVSPost2010Prop38
140
0.0
102
RTVSPost2010PropOp38
 70
     1
102
RTVSPost2010Prop39
140
1.0
102
RTVSPost2010PropOp39
 70
     1
102
RTVSPost2010Prop40
 90
        0
102
RTVSPost2010PropOp40
 70
     1
102
RTVSPost2010Prop41ColorIndex
 90
       18
102
RTVSPost2010Prop41ColorRGB
 90
        0
102
RTVSPost2010PropOp41
 70
     1
102
RTVSPost2010Prop42
 90
       50
102
RTVSPost2010PropOp42
 70
     1
102
RTVSPost2010Prop43
 90
        3
102
RTVSPost2010PropOp43
 70
     1
102
RTVSPost2010Prop44ColorIndex
 90
        5
102
RTVSPost2010Prop44ColorRGB
 90
      255
102
RTVSPost2010PropOp44
 70
     1
102
RTVSPost2010Prop45
280
     0
102
RTVSPost2010PropOp45
 70
     1
102
RTVSPost2010Prop46
 90
       50
102
RTVSPost2010PropOp46
 70
     1
102
RTVSPost2010Prop47
 90
       50
102
RTVSPost2010PropOp47
 70
     1
102
RTVSPost2010Prop48
 90
       50
102
RTVSPost2010PropOp48
 70
     1
102
RTVSPost2010Prop49
280
     0
102
RTVSPost2010PropOp49
 70
     1
102
RTVSPost2010Prop50
 90
       50
102
RTVSPost2010PropOp50
 70
     1
102
RTVSPost2010Prop51ColorIndex
 90
      256
102
RTVSPost2010Prop51ColorRGB
 90
-16777216
102
RTVSPost2010PropOp51
 70
     0
102
RTVSPost2010Prop52
140
1.0
102
RTVSPost2010PropOp52
 70
     0
102
RTVSPost2010Prop53
 90
        2
102
RTVSPost2010PropOp53
 70
     1
102
RTVSPost2010Prop54
  1
strokes_ogs.tif
102
RTVSPost2010PropOp54
 70
     1
102
RTVSPost2010Prop55
280
     0
102
RTVSPost2010PropOp55
 70
     1
102
RTVSPost2010Prop56
140
1.0
102
RTVSPost2010PropOp56
 70
     1
102
RTVSPost2010Prop57
140
1.0
102
RTVSPost2010PropOp57
 70
     1
  0
XRECORD
  5
18F
102
{ACAD_REACTORS
330
18E
102
}
330
18E
100
AcDbXrecord
280
     1
102
RTVSPost2010Prop28
280
     0
102
RTVSPost2010PropOp28
 70
     1
102
RTVSPost2010Prop29
280
     1
102
RTVSPost2010PropOp29
 70
     1
102
RTVSPost2010Prop30
280
     1
102
RTVSPost2010PropOp30
 70
     1
102
RTVSPost2010Prop31
280
     0
102
RTVSPost2010PropOp31
 70
     1
102
RTVSPost2010Prop32
280
     0
102
RTVSPost2010PropOp32
 70
     1
102
RTVSPost2010Prop33
280
     0
102
RTVSPost2010PropOp33
 70
     1
102
RTVSPost2010Prop34
280
     0
102
RTVSPost2010PropOp34
 70
     1
102
RTVSPost2010Prop35
280
     0
102
RTVSPost2010PropOp35
 70
     1
102
RTVSPost2010Prop36
280
     0
102
RTVSPost2010PropOp36
 70
     1
102
RTVSPost2010Prop37
 90
       50
102
RTVSPost2010PropOp37
 70
     1
102
RTVSPost2010Prop38
140
0.0
102
RTVSPost2010PropOp38
 70
     1
102
RTVSPost2010Prop39
140
1.0
102
RTVSPost2010PropOp39
 70
     1
102
RTVSPost2010Prop40
 90
        0
102
RTVSPost2010PropOp40
 70
     1
102
RTVSPost2010Prop41ColorIndex
 90
       18
102
RTVSPost2010Prop41ColorRGB
 90
        0
102
RTVSPost2010PropOp41
 70
     1
102
RTVSPost2010Prop42
 90
       50
102
RTVSPost2010PropOp42
 70
     1
102
RTVSPost2010Prop43
 90
        3
102
RTVSPost2010PropOp43
 70
     1
102
RTVSPost2010Prop44ColorIndex
 90
        5
102
RTVSPost2010Prop44ColorRGB
 90
      255
102
RTVSPost2010PropOp44
 70
     1
102
RTVSPost2010Prop45
280
     0
102
RTVSPost2010PropOp45
 70
     1
102
RTVSPost2010Prop46
 90
       50
102
RTVSPost2010PropOp46
 70
     1
102
RTVSPost2010Prop47
 90
       50
102
RTVSPost2010PropOp47
 70
     1
102
RTVSPost2010Prop48
 90
       50
102
RTVSPost2010PropOp48
 70
     1
102
RTVSPost2010Prop49
280
     0
102
RTVSPost2010PropOp49
 70
     1
102
RTVSPost2010Prop50
 90
       50
102
RTVSPost2010PropOp50
 70
     1
102
RTVSPost2010Prop51ColorIndex
 90
      256
102
RTVSPost2010Prop51ColorRGB
 90
-16777216
102
RTVSPost2010PropOp51
 70
     0
102
RTVSPost2010Prop52
140
1.0
102
RTVSPost2010PropOp52
 70
     0
102
RTVSPost2010Prop53
 90
        2
102
RTVSPost2010PropOp53
 70
     1
102
RTVSPost2010Prop54
  1
strokes_ogs.tif
102
RTVSPost2010PropOp54
 70
     1
102
RTVSPost2010Prop55
280
     0
102
RTVSPost2010PropOp55
 70
     1
102
RTVSPost2010Prop56
140
1.0
102
RTVSPost2010PropOp56
 70
     1
102
RTVSPost2010Prop57
140
1.0
102
RTVSPost2010PropOp57
 70
     1
  0
XRECORD
  5
181
102
{ACAD_REACTORS
330
180
102
}
330
180
100
AcDbXrecord
280
     1
102
RTVSPost2010Prop28
280
     0
102
RTVSPost2010PropOp28
 70
     1
102
RTVSPost2010Prop29
280
     1
102
RTVSPost2010PropOp29
 70
     1
102
RTVSPost2010Prop30
280
     1
102
RTVSPost2010PropOp30
 70
     1
102
RTVSPost2010Prop31
280
     0
102
RTVSPost2010PropOp31
 70
     1
102
RTVSPost2010Prop32
280
     0
102
RTVSPost2010PropOp32
 70
     1
102
RTVSPost2010Prop33
280
     0
102
RTVSPost2010PropOp33
 70
     1
102
RTVSPost2010Prop34
280
     0
102
RTVSPost2010PropOp34
 70
     1
102
RTVSPost2010Prop35
280
     0
102
RTVSPost2010PropOp35
 70
     1
102
RTVSPost2010Prop36
280
     0
102
RTVSPost2010PropOp36
 70
     1
102
RTVSPost2010Prop37
 90
       50
102
RTVSPost2010PropOp37
 70
     1
102
RTVSPost2010Prop38
140
0.0
102
RTVSPost2010PropOp38
 70
     1
102
RTVSPost2010Prop39
140
1.0
102
RTVSPost2010PropOp39
 70
     1
102
RTVSPost2010Prop40
 90
        0
102
RTVSPost2010PropOp40
 70
     1
102
RTVSPost2010Prop41ColorIndex
 90
       18
102
RTVSPost2010Prop41ColorRGB
 90
        0
102
RTVSPost2010PropOp41
 70
     1
102
RTVSPost2010Prop42
 90
       50
102
RTVSPost2010PropOp42
 70
     1
102
RTVSPost2010Prop43
 90
        3
102
RTVSPost2010PropOp43
 70
     1
102
RTVSPost2010Prop44ColorIndex
 90
        5
102
RTVSPost2010Prop44ColorRGB
 90
      255
102
RTVSPost2010PropOp44
 70
     1
102
RTVSPost2010Prop45
280
     0
102
RTVSPost2010PropOp45
 70
     1
102
RTVSPost2010Prop46
 90
       50
102
RTVSPost2010PropOp46
 70
     1
102
RTVSPost2010Prop47
 90
       50
102
RTVSPost2010PropOp47
 70
     1
102
RTVSPost2010Prop48
 90
       50
102
RTVSPost2010PropOp48
 70
     1
102
RTVSPost2010Prop49
280
     0
102
RTVSPost2010PropOp49
 70
     1
102
RTVSPost2010Prop50
 90
       50
102
RTVSPost2010PropOp50
 70
     1
102
RTVSPost2010Prop51ColorIndex
 90
      256
102
RTVSPost2010Prop51ColorRGB
 90
-16777216
102
RTVSPost2010PropOp51
 70
     0
102
RTVSPost2010Prop52
140
1.0
102
RTVSPost2010PropOp52
 70
     0
102
RTVSPost2010Prop53
 90
        2
102
RTVSPost2010PropOp53
 70
     1
102
RTVSPost2010Prop54
  1
strokes_ogs.tif
102
RTVSPost2010PropOp54
 70
     1
102
RTVSPost2010Prop55
280
     0
102
RTVSPost2010PropOp55
 70
     1
102
RTVSPost2010Prop56
140
1.0
102
RTVSPost2010PropOp56
 70
     1
102
RTVSPost2010Prop57
140
1.0
102
RTVSPost2010PropOp57
 70
     1
  0
XRECORD
  5
185
102
{ACAD_REACTORS
330
184
102
}
330
184
100
AcDbXrecord
280
     1
102
RTVSPost2010Prop28
280
     0
102
RTVSPost2010PropOp28
 70
     1
102
RTVSPost2010Prop29
280
     1
102
RTVSPost2010PropOp29
 70
     1
102
RTVSPost2010Prop30
280
     1
102
RTVSPost2010PropOp30
 70
     1
102
RTVSPost2010Prop31
280
     0
102
RTVSPost2010PropOp31
 70
     1
102
RTVSPost2010Prop32
280
     0
102
RTVSPost2010PropOp32
 70
     1
102
RTVSPost2010Prop33
280
     0
102
RTVSPost2010PropOp33
 70
     1
102
RTVSPost2010Prop34
280
     0
102
RTVSPost2010PropOp34
 70
     1
102
RTVSPost2010Prop35
280
     0
102
RTVSPost2010PropOp35
 70
     1
102
RTVSPost2010Prop36
280
     0
102
RTVSPost2010PropOp36
 70
     1
102
RTVSPost2010Prop37
 90
       50
102
RTVSPost2010PropOp37
 70
     1
102
RTVSPost2010Prop38
140
0.0
102
RTVSPost2010PropOp38
 70
     1
102
RTVSPost2010Prop39
140
1.0
102
RTVSPost2010PropOp39
 70
     1
102
RTVSPost2010Prop40
 90
        0
102
RTVSPost2010PropOp40
 70
     1
102
RTVSPost2010Prop41ColorIndex
 90
       18
102
RTVSPost2010Prop41ColorRGB
 90
        0
102
RTVSPost2010PropOp41
 70
     1
102
RTVSPost2010Prop42
 90
       50
102
RTVSPost2010PropOp42
 70
     1
102
RTVSPost2010Prop43
 90
        3
102
RTVSPost2010PropOp43
 70
     1
102
RTVSPost2010Prop44ColorIndex
 90
        5
102
RTVSPost2010Prop44ColorRGB
 90
      255
102
RTVSPost2010PropOp44
 70
     1
102
RTVSPost2010Prop45
280
     0
102
RTVSPost2010PropOp45
 70
     1
102
RTVSPost2010Prop46
 90
       50
102
RTVSPost2010PropOp46
 70
     1
102
RTVSPost2010Prop47
 90
       50
102
RTVSPost2010PropOp47
 70
     1
102
RTVSPost2010Prop48
 90
       50
102
RTVSPost2010PropOp48
 70
     1
102
RTVSPost2010Prop49
280
     0
102
RTVSPost2010PropOp49
 70
     1
102
RTVSPost2010Prop50
 90
       50
102
RTVSPost2010PropOp50
 70
     1
102
RTVSPost2010Prop51ColorIndex
 90
      256
102
RTVSPost2010Prop51ColorRGB
 90
-16777216
102
RTVSPost2010PropOp51
 70
     0
102
RTVSPost2010Prop52
140
1.0
102
RTVSPost2010PropOp52
 70
     0
102
RTVSPost2010Prop53
 90
        2
102
RTVSPost2010PropOp53
 70
     1
102
RTVSPost2010Prop54
  1
strokes_ogs.tif
102
RTVSPost2010PropOp54
 70
     1
102
RTVSPost2010Prop55
280
     0
102
RTVSPost2010PropOp55
 70
     1
102
RTVSPost2010Prop56
140
1.0
102
RTVSPost2010PropOp56
 70
     1
102
RTVSPost2010Prop57
140
1.0
102
RTVSPost2010PropOp57
 70
     1
  0
XRECORD
  5
19F
102
{ACAD_REACTORS
330
19E
102
}
330
19E
100
AcDbXrecord
280
     1
102
RTVSPost2010Prop28
280
     0
102
RTVSPost2010PropOp28
 70
     0
102
RTVSPost2010Prop29
280
     1
102
RTVSPost2010PropOp29
 70
     0
102
RTVSPost2010Prop30
280
     1
102
RTVSPost2010PropOp30
 70
     0
102
RTVSPost2010Prop31
280
     0
102
RTVSPost2010PropOp31
 70
     0
102
RTVSPost2010Prop32
280
     0
102
RTVSPost2010PropOp32
 70
     0
102
RTVSPost2010Prop33
280
     0
102
RTVSPost2010PropOp33
 70
     0
102
RTVSPost2010Prop34
280
     0
102
RTVSPost2010PropOp34
 70
     0
102
RTVSPost2010Prop35
280
     0
102
RTVSPost2010PropOp35
 70
     0
102
RTVSPost2010Prop36
280
     0
102
RTVSPost2010PropOp36
 70
     0
102
RTVSPost2010Prop37
 90
       50
102
RTVSPost2010PropOp37
 70
     0
102
RTVSPost2010Prop38
140
0.0
102
RTVSPost2010PropOp38
 70
     0
102
RTVSPost2010Prop39
140
1.0
102
RTVSPost2010PropOp39
 70
     0
102
RTVSPost2010Prop40
 90
        0
102
RTVSPost2010PropOp40
 70
     0
102
RTVSPost2010Prop41ColorIndex
 90
       18
102
RTVSPost2010Prop41ColorRGB
 90
        0
102
RTVSPost2010PropOp41
 70
     0
102
RTVSPost2010Prop42
 90
       50
102
RTVSPost2010PropOp42
 70
     0
102
RTVSPost2010Prop43
 90
        3
102
RTVSPost2010PropOp43
 70
     0
102
RTVSPost2010Prop44ColorIndex
 90
        5
102
RTVSPost2010Prop44ColorRGB
 90
      255
102
RTVSPost2010PropOp44
 70
     0
102
RTVSPost2010Prop45
280
     0
102
RTVSPost2010PropOp45
 70
     0
102
RTVSPost2010Prop46
 90
       50
102
RTVSPost2010PropOp46
 70
     0
102
RTVSPost2010Prop47
 90
       50
102
RTVSPost2010PropOp47
 70
     0
102
RTVSPost2010Prop48
 90
       50
102
RTVSPost2010PropOp48
 70
     0
102
RTVSPost2010Prop49
280
     0
102
RTVSPost2010PropOp49
 70
     0
102
RTVSPost2010Prop50
 90
       50
102
RTVSPost2010PropOp50
 70
     0
102
RTVSPost2010Prop51ColorIndex
 90
      256
102
RTVSPost2010Prop51ColorRGB
 90
-16777216
102
RTVSPost2010PropOp51
 70
     0
102
RTVSPost2010Prop52
140
1.0
102
RTVSPost2010PropOp52
 70
     0
102
RTVSPost2010Prop53
 90
        2
102
RTVSPost2010PropOp53
 70
     0
102
RTVSPost2010Prop54
  1
strokes_ogs.tif
102
RTVSPost2010PropOp54
 70
     0
102
RTVSPost2010Prop55
280
     0
102
RTVSPost2010PropOp55
 70
     0
102
RTVSPost2010Prop56
140
1.0
102
RTVSPost2010PropOp56
 70
     0
102
RTVSPost2010Prop57
140
1.0
102
RTVSPost2010PropOp57
 70
     0
  0
XRECORD
  5
18D
102
{ACAD_REACTORS
330
18C
102
}
330
18C
100
AcDbXrecord
280
     1
102
RTVSPost2010Prop28
280
     0
102
RTVSPost2010PropOp28
 70
     1
102
RTVSPost2010Prop29
280
     1
102
RTVSPost2010PropOp29
 70
     1
102
RTVSPost2010Prop30
280
     1
102
RTVSPost2010PropOp30
 70
     1
102
RTVSPost2010Prop31
280
     0
102
RTVSPost2010PropOp31
 70
     1
102
RTVSPost2010Prop32
280
     0
102
RTVSPost2010PropOp32
 70
     1
102
RTVSPost2010Prop33
280
     0
102
RTVSPost2010PropOp33
 70
     1
102
RTVSPost2010Prop34
280
     0
102
RTVSPost2010PropOp34
 70
     1
102
RTVSPost2010Prop35
280
     0
102
RTVSPost2010PropOp35
 70
     1
102
RTVSPost2010Prop36
280
     0
102
RTVSPost2010PropOp36
 70
     1
102
RTVSPost2010Prop37
 90
       50
102
RTVSPost2010PropOp37
 70
     1
102
RTVSPost2010Prop38
140
0.0
102
RTVSPost2010PropOp38
 70
     1
102
RTVSPost2010Prop39
140
1.0
102
RTVSPost2010PropOp39
 70
     1
102
RTVSPost2010Prop40
 90
        0
102
RTVSPost2010PropOp40
 70
     1
102
RTVSPost2010Prop41ColorIndex
 90
       18
102
RTVSPost2010Prop41ColorRGB
 90
        0
102
RTVSPost2010PropOp41
 70
     1
102
RTVSPost2010Prop42
 90
       50
102
RTVSPost2010PropOp42
 70
     1
102
RTVSPost2010Prop43
 90
        3
102
RTVSPost2010PropOp43
 70
     1
102
RTVSPost2010Prop44ColorIndex
 90
        5
102
RTVSPost2010Prop44ColorRGB
 90
      255
102
RTVSPost2010PropOp44
 70
     1
102
RTVSPost2010Prop45
280
     0
102
RTVSPost2010PropOp45
 70
     1
102
RTVSPost2010Prop46
 90
       50
102
RTVSPost2010PropOp46
 70
     1
102
RTVSPost2010Prop47
 90
       50
102
RTVSPost2010PropOp47
 70
     1
102
RTVSPost2010Prop48
 90
       50
102
RTVSPost2010PropOp48
 70
     1
102
RTVSPost2010Prop49
280
     0
102
RTVSPost2010PropOp49
 70
     1
102
RTVSPost2010Prop50
 90
       50
102
RTVSPost2010PropOp50
 70
     1
102
RTVSPost2010Prop51ColorIndex
 90
      256
102
RTVSPost2010Prop51ColorRGB
 90
-16777216
102
RTVSPost2010PropOp51
 70
     0
102
RTVSPost2010Prop52
140
1.0
102
RTVSPost2010PropOp52
 70
     0
102
RTVSPost2010Prop53
 90
        2
102
RTVSPost2010PropOp53
 70
     1
102
RTVSPost2010Prop54
  1
strokes_ogs.tif
102
RTVSPost2010PropOp54
 70
     1
102
RTVSPost2010Prop55
280
     0
102
RTVSPost2010PropOp55
 70
     1
102
RTVSPost2010Prop56
140
1.0
102
RTVSPost2010PropOp56
 70
     1
102
RTVSPost2010Prop57
140
1.0
102
RTVSPost2010PropOp57
 70
     1
  0
XRECORD
  5
171
102
{ACAD_REACTORS
330
170
102
}
330
170
100
AcDbXrecord
280
     1
102
RTVSPost2010Prop28
280
     0
102
RTVSPost2010PropOp28
 70
     1
102
RTVSPost2010Prop29
280
     1
102
RTVSPost2010PropOp29
 70
     1
102
RTVSPost2010Prop30
280
     1
102
RTVSPost2010PropOp30
 70
     1
102
RTVSPost2010Prop31
280
     0
102
RTVSPost2010PropOp31
 70
     1
102
RTVSPost2010Prop32
280
     0
102
RTVSPost2010PropOp32
 70
     1
102
RTVSPost2010Prop33
280
     0
102
RTVSPost2010PropOp33
 70
     1
102
RTVSPost2010Prop34
280
     0
102
RTVSPost2010PropOp34
 70
     1
102
RTVSPost2010Prop35
280
     0
102
RTVSPost2010PropOp35
 70
     1
102
RTVSPost2010Prop36
280
     0
102
RTVSPost2010PropOp36
 70
     1
102
RTVSPost2010Prop37
 90
       50
102
RTVSPost2010PropOp37
 70
     1
102
RTVSPost2010Prop38
140
0.0
102
RTVSPost2010PropOp38
 70
     1
102
RTVSPost2010Prop39
140
1.0
102
RTVSPost2010PropOp39
 70
     1
102
RTVSPost2010Prop40
 90
        0
102
RTVSPost2010PropOp40
 70
     1
102
RTVSPost2010Prop41ColorIndex
 90
       18
102
RTVSPost2010Prop41ColorRGB
 90
        0
102
RTVSPost2010PropOp41
 70
     1
102
RTVSPost2010Prop42
 90
       50
102
RTVSPost2010PropOp42
 70
     1
102
RTVSPost2010Prop43
 90
        3
102
RTVSPost2010PropOp43
 70
     1
102
RTVSPost2010Prop44ColorIndex
 90
        5
102
RTVSPost2010Prop44ColorRGB
 90
      255
102
RTVSPost2010PropOp44
 70
     1
102
RTVSPost2010Prop45
280
     0
102
RTVSPost2010PropOp45
 70
     1
102
RTVSPost2010Prop46
 90
       50
102
RTVSPost2010PropOp46
 70
     1
102
RTVSPost2010Prop47
 90
       50
102
RTVSPost2010PropOp47
 70
     1
102
RTVSPost2010Prop48
 90
       50
102
RTVSPost2010PropOp48
 70
     1
102
RTVSPost2010Prop49
280
     0
102
RTVSPost2010PropOp49
 70
     1
102
RTVSPost2010Prop50
 90
       50
102
RTVSPost2010PropOp50
 70
     1
102
RTVSPost2010Prop51ColorIndex
 90
      256
102
RTVSPost2010Prop51ColorRGB
 90
-16777216
102
RTVSPost2010PropOp51
 70
     0
102
RTVSPost2010Prop52
140
1.0
102
RTVSPost2010PropOp52
 70
     0
102
RTVSPost2010Prop53
 90
        2
102
RTVSPost2010PropOp53
 70
     1
102
RTVSPost2010Prop54
  1
strokes_ogs.tif
102
RTVSPost2010PropOp54
 70
     1
102
RTVSPost2010Prop55
280
     0
102
RTVSPost2010PropOp55
 70
     1
102
RTVSPost2010Prop56
140
1.0
102
RTVSPost2010PropOp56
 70
     1
102
RTVSPost2010Prop57
140
1.0
102
RTVSPost2010PropOp57
 70
     1
  0
XRECORD
  5
173
102
{ACAD_REACTORS
330
172
102
}
330
172
100
AcDbXrecord
280
     1
102
RTVSPost2010Prop28
280
     0
102
RTVSPost2010PropOp28
 70
     1
102
RTVSPost2010Prop29
280
     1
102
RTVSPost2010PropOp29
 70
     1
102
RTVSPost2010Prop30
280
     1
102
RTVSPost2010PropOp30
 70
     1
102
RTVSPost2010Prop31
280
     0
102
RTVSPost2010PropOp31
 70
     1
102
RTVSPost2010Prop32
280
     0
102
RTVSPost2010PropOp32
 70
     1
102
RTVSPost2010Prop33
280
     0
102
RTVSPost2010PropOp33
 70
     1
102
RTVSPost2010Prop34
280
     0
102
RTVSPost2010PropOp34
 70
     1
102
RTVSPost2010Prop35
280
     0
102
RTVSPost2010PropOp35
 70
     1
102
RTVSPost2010Prop36
280
     0
102
RTVSPost2010PropOp36
 70
     1
102
RTVSPost2010Prop37
 90
       50
102
RTVSPost2010PropOp37
 70
     1
102
RTVSPost2010Prop38
140
0.0
102
RTVSPost2010PropOp38
 70
     1
102
RTVSPost2010Prop39
140
1.0
102
RTVSPost2010PropOp39
 70
     1
102
RTVSPost2010Prop40
 90
        0
102
RTVSPost2010PropOp40
 70
     1
102
RTVSPost2010Prop41ColorIndex
 90
       18
102
RTVSPost2010Prop41ColorRGB
 90
        0
102
RTVSPost2010PropOp41
 70
     1
102
RTVSPost2010Prop42
 90
       50
102
RTVSPost2010PropOp42
 70
     1
102
RTVSPost2010Prop43
 90
        3
102
RTVSPost2010PropOp43
 70
     1
102
RTVSPost2010Prop44ColorIndex
 90
        5
102
RTVSPost2010Prop44ColorRGB
 90
      255
102
RTVSPost2010PropOp44
 70
     1
102
RTVSPost2010Prop45
280
     0
102
RTVSPost2010PropOp45
 70
     1
102
RTVSPost2010Prop46
 90
       50
102
RTVSPost2010PropOp46
 70
     1
102
RTVSPost2010Prop47
 90
       50
102
RTVSPost2010PropOp47
 70
     1
102
RTVSPost2010Prop48
 90
       50
102
RTVSPost2010PropOp48
 70
     1
102
RTVSPost2010Prop49
280
     0
102
RTVSPost2010PropOp49
 70
     1
102
RTVSPost2010Prop50
 90
       50
102
RTVSPost2010PropOp50
 70
     1
102
RTVSPost2010Prop51ColorIndex
 90
      256
102
RTVSPost2010Prop51ColorRGB
 90
-16777216
102
RTVSPost2010PropOp51
 70
     0
102
RTVSPost2010Prop52
140
1.0
102
RTVSPost2010PropOp52
 70
     0
102
RTVSPost2010Prop53
 90
        2
102
RTVSPost2010PropOp53
 70
     1
102
RTVSPost2010Prop54
  1
strokes_ogs.tif
102
RTVSPost2010PropOp54
 70
     1
102
RTVSPost2010Prop55
280
     0
102
RTVSPost2010PropOp55
 70
     1
102
RTVSPost2010Prop56
140
1.0
102
RTVSPost2010PropOp56
 70
     1
102
RTVSPost2010Prop57
140
1.0
102
RTVSPost2010PropOp57
 70
     1
  0
XRECORD
  5
175
102
{ACAD_REACTORS
330
174
102
}
330
174
100
AcDbXrecord
280
     1
102
RTVSPost2010Prop28
280
     0
102
RTVSPost2010PropOp28
 70
     1
102
RTVSPost2010Prop29
280
     1
102
RTVSPost2010PropOp29
 70
     1
102
RTVSPost2010Prop30
280
     1
102
RTVSPost2010PropOp30
 70
     1
102
RTVSPost2010Prop31
280
     0
102
RTVSPost2010PropOp31
 70
     1
102
RTVSPost2010Prop32
280
     0
102
RTVSPost2010PropOp32
 70
     1
102
RTVSPost2010Prop33
280
     0
102
RTVSPost2010PropOp33
 70
     1
102
RTVSPost2010Prop34
280
     0
102
RTVSPost2010PropOp34
 70
     1
102
RTVSPost2010Prop35
280
     0
102
RTVSPost2010PropOp35
 70
     1
102
RTVSPost2010Prop36
280
     0
102
RTVSPost2010PropOp36
 70
     1
102
RTVSPost2010Prop37
 90
       50
102
RTVSPost2010PropOp37
 70
     1
102
RTVSPost2010Prop38
140
0.0
102
RTVSPost2010PropOp38
 70
     1
102
RTVSPost2010Prop39
140
1.0
102
RTVSPost2010PropOp39
 70
     1
102
RTVSPost2010Prop40
 90
        0
102
RTVSPost2010PropOp40
 70
     1
102
RTVSPost2010Prop41ColorIndex
 90
       18
102
RTVSPost2010Prop41ColorRGB
 90
        0
102
RTVSPost2010PropOp41
 70
     1
102
RTVSPost2010Prop42
 90
       50
102
RTVSPost2010PropOp42
 70
     1
102
RTVSPost2010Prop43
 90
        3
102
RTVSPost2010PropOp43
 70
     1
102
RTVSPost2010Prop44ColorIndex
 90
        5
102
RTVSPost2010Prop44ColorRGB
 90
      255
102
RTVSPost2010PropOp44
 70
     1
102
RTVSPost2010Prop45
280
     0
102
RTVSPost2010PropOp45
 70
     1
102
RTVSPost2010Prop46
 90
       50
102
RTVSPost2010PropOp46
 70
     1
102
RTVSPost2010Prop47
 90
       50
102
RTVSPost2010PropOp47
 70
     1
102
RTVSPost2010Prop48
 90
       50
102
RTVSPost2010PropOp48
 70
     1
102
RTVSPost2010Prop49
280
     0
102
RTVSPost2010PropOp49
 70
     1
102
RTVSPost2010Prop50
 90
       50
102
RTVSPost2010PropOp50
 70
     1
102
RTVSPost2010Prop51ColorIndex
 90
      256
102
RTVSPost2010Prop51ColorRGB
 90
-16777216
102
RTVSPost2010PropOp51
 70
     0
102
RTVSPost2010Prop52
140
1.0
102
RTVSPost2010PropOp52
 70
     0
102
RTVSPost2010Prop53
 90
        2
102
RTVSPost2010PropOp53
 70
     1
102
RTVSPost2010Prop54
  1
strokes_ogs.tif
102
RTVSPost2010PropOp54
 70
     1
102
RTVSPost2010Prop55
280
     0
102
RTVSPost2010PropOp55
 70
     1
102
RTVSPost2010Prop56
140
1.0
102
RTVSPost2010PropOp56
 70
     1
102
RTVSPost2010Prop57
140
1.0
102
RTVSPost2010PropOp57
 70
     1
  0
XRECORD
  5
177
102
{ACAD_REACTORS
330
176
102
}
330
176
100
AcDbXrecord
280
     1
102
RTVSPost2010Prop28
280
     0
102
RTVSPost2010PropOp28
 70
     1
102
RTVSPost2010Prop29
280
     1
102
RTVSPost2010PropOp29
 70
     1
102
RTVSPost2010Prop30
280
     1
102
RTVSPost2010PropOp30
 70
     1
102
RTVSPost2010Prop31
280
     0
102
RTVSPost2010PropOp31
 70
     1
102
RTVSPost2010Prop32
280
     0
102
RTVSPost2010PropOp32
 70
     1
102
RTVSPost2010Prop33
280
     0
102
RTVSPost2010PropOp33
 70
     1
102
RTVSPost2010Prop34
280
     0
102
RTVSPost2010PropOp34
 70
     1
102
RTVSPost2010Prop35
280
     0
102
RTVSPost2010PropOp35
 70
     1
102
RTVSPost2010Prop36
280
     0
102
RTVSPost2010PropOp36
 70
     1
102
RTVSPost2010Prop37
 90
       50
102
RTVSPost2010PropOp37
 70
     1
102
RTVSPost2010Prop38
140
0.0
102
RTVSPost2010PropOp38
 70
     1
102
RTVSPost2010Prop39
140
1.0
102
RTVSPost2010PropOp39
 70
     1
102
RTVSPost2010Prop40
 90
        0
102
RTVSPost2010PropOp40
 70
     1
102
RTVSPost2010Prop41ColorIndex
 90
       18
102
RTVSPost2010Prop41ColorRGB
 90
        0
102
RTVSPost2010PropOp41
 70
     1
102
RTVSPost2010Prop42
 90
       50
102
RTVSPost2010PropOp42
 70
     1
102
RTVSPost2010Prop43
 90
        3
102
RTVSPost2010PropOp43
 70
     1
102
RTVSPost2010Prop44ColorIndex
 90
        5
102
RTVSPost2010Prop44ColorRGB
 90
      255
102
RTVSPost2010PropOp44
 70
     1
102
RTVSPost2010Prop45
280
     0
102
RTVSPost2010PropOp45
 70
     1
102
RTVSPost2010Prop46
 90
       50
102
RTVSPost2010PropOp46
 70
     1
102
RTVSPost2010Prop47
 90
       50
102
RTVSPost2010PropOp47
 70
     1
102
RTVSPost2010Prop48
 90
       50
102
RTVSPost2010PropOp48
 70
     1
102
RTVSPost2010Prop49
280
     0
102
RTVSPost2010PropOp49
 70
     1
102
RTVSPost2010Prop50
 90
       50
102
RTVSPost2010PropOp50
 70
     1
102
RTVSPost2010Prop51ColorIndex
 90
      256
102
RTVSPost2010Prop51ColorRGB
 90
-16777216
102
RTVSPost2010PropOp51
 70
     0
102
RTVSPost2010Prop52
140
1.0
102
RTVSPost2010PropOp52
 70
     0
102
RTVSPost2010Prop53
 90
        2
102
RTVSPost2010PropOp53
 70
     1
102
RTVSPost2010Prop54
  1
strokes_ogs.tif
102
RTVSPost2010PropOp54
 70
     1
102
RTVSPost2010Prop55
280
     0
102
RTVSPost2010PropOp55
 70
     1
102
RTVSPost2010Prop56
140
1.0
102
RTVSPost2010PropOp56
 70
     1
102
RTVSPost2010Prop57
140
1.0
102
RTVSPost2010PropOp57
 70
     1
  0
XRECORD
  5
17F
102
{ACAD_REACTORS
330
17E
102
}
330
17E
100
AcDbXrecord
280
     1
102
RTVSPost2010Prop28
280
     0
102
RTVSPost2010PropOp28
 70
     1
102
RTVSPost2010Prop29
280
     1
102
RTVSPost2010PropOp29
 70
     1
102
RTVSPost2010Prop30
280
     1
102
RTVSPost2010PropOp30
 70
     1
102
RTVSPost2010Prop31
280
     0
102
RTVSPost2010PropOp31
 70
     1
102
RTVSPost2010Prop32
280
     0
102
RTVSPost2010PropOp32
 70
     1
102
RTVSPost2010Prop33
280
     0
102
RTVSPost2010PropOp33
 70
     1
102
RTVSPost2010Prop34
280
     0
102
RTVSPost2010PropOp34
 70
     1
102
RTVSPost2010Prop35
280
     0
102
RTVSPost2010PropOp35
 70
     1
102
RTVSPost2010Prop36
280
     0
102
RTVSPost2010PropOp36
 70
     1
102
RTVSPost2010Prop37
 90
       50
102
RTVSPost2010PropOp37
 70
     1
102
RTVSPost2010Prop38
140
0.0
102
RTVSPost2010PropOp38
 70
     1
102
RTVSPost2010Prop39
140
1.0
102
RTVSPost2010PropOp39
 70
     1
102
RTVSPost2010Prop40
 90
        0
102
RTVSPost2010PropOp40
 70
     1
102
RTVSPost2010Prop41ColorIndex
 90
       18
102
RTVSPost2010Prop41ColorRGB
 90
        0
102
RTVSPost2010PropOp41
 70
     1
102
RTVSPost2010Prop42
 90
       50
102
RTVSPost2010PropOp42
 70
     1
102
RTVSPost2010Prop43
 90
        3
102
RTVSPost2010PropOp43
 70
     1
102
RTVSPost2010Prop44ColorIndex
 90
        5
102
RTVSPost2010Prop44ColorRGB
 90
      255
102
RTVSPost2010PropOp44
 70
     1
102
RTVSPost2010Prop45
280
     0
102
RTVSPost2010PropOp45
 70
     1
102
RTVSPost2010Prop46
 90
       50
102
RTVSPost2010PropOp46
 70
     1
102
RTVSPost2010Prop47
 90
       50
102
RTVSPost2010PropOp47
 70
     1
102
RTVSPost2010Prop48
 90
       50
102
RTVSPost2010PropOp48
 70
     1
102
RTVSPost2010Prop49
280
     0
102
RTVSPost2010PropOp49
 70
     1
102
RTVSPost2010Prop50
 90
       50
102
RTVSPost2010PropOp50
 70
     1
102
RTVSPost2010Prop51ColorIndex
 90
      256
102
RTVSPost2010Prop51ColorRGB
 90
-16777216
102
RTVSPost2010PropOp51
 70
     0
102
RTVSPost2010Prop52
140
1.0
102
RTVSPost2010PropOp52
 70
     0
102
RTVSPost2010Prop53
 90
        2
102
RTVSPost2010PropOp53
 70
     1
102
RTVSPost2010Prop54
  1
strokes_ogs.tif
102
RTVSPost2010PropOp54
 70
     1
102
RTVSPost2010Prop55
280
     0
102
RTVSPost2010PropOp55
 70
     1
102
RTVSPost2010Prop56
140
1.0
102
RTVSPost2010PropOp56
 70
     1
102
RTVSPost2010Prop57
140
1.0
102
RTVSPost2010PropOp57
 70
     1
  0
XRECORD
  5
19B
102
{ACAD_REACTORS
330
19A
102
}
330
19A
100
AcDbXrecord
280
     1
102
RTVSPost2010Prop28
280
     0
102
RTVSPost2010PropOp28
 70
     0
102
RTVSPost2010Prop29
280
     1
102
RTVSPost2010PropOp29
 70
     0
102
RTVSPost2010Prop30
280
     1
102
RTVSPost2010PropOp30
 70
     0
102
RTVSPost2010Prop31
280
     0
102
RTVSPost2010PropOp31
 70
     0
102
RTVSPost2010Prop32
280
     0
102
RTVSPost2010PropOp32
 70
     0
102
RTVSPost2010Prop33
280
     0
102
RTVSPost2010PropOp33
 70
     0
102
RTVSPost2010Prop34
280
     0
102
RTVSPost2010PropOp34
 70
     0
102
RTVSPost2010Prop35
280
     0
102
RTVSPost2010PropOp35
 70
     0
102
RTVSPost2010Prop36
280
     0
102
RTVSPost2010PropOp36
 70
     0
102
RTVSPost2010Prop37
 90
       50
102
RTVSPost2010PropOp37
 70
     0
102
RTVSPost2010Prop38
140
0.0
102
RTVSPost2010PropOp38
 70
     0
102
RTVSPost2010Prop39
140
1.0
102
RTVSPost2010PropOp39
 70
     0
102
RTVSPost2010Prop40
 90
        0
102
RTVSPost2010PropOp40
 70
     0
102
RTVSPost2010Prop41ColorIndex
 90
       18
102
RTVSPost2010Prop41ColorRGB
 90
        0
102
RTVSPost2010PropOp41
 70
     0
102
RTVSPost2010Prop42
 90
       50
102
RTVSPost2010PropOp42
 70
     0
102
RTVSPost2010Prop43
 90
        3
102
RTVSPost2010PropOp43
 70
     0
102
RTVSPost2010Prop44ColorIndex
 90
        5
102
RTVSPost2010Prop44ColorRGB
 90
      255
102
RTVSPost2010PropOp44
 70
     0
102
RTVSPost2010Prop45
280
     0
102
RTVSPost2010PropOp45
 70
     0
102
RTVSPost2010Prop46
 90
       50
102
RTVSPost2010PropOp46
 70
     0
102
RTVSPost2010Prop47
 90
       50
102
RTVSPost2010PropOp47
 70
     0
102
RTVSPost2010Prop48
 90
       50
102
RTVSPost2010PropOp48
 70
     0
102
RTVSPost2010Prop49
280
     0
102
RTVSPost2010PropOp49
 70
     0
102
RTVSPost2010Prop50
 90
       50
102
RTVSPost2010PropOp50
 70
     0
102
RTVSPost2010Prop51ColorIndex
 90
      256
102
RTVSPost2010Prop51ColorRGB
 90
-16777216
102
RTVSPost2010PropOp51
 70
     0
102
RTVSPost2010Prop52
140
1.0
102
RTVSPost2010PropOp52
 70
     0
102
RTVSPost2010Prop53
 90
        2
102
RTVSPost2010PropOp53
 70
     0
102
RTVSPost2010Prop54
  1
strokes_ogs.tif
102
RTVSPost2010PropOp54
 70
     0
102
RTVSPost2010Prop55
280
     0
102
RTVSPost2010PropOp55
 70
     0
102
RTVSPost2010Prop56
140
1.0
102
RTVSPost2010PropOp56
 70
     0
102
RTVSPost2010Prop57
140
1.0
102
RTVSPost2010PropOp57
 70
     0
  0
XRECORD
  5
18B
102
{ACAD_REACTORS
330
18A
102
}
330
18A
100
AcDbXrecord
280
     1
102
RTVSPost2010Prop28
280
     0
102
RTVSPost2010PropOp28
 70
     1
102
RTVSPost2010Prop29
280
     1
102
RTVSPost2010PropOp29
 70
     1
102
RTVSPost2010Prop30
280
     1
102
RTVSPost2010PropOp30
 70
     1
102
RTVSPost2010Prop31
280
     0
102
RTVSPost2010PropOp31
 70
     1
102
RTVSPost2010Prop32
280
     0
102
RTVSPost2010PropOp32
 70
     1
102
RTVSPost2010Prop33
280
     0
102
RTVSPost2010PropOp33
 70
     1
102
RTVSPost2010Prop34
280
     0
102
RTVSPost2010PropOp34
 70
     1
102
RTVSPost2010Prop35
280
     0
102
RTVSPost2010PropOp35
 70
     1
102
RTVSPost2010Prop36
280
     0
102
RTVSPost2010PropOp36
 70
     1
102
RTVSPost2010Prop37
 90
       50
102
RTVSPost2010PropOp37
 70
     1
102
RTVSPost2010Prop38
140
0.0
102
RTVSPost2010PropOp38
 70
     1
102
RTVSPost2010Prop39
140
1.0
102
RTVSPost2010PropOp39
 70
     1
102
RTVSPost2010Prop40
 90
        0
102
RTVSPost2010PropOp40
 70
     1
102
RTVSPost2010Prop41ColorIndex
 90
       18
102
RTVSPost2010Prop41ColorRGB
 90
        0
102
RTVSPost2010PropOp41
 70
     1
102
RTVSPost2010Prop42
 90
       50
102
RTVSPost2010PropOp42
 70
     1
102
RTVSPost2010Prop43
 90
        3
102
RTVSPost2010PropOp43
 70
     1
102
RTVSPost2010Prop44ColorIndex
 90
        5
102
RTVSPost2010Prop44ColorRGB
 90
      255
102
RTVSPost2010PropOp44
 70
     1
102
RTVSPost2010Prop45
280
     0
102
RTVSPost2010PropOp45
 70
     1
102
RTVSPost2010Prop46
 90
       50
102
RTVSPost2010PropOp46
 70
     1
102
RTVSPost2010Prop47
 90
       50
102
RTVSPost2010PropOp47
 70
     1
102
RTVSPost2010Prop48
 90
       50
102
RTVSPost2010PropOp48
 70
     1
102
RTVSPost2010Prop49
280
     0
102
RTVSPost2010PropOp49
 70
     1
102
RTVSPost2010Prop50
 90
       50
102
RTVSPost2010PropOp50
 70
     1
102
RTVSPost2010Prop51ColorIndex
 90
      256
102
RTVSPost2010Prop51ColorRGB
 90
-16777216
102
RTVSPost2010PropOp51
 70
     0
102
RTVSPost2010Prop52
140
1.0
102
RTVSPost2010PropOp52
 70
     0
102
RTVSPost2010Prop53
 90
        2
102
RTVSPost2010PropOp53
 70
     1
102
RTVSPost2010Prop54
  1
strokes_ogs.tif
102
RTVSPost2010PropOp54
 70
     1
102
RTVSPost2010Prop55
280
     0
102
RTVSPost2010PropOp55
 70
     1
102
RTVSPost2010Prop56
140
1.0
102
RTVSPost2010PropOp56
 70
     1
102
RTVSPost2010Prop57
140
1.0
102
RTVSPost2010PropOp57
 70
     1
  0
XRECORD
  5
19D
102
{ACAD_REACTORS
330
19C
102
}
330
19C
100
AcDbXrecord
280
     1
102
RTVSPost2010Prop28
280
     0
102
RTVSPost2010PropOp28
 70
     0
102
RTVSPost2010Prop29
280
     1
102
RTVSPost2010PropOp29
 70
     0
102
RTVSPost2010Prop30
280
     1
102
RTVSPost2010PropOp30
 70
     0
102
RTVSPost2010Prop31
280
     0
102
RTVSPost2010PropOp31
 70
     0
102
RTVSPost2010Prop32
280
     0
102
RTVSPost2010PropOp32
 70
     0
102
RTVSPost2010Prop33
280
     0
102
RTVSPost2010PropOp33
 70
     0
102
RTVSPost2010Prop34
280
     0
102
RTVSPost2010PropOp34
 70
     0
102
RTVSPost2010Prop35
280
     0
102
RTVSPost2010PropOp35
 70
     0
102
RTVSPost2010Prop36
280
     0
102
RTVSPost2010PropOp36
 70
     0
102
RTVSPost2010Prop37
 90
       50
102
RTVSPost2010PropOp37
 70
     0
102
RTVSPost2010Prop38
140
0.0
102
RTVSPost2010PropOp38
 70
     0
102
RTVSPost2010Prop39
140
1.0
102
RTVSPost2010PropOp39
 70
     0
102
RTVSPost2010Prop40
 90
        0
102
RTVSPost2010PropOp40
 70
     0
102
RTVSPost2010Prop41ColorIndex
 90
       18
102
RTVSPost2010Prop41ColorRGB
 90
        0
102
RTVSPost2010PropOp41
 70
     0
102
RTVSPost2010Prop42
 90
       50
102
RTVSPost2010PropOp42
 70
     0
102
RTVSPost2010Prop43
 90
        3
102
RTVSPost2010PropOp43
 70
     0
102
RTVSPost2010Prop44ColorIndex
 90
        5
102
RTVSPost2010Prop44ColorRGB
 90
      255
102
RTVSPost2010PropOp44
 70
     0
102
RTVSPost2010Prop45
280
     0
102
RTVSPost2010PropOp45
 70
     0
102
RTVSPost2010Prop46
 90
       50
102
RTVSPost2010PropOp46
 70
     0
102
RTVSPost2010Prop47
 90
       50
102
RTVSPost2010PropOp47
 70
     0
102
RTVSPost2010Prop48
 90
       50
102
RTVSPost2010PropOp48
 70
     0
102
RTVSPost2010Prop49
280
     0
102
RTVSPost2010PropOp49
 70
     0
102
RTVSPost2010Prop50
 90
       50
102
RTVSPost2010PropOp50
 70
     0
102
RTVSPost2010Prop51ColorIndex
 90
      256
102
RTVSPost2010Prop51ColorRGB
 90
-16777216
102
RTVSPost2010PropOp51
 70
     0
102
RTVSPost2010Prop52
140
1.0
102
RTVSPost2010PropOp52
 70
     0
102
RTVSPost2010Prop53
 90
        2
102
RTVSPost2010PropOp53
 70
     0
102
RTVSPost2010Prop54
  1
strokes_ogs.tif
102
RTVSPost2010PropOp54
 70
     0
102
RTVSPost2010Prop55
280
     0
102
RTVSPost2010PropOp55
 70
     0
102
RTVSPost2010Prop56
140
1.0
102
RTVSPost2010PropOp56
 70
     0
102
RTVSPost2010Prop57
140
1.0
102
RTVSPost2010PropOp57
 70
     0
  0
XRECORD
  5
183
102
{ACAD_REACTORS
330
182
102
}
330
182
100
AcDbXrecord
280
     1
102
RTVSPost2010Prop28
280
     0
102
RTVSPost2010PropOp28
 70
     1
102
RTVSPost2010Prop29
280
     1
102
RTVSPost2010PropOp29
 70
     1
102
RTVSPost2010Prop30
280
     1
102
RTVSPost2010PropOp30
 70
     1
102
RTVSPost2010Prop31
280
     0
102
RTVSPost2010PropOp31
 70
     1
102
RTVSPost2010Prop32
280
     0
102
RTVSPost2010PropOp32
 70
     1
102
RTVSPost2010Prop33
280
     0
102
RTVSPost2010PropOp33
 70
     1
102
RTVSPost2010Prop34
280
     0
102
RTVSPost2010PropOp34
 70
     1
102
RTVSPost2010Prop35
280
     0
102
RTVSPost2010PropOp35
 70
     1
102
RTVSPost2010Prop36
280
     0
102
RTVSPost2010PropOp36
 70
     1
102
RTVSPost2010Prop37
 90
       50
102
RTVSPost2010PropOp37
 70
     1
102
RTVSPost2010Prop38
140
0.0
102
RTVSPost2010PropOp38
 70
     1
102
RTVSPost2010Prop39
140
1.0
102
RTVSPost2010PropOp39
 70
     1
102
RTVSPost2010Prop40
 90
        0
102
RTVSPost2010PropOp40
 70
     1
102
RTVSPost2010Prop41ColorIndex
 90
       18
102
RTVSPost2010Prop41ColorRGB
 90
        0
102
RTVSPost2010PropOp41
 70
     1
102
RTVSPost2010Prop42
 90
       50
102
RTVSPost2010PropOp42
 70
     1
102
RTVSPost2010Prop43
 90
        3
102
RTVSPost2010PropOp43
 70
     1
102
RTVSPost2010Prop44ColorIndex
 90
        5
102
RTVSPost2010Prop44ColorRGB
 90
      255
102
RTVSPost2010PropOp44
 70
     1
102
RTVSPost2010Prop45
280
     0
102
RTVSPost2010PropOp45
 70
     1
102
RTVSPost2010Prop46
 90
       50
102
RTVSPost2010PropOp46
 70
     1
102
RTVSPost2010Prop47
 90
       50
102
RTVSPost2010PropOp47
 70
     1
102
RTVSPost2010Prop48
 90
       50
102
RTVSPost2010PropOp48
 70
     1
102
RTVSPost2010Prop49
280
     0
102
RTVSPost2010PropOp49
 70
     1
102
RTVSPost2010Prop50
 90
       50
102
RTVSPost2010PropOp50
 70
     1
102
RTVSPost2010Prop51ColorIndex
 90
      256
102
RTVSPost2010Prop51ColorRGB
 90
-16777216
102
RTVSPost2010PropOp51
 70
     0
102
RTVSPost2010Prop52
140
1.0
102
RTVSPost2010PropOp52
 70
     0
102
RTVSPost2010Prop53
 90
        2
102
RTVSPost2010PropOp53
 70
     1
102
RTVSPost2010Prop54
  1
strokes_ogs.tif
102
RTVSPost2010PropOp54
 70
     1
102
RTVSPost2010Prop55
280
     0
102
RTVSPost2010PropOp55
 70
     1
102
RTVSPost2010Prop56
140
1.0
102
RTVSPost2010PropOp56
 70
     1
102
RTVSPost2010Prop57
140
1.0
102
RTVSPost2010PropOp57
 70
     1
  0
XRECORD
  5
199
102
{ACAD_REACTORS
330
198
102
}
330
198
100
AcDbXrecord
280
     1
102
RTVSPost2010Prop28
280
     0
102
RTVSPost2010PropOp28
 70
     1
102
RTVSPost2010Prop29
280
     1
102
RTVSPost2010PropOp29
 70
     1
102
RTVSPost2010Prop30
280
     1
102
RTVSPost2010PropOp30
 70
     1
102
RTVSPost2010Prop31
280
     0
102
RTVSPost2010PropOp31
 70
     1
102
RTVSPost2010Prop32
280
     0
102
RTVSPost2010PropOp32
 70
     1
102
RTVSPost2010Prop33
280
     0
102
RTVSPost2010PropOp33
 70
     1
102
RTVSPost2010Prop34
280
     0
102
RTVSPost2010PropOp34
 70
     1
102
RTVSPost2010Prop35
280
     0
102
RTVSPost2010PropOp35
 70
     1
102
RTVSPost2010Prop36
280
     0
102
RTVSPost2010PropOp36
 70
     1
102
RTVSPost2010Prop37
 90
       50
102
RTVSPost2010PropOp37
 70
     1
102
RTVSPost2010Prop38
140
0.0
102
RTVSPost2010PropOp38
 70
     1
102
RTVSPost2010Prop39
140
1.0
102
RTVSPost2010PropOp39
 70
     1
102
RTVSPost2010Prop40
 90
        0
102
RTVSPost2010PropOp40
 70
     1
102
RTVSPost2010Prop41ColorIndex
 90
       18
102
RTVSPost2010Prop41ColorRGB
 90
        0
102
RTVSPost2010PropOp41
 70
     1
102
RTVSPost2010Prop42
 90
       50
102
RTVSPost2010PropOp42
 70
     1
102
RTVSPost2010Prop43
 90
        3
102
RTVSPost2010PropOp43
 70
     1
102
RTVSPost2010Prop44ColorIndex
 90
        5
102
RTVSPost2010Prop44ColorRGB
 90
      255
102
RTVSPost2010PropOp44
 70
     1
102
RTVSPost2010Prop45
280
     0
102
RTVSPost2010PropOp45
 70
     1
102
RTVSPost2010Prop46
 90
       50
102
RTVSPost2010PropOp46
 70
     1
102
RTVSPost2010Prop47
 90
       50
102
RTVSPost2010PropOp47
 70
     1
102
RTVSPost2010Prop48
 90
       50
102
RTVSPost2010PropOp48
 70
     1
102
RTVSPost2010Prop49
280
     0
102
RTVSPost2010PropOp49
 70
     1
102
RTVSPost2010Prop50
 90
       50
102
RTVSPost2010PropOp50
 70
     1
102
RTVSPost2010Prop51ColorIndex
 90
      256
102
RTVSPost2010Prop51ColorRGB
 90
-16777216
102
RTVSPost2010PropOp51
 70
     0
102
RTVSPost2010Prop52
140
1.0
102
RTVSPost2010PropOp52
 70
     0
102
RTVSPost2010Prop53
 90
        2
102
RTVSPost2010PropOp53
 70
     1
102
RTVSPost2010Prop54
  1
strokes_ogs.tif
102
RTVSPost2010PropOp54
 70
     1
102
RTVSPost2010Prop55
280
     0
102
RTVSPost2010PropOp55
 70
     1
102
RTVSPost2010Prop56
140
1.0
102
RTVSPost2010PropOp56
 70
     1
102
RTVSPost2010Prop57
140
1.0
102
RTVSPost2010PropOp57
 70
     1
  0
XRECORD
  5
197
102
{ACAD_REACTORS
330
196
102
}
330
196
100
AcDbXrecord
280
     1
102
RTVSPost2010Prop28
280
     0
102
RTVSPost2010PropOp28
 70
     1
102
RTVSPost2010Prop29
280
     1
102
RTVSPost2010PropOp29
 70
     1
102
RTVSPost2010Prop30
280
     1
102
RTVSPost2010PropOp30
 70
     1
102
RTVSPost2010Prop31
280
     0
102
RTVSPost2010PropOp31
 70
     1
102
RTVSPost2010Prop32
280
     0
102
RTVSPost2010PropOp32
 70
     1
102
RTVSPost2010Prop33
280
     0
102
RTVSPost2010PropOp33
 70
     1
102
RTVSPost2010Prop34
280
     0
102
RTVSPost2010PropOp34
 70
     1
102
RTVSPost2010Prop35
280
     0
102
RTVSPost2010PropOp35
 70
     1
102
RTVSPost2010Prop36
280
     0
102
RTVSPost2010PropOp36
 70
     1
102
RTVSPost2010Prop37
 90
       50
102
RTVSPost2010PropOp37
 70
     1
102
RTVSPost2010Prop38
140
0.0
102
RTVSPost2010PropOp38
 70
     1
102
RTVSPost2010Prop39
140
1.0
102
RTVSPost2010PropOp39
 70
     1
102
RTVSPost2010Prop40
 90
        0
102
RTVSPost2010PropOp40
 70
     1
102
RTVSPost2010Prop41ColorIndex
 90
       18
102
RTVSPost2010Prop41ColorRGB
 90
        0
102
RTVSPost2010PropOp41
 70
     1
102
RTVSPost2010Prop42
 90
       50
102
RTVSPost2010PropOp42
 70
     1
102
RTVSPost2010Prop43
 90
        3
102
RTVSPost2010PropOp43
 70
     1
102
RTVSPost2010Prop44ColorIndex
 90
        5
102
RTVSPost2010Prop44ColorRGB
 90
      255
102
RTVSPost2010PropOp44
 70
     1
102
RTVSPost2010Prop45
280
     0
102
RTVSPost2010PropOp45
 70
     1
102
RTVSPost2010Prop46
 90
       50
102
RTVSPost2010PropOp46
 70
     1
102
RTVSPost2010Prop47
 90
       50
102
RTVSPost2010PropOp47
 70
     1
102
RTVSPost2010Prop48
 90
       50
102
RTVSPost2010PropOp48
 70
     1
102
RTVSPost2010Prop49
280
     0
102
RTVSPost2010PropOp49
 70
     1
102
RTVSPost2010Prop50
 90
       50
102
RTVSPost2010PropOp50
 70
     1
102
RTVSPost2010Prop51ColorIndex
 90
      256
102
RTVSPost2010Prop51ColorRGB
 90
-16777216
102
RTVSPost2010PropOp51
 70
     0
102
RTVSPost2010Prop52
140
1.0
102
RTVSPost2010PropOp52
 70
     0
102
RTVSPost2010Prop53
 90
        2
102
RTVSPost2010PropOp53
 70
     1
102
RTVSPost2010Prop54
  1
strokes_ogs.tif
102
RTVSPost2010PropOp54
 70
     1
102
RTVSPost2010Prop55
280
     0
102
RTVSPost2010PropOp55
 70
     1
102
RTVSPost2010Prop56
140
1.0
102
RTVSPost2010PropOp56
 70
     1
102
RTVSPost2010Prop57
140
1.0
102
RTVSPost2010PropOp57
 70
     1
  0
XRECORD
  5
191
102
{ACAD_REACTORS
330
190
102
}
330
190
100
AcDbXrecord
280
     1
102
RTVSPost2010Prop28
280
     0
102
RTVSPost2010PropOp28
 70
     1
102
RTVSPost2010Prop29
280
     1
102
RTVSPost2010PropOp29
 70
     1
102
RTVSPost2010Prop30
280
     1
102
RTVSPost2010PropOp30
 70
     1
102
RTVSPost2010Prop31
280
     0
102
RTVSPost2010PropOp31
 70
     1
102
RTVSPost2010Prop32
280
     0
102
RTVSPost2010PropOp32
 70
     1
102
RTVSPost2010Prop33
280
     0
102
RTVSPost2010PropOp33
 70
     1
102
RTVSPost2010Prop34
280
     0
102
RTVSPost2010PropOp34
 70
     1
102
RTVSPost2010Prop35
280
     0
102
RTVSPost2010PropOp35
 70
     1
102
RTVSPost2010Prop36
280
     0
102
RTVSPost2010PropOp36
 70
     1
102
RTVSPost2010Prop37
 90
       50
102
RTVSPost2010PropOp37
 70
     1
102
RTVSPost2010Prop38
140
0.0
102
RTVSPost2010PropOp38
 70
     1
102
RTVSPost2010Prop39
140
1.0
102
RTVSPost2010PropOp39
 70
     1
102
RTVSPost2010Prop40
 90
        0
102
RTVSPost2010PropOp40
 70
     1
102
RTVSPost2010Prop41ColorIndex
 90
       18
102
RTVSPost2010Prop41ColorRGB
 90
        0
102
RTVSPost2010PropOp41
 70
     1
102
RTVSPost2010Prop42
 90
       50
102
RTVSPost2010PropOp42
 70
     1
102
RTVSPost2010Prop43
 90
        3
102
RTVSPost2010PropOp43
 70
     1
102
RTVSPost2010Prop44ColorIndex
 90
        5
102
RTVSPost2010Prop44ColorRGB
 90
      255
102
RTVSPost2010PropOp44
 70
     1
102
RTVSPost2010Prop45
280
     0
102
RTVSPost2010PropOp45
 70
     1
102
RTVSPost2010Prop46
 90
       50
102
RTVSPost2010PropOp46
 70
     1
102
RTVSPost2010Prop47
 90
       50
102
RTVSPost2010PropOp47
 70
     1
102
RTVSPost2010Prop48
 90
       50
102
RTVSPost2010PropOp48
 70
     1
102
RTVSPost2010Prop49
280
     0
102
RTVSPost2010PropOp49
 70
     1
102
RTVSPost2010Prop50
 90
       50
102
RTVSPost2010PropOp50
 70
     1
102
RTVSPost2010Prop51ColorIndex
 90
      256
102
RTVSPost2010Prop51ColorRGB
 90
-16777216
102
RTVSPost2010PropOp51
 70
     0
102
RTVSPost2010Prop52
140
1.0
102
RTVSPost2010PropOp52
 70
     0
102
RTVSPost2010Prop53
 90
        2
102
RTVSPost2010PropOp53
 70
     1
102
RTVSPost2010Prop54
  1
strokes_ogs.tif
102
RTVSPost2010PropOp54
 70
     1
102
RTVSPost2010Prop55
280
     0
102
RTVSPost2010PropOp55
 70
     1
102
RTVSPost2010Prop56
140
1.0
102
RTVSPost2010PropOp56
 70
     1
102
RTVSPost2010Prop57
140
1.0
102
RTVSPost2010PropOp57
 70
     1
  0
XRECORD
  5
193
102
{ACAD_REACTORS
330
192
102
}
330
192
100
AcDbXrecord
280
     1
102
RTVSPost2010Prop28
280
     0
102
RTVSPost2010PropOp28
 70
     1
102
RTVSPost2010Prop29
280
     1
102
RTVSPost2010PropOp29
 70
     1
102
RTVSPost2010Prop30
280
     1
102
RTVSPost2010PropOp30
 70
     1
102
RTVSPost2010Prop31
280
     0
102
RTVSPost2010PropOp31
 70
     1
102
RTVSPost2010Prop32
280
     0
102
RTVSPost2010PropOp32
 70
     1
102
RTVSPost2010Prop33
280
     0
102
RTVSPost2010PropOp33
 70
     1
102
RTVSPost2010Prop34
280
     0
102
RTVSPost2010PropOp34
 70
     1
102
RTVSPost2010Prop35
280
     0
102
RTVSPost2010PropOp35
 70
     1
102
RTVSPost2010Prop36
280
     0
102
RTVSPost2010PropOp36
 70
     1
102
RTVSPost2010Prop37
 90
       50
102
RTVSPost2010PropOp37
 70
     1
102
RTVSPost2010Prop38
140
0.0
102
RTVSPost2010PropOp38
 70
     1
102
RTVSPost2010Prop39
140
1.0
102
RTVSPost2010PropOp39
 70
     1
102
RTVSPost2010Prop40
 90
        0
102
RTVSPost2010PropOp40
 70
     1
102
RTVSPost2010Prop41ColorIndex
 90
       18
102
RTVSPost2010Prop41ColorRGB
 90
        0
102
RTVSPost2010PropOp41
 70
     1
102
RTVSPost2010Prop42
 90
       50
102
RTVSPost2010PropOp42
 70
     1
102
RTVSPost2010Prop43
 90
        3
102
RTVSPost2010PropOp43
 70
     1
102
RTVSPost2010Prop44ColorIndex
 90
        5
102
RTVSPost2010Prop44ColorRGB
 90
      255
102
RTVSPost2010PropOp44
 70
     1
102
RTVSPost2010Prop45
280
     0
102
RTVSPost2010PropOp45
 70
     1
102
RTVSPost2010Prop46
 90
       50
102
RTVSPost2010PropOp46
 70
     1
102
RTVSPost2010Prop47
 90
       50
102
RTVSPost2010PropOp47
 70
     1
102
RTVSPost2010Prop48
 90
       50
102
RTVSPost2010PropOp48
 70
     1
102
RTVSPost2010Prop49
280
     0
102
RTVSPost2010PropOp49
 70
     1
102
RTVSPost2010Prop50
 90
       50
102
RTVSPost2010PropOp50
 70
     1
102
RTVSPost2010Prop51ColorIndex
 90
      256
102
RTVSPost2010Prop51ColorRGB
 90
-16777216
102
RTVSPost2010PropOp51
 70
     0
102
RTVSPost2010Prop52
140
1.0
102
RTVSPost2010PropOp52
 70
     0
102
RTVSPost2010Prop53
 90
        2
102
RTVSPost2010PropOp53
 70
     1
102
RTVSPost2010Prop54
  1
strokes_ogs.tif
102
RTVSPost2010PropOp54
 70
     1
102
RTVSPost2010Prop55
280
     0
102
RTVSPost2010PropOp55
 70
     1
102
RTVSPost2010Prop56
140
1.0
102
RTVSPost2010PropOp56
 70
     1
102
RTVSPost2010Prop57
140
1.0
102
RTVSPost2010PropOp57
 70
     1
  0
XRECORD
  5
189
102
{ACAD_REACTORS
330
188
102
}
330
188
100
AcDbXrecord
280
     1
102
RTVSPost2010Prop28
280
     0
102
RTVSPost2010PropOp28
 70
     1
102
RTVSPost2010Prop29
280
     1
102
RTVSPost2010PropOp29
 70
     1
102
RTVSPost2010Prop30
280
     1
102
RTVSPost2010PropOp30
 70
     1
102
RTVSPost2010Prop31
280
     0
102
RTVSPost2010PropOp31
 70
     1
102
RTVSPost2010Prop32
280
     0
102
RTVSPost2010PropOp32
 70
     1
102
RTVSPost2010Prop33
280
     0
102
RTVSPost2010PropOp33
 70
     1
102
RTVSPost2010Prop34
280
     0
102
RTVSPost2010PropOp34
 70
     1
102
RTVSPost2010Prop35
280
     0
102
RTVSPost2010PropOp35
 70
     1
102
RTVSPost2010Prop36
280
     0
102
RTVSPost2010PropOp36
 70
     1
102
RTVSPost2010Prop37
 90
       50
102
RTVSPost2010PropOp37
 70
     1
102
RTVSPost2010Prop38
140
0.0
102
RTVSPost2010PropOp38
 70
     1
102
RTVSPost2010Prop39
140
1.0
102
RTVSPost2010PropOp39
 70
     1
102
RTVSPost2010Prop40
 90
        0
102
RTVSPost2010PropOp40
 70
     1
102
RTVSPost2010Prop41ColorIndex
 90
       18
102
RTVSPost2010Prop41ColorRGB
 90
        0
102
RTVSPost2010PropOp41
 70
     1
102
RTVSPost2010Prop42
 90
       50
102
RTVSPost2010PropOp42
 70
     1
102
RTVSPost2010Prop43
 90
        3
102
RTVSPost2010PropOp43
 70
     1
102
RTVSPost2010Prop44ColorIndex
 90
        5
102
RTVSPost2010Prop44ColorRGB
 90
      255
102
RTVSPost2010PropOp44
 70
     1
102
RTVSPost2010Prop45
280
     0
102
RTVSPost2010PropOp45
 70
     1
102
RTVSPost2010Prop46
 90
       50
102
RTVSPost2010PropOp46
 70
     1
102
RTVSPost2010Prop47
 90
       50
102
RTVSPost2010PropOp47
 70
     1
102
RTVSPost2010Prop48
 90
       50
102
RTVSPost2010PropOp48
 70
     1
102
RTVSPost2010Prop49
280
     0
102
RTVSPost2010PropOp49
 70
     1
102
RTVSPost2010Prop50
 90
       50
102
RTVSPost2010PropOp50
 70
     1
102
RTVSPost2010Prop51ColorIndex
 90
      256
102
RTVSPost2010Prop51ColorRGB
 90
-16777216
102
RTVSPost2010PropOp51
 70
     0
102
RTVSPost2010Prop52
140
1.0
102
RTVSPost2010PropOp52
 70
     0
102
RTVSPost2010Prop53
 90
        2
102
RTVSPost2010PropOp53
 70
     1
102
RTVSPost2010Prop54
  1
strokes_ogs.tif
102
RTVSPost2010PropOp54
 70
     1
102
RTVSPost2010Prop55
280
     0
102
RTVSPost2010PropOp55
 70
     1
102
RTVSPost2010Prop56
140
1.0
102
RTVSPost2010PropOp56
 70
     1
102
RTVSPost2010Prop57
140
1.0
102
RTVSPost2010PropOp57
 70
     1
  0
XRECORD
  5
17D
102
{ACAD_REACTORS
330
17C
102
}
330
17C
100
AcDbXrecord
280
     1
102
RTVSPost2010Prop28
280
     0
102
RTVSPost2010PropOp28
 70
     1
102
RTVSPost2010Prop29
280
     1
102
RTVSPost2010PropOp29
 70
     1
102
RTVSPost2010Prop30
280
     1
102
RTVSPost2010PropOp30
 70
     1
102
RTVSPost2010Prop31
280
     0
102
RTVSPost2010PropOp31
 70
     1
102
RTVSPost2010Prop32
280
     0
102
RTVSPost2010PropOp32
 70
     1
102
RTVSPost2010Prop33
280
     0
102
RTVSPost2010PropOp33
 70
     1
102
RTVSPost2010Prop34
280
     0
102
RTVSPost2010PropOp34
 70
     1
102
RTVSPost2010Prop35
280
     0
102
RTVSPost2010PropOp35
 70
     1
102
RTVSPost2010Prop36
280
     0
102
RTVSPost2010PropOp36
 70
     1
102
RTVSPost2010Prop37
 90
       50
102
RTVSPost2010PropOp37
 70
     1
102
RTVSPost2010Prop38
140
0.0
102
RTVSPost2010PropOp38
 70
     1
102
RTVSPost2010Prop39
140
1.0
102
RTVSPost2010PropOp39
 70
     1
102
RTVSPost2010Prop40
 90
        0
102
RTVSPost2010PropOp40
 70
     1
102
RTVSPost2010Prop41ColorIndex
 90
       18
102
RTVSPost2010Prop41ColorRGB
 90
        0
102
RTVSPost2010PropOp41
 70
     1
102
RTVSPost2010Prop42
 90
       50
102
RTVSPost2010PropOp42
 70
     1
102
RTVSPost2010Prop43
 90
        3
102
RTVSPost2010PropOp43
 70
     1
102
RTVSPost2010Prop44ColorIndex
 90
        5
102
RTVSPost2010Prop44ColorRGB
 90
      255
102
RTVSPost2010PropOp44
 70
     1
102
RTVSPost2010Prop45
280
     0
102
RTVSPost2010PropOp45
 70
     1
102
RTVSPost2010Prop46
 90
       50
102
RTVSPost2010PropOp46
 70
     1
102
RTVSPost2010Prop47
 90
       50
102
RTVSPost2010PropOp47
 70
     1
102
RTVSPost2010Prop48
 90
       50
102
RTVSPost2010PropOp48
 70
     1
102
RTVSPost2010Prop49
280
     0
102
RTVSPost2010PropOp49
 70
     1
102
RTVSPost2010Prop50
 90
       50
102
RTVSPost2010PropOp50
 70
     1
102
RTVSPost2010Prop51ColorIndex
 90
      256
102
RTVSPost2010Prop51ColorRGB
 90
-16777216
102
RTVSPost2010PropOp51
 70
     0
102
RTVSPost2010Prop52
140
1.0
102
RTVSPost2010PropOp52
 70
     0
102
RTVSPost2010Prop53
 90
        2
102
RTVSPost2010PropOp53
 70
     1
102
RTVSPost2010Prop54
  1
strokes_ogs.tif
102
RTVSPost2010PropOp54
 70
     1
102
RTVSPost2010Prop55
280
     0
102
RTVSPost2010PropOp55
 70
     1
102
RTVSPost2010Prop56
140
1.0
102
RTVSPost2010PropOp56
 70
     1
102
RTVSPost2010Prop57
140
1.0
102
RTVSPost2010PropOp57
 70
     1
  0
XRECORD
  5
195
102
{ACAD_REACTORS
330
194
102
}
330
194
100
AcDbXrecord
280
     1
102
RTVSPost2010Prop28
280
     0
102
RTVSPost2010PropOp28
 70
     1
102
RTVSPost2010Prop29
280
     1
102
RTVSPost2010PropOp29
 70
     1
102
RTVSPost2010Prop30
280
     1
102
RTVSPost2010PropOp30
 70
     1
102
RTVSPost2010Prop31
280
     0
102
RTVSPost2010PropOp31
 70
     1
102
RTVSPost2010Prop32
280
     0
102
RTVSPost2010PropOp32
 70
     1
102
RTVSPost2010Prop33
280
     0
102
RTVSPost2010PropOp33
 70
     1
102
RTVSPost2010Prop34
280
     0
102
RTVSPost2010PropOp34
 70
     1
102
RTVSPost2010Prop35
280
     0
102
RTVSPost2010PropOp35
 70
     1
102
RTVSPost2010Prop36
280
     0
102
RTVSPost2010PropOp36
 70
     1
102
RTVSPost2010Prop37
 90
       50
102
RTVSPost2010PropOp37
 70
     1
102
RTVSPost2010Prop38
140
0.0
102
RTVSPost2010PropOp38
 70
     1
102
RTVSPost2010Prop39
140
1.0
102
RTVSPost2010PropOp39
 70
     1
102
RTVSPost2010Prop40
 90
        0
102
RTVSPost2010PropOp40
 70
     1
102
RTVSPost2010Prop41ColorIndex
 90
       18
102
RTVSPost2010Prop41ColorRGB
 90
        0
102
RTVSPost2010PropOp41
 70
     1
102
RTVSPost2010Prop42
 90
       50
102
RTVSPost2010PropOp42
 70
     1
102
RTVSPost2010Prop43
 90
        3
102
RTVSPost2010PropOp43
 70
     1
102
RTVSPost2010Prop44ColorIndex
 90
        5
102
RTVSPost2010Prop44ColorRGB
 90
      255
102
RTVSPost2010PropOp44
 70
     1
102
RTVSPost2010Prop45
280
     0
102
RTVSPost2010PropOp45
 70
     1
102
RTVSPost2010Prop46
 90
       50
102
RTVSPost2010PropOp46
 70
     1
102
RTVSPost2010Prop47
 90
       50
102
RTVSPost2010PropOp47
 70
     1
102
RTVSPost2010Prop48
 90
       50
102
RTVSPost2010PropOp48
 70
     1
102
RTVSPost2010Prop49
280
     0
102
RTVSPost2010PropOp49
 70
     1
102
RTVSPost2010Prop50
 90
       50
102
RTVSPost2010PropOp50
 70
     1
102
RTVSPost2010Prop51ColorIndex
 90
      256
102
RTVSPost2010Prop51ColorRGB
 90
-16777216
102
RTVSPost2010PropOp51
 70
     0
102
RTVSPost2010Prop52
140
1.0
102
RTVSPost2010PropOp52
 70
     0
102
RTVSPost2010Prop53
 90
        2
102
RTVSPost2010PropOp53
 70
     1
102
RTVSPost2010Prop54
  1
strokes_ogs.tif
102
RTVSPost2010PropOp54
 70
     1
102
RTVSPost2010Prop55
280
     0
102
RTVSPost2010PropOp55
 70
     1
102
RTVSPost2010Prop56
140
1.0
102
RTVSPost2010PropOp56
 70
     1
102
RTVSPost2010Prop57
140
1.0
102
RTVSPost2010PropOp57
 70
     1
  0
ENDSEC
  0
EOF
