  0
SECTION
  2
HEADER
  9
$ACADVER
  1
AC1024
  9
$ACADMAINTVER
 70
   226
  9
$DWGCODEPAGE
  3
ANSI_932
  9
$INSBASE
 10
0.0
 20
0.0
 30
0.0
  9
$EXTMIN
 10
1.000000000000000E+20
 20
1.000000000000000E+20
 30
1.000000000000000E+20
  9
$EXTMAX
 10
-1.000000000000000E+20
 20
-1.000000000000000E+20
 30
-1.000000000000000E+20
  9
$LIMMIN
 10
0.0
 20
0.0
  9
$LIMMAX
 10
12.0
 20
9.0
  9
$ORTHOMODE
 70
     0
  9
$REGENMODE
 70
     1
  9
$FILLMODE
 70
     1
  9
$QTEXTMODE
 70
     0
  9
$MIRRTEXT
 70
     0
  9
$LTSCALE
 40
1.0
  9
$ATTMODE
 70
     1
  9
$TEXTSIZE
 40
0.2
  9
$TRACEWID
 40
0.05
  9
$TEXTSTYLE
  7
Standard
  9
$CLAYER
  8
0
  9
$CELTYPE
  6
ByLayer
  9
$CECOLOR
 62
   256
  9
$CELTSCALE
 40
1.0
  9
$DISPSILH
 70
     0
  9
$DIMSCALE
 40
1.0
  9
$DIMASZ
 40
0.18
  9
$DIMEXO
 40
0.0625
  9
$DIMDLI
 40
0.38
  9
$DIMRND
 40
0.0
  9
$DIMDLE
 40
0.0
  9
$DIMEXE
 40
0.18
  9
$DIMTP
 40
0.0
  9
$DIMTM
 40
0.0
  9
$DIMTXT
 40
0.18
  9
$DIMCEN
 40
0.09
  9
$DIMTSZ
 40
0.0
  9
$DIMTOL
 70
     0
  9
$DIMLIM
 70
     0
  9
$DIMTIH
 70
     1
  9
$DIMTOH
 70
     1
  9
$DIMSE1
 70
     0
  9
$DIMSE2
 70
     0
  9
$DIMTAD
 70
     0
  9
$DIMZIN
 70
     0
  9
$DIMBLK
  1

  9
$DIMASO
 70
     1
  9
$DIMSHO
 70
     1
  9
$DIMPOST
  1

  9
$DIMAPOST
  1

  9
$DIMALT
 70
     0
  9
$DIMALTD
 70
     2
  9
$DIMALTF
 40
25.4
  9
$DIMLFAC
 40
1.0
  9
$DIMTOFL
 70
     0
  9
$DIMTVP
 40
0.0
  9
$DIMTIX
 70
     0
  9
$DIMSOXD
 70
     0
  9
$DIMSAH
 70
     0
  9
$DIMBLK1
  1

  9
$DIMBLK2
  1

  9
$DIMSTYLE
  2
Standard
  9
$DIMCLRD
 70
     0
  9
$DIMCLRE
 70
     0
  9
$DIMCLRT
 70
     0
  9
$DIMTFAC
 40
1.0
  9
$DIMGAP
 40
0.09
  9
$DIMJUST
 70
     0
  9
$DIMSD1
 70
     0
  9
$DIMSD2
 70
     0
  9
$DIMTOLJ
 70
     1
  9
$DIMTZIN
 70
     0
  9
$DIMALTZ
 70
     0
  9
$DIMALTTZ
 70
     0
  9
$DIMUPT
 70
     0
  9
$DIMDEC
 70
     4
  9
$DIMTDEC
 70
     4
  9
$DIMALTU
 70
     2
  9
$DIMALTTD
 70
     2
  9
$DIMTXSTY
  7
Standard
  9
$DIMAUNIT
 70
     0
  9
$DIMADEC
 70
     0
  9
$DIMALTRND
 40
0.0
  9
$DIMAZIN
 70
     0
  9
$DIMDSEP
 70
    46
  9
$DIMATFIT
 70
     3
  9
$DIMFRAC
 70
     0
  9
$DIMLDRBLK
  1

  9
$DIMLUNIT
 70
     2
  9
$DIMLWD
 70
    -2
  9
$DIMLWE
 70
    -2
  9
$DIMTMOVE
 70
     0
  9
$DIMFXL
 40
1.0
  9
$DIMFXLON
 70
     0
  9
$DIMJOGANG
 40
0.7853981633974483
  9
$DIMTFILL
 70
     0
  9
$DIMTFILLCLR
 70
     0
  9
$DIMARCSYM
 70
     0
  9
$DIMLTYPE
  6

  9
$DIMLTEX1
  6

  9
$DIMLTEX2
  6

  9
$DIMTXTDIRECTION
 70
     0
  9
$LUNITS
 70
     2
  9
$LUPREC
 70
     4
  9
$SKETCHINC
 40
0.1
  9
$FILLETRAD
 40
0.0
  9
$AUNITS
 70
     0
  9
$AUPREC
 70
     0
  9
$MENU
  1
.
  9
$ELEVATION
 40
0.0
  9
$PELEVATION
 40
0.0
  9
$THICKNESS
 40
0.0
  9
$LIMCHECK
 70
     0
  9
$CHAMFERA
 40
0.0
  9
$CHAMFERB
 40
0.0
  9
$CHAMFERC
 40
0.0
  9
$CHAMFERD
 40
0.0
  9
$SKPOLY
 70
     0
  9
$TDCREATE
 40
2459569.503043981
  9
$TDUCREATE
 40
2459569.128043981
  9
$TDUPDATE
 40
2459569.503043981
  9
$TDUUPDATE
 40
2459569.128043981
  9
$TDINDWG
 40
0.0000000000
  9
$TDUSRTIMER
 40
0.0000000000
  9
$USRTIMER
 70
     1
  9
$ANGBASE
 50
0.0
  9
$ANGDIR
 70
     0
  9
$PDMODE
 70
     0
  9
$PDSIZE
 40
0.0
  9
$PLINEWID
 40
0.0
  9
$SPLFRAME
 70
     0
  9
$SPLINETYPE
 70
     6
  9
$SPLINESEGS
 70
     8
  9
$HANDSEED
  5
19F
  9
$SURFTAB1
 70
     6
  9
$SURFTAB2
 70
     6
  9
$SURFTYPE
 70
     6
  9
$SURFU
 70
     6
  9
$SURFV
 70
     6
  9
$UCSBASE
  2

  9
$UCSNAME
  2

  9
$UCSORG
 10
0.0
 20
0.0
 30
0.0
  9
$UCSXDIR
 10
1.0
 20
0.0
 30
0.0
  9
$UCSYDIR
 10
0.0
 20
1.0
 30
0.0
  9
$UCSORTHOREF
  2

  9
$UCSORTHOVIEW
 70
     0
  9
$UCSORGTOP
 10
0.0
 20
0.0
 30
0.0
  9
$UCSORGBOTTOM
 10
0.0
 20
0.0
 30
0.0
  9
$UCSORGLEFT
 10
0.0
 20
0.0
 30
0.0
  9
$UCSORGRIGHT
 10
0.0
 20
0.0
 30
0.0
  9
$UCSORGFRONT
 10
0.0
 20
0.0
 30
0.0
  9
$UCSORGBACK
 10
0.0
 20
0.0
 30
0.0
  9
$PUCSBASE
  2

  9
$PUCSNAME
  2

  9
$PUCSORG
 10
0.0
 20
0.0
 30
0.0
  9
$PUCSXDIR
 10
1.0
 20
0.0
 30
0.0
  9
$PUCSYDIR
 10
0.0
 20
1.0
 30
0.0
  9
$PUCSORTHOREF
  2

  9
$PUCSORTHOVIEW
 70
     0
  9
$PUCSORGTOP
 10
0.0
 20
0.0
 30
0.0
  9
$PUCSORGBOTTOM
 10
0.0
 20
0.0
 30
0.0
  9
$PUCSORGLEFT
 10
0.0
 20
0.0
 30
0.0
  9
$PUCSORGRIGHT
 10
0.0
 20
0.0
 30
0.0
  9
$PUCSORGFRONT
 10
0.0
 20
0.0
 30
0.0
  9
$PUCSORGBACK
 10
0.0
 20
0.0
 30
0.0
  9
$USERI1
 70
     0
  9
$USERI2
 70
     0
  9
$USERI3
 70
     0
  9
$USERI4
 70
     0
  9
$USERI5
 70
     0
  9
$USERR1
 40
0.0
  9
$USERR2
 40
0.0
  9
$USERR3
 40
0.0
  9
$USERR4
 40
0.0
  9
$USERR5
 40
0.0
  9
$WORLDVIEW
 70
     1
  9
$SHADEDGE
 70
     3
  9
$SHADEDIF
 70
    70
  9
$TILEMODE
 70
     1
  9
$MAXACTVP
 70
    64
  9
$PINSBASE
 10
0.0
 20
0.0
 30
0.0
  9
$PLIMCHECK
 70
     0
  9
$PEXTMIN
 10
1.000000000000000E+20
 20
1.000000000000000E+20
 30
1.000000000000000E+20
  9
$PEXTMAX
 10
-1.000000000000000E+20
 20
-1.000000000000000E+20
 30
-1.000000000000000E+20
  9
$PLIMMIN
 10
0.0
 20
0.0
  9
$PLIMMAX
 10
12.0
 20
9.0
  9
$UNITMODE
 70
     0
  9
$VISRETAIN
 70
     1
  9
$PLINEGEN
 70
     0
  9
$PSLTSCALE
 70
     1
  9
$TREEDEPTH
 70
  3020
  9
$CMLSTYLE
  2
Standard
  9
$CMLJUST
 70
     0
  9
$CMLSCALE
 40
1.0
  9
$PROXYGRAPHICS
 70
     1
  9
$MEASUREMENT
 70
     0
  9
$CELWEIGHT
370
    -1
  9
$ENDCAPS
280
     0
  9
$JOINSTYLE
280
     0
  9
$LWDISPLAY
290
     1
  9
$INSUNITS
 70
     4
  9
$HYPERLINKBASE
  1

  9
$STYLESHEET
  1

  9
$XEDIT
290
     1
  9
$CEPSNTYPE
380
     0
  9
$PSTYLEMODE
290
     1
  9
$FINGERPRINTGUID
  2
{C157D5E9-5D63-DA44-8E45-F0FC1816D6BB}
  9
$VERSIONGUID
  2
{FDC4639E-5EFE-804E-A16A-D40AB1C61503}
  9
$EXTNAMES
290
     1
  9
$PSVPSCALE
 40
0.0
  9
$OLESTARTUP
290
     0
  9
$SORTENTS
280
   127
  9
$INDEXCTL
280
     0
  9
$HIDETEXT
280
     1
  9
$XCLIPFRAME
280
     2
  9
$HALOGAP
280
     0
  9
$OBSCOLOR
 70
   257
  9
$OBSLTYPE
280
     0
  9
$INTERSECTIONDISPLAY
280
     0
  9
$INTERSECTIONCOLOR
 70
   257
  9
$DIMASSOC
280
     2
  9
$PROJECTNAME
  1

  9
$CAMERADISPLAY
290
     0
  9
$LENSLENGTH
 40
50.0
  9
$CAMERAHEIGHT
 40
0.0
  9
$STEPSPERSEC
 40
2.0
  9
$STEPSIZE
 40
6.0
  9
$3DDWFPREC
 40
2.0
  9
$PSOLWIDTH
 40
0.25
  9
$PSOLHEIGHT
 40
4.0
  9
$LOFTANG1
 40
1.570796326794896
  9
$LOFTANG2
 40
1.570796326794896
  9
$LOFTMAG1
 40
0.0
  9
$LOFTMAG2
 40
0.0
  9
$LOFTPARAM
 70
     7
  9
$LOFTNORMALS
280
     1
  9
$LATITUDE
 40
37.795
  9
$LONGITUDE
 40
-122.394
  9
$NORTHDIRECTION
 40
0.0
  9
$TIMEZONE
 70
 -8000
  9
$LIGHTGLYPHDISPLAY
280
     1
  9
$TILEMODELIGHTSYNCH
280
     1
  9
$CMATERIAL
347
11
  9
$SOLIDHIST
280
     0
  9
$SHOWHIST
280
     1
  9
$DWFFRAME
280
     2
  9
$DGNFRAME
280
     0
  9
$REALWORLDSCALE
290
     1
  9
$INTERFERECOLOR
 62
     1
  9
$INTERFEREOBJVS
345
33
  9
$INTERFEREVPVS
346
30
  9
$CSHADOW
280
     0
  9
$SHADOWPLANELOCATION
 40
0.0
  0
ENDSEC
  0
SECTION
  2
CLASSES
  0
CLASS
  1
ACDBDICTIONARYWDFLT
  2
AcDbDictionaryWithDefault
  3
ObjectDBX Classes
 90
        0
 91
        1
280
     0
281
     0
  0
CLASS
  1
MATERIAL
  2
AcDbMaterial
  3
ObjectDBX Classes
 90
     1153
 91
        3
280
     0
281
     0
  0
CLASS
  1
VISUALSTYLE
  2
AcDbVisualStyle
  3
ObjectDBX Classes
 90
     4095
 91
       24
280
     0
281
     0
  0
CLASS
  1
SCALE
  2
AcDbScale
  3
ObjectDBX Classes
 90
     1153
 91
       17
280
     0
281
     0
  0
CLASS
  1
TABLESTYLE
  2
AcDbTableStyle
  3
ObjectDBX Classes
 90
     4095
 91
        1
280
     0
281
     0
  0
CLASS
  1
MLEADERSTYLE
  2
AcDbMLeaderStyle
  3
ACDB_MLEADERSTYLE_CLASS
 90
     4095
 91
        1
280
     0
281
     0
  0
CLASS
  1
ACDBSECTIONVIEWSTYLE
  2
AcDbSectionViewStyle
  3
ObjectDBX Classes
 90
     1025
 91
        1
280
     0
281
     0
  0
CLASS
  1
ACDBDETAILVIEWSTYLE
  2
AcDbDetailViewStyle
  3
ObjectDBX Classes
 90
     1025
 91
        1
280
     0
281
     0
  0
CLASS
  1
DICTIONARYVAR
  2
AcDbDictionaryVar
  3
ObjectDBX Classes
 90
        0
 91
        5
280
     0
281
     0
  0
CLASS
  1
CELLSTYLEMAP
  2
AcDbCellStyleMap
  3
ObjectDBX Classes
 90
     1152
 91
        1
280
     0
281
     0
  0
ENDSEC
  0
SECTION
  2
TABLES
  0
TABLE
  2
VPORT
  5
8
330
0
100
AcDbSymbolTable
 70
     1
  0
VPORT
  5
57
330
8
100
AcDbSymbolTableRecord
100
AcDbViewportTableRecord
  2
*Active
 70
     0
 10
0.0
 20
0.0
 11
1.0
 21
1.0
 12
0.0
 22
0.0
 13
0.0
 23
0.0
 14
1.0
 24
1.0
 15
0.0
 25
0.0
 16
0.0
 26
0.0
 36
1.0
 17
104.9999999737534
 27
-148.4999999628701
 37
0.0
 40
302.939999924255
 41
0.7070707070707534
 42
50.0
 43
0.0
 44
0.0
 50
0.0
 51
0.0
 71
     0
 72
   100
 73
     1
 74
     0
 75
     1
 76
     0
 77
     0
 78
     0
281
     0
 65
     1
110
0.0
120
0.0
130
0.0
111
1.0
121
0.0
131
0.0
112
0.0
122
1.0
132
0.0
 79
     0
146
0.0
 60
     3
 61
     5
292
     1
282
     1
141
0.0
142
0.0
 63
   250
421
  3355443
  0
ENDTAB
  0
TABLE
  2
LTYPE
  5
5
330
0
100
AcDbSymbolTable
 70
     3
  0
LTYPE
  5
5B
330
5
100
AcDbSymbolTableRecord
100
AcDbLinetypeTableRecord
  2
ByBlock
 70
     0
  3

 72
    65
 73
     0
 40
0.0
  0
LTYPE
  5
5C
330
5
100
AcDbSymbolTableRecord
100
AcDbLinetypeTableRecord
  2
ByLayer
 70
     0
  3

 72
    65
 73
     0
 40
0.0
  0
LTYPE
  5
5D
330
5
100
AcDbSymbolTableRecord
100
AcDbLinetypeTableRecord
  2
Continuous
 70
     0
  3
Solid line
 72
    65
 73
     0
 40
0.0
  0
LTYPE
  5
82
330
5
100
AcDbSymbolTableRecord
100
AcDbLinetypeTableRecord
  2
AI-Linetype-0
 70
     0
  3
Adobe Illustrator Linetype No. 0
 72
    65
 73
     2
 40
1.411111110758333
 49
0.7055555553791667
 74
     0
 49
-0.7055555553791667
 74
     0
  0
LTYPE
  5
84
330
5
100
AcDbSymbolTableRecord
100
AcDbLinetypeTableRecord
  2
AI-Linetype-1
 70
     0
  3
Adobe Illustrator Linetype No. 1
 72
    65
 73
     2
 40
1.411111110758333
 49
0.7055555553791667
 74
     0
 49
-0.7055555553791667
 74
     0
  0
ENDTAB
  0
TABLE
  2
LAYER
  5
2
330
0
100
AcDbSymbolTable
 70
     2
  0
LAYER
  5
54
330
2
100
AcDbSymbolTableRecord
100
AcDbLayerTableRecord
  2
0
 70
     0
 62
     7
  6
Continuous
370
    -3
390
F
347
21
  0
LAYER
  5
78
330
2
100
AcDbSymbolTableRecord
100
AcDbLayerTableRecord
  2
レイヤー 1
 70
     0
 62
     7
  6
Continuous
370
     0
390
F
347
21
  0
ENDTAB
  0
TABLE
  2
STYLE
  5
3
330
0
100
AcDbSymbolTable
 70
     2
  0
STYLE
  5
55
330
3
100
AcDbSymbolTableRecord
100
AcDbTextStyleTableRecord
  2
Standard
 70
     0
 40
0.0
 41
1.0
 50
0.0
 71
     0
 42
0.2
  3
txt
  4

  0
STYLE
  5
5A
330
3
100
AcDbSymbolTableRecord
100
AcDbTextStyleTableRecord
  2
Annotative
 70
     0
 40
0.0
 41
1.0
 50
0.0
 71
     0
 42
0.2
  3
txt
  4

1001
AcadAnnotative
1000
AnnotativeData
1002
{
1070
     1
1070
     1
1002
}
  0
ENDTAB
  0
TABLE
  2
VIEW
  5
6
330
0
100
AcDbSymbolTable
 70
     0
  0
ENDTAB
  0
TABLE
  2
UCS
  5
7
330
0
100
AcDbSymbolTable
 70
     0
  0
ENDTAB
  0
TABLE
  2
APPID
  5
9
330
0
100
AcDbSymbolTable
 70
     2
  0
APPID
  5
56
330
9
100
AcDbSymbolTableRecord
100
AcDbRegAppTableRecord
  2
ACAD
 70
     0
  0
APPID
  5
5E
330
9
100
AcDbSymbolTableRecord
100
AcDbRegAppTableRecord
  2
AcadAnnotative
 70
     0
  0
ENDTAB
  0
TABLE
  2
DIMSTYLE
  5
A
330
0
100
AcDbSymbolTable
 70
     2
100
AcDbDimStyleTable
 71
     0
  0
DIMSTYLE
105
58
330
A
100
AcDbSymbolTableRecord
100
AcDbDimStyleTableRecord
  2
Standard
 70
     0
340
55
  0
DIMSTYLE
105
59
330
A
100
AcDbSymbolTableRecord
100
AcDbDimStyleTableRecord
  2
Annotative
 70
     0
340
55
1001
AcadAnnotative
1000
AnnotativeData
1002
{
1070
     1
1070
     1
1002
}
  0
ENDTAB
  0
TABLE
  2
BLOCK_RECORD
  5
1
330
0
100
AcDbSymbolTable
 70
    17
  0
BLOCK_RECORD
  5
70
330
1
100
AcDbSymbolTableRecord
100
AcDbBlockTableRecord
  2
*Model_Space
340
73
 70
     0
280
     1
281
     0
  0
BLOCK_RECORD
  5
6C
330
1
100
AcDbSymbolTableRecord
100
AcDbBlockTableRecord
  2
*Paper_Space
340
6F
 70
     0
280
     1
281
     0
  0
BLOCK_RECORD
  5
74
330
1
100
AcDbSymbolTableRecord
100
AcDbBlockTableRecord
  2
*Paper_Space0
340
77
 70
     0
280
     1
281
     0
  0
BLOCK_RECORD
  5
79
330
1
100
AcDbSymbolTableRecord
100
AcDbBlockTableRecord
  2
Block_0
340
0
102
{BLKREFS
331
7A
102
}
 70
     0
280
     1
281
     0
  0
BLOCK_RECORD
  5
7D
330
1
100
AcDbSymbolTableRecord
100
AcDbBlockTableRecord
  2
Block_1
340
0
102
{BLKREFS
331
7E
102
}
 70
     0
280
     1
281
     0
  0
BLOCK_RECORD
  5
EC
330
1
100
AcDbSymbolTableRecord
100
AcDbBlockTableRecord
  2
Block_2
340
0
102
{BLKREFS
331
ED
102
}
 70
     0
280
     1
281
     0
  0
BLOCK_RECORD
  5
F0
330
1
100
AcDbSymbolTableRecord
100
AcDbBlockTableRecord
  2
Block_3
340
0
102
{BLKREFS
331
F1
102
}
 70
     0
280
     1
281
     0
  0
BLOCK_RECORD
  5
FD
330
1
100
AcDbSymbolTableRecord
100
AcDbBlockTableRecord
  2
Block_4
340
0
102
{BLKREFS
331
FE
102
}
 70
     0
280
     1
281
     0
  0
BLOCK_RECORD
  5
101
330
1
100
AcDbSymbolTableRecord
100
AcDbBlockTableRecord
  2
Block_5
340
0
102
{BLKREFS
331
102
102
}
 70
     0
280
     1
281
     0
  0
BLOCK_RECORD
  5
10B
330
1
100
AcDbSymbolTableRecord
100
AcDbBlockTableRecord
  2
Block_6
340
0
102
{BLKREFS
331
10C
102
}
 70
     0
280
     1
281
     0
  0
BLOCK_RECORD
  5
113
330
1
100
AcDbSymbolTableRecord
100
AcDbBlockTableRecord
  2
Block_7
340
0
102
{BLKREFS
331
114
102
}
 70
     0
280
     1
281
     0
  0
BLOCK_RECORD
  5
117
330
1
100
AcDbSymbolTableRecord
100
AcDbBlockTableRecord
  2
Block_8
340
0
102
{BLKREFS
331
118
102
}
 70
     0
280
     1
281
     0
  0
BLOCK_RECORD
  5
122
330
1
100
AcDbSymbolTableRecord
100
AcDbBlockTableRecord
  2
Block_9
340
0
102
{BLKREFS
331
123
102
}
 70
     0
280
     1
281
     0
  0
BLOCK_RECORD
  5
12D
330
1
100
AcDbSymbolTableRecord
100
AcDbBlockTableRecord
  2
Block_10
340
0
102
{BLKREFS
331
12E
102
}
 70
     0
280
     1
281
     0
  0
BLOCK_RECORD
  5
134
330
1
100
AcDbSymbolTableRecord
100
AcDbBlockTableRecord
  2
Block_11
340
0
102
{BLKREFS
331
135
102
}
 70
     0
280
     1
281
     0
  0
BLOCK_RECORD
  5
13A
330
1
100
AcDbSymbolTableRecord
100
AcDbBlockTableRecord
  2
Block_12
340
0
102
{BLKREFS
331
13B
102
}
 70
     0
280
     1
281
     0
  0
BLOCK_RECORD
  5
13E
330
1
100
AcDbSymbolTableRecord
100
AcDbBlockTableRecord
  2
Block_13
340
0
102
{BLKREFS
331
13F
102
}
 70
     0
280
     1
281
     0
  0
BLOCK_RECORD
  5
145
330
1
100
AcDbSymbolTableRecord
100
AcDbBlockTableRecord
  2
Block_14
340
0
102
{BLKREFS
331
146
102
}
 70
     0
280
     1
281
     0
  0
BLOCK_RECORD
  5
149
330
1
100
AcDbSymbolTableRecord
100
AcDbBlockTableRecord
  2
Block_15
340
0
102
{BLKREFS
331
14A
102
}
 70
     0
280
     1
281
     0
  0
ENDTAB
  0
ENDSEC
  0
SECTION
  2
BLOCKS
  0
BLOCK
  5
71
330
70
100
AcDbEntity
  8
0
100
AcDbBlockBegin
  2
*Model_Space
 70
     0
 10
0.0
 20
0.0
 30
0.0
  3
*Model_Space
  1

  0
ENDBLK
  5
72
330
70
100
AcDbEntity
  8
0
100
AcDbBlockEnd
  0
BLOCK
  5
6D
330
6C
100
AcDbEntity
 67
     1
  8
0
100
AcDbBlockBegin
  2
*Paper_Space
 70
     0
 10
0.0
 20
0.0
 30
0.0
  3
*Paper_Space
  1

  0
ENDBLK
  5
6E
330
6C
100
AcDbEntity
 67
     1
  8
0
100
AcDbBlockEnd
  0
BLOCK
  5
75
330
74
100
AcDbEntity
 67
     1
  8
0
100
AcDbBlockBegin
  2
*Paper_Space0
 70
     0
 10
0.0
 20
0.0
 30
0.0
  3
*Paper_Space0
  1

  0
ENDBLK
  5
76
330
74
100
AcDbEntity
 67
     1
  8
0
100
AcDbBlockEnd
  0
BLOCK
  5
7B
330
79
100
AcDbEntity
  8
0
100
AcDbBlockBegin
  2
Block_0
 70
     0
 10
0.0
 20
0.0
 30
0.0
  3
Block_0
  1

  0
INSERT
  5
7E
330
79
100
AcDbEntity
  8
レイヤー 1
100
AcDbBlockReference
  2
Block_1
 10
0.0
 20
0.0
 30
0.0
  0
INSERT
  5
13B
330
79
100
AcDbEntity
  8
レイヤー 1
100
AcDbBlockReference
  2
Block_12
 10
0.0
 20
0.0
 30
0.0
  0
ENDBLK
  5
7C
330
79
100
AcDbEntity
  8
0
100
AcDbBlockEnd
  0
BLOCK
  5
7F
330
7D
100
AcDbEntity
  8
0
100
AcDbBlockBegin
  2
Block_1
 70
     0
 10
0.0
 20
0.0
 30
0.0
  3
Block_1
  1

  0
LINE
  5
81
330
7D
100
AcDbEntity
  8
レイヤー 1
  6
AI-Linetype-0
 62
   154
420
    23468
370
    25
100
AcDbLine
 10
79.81946602304377
 20
-148.3779034851625
 30
0.0
 11
89.8190224346005
 21
-148.3779034851625
 31
0.0
  0
LINE
  5
83
330
7D
100
AcDbEntity
  8
レイヤー 1
  6
AI-Linetype-1
 62
   154
420
    23468
370
    25
100
AcDbLine
 10
116.3577884242065
 20
-148.3779034851625
 30
0.0
 11
126.3575212246476
 21
-148.3779034851625
 31
0.0
  0
LINE
  5
85
330
7D
100
AcDbEntity
  8
レイヤー 1
 62
    18
420
        0
370
    25
100
AcDbLine
 10
106.8210764452861
 20
-152.5025459841309
 30
0.0
 11
99.82097773498493
 21
-152.5025459841309
 31
0.0
  0
LINE
  5
86
330
7D
100
AcDbEntity
  8
レイヤー 1
 62
    18
420
        0
370
    25
100
AcDbLine
 10
79.81946602304377
 20
-147.0024582077285
 30
0.0
 11
79.81946602304377
 21
-147.5026618187144
 31
0.0
  0
LINE
  5
87
330
7D
100
AcDbEntity
  8
レイヤー 1
 62
    18
420
        0
370
    25
100
AcDbLine
 10
99.82097773498493
 20
-147.5026618187144
 30
0.0
 11
79.81946602304377
 21
-147.5026618187144
 31
0.0
  0
LINE
  5
88
330
7D
100
AcDbEntity
  8
レイヤー 1
 62
    18
420
        0
370
    25
100
AcDbLine
 10
79.81946602304377
 20
-147.0024582077285
 30
0.0
 11
80.33346323215283
 21
-147.3845165409662
 31
0.0
  0
LINE
  5
89
330
7D
100
AcDbEntity
  8
レイヤー 1
 62
    18
420
        0
370
    25
100
AcDbLine
 10
80.33346323215283
 20
-147.3845165409662
 30
0.0
 11
80.81923821975967
 21
-146.966968763293
 31
0.0
  0
LINE
  5
8A
330
7D
100
AcDbEntity
  8
レイヤー 1
 62
    18
420
        0
370
    25
100
AcDbLine
 10
81.33323542886875
 20
-147.3490270965307
 30
0.0
 11
81.81830486093803
 21
-146.9311265410798
 31
0.0
  0
LINE
  5
8B
330
7D
100
AcDbEntity
  8
レイヤー 1
 62
    18
420
        0
370
    25
100
AcDbLine
 10
80.81923821975967
 20
-146.966968763293
 30
0.0
 11
81.33323542886875
 21
-147.3490270965307
 31
0.0
  0
LINE
  5
8C
330
7D
100
AcDbEntity
  8
レイヤー 1
 62
    18
420
        0
370
    25
100
AcDbLine
 10
81.81830486093803
 20
-146.9311265410798
 30
0.0
 11
82.33230207004709
 21
-147.3131848743175
 31
0.0
  0
LINE
  5
8D
330
7D
100
AcDbEntity
  8
レイヤー 1
 62
    18
420
        0
370
    25
100
AcDbLine
 10
82.33230207004709
 20
-147.3131848743175
 30
0.0
 11
82.81807705765427
 21
-146.895637096644
 31
0.0
  0
LINE
  5
8E
330
7D
100
AcDbEntity
  8
レイヤー 1
 62
    18
420
        0
370
    25
100
AcDbLine
 10
82.81807705765427
 20
-146.895637096644
 30
0.0
 11
83.33140398900232
 21
-147.2773779298821
 31
0.0
  0
LINE
  5
8F
330
7D
100
AcDbEntity
  8
レイヤー 1
 62
    18
420
        0
370
    25
100
AcDbLine
 10
83.33140398900232
 20
-147.2773779298821
 30
0.0
 11
83.8171436988323
 21
-146.8598301522089
 31
0.0
  0
LINE
  5
90
330
7D
100
AcDbEntity
  8
レイヤー 1
 62
    18
420
        0
370
    25
100
AcDbLine
 10
83.8171436988323
 20
-146.8598301522089
 30
0.0
 11
84.33114090794136
 21
-147.2415357076688
 31
0.0
  0
LINE
  5
91
330
7D
100
AcDbEntity
  8
レイヤー 1
 62
    18
420
        0
370
    25
100
AcDbLine
 10
84.33114090794136
 20
-147.2415357076688
 30
0.0
 11
84.81621034001063
 21
-146.8239879299956
 31
0.0
  0
LINE
  5
92
330
7D
100
AcDbEntity
  8
レイヤー 1
 62
    18
420
        0
370
    25
100
AcDbLine
 10
84.81621034001063
 20
-146.8239879299956
 30
0.0
 11
85.33024282689659
 21
-147.206046263233
 31
0.0
  0
LINE
  5
93
330
7D
100
AcDbEntity
  8
レイヤー 1
 62
    18
420
        0
370
    25
100
AcDbLine
 10
85.33024282689659
 20
-147.206046263233
 30
0.0
 11
85.81598253672687
 21
-146.7884984855599
 31
0.0
  0
LINE
  5
94
330
7D
100
AcDbEntity
  8
レイヤー 1
 62
    18
420
        0
370
    25
100
AcDbLine
 10
85.81598253672687
 20
-146.7884984855599
 30
0.0
 11
86.33001502361249
 21
-147.1705568187975
 31
0.0
  0
LINE
  5
95
330
7D
100
AcDbEntity
  8
レイヤー 1
 62
    18
420
        0
370
    25
100
AcDbLine
 10
86.33001502361249
 20
-147.1705568187975
 30
0.0
 11
86.81508445568178
 21
-146.7526915411244
 31
0.0
  0
LINE
  5
96
330
7D
100
AcDbEntity
  8
レイヤー 1
 62
    18
420
        0
370
    25
100
AcDbLine
 10
87.32908166479084
 20
-147.1347498743621
 30
0.0
 11
87.81482137462083
 21
-146.7172020966886
 31
0.0
  0
LINE
  5
97
330
7D
100
AcDbEntity
  8
レイヤー 1
 62
    18
420
        0
370
    25
100
AcDbLine
 10
86.81508445568178
 20
-146.7526915411244
 30
0.0
 11
87.32908166479084
 21
-147.1347498743621
 31
0.0
  0
LINE
  5
98
330
7D
100
AcDbEntity
  8
レイヤー 1
 62
    18
420
        0
370
    25
100
AcDbLine
 10
87.81482137462083
 20
-146.7172020966886
 30
0.0
 11
88.32867747262268
 21
-147.0989076521489
 31
0.0
  0
LINE
  5
99
330
7D
100
AcDbEntity
  8
レイヤー 1
 62
    18
420
        0
370
    25
100
AcDbLine
 10
88.32867747262268
 20
-147.0989076521489
 30
0.0
 11
88.81374690469165
 21
-146.6813598744754
 31
0.0
  0
LINE
  5
9A
330
7D
100
AcDbEntity
  8
レイヤー 1
 62
    18
420
        0
370
    25
100
AcDbLine
 10
89.32774411380071
 20
-147.0630654299356
 30
0.0
 11
89.81281354587002
 21
-146.64555293004
 31
0.0
  0
LINE
  5
9B
330
7D
100
AcDbEntity
  8
レイヤー 1
 62
    18
420
        0
370
    25
100
AcDbLine
 10
88.81374690469165
 20
-146.6813598744754
 30
0.0
 11
89.32774411380071
 21
-147.0630654299356
 31
0.0
  0
LINE
  5
9C
330
7D
100
AcDbEntity
  8
レイヤー 1
 62
    18
420
        0
370
    25
100
AcDbLine
 10
90.32698714386347
 20
-147.0276112632776
 30
0.0
 11
90.81276213147031
 21
-146.6100634856045
 31
0.0
  0
LINE
  5
9D
330
7D
100
AcDbEntity
  8
レイヤー 1
 62
    18
420
        0
370
    25
100
AcDbLine
 10
89.81281354587002
 20
-146.64555293004
 30
0.0
 11
90.32698714386347
 21
-147.0276112632776
 31
0.0
  0
LINE
  5
9E
330
7D
100
AcDbEntity
  8
レイヤー 1
 62
    18
420
        0
370
    25
100
AcDbLine
 10
90.81276213147031
 20
-146.6100634856045
 30
0.0
 11
91.32675934057937
 21
-146.9921218188425
 31
0.0
  0
LINE
  5
9F
330
7D
100
AcDbEntity
  8
レイヤー 1
 62
    18
420
        0
370
    25
100
AcDbLine
 10
91.32675934057937
 20
-146.9921218188425
 30
0.0
 11
91.81182877264866
 21
-146.5742212633912
 31
0.0
  0
LINE
  5
A0
330
7D
100
AcDbEntity
  8
レイヤー 1
 62
    18
420
        0
370
    25
100
AcDbLine
 10
91.81182877264866
 20
-146.5742212633912
 30
0.0
 11
92.32586125953492
 21
-146.9562795966292
 31
0.0
  0
LINE
  5
A1
330
7D
100
AcDbEntity
  8
レイヤー 1
 62
    18
420
        0
370
    25
100
AcDbLine
 10
92.32586125953492
 20
-146.9562795966292
 30
0.0
 11
92.81160096936458
 21
-146.5387318189554
 31
0.0
  0
LINE
  5
A2
330
7D
100
AcDbEntity
  8
レイヤー 1
 62
    18
420
        0
370
    25
100
AcDbLine
 10
92.81160096936458
 20
-146.5387318189554
 30
0.0
 11
93.32559817847364
 21
-146.9204373744157
 31
0.0
  0
LINE
  5
A3
330
7D
100
AcDbEntity
  8
レイヤー 1
 62
    18
420
        0
370
    25
100
AcDbLine
 10
93.32559817847364
 20
-146.9204373744157
 30
0.0
 11
93.81066761054292
 21
-146.5029248745203
 31
0.0
  0
LINE
  5
A4
330
7D
100
AcDbEntity
  8
レイヤー 1
 62
    18
420
        0
370
    25
100
AcDbLine
 10
93.81066761054292
 20
-146.5029248745203
 30
0.0
 11
94.32470009742885
 21
-146.8846304299803
 31
0.0
  0
LINE
  5
A5
330
7D
100
AcDbEntity
  8
レイヤー 1
 62
    18
420
        0
370
    25
100
AcDbLine
 10
94.32470009742885
 20
-146.8846304299803
 30
0.0
 11
94.81043980725884
 21
-146.4670826523068
 31
0.0
  0
LINE
  5
A6
330
7D
100
AcDbEntity
  8
レイヤー 1
 62
    18
420
        0
370
    25
100
AcDbLine
 10
94.81043980725884
 20
-146.4670826523068
 30
0.0
 11
95.32376673860722
 21
-146.8491409855444
 31
0.0
  0
LINE
  5
A7
330
7D
100
AcDbEntity
  8
レイヤー 1
 62
    18
420
        0
370
    25
100
AcDbLine
 10
95.32376673860722
 20
-146.8491409855444
 30
0.0
 11
95.80954172621407
 21
-146.4315932078713
 31
0.0
  0
LINE
  5
A8
330
7D
100
AcDbEntity
  8
レイヤー 1
 62
    18
420
        0
370
    25
100
AcDbLine
 10
95.80954172621407
 20
-146.4315932078713
 30
0.0
 11
96.32353893532313
 21
-146.813651541109
 31
0.0
  0
LINE
  5
A9
330
7D
100
AcDbEntity
  8
レイヤー 1
 62
    18
420
        0
370
    25
100
AcDbLine
 10
96.32353893532313
 20
-146.813651541109
 30
0.0
 11
96.80860836739242
 21
-146.395750985658
 31
0.0
  0
LINE
  5
AA
330
7D
100
AcDbEntity
  8
レイヤー 1
 62
    18
420
        0
370
    25
100
AcDbLine
 10
96.80860836739242
 20
-146.395750985658
 30
0.0
 11
97.32260557650148
 21
-146.7778445966736
 31
0.0
  0
LINE
  5
AB
330
7D
100
AcDbEntity
  8
レイヤー 1
 62
    18
420
        0
370
    25
100
AcDbLine
 10
97.32260557650148
 20
-146.7778445966736
 30
0.0
 11
97.80838056410834
 21
-146.3602968190001
 31
0.0
  0
LINE
  5
AC
330
7D
100
AcDbEntity
  8
レイヤー 1
 62
    18
420
        0
370
    25
100
AcDbLine
 10
97.80838056410834
 20
-146.3602968190001
 30
0.0
 11
98.32237777321738
 21
-146.7420023744603
 31
0.0
  0
LINE
  5
AD
330
7D
100
AcDbEntity
  8
レイヤー 1
 62
    18
420
        0
370
    25
100
AcDbLine
 10
98.32237777321738
 20
-146.7420023744603
 30
0.0
 11
98.80744720528637
 21
-146.3244545967868
 31
0.0
  0
LINE
  5
AE
330
7D
100
AcDbEntity
  8
レイヤー 1
 62
    18
420
        0
370
    25
100
AcDbLine
 10
98.80744720528637
 20
-146.3244545967868
 30
0.0
 11
99.32144441439607
 21
-146.7061601522471
 31
0.0
  0
LINE
  5
AF
330
7D
100
AcDbEntity
  8
レイヤー 1
 62
    18
420
        0
370
    25
100
AcDbLine
 10
99.32144441439607
 20
-146.7061601522471
 30
0.0
 11
99.80721940200259
 21
-146.2886123745736
 31
0.0
  0
LINE
  5
B0
330
7D
100
AcDbEntity
  8
レイヤー 1
 62
    18
420
        0
370
    25
100
AcDbLine
 10
99.86205817543419
 20
-146.2403876523634
 30
0.0
 11
100.8207499317011
 21
-146.2403876523634
 31
0.0
  0
LINE
  5
B1
330
7D
100
AcDbEntity
  8
レイヤー 1
 62
    18
420
        0
370
    25
100
AcDbLine
 10
100.8207499317011
 20
-146.2403876523634
 30
0.0
 11
100.8207499317011
 21
-151.5024209843813
 31
0.0
  0
LINE
  5
B2
330
7D
100
AcDbEntity
  8
レイヤー 1
 62
    18
420
        0
370
    25
100
AcDbLine
 10
99.82097773498493
 20
-147.5026618187144
 30
0.0
 11
99.82097773498493
 21
-152.5025459841309
 31
0.0
  0
LINE
  5
B3
330
7D
100
AcDbEntity
  8
レイヤー 1
 62
    18
420
        0
370
    25
100
AcDbLine
 10
105.8206339708095
 20
-151.5024209843813
 30
0.0
 11
100.8207499317011
 21
-151.5024209843813
 31
0.0
  0
LINE
  5
B4
330
7D
100
AcDbEntity
  8
レイヤー 1
 62
    18
420
        0
370
    25
100
AcDbLine
 10
116.8283939677559
 20
-146.64555293004
 30
0.0
 11
116.3143967586468
 21
-147.0276112632776
 31
0.0
  0
LINE
  5
B5
330
7D
100
AcDbEntity
  8
レイヤー 1
 62
    18
420
        0
370
    25
100
AcDbLine
 10
121.8251735624997
 20
-146.8239879299956
 30
0.0
 11
121.3111410756137
 21
-147.206046263233
 31
0.0
  0
LINE
  5
B6
330
7D
100
AcDbEntity
  8
レイヤー 1
 62
    18
420
        0
370
    25
100
AcDbLine
 10
117.3134633998252
 20
-147.0630654299356
 30
0.0
 11
116.8283939677559
 21
-146.64555293004
 31
0.0
  0
LINE
  5
B7
330
7D
100
AcDbEntity
  8
レイヤー 1
 62
    18
420
        0
370
    25
100
AcDbLine
 10
118.3132355965411
 20
-147.0989076521489
 30
0.0
 11
117.8274606089342
 21
-146.6813598744754
 31
0.0
  0
LINE
  5
B8
330
7D
100
AcDbEntity
  8
レイヤー 1
 62
    18
420
        0
370
    25
100
AcDbLine
 10
116.3143967586468
 20
-147.0276112632776
 30
0.0
 11
115.8293273265776
 21
-146.6100634856045
 31
0.0
  0
LINE
  5
B9
330
7D
100
AcDbEntity
  8
レイヤー 1
 62
    18
420
        0
370
    25
100
AcDbLine
 10
117.8274606089342
 20
-146.6813598744754
 30
0.0
 11
117.3134633998252
 21
-147.0630654299356
 31
0.0
  0
LINE
  5
BA
330
7D
100
AcDbEntity
  8
レイヤー 1
 62
    18
420
        0
370
    25
100
AcDbLine
 10
125.8228512382882
 20
-146.966968763293
 30
0.0
 11
125.3088540291791
 21
-147.3490270965307
 31
0.0
  0
LINE
  5
BB
330
7D
100
AcDbEntity
  8
レイヤー 1
 62
    18
420
        0
370
    25
100
AcDbLine
 10
118.8272328056502
 20
-146.7172020966886
 30
0.0
 11
118.3132355965411
 21
-147.0989076521489
 31
0.0
  0
LINE
  5
BC
330
7D
100
AcDbEntity
  8
レイヤー 1
 62
    18
420
        0
370
    25
100
AcDbLine
 10
119.8263347246054
 20
-146.7526915411244
 30
0.0
 11
119.3123022377195
 21
-147.1347498743621
 31
0.0
  0
LINE
  5
BD
330
7D
100
AcDbEntity
  8
レイヤー 1
 62
    18
420
        0
370
    25
100
AcDbLine
 10
105.8206339708095
 20
-146.2403876523634
 30
0.0
 11
105.8206339708095
 21
-151.5024209843813
 31
0.0
  0
LINE
  5
BE
330
7D
100
AcDbEntity
  8
レイヤー 1
 62
    18
420
        0
370
    25
100
AcDbLine
 10
119.3123022377195
 20
-147.1347498743621
 30
0.0
 11
118.8272328056502
 21
-146.7172020966886
 31
0.0
  0
LINE
  5
BF
330
7D
100
AcDbEntity
  8
レイヤー 1
 62
    18
420
        0
370
    25
100
AcDbLine
 10
120.3120744344354
 20
-147.1705568187975
 30
0.0
 11
119.8263347246054
 21
-146.7526915411244
 31
0.0
  0
LINE
  5
C0
330
7D
100
AcDbEntity
  8
レイヤー 1
 62
    18
420
        0
370
    25
100
AcDbLine
 10
125.3088540291791
 20
-147.3490270965307
 30
0.0
 11
124.8230790415723
 21
-146.9311265410798
 31
0.0
  0
LINE
  5
C1
330
7D
100
AcDbEntity
  8
レイヤー 1
 62
    18
420
        0
370
    25
100
AcDbLine
 10
120.8260716435444
 20
-146.7884984855599
 30
0.0
 11
120.3120744344354
 21
-147.1705568187975
 31
0.0
  0
LINE
  5
C2
330
7D
100
AcDbEntity
  8
レイヤー 1
 62
    18
420
        0
370
    25
100
AcDbLine
 10
121.3111410756137
 20
-147.206046263233
 30
0.0
 11
120.8260716435444
 21
-146.7884984855599
 31
0.0
  0
LINE
  5
C3
330
7D
100
AcDbEntity
  8
レイヤー 1
 62
    18
420
        0
370
    25
100
AcDbLine
 10
126.3079206703575
 20
-147.3845165409662
 30
0.0
 11
125.8228512382882
 21
-146.966968763293
 31
0.0
  0
LINE
  5
C4
330
7D
100
AcDbEntity
  8
レイヤー 1
 62
    18
420
        0
370
    25
100
AcDbLine
 10
122.824240203678
 20
-146.8598301522089
 30
0.0
 11
122.3109132723296
 21
-147.2415357076688
 31
0.0
  0
LINE
  5
C5
330
7D
100
AcDbEntity
  8
レイヤー 1
 62
    18
420
        0
370
    25
100
AcDbLine
 10
123.8240124003939
 20
-146.895637096644
 30
0.0
 11
123.3100151912849
 21
-147.2773779298821
 31
0.0
  0
LINE
  5
C6
330
7D
100
AcDbEntity
  8
レイヤー 1
 62
    18
420
        0
370
    25
100
AcDbLine
 10
123.3100151912849
 20
-147.2773779298821
 30
0.0
 11
122.824240203678
 21
-146.8598301522089
 31
0.0
  0
LINE
  5
C7
330
7D
100
AcDbEntity
  8
レイヤー 1
 62
    18
420
        0
370
    25
100
AcDbLine
 10
126.8219178794665
 20
-147.0024582077285
 30
0.0
 11
126.3079206703575
 21
-147.3845165409662
 31
0.0
  0
LINE
  5
C8
330
7D
100
AcDbEntity
  8
レイヤー 1
 62
    18
420
        0
370
    25
100
AcDbLine
 10
122.3109132723296
 20
-147.2415357076688
 30
0.0
 11
121.8251735624997
 21
-146.8239879299956
 31
0.0
  0
LINE
  5
C9
330
7D
100
AcDbEntity
  8
レイヤー 1
 62
    18
420
        0
370
    25
100
AcDbLine
 10
124.8230790415723
 20
-146.9311265410798
 30
0.0
 11
124.3090818324632
 21
-147.3131848743175
 31
0.0
  0
LINE
  5
CA
330
7D
100
AcDbEntity
  8
レイヤー 1
 62
    18
420
        0
370
    25
100
AcDbLine
 10
124.3090818324632
 20
-147.3131848743175
 30
0.0
 11
123.8240124003939
 21
-146.895637096644
 31
0.0
  0
LINE
  5
CB
330
7D
100
AcDbEntity
  8
レイヤー 1
 62
    18
420
        0
370
    25
100
AcDbLine
 10
126.8219178794665
 20
-147.0024582077285
 30
0.0
 11
126.8219178794665
 21
-147.5026618187144
 31
0.0
  0
LINE
  5
CC
330
7D
100
AcDbEntity
  8
レイヤー 1
 62
    18
420
        0
370
    25
100
AcDbLine
 10
106.8210764452861
 20
-147.5026618187144
 30
0.0
 11
126.8219178794665
 21
-147.5026618187144
 31
0.0
  0
LINE
  5
CD
330
7D
100
AcDbEntity
  8
レイヤー 1
 62
    18
420
        0
370
    25
100
AcDbLine
 10
115.8293273265776
 20
-146.6100634856045
 30
0.0
 11
115.3152948396916
 21
-146.9921218188425
 31
0.0
  0
LINE
  5
CE
330
7D
100
AcDbEntity
  8
レイヤー 1
 62
    18
420
        0
370
    25
100
AcDbLine
 10
115.3152948396916
 20
-146.9921218188425
 30
0.0
 11
114.8295551298616
 21
-146.5742212633912
 31
0.0
  0
LINE
  5
CF
330
7D
100
AcDbEntity
  8
レイヤー 1
 62
    18
420
        0
370
    25
100
AcDbLine
 10
114.8295551298616
 20
-146.5742212633912
 30
0.0
 11
114.3155579207526
 21
-146.9562795966292
 31
0.0
  0
LINE
  5
D0
330
7D
100
AcDbEntity
  8
レイヤー 1
 62
    18
420
        0
370
    25
100
AcDbLine
 10
114.3155579207526
 20
-146.9562795966292
 30
0.0
 11
113.8304884886833
 21
-146.5387318189554
 31
0.0
  0
LINE
  5
D1
330
7D
100
AcDbEntity
  8
レイヤー 1
 62
    18
420
        0
370
    25
100
AcDbLine
 10
113.8304884886833
 20
-146.5387318189554
 30
0.0
 11
113.3164560017974
 21
-146.9204373744157
 31
0.0
  0
LINE
  5
D2
330
7D
100
AcDbEntity
  8
レイヤー 1
 62
    18
420
        0
370
    25
100
AcDbLine
 10
113.3164560017974
 20
-146.9204373744157
 30
0.0
 11
112.8307162919674
 21
-146.5029248745203
 31
0.0
  0
LINE
  5
D3
330
7D
100
AcDbEntity
  8
レイヤー 1
 62
    18
420
        0
370
    25
100
AcDbLine
 10
112.8307162919674
 20
-146.5029248745203
 30
0.0
 11
112.3166838050814
 21
-146.8846304299803
 31
0.0
  0
LINE
  5
D4
330
7D
100
AcDbEntity
  8
レイヤー 1
 62
    18
420
        0
370
    25
100
AcDbLine
 10
112.3166838050814
 20
-146.8846304299803
 30
0.0
 11
111.8316143730121
 21
-146.4670826523068
 31
0.0
  0
LINE
  5
D5
330
7D
100
AcDbEntity
  8
レイヤー 1
 62
    18
420
        0
370
    25
100
AcDbLine
 10
111.8316143730121
 20
-146.4670826523068
 30
0.0
 11
111.3176171639031
 21
-146.8491409855444
 31
0.0
  0
LINE
  5
D6
330
7D
100
AcDbEntity
  8
レイヤー 1
 62
    18
420
        0
370
    25
100
AcDbLine
 10
111.3176171639031
 20
-146.8491409855444
 30
0.0
 11
110.8325477318338
 21
-146.4315932078713
 31
0.0
  0
LINE
  5
D7
330
7D
100
AcDbEntity
  8
レイヤー 1
 62
    18
420
        0
370
    25
100
AcDbLine
 10
110.8325477318338
 20
-146.4315932078713
 30
0.0
 11
110.3185505227247
 21
-146.813651541109
 31
0.0
  0
LINE
  5
D8
330
7D
100
AcDbEntity
  8
レイヤー 1
 62
    18
420
        0
370
    25
100
AcDbLine
 10
110.3185505227247
 20
-146.813651541109
 30
0.0
 11
109.8327755351179
 21
-146.395750985658
 31
0.0
  0
LINE
  5
D9
330
7D
100
AcDbEntity
  8
レイヤー 1
 62
    18
420
        0
370
    25
100
AcDbLine
 10
109.8327755351179
 20
-146.395750985658
 30
0.0
 11
109.3187783260088
 21
-146.7778445966736
 31
0.0
  0
LINE
  5
DA
330
7D
100
AcDbEntity
  8
レイヤー 1
 62
    18
420
        0
370
    25
100
AcDbLine
 10
109.3187783260088
 20
-146.7778445966736
 30
0.0
 11
108.8337088939395
 21
-146.3602968190001
 31
0.0
  0
LINE
  5
DB
330
7D
100
AcDbEntity
  8
レイヤー 1
 62
    18
420
        0
370
    25
100
AcDbLine
 10
108.8337088939395
 20
-146.3602968190001
 30
0.0
 11
108.3197116848305
 21
-146.7420023744603
 31
0.0
  0
LINE
  5
DC
330
7D
100
AcDbEntity
  8
レイヤー 1
 62
    18
420
        0
370
    25
100
AcDbLine
 10
108.3197116848305
 20
-146.7420023744603
 30
0.0
 11
107.8339366972236
 21
-146.3244545967868
 31
0.0
  0
LINE
  5
DD
330
7D
100
AcDbEntity
  8
レイヤー 1
 62
    18
420
        0
370
    25
100
AcDbLine
 10
107.8339366972236
 20
-146.3244545967868
 30
0.0
 11
107.3199394881146
 21
-146.7061601522471
 31
0.0
  0
LINE
  5
DE
330
7D
100
AcDbEntity
  8
レイヤー 1
 62
    18
420
        0
370
    25
100
AcDbLine
 10
107.3199394881146
 20
-146.7061601522471
 30
0.0
 11
106.8348700560453
 21
-146.2886123745736
 31
0.0
  0
LINE
  5
DF
330
7D
100
AcDbEntity
  8
レイヤー 1
 62
    18
420
        0
370
    25
100
AcDbLine
 10
106.7894274097793
 20
-146.2403876523634
 30
0.0
 11
105.8206339708095
 21
-146.2403876523634
 31
0.0
  0
LINE
  5
E0
330
7D
100
AcDbEntity
  8
レイヤー 1
 62
    18
420
        0
370
    25
100
AcDbLine
 10
106.8210764452861
 20
-147.5026618187144
 30
0.0
 11
106.8210764452861
 21
-152.5025459841309
 31
0.0
  0
SPLINE
  5
E1
330
7D
100
AcDbEntity
  8
レイヤー 1
 62
    18
420
        0
370
     9
100
AcDbSpline
210
0.0
220
0.0
230
1.0
 70
     9
 71
     3
 72
    17
 73
    13
 74
     0
 42
0.0000000001
 43
0.0000000001
 40
0.0
 40
0.0
 40
0.0
 40
0.0
 40
1.0
 40
1.0
 40
1.0
 40
2.0
 40
2.0
 40
2.0
 40
3.0
 40
3.0
 40
3.0
 40
4.0
 40
4.0
 40
4.0
 40
4.0
 10
79.91937268716161
 20
-142.2406284866968
 30
0.0
 10
79.91937268716161
 20
-142.1851718200438
 30
0.0
 10
79.87456991052685
 20
-142.1403690422774
 30
0.0
 10
79.81946602304377
 20
-142.1403690422774
 30
0.0
 10
79.76432685778383
 20
-142.1403690422774
 30
0.0
 10
79.71956176403832
 20
-142.1851718200438
 30
0.0
 10
79.71956176403832
 20
-142.2406284866968
 30
0.0
 10
79.71956176403832
 20
-142.2957676533499
 30
0.0
 10
79.76432685778383
 20
-142.3405351533385
 30
0.0
 10
79.81946602304377
 20
-142.3405351533385
 30
0.0
 10
79.87456991052685
 20
-142.3405351533385
 30
0.0
 10
79.91937268716161
 20
-142.2957676533499
 30
0.0
 10
79.91937268716161
 20
-142.2406284866968
 30
0.0
  0
CIRCLE
  5
E2
330
7D
100
AcDbEntity
  8
レイヤー 1
 62
    18
420
        0
370
     9
100
AcDbCircle
 10
75.81970695841945
 20
-147.0024582077286
 30
0.0
 40
0.0999066653797766
  0
CIRCLE
  5
E3
330
7D
100
AcDbEntity
  8
レイヤー 1
 62
    18
420
        0
370
     9
100
AcDbCircle
 10
75.81970695841945
 20
-147.5026618187145
 30
0.0
 40
0.0999066653797766
  0
CIRCLE
  5
E4
330
7D
100
AcDbEntity
  8
レイヤー 1
 62
    18
420
        0
370
     9
100
AcDbCircle
 10
75.81970695841945
 20
-152.5025459841313
 30
0.0
 40
0.0999066653795761
  0
SPLINE
  5
E5
330
7D
100
AcDbEntity
  8
レイヤー 1
 62
    18
420
        0
370
     9
100
AcDbSpline
210
0.0
220
0.0
230
1.0
 70
     9
 71
     3
 72
    17
 73
    13
 74
     0
 42
0.0000000001
 43
0.0000000001
 40
0.0
 40
0.0
 40
0.0
 40
0.0
 40
1.0
 40
1.0
 40
1.0
 40
2.0
 40
2.0
 40
2.0
 40
3.0
 40
3.0
 40
3.0
 40
4.0
 40
4.0
 40
4.0
 40
4.0
 10
100.9206565958186
 20
-142.2406284866968
 30
0.0
 10
100.9206565958186
 20
-142.1851718200438
 30
0.0
 10
100.8758890969607
 20
-142.1403690422774
 30
0.0
 10
100.8207499317011
 20
-142.1403690422774
 30
0.0
 10
100.765646044218
 20
-142.1403690422774
 30
0.0
 10
100.720843267583
 20
-142.1851718200438
 30
0.0
 10
100.720843267583
 20
-142.2406284866968
 30
0.0
 10
100.720843267583
 20
-142.2957676533499
 30
0.0
 10
100.765646044218
 20
-142.3405351533385
 30
0.0
 10
100.8207499317011
 20
-142.3405351533385
 30
0.0
 10
100.8758890969607
 20
-142.3405351533385
 30
0.0
 10
100.9206565958186
 20
-142.2957676533499
 30
0.0
 10
100.9206565958186
 20
-142.2406284866968
 30
0.0
  0
SPLINE
  5
E6
330
7D
100
AcDbEntity
  8
レイヤー 1
 62
    18
420
        0
370
     9
100
AcDbSpline
210
0.0
220
0.0
230
1.0
 70
     9
 71
     3
 72
    17
 73
    13
 74
     0
 42
0.0000000001
 43
0.0000000001
 40
0.0
 40
0.0
 40
0.0
 40
0.0
 40
1.0
 40
1.0
 40
1.0
 40
2.0
 40
2.0
 40
2.0
 40
3.0
 40
3.0
 40
3.0
 40
4.0
 40
4.0
 40
4.0
 40
4.0
 10
126.9218245435844
 20
-142.2406284866968
 30
0.0
 10
126.9218245435844
 20
-142.1851718200438
 30
0.0
 10
126.8770570447265
 20
-142.1403690422774
 30
0.0
 10
126.8219178794665
 20
-142.1403690422774
 30
0.0
 10
126.7668139919835
 20
-142.1403690422774
 30
0.0
 10
126.7220112153487
 20
-142.1851718200438
 30
0.0
 10
126.7220112153487
 20
-142.2406284866968
 30
0.0
 10
126.7220112153487
 20
-142.2957676533499
 30
0.0
 10
126.7668139919835
 20
-142.3405351533385
 30
0.0
 10
126.8219178794665
 20
-142.3405351533385
 30
0.0
 10
126.8770570447265
 20
-142.3405351533385
 30
0.0
 10
126.9218245435844
 20
-142.2957676533499
 30
0.0
 10
126.9218245435844
 20
-142.2406284866968
 30
0.0
  0
SPLINE
  5
E7
330
7D
100
AcDbEntity
  8
レイヤー 1
 62
    18
420
        0
370
     9
100
AcDbSpline
210
0.0
220
0.0
230
1.0
 70
     9
 71
     3
 72
    17
 73
    13
 74
     0
 42
0.0000000001
 43
0.0000000001
 40
0.0
 40
0.0
 40
0.0
 40
0.0
 40
1.0
 40
1.0
 40
1.0
 40
2.0
 40
2.0
 40
2.0
 40
3.0
 40
3.0
 40
3.0
 40
4.0
 40
4.0
 40
4.0
 40
4.0
 10
105.9205406349273
 20
-142.2406284866968
 30
0.0
 10
105.9205406349273
 20
-142.1851718200438
 30
0.0
 10
105.8757378582926
 20
-142.1403690422774
 30
0.0
 10
105.8206339708095
 20
-142.1403690422774
 30
0.0
 10
105.7654978686383
 20
-142.1403690422774
 30
0.0
 10
105.7207273066916
 20
-142.1851718200438
 30
0.0
 10
105.7207273066916
 20
-142.2406284866968
 30
0.0
 10
105.7207273066916
 20
-142.2957676533499
 30
0.0
 10
105.7654978686383
 20
-142.3405351533385
 30
0.0
 10
105.8206339708095
 20
-142.3405351533385
 30
0.0
 10
105.8757378582926
 20
-142.3405351533385
 30
0.0
 10
105.9205406349273
 20
-142.2957676533499
 30
0.0
 10
105.9205406349273
 20
-142.2406284866968
 30
0.0
  0
LINE
  5
E8
330
7D
100
AcDbEntity
  8
レイヤー 1
 62
    18
420
        0
370
     9
100
AcDbLine
 10
75.81970695841945
 20
-147.0024582077285
 30
0.0
 11
75.81970695841945
 21
-141.7445523757099
 31
0.0
  0
LINE
  5
E9
330
7D
100
AcDbEntity
  8
レイヤー 1
 62
    18
420
        0
370
     9
100
AcDbLine
 10
75.81970695841945
 20
-147.0024582077285
 30
0.0
 11
75.81970695841945
 21
-147.5026618187144
 31
0.0
  0
LINE
  5
EA
330
7D
100
AcDbEntity
  8
レイヤー 1
 62
    18
420
        0
370
     9
100
AcDbLine
 10
77.2797506535371
 20
-147.0024582077285
 30
0.0
 11
74.81993476170323
 21
-147.0024582077285
 31
0.0
  0
LINE
  5
EB
330
7D
100
AcDbEntity
  8
レイヤー 1
 62
    18
420
        0
370
     9
100
AcDbLine
 10
77.2797506535371
 20
-147.5026618187144
 30
0.0
 11
74.81993476170323
 21
-147.5026618187144
 31
0.0
  0
INSERT
  5
ED
330
7D
100
AcDbEntity
  8
レイヤー 1
100
AcDbBlockReference
  2
Block_2
 10
0.0
 20
0.0
 30
0.0
  0
LINE
  5
FB
330
7D
100
AcDbEntity
  8
レイヤー 1
 62
    18
420
        0
370
     9
100
AcDbLine
 10
79.81946602304377
 20
-142.2406284866968
 30
0.0
 11
100.8207499317011
 21
-142.2406284866968
 31
0.0
  0
LINE
  5
FC
330
7D
100
AcDbEntity
  8
レイヤー 1
 62
    18
420
        0
370
     9
100
AcDbLine
 10
79.81946602304377
 20
-144.4627404305857
 30
0.0
 11
79.81946602304377
 21
-141.2405387647247
 31
0.0
  0
INSERT
  5
FE
330
7D
100
AcDbEntity
  8
レイヤー 1
100
AcDbBlockReference
  2
Block_4
 10
0.0
 20
0.0
 30
0.0
  0
LINE
  5
109
330
7D
100
AcDbEntity
  8
レイヤー 1
 62
    18
420
        0
370
     9
100
AcDbLine
 10
75.81970695841945
 20
-147.5026618187144
 30
0.0
 11
75.81970695841945
 21
-152.5025459841309
 31
0.0
  0
LINE
  5
10A
330
7D
100
AcDbEntity
  8
レイヤー 1
 62
    18
420
        0
370
     9
100
AcDbLine
 10
97.28126002200042
 20
-152.5025459841309
 30
0.0
 11
74.81993476170323
 21
-152.5025459841309
 31
0.0
  0
INSERT
  5
10C
330
7D
100
AcDbEntity
  8
レイヤー 1
100
AcDbBlockReference
  2
Block_6
 10
0.0
 20
0.0
 30
0.0
  0
LINE
  5
111
330
7D
100
AcDbEntity
  8
レイヤー 1
 62
    18
420
        0
370
     9
100
AcDbLine
 10
126.8219178794665
 20
-142.2406284866968
 30
0.0
 11
105.8206339708095
 21
-142.2406284866968
 31
0.0
  0
LINE
  5
112
330
7D
100
AcDbEntity
  8
レイヤー 1
 62
    18
420
        0
370
     9
100
AcDbLine
 10
126.8219178794665
 20
-144.4627404305857
 30
0.0
 11
126.8219178794665
 21
-141.2405387647247
 31
0.0
  0
INSERT
  5
114
330
7D
100
AcDbEntity
  8
レイヤー 1
100
AcDbBlockReference
  2
Block_7
 10
0.0
 20
0.0
 30
0.0
  0
LINE
  5
11F
330
7D
100
AcDbEntity
  8
レイヤー 1
 62
    18
420
        0
370
     9
100
AcDbLine
 10
100.8207499317011
 20
-142.2406284866968
 30
0.0
 11
105.8206339708095
 21
-142.2406284866968
 31
0.0
  0
LINE
  5
120
330
7D
100
AcDbEntity
  8
レイヤー 1
 62
    18
420
        0
370
     9
100
AcDbLine
 10
100.8207499317011
 20
-143.7006698752205
 30
0.0
 11
100.8207499317011
 21
-141.2405387647247
 31
0.0
  0
LINE
  5
121
330
7D
100
AcDbEntity
  8
レイヤー 1
 62
    18
420
        0
370
     9
100
AcDbLine
 10
105.8206339708095
 20
-143.7006698752205
 30
0.0
 11
105.8206339708095
 21
-141.2405387647247
 31
0.0
  0
INSERT
  5
123
330
7D
100
AcDbEntity
  8
レイヤー 1
100
AcDbBlockReference
  2
Block_9
 10
0.0
 20
0.0
 30
0.0
  0
SPLINE
  5
128
330
7D
100
AcDbEntity
  8
レイヤー 1
 62
    18
420
        0
370
     9
100
AcDbSpline
210
0.0
220
0.0
230
1.0
 70
     9
 71
     3
 72
    17
 73
    13
 74
     0
 42
0.0000000001
 43
0.0000000001
 40
0.0
 40
0.0
 40
0.0
 40
0.0
 40
1.0
 40
1.0
 40
1.0
 40
2.0
 40
2.0
 40
2.0
 40
3.0
 40
3.0
 40
3.0
 40
4.0
 40
4.0
 40
4.0
 40
4.0
 10
100.0811160616815
 20
-156.926061816359
 30
0.0
 10
100.0811160616815
 20
-156.8709226497059
 30
0.0
 10
100.0363132850468
 20
-156.8261198719392
 30
0.0
 10
99.98085661979496
 20
-156.8261198719392
 30
0.0
 10
99.92607023230378
 20
-156.8261198719392
 30
0.0
 10
99.88126745566901
 20
-156.8709226497059
 30
0.0
 10
99.88126745566901
 20
-156.926061816359
 30
0.0
 10
99.88126745566901
 20
-156.9811657052339
 30
0.0
 10
99.92607023230378
 20
-157.025968483
 30
0.0
 10
99.98085661979496
 20
-157.025968483
 30
0.0
 10
100.0363132850468
 20
-157.025968483
 30
0.0
 10
100.0811160616815
 20
-156.9811657052339
 30
0.0
 10
100.0811160616815
 20
-156.926061816359
 30
0.0
  0
SPLINE
  5
129
330
7D
100
AcDbEntity
  8
レイヤー 1
 62
    18
420
        0
370
     9
100
AcDbSpline
210
0.0
220
0.0
230
1.0
 70
     9
 71
     3
 72
    17
 73
    13
 74
     0
 42
0.0000000001
 43
0.0000000001
 40
0.0
 40
0.0
 40
0.0
 40
0.0
 40
1.0
 40
1.0
 40
1.0
 40
2.0
 40
2.0
 40
2.0
 40
3.0
 40
3.0
 40
3.0
 40
4.0
 40
4.0
 40
4.0
 40
4.0
 10
107.1645761587449
 20
-156.926061816359
 30
0.0
 10
107.1645761587449
 20
-156.8709226497059
 30
0.0
 10
107.1197733821101
 20
-156.8261198719392
 30
0.0
 10
107.0649869946189
 20
-156.8261198719392
 30
0.0
 10
107.0088247738295
 20
-156.8261198719392
 30
0.0
 10
106.9647275527323
 20
-156.8709226497059
 30
0.0
 10
106.9647275527323
 20
-156.926061816359
 30
0.0
 10
106.9647275527323
 20
-156.9811657052339
 30
0.0
 10
107.0088247738295
 20
-157.025968483
 30
0.0
 10
107.0649869946189
 20
-157.025968483
 30
0.0
 10
107.1197733821101
 20
-157.025968483
 30
0.0
 10
107.1645761587449
 20
-156.9811657052339
 30
0.0
 10
107.1645761587449
 20
-156.926061816359
 30
0.0
  0
LINE
  5
12A
330
7D
100
AcDbEntity
  8
レイヤー 1
 62
    18
420
        0
370
     9
100
AcDbLine
 10
107.0649869946189
 20
-156.926061816359
 30
0.0
 11
99.98085661979496
 21
-156.926061816359
 31
0.0
  0
LINE
  5
12B
330
7D
100
AcDbEntity
  8
レイヤー 1
 62
    18
420
        0
370
     9
100
AcDbLine
 10
107.0649869946189
 20
-155.4660204278347
 30
0.0
 11
107.0649869946189
 21
-157.9261515383305
 31
0.0
  0
LINE
  5
12C
330
7D
100
AcDbEntity
  8
レイヤー 1
 62
    18
420
        0
370
     9
100
AcDbLine
 10
99.98085661979496
 20
-155.4660204278347
 30
0.0
 11
99.98085661979496
 21
-157.9261515383305
 31
0.0
  0
INSERT
  5
12E
330
7D
100
AcDbEntity
  8
レイヤー 1
100
AcDbBlockReference
  2
Block_10
 10
0.0
 20
0.0
 30
0.0
  0
LINE
  5
133
330
7D
100
AcDbEntity
  8
レイヤー 1
 62
    18
420
        0
370
     9
100
AcDbLine
 10
103.7625284677609
 20
-150.5012729290758
 30
0.0
 11
111.7627200893612
 21
-150.5012729290758
 31
0.0
  0
INSERT
  5
135
330
7D
100
AcDbEntity
  8
レイヤー 1
100
AcDbBlockReference
  2
Block_11
 10
0.0
 20
0.0
 30
0.0
  0
ENDBLK
  5
80
330
7D
100
AcDbEntity
  8
0
100
AcDbBlockEnd
  0
BLOCK
  5
EE
330
EC
100
AcDbEntity
  8
0
100
AcDbBlockBegin
  2
Block_2
 70
     0
 10
0.0
 20
0.0
 30
0.0
  3
Block_2
  1

  0
INSERT
  5
F1
330
EC
100
AcDbEntity
  8
レイヤー 1
100
AcDbBlockReference
  2
Block_3
 10
0.0
 20
0.0
 30
0.0
  0
ENDBLK
  5
EF
330
EC
100
AcDbEntity
  8
0
100
AcDbBlockEnd
  0
BLOCK
  5
F2
330
F0
100
AcDbEntity
  8
0
100
AcDbBlockBegin
  2
Block_3
 70
     0
 10
0.0
 20
0.0
 30
0.0
  3
Block_3
  1

  0
SPLINE
  5
F4
330
F0
100
AcDbEntity
  8
レイヤー 1
100
AcDbSpline
210
0.0
220
0.0
230
1.0
 70
     9
 71
     3
 72
    17
 73
    13
 74
     0
 42
0.0000000001
 43
0.0000000001
 40
0.0
 40
0.0
 40
0.0
 40
0.0
 40
1.0
 40
1.0
 40
1.0
 40
2.0
 40
2.0
 40
2.0
 40
3.0
 40
3.0
 40
3.0
 40
4.0
 40
4.0
 40
4.0
 40
4.0
 10
72.97539060675615
 20
-148.1578816361376
 30
0.0
 10
72.97539060675615
 20
-148.4076510588182
 30
0.0
 10
73.25874971041796
 20
-148.4541598478691
 30
0.0
 10
73.60360376849147
 20
-148.4541598478691
 30
0.0
 10
73.92313637474838
 20
-148.4541598478691
 30
0.0
 10
74.23198918500104
 20
-148.417986345274
 30
0.0
 10
74.23198918500104
 20
-148.1578816361376
 30
0.0
 10
74.23198918500104
 20
-147.9101792707481
 30
0.0
 10
73.95052488385612
 20
-147.8616034244061
 30
0.0
 10
73.60360376849147
 20
-147.8616034244061
 30
0.0
 10
73.2842434170088
 20
-147.8616034244061
 30
0.0
 10
72.97539060675615
 20
-147.8998439842924
 30
0.0
 10
72.97539060675615
 20
-148.1578816361376
 30
0.0
  0
SPLINE
  5
F5
330
F0
100
AcDbEntity
  8
レイヤー 1
100
AcDbSpline
210
0.0
220
0.0
230
1.0
 70
     9
 71
     3
 72
    29
 73
    25
 74
     0
 42
0.0000000001
 43
0.0000000001
 40
0.0
 40
0.0
 40
0.0
 40
0.0
 40
1.0
 40
1.0
 40
1.0
 40
2.0
 40
2.0
 40
2.0
 40
3.0
 40
3.0
 40
3.0
 40
4.0
 40
4.0
 40
4.0
 40
5.0
 40
5.0
 40
5.0
 40
6.0
 40
6.0
 40
6.0
 40
7.0
 40
7.0
 40
7.0
 40
8.0
 40
8.0
 40
8.0
 40
8.0
 10
74.19805499447132
 20
-147.7599731075912
 30
0.0
 10
74.40751679997451
 20
-147.8681491058281
 30
0.0
 10
74.42663707991766
 20
-148.0414374087362
 30
0.0
 10
74.42663707991766
 20
-148.1578816361376
 30
0.0
 10
74.42663707991766
 20
-148.3187675952988
 30
0.0
 10
74.38012829086678
 20
-148.4603610197425
 30
0.0
 10
74.19805499447132
 20
-148.5554456551354
 30
0.0
 10
74.00357935432896
 20
-148.6591430292414
 30
0.0
 10
73.76655678494379
 20
-148.6784355639588
 30
0.0
 10
73.60360376849147
 20
-148.6784355639588
 30
0.0
 10
73.45977103198229
 20
-148.6784355639588
 30
0.0
 10
73.20810680678478
 20
-148.6612100865326
 30
0.0
 10
73.0091525425116
 20
-148.5554456551354
 30
0.0
 10
72.80606416365613
 20
-148.4476141664471
 30
0.0
 10
72.7828097691307
 20
-148.2867282072859
 30
0.0
 10
72.7828097691307
 20
-148.1578816361376
 30
0.0
 10
72.7828097691307
 20
-147.9990627342676
 30
0.0
 10
72.82725150089041
 20
-147.8554022525327
 30
0.0
 10
73.0091525425116
 20
-147.7599731075912
 30
0.0
 10
73.20173338013707
 20
-147.660754357616
 30
0.0
 10
73.43014321080914
 20
-147.6373277083164
 30
0.0
 10
73.60360376849147
 20
-147.6373277083164
 30
0.0
 10
73.77499726888264
 20
-147.6373277083164
 30
0.0
 10
74.00564641162012
 20
-147.6586873003249
 30
0.0
 10
74.19805499447132
 20
-147.7599731075912
 30
0.0
  0
HATCH
  5
F6
330
F0
100
AcDbEntity
  8
レイヤー 1
 62
    18
420
        0
440
 33554687
100
AcDbHatch
 10
0.0
 20
0.0
 30
0.0
210
0.0
220
0.0
230
1.0
  2
SOLID
 70
     1
 71
     1
 91
        2
 92
        1
 93
        1
 72
     4
 94
        3
 73
     0
 74
     0
 95
       17
 96
       13
 40
0.0
 40
0.0
 40
0.0
 40
0.0
 40
1.0
 40
1.0
 40
1.0
 40
2.0
 40
2.0
 40
2.0
 40
3.0
 40
3.0
 40
3.0
 40
4.0
 40
4.0
 40
4.0
 40
4.0
 10
72.97539060675615
 20
-148.1578816361376
 10
72.97539060675615
 20
-148.4076510588182
 10
73.25874971041796
 20
-148.4541598478691
 10
73.60360376849147
 20
-148.4541598478691
 10
73.92313637474838
 20
-148.4541598478691
 10
74.23198918500104
 20
-148.417986345274
 10
74.23198918500104
 20
-148.1578816361376
 10
74.23198918500104
 20
-147.9101792707481
 10
73.95052488385612
 20
-147.8616034244061
 10
73.60360376849147
 20
-147.8616034244061
 10
73.2842434170088
 20
-147.8616034244061
 10
72.97539060675615
 20
-147.8998439842924
 10
72.97539060675615
 20
-148.1578816361376
 97
        0
 97
        1
330
F4
 92
        1
 93
        1
 72
     4
 94
        3
 73
     0
 74
     0
 95
       29
 96
       25
 40
0.0
 40
0.0
 40
0.0
 40
0.0
 40
1.0
 40
1.0
 40
1.0
 40
2.0
 40
2.0
 40
2.0
 40
3.0
 40
3.0
 40
3.0
 40
4.0
 40
4.0
 40
4.0
 40
5.0
 40
5.0
 40
5.0
 40
6.0
 40
6.0
 40
6.0
 40
7.0
 40
7.0
 40
7.0
 40
8.0
 40
8.0
 40
8.0
 40
8.0
 10
74.19805499447132
 20
-147.7599731075912
 10
74.40751679997451
 20
-147.8681491058281
 10
74.42663707991766
 20
-148.0414374087362
 10
74.42663707991766
 20
-148.1578816361376
 10
74.42663707991766
 20
-148.3187675952988
 10
74.38012829086678
 20
-148.4603610197425
 10
74.19805499447132
 20
-148.5554456551354
 10
74.00357935432896
 20
-148.6591430292414
 10
73.76655678494379
 20
-148.6784355639588
 10
73.60360376849147
 20
-148.6784355639588
 10
73.45977103198229
 20
-148.6784355639588
 10
73.20810680678478
 20
-148.6612100865326
 10
73.0091525425116
 20
-148.5554456551354
 10
72.80606416365613
 20
-148.4476141664471
 10
72.7828097691307
 20
-148.2867282072859
 10
72.7828097691307
 20
-148.1578816361376
 10
72.7828097691307
 20
-147.9990627342676
 10
72.82725150089041
 20
-147.8554022525327
 10
73.0091525425116
 20
-147.7599731075912
 10
73.20173338013707
 20
-147.660754357616
 10
73.43014321080914
 20
-147.6373277083164
 10
73.60360376849147
 20
-147.6373277083164
 10
73.77499726888264
 20
-147.6373277083164
 10
74.00564641162012
 20
-147.6586873003249
 10
74.19805499447132
 20
-147.7599731075912
 97
        0
 97
        1
330
F5
 75
     2
 76
     1
 98
        1
 10
0.0
 20
0.0
450
        0
451
        0
460
0.0
461
0.0
452
        0
462
0.0
453
        0
470

  0
SPLINE
  5
F7
330
F0
100
AcDbEntity
  8
レイヤー 1
100
AcDbSpline
210
0.0
220
0.0
230
1.0
 70
    11
 71
     3
 72
    17
 73
    13
 74
     0
 42
0.0000000001
 43
0.0000000001
 40
0.0
 40
0.0
 40
0.0
 40
0.0
 40
1.0
 40
1.0
 40
1.0
 40
2.0
 40
2.0
 40
2.0
 40
3.0
 40
3.0
 40
3.0
 40
4.0
 40
4.0
 40
4.0
 40
4.0
 10
74.37582192151021
 20
-147.4209757118427
 30
0.0
 10
74.37582192151021
 20
-147.4209757118427
 30
0.0
 10
74.1241576963127
 20
-147.4209757118427
 30
0.0
 10
74.1241576963127
 20
-147.4209757118427
 30
0.0
 10
74.1241576963127
 20
-147.4209757118427
 30
0.0
 10
74.1241576963127
 20
-147.1691392318709
 30
0.0
 10
74.1241576963127
 20
-147.1691392318709
 30
0.0
 10
74.1241576963127
 20
-147.1691392318709
 30
0.0
 10
74.37582192151021
 20
-147.1691392318709
 30
0.0
 10
74.37582192151021
 20
-147.1691392318709
 30
0.0
 10
74.37582192151021
 20
-147.1691392318709
 30
0.0
 10
74.37582192151021
 20
-147.4209757118427
 30
0.0
 10
74.37582192151021
 20
-147.4209757118427
 30
0.0
  0
HATCH
  5
F8
330
F0
100
AcDbEntity
  8
レイヤー 1
 62
    18
420
        0
440
 33554687
100
AcDbHatch
 10
0.0
 20
0.0
 30
0.0
210
0.0
220
0.0
230
1.0
  2
SOLID
 70
     1
 71
     1
 91
        1
 92
        1
 93
        1
 72
     4
 94
        3
 73
     0
 74
     0
 95
       17
 96
       13
 40
0.0
 40
0.0
 40
0.0
 40
0.0
 40
1.0
 40
1.0
 40
1.0
 40
2.0
 40
2.0
 40
2.0
 40
3.0
 40
3.0
 40
3.0
 40
4.0
 40
4.0
 40
4.0
 40
4.0
 10
74.37582192151021
 20
-147.4209757118427
 10
74.37582192151021
 20
-147.4209757118427
 10
74.1241576963127
 20
-147.4209757118427
 10
74.1241576963127
 20
-147.4209757118427
 10
74.1241576963127
 20
-147.4209757118427
 10
74.1241576963127
 20
-147.1691392318709
 10
74.1241576963127
 20
-147.1691392318709
 10
74.1241576963127
 20
-147.1691392318709
 10
74.37582192151021
 20
-147.1691392318709
 10
74.37582192151021
 20
-147.1691392318709
 10
74.37582192151021
 20
-147.1691392318709
 10
74.37582192151021
 20
-147.4209757118427
 10
74.37582192151021
 20
-147.4209757118427
 97
        0
 97
        1
330
F7
 75
     2
 76
     1
 98
        1
 10
0.0
 20
0.0
450
        0
451
        0
460
0.0
461
0.0
452
        0
462
0.0
453
        0
470

  0
SPLINE
  5
F9
330
F0
100
AcDbEntity
  8
レイヤー 1
100
AcDbSpline
210
0.0
220
0.0
230
1.0
 70
     9
 71
     3
 72
    53
 73
    49
 74
     0
 42
0.0000000001
 43
0.0000000001
 40
0.0
 40
0.0
 40
0.0
 40
0.0
 40
1.0
 40
1.0
 40
1.0
 40
2.0
 40
2.0
 40
2.0
 40
3.0
 40
3.0
 40
3.0
 40
4.0
 40
4.0
 40
4.0
 40
5.0
 40
5.0
 40
5.0
 40
6.0
 40
6.0
 40
6.0
 40
7.0
 40
7.0
 40
7.0
 40
8.0
 40
8.0
 40
8.0
 40
9.0
 40
9.0
 40
9.0
 40
10.0
 40
10.0
 40
10.0
 40
11.0
 40
11.0
 40
11.0
 40
12.0
 40
12.0
 40
12.0
 40
13.0
 40
13.0
 40
13.0
 40
14.0
 40
14.0
 40
14.0
 40
15.0
 40
15.0
 40
15.0
 40
16.0
 40
16.0
 40
16.0
 40
16.0
 10
74.42663707991766
 20
-146.4518703518419
 30
0.0
 10
74.42663707991766
 20
-146.530074019357
 30
0.0
 10
74.40975611203993
 20
-146.6317043361719
 30
0.0
 10
74.34619410033707
 20
-146.7333346529868
 30
0.0
 10
74.23612329958334
 20
-146.9066229558948
 30
0.0
 10
74.10503741636958
 20
-146.9279825479034
 30
0.0
 10
73.99720592768126
 20
-146.9469305730723
 30
0.0
 10
73.99720592768126
 20
-146.9469305730723
 30
0.0
 10
73.99720592768126
 20
-146.7247219142737
 30
0.0
 10
73.99720592768126
 20
-146.7247219142737
 30
0.0
 10
74.19598793718018
 20
-146.6699448960582
 30
0.0
 10
74.22561575835333
 20
-146.5428208726525
 30
0.0
 10
74.22561575835333
 20
-146.4498032945507
 30
0.0
 10
74.22561575835333
 20
-146.3102769273981
 30
0.0
 10
74.12622475360386
 20
-146.1580037069501
 30
0.0
 10
73.89350855357523
 20
-146.1580037069501
 30
0.0
 10
73.63753795902117
 20
-146.1580037069501
 30
0.0
 10
73.56777477544486
 20
-146.3378376912801
 30
0.0
 10
73.56777477544486
 20
-146.4584160332639
 30
0.0
 10
73.56777477544486
 20
-146.4901109117282
 30
0.0
 10
73.56777477544486
 20
-146.6317043361719
 30
0.0
 10
73.69679360136747
 20
-146.7205877996914
 30
0.0
 10
73.69679360136747
 20
-146.7205877996914
 30
0.0
 10
73.67767332142434
 20
-146.8962876694391
 30
0.0
 10
73.67767332142434
 20
-146.8962876694391
 30
0.0
 10
73.67767332142434
 20
-146.8962876694391
 30
0.0
 10
72.83155787024696
 20
-146.7757093274554
 30
0.0
 10
72.83155787024696
 20
-146.7757093274554
 30
0.0
 10
72.83155787024696
 20
-146.7757093274554
 30
0.0
 10
72.83155787024696
 20
-145.9971177477889
 30
0.0
 10
72.83155787024696
 20
-145.9971177477889
 30
0.0
 10
72.83155787024696
 20
-145.9971177477889
 30
0.0
 10
73.0262057651636
 20
-145.9971177477889
 30
0.0
 10
73.0262057651636
 20
-145.9971177477889
 30
0.0
 10
73.0262057651636
 20
-145.9971177477889
 30
0.0
 10
73.0262057651636
 20
-146.612756311003
 30
0.0
 10
73.0262057651636
 20
-146.612756311003
 30
0.0
 10
73.0262057651636
 20
-146.612756311003
 30
0.0
 10
73.44926349075227
 20
-146.6782131252228
 30
0.0
 10
73.44926349075227
 20
-146.6782131252228
 30
0.0
 10
73.41532930022257
 20
-146.6168904255853
 30
0.0
 10
73.3751939378194
 20
-146.5345526434879
 30
0.0
 10
73.3751939378194
 20
-146.4160413587953
 30
0.0
 10
73.3751939378194
 20
-146.1621378215324
 30
0.0
 10
73.56140134879715
 20
-145.9251152521472
 30
0.0
 10
73.87438827363211
 20
-145.9251152521472
 30
0.0
 10
74.19185382259787
 20
-145.9251152521472
 30
0.0
 10
74.42663707991766
 20
-146.1493909682369
 30
0.0
 10
74.42663707991766
 20
-146.4518703518419
 30
0.0
  0
HATCH
  5
FA
330
F0
100
AcDbEntity
  8
レイヤー 1
 62
    18
420
        0
440
 33554687
100
AcDbHatch
 10
0.0
 20
0.0
 30
0.0
210
0.0
220
0.0
230
1.0
  2
SOLID
 70
     1
 71
     1
 91
        1
 92
        1
 93
        1
 72
     4
 94
        3
 73
     0
 74
     0
 95
       53
 96
       49
 40
0.0
 40
0.0
 40
0.0
 40
0.0
 40
1.0
 40
1.0
 40
1.0
 40
2.0
 40
2.0
 40
2.0
 40
3.0
 40
3.0
 40
3.0
 40
4.0
 40
4.0
 40
4.0
 40
5.0
 40
5.0
 40
5.0
 40
6.0
 40
6.0
 40
6.0
 40
7.0
 40
7.0
 40
7.0
 40
8.0
 40
8.0
 40
8.0
 40
9.0
 40
9.0
 40
9.0
 40
10.0
 40
10.0
 40
10.0
 40
11.0
 40
11.0
 40
11.0
 40
12.0
 40
12.0
 40
12.0
 40
13.0
 40
13.0
 40
13.0
 40
14.0
 40
14.0
 40
14.0
 40
15.0
 40
15.0
 40
15.0
 40
16.0
 40
16.0
 40
16.0
 40
16.0
 10
74.42663707991766
 20
-146.4518703518419
 10
74.42663707991766
 20
-146.530074019357
 10
74.40975611203993
 20
-146.6317043361719
 10
74.34619410033707
 20
-146.7333346529868
 10
74.23612329958334
 20
-146.9066229558948
 10
74.10503741636958
 20
-146.9279825479034
 10
73.99720592768126
 20
-146.9469305730723
 10
73.99720592768126
 20
-146.9469305730723
 10
73.99720592768126
 20
-146.7247219142737
 10
73.99720592768126
 20
-146.7247219142737
 10
74.19598793718018
 20
-146.6699448960582
 10
74.22561575835333
 20
-146.5428208726525
 10
74.22561575835333
 20
-146.4498032945507
 10
74.22561575835333
 20
-146.3102769273981
 10
74.12622475360386
 20
-146.1580037069501
 10
73.89350855357523
 20
-146.1580037069501
 10
73.63753795902117
 20
-146.1580037069501
 10
73.56777477544486
 20
-146.3378376912801
 10
73.56777477544486
 20
-146.4584160332639
 10
73.56777477544486
 20
-146.4901109117282
 10
73.56777477544486
 20
-146.6317043361719
 10
73.69679360136747
 20
-146.7205877996914
 10
73.69679360136747
 20
-146.7205877996914
 10
73.67767332142434
 20
-146.8962876694391
 10
73.67767332142434
 20
-146.8962876694391
 10
73.67767332142434
 20
-146.8962876694391
 10
72.83155787024696
 20
-146.7757093274554
 10
72.83155787024696
 20
-146.7757093274554
 10
72.83155787024696
 20
-146.7757093274554
 10
72.83155787024696
 20
-145.9971177477889
 10
72.83155787024696
 20
-145.9971177477889
 10
72.83155787024696
 20
-145.9971177477889
 10
73.0262057651636
 20
-145.9971177477889
 10
73.0262057651636
 20
-145.9971177477889
 10
73.0262057651636
 20
-145.9971177477889
 10
73.0262057651636
 20
-146.612756311003
 10
73.0262057651636
 20
-146.612756311003
 10
73.0262057651636
 20
-146.612756311003
 10
73.44926349075227
 20
-146.6782131252228
 10
73.44926349075227
 20
-146.6782131252228
 10
73.41532930022257
 20
-146.6168904255853
 10
73.3751939378194
 20
-146.5345526434879
 10
73.3751939378194
 20
-146.4160413587953
 10
73.3751939378194
 20
-146.1621378215324
 10
73.56140134879715
 20
-145.9251152521472
 10
73.87438827363211
 20
-145.9251152521472
 10
74.19185382259787
 20
-145.9251152521472
 10
74.42663707991766
 20
-146.1493909682369
 10
74.42663707991766
 20
-146.4518703518419
 97
        0
 97
        1
330
F9
 75
     2
 76
     1
 98
        1
 10
0.0
 20
0.0
450
        0
451
        0
460
0.0
461
0.0
452
        0
462
0.0
453
        0
470

  0
ENDBLK
  5
F3
330
F0
100
AcDbEntity
  8
0
100
AcDbBlockEnd
  0
BLOCK
  5
FF
330
FD
100
AcDbEntity
  8
0
100
AcDbBlockBegin
  2
Block_4
 70
     0
 10
0.0
 20
0.0
 30
0.0
  3
Block_4
  1

  0
INSERT
  5
102
330
FD
100
AcDbEntity
  8
レイヤー 1
100
AcDbBlockReference
  2
Block_5
 10
0.0
 20
0.0
 30
0.0
  0
ENDBLK
  5
100
330
FD
100
AcDbEntity
  8
0
100
AcDbBlockEnd
  0
BLOCK
  5
103
330
101
100
AcDbEntity
  8
0
100
AcDbBlockBegin
  2
Block_5
 70
     0
 10
0.0
 20
0.0
 30
0.0
  3
Block_5
  1

  0
SPLINE
  5
105
330
101
100
AcDbEntity
  8
レイヤー 1
100
AcDbSpline
210
0.0
220
0.0
230
1.0
 70
     9
 71
     3
 72
    44
 73
    40
 74
     0
 42
0.0000000001
 43
0.0000000001
 40
0.0
 40
0.0
 40
0.0
 40
0.0
 40
1.0
 40
1.0
 40
1.0
 40
2.0
 40
2.0
 40
2.0
 40
3.0
 40
3.0
 40
3.0
 40
4.0
 40
4.0
 40
4.0
 40
5.0
 40
5.0
 40
5.0
 40
6.0
 40
6.0
 40
6.0
 40
7.0
 40
7.0
 40
7.0
 40
8.0
 40
8.0
 40
8.0
 40
9.0
 40
9.0
 40
9.0
 40
10.0
 40
10.0
 40
10.0
 40
11.0
 40
11.0
 40
11.0
 40
12.0
 40
12.0
 40
12.0
 40
13.0
 40
13.0
 40
13.0
 40
13.0
 10
89.74904376011483
 20
-140.9455742377671
 30
0.0
 10
89.53114147067278
 20
-141.1042208848628
 30
0.0
 10
89.43795163779677
 20
-141.1782904377957
 30
0.0
 10
89.38937579145473
 20
-141.3221231743049
 30
0.0
 10
89.38937579145473
 20
-141.3221231743049
 30
0.0
 10
90.16779511634693
 20
-141.3221231743049
 30
0.0
 10
90.16779511634693
 20
-141.3221231743049
 30
0.0
 10
90.16779511634693
 20
-141.3221231743049
 30
0.0
 10
90.16779511634693
 20
-141.5272786104515
 30
0.0
 10
90.16779511634693
 20
-141.5272786104515
 30
0.0
 10
90.16779511634693
 20
-141.5272786104515
 30
0.0
 10
89.13977862354839
 20
-141.5272786104515
 30
0.0
 10
89.13977862354839
 20
-141.5272786104515
 30
0.0
 10
89.17147350201268
 20
-141.1696776990826
 30
0.0
 10
89.23693031623242
 20
-141.0914740315674
 30
0.0
 10
89.62209199148338
 20
-140.7931287625447
 30
0.0
 10
89.87806258603743
 20
-140.5943467530458
 30
0.0
 10
89.94351940025717
 20
-140.5266506267607
 30
0.0
 10
89.94351940025717
 20
-140.3891913168992
 30
0.0
 10
89.94351940025717
 20
-140.2706800322066
 30
0.0
 10
89.87168915938971
 20
-140.1394218942186
 30
0.0
 10
89.67497420718196
 20
-140.1394218942186
 30
0.0
 10
89.41469724327133
 20
-140.1394218942186
 30
0.0
 10
89.40625675933246
 20
-140.3700710369561
 30
0.0
 10
89.40195038997591
 20
-140.4865152643575
 30
0.0
 10
89.40195038997591
 20
-140.4865152643575
 30
0.0
 10
89.17784692866041
 20
-140.4865152643575
 30
0.0
 10
89.17784692866041
 20
-140.4865152643575
 30
0.0
 10
89.18628741259928
 20
-140.3595634957261
 30
0.0
 10
89.19679495382927
 20
-140.2474256376812
 30
0.0
 10
89.27723793340986
 20
-140.1289143529886
 30
0.0
 10
89.38713647938932
 20
-139.9682006486017
 30
0.0
 10
89.57334389036708
 20
-139.934266458072
 30
0.0
 10
89.68978811776853
 20
-139.934266458072
 30
0.0
 10
89.96694604955688
 20
-139.934266458072
 30
0.0
 10
90.17416854299465
 20
-140.1184068117586
 30
0.0
 10
90.17416854299465
 20
-140.3912583741904
 30
0.0
 10
90.17416854299465
 20
-140.6196682048624
 30
0.0
 10
90.05789657036748
 20
-140.7192314643862
 30
0.0
 10
89.74904376011483
 20
-140.9455742377671
 30
0.0
  0
HATCH
  5
106
330
101
100
AcDbEntity
  8
レイヤー 1
 62
    18
420
        0
440
 33554687
100
AcDbHatch
 10
0.0
 20
0.0
 30
0.0
210
0.0
220
0.0
230
1.0
  2
SOLID
 70
     1
 71
     1
 91
        1
 92
        1
 93
        1
 72
     4
 94
        3
 73
     0
 74
     0
 95
       44
 96
       40
 40
0.0
 40
0.0
 40
0.0
 40
0.0
 40
1.0
 40
1.0
 40
1.0
 40
2.0
 40
2.0
 40
2.0
 40
3.0
 40
3.0
 40
3.0
 40
4.0
 40
4.0
 40
4.0
 40
5.0
 40
5.0
 40
5.0
 40
6.0
 40
6.0
 40
6.0
 40
7.0
 40
7.0
 40
7.0
 40
8.0
 40
8.0
 40
8.0
 40
9.0
 40
9.0
 40
9.0
 40
10.0
 40
10.0
 40
10.0
 40
11.0
 40
11.0
 40
11.0
 40
12.0
 40
12.0
 40
12.0
 40
13.0
 40
13.0
 40
13.0
 40
13.0
 10
89.74904376011483
 20
-140.9455742377671
 10
89.53114147067278
 20
-141.1042208848628
 10
89.43795163779677
 20
-141.1782904377957
 10
89.38937579145473
 20
-141.3221231743049
 10
89.38937579145473
 20
-141.3221231743049
 10
90.16779511634693
 20
-141.3221231743049
 10
90.16779511634693
 20
-141.3221231743049
 10
90.16779511634693
 20
-141.3221231743049
 10
90.16779511634693
 20
-141.5272786104515
 10
90.16779511634693
 20
-141.5272786104515
 10
90.16779511634693
 20
-141.5272786104515
 10
89.13977862354839
 20
-141.5272786104515
 10
89.13977862354839
 20
-141.5272786104515
 10
89.17147350201268
 20
-141.1696776990826
 10
89.23693031623242
 20
-141.0914740315674
 10
89.62209199148338
 20
-140.7931287625447
 10
89.87806258603743
 20
-140.5943467530458
 10
89.94351940025717
 20
-140.5266506267607
 10
89.94351940025717
 20
-140.3891913168992
 10
89.94351940025717
 20
-140.2706800322066
 10
89.87168915938971
 20
-140.1394218942186
 10
89.67497420718196
 20
-140.1394218942186
 10
89.41469724327133
 20
-140.1394218942186
 10
89.40625675933246
 20
-140.3700710369561
 10
89.40195038997591
 20
-140.4865152643575
 10
89.40195038997591
 20
-140.4865152643575
 10
89.17784692866041
 20
-140.4865152643575
 10
89.17784692866041
 20
-140.4865152643575
 10
89.18628741259928
 20
-140.3595634957261
 10
89.19679495382927
 20
-140.2474256376812
 10
89.27723793340986
 20
-140.1289143529886
 10
89.38713647938932
 20
-139.9682006486017
 10
89.57334389036708
 20
-139.934266458072
 10
89.68978811776853
 20
-139.934266458072
 10
89.96694604955688
 20
-139.934266458072
 10
90.17416854299465
 20
-140.1184068117586
 10
90.17416854299465
 20
-140.3912583741904
 10
90.17416854299465
 20
-140.6196682048624
 10
90.05789657036748
 20
-140.7192314643862
 10
89.74904376011483
 20
-140.9455742377671
 97
        0
 97
        1
330
105
 75
     2
 76
     1
 98
        1
 10
0.0
 20
0.0
450
        0
451
        0
460
0.0
461
0.0
452
        0
462
0.0
453
        0
470

  0
SPLINE
  5
107
330
101
100
AcDbEntity
  8
レイヤー 1
100
AcDbSpline
210
0.0
220
0.0
230
1.0
 70
    11
 71
     3
 72
    26
 73
    22
 74
     0
 42
0.0000000001
 43
0.0000000001
 40
0.0
 40
0.0
 40
0.0
 40
0.0
 40
1.0
 40
1.0
 40
1.0
 40
2.0
 40
2.0
 40
2.0
 40
3.0
 40
3.0
 40
3.0
 40
4.0
 40
4.0
 40
4.0
 40
5.0
 40
5.0
 40
5.0
 40
6.0
 40
6.0
 40
6.0
 40
7.0
 40
7.0
 40
7.0
 40
7.0
 10
90.78412269865813
 20
-141.5272786104515
 30
0.0
 10
90.78412269865813
 20
-141.5272786104515
 30
0.0
 10
90.78412269865813
 20
-140.4229532526547
 30
0.0
 10
90.78412269865813
 20
-140.4229532526547
 30
0.0
 10
90.78412269865813
 20
-140.4229532526547
 30
0.0
 10
90.45408255117122
 20
-140.4229532526547
 30
0.0
 10
90.45408255117122
 20
-140.4229532526547
 30
0.0
 10
90.45408255117122
 20
-140.4229532526547
 30
0.0
 10
90.45408255117122
 20
-140.2748141467889
 30
0.0
 10
90.45408255117122
 20
-140.2748141467889
 30
0.0
 10
90.78618975594929
 20
-140.2601724909766
 30
0.0
 10
90.83269854500015
 20
-140.0972194745243
 30
0.0
 10
90.8623263661733
 20
-139.9830145591883
 30
0.0
 10
90.8623263661733
 20
-139.9830145591883
 30
0.0
 10
91.0083984147479
 20
-139.9830145591883
 30
0.0
 10
91.0083984147479
 20
-139.9830145591883
 30
0.0
 10
91.0083984147479
 20
-139.9830145591883
 30
0.0
 10
91.0083984147479
 20
-141.5272786104515
 30
0.0
 10
91.0083984147479
 20
-141.5272786104515
 30
0.0
 10
91.0083984147479
 20
-141.5272786104515
 30
0.0
 10
90.78412269865813
 20
-141.5272786104515
 30
0.0
 10
90.78412269865813
 20
-141.5272786104515
 30
0.0
  0
HATCH
  5
108
330
101
100
AcDbEntity
  8
レイヤー 1
 62
    18
420
        0
440
 33554687
100
AcDbHatch
 10
0.0
 20
0.0
 30
0.0
210
0.0
220
0.0
230
1.0
  2
SOLID
 70
     1
 71
     1
 91
        1
 92
        1
 93
        1
 72
     4
 94
        3
 73
     0
 74
     0
 95
       26
 96
       22
 40
0.0
 40
0.0
 40
0.0
 40
0.0
 40
1.0
 40
1.0
 40
1.0
 40
2.0
 40
2.0
 40
2.0
 40
3.0
 40
3.0
 40
3.0
 40
4.0
 40
4.0
 40
4.0
 40
5.0
 40
5.0
 40
5.0
 40
6.0
 40
6.0
 40
6.0
 40
7.0
 40
7.0
 40
7.0
 40
7.0
 10
90.78412269865813
 20
-141.5272786104515
 10
90.78412269865813
 20
-141.5272786104515
 10
90.78412269865813
 20
-140.4229532526547
 10
90.78412269865813
 20
-140.4229532526547
 10
90.78412269865813
 20
-140.4229532526547
 10
90.45408255117122
 20
-140.4229532526547
 10
90.45408255117122
 20
-140.4229532526547
 10
90.45408255117122
 20
-140.4229532526547
 10
90.45408255117122
 20
-140.2748141467889
 10
90.45408255117122
 20
-140.2748141467889
 10
90.78618975594929
 20
-140.2601724909766
 10
90.83269854500015
 20
-140.0972194745243
 10
90.8623263661733
 20
-139.9830145591883
 10
90.8623263661733
 20
-139.9830145591883
 10
91.0083984147479
 20
-139.9830145591883
 10
91.0083984147479
 20
-139.9830145591883
 10
91.0083984147479
 20
-139.9830145591883
 10
91.0083984147479
 20
-141.5272786104515
 10
91.0083984147479
 20
-141.5272786104515
 10
91.0083984147479
 20
-141.5272786104515
 10
90.78412269865813
 20
-141.5272786104515
 10
90.78412269865813
 20
-141.5272786104515
 97
        0
 97
        1
330
107
 75
     2
 76
     1
 98
        1
 10
0.0
 20
0.0
450
        0
451
        0
460
0.0
461
0.0
452
        0
462
0.0
453
        0
470

  0
ENDBLK
  5
104
330
101
100
AcDbEntity
  8
0
100
AcDbBlockEnd
  0
BLOCK
  5
10D
330
10B
100
AcDbEntity
  8
0
100
AcDbBlockBegin
  2
Block_6
 70
     0
 10
0.0
 20
0.0
 30
0.0
  3
Block_6
  1

  0
SPLINE
  5
10F
330
10B
100
AcDbEntity
  8
レイヤー 1
100
AcDbSpline
210
0.0
220
0.0
230
1.0
 70
     9
 71
     3
 72
    53
 73
    49
 74
     0
 42
0.0000000001
 43
0.0000000001
 40
0.0
 40
0.0
 40
0.0
 40
0.0
 40
1.0
 40
1.0
 40
1.0
 40
2.0
 40
2.0
 40
2.0
 40
3.0
 40
3.0
 40
3.0
 40
4.0
 40
4.0
 40
4.0
 40
5.0
 40
5.0
 40
5.0
 40
6.0
 40
6.0
 40
6.0
 40
7.0
 40
7.0
 40
7.0
 40
8.0
 40
8.0
 40
8.0
 40
9.0
 40
9.0
 40
9.0
 40
10.0
 40
10.0
 40
10.0
 40
11.0
 40
11.0
 40
11.0
 40
12.0
 40
12.0
 40
12.0
 40
13.0
 40
13.0
 40
13.0
 40
14.0
 40
14.0
 40
14.0
 40
15.0
 40
15.0
 40
15.0
 40
16.0
 40
16.0
 40
16.0
 40
16.0
 10
75.15734183233914
 20
-150.6392116593888
 30
0.0
 10
75.15734183233914
 20
-150.717415326904
 30
0.0
 10
75.14028860968714
 20
-150.8190456437188
 30
0.0
 10
75.07689885275856
 20
-150.9206759605337
 30
0.0
 10
74.96682805200483
 20
-151.0939642634418
 30
0.0
 10
74.83574216879107
 20
-151.1153238554503
 30
0.0
 10
74.72791068010275
 20
-151.1342718806192
 30
0.0
 10
74.72791068010275
 20
-151.1342718806192
 30
0.0
 10
74.72791068010275
 20
-150.9120632218206
 30
0.0
 10
74.72791068010275
 20
-150.9120632218206
 30
0.0
 10
74.92669268960167
 20
-150.8572862036051
 30
0.0
 10
74.95632051077482
 20
-150.7301621801994
 30
0.0
 10
74.95632051077482
 20
-150.6371446020976
 30
0.0
 10
74.95632051077482
 20
-150.497618234945
 30
0.0
 10
74.85692950602535
 20
-150.345345014497
 30
0.0
 10
74.62421330599673
 20
-150.345345014497
 30
0.0
 10
74.36824271144266
 20
-150.345345014497
 30
0.0
 10
74.29847952786636
 20
-150.525178998827
 30
0.0
 10
74.29847952786636
 20
-150.6457573408108
 30
0.0
 10
74.29847952786636
 20
-150.6774522192751
 30
0.0
 10
74.29847952786636
 20
-150.8190456437188
 30
0.0
 10
74.42749835378896
 20
-150.9079291072383
 30
0.0
 10
74.42749835378896
 20
-150.9079291072383
 30
0.0
 10
74.40837807384582
 20
-151.083628976986
 30
0.0
 10
74.40837807384582
 20
-151.083628976986
 30
0.0
 10
74.40837807384582
 20
-151.083628976986
 30
0.0
 10
73.56226262266847
 20
-150.9630506350023
 30
0.0
 10
73.56226262266847
 20
-150.9630506350023
 30
0.0
 10
73.56226262266847
 20
-150.9630506350023
 30
0.0
 10
73.56226262266847
 20
-150.1844590553358
 30
0.0
 10
73.56226262266847
 20
-150.1844590553358
 30
0.0
 10
73.56226262266847
 20
-150.1844590553358
 30
0.0
 10
73.75691051758508
 20
-150.1844590553358
 30
0.0
 10
73.75691051758508
 20
-150.1844590553358
 30
0.0
 10
73.75691051758508
 20
-150.1844590553358
 30
0.0
 10
73.75691051758508
 20
-150.8000976185499
 30
0.0
 10
73.75691051758508
 20
-150.8000976185499
 30
0.0
 10
73.75691051758508
 20
-150.8000976185499
 30
0.0
 10
74.17996824317376
 20
-150.8655544327697
 30
0.0
 10
74.17996824317376
 20
-150.8655544327697
 30
0.0
 10
74.14603405264405
 20
-150.8042317331322
 30
0.0
 10
74.10589869024089
 20
-150.7218939510348
 30
0.0
 10
74.10589869024089
 20
-150.6033826663422
 30
0.0
 10
74.10589869024089
 20
-150.3494791290793
 30
0.0
 10
74.29210610121865
 20
-150.1124565596941
 30
0.0
 10
74.60509302605359
 20
-150.1124565596941
 30
0.0
 10
74.92255857501937
 20
-150.1124565596941
 30
0.0
 10
75.15734183233914
 20
-150.3367322757839
 30
0.0
 10
75.15734183233914
 20
-150.6392116593888
 30
0.0
  0
HATCH
  5
110
330
10B
100
AcDbEntity
  8
レイヤー 1
 62
    18
420
        0
440
 33554687
100
AcDbHatch
 10
0.0
 20
0.0
 30
0.0
210
0.0
220
0.0
230
1.0
  2
SOLID
 70
     1
 71
     1
 91
        1
 92
        1
 93
        1
 72
     4
 94
        3
 73
     0
 74
     0
 95
       53
 96
       49
 40
0.0
 40
0.0
 40
0.0
 40
0.0
 40
1.0
 40
1.0
 40
1.0
 40
2.0
 40
2.0
 40
2.0
 40
3.0
 40
3.0
 40
3.0
 40
4.0
 40
4.0
 40
4.0
 40
5.0
 40
5.0
 40
5.0
 40
6.0
 40
6.0
 40
6.0
 40
7.0
 40
7.0
 40
7.0
 40
8.0
 40
8.0
 40
8.0
 40
9.0
 40
9.0
 40
9.0
 40
10.0
 40
10.0
 40
10.0
 40
11.0
 40
11.0
 40
11.0
 40
12.0
 40
12.0
 40
12.0
 40
13.0
 40
13.0
 40
13.0
 40
14.0
 40
14.0
 40
14.0
 40
15.0
 40
15.0
 40
15.0
 40
16.0
 40
16.0
 40
16.0
 40
16.0
 10
75.15734183233914
 20
-150.6392116593888
 10
75.15734183233914
 20
-150.717415326904
 10
75.14028860968714
 20
-150.8190456437188
 10
75.07689885275856
 20
-150.9206759605337
 10
74.96682805200483
 20
-151.0939642634418
 10
74.83574216879107
 20
-151.1153238554503
 10
74.72791068010275
 20
-151.1342718806192
 10
74.72791068010275
 20
-151.1342718806192
 10
74.72791068010275
 20
-150.9120632218206
 10
74.72791068010275
 20
-150.9120632218206
 10
74.92669268960167
 20
-150.8572862036051
 10
74.95632051077482
 20
-150.7301621801994
 10
74.95632051077482
 20
-150.6371446020976
 10
74.95632051077482
 20
-150.497618234945
 10
74.85692950602535
 20
-150.345345014497
 10
74.62421330599673
 20
-150.345345014497
 10
74.36824271144266
 20
-150.345345014497
 10
74.29847952786636
 20
-150.525178998827
 10
74.29847952786636
 20
-150.6457573408108
 10
74.29847952786636
 20
-150.6774522192751
 10
74.29847952786636
 20
-150.8190456437188
 10
74.42749835378896
 20
-150.9079291072383
 10
74.42749835378896
 20
-150.9079291072383
 10
74.40837807384582
 20
-151.083628976986
 10
74.40837807384582
 20
-151.083628976986
 10
74.40837807384582
 20
-151.083628976986
 10
73.56226262266847
 20
-150.9630506350023
 10
73.56226262266847
 20
-150.9630506350023
 10
73.56226262266847
 20
-150.9630506350023
 10
73.56226262266847
 20
-150.1844590553358
 10
73.56226262266847
 20
-150.1844590553358
 10
73.56226262266847
 20
-150.1844590553358
 10
73.75691051758508
 20
-150.1844590553358
 10
73.75691051758508
 20
-150.1844590553358
 10
73.75691051758508
 20
-150.1844590553358
 10
73.75691051758508
 20
-150.8000976185499
 10
73.75691051758508
 20
-150.8000976185499
 10
73.75691051758508
 20
-150.8000976185499
 10
74.17996824317376
 20
-150.8655544327697
 10
74.17996824317376
 20
-150.8655544327697
 10
74.14603405264405
 20
-150.8042317331322
 10
74.10589869024089
 20
-150.7218939510348
 10
74.10589869024089
 20
-150.6033826663422
 10
74.10589869024089
 20
-150.3494791290793
 10
74.29210610121865
 20
-150.1124565596941
 10
74.60509302605359
 20
-150.1124565596941
 10
74.92255857501937
 20
-150.1124565596941
 10
75.15734183233914
 20
-150.3367322757839
 10
75.15734183233914
 20
-150.6392116593888
 97
        0
 97
        1
330
10F
 75
     2
 76
     1
 98
        1
 10
0.0
 20
0.0
450
        0
451
        0
460
0.0
461
0.0
452
        0
462
0.0
453
        0
470

  0
ENDBLK
  5
10E
330
10B
100
AcDbEntity
  8
0
100
AcDbBlockEnd
  0
BLOCK
  5
115
330
113
100
AcDbEntity
  8
0
100
AcDbBlockBegin
  2
Block_7
 70
     0
 10
0.0
 20
0.0
 30
0.0
  3
Block_7
  1

  0
INSERT
  5
118
330
113
100
AcDbEntity
  8
レイヤー 1
100
AcDbBlockReference
  2
Block_8
 10
0.0
 20
0.0
 30
0.0
  0
ENDBLK
  5
116
330
113
100
AcDbEntity
  8
0
100
AcDbBlockEnd
  0
BLOCK
  5
119
330
117
100
AcDbEntity
  8
0
100
AcDbBlockBegin
  2
Block_8
 70
     0
 10
0.0
 20
0.0
 30
0.0
  3
Block_8
  1

  0
SPLINE
  5
11B
330
117
100
AcDbEntity
  8
レイヤー 1
100
AcDbSpline
210
0.0
220
0.0
230
1.0
 70
     9
 71
     3
 72
    44
 73
    40
 74
     0
 42
0.0000000001
 43
0.0000000001
 40
0.0
 40
0.0
 40
0.0
 40
0.0
 40
1.0
 40
1.0
 40
1.0
 40
2.0
 40
2.0
 40
2.0
 40
3.0
 40
3.0
 40
3.0
 40
4.0
 40
4.0
 40
4.0
 40
5.0
 40
5.0
 40
5.0
 40
6.0
 40
6.0
 40
6.0
 40
7.0
 40
7.0
 40
7.0
 40
8.0
 40
8.0
 40
8.0
 40
9.0
 40
9.0
 40
9.0
 40
10.0
 40
10.0
 40
10.0
 40
11.0
 40
11.0
 40
11.0
 40
12.0
 40
12.0
 40
12.0
 40
13.0
 40
13.0
 40
13.0
 40
13.0
 10
115.7503851707152
 20
-140.9455742377671
 30
0.0
 10
115.5326551360474
 20
-141.1042208848628
 30
0.0
 10
115.4396375579456
 20
-141.1782904377957
 30
0.0
 10
115.3907172020551
 20
-141.3221231743049
 30
0.0
 10
115.3907172020551
 20
-141.3221231743049
 30
0.0
 10
116.1693087817216
 20
-141.3221231743049
 30
0.0
 10
116.1693087817216
 20
-141.3221231743049
 30
0.0
 10
116.1693087817216
 20
-141.3221231743049
 30
0.0
 10
116.1693087817216
 20
-141.5272786104515
 30
0.0
 10
116.1693087817216
 20
-141.5272786104515
 30
0.0
 10
116.1693087817216
 20
-141.5272786104515
 30
0.0
 10
115.141292288923
 20
-141.5272786104515
 30
0.0
 10
115.141292288923
 20
-141.5272786104515
 30
0.0
 10
115.1729871673873
 20
-141.1696776990826
 30
0.0
 10
115.238443981607
 20
-141.0914740315674
 30
0.0
 10
115.623605656858
 20
-140.7931287625447
 30
0.0
 10
115.879576251412
 20
-140.5943467530458
 30
0.0
 10
115.9450330656318
 20
-140.5266506267607
 30
0.0
 10
115.9450330656318
 20
-140.3891913168992
 30
0.0
 10
115.9450330656318
 20
-140.2706800322066
 30
0.0
 10
115.87303056999
 20
-140.1394218942186
 30
0.0
 10
115.6763156177823
 20
-140.1394218942186
 30
0.0
 10
115.4162109086459
 20
-140.1394218942186
 30
0.0
 10
115.4079426794813
 20
-140.3700710369561
 30
0.0
 10
115.4034640553505
 20
-140.4865152643575
 30
0.0
 10
115.4034640553505
 20
-140.4865152643575
 30
0.0
 10
115.1791883392607
 20
-140.4865152643575
 30
0.0
 10
115.1791883392607
 20
-140.4865152643575
 30
0.0
 10
115.1878010779739
 20
-140.3595634957261
 30
0.0
 10
115.1984808739781
 20
-140.2474256376812
 30
0.0
 10
115.2787515987845
 20
-140.1289143529886
 30
0.0
 10
115.3886501447639
 20
-139.9682006486017
 30
0.0
 10
115.5750298105159
 20
-139.934266458072
 30
0.0
 10
115.6911295283689
 20
-139.934266458072
 30
0.0
 10
115.9684597149315
 20
-139.934266458072
 30
0.0
 10
116.1758544631435
 20
-140.1184068117586
 30
0.0
 10
116.1758544631435
 20
-140.3912583741904
 30
0.0
 10
116.1758544631435
 20
-140.6196682048624
 30
0.0
 10
116.0594102357421
 20
-140.7192314643862
 30
0.0
 10
115.7503851707152
 20
-140.9455742377671
 30
0.0
  0
HATCH
  5
11C
330
117
100
AcDbEntity
  8
レイヤー 1
 62
    18
420
        0
440
 33554687
100
AcDbHatch
 10
0.0
 20
0.0
 30
0.0
210
0.0
220
0.0
230
1.0
  2
SOLID
 70
     1
 71
     1
 91
        1
 92
        1
 93
        1
 72
     4
 94
        3
 73
     0
 74
     0
 95
       44
 96
       40
 40
0.0
 40
0.0
 40
0.0
 40
0.0
 40
1.0
 40
1.0
 40
1.0
 40
2.0
 40
2.0
 40
2.0
 40
3.0
 40
3.0
 40
3.0
 40
4.0
 40
4.0
 40
4.0
 40
5.0
 40
5.0
 40
5.0
 40
6.0
 40
6.0
 40
6.0
 40
7.0
 40
7.0
 40
7.0
 40
8.0
 40
8.0
 40
8.0
 40
9.0
 40
9.0
 40
9.0
 40
10.0
 40
10.0
 40
10.0
 40
11.0
 40
11.0
 40
11.0
 40
12.0
 40
12.0
 40
12.0
 40
13.0
 40
13.0
 40
13.0
 40
13.0
 10
115.7503851707152
 20
-140.9455742377671
 10
115.5326551360474
 20
-141.1042208848628
 10
115.4396375579456
 20
-141.1782904377957
 10
115.3907172020551
 20
-141.3221231743049
 10
115.3907172020551
 20
-141.3221231743049
 10
116.1693087817216
 20
-141.3221231743049
 10
116.1693087817216
 20
-141.3221231743049
 10
116.1693087817216
 20
-141.3221231743049
 10
116.1693087817216
 20
-141.5272786104515
 10
116.1693087817216
 20
-141.5272786104515
 10
116.1693087817216
 20
-141.5272786104515
 10
115.141292288923
 20
-141.5272786104515
 10
115.141292288923
 20
-141.5272786104515
 10
115.1729871673873
 20
-141.1696776990826
 10
115.238443981607
 20
-141.0914740315674
 10
115.623605656858
 20
-140.7931287625447
 10
115.879576251412
 20
-140.5943467530458
 10
115.9450330656318
 20
-140.5266506267607
 10
115.9450330656318
 20
-140.3891913168992
 10
115.9450330656318
 20
-140.2706800322066
 10
115.87303056999
 20
-140.1394218942186
 10
115.6763156177823
 20
-140.1394218942186
 10
115.4162109086459
 20
-140.1394218942186
 10
115.4079426794813
 20
-140.3700710369561
 10
115.4034640553505
 20
-140.4865152643575
 10
115.4034640553505
 20
-140.4865152643575
 10
115.1791883392607
 20
-140.4865152643575
 10
115.1791883392607
 20
-140.4865152643575
 10
115.1878010779739
 20
-140.3595634957261
 10
115.1984808739781
 20
-140.2474256376812
 10
115.2787515987845
 20
-140.1289143529886
 10
115.3886501447639
 20
-139.9682006486017
 10
115.5750298105159
 20
-139.934266458072
 10
115.6911295283689
 20
-139.934266458072
 10
115.9684597149315
 20
-139.934266458072
 10
116.1758544631435
 20
-140.1184068117586
 10
116.1758544631435
 20
-140.3912583741904
 10
116.1758544631435
 20
-140.6196682048624
 10
116.0594102357421
 20
-140.7192314643862
 10
115.7503851707152
 20
-140.9455742377671
 97
        0
 97
        1
330
11B
 75
     2
 76
     1
 98
        1
 10
0.0
 20
0.0
450
        0
451
        0
460
0.0
461
0.0
452
        0
462
0.0
453
        0
470

  0
SPLINE
  5
11D
330
117
100
AcDbEntity
  8
レイヤー 1
100
AcDbSpline
210
0.0
220
0.0
230
1.0
 70
    11
 71
     3
 72
    26
 73
    22
 74
     0
 42
0.0000000001
 43
0.0000000001
 40
0.0
 40
0.0
 40
0.0
 40
0.0
 40
1.0
 40
1.0
 40
1.0
 40
2.0
 40
2.0
 40
2.0
 40
3.0
 40
3.0
 40
3.0
 40
4.0
 40
4.0
 40
4.0
 40
5.0
 40
5.0
 40
5.0
 40
6.0
 40
6.0
 40
6.0
 40
7.0
 40
7.0
 40
7.0
 40
7.0
 10
116.7856363640327
 20
-141.5272786104515
 30
0.0
 10
116.7856363640327
 20
-141.5272786104515
 30
0.0
 10
116.7856363640327
 20
-140.4229532526547
 30
0.0
 10
116.7856363640327
 20
-140.4229532526547
 30
0.0
 10
116.7856363640327
 20
-140.4229532526547
 30
0.0
 10
116.4555962165458
 20
-140.4229532526547
 30
0.0
 10
116.4555962165458
 20
-140.4229532526547
 30
0.0
 10
116.4555962165458
 20
-140.4229532526547
 30
0.0
 10
116.4555962165458
 20
-140.2748141467889
 30
0.0
 10
116.4555962165458
 20
-140.2748141467889
 30
0.0
 10
116.7877034213239
 20
-140.2601724909766
 30
0.0
 10
116.8342122103748
 20
-140.0972194745243
 30
0.0
 10
116.8638400315479
 20
-139.9830145591883
 30
0.0
 10
116.8638400315479
 20
-139.9830145591883
 30
0.0
 10
117.0099120801225
 20
-139.9830145591883
 30
0.0
 10
117.0099120801225
 20
-139.9830145591883
 30
0.0
 10
117.0099120801225
 20
-139.9830145591883
 30
0.0
 10
117.0099120801225
 20
-141.5272786104515
 30
0.0
 10
117.0099120801225
 20
-141.5272786104515
 30
0.0
 10
117.0099120801225
 20
-141.5272786104515
 30
0.0
 10
116.7856363640327
 20
-141.5272786104515
 30
0.0
 10
116.7856363640327
 20
-141.5272786104515
 30
0.0
  0
HATCH
  5
11E
330
117
100
AcDbEntity
  8
レイヤー 1
 62
    18
420
        0
440
 33554687
100
AcDbHatch
 10
0.0
 20
0.0
 30
0.0
210
0.0
220
0.0
230
1.0
  2
SOLID
 70
     1
 71
     1
 91
        1
 92
        1
 93
        1
 72
     4
 94
        3
 73
     0
 74
     0
 95
       26
 96
       22
 40
0.0
 40
0.0
 40
0.0
 40
0.0
 40
1.0
 40
1.0
 40
1.0
 40
2.0
 40
2.0
 40
2.0
 40
3.0
 40
3.0
 40
3.0
 40
4.0
 40
4.0
 40
4.0
 40
5.0
 40
5.0
 40
5.0
 40
6.0
 40
6.0
 40
6.0
 40
7.0
 40
7.0
 40
7.0
 40
7.0
 10
116.7856363640327
 20
-141.5272786104515
 10
116.7856363640327
 20
-141.5272786104515
 10
116.7856363640327
 20
-140.4229532526547
 10
116.7856363640327
 20
-140.4229532526547
 10
116.7856363640327
 20
-140.4229532526547
 10
116.4555962165458
 20
-140.4229532526547
 10
116.4555962165458
 20
-140.4229532526547
 10
116.4555962165458
 20
-140.4229532526547
 10
116.4555962165458
 20
-140.2748141467889
 10
116.4555962165458
 20
-140.2748141467889
 10
116.7877034213239
 20
-140.2601724909766
 10
116.8342122103748
 20
-140.0972194745243
 10
116.8638400315479
 20
-139.9830145591883
 10
116.8638400315479
 20
-139.9830145591883
 10
117.0099120801225
 20
-139.9830145591883
 10
117.0099120801225
 20
-139.9830145591883
 10
117.0099120801225
 20
-139.9830145591883
 10
117.0099120801225
 20
-141.5272786104515
 10
117.0099120801225
 20
-141.5272786104515
 10
117.0099120801225
 20
-141.5272786104515
 10
116.7856363640327
 20
-141.5272786104515
 10
116.7856363640327
 20
-141.5272786104515
 97
        0
 97
        1
330
11D
 75
     2
 76
     1
 98
        1
 10
0.0
 20
0.0
450
        0
451
        0
460
0.0
461
0.0
452
        0
462
0.0
453
        0
470

  0
ENDBLK
  5
11A
330
117
100
AcDbEntity
  8
0
100
AcDbBlockEnd
  0
BLOCK
  5
124
330
122
100
AcDbEntity
  8
0
100
AcDbBlockBegin
  2
Block_9
 70
     0
 10
0.0
 20
0.0
 30
0.0
  3
Block_9
  1

  0
SPLINE
  5
126
330
122
100
AcDbEntity
  8
レイヤー 1
100
AcDbSpline
210
0.0
220
0.0
230
1.0
 70
     9
 71
     3
 72
    53
 73
    49
 74
     0
 42
0.0000000001
 43
0.0000000001
 40
0.0
 40
0.0
 40
0.0
 40
0.0
 40
1.0
 40
1.0
 40
1.0
 40
2.0
 40
2.0
 40
2.0
 40
3.0
 40
3.0
 40
3.0
 40
4.0
 40
4.0
 40
4.0
 40
5.0
 40
5.0
 40
5.0
 40
6.0
 40
6.0
 40
6.0
 40
7.0
 40
7.0
 40
7.0
 40
8.0
 40
8.0
 40
8.0
 40
9.0
 40
9.0
 40
9.0
 40
10.0
 40
10.0
 40
10.0
 40
11.0
 40
11.0
 40
11.0
 40
12.0
 40
12.0
 40
12.0
 40
13.0
 40
13.0
 40
13.0
 40
14.0
 40
14.0
 40
14.0
 40
15.0
 40
15.0
 40
15.0
 40
16.0
 40
16.0
 40
16.0
 40
16.0
 10
103.3042887111531
 20
-141.5777492593104
 30
0.0
 10
103.2259127888636
 20
-141.5777492593104
 30
0.0
 10
103.124454726823
 20
-141.5606960366584
 30
0.0
 10
103.0228244100082
 20
-141.4973062797298
 30
0.0
 10
102.8493638523258
 20
-141.3872354789761
 30
0.0
 10
102.8281765150915
 20
-141.2561495957623
 30
0.0
 10
102.8092284899227
 20
-141.148318107074
 30
0.0
 10
102.8092284899227
 20
-141.148318107074
 30
0.0
 10
103.031264893947
 20
-141.148318107074
 30
0.0
 10
103.031264893947
 20
-141.148318107074
 30
0.0
 10
103.086386421711
 20
-141.3471001165729
 30
0.0
 10
103.2133381903425
 20
-141.3767279377461
 30
0.0
 10
103.3063557684442
 20
-141.3767279377461
 30
0.0
 10
103.4458821355968
 20
-141.3767279377461
 30
0.0
 10
103.5983276108191
 20
-141.2773369329966
 30
0.0
 10
103.5983276108191
 20
-141.044620732968
 30
0.0
 10
103.5983276108191
 20
-140.7886501384139
 30
0.0
 10
103.4184936264891
 20
-140.7188869548376
 30
0.0
 10
103.2979152845054
 20
-140.7188869548376
 30
0.0
 10
103.2662204060411
 20
-140.7188869548376
 30
0.0
 10
103.124454726823
 20
-140.7188869548376
 30
0.0
 10
103.0355712633036
 20
-140.8479057807602
 30
0.0
 10
103.0355712633036
 20
-140.8479057807602
 30
0.0
 10
102.8600436483301
 20
-140.8287855008171
 30
0.0
 10
102.8600436483301
 20
-140.8287855008171
 30
0.0
 10
102.8600436483301
 20
-140.8287855008171
 30
0.0
 10
102.9806219903139
 20
-139.9826700496397
 30
0.0
 10
102.9806219903139
 20
-139.9826700496397
 30
0.0
 10
102.9806219903139
 20
-139.9826700496397
 30
0.0
 10
103.7590413152061
 20
-139.9826700496397
 30
0.0
 10
103.7590413152061
 20
-139.9826700496397
 30
0.0
 10
103.7590413152061
 20
-139.9826700496397
 30
0.0
 10
103.7590413152061
 20
-140.1773179445563
 30
0.0
 10
103.7590413152061
 20
-140.1773179445563
 30
0.0
 10
103.7590413152061
 20
-140.1773179445563
 30
0.0
 10
103.1434027519919
 20
-140.1773179445563
 30
0.0
 10
103.1434027519919
 20
-140.1773179445563
 30
0.0
 10
103.1434027519919
 20
-140.1773179445563
 30
0.0
 10
103.0779459377722
 20
-140.600375670145
 30
0.0
 10
103.0779459377722
 20
-140.600375670145
 30
0.0
 10
103.1392686374096
 20
-140.5664414796153
 30
0.0
 10
103.2217786742813
 20
-140.5263061172122
 30
0.0
 10
103.3401177041997
 20
-140.5263061172122
 30
0.0
 10
103.5940212414626
 20
-140.5263061172122
 30
0.0
 10
103.8310438108478
 20
-140.7125135281899
 30
0.0
 10
103.8310438108478
 20
-141.0255004530249
 30
0.0
 10
103.8310438108478
 20
-141.3429660019906
 30
0.0
 10
103.606768094758
 20
-141.5777492593104
 30
0.0
 10
103.3042887111531
 20
-141.5777492593104
 30
0.0
  0
HATCH
  5
127
330
122
100
AcDbEntity
  8
レイヤー 1
 62
    18
420
        0
440
 33554687
100
AcDbHatch
 10
0.0
 20
0.0
 30
0.0
210
0.0
220
0.0
230
1.0
  2
SOLID
 70
     1
 71
     1
 91
        1
 92
        1
 93
        1
 72
     4
 94
        3
 73
     0
 74
     0
 95
       53
 96
       49
 40
0.0
 40
0.0
 40
0.0
 40
0.0
 40
1.0
 40
1.0
 40
1.0
 40
2.0
 40
2.0
 40
2.0
 40
3.0
 40
3.0
 40
3.0
 40
4.0
 40
4.0
 40
4.0
 40
5.0
 40
5.0
 40
5.0
 40
6.0
 40
6.0
 40
6.0
 40
7.0
 40
7.0
 40
7.0
 40
8.0
 40
8.0
 40
8.0
 40
9.0
 40
9.0
 40
9.0
 40
10.0
 40
10.0
 40
10.0
 40
11.0
 40
11.0
 40
11.0
 40
12.0
 40
12.0
 40
12.0
 40
13.0
 40
13.0
 40
13.0
 40
14.0
 40
14.0
 40
14.0
 40
15.0
 40
15.0
 40
15.0
 40
16.0
 40
16.0
 40
16.0
 40
16.0
 10
103.3042887111531
 20
-141.5777492593104
 10
103.2259127888636
 20
-141.5777492593104
 10
103.124454726823
 20
-141.5606960366584
 10
103.0228244100082
 20
-141.4973062797298
 10
102.8493638523258
 20
-141.3872354789761
 10
102.8281765150915
 20
-141.2561495957623
 10
102.8092284899227
 20
-141.148318107074
 10
102.8092284899227
 20
-141.148318107074
 10
103.031264893947
 20
-141.148318107074
 10
103.031264893947
 20
-141.148318107074
 10
103.086386421711
 20
-141.3471001165729
 10
103.2133381903425
 20
-141.3767279377461
 10
103.3063557684442
 20
-141.3767279377461
 10
103.4458821355968
 20
-141.3767279377461
 10
103.5983276108191
 20
-141.2773369329966
 10
103.5983276108191
 20
-141.044620732968
 10
103.5983276108191
 20
-140.7886501384139
 10
103.4184936264891
 20
-140.7188869548376
 10
103.2979152845054
 20
-140.7188869548376
 10
103.2662204060411
 20
-140.7188869548376
 10
103.124454726823
 20
-140.7188869548376
 10
103.0355712633036
 20
-140.8479057807602
 10
103.0355712633036
 20
-140.8479057807602
 10
102.8600436483301
 20
-140.8287855008171
 10
102.8600436483301
 20
-140.8287855008171
 10
102.8600436483301
 20
-140.8287855008171
 10
102.9806219903139
 20
-139.9826700496397
 10
102.9806219903139
 20
-139.9826700496397
 10
102.9806219903139
 20
-139.9826700496397
 10
103.7590413152061
 20
-139.9826700496397
 10
103.7590413152061
 20
-139.9826700496397
 10
103.7590413152061
 20
-139.9826700496397
 10
103.7590413152061
 20
-140.1773179445563
 10
103.7590413152061
 20
-140.1773179445563
 10
103.7590413152061
 20
-140.1773179445563
 10
103.1434027519919
 20
-140.1773179445563
 10
103.1434027519919
 20
-140.1773179445563
 10
103.1434027519919
 20
-140.1773179445563
 10
103.0779459377722
 20
-140.600375670145
 10
103.0779459377722
 20
-140.600375670145
 10
103.1392686374096
 20
-140.5664414796153
 10
103.2217786742813
 20
-140.5263061172122
 10
103.3401177041997
 20
-140.5263061172122
 10
103.5940212414626
 20
-140.5263061172122
 10
103.8310438108478
 20
-140.7125135281899
 10
103.8310438108478
 20
-141.0255004530249
 10
103.8310438108478
 20
-141.3429660019906
 10
103.606768094758
 20
-141.5777492593104
 10
103.3042887111531
 20
-141.5777492593104
 97
        0
 97
        1
330
126
 75
     2
 76
     1
 98
        1
 10
0.0
 20
0.0
450
        0
451
        0
460
0.0
461
0.0
452
        0
462
0.0
453
        0
470

  0
ENDBLK
  5
125
330
122
100
AcDbEntity
  8
0
100
AcDbBlockEnd
  0
BLOCK
  5
12F
330
12D
100
AcDbEntity
  8
0
100
AcDbBlockBegin
  2
Block_10
 70
     0
 10
0.0
 20
0.0
 30
0.0
  3
Block_10
  1

  0
SPLINE
  5
131
330
12D
100
AcDbEntity
  8
レイヤー 1
100
AcDbSpline
210
0.0
220
0.0
230
1.0
 70
     9
 71
     3
 72
    26
 73
    22
 74
     0
 42
0.0000000001
 43
0.0000000001
 40
0.0
 40
0.0
 40
0.0
 40
0.0
 40
1.0
 40
1.0
 40
1.0
 40
2.0
 40
2.0
 40
2.0
 40
3.0
 40
3.0
 40
3.0
 40
4.0
 40
4.0
 40
4.0
 40
5.0
 40
5.0
 40
5.0
 40
6.0
 40
6.0
 40
6.0
 40
7.0
 40
7.0
 40
7.0
 40
7.0
 10
103.4331352823014
 20
-156.212687135426
 30
0.0
 10
103.4331352823014
 20
-156.212687135426
 30
0.0
 10
103.1961127129162
 20
-156.212687135426
 30
0.0
 10
103.1961127129162
 20
-156.212687135426
 30
0.0
 10
103.2216064195071
 20
-155.9036620703991
 30
0.0
 10
103.4141872571325
 20
-155.3855197094175
 30
0.0
 10
103.8203640148435
 20
-154.8797796921828
 30
0.0
 10
103.8203640148435
 20
-154.8797796921828
 30
0.0
 10
102.9825167928307
 20
-154.8797796921828
 30
0.0
 10
102.9825167928307
 20
-154.8797796921828
 30
0.0
 10
102.9825167928307
 20
-154.8797796921828
 30
0.0
 10
102.9825167928307
 20
-154.6682508293885
 30
0.0
 10
102.9825167928307
 20
-154.6682508293885
 30
0.0
 10
102.9825167928307
 20
-154.6682508293885
 30
0.0
 10
104.0573865842287
 20
-154.6682508293885
 30
0.0
 10
104.0573865842287
 20
-154.6682508293885
 30
0.0
 10
104.0573865842287
 20
-154.6682508293885
 30
0.0
 10
104.0573865842287
 20
-154.8797796921828
 30
0.0
 10
104.0573865842287
 20
-154.8797796921828
 30
0.0
 10
103.7335476086152
 20
-155.1698567320408
 30
0.0
 10
103.4668972180569
 20
-155.7620686459553
 30
0.0
 10
103.4331352823014
 20
-156.212687135426
 30
0.0
  0
HATCH
  5
132
330
12D
100
AcDbEntity
  8
レイヤー 1
 62
    18
420
        0
440
 33554687
100
AcDbHatch
 10
0.0
 20
0.0
 30
0.0
210
0.0
220
0.0
230
1.0
  2
SOLID
 70
     1
 71
     1
 91
        1
 92
        1
 93
        1
 72
     4
 94
        3
 73
     0
 74
     0
 95
       26
 96
       22
 40
0.0
 40
0.0
 40
0.0
 40
0.0
 40
1.0
 40
1.0
 40
1.0
 40
2.0
 40
2.0
 40
2.0
 40
3.0
 40
3.0
 40
3.0
 40
4.0
 40
4.0
 40
4.0
 40
5.0
 40
5.0
 40
5.0
 40
6.0
 40
6.0
 40
6.0
 40
7.0
 40
7.0
 40
7.0
 40
7.0
 10
103.4331352823014
 20
-156.212687135426
 10
103.4331352823014
 20
-156.212687135426
 10
103.1961127129162
 20
-156.212687135426
 10
103.1961127129162
 20
-156.212687135426
 10
103.2216064195071
 20
-155.9036620703991
 10
103.4141872571325
 20
-155.3855197094175
 10
103.8203640148435
 20
-154.8797796921828
 10
103.8203640148435
 20
-154.8797796921828
 10
102.9825167928307
 20
-154.8797796921828
 10
102.9825167928307
 20
-154.8797796921828
 10
102.9825167928307
 20
-154.8797796921828
 10
102.9825167928307
 20
-154.6682508293885
 10
102.9825167928307
 20
-154.6682508293885
 10
102.9825167928307
 20
-154.6682508293885
 10
104.0573865842287
 20
-154.6682508293885
 10
104.0573865842287
 20
-154.6682508293885
 10
104.0573865842287
 20
-154.6682508293885
 10
104.0573865842287
 20
-154.8797796921828
 10
104.0573865842287
 20
-154.8797796921828
 10
103.7335476086152
 20
-155.1698567320408
 10
103.4668972180569
 20
-155.7620686459553
 10
103.4331352823014
 20
-156.212687135426
 97
        0
 97
        1
330
131
 75
     2
 76
     1
 98
        1
 10
0.0
 20
0.0
450
        0
451
        0
460
0.0
461
0.0
452
        0
462
0.0
453
        0
470

  0
ENDBLK
  5
130
330
12D
100
AcDbEntity
  8
0
100
AcDbBlockEnd
  0
BLOCK
  5
136
330
134
100
AcDbEntity
  8
0
100
AcDbBlockBegin
  2
Block_11
 70
     0
 10
0.0
 20
0.0
 30
0.0
  3
Block_11
  1

  0
SPLINE
  5
138
330
134
100
AcDbEntity
  8
レイヤー 1
100
AcDbSpline
210
0.0
220
0.0
230
1.0
 70
    11
 71
     3
 72
    26
 73
    22
 74
     0
 42
0.0000000001
 43
0.0000000001
 40
0.0
 40
0.0
 40
0.0
 40
0.0
 40
1.0
 40
1.0
 40
1.0
 40
2.0
 40
2.0
 40
2.0
 40
3.0
 40
3.0
 40
3.0
 40
4.0
 40
4.0
 40
4.0
 40
5.0
 40
5.0
 40
5.0
 40
6.0
 40
6.0
 40
6.0
 40
7.0
 40
7.0
 40
7.0
 40
7.0
 10
108.7230793999026
 20
-149.7334960563166
 30
0.0
 10
108.7230793999026
 20
-149.7334960563166
 30
0.0
 10
108.7230793999026
 20
-148.6291706985198
 30
0.0
 10
108.7230793999026
 20
-148.6291706985198
 30
0.0
 10
108.7230793999026
 20
-148.6291706985198
 30
0.0
 10
108.3930392524156
 20
-148.6291706985198
 30
0.0
 10
108.3930392524156
 20
-148.6291706985198
 30
0.0
 10
108.3930392524156
 20
-148.6291706985198
 30
0.0
 10
108.3930392524156
 20
-148.481031592654
 30
0.0
 10
108.3930392524156
 20
-148.481031592654
 30
0.0
 10
108.7251464571937
 20
-148.4663899368417
 30
0.0
 10
108.7716552462446
 20
-148.3034369203894
 30
0.0
 10
108.8012830674177
 20
-148.1892320050534
 30
0.0
 10
108.8012830674177
 20
-148.1892320050534
 30
0.0
 10
108.9473551159923
 20
-148.1892320050534
 30
0.0
 10
108.9473551159923
 20
-148.1892320050534
 30
0.0
 10
108.9473551159923
 20
-148.1892320050534
 30
0.0
 10
108.9473551159923
 20
-149.7334960563166
 30
0.0
 10
108.9473551159923
 20
-149.7334960563166
 30
0.0
 10
108.9473551159923
 20
-149.7334960563166
 30
0.0
 10
108.7230793999026
 20
-149.7334960563166
 30
0.0
 10
108.7230793999026
 20
-149.7334960563166
 30
0.0
  0
HATCH
  5
139
330
134
100
AcDbEntity
  8
レイヤー 1
 62
    18
420
        0
440
 33554687
100
AcDbHatch
 10
0.0
 20
0.0
 30
0.0
210
0.0
220
0.0
230
1.0
  2
SOLID
 70
     1
 71
     1
 91
        1
 92
        1
 93
        1
 72
     4
 94
        3
 73
     0
 74
     0
 95
       26
 96
       22
 40
0.0
 40
0.0
 40
0.0
 40
0.0
 40
1.0
 40
1.0
 40
1.0
 40
2.0
 40
2.0
 40
2.0
 40
3.0
 40
3.0
 40
3.0
 40
4.0
 40
4.0
 40
4.0
 40
5.0
 40
5.0
 40
5.0
 40
6.0
 40
6.0
 40
6.0
 40
7.0
 40
7.0
 40
7.0
 40
7.0
 10
108.7230793999026
 20
-149.7334960563166
 10
108.7230793999026
 20
-149.7334960563166
 10
108.7230793999026
 20
-148.6291706985198
 10
108.7230793999026
 20
-148.6291706985198
 10
108.7230793999026
 20
-148.6291706985198
 10
108.3930392524156
 20
-148.6291706985198
 10
108.3930392524156
 20
-148.6291706985198
 10
108.3930392524156
 20
-148.6291706985198
 10
108.3930392524156
 20
-148.481031592654
 10
108.3930392524156
 20
-148.481031592654
 10
108.7251464571937
 20
-148.4663899368417
 10
108.7716552462446
 20
-148.3034369203894
 10
108.8012830674177
 20
-148.1892320050534
 10
108.8012830674177
 20
-148.1892320050534
 10
108.9473551159923
 20
-148.1892320050534
 10
108.9473551159923
 20
-148.1892320050534
 10
108.9473551159923
 20
-148.1892320050534
 10
108.9473551159923
 20
-149.7334960563166
 10
108.9473551159923
 20
-149.7334960563166
 10
108.9473551159923
 20
-149.7334960563166
 10
108.7230793999026
 20
-149.7334960563166
 10
108.7230793999026
 20
-149.7334960563166
 97
        0
 97
        1
330
138
 75
     2
 76
     1
 98
        1
 10
0.0
 20
0.0
450
        0
451
        0
460
0.0
461
0.0
452
        0
462
0.0
453
        0
470

  0
ENDBLK
  5
137
330
134
100
AcDbEntity
  8
0
100
AcDbBlockEnd
  0
BLOCK
  5
13C
330
13A
100
AcDbEntity
  8
0
100
AcDbBlockBegin
  2
Block_12
 70
     0
 10
0.0
 20
0.0
 30
0.0
  3
Block_12
  1

  0
INSERT
  5
13F
330
13A
100
AcDbEntity
  8
レイヤー 1
100
AcDbBlockReference
  2
Block_13
 10
0.0
 20
0.0
 30
0.0
  0
INSERT
  5
146
330
13A
100
AcDbEntity
  8
レイヤー 1
100
AcDbBlockReference
  2
Block_14
 10
0.0
 20
0.0
 30
0.0
  0
ENDBLK
  5
13D
330
13A
100
AcDbEntity
  8
0
100
AcDbBlockEnd
  0
BLOCK
  5
140
330
13E
100
AcDbEntity
  8
0
100
AcDbBlockBegin
  2
Block_13
 70
     0
 10
0.0
 20
0.0
 30
0.0
  3
Block_13
  1

  0
LINE
  5
142
330
13E
100
AcDbEntity
  8
レイヤー 1
 62
    18
420
        0
370
     9
100
AcDbLine
 10
120.8260716435444
 20
-148.7529062628466
 30
0.0
 11
121.6373899561793
 21
-149.3375295960339
 31
0.0
  0
LINE
  5
143
330
13E
100
AcDbEntity
  8
レイヤー 1
 62
    18
420
        0
370
     9
100
AcDbLine
 10
120.8260716435444
 20
-148.7529062628466
 30
0.0
 11
123.4037129666722
 21
-151.9099851509462
 31
0.0
  0
LINE
  5
144
330
13E
100
AcDbEntity
  8
レイヤー 1
 62
    18
420
        0
370
     9
100
AcDbLine
 10
120.8260716435444
 20
-148.7529062628466
 30
0.0
 11
121.2363874664097
 21
-149.6649779292849
 31
0.0
  0
ENDBLK
  5
141
330
13E
100
AcDbEntity
  8
0
100
AcDbBlockEnd
  0
BLOCK
  5
147
330
145
100
AcDbEntity
  8
0
100
AcDbBlockBegin
  2
Block_14
 70
     0
 10
0.0
 20
0.0
 30
0.0
  3
Block_14
  1

  0
INSERT
  5
14A
330
145
100
AcDbEntity
  8
レイヤー 1
100
AcDbBlockReference
  2
Block_15
 10
0.0
 20
0.0
 30
0.0
  0
ENDBLK
  5
148
330
145
100
AcDbEntity
  8
0
100
AcDbBlockEnd
  0
BLOCK
  5
14B
330
149
100
AcDbEntity
  8
0
100
AcDbBlockBegin
  2
Block_15
 70
     0
 10
0.0
 20
0.0
 30
0.0
  3
Block_15
  1

  0
SPLINE
  5
14D
330
149
100
AcDbEntity
  8
レイヤー 1
100
AcDbSpline
210
0.0
220
0.0
230
1.0
 70
     9
 71
     3
 72
    17
 73
    13
 74
     0
 42
0.0000000001
 43
0.0000000001
 40
0.0
 40
0.0
 40
0.0
 40
0.0
 40
1.0
 40
1.0
 40
1.0
 40
2.0
 40
2.0
 40
2.0
 40
3.0
 40
3.0
 40
3.0
 40
4.0
 40
4.0
 40
4.0
 40
4.0
 10
125.070057477413
 20
-152.3576252874314
 30
0.0
 10
125.0531765095353
 20
-152.3872531086046
 30
0.0
 10
125.0025336059021
 20
-152.4802706867063
 30
0.0
 10
124.9918538098979
 20
-152.4992187118752
 30
0.0
 10
125.1823675902322
 20
-152.5584743542215
 30
0.0
 10
125.2033826726922
 20
-152.5650200356434
 30
0.0
 10
125.2753851683339
 20
-152.5922362899769
 30
0.0
 10
125.3301621865494
 20
-152.5057643932971
 30
0.0
 10
125.3535888358491
 20
-152.4316948403643
 30
0.0
 10
125.3684027464357
 20
-152.3576252874314
 30
0.0
 10
125.3684027464357
 20
-152.3576252874314
 30
0.0
 10
125.070057477413
 20
-152.3576252874314
 30
0.0
 10
125.070057477413
 20
-152.3576252874314
 30
0.0
  0
SPLINE
  5
14E
330
149
100
AcDbEntity
  8
レイヤー 1
100
AcDbSpline
210
0.0
220
0.0
230
1.0
 70
    11
 71
     3
 72
    20
 73
    16
 74
     0
 42
0.0000000001
 43
0.0000000001
 40
0.0
 40
0.0
 40
0.0
 40
0.0
 40
1.0
 40
1.0
 40
1.0
 40
2.0
 40
2.0
 40
2.0
 40
3.0
 40
3.0
 40
3.0
 40
4.0
 40
4.0
 40
4.0
 40
5.0
 40
5.0
 40
5.0
 40
5.0
 10
125.0066677204844
 20
-151.5070312121232
 30
0.0
 10
125.0066677204844
 20
-151.5070312121232
 30
0.0
 10
124.9749728420201
 20
-151.5070312121232
 30
0.0
 10
124.9749728420201
 20
-151.5070312121232
 30
0.0
 10
125.021481631071
 20
-151.6065944716469
 30
0.0
 10
125.0531765095353
 20
-151.6868651964533
 30
0.0
 10
125.0869384452907
 20
-151.813989219859
 30
0.0
 10
125.0869384452907
 20
-151.813989219859
 30
0.0
 10
125.2943331935028
 20
-151.813989219859
 30
0.0
 10
125.2943331935028
 20
-151.813989219859
 30
0.0
 10
125.3260280719671
 20
-151.7209716417573
 30
0.0
 10
125.3494547212668
 20
-151.6362222928201
 30
0.0
 10
125.3725368610179
 20
-151.5070312121232
 30
0.0
 10
125.3725368610179
 20
-151.5070312121232
 30
0.0
 10
125.0066677204844
 20
-151.5070312121232
 30
0.0
 10
125.0066677204844
 20
-151.5070312121232
 30
0.0
  0
SPLINE
  5
14F
330
149
100
AcDbEntity
  8
レイヤー 1
100
AcDbSpline
210
0.0
220
0.0
230
1.0
 70
     9
 71
     3
 72
   242
 73
   238
 74
     0
 42
0.0000000001
 43
0.0000000001
 40
0.0
 40
0.0
 40
0.0
 40
0.0
 40
1.0
 40
1.0
 40
1.0
 40
2.0
 40
2.0
 40
2.0
 40
3.0
 40
3.0
 40
3.0
 40
4.0
 40
4.0
 40
4.0
 40
5.0
 40
5.0
 40
5.0
 40
6.0
 40
6.0
 40
6.0
 40
7.0
 40
7.0
 40
7.0
 40
8.0
 40
8.0
 40
8.0
 40
9.0
 40
9.0
 40
9.0
 40
10.0
 40
10.0
 40
10.0
 40
11.0
 40
11.0
 40
11.0
 40
12.0
 40
12.0
 40
12.0
 40
13.0
 40
13.0
 40
13.0
 40
14.0
 40
14.0
 40
14.0
 40
15.0
 40
15.0
 40
15.0
 40
16.0
 40
16.0
 40
16.0
 40
17.0
 40
17.0
 40
17.0
 40
18.0
 40
18.0
 40
18.0
 40
19.0
 40
19.0
 40
19.0
 40
20.0
 40
20.0
 40
20.0
 40
21.0
 40
21.0
 40
21.0
 40
22.0
 40
22.0
 40
22.0
 40
23.0
 40
23.0
 40
23.0
 40
24.0
 40
24.0
 40
24.0
 40
25.0
 40
25.0
 40
25.0
 40
26.0
 40
26.0
 40
26.0
 40
27.0
 40
27.0
 40
27.0
 40
28.0
 40
28.0
 40
28.0
 40
29.0
 40
29.0
 40
29.0
 40
30.0
 40
30.0
 40
30.0
 40
31.0
 40
31.0
 40
31.0
 40
32.0
 40
32.0
 40
32.0
 40
33.0
 40
33.0
 40
33.0
 40
34.0
 40
34.0
 40
34.0
 40
35.0
 40
35.0
 40
35.0
 40
36.0
 40
36.0
 40
36.0
 40
37.0
 40
37.0
 40
37.0
 40
38.0
 40
38.0
 40
38.0
 40
39.0
 40
39.0
 40
39.0
 40
40.0
 40
40.0
 40
40.0
 40
41.0
 40
41.0
 40
41.0
 40
42.0
 40
42.0
 40
42.0
 40
43.0
 40
43.0
 40
43.0
 40
44.0
 40
44.0
 40
44.0
 40
45.0
 40
45.0
 40
45.0
 40
46.0
 40
46.0
 40
46.0
 40
47.0
 40
47.0
 40
47.0
 40
48.0
 40
48.0
 40
48.0
 40
49.0
 40
49.0
 40
49.0
 40
50.0
 40
50.0
 40
50.0
 40
51.0
 40
51.0
 40
51.0
 40
52.0
 40
52.0
 40
52.0
 40
53.0
 40
53.0
 40
53.0
 40
54.0
 40
54.0
 40
54.0
 40
55.0
 40
55.0
 40
55.0
 40
56.0
 40
56.0
 40
56.0
 40
57.0
 40
57.0
 40
57.0
 40
58.0
 40
58.0
 40
58.0
 40
59.0
 40
59.0
 40
59.0
 40
60.0
 40
60.0
 40
60.0
 40
61.0
 40
61.0
 40
61.0
 40
62.0
 40
62.0
 40
62.0
 40
63.0
 40
63.0
 40
63.0
 40
64.0
 40
64.0
 40
64.0
 40
65.0
 40
65.0
 40
65.0
 40
66.0
 40
66.0
 40
66.0
 40
67.0
 40
67.0
 40
67.0
 40
68.0
 40
68.0
 40
68.0
 40
69.0
 40
69.0
 40
69.0
 40
70.0
 40
70.0
 40
70.0
 40
71.0
 40
71.0
 40
71.0
 40
72.0
 40
72.0
 40
72.0
 40
73.0
 40
73.0
 40
73.0
 40
74.0
 40
74.0
 40
74.0
 40
75.0
 40
75.0
 40
75.0
 40
76.0
 40
76.0
 40
76.0
 40
77.0
 40
77.0
 40
77.0
 40
78.0
 40
78.0
 40
78.0
 40
79.0
 40
79.0
 40
79.0
 40
79.0
 10
125.635053136994
 20
-151.9724636121805
 30
0.0
 10
125.635053136994
 20
-151.9724636121805
 30
0.0
 10
125.3811495997311
 20
-151.9724636121805
 30
0.0
 10
125.3811495997311
 20
-151.9724636121805
 30
0.0
 10
125.3811495997311
 20
-151.9724636121805
 30
0.0
 10
125.1038194131685
 20
-151.9724636121805
 30
0.0
 10
125.1038194131685
 20
-151.9724636121805
 30
0.0
 10
125.1038194131685
 20
-151.9724636121805
 30
0.0
 10
125.2309434365742
 20
-152.0148382866491
 30
0.0
 10
125.2309434365742
 20
-152.0148382866491
 30
0.0
 10
125.2416232325785
 20
-152.0189724012313
 30
0.0
 10
125.2540255763254
 20
-152.0255180826533
 30
0.0
 10
125.2540255763254
 20
-152.0382649359488
 30
0.0
 10
125.2540255763254
 20
-152.0592800184088
 30
0.0
 10
125.2223306978611
 20
-152.0654811902822
 30
0.0
 10
125.201315615401
 20
-152.069959814413
 30
0.0
 10
125.1906358193968
 20
-152.0930419541642
 30
0.0
 10
125.1610079982236
 20
-152.1588432779325
 30
0.0
 10
125.1420599730547
 20
-152.2032850096922
 30
0.0
 10
125.1420599730547
 20
-152.2032850096922
 30
0.0
 10
125.4128444781954
 20
-152.2032850096922
 30
0.0
 10
125.4128444781954
 20
-152.2032850096922
 30
0.0
 10
125.503794999006
 20
-152.2032850096922
 30
0.0
 10
125.7005099512137
 20
-152.1988063855614
 30
0.0
 10
125.8421033756575
 20
-152.1905381563968
 30
0.0
 10
125.8421033756575
 20
-152.1905381563968
 30
0.0
 10
125.8421033756575
 20
-152.3683050834357
 30
0.0
 10
125.8421033756575
 20
-152.3683050834357
 30
0.0
 10
125.75976559356
 20
-152.3638264593049
 30
0.0
 10
125.7387505111
 20
-152.3638264593049
 30
0.0
 10
125.55891652677
 20
-152.3596923447226
 30
0.0
 10
125.5272216483057
 20
-152.5140326224617
 30
0.0
 10
125.4827799165459
 20
-152.5946478568166
 30
0.0
 10
125.4383381847862
 20
-152.6642387856186
 30
0.0
 10
125.55891652677
 20
-152.723494427965
 30
0.0
 10
125.6646809581671
 20
-152.7913628090244
 30
0.0
 10
125.7683783322732
 20
-152.8737005911218
 30
0.0
 10
125.7683783322732
 20
-152.8737005911218
 30
0.0
 10
125.6498670475806
 20
-153.0407877221565
 30
0.0
 10
125.6498670475806
 20
-153.0407877221565
 30
0.0
 10
125.6264403982809
 20
-153.0218396969876
 30
0.0
 10
125.6136935449854
 20
-153.0132269582745
 30
0.0
 10
125.5017279417148
 20
-152.9288221188858
 30
0.0
 10
125.4531520953728
 20
-152.8905815589995
 30
0.0
 10
125.3938964530265
 20
-152.854752565953
 30
0.0
 10
125.3132812186717
 20
-152.8103108341932
 30
0.0
 10
125.1017523558773
 20
-152.9963459903967
 30
0.0
 10
124.896769174505
 20
-153.0197726396964
 30
0.0
 10
124.6066921346469
 20
-153.0494004608696
 30
0.0
 10
124.6066921346469
 20
-153.0494004608696
 30
0.0
 10
124.5029947605409
 20
-152.8695664765395
 30
0.0
 10
124.5029947605409
 20
-152.8695664765395
 30
0.0
 10
124.8206325642809
 20
-152.8654323619572
 30
0.0
 10
124.9959879244801
 20
-152.8399386553664
 30
0.0
 10
125.1482611449282
 20
-152.7300401093869
 30
0.0
 10
125.0297498602356
 20
-152.6790526962052
 30
0.0
 10
124.9412109062647
 20
-152.6514919323232
 30
0.0
 10
124.9050374036696
 20
-152.6390895885763
 30
0.0
 10
124.8860893785007
 20
-152.6663058429098
 30
0.0
 10
124.8712754679141
 20
-152.6855983776272
 30
0.0
 10
124.8437147040321
 20
-152.7193603133827
 30
0.0
 10
124.8437147040321
 20
-152.7193603133827
 30
0.0
 10
124.6469997518243
 20
-152.6366780217366
 30
0.0
 10
124.6469997518243
 20
-152.6366780217366
 30
0.0
 10
124.7296820434703
 20
-152.5564072969303
 30
0.0
 10
124.7910047431078
 20
-152.4613226615374
 30
0.0
 10
124.8478488186144
 20
-152.3596923447226
 30
0.0
 10
124.6576795478286
 20
-152.3638264593049
 30
0.0
 10
124.6363199558201
 20
-152.3638264593049
 30
0.0
 10
124.5539821737226
 20
-152.3683050834357
 30
0.0
 10
124.5539821737226
 20
-152.3683050834357
 30
0.0
 10
124.5539821737226
 20
-152.1905381563968
 30
0.0
 10
124.5539821737226
 20
-152.1905381563968
 30
0.0
 10
124.6935085408752
 20
-152.1967393282702
 30
0.0
 10
124.9029703463784
 20
-152.2008734428525
 30
0.0
 10
124.9284640529692
 20
-152.2008734428525
 30
0.0
 10
124.945345020847
 20
-152.1671115070971
 30
0.0
 10
125.000466548611
 20
-152.0465331651134
 30
0.0
 10
125.0194145737798
 20
-151.9724636121805
 30
0.0
 10
125.000466548611
 20
-151.9724636121805
 30
0.0
 10
124.8226996215721
 20
-151.9790092936025
 30
0.0
 10
124.6280517266555
 20
-151.9917561468979
 30
0.0
 10
124.6280517266555
 20
-151.9917561468979
 30
0.0
 10
124.6280517266555
 20
-152.1247368326285
 30
0.0
 10
124.6280517266555
 20
-152.1247368326285
 30
0.0
 10
124.5794758803134
 20
-152.1502305392194
 30
0.0
 10
124.5202202379671
 20
-152.1819254176837
 30
0.0
 10
124.386895042688
 20
-152.2477267414519
 30
0.0
 10
124.386895042688
 20
-152.2477267414519
 30
0.0
 10
124.386895042688
 20
-152.393454280478
 30
0.0
 10
124.386895042688
 20
-152.393454280478
 30
0.0
 10
124.386895042688
 20
-152.393454280478
 30
0.0
 10
124.386895042688
 20
-152.8609537378264
 30
0.0
 10
124.386895042688
 20
-152.8609537378264
 30
0.0
 10
124.386895042688
 20
-152.9880777612321
 30
0.0
 10
124.3507215400929
 20
-153.0473334035784
 30
0.0
 10
124.0671901816568
 20
-153.0387206648653
 30
0.0
 10
124.0671901816568
 20
-153.0387206648653
 30
0.0
 10
123.9638373170993
 20
-152.8313259166533
 30
0.0
 10
123.9638373170993
 20
-152.8313259166533
 30
0.0
 10
124.0272270740279
 20
-152.8440727699487
 30
0.0
 10
124.0758029203699
 20
-152.8485513940795
 30
0.0
 10
124.1161105375473
 20
-152.8485513940795
 30
0.0
 10
124.1922471477714
 20
-152.8485513940795
 30
0.0
 10
124.2025824342271
 20
-152.8251247447798
 30
0.0
 10
124.2025824342271
 20
-152.7596679305601
 30
0.0
 10
124.2025824342271
 20
-152.7596679305601
 30
0.0
 10
124.2025824342271
 20
-152.3300645235494
 30
0.0
 10
124.2025824342271
 20
-152.3300645235494
 30
0.0
 10
124.1054307415431
 20
-152.3703721407268
 30
0.0
 10
124.0885497736653
 20
-152.3765733126003
 30
0.0
 10
124.0420409846145
 20
-152.3955213377692
 30
0.0
 10
124.0379068700322
 20
-152.4168809297777
 30
0.0
 10
124.0334282459014
 20
-152.4465087509508
 30
0.0
 10
124.0144802207325
 20
-152.4465087509508
 30
0.0
 10
124.0058674820193
 20
-152.4465087509508
 30
0.0
 10
123.9955321955636
 20
-152.44203012682
 30
0.0
 10
123.9889865141416
 20
-152.4189479870689
 30
0.0
 10
123.9889865141416
 20
-152.4189479870689
 30
0.0
 10
123.9362765532173
 20
-152.2263671494434
 30
0.0
 10
123.9362765532173
 20
-152.2263671494434
 30
0.0
 10
124.0820040922434
 20
-152.1798583603925
 30
0.0
 10
124.1478054160116
 20
-152.1567762206414
 30
0.0
 10
124.2025824342271
 20
-152.1354166286328
 30
0.0
 10
124.2025824342271
 20
-152.1354166286328
 30
0.0
 10
124.2025824342271
 20
-151.7230386990484
 30
0.0
 10
124.2025824342271
 20
-151.7230386990484
 30
0.0
 10
124.2025824342271
 20
-151.7230386990484
 30
0.0
 10
124.1498724733028
 20
-151.7230386990484
 30
0.0
 10
124.1498724733028
 20
-151.7230386990484
 30
0.0
 10
124.1498724733028
 20
-151.7230386990484
 30
0.0
 10
124.0716688057876
 20
-151.7230386990484
 30
0.0
 10
124.0716688057876
 20
-151.7230386990484
 30
0.0
 10
124.0038004247282
 20
-151.7230386990484
 30
0.0
 10
123.9955321955636
 20
-151.7230386990484
 30
0.0
 10
123.9593586929685
 20
-151.7292398709219
 30
0.0
 10
123.9593586929685
 20
-151.7292398709219
 30
0.0
 10
123.9593586929685
 20
-151.5345919760052
 30
0.0
 10
123.9593586929685
 20
-151.5345919760052
 30
0.0
 10
123.9869194568505
 20
-151.5411376574272
 30
0.0
 10
123.9955321955636
 20
-151.5411376574272
 30
0.0
 10
124.0651231243656
 20
-151.5411376574272
 30
0.0
 10
124.0651231243656
 20
-151.5411376574272
 30
0.0
 10
124.1984483196448
 20
-151.5411376574272
 30
0.0
 10
124.1984483196448
 20
-151.5411376574272
 30
0.0
 10
124.1984483196448
 20
-151.4712022190766
 30
0.0
 10
124.1984483196448
 20
-151.3885199274306
 30
0.0
 10
124.1963812623537
 20
-151.3843858128483
 30
0.0
 10
124.1881130331891
 20
-151.2045518285183
 30
0.0
 10
124.1881130331891
 20
-151.1856038033494
 30
0.0
 10
124.1857014663494
 20
-151.1390950142985
 30
0.0
 10
124.1857014663494
 20
-151.1390950142985
 30
0.0
 10
124.4017089532746
 20
-151.1473632434631
 30
0.0
 10
124.4017089532746
 20
-151.1473632434631
 30
0.0
 10
124.4120442397303
 20
-151.1473632434631
 30
0.0
 10
124.4334038317388
 20
-151.1497748103028
 30
0.0
 10
124.4334038317388
 20
-151.1666557781806
 30
0.0
 10
124.4334038317388
 20
-151.1856038033494
 30
0.0
 10
124.4185899211523
 20
-151.1962835993537
 30
0.0
 10
124.3930962145614
 20
-151.2152316245226
 30
0.0
 10
124.3930962145614
 20
-151.2658745281557
 30
0.0
 10
124.386895042688
 20
-151.4946288683763
 30
0.0
 10
124.3889620999791
 20
-151.5411376574272
 30
0.0
 10
124.5178086711275
 20
-151.5411376574272
 30
0.0
 10
124.5305555244229
 20
-151.5411376574272
 30
0.0
 10
124.6280517266555
 20
-151.5325249187141
 30
0.0
 10
124.6280517266555
 20
-151.5325249187141
 30
0.0
 10
124.6280517266555
 20
-151.7271728136307
 30
0.0
 10
124.6280517266555
 20
-151.7271728136307
 30
0.0
 10
124.5898111667692
 20
-151.7251057563395
 30
0.0
 10
124.5222872952583
 20
-151.7209716417573
 30
0.0
 10
124.386895042688
 20
-151.7230386990484
 30
0.0
 10
124.386895042688
 20
-151.7230386990484
 30
0.0
 10
124.386895042688
 20
-152.0613470756999
 30
0.0
 10
124.386895042688
 20
-152.0613470756999
 30
0.0
 10
124.4416720609034
 20
-152.0382649359488
 30
0.0
 10
124.5074733846717
 20
-152.0107041720667
 30
0.0
 10
124.5560492310137
 20
-151.9872775227671
 30
0.0
 10
124.5560492310137
 20
-151.9872775227671
 30
0.0
 10
124.5560492310137
 20
-151.8095105957282
 30
0.0
 10
124.5560492310137
 20
-151.8095105957282
 30
0.0
 10
124.670426401124
 20
-151.8222574490236
 30
0.0
 10
124.7885931762681
 20
-151.8222574490236
 30
0.0
 10
124.9050374036696
 20
-151.8222574490236
 30
0.0
 10
124.8819552639184
 20
-151.7271728136307
 30
0.0
 10
124.8543945000364
 20
-151.6444905219847
 30
0.0
 10
124.7910047431078
 20
-151.511509836254
 30
0.0
 10
124.7465630113481
 20
-151.5135768935452
 30
0.0
 10
124.6638807197021
 20
-151.5177110081275
 30
0.0
 10
124.6259846693643
 20
-151.5197780654187
 30
0.0
 10
124.6259846693643
 20
-151.5197780654187
 30
0.0
 10
124.6259846693643
 20
-151.3399440810886
 30
0.0
 10
124.6259846693643
 20
-151.3399440810886
 30
0.0
 10
124.7506971259304
 20
-151.3485568198017
 30
0.0
 10
124.9239854288384
 20
-151.352690934384
 30
0.0
 10
125.0066677204844
 20
-151.352690934384
 30
0.0
 10
125.0066677204844
 20
-151.352690934384
 30
0.0
 10
125.0890055025819
 20
-151.352690934384
 30
0.0
 10
125.0890055025819
 20
-151.352690934384
 30
0.0
 10
125.0890055025819
 20
-151.1897379179317
 30
0.0
 10
125.0890055025819
 20
-151.179402631476
 30
0.0
 10
125.0869384452907
 20
-151.124281103712
 30
0.0
 10
125.0869384452907
 20
-151.124281103712
 30
0.0
 10
125.3112141613805
 20
-151.1497748103028
 30
0.0
 10
125.3112141613805
 20
-151.1497748103028
 30
0.0
 10
125.3153482759628
 20
-151.1497748103028
 30
0.0
 10
125.3367078679714
 20
-151.151841867594
 30
0.0
 10
125.3367078679714
 20
-151.1687228354717
 30
0.0
 10
125.3367078679714
 20
-151.1835367460583
 30
0.0
 10
125.3260280719671
 20
-151.1918049752229
 30
0.0
 10
125.2984673080851
 20
-151.2066188858094
 30
0.0
 10
125.2922661362116
 20
-151.2724202095777
 30
0.0
 10
125.2901990789205
 20
-151.2934352920377
 30
0.0
 10
125.2901990789205
 20
-151.352690934384
 30
0.0
 10
125.2901990789205
 20
-151.352690934384
 30
0.0
 10
125.3852837143134
 20
-151.352690934384
 30
0.0
 10
125.3852837143134
 20
-151.352690934384
 30
0.0
 10
125.4679660059594
 20
-151.352690934384
 30
0.0
 10
125.6412543088675
 20
-151.3485568198017
 30
0.0
 10
125.7659667654335
 20
-151.3399440810886
 30
0.0
 10
125.7659667654335
 20
-151.3399440810886
 30
0.0
 10
125.7659667654335
 20
-151.5197780654187
 30
0.0
 10
125.7659667654335
 20
-151.5197780654187
 30
0.0
 10
125.7363389442603
 20
-151.5177110081275
 30
0.0
 10
125.6181721691163
 20
-151.5135768935452
 30
0.0
 10
125.5778645519388
 20
-151.511509836254
 30
0.0
 10
125.5630506413523
 20
-151.5621527398872
 30
0.0
 10
125.5292887055968
 20
-151.6741183431578
 30
0.0
 10
125.4634873818286
 20
-151.813989219859
 30
0.0
 10
125.5058620562971
 20
-151.813989219859
 30
0.0
 10
125.7831922428597
 20
-151.7946966851416
 30
0.0
 10
125.8445149424972
 20
-151.7926296278504
 30
0.0
 10
125.8445149424972
 20
-151.7926296278504
 30
0.0
 10
125.8445149424972
 20
-151.9769422363113
 30
0.0
 10
125.8445149424972
 20
-151.9769422363113
 30
0.0
 10
125.814887121324
 20
-151.9769422363113
 30
0.0
 10
125.7980061534463
 20
-151.9724636121805
 30
0.0
 10
125.635053136994
 20
-151.9724636121805
 30
0.0
  0
HATCH
  5
150
330
149
100
AcDbEntity
  8
レイヤー 1
 62
    18
420
        0
440
 33554687
100
AcDbHatch
 10
0.0
 20
0.0
 30
0.0
210
0.0
220
0.0
230
1.0
  2
SOLID
 70
     1
 71
     1
 91
        3
 92
        1
 93
        1
 72
     4
 94
        3
 73
     0
 74
     0
 95
       17
 96
       13
 40
0.0
 40
0.0
 40
0.0
 40
0.0
 40
1.0
 40
1.0
 40
1.0
 40
2.0
 40
2.0
 40
2.0
 40
3.0
 40
3.0
 40
3.0
 40
4.0
 40
4.0
 40
4.0
 40
4.0
 10
125.070057477413
 20
-152.3576252874314
 10
125.0531765095353
 20
-152.3872531086046
 10
125.0025336059021
 20
-152.4802706867063
 10
124.9918538098979
 20
-152.4992187118752
 10
125.1823675902322
 20
-152.5584743542215
 10
125.2033826726922
 20
-152.5650200356434
 10
125.2753851683339
 20
-152.5922362899769
 10
125.3301621865494
 20
-152.5057643932971
 10
125.3535888358491
 20
-152.4316948403643
 10
125.3684027464357
 20
-152.3576252874314
 10
125.3684027464357
 20
-152.3576252874314
 10
125.070057477413
 20
-152.3576252874314
 10
125.070057477413
 20
-152.3576252874314
 97
        0
 97
        1
330
14D
 92
        1
 93
        1
 72
     4
 94
        3
 73
     0
 74
     0
 95
       20
 96
       16
 40
0.0
 40
0.0
 40
0.0
 40
0.0
 40
1.0
 40
1.0
 40
1.0
 40
2.0
 40
2.0
 40
2.0
 40
3.0
 40
3.0
 40
3.0
 40
4.0
 40
4.0
 40
4.0
 40
5.0
 40
5.0
 40
5.0
 40
5.0
 10
125.0066677204844
 20
-151.5070312121232
 10
125.0066677204844
 20
-151.5070312121232
 10
124.9749728420201
 20
-151.5070312121232
 10
124.9749728420201
 20
-151.5070312121232
 10
125.021481631071
 20
-151.6065944716469
 10
125.0531765095353
 20
-151.6868651964533
 10
125.0869384452907
 20
-151.813989219859
 10
125.0869384452907
 20
-151.813989219859
 10
125.2943331935028
 20
-151.813989219859
 10
125.2943331935028
 20
-151.813989219859
 10
125.3260280719671
 20
-151.7209716417573
 10
125.3494547212668
 20
-151.6362222928201
 10
125.3725368610179
 20
-151.5070312121232
 10
125.3725368610179
 20
-151.5070312121232
 10
125.0066677204844
 20
-151.5070312121232
 10
125.0066677204844
 20
-151.5070312121232
 97
        0
 97
        1
330
14E
 92
        1
 93
        1
 72
     4
 94
        3
 73
     0
 74
     0
 95
      242
 96
      238
 40
0.0
 40
0.0
 40
0.0
 40
0.0
 40
1.0
 40
1.0
 40
1.0
 40
2.0
 40
2.0
 40
2.0
 40
3.0
 40
3.0
 40
3.0
 40
4.0
 40
4.0
 40
4.0
 40
5.0
 40
5.0
 40
5.0
 40
6.0
 40
6.0
 40
6.0
 40
7.0
 40
7.0
 40
7.0
 40
8.0
 40
8.0
 40
8.0
 40
9.0
 40
9.0
 40
9.0
 40
10.0
 40
10.0
 40
10.0
 40
11.0
 40
11.0
 40
11.0
 40
12.0
 40
12.0
 40
12.0
 40
13.0
 40
13.0
 40
13.0
 40
14.0
 40
14.0
 40
14.0
 40
15.0
 40
15.0
 40
15.0
 40
16.0
 40
16.0
 40
16.0
 40
17.0
 40
17.0
 40
17.0
 40
18.0
 40
18.0
 40
18.0
 40
19.0
 40
19.0
 40
19.0
 40
20.0
 40
20.0
 40
20.0
 40
21.0
 40
21.0
 40
21.0
 40
22.0
 40
22.0
 40
22.0
 40
23.0
 40
23.0
 40
23.0
 40
24.0
 40
24.0
 40
24.0
 40
25.0
 40
25.0
 40
25.0
 40
26.0
 40
26.0
 40
26.0
 40
27.0
 40
27.0
 40
27.0
 40
28.0
 40
28.0
 40
28.0
 40
29.0
 40
29.0
 40
29.0
 40
30.0
 40
30.0
 40
30.0
 40
31.0
 40
31.0
 40
31.0
 40
32.0
 40
32.0
 40
32.0
 40
33.0
 40
33.0
 40
33.0
 40
34.0
 40
34.0
 40
34.0
 40
35.0
 40
35.0
 40
35.0
 40
36.0
 40
36.0
 40
36.0
 40
37.0
 40
37.0
 40
37.0
 40
38.0
 40
38.0
 40
38.0
 40
39.0
 40
39.0
 40
39.0
 40
40.0
 40
40.0
 40
40.0
 40
41.0
 40
41.0
 40
41.0
 40
42.0
 40
42.0
 40
42.0
 40
43.0
 40
43.0
 40
43.0
 40
44.0
 40
44.0
 40
44.0
 40
45.0
 40
45.0
 40
45.0
 40
46.0
 40
46.0
 40
46.0
 40
47.0
 40
47.0
 40
47.0
 40
48.0
 40
48.0
 40
48.0
 40
49.0
 40
49.0
 40
49.0
 40
50.0
 40
50.0
 40
50.0
 40
51.0
 40
51.0
 40
51.0
 40
52.0
 40
52.0
 40
52.0
 40
53.0
 40
53.0
 40
53.0
 40
54.0
 40
54.0
 40
54.0
 40
55.0
 40
55.0
 40
55.0
 40
56.0
 40
56.0
 40
56.0
 40
57.0
 40
57.0
 40
57.0
 40
58.0
 40
58.0
 40
58.0
 40
59.0
 40
59.0
 40
59.0
 40
60.0
 40
60.0
 40
60.0
 40
61.0
 40
61.0
 40
61.0
 40
62.0
 40
62.0
 40
62.0
 40
63.0
 40
63.0
 40
63.0
 40
64.0
 40
64.0
 40
64.0
 40
65.0
 40
65.0
 40
65.0
 40
66.0
 40
66.0
 40
66.0
 40
67.0
 40
67.0
 40
67.0
 40
68.0
 40
68.0
 40
68.0
 40
69.0
 40
69.0
 40
69.0
 40
70.0
 40
70.0
 40
70.0
 40
71.0
 40
71.0
 40
71.0
 40
72.0
 40
72.0
 40
72.0
 40
73.0
 40
73.0
 40
73.0
 40
74.0
 40
74.0
 40
74.0
 40
75.0
 40
75.0
 40
75.0
 40
76.0
 40
76.0
 40
76.0
 40
77.0
 40
77.0
 40
77.0
 40
78.0
 40
78.0
 40
78.0
 40
79.0
 40
79.0
 40
79.0
 40
79.0
 10
125.635053136994
 20
-151.9724636121805
 10
125.635053136994
 20
-151.9724636121805
 10
125.3811495997311
 20
-151.9724636121805
 10
125.3811495997311
 20
-151.9724636121805
 10
125.3811495997311
 20
-151.9724636121805
 10
125.1038194131685
 20
-151.9724636121805
 10
125.1038194131685
 20
-151.9724636121805
 10
125.1038194131685
 20
-151.9724636121805
 10
125.2309434365742
 20
-152.0148382866491
 10
125.2309434365742
 20
-152.0148382866491
 10
125.2416232325785
 20
-152.0189724012313
 10
125.2540255763254
 20
-152.0255180826533
 10
125.2540255763254
 20
-152.0382649359488
 10
125.2540255763254
 20
-152.0592800184088
 10
125.2223306978611
 20
-152.0654811902822
 10
125.201315615401
 20
-152.069959814413
 10
125.1906358193968
 20
-152.0930419541642
 10
125.1610079982236
 20
-152.1588432779325
 10
125.1420599730547
 20
-152.2032850096922
 10
125.1420599730547
 20
-152.2032850096922
 10
125.4128444781954
 20
-152.2032850096922
 10
125.4128444781954
 20
-152.2032850096922
 10
125.503794999006
 20
-152.2032850096922
 10
125.7005099512137
 20
-152.1988063855614
 10
125.8421033756575
 20
-152.1905381563968
 10
125.8421033756575
 20
-152.1905381563968
 10
125.8421033756575
 20
-152.3683050834357
 10
125.8421033756575
 20
-152.3683050834357
 10
125.75976559356
 20
-152.3638264593049
 10
125.7387505111
 20
-152.3638264593049
 10
125.55891652677
 20
-152.3596923447226
 10
125.5272216483057
 20
-152.5140326224617
 10
125.4827799165459
 20
-152.5946478568166
 10
125.4383381847862
 20
-152.6642387856186
 10
125.55891652677
 20
-152.723494427965
 10
125.6646809581671
 20
-152.7913628090244
 10
125.7683783322732
 20
-152.8737005911218
 10
125.7683783322732
 20
-152.8737005911218
 10
125.6498670475806
 20
-153.0407877221565
 10
125.6498670475806
 20
-153.0407877221565
 10
125.6264403982809
 20
-153.0218396969876
 10
125.6136935449854
 20
-153.0132269582745
 10
125.5017279417148
 20
-152.9288221188858
 10
125.4531520953728
 20
-152.8905815589995
 10
125.3938964530265
 20
-152.854752565953
 10
125.3132812186717
 20
-152.8103108341932
 10
125.1017523558773
 20
-152.9963459903967
 10
124.896769174505
 20
-153.0197726396964
 10
124.6066921346469
 20
-153.0494004608696
 10
124.6066921346469
 20
-153.0494004608696
 10
124.5029947605409
 20
-152.8695664765395
 10
124.5029947605409
 20
-152.8695664765395
 10
124.8206325642809
 20
-152.8654323619572
 10
124.9959879244801
 20
-152.8399386553664
 10
125.1482611449282
 20
-152.7300401093869
 10
125.0297498602356
 20
-152.6790526962052
 10
124.9412109062647
 20
-152.6514919323232
 10
124.9050374036696
 20
-152.6390895885763
 10
124.8860893785007
 20
-152.6663058429098
 10
124.8712754679141
 20
-152.6855983776272
 10
124.8437147040321
 20
-152.7193603133827
 10
124.8437147040321
 20
-152.7193603133827
 10
124.6469997518243
 20
-152.6366780217366
 10
124.6469997518243
 20
-152.6366780217366
 10
124.7296820434703
 20
-152.5564072969303
 10
124.7910047431078
 20
-152.4613226615374
 10
124.8478488186144
 20
-152.3596923447226
 10
124.6576795478286
 20
-152.3638264593049
 10
124.6363199558201
 20
-152.3638264593049
 10
124.5539821737226
 20
-152.3683050834357
 10
124.5539821737226
 20
-152.3683050834357
 10
124.5539821737226
 20
-152.1905381563968
 10
124.5539821737226
 20
-152.1905381563968
 10
124.6935085408752
 20
-152.1967393282702
 10
124.9029703463784
 20
-152.2008734428525
 10
124.9284640529692
 20
-152.2008734428525
 10
124.945345020847
 20
-152.1671115070971
 10
125.000466548611
 20
-152.0465331651134
 10
125.0194145737798
 20
-151.9724636121805
 10
125.000466548611
 20
-151.9724636121805
 10
124.8226996215721
 20
-151.9790092936025
 10
124.6280517266555
 20
-151.9917561468979
 10
124.6280517266555
 20
-151.9917561468979
 10
124.6280517266555
 20
-152.1247368326285
 10
124.6280517266555
 20
-152.1247368326285
 10
124.5794758803134
 20
-152.1502305392194
 10
124.5202202379671
 20
-152.1819254176837
 10
124.386895042688
 20
-152.2477267414519
 10
124.386895042688
 20
-152.2477267414519
 10
124.386895042688
 20
-152.393454280478
 10
124.386895042688
 20
-152.393454280478
 10
124.386895042688
 20
-152.393454280478
 10
124.386895042688
 20
-152.8609537378264
 10
124.386895042688
 20
-152.8609537378264
 10
124.386895042688
 20
-152.9880777612321
 10
124.3507215400929
 20
-153.0473334035784
 10
124.0671901816568
 20
-153.0387206648653
 10
124.0671901816568
 20
-153.0387206648653
 10
123.9638373170993
 20
-152.8313259166533
 10
123.9638373170993
 20
-152.8313259166533
 10
124.0272270740279
 20
-152.8440727699487
 10
124.0758029203699
 20
-152.8485513940795
 10
124.1161105375473
 20
-152.8485513940795
 10
124.1922471477714
 20
-152.8485513940795
 10
124.2025824342271
 20
-152.8251247447798
 10
124.2025824342271
 20
-152.7596679305601
 10
124.2025824342271
 20
-152.7596679305601
 10
124.2025824342271
 20
-152.3300645235494
 10
124.2025824342271
 20
-152.3300645235494
 10
124.1054307415431
 20
-152.3703721407268
 10
124.0885497736653
 20
-152.3765733126003
 10
124.0420409846145
 20
-152.3955213377692
 10
124.0379068700322
 20
-152.4168809297777
 10
124.0334282459014
 20
-152.4465087509508
 10
124.0144802207325
 20
-152.4465087509508
 10
124.0058674820193
 20
-152.4465087509508
 10
123.9955321955636
 20
-152.44203012682
 10
123.9889865141416
 20
-152.4189479870689
 10
123.9889865141416
 20
-152.4189479870689
 10
123.9362765532173
 20
-152.2263671494434
 10
123.9362765532173
 20
-152.2263671494434
 10
124.0820040922434
 20
-152.1798583603925
 10
124.1478054160116
 20
-152.1567762206414
 10
124.2025824342271
 20
-152.1354166286328
 10
124.2025824342271
 20
-152.1354166286328
 10
124.2025824342271
 20
-151.7230386990484
 10
124.2025824342271
 20
-151.7230386990484
 10
124.2025824342271
 20
-151.7230386990484
 10
124.1498724733028
 20
-151.7230386990484
 10
124.1498724733028
 20
-151.7230386990484
 10
124.1498724733028
 20
-151.7230386990484
 10
124.0716688057876
 20
-151.7230386990484
 10
124.0716688057876
 20
-151.7230386990484
 10
124.0038004247282
 20
-151.7230386990484
 10
123.9955321955636
 20
-151.7230386990484
 10
123.9593586929685
 20
-151.7292398709219
 10
123.9593586929685
 20
-151.7292398709219
 10
123.9593586929685
 20
-151.5345919760052
 10
123.9593586929685
 20
-151.5345919760052
 10
123.9869194568505
 20
-151.5411376574272
 10
123.9955321955636
 20
-151.5411376574272
 10
124.0651231243656
 20
-151.5411376574272
 10
124.0651231243656
 20
-151.5411376574272
 10
124.1984483196448
 20
-151.5411376574272
 10
124.1984483196448
 20
-151.5411376574272
 10
124.1984483196448
 20
-151.4712022190766
 10
124.1984483196448
 20
-151.3885199274306
 10
124.1963812623537
 20
-151.3843858128483
 10
124.1881130331891
 20
-151.2045518285183
 10
124.1881130331891
 20
-151.1856038033494
 10
124.1857014663494
 20
-151.1390950142985
 10
124.1857014663494
 20
-151.1390950142985
 10
124.4017089532746
 20
-151.1473632434631
 10
124.4017089532746
 20
-151.1473632434631
 10
124.4120442397303
 20
-151.1473632434631
 10
124.4334038317388
 20
-151.1497748103028
 10
124.4334038317388
 20
-151.1666557781806
 10
124.4334038317388
 20
-151.1856038033494
 10
124.4185899211523
 20
-151.1962835993537
 10
124.3930962145614
 20
-151.2152316245226
 10
124.3930962145614
 20
-151.2658745281557
 10
124.386895042688
 20
-151.4946288683763
 10
124.3889620999791
 20
-151.5411376574272
 10
124.5178086711275
 20
-151.5411376574272
 10
124.5305555244229
 20
-151.5411376574272
 10
124.6280517266555
 20
-151.5325249187141
 10
124.6280517266555
 20
-151.5325249187141
 10
124.6280517266555
 20
-151.7271728136307
 10
124.6280517266555
 20
-151.7271728136307
 10
124.5898111667692
 20
-151.7251057563395
 10
124.5222872952583
 20
-151.7209716417573
 10
124.386895042688
 20
-151.7230386990484
 10
124.386895042688
 20
-151.7230386990484
 10
124.386895042688
 20
-152.0613470756999
 10
124.386895042688
 20
-152.0613470756999
 10
124.4416720609034
 20
-152.0382649359488
 10
124.5074733846717
 20
-152.0107041720667
 10
124.5560492310137
 20
-151.9872775227671
 10
124.5560492310137
 20
-151.9872775227671
 10
124.5560492310137
 20
-151.8095105957282
 10
124.5560492310137
 20
-151.8095105957282
 10
124.670426401124
 20
-151.8222574490236
 10
124.7885931762681
 20
-151.8222574490236
 10
124.9050374036696
 20
-151.8222574490236
 10
124.8819552639184
 20
-151.7271728136307
 10
124.8543945000364
 20
-151.6444905219847
 10
124.7910047431078
 20
-151.511509836254
 10
124.7465630113481
 20
-151.5135768935452
 10
124.6638807197021
 20
-151.5177110081275
 10
124.6259846693643
 20
-151.5197780654187
 10
124.6259846693643
 20
-151.5197780654187
 10
124.6259846693643
 20
-151.3399440810886
 10
124.6259846693643
 20
-151.3399440810886
 10
124.7506971259304
 20
-151.3485568198017
 10
124.9239854288384
 20
-151.352690934384
 10
125.0066677204844
 20
-151.352690934384
 10
125.0066677204844
 20
-151.352690934384
 10
125.0890055025819
 20
-151.352690934384
 10
125.0890055025819
 20
-151.352690934384
 10
125.0890055025819
 20
-151.1897379179317
 10
125.0890055025819
 20
-151.179402631476
 10
125.0869384452907
 20
-151.124281103712
 10
125.0869384452907
 20
-151.124281103712
 10
125.3112141613805
 20
-151.1497748103028
 10
125.3112141613805
 20
-151.1497748103028
 10
125.3153482759628
 20
-151.1497748103028
 10
125.3367078679714
 20
-151.151841867594
 10
125.3367078679714
 20
-151.1687228354717
 10
125.3367078679714
 20
-151.1835367460583
 10
125.3260280719671
 20
-151.1918049752229
 10
125.2984673080851
 20
-151.2066188858094
 10
125.2922661362116
 20
-151.2724202095777
 10
125.2901990789205
 20
-151.2934352920377
 10
125.2901990789205
 20
-151.352690934384
 10
125.2901990789205
 20
-151.352690934384
 10
125.3852837143134
 20
-151.352690934384
 10
125.3852837143134
 20
-151.352690934384
 10
125.4679660059594
 20
-151.352690934384
 10
125.6412543088675
 20
-151.3485568198017
 10
125.7659667654335
 20
-151.3399440810886
 10
125.7659667654335
 20
-151.3399440810886
 10
125.7659667654335
 20
-151.5197780654187
 10
125.7659667654335
 20
-151.5197780654187
 10
125.7363389442603
 20
-151.5177110081275
 10
125.6181721691163
 20
-151.5135768935452
 10
125.5778645519388
 20
-151.511509836254
 10
125.5630506413523
 20
-151.5621527398872
 10
125.5292887055968
 20
-151.6741183431578
 10
125.4634873818286
 20
-151.813989219859
 10
125.5058620562971
 20
-151.813989219859
 10
125.7831922428597
 20
-151.7946966851416
 10
125.8445149424972
 20
-151.7926296278504
 10
125.8445149424972
 20
-151.7926296278504
 10
125.8445149424972
 20
-151.9769422363113
 10
125.8445149424972
 20
-151.9769422363113
 10
125.814887121324
 20
-151.9769422363113
 10
125.7980061534463
 20
-151.9724636121805
 10
125.635053136994
 20
-151.9724636121805
 97
        0
 97
        1
330
14F
 75
     2
 76
     1
 98
        1
 10
0.0
 20
0.0
450
        0
451
        0
460
0.0
461
0.0
452
        0
462
0.0
453
        0
470

  0
SPLINE
  5
151
330
149
100
AcDbEntity
  8
レイヤー 1
100
AcDbSpline
210
0.0
220
0.0
230
1.0
 70
    11
 71
     3
 72
    17
 73
    13
 74
     0
 42
0.0000000001
 43
0.0000000001
 40
0.0
 40
0.0
 40
0.0
 40
0.0
 40
1.0
 40
1.0
 40
1.0
 40
2.0
 40
2.0
 40
2.0
 40
3.0
 40
3.0
 40
3.0
 40
4.0
 40
4.0
 40
4.0
 40
4.0
 10
127.4912705844466
 20
-152.772070274307
 30
0.0
 10
127.4912705844466
 20
-152.772070274307
 30
0.0
 10
126.7846815004219
 20
-152.772070274307
 30
0.0
 10
126.7846815004219
 20
-152.772070274307
 30
0.0
 10
126.7846815004219
 20
-152.772070274307
 30
0.0
 10
126.7846815004219
 20
-152.8864474444173
 30
0.0
 10
126.7846815004219
 20
-152.8864474444173
 30
0.0
 10
126.7846815004219
 20
-152.8864474444173
 30
0.0
 10
127.4912705844466
 20
-152.8864474444173
 30
0.0
 10
127.4912705844466
 20
-152.8864474444173
 30
0.0
 10
127.4912705844466
 20
-152.8864474444173
 30
0.0
 10
127.4912705844466
 20
-152.772070274307
 30
0.0
 10
127.4912705844466
 20
-152.772070274307
 30
0.0
  0
SPLINE
  5
152
330
149
100
AcDbEntity
  8
レイヤー 1
100
AcDbSpline
210
0.0
220
0.0
230
1.0
 70
    11
 71
     3
 72
    17
 73
    13
 74
     0
 42
0.0000000001
 43
0.0000000001
 40
0.0
 40
0.0
 40
0.0
 40
0.0
 40
1.0
 40
1.0
 40
1.0
 40
2.0
 40
2.0
 40
2.0
 40
3.0
 40
3.0
 40
3.0
 40
4.0
 40
4.0
 40
4.0
 40
4.0
 10
127.4912705844466
 20
-152.5288465330483
 30
0.0
 10
127.4912705844466
 20
-152.5288465330483
 30
0.0
 10
126.7846815004219
 20
-152.5288465330483
 30
0.0
 10
126.7846815004219
 20
-152.5288465330483
 30
0.0
 10
126.7846815004219
 20
-152.5288465330483
 30
0.0
 10
126.7846815004219
 20
-152.6432237031586
 30
0.0
 10
126.7846815004219
 20
-152.6432237031586
 30
0.0
 10
126.7846815004219
 20
-152.6432237031586
 30
0.0
 10
127.4912705844466
 20
-152.6432237031586
 30
0.0
 10
127.4912705844466
 20
-152.6432237031586
 30
0.0
 10
127.4912705844466
 20
-152.6432237031586
 30
0.0
 10
127.4912705844466
 20
-152.5288465330483
 30
0.0
 10
127.4912705844466
 20
-152.5288465330483
 30
0.0
  0
SPLINE
  5
153
330
149
100
AcDbEntity
  8
レイヤー 1
100
AcDbSpline
210
0.0
220
0.0
230
1.0
 70
    11
 71
     3
 72
    17
 73
    13
 74
     0
 42
0.0000000001
 43
0.0000000001
 40
0.0
 40
0.0
 40
0.0
 40
0.0
 40
1.0
 40
1.0
 40
1.0
 40
2.0
 40
2.0
 40
2.0
 40
3.0
 40
3.0
 40
3.0
 40
4.0
 40
4.0
 40
4.0
 40
4.0
 10
127.4912705844466
 20
-152.296302587794
 30
0.0
 10
127.4912705844466
 20
-152.296302587794
 30
0.0
 10
126.7846815004219
 20
-152.296302587794
 30
0.0
 10
126.7846815004219
 20
-152.296302587794
 30
0.0
 10
126.7846815004219
 20
-152.296302587794
 30
0.0
 10
126.7846815004219
 20
-152.4041340764823
 30
0.0
 10
126.7846815004219
 20
-152.4041340764823
 30
0.0
 10
126.7846815004219
 20
-152.4041340764823
 30
0.0
 10
127.4912705844466
 20
-152.4041340764823
 30
0.0
 10
127.4912705844466
 20
-152.4041340764823
 30
0.0
 10
127.4912705844466
 20
-152.4041340764823
 30
0.0
 10
127.4912705844466
 20
-152.296302587794
 30
0.0
 10
127.4912705844466
 20
-152.296302587794
 30
0.0
  0
SPLINE
  5
154
330
149
100
AcDbEntity
  8
レイヤー 1
100
AcDbSpline
210
0.0
220
0.0
230
1.0
 70
     9
 71
     3
 72
   203
 73
   199
 74
     0
 42
0.0000000001
 43
0.0000000001
 40
0.0
 40
0.0
 40
0.0
 40
0.0
 40
1.0
 40
1.0
 40
1.0
 40
2.0
 40
2.0
 40
2.0
 40
3.0
 40
3.0
 40
3.0
 40
4.0
 40
4.0
 40
4.0
 40
5.0
 40
5.0
 40
5.0
 40
6.0
 40
6.0
 40
6.0
 40
7.0
 40
7.0
 40
7.0
 40
8.0
 40
8.0
 40
8.0
 40
9.0
 40
9.0
 40
9.0
 40
10.0
 40
10.0
 40
10.0
 40
11.0
 40
11.0
 40
11.0
 40
12.0
 40
12.0
 40
12.0
 40
13.0
 40
13.0
 40
13.0
 40
14.0
 40
14.0
 40
14.0
 40
15.0
 40
15.0
 40
15.0
 40
16.0
 40
16.0
 40
16.0
 40
17.0
 40
17.0
 40
17.0
 40
18.0
 40
18.0
 40
18.0
 40
19.0
 40
19.0
 40
19.0
 40
20.0
 40
20.0
 40
20.0
 40
21.0
 40
21.0
 40
21.0
 40
22.0
 40
22.0
 40
22.0
 40
23.0
 40
23.0
 40
23.0
 40
24.0
 40
24.0
 40
24.0
 40
25.0
 40
25.0
 40
25.0
 40
26.0
 40
26.0
 40
26.0
 40
27.0
 40
27.0
 40
27.0
 40
28.0
 40
28.0
 40
28.0
 40
29.0
 40
29.0
 40
29.0
 40
30.0
 40
30.0
 40
30.0
 40
31.0
 40
31.0
 40
31.0
 40
32.0
 40
32.0
 40
32.0
 40
33.0
 40
33.0
 40
33.0
 40
34.0
 40
34.0
 40
34.0
 40
35.0
 40
35.0
 40
35.0
 40
36.0
 40
36.0
 40
36.0
 40
37.0
 40
37.0
 40
37.0
 40
38.0
 40
38.0
 40
38.0
 40
39.0
 40
39.0
 40
39.0
 40
40.0
 40
40.0
 40
40.0
 40
41.0
 40
41.0
 40
41.0
 40
42.0
 40
42.0
 40
42.0
 40
43.0
 40
43.0
 40
43.0
 40
44.0
 40
44.0
 40
44.0
 40
45.0
 40
45.0
 40
45.0
 40
46.0
 40
46.0
 40
46.0
 40
47.0
 40
47.0
 40
47.0
 40
48.0
 40
48.0
 40
48.0
 40
49.0
 40
49.0
 40
49.0
 40
50.0
 40
50.0
 40
50.0
 40
51.0
 40
51.0
 40
51.0
 40
52.0
 40
52.0
 40
52.0
 40
53.0
 40
53.0
 40
53.0
 40
54.0
 40
54.0
 40
54.0
 40
55.0
 40
55.0
 40
55.0
 40
56.0
 40
56.0
 40
56.0
 40
57.0
 40
57.0
 40
57.0
 40
58.0
 40
58.0
 40
58.0
 40
59.0
 40
59.0
 40
59.0
 40
60.0
 40
60.0
 40
60.0
 40
61.0
 40
61.0
 40
61.0
 40
62.0
 40
62.0
 40
62.0
 40
63.0
 40
63.0
 40
63.0
 40
64.0
 40
64.0
 40
64.0
 40
65.0
 40
65.0
 40
65.0
 40
66.0
 40
66.0
 40
66.0
 40
66.0
 10
127.3262505107031
 20
-152.0403319932399
 30
0.0
 10
127.3262505107031
 20
-152.0403319932399
 30
0.0
 10
126.7678005325441
 20
-152.0403319932399
 30
0.0
 10
126.7678005325441
 20
-152.0403319932399
 30
0.0
 10
126.7574652460884
 20
-152.0847737249996
 30
0.0
 10
126.7488525073753
 20
-152.1164686034639
 30
0.0
 10
126.7361056540798
 20
-152.1543646538017
 30
0.0
 10
126.7615993606707
 20
-152.1543646538017
 30
0.0
 10
126.7764132712573
 20
-152.1567762206414
 30
0.0
 10
126.7826144431307
 20
-152.1567762206414
 30
0.0
 10
126.7826144431307
 20
-152.1567762206414
 30
0.0
 10
126.9710611661739
 20
-152.1567762206414
 30
0.0
 10
126.9710611661739
 20
-152.1567762206414
 30
0.0
 10
126.9710611661739
 20
-152.1567762206414
 30
0.0
 10
127.3455430454205
 20
-152.1567762206414
 30
0.0
 10
127.3455430454205
 20
-152.1567762206414
 30
0.0
 10
127.3961859490537
 20
-152.1567762206414
 30
0.0
 10
127.6797173074898
 20
-152.1440293673459
 30
0.0
 10
127.7114121859541
 20
-152.1440293673459
 30
0.0
 10
127.7093451286629
 20
-152.1712456216794
 30
0.0
 10
127.7072780713718
 20
-152.1905381563968
 30
0.0
 10
127.7072780713718
 20
-152.2201659775699
 30
0.0
 10
127.7052110140806
 20
-152.2518608560342
 30
0.0
 10
127.7052110140806
 20
-152.3872531086046
 30
0.0
 10
127.7052110140806
 20
-152.4148138724866
 30
0.0
 10
127.7052110140806
 20
-152.4148138724866
 30
0.0
 10
127.7052110140806
 20
-152.6601046710364
 30
0.0
 10
127.7052110140806
 20
-152.6601046710364
 30
0.0
 10
127.7052110140806
 20
-152.7045464027961
 30
0.0
 10
127.7093451286629
 20
-152.9012613550039
 30
0.0
 10
127.7134792432452
 20
-153.0535345754519
 30
0.0
 10
127.7134792432452
 20
-153.0535345754519
 30
0.0
 10
127.4871364698643
 20
-153.0535345754519
 30
0.0
 10
127.4871364698643
 20
-153.0535345754519
 30
0.0
 10
127.4871364698643
 20
-153.0535345754519
 30
0.0
 10
127.4892035271555
 20
-153.0197726396964
 30
0.0
 10
127.4892035271555
 20
-153.0197726396964
 30
0.0
 10
127.4892035271555
 20
-153.0197726396964
 30
0.0
 10
126.7870930672615
 20
-153.0197726396964
 30
0.0
 10
126.7870930672615
 20
-153.0197726396964
 30
0.0
 10
126.7870930672615
 20
-153.0197726396964
 30
0.0
 10
126.7891601245527
 20
-153.0535345754519
 30
0.0
 10
126.7891601245527
 20
-153.0535345754519
 30
0.0
 10
126.7891601245527
 20
-153.0535345754519
 30
0.0
 10
126.5710855803364
 20
-153.0535345754519
 30
0.0
 10
126.5710855803364
 20
-153.0535345754519
 30
0.0
 10
126.5755642044672
 20
-152.9984130476879
 30
0.0
 10
126.5755642044672
 20
-152.986010703941
 30
0.0
 10
126.5817653763406
 20
-152.8716335338307
 30
0.0
 10
126.5838324336318
 20
-152.8440727699487
 30
0.0
 10
126.585899490923
 20
-152.7107475746695
 30
0.0
 10
126.585899490923
 20
-152.6917995495006
 30
0.0
 10
126.585899490923
 20
-152.6917995495006
 30
0.0
 10
126.585899490923
 20
-152.4888834254194
 30
0.0
 10
126.585899490923
 20
-152.4888834254194
 30
0.0
 10
126.4463731237703
 20
-152.7383083385515
 30
0.0
 10
126.2772189354446
 20
-152.8695664765395
 30
0.0
 10
126.1714545040474
 20
-152.9350232907593
 30
0.0
 10
126.1714545040474
 20
-152.9350232907593
 30
0.0
 10
125.9978216915908
 20
-152.7954969236067
 30
0.0
 10
125.9978216915908
 20
-152.7954969236067
 30
0.0
 10
126.0867051551103
 20
-152.7448540199735
 30
0.0
 10
126.2307101463937
 20
-152.6580376137452
 30
0.0
 10
126.3681694562552
 20
-152.4633897188286
 30
0.0
 10
126.4591199770658
 20
-152.3362656954229
 30
0.0
 10
126.5245767912855
 20
-152.1926052136879
 30
0.0
 10
126.558338727041
 20
-152.0403319932399
 30
0.0
 10
126.3299288963689
 20
-152.042399050531
 30
0.0
 10
126.1500949120389
 20
-152.0486002224045
 30
0.0
 10
126.055010276646
 20
-152.0506672796956
 30
0.0
 10
126.055010276646
 20
-152.0506672796956
 30
0.0
 10
126.055010276646
 20
-151.8732448622053
 30
0.0
 10
126.055010276646
 20
-151.8732448622053
 30
0.0
 10
126.2517252288537
 20
-151.8794460340787
 30
0.0
 10
126.5352565872898
 20
-151.883580148661
 30
0.0
 10
126.6854627504467
 20
-151.883580148661
 30
0.0
 10
126.6854627504467
 20
-151.883580148661
 30
0.0
 10
126.8990586705322
 20
-151.883580148661
 30
0.0
 10
126.8990586705322
 20
-151.883580148661
 30
0.0
 10
126.8990586705322
 20
-151.883580148661
 30
0.0
 10
126.8990586705322
 20
-151.7757486599727
 30
0.0
 10
126.8990586705322
 20
-151.7757486599727
 30
0.0
 10
126.8990586705322
 20
-151.7757486599727
 30
0.0
 10
126.7529866219576
 20
-151.7757486599727
 30
0.0
 10
126.7529866219576
 20
-151.7757486599727
 30
0.0
 10
126.5838324336318
 20
-151.7757486599727
 30
0.0
 10
126.414678245306
 20
-151.779882774555
 30
0.0
 10
126.2475911142714
 20
-151.786428455977
 30
0.0
 10
126.2475911142714
 20
-151.786428455977
 30
0.0
 10
126.2475911142714
 20
-151.6152072103601
 30
0.0
 10
126.2475911142714
 20
-151.6152072103601
 30
0.0
 10
126.4019313920106
 20
-151.6255424968158
 30
0.0
 10
126.5879665482141
 20
-151.6255424968158
 30
0.0
 10
126.7529866219576
 20
-151.6255424968158
 30
0.0
 10
126.7529866219576
 20
-151.6255424968158
 30
0.0
 10
126.8990586705322
 20
-151.6255424968158
 30
0.0
 10
126.8990586705322
 20
-151.6255424968158
 30
0.0
 10
126.8990586705322
 20
-151.6255424968158
 30
0.0
 10
126.8990586705322
 20
-151.5070312121232
 30
0.0
 10
126.8990586705322
 20
-151.5070312121232
 30
0.0
 10
126.8990586705322
 20
-151.5070312121232
 30
0.0
 10
126.7678005325441
 20
-151.5070312121232
 30
0.0
 10
126.7678005325441
 20
-151.5070312121232
 30
0.0
 10
126.7212917434933
 20
-151.5070312121232
 30
0.0
 10
126.5183756194121
 20
-151.5156439508363
 30
0.0
 10
126.4760009449435
 20
-151.5156439508363
 30
0.0
 10
126.2727403113137
 20
-151.5197780654187
 30
0.0
 10
126.1966037010897
 20
-151.5218451227098
 30
0.0
 10
126.1184000335745
 20
-151.5239121800009
 30
0.0
 10
126.1184000335745
 20
-151.5239121800009
 30
0.0
 10
126.1184000335745
 20
-151.3399440810886
 30
0.0
 10
126.1184000335745
 20
-151.3399440810886
 30
0.0
 10
126.2327772036848
 20
-151.3485568198017
 30
0.0
 10
126.2772189354446
 20
-151.3485568198017
 30
0.0
 10
126.6599690438558
 20
-151.3568250489663
 30
0.0
 10
126.5965792869272
 20
-151.2617404135734
 30
0.0
 10
126.5690185230452
 20
-151.2341796496914
 30
0.0
 10
126.5331895299986
 20
-151.1983506566448
 30
0.0
 10
126.5331895299986
 20
-151.1983506566448
 30
0.0
 10
126.7085448901978
 20
-151.1156683649988
 30
0.0
 10
126.7085448901978
 20
-151.1156683649988
 30
0.0
 10
126.7488525073753
 20
-151.151841867594
 30
0.0
 10
126.793294239135
 20
-151.1942165420625
 30
0.0
 10
126.8673637920679
 20
-151.304115088042
 30
0.0
 10
126.8673637920679
 20
-151.304115088042
 30
0.0
 10
126.7529866219576
 20
-151.3588921062575
 30
0.0
 10
126.7529866219576
 20
-151.3588921062575
 30
0.0
 10
126.7529866219576
 20
-151.3588921062575
 30
0.0
 10
126.7636664179619
 20
-151.3588921062575
 30
0.0
 10
126.7636664179619
 20
-151.3588921062575
 30
0.0
 10
126.7636664179619
 20
-151.3588921062575
 30
0.0
 10
127.2862874030742
 20
-151.3588921062575
 30
0.0
 10
127.2862874030742
 20
-151.3588921062575
 30
0.0
 10
127.2862874030742
 20
-151.3588921062575
 30
0.0
 10
127.1908582581328
 20
-151.3147948840463
 30
0.0
 10
127.1908582581328
 20
-151.3147948840463
 30
0.0
 10
127.2184190220148
 20
-151.27655432416
 30
0.0
 10
127.27560760707
 20
-151.1962835993537
 30
0.0
 10
127.2904215176565
 20
-151.1222140464208
 30
0.0
 10
127.2904215176565
 20
-151.1222140464208
 30
0.0
 10
127.504017437742
 20
-151.1856038033494
 30
0.0
 10
127.504017437742
 20
-151.1856038033494
 30
0.0
 10
127.5126301764551
 20
-151.1876708606406
 30
0.0
 10
127.5336452589152
 20
-151.1983506566448
 30
0.0
 10
127.5336452589152
 20
-151.2193657391049
 30
0.0
 10
127.5336452589152
 20
-151.2576062989911
 30
0.0
 10
127.4681884446954
 20
-151.2576062989911
 30
0.0
 10
127.4492404195266
 20
-151.2576062989911
 30
0.0
 10
127.4385606235223
 20
-151.27655432416
 30
0.0
 10
127.4151339742226
 20
-151.3168619413374
 30
0.0
 10
127.3855061530494
 20
-151.3568250489663
 30
0.0
 10
127.7854817388869
 20
-151.3506238770929
 30
0.0
 10
127.8151095600601
 20
-151.3485568198017
 30
0.0
 10
127.8912461702841
 20
-151.3420111383797
 30
0.0
 10
127.8912461702841
 20
-151.3420111383797
 30
0.0
 10
127.8912461702841
 20
-151.5239121800009
 30
0.0
 10
127.8912461702841
 20
-151.5239121800009
 30
0.0
 10
127.8722981451152
 20
-151.5239121800009
 30
0.0
 10
127.8468044385244
 20
-151.5218451227098
 30
0.0
 10
127.6266628370169
 20
-151.5135768935452
 30
0.0
 10
127.5760199333838
 20
-151.511509836254
 30
0.0
 10
127.3558783318763
 20
-151.5070312121232
 30
0.0
 10
127.3114366001166
 20
-151.5070312121232
 30
0.0
 10
127.3114366001166
 20
-151.5070312121232
 30
0.0
 10
127.0957736227399
 20
-151.5070312121232
 30
0.0
 10
127.0957736227399
 20
-151.5070312121232
 30
0.0
 10
127.0957736227399
 20
-151.5070312121232
 30
0.0
 10
127.0957736227399
 20
-151.6255424968158
 30
0.0
 10
127.0957736227399
 20
-151.6255424968158
 30
0.0
 10
127.0957736227399
 20
-151.6255424968158
 30
0.0
 10
127.2694064351965
 20
-151.6255424968158
 30
0.0
 10
127.2694064351965
 20
-151.6255424968158
 30
0.0
 10
127.4320149421003
 20
-151.6255424968158
 30
0.0
 10
127.6225287224346
 20
-151.6255424968158
 30
0.0
 10
127.7792805670135
 20
-151.6152072103601
 30
0.0
 10
127.7792805670135
 20
-151.6152072103601
 30
0.0
 10
127.7792805670135
 20
-151.786428455977
 30
0.0
 10
127.7792805670135
 20
-151.786428455977
 30
0.0
 10
127.5698187615103
 20
-151.7778157172639
 30
0.0
 10
127.3731038093025
 20
-151.7757486599727
 30
0.0
 10
127.2694064351965
 20
-151.7757486599727
 30
0.0
 10
127.2694064351965
 20
-151.7757486599727
 30
0.0
 10
127.0957736227399
 20
-151.7757486599727
 30
0.0
 10
127.0957736227399
 20
-151.7757486599727
 30
0.0
 10
127.0957736227399
 20
-151.7757486599727
 30
0.0
 10
127.0957736227399
 20
-151.883580148661
 30
0.0
 10
127.0957736227399
 20
-151.883580148661
 30
0.0
 10
127.0957736227399
 20
-151.883580148661
 30
0.0
 10
127.3262505107031
 20
-151.883580148661
 30
0.0
 10
127.3262505107031
 20
-151.883580148661
 30
0.0
 10
127.4595757059823
 20
-151.883580148661
 30
0.0
 10
127.7472411790007
 20
-151.8794460340787
 30
0.0
 10
127.9567029845039
 20
-151.8732448622053
 30
0.0
 10
127.9567029845039
 20
-151.8732448622053
 30
0.0
 10
127.9567029845039
 20
-152.0506672796956
 30
0.0
 10
127.9567029845039
 20
-152.0506672796956
 30
0.0
 10
127.7644666564269
 20
-152.0444661078222
 30
0.0
 10
127.4513074768177
 20
-152.0403319932399
 30
0.0
 10
127.3262505107031
 20
-152.0403319932399
 30
0.0
  0
HATCH
  5
155
330
149
100
AcDbEntity
  8
レイヤー 1
 62
    18
420
        0
440
 33554687
100
AcDbHatch
 10
0.0
 20
0.0
 30
0.0
210
0.0
220
0.0
230
1.0
  2
SOLID
 70
     1
 71
     1
 91
        4
 92
        1
 93
        1
 72
     4
 94
        3
 73
     0
 74
     0
 95
       17
 96
       13
 40
0.0
 40
0.0
 40
0.0
 40
0.0
 40
1.0
 40
1.0
 40
1.0
 40
2.0
 40
2.0
 40
2.0
 40
3.0
 40
3.0
 40
3.0
 40
4.0
 40
4.0
 40
4.0
 40
4.0
 10
127.4912705844466
 20
-152.772070274307
 10
127.4912705844466
 20
-152.772070274307
 10
126.7846815004219
 20
-152.772070274307
 10
126.7846815004219
 20
-152.772070274307
 10
126.7846815004219
 20
-152.772070274307
 10
126.7846815004219
 20
-152.8864474444173
 10
126.7846815004219
 20
-152.8864474444173
 10
126.7846815004219
 20
-152.8864474444173
 10
127.4912705844466
 20
-152.8864474444173
 10
127.4912705844466
 20
-152.8864474444173
 10
127.4912705844466
 20
-152.8864474444173
 10
127.4912705844466
 20
-152.772070274307
 10
127.4912705844466
 20
-152.772070274307
 97
        0
 97
        1
330
151
 92
        1
 93
        1
 72
     4
 94
        3
 73
     0
 74
     0
 95
       17
 96
       13
 40
0.0
 40
0.0
 40
0.0
 40
0.0
 40
1.0
 40
1.0
 40
1.0
 40
2.0
 40
2.0
 40
2.0
 40
3.0
 40
3.0
 40
3.0
 40
4.0
 40
4.0
 40
4.0
 40
4.0
 10
127.4912705844466
 20
-152.5288465330483
 10
127.4912705844466
 20
-152.5288465330483
 10
126.7846815004219
 20
-152.5288465330483
 10
126.7846815004219
 20
-152.5288465330483
 10
126.7846815004219
 20
-152.5288465330483
 10
126.7846815004219
 20
-152.6432237031586
 10
126.7846815004219
 20
-152.6432237031586
 10
126.7846815004219
 20
-152.6432237031586
 10
127.4912705844466
 20
-152.6432237031586
 10
127.4912705844466
 20
-152.6432237031586
 10
127.4912705844466
 20
-152.6432237031586
 10
127.4912705844466
 20
-152.5288465330483
 10
127.4912705844466
 20
-152.5288465330483
 97
        0
 97
        1
330
152
 92
        1
 93
        1
 72
     4
 94
        3
 73
     0
 74
     0
 95
       17
 96
       13
 40
0.0
 40
0.0
 40
0.0
 40
0.0
 40
1.0
 40
1.0
 40
1.0
 40
2.0
 40
2.0
 40
2.0
 40
3.0
 40
3.0
 40
3.0
 40
4.0
 40
4.0
 40
4.0
 40
4.0
 10
127.4912705844466
 20
-152.296302587794
 10
127.4912705844466
 20
-152.296302587794
 10
126.7846815004219
 20
-152.296302587794
 10
126.7846815004219
 20
-152.296302587794
 10
126.7846815004219
 20
-152.296302587794
 10
126.7846815004219
 20
-152.4041340764823
 10
126.7846815004219
 20
-152.4041340764823
 10
126.7846815004219
 20
-152.4041340764823
 10
127.4912705844466
 20
-152.4041340764823
 10
127.4912705844466
 20
-152.4041340764823
 10
127.4912705844466
 20
-152.4041340764823
 10
127.4912705844466
 20
-152.296302587794
 10
127.4912705844466
 20
-152.296302587794
 97
        0
 97
        1
330
153
 92
        1
 93
        1
 72
     4
 94
        3
 73
     0
 74
     0
 95
      203
 96
      199
 40
0.0
 40
0.0
 40
0.0
 40
0.0
 40
1.0
 40
1.0
 40
1.0
 40
2.0
 40
2.0
 40
2.0
 40
3.0
 40
3.0
 40
3.0
 40
4.0
 40
4.0
 40
4.0
 40
5.0
 40
5.0
 40
5.0
 40
6.0
 40
6.0
 40
6.0
 40
7.0
 40
7.0
 40
7.0
 40
8.0
 40
8.0
 40
8.0
 40
9.0
 40
9.0
 40
9.0
 40
10.0
 40
10.0
 40
10.0
 40
11.0
 40
11.0
 40
11.0
 40
12.0
 40
12.0
 40
12.0
 40
13.0
 40
13.0
 40
13.0
 40
14.0
 40
14.0
 40
14.0
 40
15.0
 40
15.0
 40
15.0
 40
16.0
 40
16.0
 40
16.0
 40
17.0
 40
17.0
 40
17.0
 40
18.0
 40
18.0
 40
18.0
 40
19.0
 40
19.0
 40
19.0
 40
20.0
 40
20.0
 40
20.0
 40
21.0
 40
21.0
 40
21.0
 40
22.0
 40
22.0
 40
22.0
 40
23.0
 40
23.0
 40
23.0
 40
24.0
 40
24.0
 40
24.0
 40
25.0
 40
25.0
 40
25.0
 40
26.0
 40
26.0
 40
26.0
 40
27.0
 40
27.0
 40
27.0
 40
28.0
 40
28.0
 40
28.0
 40
29.0
 40
29.0
 40
29.0
 40
30.0
 40
30.0
 40
30.0
 40
31.0
 40
31.0
 40
31.0
 40
32.0
 40
32.0
 40
32.0
 40
33.0
 40
33.0
 40
33.0
 40
34.0
 40
34.0
 40
34.0
 40
35.0
 40
35.0
 40
35.0
 40
36.0
 40
36.0
 40
36.0
 40
37.0
 40
37.0
 40
37.0
 40
38.0
 40
38.0
 40
38.0
 40
39.0
 40
39.0
 40
39.0
 40
40.0
 40
40.0
 40
40.0
 40
41.0
 40
41.0
 40
41.0
 40
42.0
 40
42.0
 40
42.0
 40
43.0
 40
43.0
 40
43.0
 40
44.0
 40
44.0
 40
44.0
 40
45.0
 40
45.0
 40
45.0
 40
46.0
 40
46.0
 40
46.0
 40
47.0
 40
47.0
 40
47.0
 40
48.0
 40
48.0
 40
48.0
 40
49.0
 40
49.0
 40
49.0
 40
50.0
 40
50.0
 40
50.0
 40
51.0
 40
51.0
 40
51.0
 40
52.0
 40
52.0
 40
52.0
 40
53.0
 40
53.0
 40
53.0
 40
54.0
 40
54.0
 40
54.0
 40
55.0
 40
55.0
 40
55.0
 40
56.0
 40
56.0
 40
56.0
 40
57.0
 40
57.0
 40
57.0
 40
58.0
 40
58.0
 40
58.0
 40
59.0
 40
59.0
 40
59.0
 40
60.0
 40
60.0
 40
60.0
 40
61.0
 40
61.0
 40
61.0
 40
62.0
 40
62.0
 40
62.0
 40
63.0
 40
63.0
 40
63.0
 40
64.0
 40
64.0
 40
64.0
 40
65.0
 40
65.0
 40
65.0
 40
66.0
 40
66.0
 40
66.0
 40
66.0
 10
127.3262505107031
 20
-152.0403319932399
 10
127.3262505107031
 20
-152.0403319932399
 10
126.7678005325441
 20
-152.0403319932399
 10
126.7678005325441
 20
-152.0403319932399
 10
126.7574652460884
 20
-152.0847737249996
 10
126.7488525073753
 20
-152.1164686034639
 10
126.7361056540798
 20
-152.1543646538017
 10
126.7615993606707
 20
-152.1543646538017
 10
126.7764132712573
 20
-152.1567762206414
 10
126.7826144431307
 20
-152.1567762206414
 10
126.7826144431307
 20
-152.1567762206414
 10
126.9710611661739
 20
-152.1567762206414
 10
126.9710611661739
 20
-152.1567762206414
 10
126.9710611661739
 20
-152.1567762206414
 10
127.3455430454205
 20
-152.1567762206414
 10
127.3455430454205
 20
-152.1567762206414
 10
127.3961859490537
 20
-152.1567762206414
 10
127.6797173074898
 20
-152.1440293673459
 10
127.7114121859541
 20
-152.1440293673459
 10
127.7093451286629
 20
-152.1712456216794
 10
127.7072780713718
 20
-152.1905381563968
 10
127.7072780713718
 20
-152.2201659775699
 10
127.7052110140806
 20
-152.2518608560342
 10
127.7052110140806
 20
-152.3872531086046
 10
127.7052110140806
 20
-152.4148138724866
 10
127.7052110140806
 20
-152.4148138724866
 10
127.7052110140806
 20
-152.6601046710364
 10
127.7052110140806
 20
-152.6601046710364
 10
127.7052110140806
 20
-152.7045464027961
 10
127.7093451286629
 20
-152.9012613550039
 10
127.7134792432452
 20
-153.0535345754519
 10
127.7134792432452
 20
-153.0535345754519
 10
127.4871364698643
 20
-153.0535345754519
 10
127.4871364698643
 20
-153.0535345754519
 10
127.4871364698643
 20
-153.0535345754519
 10
127.4892035271555
 20
-153.0197726396964
 10
127.4892035271555
 20
-153.0197726396964
 10
127.4892035271555
 20
-153.0197726396964
 10
126.7870930672615
 20
-153.0197726396964
 10
126.7870930672615
 20
-153.0197726396964
 10
126.7870930672615
 20
-153.0197726396964
 10
126.7891601245527
 20
-153.0535345754519
 10
126.7891601245527
 20
-153.0535345754519
 10
126.7891601245527
 20
-153.0535345754519
 10
126.5710855803364
 20
-153.0535345754519
 10
126.5710855803364
 20
-153.0535345754519
 10
126.5755642044672
 20
-152.9984130476879
 10
126.5755642044672
 20
-152.986010703941
 10
126.5817653763406
 20
-152.8716335338307
 10
126.5838324336318
 20
-152.8440727699487
 10
126.585899490923
 20
-152.7107475746695
 10
126.585899490923
 20
-152.6917995495006
 10
126.585899490923
 20
-152.6917995495006
 10
126.585899490923
 20
-152.4888834254194
 10
126.585899490923
 20
-152.4888834254194
 10
126.4463731237703
 20
-152.7383083385515
 10
126.2772189354446
 20
-152.8695664765395
 10
126.1714545040474
 20
-152.9350232907593
 10
126.1714545040474
 20
-152.9350232907593
 10
125.9978216915908
 20
-152.7954969236067
 10
125.9978216915908
 20
-152.7954969236067
 10
126.0867051551103
 20
-152.7448540199735
 10
126.2307101463937
 20
-152.6580376137452
 10
126.3681694562552
 20
-152.4633897188286
 10
126.4591199770658
 20
-152.3362656954229
 10
126.5245767912855
 20
-152.1926052136879
 10
126.558338727041
 20
-152.0403319932399
 10
126.3299288963689
 20
-152.042399050531
 10
126.1500949120389
 20
-152.0486002224045
 10
126.055010276646
 20
-152.0506672796956
 10
126.055010276646
 20
-152.0506672796956
 10
126.055010276646
 20
-151.8732448622053
 10
126.055010276646
 20
-151.8732448622053
 10
126.2517252288537
 20
-151.8794460340787
 10
126.5352565872898
 20
-151.883580148661
 10
126.6854627504467
 20
-151.883580148661
 10
126.6854627504467
 20
-151.883580148661
 10
126.8990586705322
 20
-151.883580148661
 10
126.8990586705322
 20
-151.883580148661
 10
126.8990586705322
 20
-151.883580148661
 10
126.8990586705322
 20
-151.7757486599727
 10
126.8990586705322
 20
-151.7757486599727
 10
126.8990586705322
 20
-151.7757486599727
 10
126.7529866219576
 20
-151.7757486599727
 10
126.7529866219576
 20
-151.7757486599727
 10
126.5838324336318
 20
-151.7757486599727
 10
126.414678245306
 20
-151.779882774555
 10
126.2475911142714
 20
-151.786428455977
 10
126.2475911142714
 20
-151.786428455977
 10
126.2475911142714
 20
-151.6152072103601
 10
126.2475911142714
 20
-151.6152072103601
 10
126.4019313920106
 20
-151.6255424968158
 10
126.5879665482141
 20
-151.6255424968158
 10
126.7529866219576
 20
-151.6255424968158
 10
126.7529866219576
 20
-151.6255424968158
 10
126.8990586705322
 20
-151.6255424968158
 10
126.8990586705322
 20
-151.6255424968158
 10
126.8990586705322
 20
-151.6255424968158
 10
126.8990586705322
 20
-151.5070312121232
 10
126.8990586705322
 20
-151.5070312121232
 10
126.8990586705322
 20
-151.5070312121232
 10
126.7678005325441
 20
-151.5070312121232
 10
126.7678005325441
 20
-151.5070312121232
 10
126.7212917434933
 20
-151.5070312121232
 10
126.5183756194121
 20
-151.5156439508363
 10
126.4760009449435
 20
-151.5156439508363
 10
126.2727403113137
 20
-151.5197780654187
 10
126.1966037010897
 20
-151.5218451227098
 10
126.1184000335745
 20
-151.5239121800009
 10
126.1184000335745
 20
-151.5239121800009
 10
126.1184000335745
 20
-151.3399440810886
 10
126.1184000335745
 20
-151.3399440810886
 10
126.2327772036848
 20
-151.3485568198017
 10
126.2772189354446
 20
-151.3485568198017
 10
126.6599690438558
 20
-151.3568250489663
 10
126.5965792869272
 20
-151.2617404135734
 10
126.5690185230452
 20
-151.2341796496914
 10
126.5331895299986
 20
-151.1983506566448
 10
126.5331895299986
 20
-151.1983506566448
 10
126.7085448901978
 20
-151.1156683649988
 10
126.7085448901978
 20
-151.1156683649988
 10
126.7488525073753
 20
-151.151841867594
 10
126.793294239135
 20
-151.1942165420625
 10
126.8673637920679
 20
-151.304115088042
 10
126.8673637920679
 20
-151.304115088042
 10
126.7529866219576
 20
-151.3588921062575
 10
126.7529866219576
 20
-151.3588921062575
 10
126.7529866219576
 20
-151.3588921062575
 10
126.7636664179619
 20
-151.3588921062575
 10
126.7636664179619
 20
-151.3588921062575
 10
126.7636664179619
 20
-151.3588921062575
 10
127.2862874030742
 20
-151.3588921062575
 10
127.2862874030742
 20
-151.3588921062575
 10
127.2862874030742
 20
-151.3588921062575
 10
127.1908582581328
 20
-151.3147948840463
 10
127.1908582581328
 20
-151.3147948840463
 10
127.2184190220148
 20
-151.27655432416
 10
127.27560760707
 20
-151.1962835993537
 10
127.2904215176565
 20
-151.1222140464208
 10
127.2904215176565
 20
-151.1222140464208
 10
127.504017437742
 20
-151.1856038033494
 10
127.504017437742
 20
-151.1856038033494
 10
127.5126301764551
 20
-151.1876708606406
 10
127.5336452589152
 20
-151.1983506566448
 10
127.5336452589152
 20
-151.2193657391049
 10
127.5336452589152
 20
-151.2576062989911
 10
127.4681884446954
 20
-151.2576062989911
 10
127.4492404195266
 20
-151.2576062989911
 10
127.4385606235223
 20
-151.27655432416
 10
127.4151339742226
 20
-151.3168619413374
 10
127.3855061530494
 20
-151.3568250489663
 10
127.7854817388869
 20
-151.3506238770929
 10
127.8151095600601
 20
-151.3485568198017
 10
127.8912461702841
 20
-151.3420111383797
 10
127.8912461702841
 20
-151.3420111383797
 10
127.8912461702841
 20
-151.5239121800009
 10
127.8912461702841
 20
-151.5239121800009
 10
127.8722981451152
 20
-151.5239121800009
 10
127.8468044385244
 20
-151.5218451227098
 10
127.6266628370169
 20
-151.5135768935452
 10
127.5760199333838
 20
-151.511509836254
 10
127.3558783318763
 20
-151.5070312121232
 10
127.3114366001166
 20
-151.5070312121232
 10
127.3114366001166
 20
-151.5070312121232
 10
127.0957736227399
 20
-151.5070312121232
 10
127.0957736227399
 20
-151.5070312121232
 10
127.0957736227399
 20
-151.5070312121232
 10
127.0957736227399
 20
-151.6255424968158
 10
127.0957736227399
 20
-151.6255424968158
 10
127.0957736227399
 20
-151.6255424968158
 10
127.2694064351965
 20
-151.6255424968158
 10
127.2694064351965
 20
-151.6255424968158
 10
127.4320149421003
 20
-151.6255424968158
 10
127.6225287224346
 20
-151.6255424968158
 10
127.7792805670135
 20
-151.6152072103601
 10
127.7792805670135
 20
-151.6152072103601
 10
127.7792805670135
 20
-151.786428455977
 10
127.7792805670135
 20
-151.786428455977
 10
127.5698187615103
 20
-151.7778157172639
 10
127.3731038093025
 20
-151.7757486599727
 10
127.2694064351965
 20
-151.7757486599727
 10
127.2694064351965
 20
-151.7757486599727
 10
127.0957736227399
 20
-151.7757486599727
 10
127.0957736227399
 20
-151.7757486599727
 10
127.0957736227399
 20
-151.7757486599727
 10
127.0957736227399
 20
-151.883580148661
 10
127.0957736227399
 20
-151.883580148661
 10
127.0957736227399
 20
-151.883580148661
 10
127.3262505107031
 20
-151.883580148661
 10
127.3262505107031
 20
-151.883580148661
 10
127.4595757059823
 20
-151.883580148661
 10
127.7472411790007
 20
-151.8794460340787
 10
127.9567029845039
 20
-151.8732448622053
 10
127.9567029845039
 20
-151.8732448622053
 10
127.9567029845039
 20
-152.0506672796956
 10
127.9567029845039
 20
-152.0506672796956
 10
127.7644666564269
 20
-152.0444661078222
 10
127.4513074768177
 20
-152.0403319932399
 10
127.3262505107031
 20
-152.0403319932399
 97
        0
 97
        1
330
154
 75
     2
 76
     1
 98
        1
 10
0.0
 20
0.0
450
        0
451
        0
460
0.0
461
0.0
452
        0
462
0.0
453
        0
470

  0
SPLINE
  5
156
330
149
100
AcDbEntity
  8
レイヤー 1
100
AcDbSpline
210
0.0
220
0.0
230
1.0
 70
     9
 71
     3
 72
    29
 73
    25
 74
     0
 42
0.0000000001
 43
0.0000000001
 40
0.0
 40
0.0
 40
0.0
 40
0.0
 40
1.0
 40
1.0
 40
1.0
 40
2.0
 40
2.0
 40
2.0
 40
3.0
 40
3.0
 40
3.0
 40
4.0
 40
4.0
 40
4.0
 40
5.0
 40
5.0
 40
5.0
 40
6.0
 40
6.0
 40
6.0
 40
7.0
 40
7.0
 40
7.0
 40
8.0
 40
8.0
 40
8.0
 40
8.0
 10
129.2017604928731
 20
-151.4880831869544
 30
0.0
 10
129.2017604928731
 20
-151.4880831869544
 30
0.0
 10
128.8486382056351
 20
-151.4880831869544
 30
0.0
 10
128.8486382056351
 20
-151.4880831869544
 30
0.0
 10
128.7363280928159
 20
-151.4880831869544
 30
0.0
 10
128.5968017256633
 20
-151.4946288683763
 30
0.0
 10
128.488970236975
 20
-151.5070312121232
 30
0.0
 10
128.488970236975
 20
-151.5070312121232
 30
0.0
 10
128.488970236975
 20
-151.2724202095777
 30
0.0
 10
128.488970236975
 20
-151.2724202095777
 30
0.0
 10
128.6074815216676
 20
-151.2872341201643
 30
0.0
 10
128.7914496205799
 20
-151.2913682347466
 30
0.0
 10
128.8486382056351
 20
-151.2913682347466
 30
0.0
 10
128.8486382056351
 20
-151.2913682347466
 30
0.0
 10
129.2017604928731
 20
-151.2913682347466
 30
0.0
 10
129.2017604928731
 20
-151.2913682347466
 30
0.0
 10
129.2210530275906
 20
-151.2913682347466
 30
0.0
 10
129.4239691516718
 20
-151.2913682347466
 30
0.0
 10
129.5655625761155
 20
-151.2724202095777
 30
0.0
 10
129.5655625761155
 20
-151.2724202095777
 30
0.0
 10
129.5655625761155
 20
-151.5070312121232
 30
0.0
 10
129.5655625761155
 20
-151.5070312121232
 30
0.0
 10
129.4091552410852
 20
-151.4880831869544
 30
0.0
 10
129.2186414607509
 20
-151.4880831869544
 30
0.0
 10
129.2017604928731
 20
-151.4880831869544
 30
0.0
  0
SPLINE
  5
157
330
149
100
AcDbEntity
  8
レイヤー 1
100
AcDbSpline
210
0.0
220
0.0
230
1.0
 70
     9
 71
     3
 72
    47
 73
    43
 74
     0
 42
0.0000000001
 43
0.0000000001
 40
0.0
 40
0.0
 40
0.0
 40
0.0
 40
1.0
 40
1.0
 40
1.0
 40
2.0
 40
2.0
 40
2.0
 40
3.0
 40
3.0
 40
3.0
 40
4.0
 40
4.0
 40
4.0
 40
5.0
 40
5.0
 40
5.0
 40
6.0
 40
6.0
 40
6.0
 40
7.0
 40
7.0
 40
7.0
 40
8.0
 40
8.0
 40
8.0
 40
9.0
 40
9.0
 40
9.0
 40
10.0
 40
10.0
 40
10.0
 40
11.0
 40
11.0
 40
11.0
 40
12.0
 40
12.0
 40
12.0
 40
13.0
 40
13.0
 40
13.0
 40
14.0
 40
14.0
 40
14.0
 40
14.0
 10
129.303390809688
 20
-152.0169053439402
 30
0.0
 10
129.303390809688
 20
-152.0169053439402
 30
0.0
 10
129.2017604928731
 20
-152.0169053439402
 30
0.0
 10
129.2017604928731
 20
-152.0169053439402
 30
0.0
 10
129.2017604928731
 20
-152.1037217501685
 30
0.0
 10
129.1807454104131
 20
-152.4930175400017
 30
0.0
 10
128.9840304582054
 20
-152.7128146319607
 30
0.0
 10
128.8317572377573
 20
-152.882313329835
 30
0.0
 10
128.6243624895453
 20
-152.951904258637
 30
0.0
 10
128.5396131406081
 20
-152.979465022519
 30
0.0
 10
128.5396131406081
 20
-152.979465022519
 30
0.0
 10
128.3449652456915
 20
-152.8123778914844
 30
0.0
 10
128.3449652456915
 20
-152.8123778914844
 30
0.0
 10
128.4424614479241
 20
-152.799631038189
 30
0.0
 10
128.6178168081233
 20
-152.7765488984378
 30
0.0
 10
128.8062635311665
 20
-152.5881021753946
 30
0.0
 10
128.8803330840993
 20
-152.5160996797529
 30
0.0
 10
128.9840304582054
 20
-152.3765733126003
 30
0.0
 10
128.9840304582054
 20
-152.0169053439402
 30
0.0
 10
128.9840304582054
 20
-152.0169053439402
 30
0.0
 10
128.7532090606936
 20
-152.0169053439402
 30
0.0
 10
128.7532090606936
 20
-152.0169053439402
 30
0.0
 10
128.5671739044901
 20
-152.0169053439402
 30
0.0
 10
128.3811387482866
 20
-152.021383968071
 30
0.0
 10
128.1947590825346
 20
-152.0361978786576
 30
0.0
 10
128.1947590825346
 20
-152.0361978786576
 30
0.0
 10
128.1947590825346
 20
-151.8160562771501
 30
0.0
 10
128.1947590825346
 20
-151.8160562771501
 30
0.0
 10
128.3832058055778
 20
-151.8308701877367
 30
0.0
 10
128.668804221305
 20
-151.835004302319
 30
0.0
 10
128.7532090606936
 20
-151.835004302319
 30
0.0
 10
128.7532090606936
 20
-151.835004302319
 30
0.0
 10
129.303390809688
 20
-151.835004302319
 30
0.0
 10
129.303390809688
 20
-151.835004302319
 30
0.0
 10
129.3223388348569
 20
-151.835004302319
 30
0.0
 10
129.6396321290484
 20
-151.835004302319
 30
0.0
 10
129.868386469269
 20
-151.8160562771501
 30
0.0
 10
129.868386469269
 20
-151.8160562771501
 30
0.0
 10
129.868386469269
 20
-152.0361978786576
 30
0.0
 10
129.868386469269
 20
-152.0361978786576
 30
0.0
 10
129.6799397462258
 20
-152.021383968071
 30
0.0
 10
129.4918375327312
 20
-152.0169053439402
 30
0.0
 10
129.303390809688
 20
-152.0169053439402
 30
0.0
  0
HATCH
  5
158
330
149
100
AcDbEntity
  8
レイヤー 1
 62
    18
420
        0
440
 33554687
100
AcDbHatch
 10
0.0
 20
0.0
 30
0.0
210
0.0
220
0.0
230
1.0
  2
SOLID
 70
     1
 71
     1
 91
        2
 92
        1
 93
        1
 72
     4
 94
        3
 73
     0
 74
     0
 95
       29
 96
       25
 40
0.0
 40
0.0
 40
0.0
 40
0.0
 40
1.0
 40
1.0
 40
1.0
 40
2.0
 40
2.0
 40
2.0
 40
3.0
 40
3.0
 40
3.0
 40
4.0
 40
4.0
 40
4.0
 40
5.0
 40
5.0
 40
5.0
 40
6.0
 40
6.0
 40
6.0
 40
7.0
 40
7.0
 40
7.0
 40
8.0
 40
8.0
 40
8.0
 40
8.0
 10
129.2017604928731
 20
-151.4880831869544
 10
129.2017604928731
 20
-151.4880831869544
 10
128.8486382056351
 20
-151.4880831869544
 10
128.8486382056351
 20
-151.4880831869544
 10
128.7363280928159
 20
-151.4880831869544
 10
128.5968017256633
 20
-151.4946288683763
 10
128.488970236975
 20
-151.5070312121232
 10
128.488970236975
 20
-151.5070312121232
 10
128.488970236975
 20
-151.2724202095777
 10
128.488970236975
 20
-151.2724202095777
 10
128.6074815216676
 20
-151.2872341201643
 10
128.7914496205799
 20
-151.2913682347466
 10
128.8486382056351
 20
-151.2913682347466
 10
128.8486382056351
 20
-151.2913682347466
 10
129.2017604928731
 20
-151.2913682347466
 10
129.2017604928731
 20
-151.2913682347466
 10
129.2210530275906
 20
-151.2913682347466
 10
129.4239691516718
 20
-151.2913682347466
 10
129.5655625761155
 20
-151.2724202095777
 10
129.5655625761155
 20
-151.2724202095777
 10
129.5655625761155
 20
-151.5070312121232
 10
129.5655625761155
 20
-151.5070312121232
 10
129.4091552410852
 20
-151.4880831869544
 10
129.2186414607509
 20
-151.4880831869544
 10
129.2017604928731
 20
-151.4880831869544
 97
        0
 97
        1
330
156
 92
        1
 93
        1
 72
     4
 94
        3
 73
     0
 74
     0
 95
       47
 96
       43
 40
0.0
 40
0.0
 40
0.0
 40
0.0
 40
1.0
 40
1.0
 40
1.0
 40
2.0
 40
2.0
 40
2.0
 40
3.0
 40
3.0
 40
3.0
 40
4.0
 40
4.0
 40
4.0
 40
5.0
 40
5.0
 40
5.0
 40
6.0
 40
6.0
 40
6.0
 40
7.0
 40
7.0
 40
7.0
 40
8.0
 40
8.0
 40
8.0
 40
9.0
 40
9.0
 40
9.0
 40
10.0
 40
10.0
 40
10.0
 40
11.0
 40
11.0
 40
11.0
 40
12.0
 40
12.0
 40
12.0
 40
13.0
 40
13.0
 40
13.0
 40
14.0
 40
14.0
 40
14.0
 40
14.0
 10
129.303390809688
 20
-152.0169053439402
 10
129.303390809688
 20
-152.0169053439402
 10
129.2017604928731
 20
-152.0169053439402
 10
129.2017604928731
 20
-152.0169053439402
 10
129.2017604928731
 20
-152.1037217501685
 10
129.1807454104131
 20
-152.4930175400017
 10
128.9840304582054
 20
-152.7128146319607
 10
128.8317572377573
 20
-152.882313329835
 10
128.6243624895453
 20
-152.951904258637
 10
128.5396131406081
 20
-152.979465022519
 10
128.5396131406081
 20
-152.979465022519
 10
128.3449652456915
 20
-152.8123778914844
 10
128.3449652456915
 20
-152.8123778914844
 10
128.4424614479241
 20
-152.799631038189
 10
128.6178168081233
 20
-152.7765488984378
 10
128.8062635311665
 20
-152.5881021753946
 10
128.8803330840993
 20
-152.5160996797529
 10
128.9840304582054
 20
-152.3765733126003
 10
128.9840304582054
 20
-152.0169053439402
 10
128.9840304582054
 20
-152.0169053439402
 10
128.7532090606936
 20
-152.0169053439402
 10
128.7532090606936
 20
-152.0169053439402
 10
128.5671739044901
 20
-152.0169053439402
 10
128.3811387482866
 20
-152.021383968071
 10
128.1947590825346
 20
-152.0361978786576
 10
128.1947590825346
 20
-152.0361978786576
 10
128.1947590825346
 20
-151.8160562771501
 10
128.1947590825346
 20
-151.8160562771501
 10
128.3832058055778
 20
-151.8308701877367
 10
128.668804221305
 20
-151.835004302319
 10
128.7532090606936
 20
-151.835004302319
 10
128.7532090606936
 20
-151.835004302319
 10
129.303390809688
 20
-151.835004302319
 10
129.303390809688
 20
-151.835004302319
 10
129.3223388348569
 20
-151.835004302319
 10
129.6396321290484
 20
-151.835004302319
 10
129.868386469269
 20
-151.8160562771501
 10
129.868386469269
 20
-151.8160562771501
 10
129.868386469269
 20
-152.0361978786576
 10
129.868386469269
 20
-152.0361978786576
 10
129.6799397462258
 20
-152.021383968071
 10
129.4918375327312
 20
-152.0169053439402
 10
129.303390809688
 20
-152.0169053439402
 97
        0
 97
        1
330
157
 75
     2
 76
     1
 98
        1
 10
0.0
 20
0.0
450
        0
451
        0
460
0.0
461
0.0
452
        0
462
0.0
453
        0
470

  0
SPLINE
  5
159
330
149
100
AcDbEntity
  8
レイヤー 1
100
AcDbSpline
210
0.0
220
0.0
230
1.0
 70
     9
 71
     3
 72
    29
 73
    25
 74
     0
 42
0.0000000001
 43
0.0000000001
 40
0.0
 40
0.0
 40
0.0
 40
0.0
 40
1.0
 40
1.0
 40
1.0
 40
2.0
 40
2.0
 40
2.0
 40
3.0
 40
3.0
 40
3.0
 40
4.0
 40
4.0
 40
4.0
 40
5.0
 40
5.0
 40
5.0
 40
6.0
 40
6.0
 40
6.0
 40
7.0
 40
7.0
 40
7.0
 40
8.0
 40
8.0
 40
8.0
 40
8.0
 10
131.1492729706849
 20
-152.1798583603925
 30
0.0
 10
131.1492729706849
 20
-152.1798583603925
 30
0.0
 10
130.6648925454587
 20
-152.1798583603925
 30
0.0
 10
130.6648925454587
 20
-152.1798583603925
 30
0.0
 10
130.6373317815768
 20
-152.1798583603925
 30
0.0
 10
130.3200384873852
 20
-152.1798583603925
 30
0.0
 10
130.1085096245909
 20
-152.2053520669834
 30
0.0
 10
130.1085096245909
 20
-152.2053520669834
 30
0.0
 10
130.1085096245909
 20
-151.9745306694716
 30
0.0
 10
130.1085096245909
 20
-151.9745306694716
 30
0.0
 10
130.2669840169124
 20
-151.9979573187713
 30
0.0
 10
130.4574977972467
 20
-152.0000243760625
 30
0.0
 10
130.6648925454587
 20
-152.0000243760625
 30
0.0
 10
130.6648925454587
 20
-152.0000243760625
 30
0.0
 10
131.1492729706849
 20
-152.0000243760625
 30
0.0
 10
131.1492729706849
 20
-152.0000243760625
 30
0.0
 10
131.3353081268884
 20
-152.0000243760625
 30
0.0
 10
131.5213432830919
 20
-151.9979573187713
 30
0.0
 10
131.7056558915527
 20
-151.9745306694716
 30
0.0
 10
131.7056558915527
 20
-151.9745306694716
 30
0.0
 10
131.7056558915527
 20
-152.2053520669834
 30
0.0
 10
131.7056558915527
 20
-152.2053520669834
 30
0.0
 10
131.5213432830919
 20
-152.1819254176837
 30
0.0
 10
131.2739854272509
 20
-152.1798583603925
 30
0.0
 10
131.1492729706849
 20
-152.1798583603925
 30
0.0
  0
HATCH
  5
15A
330
149
100
AcDbEntity
  8
レイヤー 1
 62
    18
420
        0
440
 33554687
100
AcDbHatch
 10
0.0
 20
0.0
 30
0.0
210
0.0
220
0.0
230
1.0
  2
SOLID
 70
     1
 71
     1
 91
        1
 92
        1
 93
        1
 72
     4
 94
        3
 73
     0
 74
     0
 95
       29
 96
       25
 40
0.0
 40
0.0
 40
0.0
 40
0.0
 40
1.0
 40
1.0
 40
1.0
 40
2.0
 40
2.0
 40
2.0
 40
3.0
 40
3.0
 40
3.0
 40
4.0
 40
4.0
 40
4.0
 40
5.0
 40
5.0
 40
5.0
 40
6.0
 40
6.0
 40
6.0
 40
7.0
 40
7.0
 40
7.0
 40
8.0
 40
8.0
 40
8.0
 40
8.0
 10
131.1492729706849
 20
-152.1798583603925
 10
131.1492729706849
 20
-152.1798583603925
 10
130.6648925454587
 20
-152.1798583603925
 10
130.6648925454587
 20
-152.1798583603925
 10
130.6373317815768
 20
-152.1798583603925
 10
130.3200384873852
 20
-152.1798583603925
 10
130.1085096245909
 20
-152.2053520669834
 10
130.1085096245909
 20
-152.2053520669834
 10
130.1085096245909
 20
-151.9745306694716
 10
130.1085096245909
 20
-151.9745306694716
 10
130.2669840169124
 20
-151.9979573187713
 10
130.4574977972467
 20
-152.0000243760625
 10
130.6648925454587
 20
-152.0000243760625
 10
130.6648925454587
 20
-152.0000243760625
 10
131.1492729706849
 20
-152.0000243760625
 10
131.1492729706849
 20
-152.0000243760625
 10
131.3353081268884
 20
-152.0000243760625
 10
131.5213432830919
 20
-151.9979573187713
 10
131.7056558915527
 20
-151.9745306694716
 10
131.7056558915527
 20
-151.9745306694716
 10
131.7056558915527
 20
-152.2053520669834
 10
131.7056558915527
 20
-152.2053520669834
 10
131.5213432830919
 20
-152.1819254176837
 10
131.2739854272509
 20
-152.1798583603925
 10
131.1492729706849
 20
-152.1798583603925
 97
        0
 97
        1
330
159
 75
     2
 76
     1
 98
        1
 10
0.0
 20
0.0
450
        0
451
        0
460
0.0
461
0.0
452
        0
462
0.0
453
        0
470

  0
SPLINE
  5
15B
330
149
100
AcDbEntity
  8
レイヤー 1
100
AcDbSpline
210
0.0
220
0.0
230
1.0
 70
     9
 71
     3
 72
    47
 73
    43
 74
     0
 42
0.0000000001
 43
0.0000000001
 40
0.0
 40
0.0
 40
0.0
 40
0.0
 40
1.0
 40
1.0
 40
1.0
 40
2.0
 40
2.0
 40
2.0
 40
3.0
 40
3.0
 40
3.0
 40
4.0
 40
4.0
 40
4.0
 40
5.0
 40
5.0
 40
5.0
 40
6.0
 40
6.0
 40
6.0
 40
7.0
 40
7.0
 40
7.0
 40
8.0
 40
8.0
 40
8.0
 40
9.0
 40
9.0
 40
9.0
 40
10.0
 40
10.0
 40
10.0
 40
11.0
 40
11.0
 40
11.0
 40
12.0
 40
12.0
 40
12.0
 40
13.0
 40
13.0
 40
13.0
 40
14.0
 40
14.0
 40
14.0
 40
14.0
 10
133.3692925013799
 20
-151.5855793891869
 30
0.0
 10
133.2997015725778
 20
-151.8646321234922
 30
0.0
 10
133.2232204528053
 20
-152.1691785643882
 30
0.0
 10
132.9104057827446
 20
-152.5012857691663
 30
0.0
 10
132.6733832133594
 20
-152.7510551918469
 30
0.0
 10
132.4280924148096
 20
-152.8506184513707
 30
0.0
 10
132.3223279834125
 20
-152.8926486162907
 30
0.0
 10
132.3223279834125
 20
-152.8926486162907
 30
0.0
 10
132.1276800884958
 20
-152.7107475746695
 30
0.0
 10
132.1276800884958
 20
-152.7107475746695
 30
0.0
 10
132.3137152446993
 20
-152.6642387856186
 30
0.0
 10
132.6754502706506
 20
-152.5712212075169
 30
0.0
 10
132.9717284823821
 20
-152.0761609862865
 30
0.0
 10
133.1322699319947
 20
-151.8095105957282
 30
0.0
 10
133.1450167852901
 20
-151.6362222928201
 30
0.0
 10
133.1536295240032
 20
-151.5452717720095
 30
0.0
 10
133.1536295240032
 20
-151.5452717720095
 30
0.0
 10
132.6478895067686
 20
-151.5452717720095
 30
0.0
 10
132.6478895067686
 20
-151.5452717720095
 30
0.0
 10
132.529378222076
 20
-151.5452717720095
 30
0.0
 10
132.1083875537784
 20
-151.5642197971784
 30
0.0
 10
131.9561143333304
 20
-151.5748995931826
 30
0.0
 10
131.9561143333304
 20
-151.5748995931826
 30
0.0
 10
131.9561143333304
 20
-151.3654377876795
 30
0.0
 10
131.9561143333304
 20
-151.3654377876795
 30
0.0
 10
132.0980522673227
 20
-151.3781846409749
 30
0.0
 10
132.3750379443368
 20
-151.3823187555572
 30
0.0
 10
132.4914821717382
 20
-151.3823187555572
 30
0.0
 10
132.4914821717382
 20
-151.3823187555572
 30
0.0
 10
132.8466715162675
 20
-151.3823187555572
 30
0.0
 10
132.8466715162675
 20
-151.3823187555572
 30
0.0
 10
132.8742322801495
 20
-151.3823187555572
 30
0.0
 10
133.0351182393106
 20
-151.380251698266
 30
0.0
 10
133.1450167852901
 20
-151.3654377876795
 30
0.0
 10
133.2022053703453
 20
-151.3588921062575
 30
0.0
 10
133.219086338223
 20
-151.3399440810886
 30
0.0
 10
133.2425129875227
 20
-151.3168619413374
 30
0.0
 10
133.2425129875227
 20
-151.3168619413374
 30
0.0
 10
133.4306152010173
 20
-151.4670681044943
 30
0.0
 10
133.4306152010173
 20
-151.4670681044943
 30
0.0
 10
133.4158012904308
 20
-151.4966959256675
 30
0.0
 10
133.405466003975
 20
-151.5156439508363
 30
0.0
 10
133.3692925013799
 20
-151.5855793891869
 30
0.0
  0
HATCH
  5
15C
330
149
100
AcDbEntity
  8
レイヤー 1
 62
    18
420
        0
440
 33554687
100
AcDbHatch
 10
0.0
 20
0.0
 30
0.0
210
0.0
220
0.0
230
1.0
  2
SOLID
 70
     1
 71
     1
 91
        1
 92
        1
 93
        1
 72
     4
 94
        3
 73
     0
 74
     0
 95
       47
 96
       43
 40
0.0
 40
0.0
 40
0.0
 40
0.0
 40
1.0
 40
1.0
 40
1.0
 40
2.0
 40
2.0
 40
2.0
 40
3.0
 40
3.0
 40
3.0
 40
4.0
 40
4.0
 40
4.0
 40
5.0
 40
5.0
 40
5.0
 40
6.0
 40
6.0
 40
6.0
 40
7.0
 40
7.0
 40
7.0
 40
8.0
 40
8.0
 40
8.0
 40
9.0
 40
9.0
 40
9.0
 40
10.0
 40
10.0
 40
10.0
 40
11.0
 40
11.0
 40
11.0
 40
12.0
 40
12.0
 40
12.0
 40
13.0
 40
13.0
 40
13.0
 40
14.0
 40
14.0
 40
14.0
 40
14.0
 10
133.3692925013799
 20
-151.5855793891869
 10
133.2997015725778
 20
-151.8646321234922
 10
133.2232204528053
 20
-152.1691785643882
 10
132.9104057827446
 20
-152.5012857691663
 10
132.6733832133594
 20
-152.7510551918469
 10
132.4280924148096
 20
-152.8506184513707
 10
132.3223279834125
 20
-152.8926486162907
 10
132.3223279834125
 20
-152.8926486162907
 10
132.1276800884958
 20
-152.7107475746695
 10
132.1276800884958
 20
-152.7107475746695
 10
132.3137152446993
 20
-152.6642387856186
 10
132.6754502706506
 20
-152.5712212075169
 10
132.9717284823821
 20
-152.0761609862865
 10
133.1322699319947
 20
-151.8095105957282
 10
133.1450167852901
 20
-151.6362222928201
 10
133.1536295240032
 20
-151.5452717720095
 10
133.1536295240032
 20
-151.5452717720095
 10
132.6478895067686
 20
-151.5452717720095
 10
132.6478895067686
 20
-151.5452717720095
 10
132.529378222076
 20
-151.5452717720095
 10
132.1083875537784
 20
-151.5642197971784
 10
131.9561143333304
 20
-151.5748995931826
 10
131.9561143333304
 20
-151.5748995931826
 10
131.9561143333304
 20
-151.3654377876795
 10
131.9561143333304
 20
-151.3654377876795
 10
132.0980522673227
 20
-151.3781846409749
 10
132.3750379443368
 20
-151.3823187555572
 10
132.4914821717382
 20
-151.3823187555572
 10
132.4914821717382
 20
-151.3823187555572
 10
132.8466715162675
 20
-151.3823187555572
 10
132.8466715162675
 20
-151.3823187555572
 10
132.8742322801495
 20
-151.3823187555572
 10
133.0351182393106
 20
-151.380251698266
 10
133.1450167852901
 20
-151.3654377876795
 10
133.2022053703453
 20
-151.3588921062575
 10
133.219086338223
 20
-151.3399440810886
 10
133.2425129875227
 20
-151.3168619413374
 10
133.2425129875227
 20
-151.3168619413374
 10
133.4306152010173
 20
-151.4670681044943
 10
133.4306152010173
 20
-151.4670681044943
 10
133.4158012904308
 20
-151.4966959256675
 10
133.405466003975
 20
-151.5156439508363
 10
133.3692925013799
 20
-151.5855793891869
 97
        0
 97
        1
330
15B
 75
     2
 76
     1
 98
        1
 10
0.0
 20
0.0
450
        0
451
        0
460
0.0
461
0.0
452
        0
462
0.0
453
        0
470

  0
SPLINE
  5
15D
330
149
100
AcDbEntity
  8
レイヤー 1
100
AcDbSpline
210
0.0
220
0.0
230
1.0
 70
    11
 71
     3
 72
    17
 73
    13
 74
     0
 42
0.0000000001
 43
0.0000000001
 40
0.0
 40
0.0
 40
0.0
 40
0.0
 40
1.0
 40
1.0
 40
1.0
 40
2.0
 40
2.0
 40
2.0
 40
3.0
 40
3.0
 40
3.0
 40
4.0
 40
4.0
 40
4.0
 40
4.0
 10
133.7596218198587
 20
-151.3675048449706
 30
0.0
 10
133.7596218198587
 20
-151.4267604873169
 30
0.0
 10
133.8061306089096
 20
-151.4732692763678
 30
0.0
 10
133.8653862512559
 20
-151.4732692763678
 30
0.0
 10
133.9246418936022
 20
-151.4732692763678
 30
0.0
 10
133.9732177399442
 20
-151.4267604873169
 30
0.0
 10
133.9732177399442
 20
-151.3675048449706
 30
0.0
 10
133.9732177399442
 20
-151.3082492026243
 30
0.0
 10
133.9246418936022
 20
-151.2596733562823
 30
0.0
 10
133.8653862512559
 20
-151.2596733562823
 30
0.0
 10
133.8061306089096
 20
-151.2596733562823
 30
0.0
 10
133.7596218198587
 20
-151.3082492026243
 30
0.0
 10
133.7596218198587
 20
-151.3675048449706
 30
0.0
  0
SPLINE
  5
15E
330
149
100
AcDbEntity
  8
レイヤー 1
100
AcDbSpline
210
0.0
220
0.0
230
1.0
 70
     9
 71
     3
 72
    17
 73
    13
 74
     0
 42
0.0000000001
 43
0.0000000001
 40
0.0
 40
0.0
 40
0.0
 40
0.0
 40
1.0
 40
1.0
 40
1.0
 40
2.0
 40
2.0
 40
2.0
 40
3.0
 40
3.0
 40
3.0
 40
4.0
 40
4.0
 40
4.0
 40
4.0
 10
134.074848056759
 20
-151.3675048449706
 30
0.0
 10
134.074848056759
 20
-151.4818820150809
 30
0.0
 10
133.9818304786573
 20
-151.5769666504738
 30
0.0
 10
133.8653862512559
 20
-151.5769666504738
 30
0.0
 10
133.7510090811456
 20
-151.5769666504738
 30
0.0
 10
133.6559244457527
 20
-151.4818820150809
 30
0.0
 10
133.6559244457527
 20
-151.3675048449706
 30
0.0
 10
133.6559244457527
 20
-151.2510606175692
 30
0.0
 10
133.7510090811456
 20
-151.1580430394674
 30
0.0
 10
133.8653862512559
 20
-151.1580430394674
 30
0.0
 10
133.9797634213662
 20
-151.1580430394674
 30
0.0
 10
134.074848056759
 20
-151.2510606175692
 30
0.0
 10
134.074848056759
 20
-151.3675048449706
 30
0.0
  0
HATCH
  5
15F
330
149
100
AcDbEntity
  8
レイヤー 1
 62
    18
420
        0
440
 33554687
100
AcDbHatch
 10
0.0
 20
0.0
 30
0.0
210
0.0
220
0.0
230
1.0
  2
SOLID
 70
     1
 71
     1
 91
        2
 92
        1
 93
        1
 72
     4
 94
        3
 73
     0
 74
     0
 95
       17
 96
       13
 40
0.0
 40
0.0
 40
0.0
 40
0.0
 40
1.0
 40
1.0
 40
1.0
 40
2.0
 40
2.0
 40
2.0
 40
3.0
 40
3.0
 40
3.0
 40
4.0
 40
4.0
 40
4.0
 40
4.0
 10
133.7596218198587
 20
-151.3675048449706
 10
133.7596218198587
 20
-151.4267604873169
 10
133.8061306089096
 20
-151.4732692763678
 10
133.8653862512559
 20
-151.4732692763678
 10
133.9246418936022
 20
-151.4732692763678
 10
133.9732177399442
 20
-151.4267604873169
 10
133.9732177399442
 20
-151.3675048449706
 10
133.9732177399442
 20
-151.3082492026243
 10
133.9246418936022
 20
-151.2596733562823
 10
133.8653862512559
 20
-151.2596733562823
 10
133.8061306089096
 20
-151.2596733562823
 10
133.7596218198587
 20
-151.3082492026243
 10
133.7596218198587
 20
-151.3675048449706
 97
        0
 97
        1
330
15D
 92
        1
 93
        1
 72
     4
 94
        3
 73
     0
 74
     0
 95
       17
 96
       13
 40
0.0
 40
0.0
 40
0.0
 40
0.0
 40
1.0
 40
1.0
 40
1.0
 40
2.0
 40
2.0
 40
2.0
 40
3.0
 40
3.0
 40
3.0
 40
4.0
 40
4.0
 40
4.0
 40
4.0
 10
134.074848056759
 20
-151.3675048449706
 10
134.074848056759
 20
-151.4818820150809
 10
133.9818304786573
 20
-151.5769666504738
 10
133.8653862512559
 20
-151.5769666504738
 10
133.7510090811456
 20
-151.5769666504738
 10
133.6559244457527
 20
-151.4818820150809
 10
133.6559244457527
 20
-151.3675048449706
 10
133.6559244457527
 20
-151.2510606175692
 10
133.7510090811456
 20
-151.1580430394674
 10
133.8653862512559
 20
-151.1580430394674
 10
133.9797634213662
 20
-151.1580430394674
 10
134.074848056759
 20
-151.2510606175692
 10
134.074848056759
 20
-151.3675048449706
 97
        0
 97
        1
330
15E
 75
     2
 76
     1
 98
        1
 10
0.0
 20
0.0
450
        0
451
        0
460
0.0
461
0.0
452
        0
462
0.0
453
        0
470

  0
ENDBLK
  5
14C
330
149
100
AcDbEntity
  8
0
100
AcDbBlockEnd
  0
ENDSEC
  0
SECTION
  2
ENTITIES
  0
INSERT
  5
7A
330
70
100
AcDbEntity
  8
レイヤー 1
100
AcDbBlockReference
  2
Block_0
 10
0.0
 20
0.0
 30
0.0
  0
ENDSEC
  0
SECTION
  2
OBJECTS
  0
DICTIONARY
  5
C
330
0
100
AcDbDictionary
281
     1
  3
ACAD_COLOR
350
63
  3
ACAD_DETAILVIEWSTYLE
350
6A
  3
ACAD_GROUP
350
D
  3
ACAD_LAYOUT
350
62
  3
ACAD_MATERIAL
350
10
  3
ACAD_MLEADERSTYLE
350
66
  3
ACAD_MLINESTYLE
350
5F
  3
ACAD_PLOTSETTINGS
350
61
  3
ACAD_PLOTSTYLENAME
350
E
  3
ACAD_SCALELIST
350
42
  3
ACAD_SECTIONVIEWSTYLE
350
68
  3
ACAD_TABLESTYLE
350
64
  3
ACAD_VISUALSTYLE
350
29
  3
ACDB_RECOMPOSE_DATA
350
168
  3
AcDbVariableDictionary
350
160
  0
DICTIONARY
  5
63
102
{ACAD_REACTORS
330
C
102
}
330
C
100
AcDbDictionary
281
     1
  0
DICTIONARY
  5
6A
102
{ACAD_REACTORS
330
C
102
}
330
C
100
AcDbDictionary
281
     1
  3
Imperial24
350
6B
  0
DICTIONARY
  5
D
102
{ACAD_REACTORS
330
C
102
}
330
C
100
AcDbDictionary
281
     1
  0
DICTIONARY
  5
62
102
{ACAD_REACTORS
330
C
102
}
330
C
100
AcDbDictionary
281
     1
  3
Layout1
350
6F
  3
Layout2
350
77
  3
Model
350
73
  0
DICTIONARY
  5
10
102
{ACAD_REACTORS
330
C
102
}
330
C
100
AcDbDictionary
281
     1
  3
ByBlock
350
19
  3
ByLayer
350
11
  3
Global
350
21
  0
DICTIONARY
  5
66
102
{ACAD_REACTORS
330
C
102
}
330
C
100
AcDbDictionary
281
     1
  3
Standard
350
67
  0
DICTIONARY
  5
5F
102
{ACAD_REACTORS
330
C
102
}
330
C
100
AcDbDictionary
281
     1
  3
Standard
350
60
  0
DICTIONARY
  5
61
102
{ACAD_REACTORS
330
C
102
}
330
C
100
AcDbDictionary
281
     1
  0
ACDBDICTIONARYWDFLT
  5
E
102
{ACAD_REACTORS
330
C
102
}
330
C
100
AcDbDictionary
281
     1
  3
Normal
350
F
100
AcDbDictionaryWithDefault
340
F
  0
DICTIONARY
  5
42
102
{ACAD_REACTORS
330
C
102
}
330
C
100
AcDbDictionary
281
     1
  3
A0
350
43
  3
A1
350
44
  3
A2
350
45
  3
A3
350
46
  3
A4
350
47
  3
A5
350
48
  3
A6
350
49
  3
A7
350
4A
  3
A8
350
4B
  3
A9
350
4C
  3
B0
350
4D
  3
B1
350
4E
  3
B2
350
4F
  3
B3
350
50
  3
B4
350
51
  3
B5
350
52
  3
B6
350
53
  0
DICTIONARY
  5
68
102
{ACAD_REACTORS
330
C
102
}
330
C
100
AcDbDictionary
281
     1
  3
Imperial24
350
69
  0
DICTIONARY
  5
64
102
{ACAD_REACTORS
330
C
102
}
330
C
100
AcDbDictionary
281
     1
  3
Standard
350
65
  0
DICTIONARY
  5
29
102
{ACAD_REACTORS
330
C
102
}
330
C
100
AcDbDictionary
281
     1
  3
2dWireframe
350
2F
  3
Basic
350
2E
  3
Brighten
350
35
  3
ColorChange
350
39
  3
Conceptual
350
32
  3
Dim
350
34
  3
EdgeColorOff
350
41
  3
Facepattern
350
38
  3
Flat
350
2A
  3
FlatWithEdges
350
2B
  3
Gouraud
350
2C
  3
GouraudWithEdges
350
2D
  3
Hidden
350
31
  3
JitterOff
350
3F
  3
Linepattern
350
37
  3
OverhangOff
350
40
  3
Realistic
350
33
  3
Shaded
350
3E
  3
Shaded with edges
350
3D
  3
Shades of Gray
350
3A
  3
Sketchy
350
3B
  3
Thicken
350
36
  3
Wireframe
350
30
  3
X-Ray
350
3C
  0
XRECORD
  5
168
102
{ACAD_REACTORS
330
C
102
}
330
C
100
AcDbXrecord
280
     1
 90
        1
330
65
  0
DICTIONARY
  5
160
102
{ACAD_REACTORS
330
C
102
}
330
C
100
AcDbDictionary
281
     1
  3
CANNOSCALE
350
165
  3
CMLEADERSTYLE
350
162
  3
CTABLESTYLE
350
161
  3
CVIEWDETAILSTYLE
350
163
  3
CVIEWSECTIONSTYLE
350
164
  0
ACDBDETAILVIEWSTYLE
  5
6B
102
{ACAD_XDICTIONARY
360
19D
102
}
102
{ACAD_REACTORS
330
6A
102
}
330
6A
100
AcDbModelDocViewStyle
 70
     0
  3
Imperial24
290
     0
100
AcDbDetailViewStyle
 70
     0
 71
     0
 90
        3
 71
     1
340
55
 62
   256
 40
0.24
340
0
 62
   256
 40
0.24
300

 40
0.36
280
     3
 71
     2
340
5D
 90
       25
 62
   256
 71
     3
340
55
 62
   256
 40
0.24
 90
        1
 40
0.75
 90
        1
300
%<\AcVar ViewType \f "%tc1">% %<\AcVar ViewDetailId>%\PSCALE %<\AcVar ViewScale \f "%sn">%
 71
     4
340
5D
 90
       25
 62
   256
340
5D
 90
       25
 62
   256
280
     0
  0
LAYOUT
  5
6F
102
{ACAD_REACTORS
330
62
102
}
330
62
100
AcDbPlotSettings
  1

  2

  4

  6

 40
0.0
 41
0.0
 42
0.0
 43
0.0
 44
0.0
 45
0.0
 46
0.0
 47
0.0
 48
0.0
 49
0.0
140
0.0
141
0.0
142
1.0
143
1.0
 70
   688
 72
     0
 73
     0
 74
     5
  7

 75
    16
147
1.0
 76
     0
 77
     2
 78
   300
148
0.0
149
0.0
100
AcDbLayout
  1
Layout1
 70
     1
 71
     1
 10
0.0
 20
0.0
 11
12.0
 21
9.0
 12
0.0
 22
0.0
 32
0.0
 14
0.0
 24
0.0
 34
0.0
 15
0.0
 25
0.0
 35
0.0
146
0.0
 13
0.0
 23
0.0
 33
0.0
 16
1.0
 26
0.0
 36
0.0
 17
0.0
 27
1.0
 37
0.0
 76
     0
330
6C
  0
LAYOUT
  5
77
102
{ACAD_REACTORS
330
62
102
}
330
62
100
AcDbPlotSettings
  1

  2

  4

  6

 40
0.0
 41
0.0
 42
0.0
 43
0.0
 44
0.0
 45
0.0
 46
0.0
 47
0.0
 48
0.0
 49
0.0
140
0.0
141
0.0
142
1.0
143
1.0
 70
   688
 72
     0
 73
     0
 74
     5
  7

 75
    16
147
1.0
 76
     0
 77
     2
 78
   300
148
0.0
149
0.0
100
AcDbLayout
  1
Layout2
 70
     1
 71
     2
 10
0.0
 20
0.0
 11
12.0
 21
9.0
 12
0.0
 22
0.0
 32
0.0
 14
0.0
 24
0.0
 34
0.0
 15
0.0
 25
0.0
 35
0.0
146
0.0
 13
0.0
 23
0.0
 33
0.0
 16
1.0
 26
0.0
 36
0.0
 17
0.0
 27
1.0
 37
0.0
 76
     0
330
74
  0
LAYOUT
  5
73
102
{ACAD_REACTORS
330
62
102
}
330
62
100
AcDbPlotSettings
  1

  2

  4

  6

 40
0.0
 41
0.0
 42
0.0
 43
0.0
 44
0.0
 45
0.0
 46
0.0
 47
0.0
 48
0.0
 49
0.0
140
0.0
141
0.0
142
1.0
143
1.0
 70
  1712
 72
     0
 73
     0
 74
     0
  7

 75
     0
147
1.0
 76
     0
 77
     2
 78
   300
148
0.0
149
0.0
100
AcDbLayout
  1
Model
 70
     1
 71
     0
 10
0.0
 20
0.0
 11
12.0
 21
9.0
 12
0.0
 22
0.0
 32
0.0
 14
0.0
 24
0.0
 34
0.0
 15
0.0
 25
0.0
 35
0.0
146
0.0
 13
0.0
 23
0.0
 33
0.0
 16
1.0
 26
0.0
 36
0.0
 17
0.0
 27
1.0
 37
0.0
 76
     0
330
70
  0
MATERIAL
  5
19
102
{ACAD_XDICTIONARY
360
1A
102
}
102
{ACAD_REACTORS
330
10
102
}
330
10
100
AcDbMaterial
  1
ByBlock
 72
     0
 43
0.0208333333333333
 43
0.0
 43
0.0
 43
0.0
 43
0.0
 43
0.0208333333333333
 43
0.0
 43
0.0
 43
0.0
 43
0.0
 43
1.0
 43
0.0
 43
0.0
 43
0.0
 43
0.0
 43
1.0
 77
     0
 47
0.0208333333333333
 47
0.0
 47
0.0
 47
0.0
 47
0.0
 47
0.0208333333333333
 47
0.0
 47
0.0
 47
0.0
 47
0.0
 47
1.0
 47
0.0
 47
0.0
 47
0.0
 47
0.0
 47
1.0
171
     0
 49
0.0208333333333333
 49
0.0
 49
0.0
 49
0.0
 49
0.0
 49
0.0208333333333333
 49
0.0
 49
0.0
 49
0.0
 49
0.0
 49
1.0
 49
0.0
 49
0.0
 49
0.0
 49
0.0
 49
1.0
175
     0
142
0.0208333333333333
142
0.0
142
0.0
142
0.0
142
0.0
142
0.0208333333333333
142
0.0
142
0.0
142
0.0
142
0.0
142
1.0
142
0.0
142
0.0
142
0.0
142
0.0
142
1.0
179
     0
144
0.0208333333333333
144
0.0
144
0.0
144
0.0
144
0.0
144
0.0208333333333333
144
0.0
144
0.0
144
0.0
144
0.0
144
1.0
144
0.0
144
0.0
144
0.0
144
0.0
144
1.0
147
0.0208333333333333
147
0.0
147
0.0
147
0.0
147
0.0
147
0.0208333333333333
147
0.0
147
0.0
147
0.0
147
0.0
147
1.0
147
0.0
147
0.0
147
0.0
147
0.0
147
1.0
  0
MATERIAL
  5
11
102
{ACAD_XDICTIONARY
360
12
102
}
102
{ACAD_REACTORS
330
10
102
}
330
10
100
AcDbMaterial
  1
ByLayer
 72
     0
 43
0.0208333333333333
 43
0.0
 43
0.0
 43
0.0
 43
0.0
 43
0.0208333333333333
 43
0.0
 43
0.0
 43
0.0
 43
0.0
 43
1.0
 43
0.0
 43
0.0
 43
0.0
 43
0.0
 43
1.0
 77
     0
 47
0.0208333333333333
 47
0.0
 47
0.0
 47
0.0
 47
0.0
 47
0.0208333333333333
 47
0.0
 47
0.0
 47
0.0
 47
0.0
 47
1.0
 47
0.0
 47
0.0
 47
0.0
 47
0.0
 47
1.0
171
     0
 49
0.0208333333333333
 49
0.0
 49
0.0
 49
0.0
 49
0.0
 49
0.0208333333333333
 49
0.0
 49
0.0
 49
0.0
 49
0.0
 49
1.0
 49
0.0
 49
0.0
 49
0.0
 49
0.0
 49
1.0
175
     0
142
0.0208333333333333
142
0.0
142
0.0
142
0.0
142
0.0
142
0.0208333333333333
142
0.0
142
0.0
142
0.0
142
0.0
142
1.0
142
0.0
142
0.0
142
0.0
142
0.0
142
1.0
179
     0
144
0.0208333333333333
144
0.0
144
0.0
144
0.0
144
0.0
144
0.0208333333333333
144
0.0
144
0.0
144
0.0
144
0.0
144
1.0
144
0.0
144
0.0
144
0.0
144
0.0
144
1.0
147
0.0208333333333333
147
0.0
147
0.0
147
0.0
147
0.0
147
0.0208333333333333
147
0.0
147
0.0
147
0.0
147
0.0
147
1.0
147
0.0
147
0.0
147
0.0
147
0.0
147
1.0
  0
MATERIAL
  5
21
102
{ACAD_XDICTIONARY
360
22
102
}
102
{ACAD_REACTORS
330
10
102
}
330
10
100
AcDbMaterial
  1
Global
 72
     0
 43
0.0208333333333333
 43
0.0
 43
0.0
 43
0.0
 43
0.0
 43
0.0208333333333333
 43
0.0
 43
0.0
 43
0.0
 43
0.0
 43
1.0
 43
0.0
 43
0.0
 43
0.0
 43
0.0
 43
1.0
 77
     0
 47
0.0208333333333333
 47
0.0
 47
0.0
 47
0.0
 47
0.0
 47
0.0208333333333333
 47
0.0
 47
0.0
 47
0.0
 47
0.0
 47
1.0
 47
0.0
 47
0.0
 47
0.0
 47
0.0
 47
1.0
171
     0
 49
0.0208333333333333
 49
0.0
 49
0.0
 49
0.0
 49
0.0
 49
0.0208333333333333
 49
0.0
 49
0.0
 49
0.0
 49
0.0
 49
1.0
 49
0.0
 49
0.0
 49
0.0
 49
0.0
 49
1.0
175
     0
142
0.0208333333333333
142
0.0
142
0.0
142
0.0
142
0.0
142
0.0208333333333333
142
0.0
142
0.0
142
0.0
142
0.0
142
1.0
142
0.0
142
0.0
142
0.0
142
0.0
142
1.0
179
     0
144
0.0208333333333333
144
0.0
144
0.0
144
0.0
144
0.0
144
0.0208333333333333
144
0.0
144
0.0
144
0.0
144
0.0
144
1.0
144
0.0
144
0.0
144
0.0
144
0.0
144
1.0
147
0.0208333333333333
147
0.0
147
0.0
147
0.0
147
0.0
147
0.0208333333333333
147
0.0
147
0.0
147
0.0
147
0.0
147
1.0
147
0.0
147
0.0
147
0.0
147
0.0
147
1.0
  0
MLEADERSTYLE
  5
67
102
{ACAD_XDICTIONARY
360
199
102
}
102
{ACAD_REACTORS
330
66
102
}
330
66
100
AcDbMLeaderStyle
179
     2
170
     2
171
     1
172
     0
 90
        2
 40
0.0
 41
0.0
173
     1
 91
-1056964608
340
5B
 92
       -2
290
     1
 42
0.09
291
     1
 43
0.36
  3
Standard
 44
0.18
300

342
55
174
     1
178
     6
175
     1
176
     0
 93
-1056964608
 45
0.18
292
     0
297
     0
 46
0.18
 94
-1056964608
 47
1.0
 49
1.0
140
1.0
293
     1
141
0.0
294
     1
177
     0
142
1.0
295
     0
296
     0
143
0.125
271
     0
272
     9
273
     9
  0
MLINESTYLE
  5
60
102
{ACAD_REACTORS
330
5F
102
}
330
5F
100
AcDbMlineStyle
  2
STANDARD
 70
     0
  3

 62
   256
 51
90.0
 52
90.0
 71
     2
 49
0.5
 62
   256
  6
BYLAYER
 49
-0.5
 62
   256
  6
BYLAYER
  0
ACDBPLACEHOLDER
  5
F
102
{ACAD_REACTORS
330
E
102
}
330
E
  0
SCALE
  5
43
102
{ACAD_REACTORS
330
42
102
}
330
42
100
AcDbScale
 70
     0
300
1:1
140
1.0
141
1.0
290
     1
  0
SCALE
  5
44
102
{ACAD_REACTORS
330
42
102
}
330
42
100
AcDbScale
 70
     0
300
1/128" = 1'-0"
140
0.0078125
141
12.0
290
     0
  0
SCALE
  5
45
102
{ACAD_REACTORS
330
42
102
}
330
42
100
AcDbScale
 70
     0
300
1/64" = 1'-0"
140
0.015625
141
12.0
290
     0
  0
SCALE
  5
46
102
{ACAD_REACTORS
330
42
102
}
330
42
100
AcDbScale
 70
     0
300
1/32" = 1'-0"
140
0.03125
141
12.0
290
     0
  0
SCALE
  5
47
102
{ACAD_REACTORS
330
42
102
}
330
42
100
AcDbScale
 70
     0
300
1/16" = 1'-0"
140
0.0625
141
12.0
290
     0
  0
SCALE
  5
48
102
{ACAD_REACTORS
330
42
102
}
330
42
100
AcDbScale
 70
     0
300
3/32" = 1'-0"
140
0.09375
141
12.0
290
     0
  0
SCALE
  5
49
102
{ACAD_REACTORS
330
42
102
}
330
42
100
AcDbScale
 70
     0
300
1/8" = 1'-0"
140
0.125
141
12.0
290
     0
  0
SCALE
  5
4A
102
{ACAD_REACTORS
330
42
102
}
330
42
100
AcDbScale
 70
     0
300
3/16" = 1'-0"
140
0.1875
141
12.0
290
     0
  0
SCALE
  5
4B
102
{ACAD_REACTORS
330
42
102
}
330
42
100
AcDbScale
 70
     0
300
1/4" = 1'-0"
140
0.25
141
12.0
290
     0
  0
SCALE
  5
4C
102
{ACAD_REACTORS
330
42
102
}
330
42
100
AcDbScale
 70
     0
300
3/8" = 1'-0"
140
0.375
141
12.0
290
     0
  0
SCALE
  5
4D
102
{ACAD_REACTORS
330
42
102
}
330
42
100
AcDbScale
 70
     0
300
1/2" = 1'-0"
140
0.5
141
12.0
290
     0
  0
SCALE
  5
4E
102
{ACAD_REACTORS
330
42
102
}
330
42
100
AcDbScale
 70
     0
300
3/4" = 1'-0"
140
0.75
141
12.0
290
     0
  0
SCALE
  5
4F
102
{ACAD_REACTORS
330
42
102
}
330
42
100
AcDbScale
 70
     0
300
1" = 1'-0"
140
1.0
141
12.0
290
     0
  0
SCALE
  5
50
102
{ACAD_REACTORS
330
42
102
}
330
42
100
AcDbScale
 70
     0
300
1-1/2" = 1'-0"
140
1.5
141
12.0
290
     0
  0
SCALE
  5
51
102
{ACAD_REACTORS
330
42
102
}
330
42
100
AcDbScale
 70
     0
300
3" = 1'-0"
140
3.0
141
12.0
290
     0
  0
SCALE
  5
52
102
{ACAD_REACTORS
330
42
102
}
330
42
100
AcDbScale
 70
     0
300
6" = 1'-0"
140
6.0
141
12.0
290
     0
  0
SCALE
  5
53
102
{ACAD_REACTORS
330
42
102
}
330
42
100
AcDbScale
 70
     0
300
1'-0" = 1'-0"
140
12.0
141
12.0
290
     0
  0
ACDBSECTIONVIEWSTYLE
  5
69
102
{ACAD_XDICTIONARY
360
19B
102
}
102
{ACAD_REACTORS
330
68
102
}
330
68
100
AcDbModelDocViewStyle
 70
     0
  3
Imperial24
290
     0
100
AcDbSectionViewStyle
 70
     0
 71
     0
 90
       78
 71
     1
340
55
 62
   256
 40
0.24
340
0
340
0
 62
   256
 40
0.24
300
I, O, Q, S, X, Z
 40
0.48
 90
        3
 40
0.18
 90
        1
 71
     2
340
5D
 90
       25
 62
   256
340
5D
 90
       50
 62
   256
 40
0.24
 40
0.0
 40
0.24
 71
     3
340
55
 62
   256
 40
0.24
 90
        1
 40
0.75
 90
        1
300
%<\AcVar ViewType \f "%tc1">% %<\AcVar ViewSectionStartId>%-%<\AcVar ViewSectionEndId>%\PSCALE %<\AcVar ViewScale \f "%sn">%
 71
     4
 62
   256
 62
   257
300
ANSI31
 40
1.0
 90
        0
290
     0
290
     0
 90
        6
 40
0.0
 40
1.570796326794896
 40
0.2617993877991494
 40
1.308996938995747
 40
-0.2617993877991494
 40
1.832595714594046
  0
TABLESTYLE
  5
65
102
{ACAD_XDICTIONARY
360
166
102
}
102
{ACAD_REACTORS
330
64
102
}
330
64
100
AcDbTableStyle
280
     0
  3
Standard
 70
     0
 71
     0
 40
0.06
 41
0.06
280
     0
281
     0
  7
Standard
140
0.18
170
     2
 62
     0
 63
     7
283
     0
 90
      512
 91
        0
  1

274
    -2
284
     1
 64
     0
275
    -2
285
     1
 65
     0
276
    -2
286
     1
 66
     0
277
    -2
287
     1
 67
     0
278
    -2
288
     1
 68
     0
279
    -2
289
     1
 69
     0
  7
Standard
140
0.25
170
     5
 62
     0
 63
     7
283
     0
 90
      512
 91
        0
  1

274
    -2
284
     1
 64
     0
275
    -2
285
     1
 65
     0
276
    -2
286
     1
 66
     0
277
    -2
287
     1
 67
     0
278
    -2
288
     1
 68
     0
279
    -2
289
     1
 69
     0
  7
Standard
140
0.18
170
     5
 62
     0
 63
     7
283
     0
 90
      512
 91
        0
  1

274
    -2
284
     1
 64
     0
275
    -2
285
     1
 65
     0
276
    -2
286
     1
 66
     0
277
    -2
287
     1
 67
     0
278
    -2
288
     1
 68
     0
279
    -2
289
     1
 69
     0
  0
VISUALSTYLE
  5
2F
102
{ACAD_XDICTIONARY
360
173
102
}
102
{ACAD_REACTORS
330
29
102
}
330
29
100
AcDbVisualStyle
  2
2dWireframe
 70
     4
177
     2
291
     0
 71
     0
176
     1
 72
     2
176
     1
 73
     0
176
     1
 90
        0
176
     1
 40
0.6
176
     1
 41
30.0
176
     1
 63
     7
421
 16777215
176
     1
 74
     1
176
     1
 91
        4
176
     1
 64
     7
176
     1
 65
   257
176
     1
 75
     1
176
     1
175
     1
176
     1
 42
1.0
176
     1
 92
        0
176
     1
 66
   257
176
     1
 43
1.0
176
     1
 76
     1
176
     1
 77
     6
176
     1
 78
     2
176
     1
 67
     7
176
     1
 79
     5
176
     1
170
     0
176
     1
171
     0
176
     1
290
     0
176
     1
 93
        1
176
     1
 44
0.0
176
     1
173
     0
176
     1
1001
ACAD
1000
AcDbSavedByObjectVersion
1070
     0
  0
VISUALSTYLE
  5
2E
102
{ACAD_XDICTIONARY
360
171
102
}
102
{ACAD_REACTORS
330
29
102
}
330
29
100
AcDbVisualStyle
  2
Basic
 70
     7
177
     2
291
     1
 71
     1
176
     1
 72
     0
176
     1
 73
     1
176
     1
 90
        0
176
     1
 40
0.6
176
     1
 41
30.0
176
     1
 63
     7
421
 16777215
176
     1
 74
     0
176
     1
 91
        4
176
     1
 64
     7
176
     1
 65
   257
176
     1
 75
     1
176
     1
175
     1
176
     1
 42
1.0
176
     1
 92
        8
176
     1
 66
     7
176
     1
 43
1.0
176
     1
 76
     1
176
     1
 77
     6
176
     1
 78
     2
176
     1
 67
     7
176
     1
 79
     5
176
     1
170
     0
176
     1
171
     0
176
     1
290
     0
176
     1
 93
        1
176
     1
 44
0.0
176
     1
173
     0
176
     1
1001
ACAD
1000
AcDbSavedByObjectVersion
1070
     0
  0
VISUALSTYLE
  5
35
102
{ACAD_XDICTIONARY
360
17F
102
}
102
{ACAD_REACTORS
330
29
102
}
330
29
100
AcDbVisualStyle
  2
Brighten
 70
    12
177
     2
291
     1
 71
     2
176
     1
 72
     2
176
     1
 73
     0
176
     1
 90
        0
176
     1
 40
0.6
176
     1
 41
30.0
176
     1
 63
     7
421
 16777215
176
     1
 74
     1
176
     1
 91
        4
176
     1
 64
     7
176
     1
 65
   257
176
     1
 75
     1
176
     1
175
     1
176
     1
 42
1.0
176
     1
 92
        8
176
     1
 66
     7
176
     1
 43
1.0
176
     1
 76
     1
176
     1
 77
     6
176
     1
 78
     2
176
     1
 67
     7
176
     1
 79
     5
176
     1
170
     0
176
     1
171
     0
176
     1
290
     0
176
     1
 93
        1
176
     1
 44
50.0
176
     1
173
     0
176
     1
1001
ACAD
1000
AcDbSavedByObjectVersion
1070
     0
  0
VISUALSTYLE
  5
39
102
{ACAD_XDICTIONARY
360
187
102
}
102
{ACAD_REACTORS
330
29
102
}
330
29
100
AcDbVisualStyle
  2
ColorChange
 70
    16
177
     2
291
     1
 71
     2
176
     1
 72
     2
176
     1
 73
     3
176
     1
 90
        0
176
     1
 40
0.6
176
     1
 41
30.0
176
     1
 63
     8
421
  8421504
176
     1
 74
     1
176
     1
 91
        4
176
     1
 64
     7
176
     1
 65
   257
176
     1
 75
     1
176
     1
175
     1
176
     1
 42
1.0
176
     1
 92
        8
176
     1
 66
     8
424
  8421504
176
     1
 43
1.0
176
     1
 76
     1
176
     1
 77
     6
176
     1
 78
     2
176
     1
 67
     7
176
     1
 79
     5
176
     1
170
     0
176
     1
171
     0
176
     1
290
     0
176
     1
 93
        1
176
     1
 44
0.0
176
     1
173
     0
176
     1
1001
ACAD
1000
AcDbSavedByObjectVersion
1070
     0
  0
VISUALSTYLE
  5
32
102
{ACAD_XDICTIONARY
360
179
102
}
102
{ACAD_REACTORS
330
29
102
}
330
29
100
AcDbVisualStyle
  2
Conceptual
 70
     9
177
     2
291
     0
 71
     3
176
     1
 72
     2
176
     1
 73
     0
176
     1
 90
        0
176
     1
 40
0.6
176
     1
 41
30.0
176
     1
 63
     7
421
 16777215
176
     1
 74
     2
176
     1
 91
        2
176
     1
 64
     7
176
     1
 65
   257
176
     1
 75
     1
176
     1
175
     1
176
     1
 42
179.0
176
     1
 92
        8
176
     1
 66
     7
176
     1
 43
1.0
176
     1
 76
     1
176
     1
 77
     6
176
     1
 78
     2
176
     1
 67
     7
176
     1
 79
     3
176
     1
170
     0
176
     1
171
     0
176
     1
290
     0
176
     1
 93
        1
176
     1
 44
0.0
176
     1
173
     0
176
     1
1001
ACAD
1000
AcDbSavedByObjectVersion
1070
     0
  0
VISUALSTYLE
  5
34
102
{ACAD_XDICTIONARY
360
17D
102
}
102
{ACAD_REACTORS
330
29
102
}
330
29
100
AcDbVisualStyle
  2
Dim
 70
    11
177
     2
291
     1
 71
     2
176
     1
 72
     2
176
     1
 73
     0
176
     1
 90
        0
176
     1
 40
0.6
176
     1
 41
30.0
176
     1
 63
     7
421
 16777215
176
     1
 74
     1
176
     1
 91
        4
176
     1
 64
     7
176
     1
 65
   257
176
     1
 75
     1
176
     1
175
     1
176
     1
 42
1.0
176
     1
 92
        8
176
     1
 66
     7
176
     1
 43
1.0
176
     1
 76
     1
176
     1
 77
     6
176
     1
 78
     2
176
     1
 67
     7
176
     1
 79
     5
176
     1
170
     0
176
     1
171
     0
176
     1
290
     0
176
     1
 93
        1
176
     1
 44
-50.0
176
     1
173
     0
176
     1
1001
ACAD
1000
AcDbSavedByObjectVersion
1070
     0
  0
VISUALSTYLE
  5
41
102
{ACAD_XDICTIONARY
360
197
102
}
102
{ACAD_REACTORS
330
29
102
}
330
29
100
AcDbVisualStyle
  2
EdgeColorOff
 70
    22
177
     2
291
     1
 71
     2
176
     0
 72
     2
176
     0
 73
     0
176
     0
 90
        0
176
     0
 40
0.6
176
     0
 41
30.0
176
     0
 63
     7
421
 16777215
176
     0
 74
     1
176
     0
 91
        4
176
     0
 64
     7
176
     0
 65
   257
176
     0
 75
     1
176
     0
175
     1
176
     0
 42
1.0
176
     0
 92
        8
176
     2
 66
     7
176
     0
 43
1.0
176
     0
 76
     1
176
     0
 77
     6
176
     0
 78
     2
176
     0
 67
     7
176
     0
 79
     5
176
     0
170
     0
176
     0
171
     0
176
     0
290
     0
176
     0
 93
        1
176
     0
 44
0.0
176
     0
173
     0
176
     0
1001
ACAD
1000
AcDbSavedByObjectVersion
1070
     0
  0
VISUALSTYLE
  5
38
102
{ACAD_XDICTIONARY
360
185
102
}
102
{ACAD_REACTORS
330
29
102
}
330
29
100
AcDbVisualStyle
  2
Facepattern
 70
    15
177
     2
291
     1
 71
     2
176
     1
 72
     2
176
     1
 73
     0
176
     1
 90
        0
176
     1
 40
0.6
176
     1
 41
30.0
176
     1
 63
     7
421
 16777215
176
     1
 74
     1
176
     1
 91
        4
176
     1
 64
     7
176
     1
 65
   257
176
     1
 75
     1
176
     1
175
     1
176
     1
 42
1.0
176
     1
 92
        8
176
     1
 66
     7
176
     1
 43
1.0
176
     1
 76
     1
176
     1
 77
     6
176
     1
 78
     2
176
     1
 67
     7
176
     1
 79
     5
176
     1
170
     0
176
     1
171
     0
176
     1
290
     0
176
     1
 93
        1
176
     1
 44
0.0
176
     1
173
     0
176
     1
1001
ACAD
1000
AcDbSavedByObjectVersion
1070
     0
  0
VISUALSTYLE
  5
2A
102
{ACAD_XDICTIONARY
360
169
102
}
102
{ACAD_REACTORS
330
29
102
}
330
29
100
AcDbVisualStyle
  2
Flat
 70
     0
177
     2
291
     1
 71
     2
176
     1
 72
     1
176
     1
 73
     1
176
     1
 90
        2
176
     1
 40
0.6
176
     1
 41
30.0
176
     1
 63
     7
421
 16777215
176
     1
 74
     0
176
     1
 91
        0
176
     1
 64
     7
176
     1
 65
   257
176
     1
 75
     1
176
     1
175
     1
176
     1
 42
1.0
176
     1
 92
        8
176
     1
 66
     7
176
     1
 43
1.0
176
     1
 76
     1
176
     1
 77
     6
176
     1
 78
     2
176
     1
 67
     7
176
     1
 79
     5
176
     1
170
     0
176
     1
171
     0
176
     1
290
     0
176
     1
 93
       13
176
     1
 44
0.0
176
     1
173
     0
176
     1
1001
ACAD
1000
AcDbSavedByObjectVersion
1070
     0
  0
VISUALSTYLE
  5
2B
102
{ACAD_XDICTIONARY
360
16B
102
}
102
{ACAD_REACTORS
330
29
102
}
330
29
100
AcDbVisualStyle
  2
FlatWithEdges
 70
     1
177
     2
291
     1
 71
     2
176
     1
 72
     1
176
     1
 73
     1
176
     1
 90
        2
176
     1
 40
0.6
176
     1
 41
30.0
176
     1
 63
     7
421
 16777215
176
     1
 74
     1
176
     1
 91
        0
176
     1
 64
     7
176
     1
 65
   257
176
     1
 75
     1
176
     1
175
     1
176
     1
 42
1.0
176
     1
 92
        0
176
     1
 66
   257
176
     1
 43
1.0
176
     1
 76
     1
176
     1
 77
     6
176
     1
 78
     2
176
     1
 67
     7
176
     1
 79
     5
176
     1
170
     0
176
     1
171
     0
176
     1
290
     0
176
     1
 93
       13
176
     1
 44
0.0
176
     1
173
     0
176
     1
1001
ACAD
1000
AcDbSavedByObjectVersion
1070
     0
  0
VISUALSTYLE
  5
2C
102
{ACAD_XDICTIONARY
360
16D
102
}
102
{ACAD_REACTORS
330
29
102
}
330
29
100
AcDbVisualStyle
  2
Gouraud
 70
     2
177
     2
291
     1
 71
     2
176
     1
 72
     2
176
     1
 73
     1
176
     1
 90
        2
176
     1
 40
0.6
176
     1
 41
30.0
176
     1
 63
     7
421
 16777215
176
     1
 74
     0
176
     1
 91
        0
176
     1
 64
     7
176
     1
 65
   257
176
     1
 75
     1
176
     1
175
     1
176
     1
 42
1.0
176
     1
 92
        0
176
     1
 66
     7
176
     1
 43
1.0
176
     1
 76
     1
176
     1
 77
     6
176
     1
 78
     2
176
     1
 67
     7
176
     1
 79
     5
176
     1
170
     0
176
     1
171
     0
176
     1
290
     0
176
     1
 93
       13
176
     1
 44
0.0
176
     1
173
     0
176
     1
1001
ACAD
1000
AcDbSavedByObjectVersion
1070
     0
  0
VISUALSTYLE
  5
2D
102
{ACAD_XDICTIONARY
360
16F
102
}
102
{ACAD_REACTORS
330
29
102
}
330
29
100
AcDbVisualStyle
  2
GouraudWithEdges
 70
     3
177
     2
291
     1
 71
     2
176
     1
 72
     2
176
     1
 73
     1
176
     1
 90
        2
176
     1
 40
0.6
176
     1
 41
30.0
176
     1
 63
     7
421
 16777215
176
     1
 74
     1
176
     1
 91
        0
176
     1
 64
     7
176
     1
 65
   257
176
     1
 75
     1
176
     1
175
     1
176
     1
 42
1.0
176
     1
 92
        0
176
     1
 66
   257
176
     1
 43
1.0
176
     1
 76
     1
176
     1
 77
     6
176
     1
 78
     2
176
     1
 67
     7
176
     1
 79
     5
176
     1
170
     0
176
     1
171
     0
176
     1
290
     0
176
     1
 93
       13
176
     1
 44
0.0
176
     1
173
     0
176
     1
1001
ACAD
1000
AcDbSavedByObjectVersion
1070
     0
  0
VISUALSTYLE
  5
31
102
{ACAD_XDICTIONARY
360
177
102
}
102
{ACAD_REACTORS
330
29
102
}
330
29
100
AcDbVisualStyle
  2
Hidden
 70
     6
177
     2
291
     0
 71
     1
176
     1
 72
     2
176
     1
 73
     2
176
     1
 90
        0
176
     1
 40
0.6
176
     1
 41
30.0
176
     1
 63
     7
421
 16777215
176
     1
 74
     2
176
     1
 91
        2
176
     1
 64
     7
176
     1
 65
   257
176
     1
 75
     2
176
     1
175
     1
176
     1
 42
40.0
176
     1
 92
        0
176
     1
 66
   257
176
     1
 43
1.0
176
     1
 76
     1
176
     1
 77
     6
176
     1
 78
     2
176
     1
 67
     7
176
     1
 79
     3
176
     1
170
     0
176
     1
171
     0
176
     1
290
     0
176
     1
 93
        1
176
     1
 44
0.0
176
     1
173
     0
176
     1
1001
ACAD
1000
AcDbSavedByObjectVersion
1070
     0
  0
VISUALSTYLE
  5
3F
102
{ACAD_XDICTIONARY
360
193
102
}
102
{ACAD_REACTORS
330
29
102
}
330
29
100
AcDbVisualStyle
  2
JitterOff
 70
    20
177
     2
291
     1
 71
     2
176
     0
 72
     2
176
     0
 73
     0
176
     0
 90
        0
176
     0
 40
0.6
176
     0
 41
30.0
176
     0
 63
     7
421
 16777215
176
     0
 74
     1
176
     0
 91
        4
176
     0
 64
     7
176
     0
 65
   257
176
     0
 75
     1
176
     0
175
     1
176
     0
 42
1.0
176
     0
 92
       10
176
     2
 66
     7
176
     0
 43
1.0
176
     0
 76
     1
176
     0
 77
     6
176
     0
 78
     2
176
     0
 67
     7
176
     0
 79
     5
176
     0
170
     0
176
     0
171
     0
176
     0
290
     0
176
     0
 93
        1
176
     0
 44
0.0
176
     0
173
     0
176
     0
1001
ACAD
1000
AcDbSavedByObjectVersion
1070
     0
  0
VISUALSTYLE
  5
37
102
{ACAD_XDICTIONARY
360
183
102
}
102
{ACAD_REACTORS
330
29
102
}
330
29
100
AcDbVisualStyle
  2
Linepattern
 70
    14
177
     2
291
     1
 71
     2
176
     1
 72
     2
176
     1
 73
     0
176
     1
 90
        0
176
     1
 40
0.6
176
     1
 41
30.0
176
     1
 63
     7
421
 16777215
176
     1
 74
     1
176
     1
 91
        4
176
     1
 64
     7
176
     1
 65
   257
176
     1
 75
     7
176
     1
175
     7
176
     1
 42
1.0
176
     1
 92
        8
176
     1
 66
     7
176
     1
 43
1.0
176
     1
 76
     1
176
     1
 77
     6
176
     1
 78
     2
176
     1
 67
     7
176
     1
 79
     5
176
     1
170
     0
176
     1
171
     0
176
     1
290
     0
176
     1
 93
        1
176
     1
 44
0.0
176
     1
173
     0
176
     1
1001
ACAD
1000
AcDbSavedByObjectVersion
1070
     0
  0
VISUALSTYLE
  5
40
102
{ACAD_XDICTIONARY
360
195
102
}
102
{ACAD_REACTORS
330
29
102
}
330
29
100
AcDbVisualStyle
  2
OverhangOff
 70
    21
177
     2
291
     1
 71
     2
176
     0
 72
     2
176
     0
 73
     0
176
     0
 90
        0
176
     0
 40
0.6
176
     0
 41
30.0
176
     0
 63
     7
421
 16777215
176
     0
 74
     1
176
     0
 91
        4
176
     0
 64
     7
176
     0
 65
   257
176
     0
 75
     1
176
     0
175
     1
176
     0
 42
1.0
176
     0
 92
        9
176
     2
 66
     7
176
     0
 43
1.0
176
     0
 76
     1
176
     0
 77
     6
176
     0
 78
     2
176
     0
 67
     7
176
     0
 79
     5
176
     0
170
     0
176
     0
171
     0
176
     0
290
     0
176
     0
 93
        1
176
     0
 44
0.0
176
     0
173
     0
176
     0
1001
ACAD
1000
AcDbSavedByObjectVersion
1070
     0
  0
VISUALSTYLE
  5
33
102
{ACAD_XDICTIONARY
360
17B
102
}
102
{ACAD_REACTORS
330
29
102
}
330
29
100
AcDbVisualStyle
  2
Realistic
 70
     8
177
     2
291
     0
 71
     2
176
     1
 72
     3
176
     1
 73
     0
176
     1
 90
        2
176
     1
 40
0.6
176
     1
 41
30.0
176
     1
 63
     7
421
 16777215
176
     1
 74
     0
176
     1
 91
        0
176
     1
 64
     7
176
     1
 65
   257
176
     1
 75
     1
176
     1
175
     1
176
     1
 42
1.0
176
     1
 92
        8
176
     1
 66
   257
176
     1
 43
1.0
176
     1
 76
     1
176
     1
 77
     6
176
     1
 78
     2
176
     1
 67
     7
176
     1
 79
     3
176
     1
170
     0
176
     1
171
     0
176
     1
290
     0
176
     1
 93
       13
176
     1
 44
0.0
176
     1
173
     0
176
     1
1001
ACAD
1000
AcDbSavedByObjectVersion
1070
     0
  0
VISUALSTYLE
  5
3E
102
{ACAD_XDICTIONARY
360
191
102
}
102
{ACAD_REACTORS
330
29
102
}
330
29
100
AcDbVisualStyle
  2
Shaded
 70
    27
177
     2
291
     0
 71
     2
176
     1
 72
     2
176
     1
 73
     1
176
     1
 90
        2
176
     1
 40
0.6
176
     1
 41
30.0
176
     1
 63
     7
421
 16777215
176
     1
 74
     0
176
     1
 91
        4
176
     1
 64
     7
176
     1
 65
   257
176
     1
 75
     1
176
     1
175
     1
176
     1
 42
1.0
176
     1
 92
        8
176
     1
 66
   257
176
     1
 43
1.0
176
     1
 76
     1
176
     1
 77
     6
176
     1
 78
     2
176
     1
 67
     8
425
  7895160
176
     1
 79
     3
176
     1
170
     0
176
     1
171
     0
176
     1
290
     0
176
     1
 93
        5
176
     1
 44
0.0
176
     1
173
     0
176
     1
1001
ACAD
1000
AcDbSavedByObjectVersion
1070
     0
  0
VISUALSTYLE
  5
3D
102
{ACAD_XDICTIONARY
360
18F
102
}
102
{ACAD_REACTORS
330
29
102
}
330
29
100
AcDbVisualStyle
  2
Shaded with edges
 70
    26
177
     2
291
     0
 71
     2
176
     1
 72
     2
176
     1
 73
     1
176
     1
 90
        2
176
     1
 40
0.6
176
     1
 41
30.0
176
     1
 63
     7
421
 16777215
176
     1
 74
     1
176
     1
 91
        2
176
     1
 64
     7
176
     1
 65
   257
176
     1
 75
     2
176
     1
175
     1
176
     1
 42
1.0
176
     1
 92
        8
176
     1
 66
   257
176
     1
 43
1.0
176
     1
 76
     1
176
     1
 77
     6
176
     1
 78
     2
176
     1
 67
     7
176
     1
 79
     3
176
     1
170
     0
176
     1
171
     0
176
     1
290
     0
176
     1
 93
        5
176
     1
 44
0.0
176
     1
173
     0
176
     1
1001
ACAD
1000
AcDbSavedByObjectVersion
1070
     0
  0
VISUALSTYLE
  5
3A
102
{ACAD_XDICTIONARY
360
189
102
}
102
{ACAD_REACTORS
330
29
102
}
330
29
100
AcDbVisualStyle
  2
Shades of Gray
 70
    23
177
     2
291
     0
 71
     2
176
     1
 72
     2
176
     1
 73
     3
176
     1
 90
        0
176
     1
 40
0.6
176
     1
 41
30.0
176
     1
 63
     7
421
 16777215
176
     1
 74
     2
176
     1
 91
        2
176
     1
 64
     7
176
     1
 65
     7
176
     1
 75
     1
176
     1
175
     1
176
     1
 42
40.0
176
     1
 92
        8
176
     1
 66
     7
176
     1
 43
1.0
176
     1
 76
     1
176
     1
 77
     6
176
     1
 78
     2
176
     1
 67
     7
176
     1
 79
     3
176
     1
170
     0
176
     1
171
     0
176
     1
290
     0
176
     1
 93
        1
176
     1
 44
0.0
176
     1
173
     0
176
     1
1001
ACAD
1000
AcDbSavedByObjectVersion
1070
     0
  0
VISUALSTYLE
  5
3B
102
{ACAD_XDICTIONARY
360
18B
102
}
102
{ACAD_REACTORS
330
29
102
}
330
29
100
AcDbVisualStyle
  2
Sketchy
 70
    24
177
     2
291
     0
 71
     1
176
     1
 72
     2
176
     1
 73
     2
176
     1
 90
        0
176
     1
 40
0.6
176
     1
 41
30.0
176
     1
 63
     7
421
 16777215
176
     1
 74
     2
176
     1
 91
        2
176
     1
 64
     7
176
     1
 65
     7
176
     1
 75
     1
176
     1
175
     1
176
     1
 42
40.0
176
     1
 92
       11
176
     1
 66
     7
176
     1
 43
1.0
176
     1
 76
     1
176
     1
 77
     6
176
     1
 78
     2
176
     1
 67
     7
176
     1
 79
     6
176
     1
170
     0
176
     1
171
     0
176
     1
290
     0
176
     1
 93
        1
176
     1
 44
0.0
176
     1
173
     0
176
     1
1001
ACAD
1000
AcDbSavedByObjectVersion
1070
     0
  0
VISUALSTYLE
  5
36
102
{ACAD_XDICTIONARY
360
181
102
}
102
{ACAD_REACTORS
330
29
102
}
330
29
100
AcDbVisualStyle
  2
Thicken
 70
    13
177
     2
291
     1
 71
     2
176
     1
 72
     2
176
     1
 73
     0
176
     1
 90
        0
176
     1
 40
0.6
176
     1
 41
30.0
176
     1
 63
     7
421
 16777215
176
     1
 74
     1
176
     1
 91
        4
176
     1
 64
     7
176
     1
 65
   257
176
     1
 75
     1
176
     1
175
     1
176
     1
 42
1.0
176
     1
 92
       12
176
     1
 66
     7
176
     1
 43
1.0
176
     1
 76
     1
176
     1
 77
     6
176
     1
 78
     2
176
     1
 67
     7
176
     1
 79
     5
176
     1
170
     0
176
     1
171
     0
176
     1
290
     0
176
     1
 93
        1
176
     1
 44
0.0
176
     1
173
     0
176
     1
1001
ACAD
1000
AcDbSavedByObjectVersion
1070
     0
  0
VISUALSTYLE
  5
30
102
{ACAD_XDICTIONARY
360
175
102
}
102
{ACAD_REACTORS
330
29
102
}
330
29
100
AcDbVisualStyle
  2
Wireframe
 70
     5
177
     2
291
     0
 71
     0
176
     1
 72
     2
176
     1
 73
     0
176
     1
 90
        0
176
     1
 40
0.6
176
     1
 41
30.0
176
     1
 63
     7
421
 16777215
176
     1
 74
     1
176
     1
 91
        4
176
     1
 64
     7
176
     1
 65
   257
176
     1
 75
     1
176
     1
175
     1
176
     1
 42
1.0
176
     1
 92
        0
176
     1
 66
   257
176
     1
 43
1.0
176
     1
 76
     1
176
     1
 77
     6
176
     1
 78
     2
176
     1
 67
     7
176
     1
 79
     3
176
     1
170
     0
176
     1
171
     0
176
     1
290
     0
176
     1
 93
        1
176
     1
 44
0.0
176
     1
173
     0
176
     1
1001
ACAD
1000
AcDbSavedByObjectVersion
1070
     0
  0
VISUALSTYLE
  5
3C
102
{ACAD_XDICTIONARY
360
18D
102
}
102
{ACAD_REACTORS
330
29
102
}
330
29
100
AcDbVisualStyle
  2
X-Ray
 70
    25
177
     2
291
     0
 71
     2
176
     1
 72
     2
176
     1
 73
     1
176
     1
 90
        1
176
     1
 40
0.5
176
     1
 41
30.0
176
     1
 63
     7
421
 16777215
176
     1
 74
     1
176
     1
 91
        0
176
     1
 64
     7
176
     1
 65
   257
176
     1
 75
     1
176
     1
175
     1
176
     1
 42
1.0
176
     1
 92
        8
176
     1
 66
     7
176
     1
 43
1.0
176
     1
 76
     1
176
     1
 77
     6
176
     1
 78
     2
176
     1
 67
     7
176
     1
 79
     3
176
     1
170
     0
176
     1
171
     0
176
     1
290
     0
176
     1
 93
       13
176
     1
 44
0.0
176
     1
173
     0
176
     1
1001
ACAD
1000
AcDbSavedByObjectVersion
1070
     0
  0
DICTIONARYVAR
  5
165
102
{ACAD_REACTORS
330
160
102
}
330
160
100
DictionaryVariables
280
     0
  1
1:1
  0
DICTIONARYVAR
  5
162
102
{ACAD_REACTORS
330
160
102
}
330
160
100
DictionaryVariables
280
     0
  1
STANDARD
  0
DICTIONARYVAR
  5
161
102
{ACAD_REACTORS
330
160
102
}
330
160
100
DictionaryVariables
280
     0
  1
STANDARD
  0
DICTIONARYVAR
  5
163
102
{ACAD_REACTORS
330
160
102
}
330
160
100
DictionaryVariables
280
     0
  1
Imperial24
  0
DICTIONARYVAR
  5
164
102
{ACAD_REACTORS
330
160
102
}
330
160
100
DictionaryVariables
280
     0
  1
Imperial24
  0
DICTIONARY
  5
19D
330
6B
100
AcDbDictionary
280
     1
281
     1
  3
ACAD_XREC_ROUNDTRIP
360
19E
  0
DICTIONARY
  5
1A
330
19
100
AcDbDictionary
280
     1
281
     1
  3
BUMPTILE
360
1C
  3
DIFFUSETILE
360
1B
  3
OPACITYTILE
360
1F
  3
REFLECTIONTILE
360
1E
  3
REFRACTIONTILE
360
20
  3
SPECULARTILE
360
1D
  0
DICTIONARY
  5
12
330
11
100
AcDbDictionary
280
     1
281
     1
  3
BUMPTILE
360
14
  3
DIFFUSETILE
360
13
  3
OPACITYTILE
360
17
  3
REFLECTIONTILE
360
16
  3
REFRACTIONTILE
360
18
  3
SPECULARTILE
360
15
  0
DICTIONARY
  5
22
330
21
100
AcDbDictionary
280
     1
281
     1
  3
BUMPTILE
360
24
  3
DIFFUSETILE
360
23
  3
OPACITYTILE
360
27
  3
REFLECTIONTILE
360
26
  3
REFRACTIONTILE
360
28
  3
SPECULARTILE
360
25
  0
DICTIONARY
  5
199
330
67
100
AcDbDictionary
280
     1
281
     1
  3
ACAD_XREC_ROUNDTRIP
360
19A
  0
DICTIONARY
  5
19B
330
69
100
AcDbDictionary
280
     1
281
     1
  3
ACAD_XREC_ROUNDTRIP
360
19C
  0
DICTIONARY
  5
166
330
65
100
AcDbDictionary
280
     1
281
     1
  3
ACAD_ROUNDTRIP_2008_TABLESTYLE_CELLSTYLEMAP
360
167
  0
DICTIONARY
  5
173
330
2F
100
AcDbDictionary
280
     1
281
     1
  3
ACAD_XREC_ROUNDTRIP
360
174
  0
DICTIONARY
  5
171
330
2E
100
AcDbDictionary
280
     1
281
     1
  3
ACAD_XREC_ROUNDTRIP
360
172
  0
DICTIONARY
  5
17F
330
35
100
AcDbDictionary
280
     1
281
     1
  3
ACAD_XREC_ROUNDTRIP
360
180
  0
DICTIONARY
  5
187
330
39
100
AcDbDictionary
280
     1
281
     1
  3
ACAD_XREC_ROUNDTRIP
360
188
  0
DICTIONARY
  5
179
330
32
100
AcDbDictionary
280
     1
281
     1
  3
ACAD_XREC_ROUNDTRIP
360
17A
  0
DICTIONARY
  5
17D
330
34
100
AcDbDictionary
280
     1
281
     1
  3
ACAD_XREC_ROUNDTRIP
360
17E
  0
DICTIONARY
  5
197
330
41
100
AcDbDictionary
280
     1
281
     1
  3
ACAD_XREC_ROUNDTRIP
360
198
  0
DICTIONARY
  5
185
330
38
100
AcDbDictionary
280
     1
281
     1
  3
ACAD_XREC_ROUNDTRIP
360
186
  0
DICTIONARY
  5
169
330
2A
100
AcDbDictionary
280
     1
281
     1
  3
ACAD_XREC_ROUNDTRIP
360
16A
  0
DICTIONARY
  5
16B
330
2B
100
AcDbDictionary
280
     1
281
     1
  3
ACAD_XREC_ROUNDTRIP
360
16C
  0
DICTIONARY
  5
16D
330
2C
100
AcDbDictionary
280
     1
281
     1
  3
ACAD_XREC_ROUNDTRIP
360
16E
  0
DICTIONARY
  5
16F
330
2D
100
AcDbDictionary
280
     1
281
     1
  3
ACAD_XREC_ROUNDTRIP
360
170
  0
DICTIONARY
  5
177
330
31
100
AcDbDictionary
280
     1
281
     1
  3
ACAD_XREC_ROUNDTRIP
360
178
  0
DICTIONARY
  5
193
330
3F
100
AcDbDictionary
280
     1
281
     1
  3
ACAD_XREC_ROUNDTRIP
360
194
  0
DICTIONARY
  5
183
330
37
100
AcDbDictionary
280
     1
281
     1
  3
ACAD_XREC_ROUNDTRIP
360
184
  0
DICTIONARY
  5
195
330
40
100
AcDbDictionary
280
     1
281
     1
  3
ACAD_XREC_ROUNDTRIP
360
196
  0
DICTIONARY
  5
17B
330
33
100
AcDbDictionary
280
     1
281
     1
  3
ACAD_XREC_ROUNDTRIP
360
17C
  0
DICTIONARY
  5
191
330
3E
100
AcDbDictionary
280
     1
281
     1
  3
ACAD_XREC_ROUNDTRIP
360
192
  0
DICTIONARY
  5
18F
330
3D
100
AcDbDictionary
280
     1
281
     1
  3
ACAD_XREC_ROUNDTRIP
360
190
  0
DICTIONARY
  5
189
330
3A
100
AcDbDictionary
280
     1
281
     1
  3
ACAD_XREC_ROUNDTRIP
360
18A
  0
DICTIONARY
  5
18B
330
3B
100
AcDbDictionary
280
     1
281
     1
  3
ACAD_XREC_ROUNDTRIP
360
18C
  0
DICTIONARY
  5
181
330
36
100
AcDbDictionary
280
     1
281
     1
  3
ACAD_XREC_ROUNDTRIP
360
182
  0
DICTIONARY
  5
175
330
30
100
AcDbDictionary
280
     1
281
     1
  3
ACAD_XREC_ROUNDTRIP
360
176
  0
DICTIONARY
  5
18D
330
3C
100
AcDbDictionary
280
     1
281
     1
  3
ACAD_XREC_ROUNDTRIP
360
18E
  0
XRECORD
  5
19E
102
{ACAD_REACTORS
330
19D
102
}
330
19D
100
AcDbXrecord
280
     1
102
DISPLAYNAME
  1
Imperial24
102
FLAGS
 90
        0
  0
XRECORD
  5
1C
102
{ACAD_REACTORS
330
1A
102
}
330
1A
100
AcDbXrecord
280
     1
270
     1
271
     1
  0
XRECORD
  5
1B
102
{ACAD_REACTORS
330
1A
102
}
330
1A
100
AcDbXrecord
280
     1
270
     1
271
     1
  0
XRECORD
  5
1F
102
{ACAD_REACTORS
330
1A
102
}
330
1A
100
AcDbXrecord
280
     1
270
     1
271
     1
  0
XRECORD
  5
1E
102
{ACAD_REACTORS
330
1A
102
}
330
1A
100
AcDbXrecord
280
     1
270
     1
271
     1
  0
XRECORD
  5
20
102
{ACAD_REACTORS
330
1A
102
}
330
1A
100
AcDbXrecord
280
     1
270
     1
271
     1
  0
XRECORD
  5
1D
102
{ACAD_REACTORS
330
1A
102
}
330
1A
100
AcDbXrecord
280
     1
270
     1
271
     1
  0
XRECORD
  5
14
102
{ACAD_REACTORS
330
12
102
}
330
12
100
AcDbXrecord
280
     1
270
     1
271
     1
  0
XRECORD
  5
13
102
{ACAD_REACTORS
330
12
102
}
330
12
100
AcDbXrecord
280
     1
270
     1
271
     1
  0
XRECORD
  5
17
102
{ACAD_REACTORS
330
12
102
}
330
12
100
AcDbXrecord
280
     1
270
     1
271
     1
  0
XRECORD
  5
16
102
{ACAD_REACTORS
330
12
102
}
330
12
100
AcDbXrecord
280
     1
270
     1
271
     1
  0
XRECORD
  5
18
102
{ACAD_REACTORS
330
12
102
}
330
12
100
AcDbXrecord
280
     1
270
     1
271
     1
  0
XRECORD
  5
15
102
{ACAD_REACTORS
330
12
102
}
330
12
100
AcDbXrecord
280
     1
270
     1
271
     1
  0
XRECORD
  5
24
102
{ACAD_REACTORS
330
22
102
}
330
22
100
AcDbXrecord
280
     1
270
     1
271
     1
  0
XRECORD
  5
23
102
{ACAD_REACTORS
330
22
102
}
330
22
100
AcDbXrecord
280
     1
270
     1
271
     1
  0
XRECORD
  5
27
102
{ACAD_REACTORS
330
22
102
}
330
22
100
AcDbXrecord
280
     1
270
     1
271
     1
  0
XRECORD
  5
26
102
{ACAD_REACTORS
330
22
102
}
330
22
100
AcDbXrecord
280
     1
270
     1
271
     1
  0
XRECORD
  5
28
102
{ACAD_REACTORS
330
22
102
}
330
22
100
AcDbXrecord
280
     1
270
     1
271
     1
  0
XRECORD
  5
25
102
{ACAD_REACTORS
330
22
102
}
330
22
100
AcDbXrecord
280
     1
270
     1
271
     1
  0
XRECORD
  5
19A
102
{ACAD_REACTORS
330
199
102
}
330
199
100
AcDbXrecord
280
     1
102
ACAD_ROUNDTRIP_2012_MLEADER_STYLE
298
     1
  0
XRECORD
  5
19C
102
{ACAD_REACTORS
330
19B
102
}
330
19B
100
AcDbXrecord
280
     1
102
DISPLAYNAME
  1
Imperial24
102
FLAGS
 90
        0
  0
CELLSTYLEMAP
  5
167
102
{ACAD_REACTORS
330
166
102
}
330
166
100
AcDbCellStyleMap
 90
        3
300
CELLSTYLE
  1
TABLEFORMAT_BEGIN
 90
        5
170
     1
 91
        0
 92
    32768
 62
   257
 93
        1
300
CONTENTFORMAT
  1
CONTENTFORMAT_BEGIN
 90
        0
 91
        0
 92
      512
 93
        0
300

 40
0.0
140
1.0
 94
        5
 62
     0
340
55
144
0.25
309
CONTENTFORMAT_END
171
     0
 94
        0
309
TABLEFORMAT_END
  1
CELLSTYLE_BEGIN
 90
        1
 91
        1
300
_TITLE
309
CELLSTYLE_END
300
CELLSTYLE
  1
TABLEFORMAT_BEGIN
 90
        5
170
     1
 91
        0
 92
        0
 62
   257
 93
        1
300
CONTENTFORMAT
  1
CONTENTFORMAT_BEGIN
 90
        0
 91
        0
 92
      512
 93
        0
300

 40
0.0
140
1.0
 94
        5
 62
     0
340
55
144
0.18
309
CONTENTFORMAT_END
171
     0
 94
        0
309
TABLEFORMAT_END
  1
CELLSTYLE_BEGIN
 90
        2
 91
        1
300
_HEADER
309
CELLSTYLE_END
300
CELLSTYLE
  1
TABLEFORMAT_BEGIN
 90
        5
170
     1
 91
        0
 92
        0
 62
   257
 93
        1
300
CONTENTFORMAT
  1
CONTENTFORMAT_BEGIN
 90
        0
 91
        0
 92
      512
 93
        0
300

 40
0.0
140
1.0
 94
        2
 62
     0
340
55
144
0.18
309
CONTENTFORMAT_END
171
     0
 94
        0
309
TABLEFORMAT_END
  1
CELLSTYLE_BEGIN
 90
        3
 91
        2
300
_DATA
309
CELLSTYLE_END
  0
XRECORD
  5
174
102
{ACAD_REACTORS
330
173
102
}
330
173
100
AcDbXrecord
280
     1
102
RTVSPost2010Prop28
280
     1
102
RTVSPost2010PropOp28
 70
     1
102
RTVSPost2010Prop29
280
     1
102
RTVSPost2010PropOp29
 70
     1
102
RTVSPost2010Prop30
280
     0
102
RTVSPost2010PropOp30
 70
     1
102
RTVSPost2010Prop31
280
     0
102
RTVSPost2010PropOp31
 70
     1
102
RTVSPost2010Prop32
280
     0
102
RTVSPost2010PropOp32
 70
     1
102
RTVSPost2010Prop33
280
     0
102
RTVSPost2010PropOp33
 70
     1
102
RTVSPost2010Prop34
280
     0
102
RTVSPost2010PropOp34
 70
     1
102
RTVSPost2010Prop35
280
     0
102
RTVSPost2010PropOp35
 70
     1
102
RTVSPost2010Prop36
280
     0
102
RTVSPost2010PropOp36
 70
     1
102
RTVSPost2010Prop37
 90
       50
102
RTVSPost2010PropOp37
 70
     1
102
RTVSPost2010Prop38
140
0.0
102
RTVSPost2010PropOp38
 70
     1
102
RTVSPost2010Prop39
140
1.0
102
RTVSPost2010PropOp39
 70
     1
102
RTVSPost2010Prop40
 90
        0
102
RTVSPost2010PropOp40
 70
     1
102
RTVSPost2010Prop41ColorIndex
 90
       18
102
RTVSPost2010Prop41ColorRGB
 90
        0
102
RTVSPost2010PropOp41
 70
     1
102
RTVSPost2010Prop42
 90
       50
102
RTVSPost2010PropOp42
 70
     1
102
RTVSPost2010Prop43
 90
        3
102
RTVSPost2010PropOp43
 70
     1
102
RTVSPost2010Prop44ColorIndex
 90
        5
102
RTVSPost2010Prop44ColorRGB
 90
      255
102
RTVSPost2010PropOp44
 70
     1
102
RTVSPost2010Prop45
280
     0
102
RTVSPost2010PropOp45
 70
     1
102
RTVSPost2010Prop46
 90
       50
102
RTVSPost2010PropOp46
 70
     1
102
RTVSPost2010Prop47
 90
       50
102
RTVSPost2010PropOp47
 70
     1
102
RTVSPost2010Prop48
 90
       50
102
RTVSPost2010PropOp48
 70
     1
102
RTVSPost2010Prop49
280
     0
102
RTVSPost2010PropOp49
 70
     1
102
RTVSPost2010Prop50
 90
       50
102
RTVSPost2010PropOp50
 70
     1
102
RTVSPost2010Prop51ColorIndex
 90
      256
102
RTVSPost2010Prop51ColorRGB
 90
-16777216
102
RTVSPost2010PropOp51
 70
     0
102
RTVSPost2010Prop52
140
1.0
102
RTVSPost2010PropOp52
 70
     0
102
RTVSPost2010Prop53
 90
        2
102
RTVSPost2010PropOp53
 70
     1
102
RTVSPost2010Prop54
  1
strokes_ogs.tif
102
RTVSPost2010PropOp54
 70
     1
102
RTVSPost2010Prop55
280
     0
102
RTVSPost2010PropOp55
 70
     1
102
RTVSPost2010Prop56
140
1.0
102
RTVSPost2010PropOp56
 70
     1
102
RTVSPost2010Prop57
140
1.0
102
RTVSPost2010PropOp57
 70
     1
  0
XRECORD
  5
172
102
{ACAD_REACTORS
330
171
102
}
330
171
100
AcDbXrecord
280
     1
102
RTVSPost2010Prop28
280
     0
102
RTVSPost2010PropOp28
 70
     1
102
RTVSPost2010Prop29
280
     1
102
RTVSPost2010PropOp29
 70
     1
102
RTVSPost2010Prop30
280
     1
102
RTVSPost2010PropOp30
 70
     1
102
RTVSPost2010Prop31
280
     0
102
RTVSPost2010PropOp31
 70
     1
102
RTVSPost2010Prop32
280
     0
102
RTVSPost2010PropOp32
 70
     1
102
RTVSPost2010Prop33
280
     0
102
RTVSPost2010PropOp33
 70
     1
102
RTVSPost2010Prop34
280
     0
102
RTVSPost2010PropOp34
 70
     1
102
RTVSPost2010Prop35
280
     0
102
RTVSPost2010PropOp35
 70
     1
102
RTVSPost2010Prop36
280
     0
102
RTVSPost2010PropOp36
 70
     1
102
RTVSPost2010Prop37
 90
       50
102
RTVSPost2010PropOp37
 70
     1
102
RTVSPost2010Prop38
140
0.0
102
RTVSPost2010PropOp38
 70
     1
102
RTVSPost2010Prop39
140
1.0
102
RTVSPost2010PropOp39
 70
     1
102
RTVSPost2010Prop40
 90
        0
102
RTVSPost2010PropOp40
 70
     1
102
RTVSPost2010Prop41ColorIndex
 90
       18
102
RTVSPost2010Prop41ColorRGB
 90
        0
102
RTVSPost2010PropOp41
 70
     1
102
RTVSPost2010Prop42
 90
       50
102
RTVSPost2010PropOp42
 70
     1
102
RTVSPost2010Prop43
 90
        3
102
RTVSPost2010PropOp43
 70
     1
102
RTVSPost2010Prop44ColorIndex
 90
        5
102
RTVSPost2010Prop44ColorRGB
 90
      255
102
RTVSPost2010PropOp44
 70
     1
102
RTVSPost2010Prop45
280
     0
102
RTVSPost2010PropOp45
 70
     1
102
RTVSPost2010Prop46
 90
       50
102
RTVSPost2010PropOp46
 70
     1
102
RTVSPost2010Prop47
 90
       50
102
RTVSPost2010PropOp47
 70
     1
102
RTVSPost2010Prop48
 90
       50
102
RTVSPost2010PropOp48
 70
     1
102
RTVSPost2010Prop49
280
     0
102
RTVSPost2010PropOp49
 70
     1
102
RTVSPost2010Prop50
 90
       50
102
RTVSPost2010PropOp50
 70
     1
102
RTVSPost2010Prop51ColorIndex
 90
      256
102
RTVSPost2010Prop51ColorRGB
 90
-16777216
102
RTVSPost2010PropOp51
 70
     0
102
RTVSPost2010Prop52
140
1.0
102
RTVSPost2010PropOp52
 70
     0
102
RTVSPost2010Prop53
 90
        2
102
RTVSPost2010PropOp53
 70
     1
102
RTVSPost2010Prop54
  1
strokes_ogs.tif
102
RTVSPost2010PropOp54
 70
     1
102
RTVSPost2010Prop55
280
     0
102
RTVSPost2010PropOp55
 70
     1
102
RTVSPost2010Prop56
140
1.0
102
RTVSPost2010PropOp56
 70
     1
102
RTVSPost2010Prop57
140
1.0
102
RTVSPost2010PropOp57
 70
     1
  0
XRECORD
  5
180
102
{ACAD_REACTORS
330
17F
102
}
330
17F
100
AcDbXrecord
280
     1
102
RTVSPost2010Prop28
280
     0
102
RTVSPost2010PropOp28
 70
     1
102
RTVSPost2010Prop29
280
     1
102
RTVSPost2010PropOp29
 70
     1
102
RTVSPost2010Prop30
280
     1
102
RTVSPost2010PropOp30
 70
     1
102
RTVSPost2010Prop31
280
     0
102
RTVSPost2010PropOp31
 70
     1
102
RTVSPost2010Prop32
280
     0
102
RTVSPost2010PropOp32
 70
     1
102
RTVSPost2010Prop33
280
     0
102
RTVSPost2010PropOp33
 70
     1
102
RTVSPost2010Prop34
280
     0
102
RTVSPost2010PropOp34
 70
     1
102
RTVSPost2010Prop35
280
     0
102
RTVSPost2010PropOp35
 70
     1
102
RTVSPost2010Prop36
280
     0
102
RTVSPost2010PropOp36
 70
     1
102
RTVSPost2010Prop37
 90
       50
102
RTVSPost2010PropOp37
 70
     1
102
RTVSPost2010Prop38
140
0.0
102
RTVSPost2010PropOp38
 70
     1
102
RTVSPost2010Prop39
140
1.0
102
RTVSPost2010PropOp39
 70
     1
102
RTVSPost2010Prop40
 90
        0
102
RTVSPost2010PropOp40
 70
     1
102
RTVSPost2010Prop41ColorIndex
 90
       18
102
RTVSPost2010Prop41ColorRGB
 90
        0
102
RTVSPost2010PropOp41
 70
     1
102
RTVSPost2010Prop42
 90
       50
102
RTVSPost2010PropOp42
 70
     1
102
RTVSPost2010Prop43
 90
        3
102
RTVSPost2010PropOp43
 70
     1
102
RTVSPost2010Prop44ColorIndex
 90
        5
102
RTVSPost2010Prop44ColorRGB
 90
      255
102
RTVSPost2010PropOp44
 70
     1
102
RTVSPost2010Prop45
280
     0
102
RTVSPost2010PropOp45
 70
     1
102
RTVSPost2010Prop46
 90
       50
102
RTVSPost2010PropOp46
 70
     1
102
RTVSPost2010Prop47
 90
       50
102
RTVSPost2010PropOp47
 70
     1
102
RTVSPost2010Prop48
 90
       50
102
RTVSPost2010PropOp48
 70
     1
102
RTVSPost2010Prop49
280
     0
102
RTVSPost2010PropOp49
 70
     1
102
RTVSPost2010Prop50
 90
       50
102
RTVSPost2010PropOp50
 70
     1
102
RTVSPost2010Prop51ColorIndex
 90
      256
102
RTVSPost2010Prop51ColorRGB
 90
-16777216
102
RTVSPost2010PropOp51
 70
     0
102
RTVSPost2010Prop52
140
1.0
102
RTVSPost2010PropOp52
 70
     0
102
RTVSPost2010Prop53
 90
        2
102
RTVSPost2010PropOp53
 70
     1
102
RTVSPost2010Prop54
  1
strokes_ogs.tif
102
RTVSPost2010PropOp54
 70
     1
102
RTVSPost2010Prop55
280
     0
102
RTVSPost2010PropOp55
 70
     1
102
RTVSPost2010Prop56
140
1.0
102
RTVSPost2010PropOp56
 70
     1
102
RTVSPost2010Prop57
140
1.0
102
RTVSPost2010PropOp57
 70
     1
  0
XRECORD
  5
188
102
{ACAD_REACTORS
330
187
102
}
330
187
100
AcDbXrecord
280
     1
102
RTVSPost2010Prop28
280
     0
102
RTVSPost2010PropOp28
 70
     1
102
RTVSPost2010Prop29
280
     1
102
RTVSPost2010PropOp29
 70
     1
102
RTVSPost2010Prop30
280
     1
102
RTVSPost2010PropOp30
 70
     1
102
RTVSPost2010Prop31
280
     0
102
RTVSPost2010PropOp31
 70
     1
102
RTVSPost2010Prop32
280
     0
102
RTVSPost2010PropOp32
 70
     1
102
RTVSPost2010Prop33
280
     0
102
RTVSPost2010PropOp33
 70
     1
102
RTVSPost2010Prop34
280
     0
102
RTVSPost2010PropOp34
 70
     1
102
RTVSPost2010Prop35
280
     0
102
RTVSPost2010PropOp35
 70
     1
102
RTVSPost2010Prop36
280
     0
102
RTVSPost2010PropOp36
 70
     1
102
RTVSPost2010Prop37
 90
       50
102
RTVSPost2010PropOp37
 70
     1
102
RTVSPost2010Prop38
140
0.0
102
RTVSPost2010PropOp38
 70
     1
102
RTVSPost2010Prop39
140
1.0
102
RTVSPost2010PropOp39
 70
     1
102
RTVSPost2010Prop40
 90
        0
102
RTVSPost2010PropOp40
 70
     1
102
RTVSPost2010Prop41ColorIndex
 90
       18
102
RTVSPost2010Prop41ColorRGB
 90
        0
102
RTVSPost2010PropOp41
 70
     1
102
RTVSPost2010Prop42
 90
       50
102
RTVSPost2010PropOp42
 70
     1
102
RTVSPost2010Prop43
 90
        3
102
RTVSPost2010PropOp43
 70
     1
102
RTVSPost2010Prop44ColorIndex
 90
        5
102
RTVSPost2010Prop44ColorRGB
 90
      255
102
RTVSPost2010PropOp44
 70
     1
102
RTVSPost2010Prop45
280
     0
102
RTVSPost2010PropOp45
 70
     1
102
RTVSPost2010Prop46
 90
       50
102
RTVSPost2010PropOp46
 70
     1
102
RTVSPost2010Prop47
 90
       50
102
RTVSPost2010PropOp47
 70
     1
102
RTVSPost2010Prop48
 90
       50
102
RTVSPost2010PropOp48
 70
     1
102
RTVSPost2010Prop49
280
     0
102
RTVSPost2010PropOp49
 70
     1
102
RTVSPost2010Prop50
 90
       50
102
RTVSPost2010PropOp50
 70
     1
102
RTVSPost2010Prop51ColorIndex
 90
      256
102
RTVSPost2010Prop51ColorRGB
 90
-16777216
102
RTVSPost2010PropOp51
 70
     0
102
RTVSPost2010Prop52
140
1.0
102
RTVSPost2010PropOp52
 70
     0
102
RTVSPost2010Prop53
 90
        2
102
RTVSPost2010PropOp53
 70
     1
102
RTVSPost2010Prop54
  1
strokes_ogs.tif
102
RTVSPost2010PropOp54
 70
     1
102
RTVSPost2010Prop55
280
     0
102
RTVSPost2010PropOp55
 70
     1
102
RTVSPost2010Prop56
140
1.0
102
RTVSPost2010PropOp56
 70
     1
102
RTVSPost2010Prop57
140
1.0
102
RTVSPost2010PropOp57
 70
     1
  0
XRECORD
  5
17A
102
{ACAD_REACTORS
330
179
102
}
330
179
100
AcDbXrecord
280
     1
102
RTVSPost2010Prop28
280
     0
102
RTVSPost2010PropOp28
 70
     1
102
RTVSPost2010Prop29
280
     1
102
RTVSPost2010PropOp29
 70
     1
102
RTVSPost2010Prop30
280
     1
102
RTVSPost2010PropOp30
 70
     1
102
RTVSPost2010Prop31
280
     0
102
RTVSPost2010PropOp31
 70
     1
102
RTVSPost2010Prop32
280
     0
102
RTVSPost2010PropOp32
 70
     1
102
RTVSPost2010Prop33
280
     0
102
RTVSPost2010PropOp33
 70
     1
102
RTVSPost2010Prop34
280
     0
102
RTVSPost2010PropOp34
 70
     1
102
RTVSPost2010Prop35
280
     0
102
RTVSPost2010PropOp35
 70
     1
102
RTVSPost2010Prop36
280
     0
102
RTVSPost2010PropOp36
 70
     1
102
RTVSPost2010Prop37
 90
       50
102
RTVSPost2010PropOp37
 70
     1
102
RTVSPost2010Prop38
140
0.0
102
RTVSPost2010PropOp38
 70
     1
102
RTVSPost2010Prop39
140
1.0
102
RTVSPost2010PropOp39
 70
     1
102
RTVSPost2010Prop40
 90
        0
102
RTVSPost2010PropOp40
 70
     1
102
RTVSPost2010Prop41ColorIndex
 90
       18
102
RTVSPost2010Prop41ColorRGB
 90
        0
102
RTVSPost2010PropOp41
 70
     1
102
RTVSPost2010Prop42
 90
       50
102
RTVSPost2010PropOp42
 70
     1
102
RTVSPost2010Prop43
 90
        3
102
RTVSPost2010PropOp43
 70
     1
102
RTVSPost2010Prop44ColorIndex
 90
        5
102
RTVSPost2010Prop44ColorRGB
 90
      255
102
RTVSPost2010PropOp44
 70
     1
102
RTVSPost2010Prop45
280
     0
102
RTVSPost2010PropOp45
 70
     1
102
RTVSPost2010Prop46
 90
       50
102
RTVSPost2010PropOp46
 70
     1
102
RTVSPost2010Prop47
 90
       50
102
RTVSPost2010PropOp47
 70
     1
102
RTVSPost2010Prop48
 90
       50
102
RTVSPost2010PropOp48
 70
     1
102
RTVSPost2010Prop49
280
     0
102
RTVSPost2010PropOp49
 70
     1
102
RTVSPost2010Prop50
 90
       50
102
RTVSPost2010PropOp50
 70
     1
102
RTVSPost2010Prop51ColorIndex
 90
      256
102
RTVSPost2010Prop51ColorRGB
 90
-16777216
102
RTVSPost2010PropOp51
 70
     0
102
RTVSPost2010Prop52
140
1.0
102
RTVSPost2010PropOp52
 70
     0
102
RTVSPost2010Prop53
 90
        2
102
RTVSPost2010PropOp53
 70
     1
102
RTVSPost2010Prop54
  1
strokes_ogs.tif
102
RTVSPost2010PropOp54
 70
     1
102
RTVSPost2010Prop55
280
     0
102
RTVSPost2010PropOp55
 70
     1
102
RTVSPost2010Prop56
140
1.0
102
RTVSPost2010PropOp56
 70
     1
102
RTVSPost2010Prop57
140
1.0
102
RTVSPost2010PropOp57
 70
     1
  0
XRECORD
  5
17E
102
{ACAD_REACTORS
330
17D
102
}
330
17D
100
AcDbXrecord
280
     1
102
RTVSPost2010Prop28
280
     0
102
RTVSPost2010PropOp28
 70
     1
102
RTVSPost2010Prop29
280
     1
102
RTVSPost2010PropOp29
 70
     1
102
RTVSPost2010Prop30
280
     1
102
RTVSPost2010PropOp30
 70
     1
102
RTVSPost2010Prop31
280
     0
102
RTVSPost2010PropOp31
 70
     1
102
RTVSPost2010Prop32
280
     0
102
RTVSPost2010PropOp32
 70
     1
102
RTVSPost2010Prop33
280
     0
102
RTVSPost2010PropOp33
 70
     1
102
RTVSPost2010Prop34
280
     0
102
RTVSPost2010PropOp34
 70
     1
102
RTVSPost2010Prop35
280
     0
102
RTVSPost2010PropOp35
 70
     1
102
RTVSPost2010Prop36
280
     0
102
RTVSPost2010PropOp36
 70
     1
102
RTVSPost2010Prop37
 90
       50
102
RTVSPost2010PropOp37
 70
     1
102
RTVSPost2010Prop38
140
0.0
102
RTVSPost2010PropOp38
 70
     1
102
RTVSPost2010Prop39
140
1.0
102
RTVSPost2010PropOp39
 70
     1
102
RTVSPost2010Prop40
 90
        0
102
RTVSPost2010PropOp40
 70
     1
102
RTVSPost2010Prop41ColorIndex
 90
       18
102
RTVSPost2010Prop41ColorRGB
 90
        0
102
RTVSPost2010PropOp41
 70
     1
102
RTVSPost2010Prop42
 90
       50
102
RTVSPost2010PropOp42
 70
     1
102
RTVSPost2010Prop43
 90
        3
102
RTVSPost2010PropOp43
 70
     1
102
RTVSPost2010Prop44ColorIndex
 90
        5
102
RTVSPost2010Prop44ColorRGB
 90
      255
102
RTVSPost2010PropOp44
 70
     1
102
RTVSPost2010Prop45
280
     0
102
RTVSPost2010PropOp45
 70
     1
102
RTVSPost2010Prop46
 90
       50
102
RTVSPost2010PropOp46
 70
     1
102
RTVSPost2010Prop47
 90
       50
102
RTVSPost2010PropOp47
 70
     1
102
RTVSPost2010Prop48
 90
       50
102
RTVSPost2010PropOp48
 70
     1
102
RTVSPost2010Prop49
280
     0
102
RTVSPost2010PropOp49
 70
     1
102
RTVSPost2010Prop50
 90
       50
102
RTVSPost2010PropOp50
 70
     1
102
RTVSPost2010Prop51ColorIndex
 90
      256
102
RTVSPost2010Prop51ColorRGB
 90
-16777216
102
RTVSPost2010PropOp51
 70
     0
102
RTVSPost2010Prop52
140
1.0
102
RTVSPost2010PropOp52
 70
     0
102
RTVSPost2010Prop53
 90
        2
102
RTVSPost2010PropOp53
 70
     1
102
RTVSPost2010Prop54
  1
strokes_ogs.tif
102
RTVSPost2010PropOp54
 70
     1
102
RTVSPost2010Prop55
280
     0
102
RTVSPost2010PropOp55
 70
     1
102
RTVSPost2010Prop56
140
1.0
102
RTVSPost2010PropOp56
 70
     1
102
RTVSPost2010Prop57
140
1.0
102
RTVSPost2010PropOp57
 70
     1
  0
XRECORD
  5
198
102
{ACAD_REACTORS
330
197
102
}
330
197
100
AcDbXrecord
280
     1
102
RTVSPost2010Prop28
280
     0
102
RTVSPost2010PropOp28
 70
     0
102
RTVSPost2010Prop29
280
     1
102
RTVSPost2010PropOp29
 70
     0
102
RTVSPost2010Prop30
280
     1
102
RTVSPost2010PropOp30
 70
     0
102
RTVSPost2010Prop31
280
     0
102
RTVSPost2010PropOp31
 70
     0
102
RTVSPost2010Prop32
280
     0
102
RTVSPost2010PropOp32
 70
     0
102
RTVSPost2010Prop33
280
     0
102
RTVSPost2010PropOp33
 70
     0
102
RTVSPost2010Prop34
280
     0
102
RTVSPost2010PropOp34
 70
     0
102
RTVSPost2010Prop35
280
     0
102
RTVSPost2010PropOp35
 70
     0
102
RTVSPost2010Prop36
280
     0
102
RTVSPost2010PropOp36
 70
     0
102
RTVSPost2010Prop37
 90
       50
102
RTVSPost2010PropOp37
 70
     0
102
RTVSPost2010Prop38
140
0.0
102
RTVSPost2010PropOp38
 70
     0
102
RTVSPost2010Prop39
140
1.0
102
RTVSPost2010PropOp39
 70
     0
102
RTVSPost2010Prop40
 90
        0
102
RTVSPost2010PropOp40
 70
     0
102
RTVSPost2010Prop41ColorIndex
 90
       18
102
RTVSPost2010Prop41ColorRGB
 90
        0
102
RTVSPost2010PropOp41
 70
     0
102
RTVSPost2010Prop42
 90
       50
102
RTVSPost2010PropOp42
 70
     0
102
RTVSPost2010Prop43
 90
        3
102
RTVSPost2010PropOp43
 70
     0
102
RTVSPost2010Prop44ColorIndex
 90
        5
102
RTVSPost2010Prop44ColorRGB
 90
      255
102
RTVSPost2010PropOp44
 70
     0
102
RTVSPost2010Prop45
280
     0
102
RTVSPost2010PropOp45
 70
     0
102
RTVSPost2010Prop46
 90
       50
102
RTVSPost2010PropOp46
 70
     0
102
RTVSPost2010Prop47
 90
       50
102
RTVSPost2010PropOp47
 70
     0
102
RTVSPost2010Prop48
 90
       50
102
RTVSPost2010PropOp48
 70
     0
102
RTVSPost2010Prop49
280
     0
102
RTVSPost2010PropOp49
 70
     0
102
RTVSPost2010Prop50
 90
       50
102
RTVSPost2010PropOp50
 70
     0
102
RTVSPost2010Prop51ColorIndex
 90
      256
102
RTVSPost2010Prop51ColorRGB
 90
-16777216
102
RTVSPost2010PropOp51
 70
     0
102
RTVSPost2010Prop52
140
1.0
102
RTVSPost2010PropOp52
 70
     0
102
RTVSPost2010Prop53
 90
        2
102
RTVSPost2010PropOp53
 70
     0
102
RTVSPost2010Prop54
  1
strokes_ogs.tif
102
RTVSPost2010PropOp54
 70
     0
102
RTVSPost2010Prop55
280
     0
102
RTVSPost2010PropOp55
 70
     0
102
RTVSPost2010Prop56
140
1.0
102
RTVSPost2010PropOp56
 70
     0
102
RTVSPost2010Prop57
140
1.0
102
RTVSPost2010PropOp57
 70
     0
  0
XRECORD
  5
186
102
{ACAD_REACTORS
330
185
102
}
330
185
100
AcDbXrecord
280
     1
102
RTVSPost2010Prop28
280
     0
102
RTVSPost2010PropOp28
 70
     1
102
RTVSPost2010Prop29
280
     1
102
RTVSPost2010PropOp29
 70
     1
102
RTVSPost2010Prop30
280
     1
102
RTVSPost2010PropOp30
 70
     1
102
RTVSPost2010Prop31
280
     0
102
RTVSPost2010PropOp31
 70
     1
102
RTVSPost2010Prop32
280
     0
102
RTVSPost2010PropOp32
 70
     1
102
RTVSPost2010Prop33
280
     0
102
RTVSPost2010PropOp33
 70
     1
102
RTVSPost2010Prop34
280
     0
102
RTVSPost2010PropOp34
 70
     1
102
RTVSPost2010Prop35
280
     0
102
RTVSPost2010PropOp35
 70
     1
102
RTVSPost2010Prop36
280
     0
102
RTVSPost2010PropOp36
 70
     1
102
RTVSPost2010Prop37
 90
       50
102
RTVSPost2010PropOp37
 70
     1
102
RTVSPost2010Prop38
140
0.0
102
RTVSPost2010PropOp38
 70
     1
102
RTVSPost2010Prop39
140
1.0
102
RTVSPost2010PropOp39
 70
     1
102
RTVSPost2010Prop40
 90
        0
102
RTVSPost2010PropOp40
 70
     1
102
RTVSPost2010Prop41ColorIndex
 90
       18
102
RTVSPost2010Prop41ColorRGB
 90
        0
102
RTVSPost2010PropOp41
 70
     1
102
RTVSPost2010Prop42
 90
       50
102
RTVSPost2010PropOp42
 70
     1
102
RTVSPost2010Prop43
 90
        3
102
RTVSPost2010PropOp43
 70
     1
102
RTVSPost2010Prop44ColorIndex
 90
        5
102
RTVSPost2010Prop44ColorRGB
 90
      255
102
RTVSPost2010PropOp44
 70
     1
102
RTVSPost2010Prop45
280
     0
102
RTVSPost2010PropOp45
 70
     1
102
RTVSPost2010Prop46
 90
       50
102
RTVSPost2010PropOp46
 70
     1
102
RTVSPost2010Prop47
 90
       50
102
RTVSPost2010PropOp47
 70
     1
102
RTVSPost2010Prop48
 90
       50
102
RTVSPost2010PropOp48
 70
     1
102
RTVSPost2010Prop49
280
     0
102
RTVSPost2010PropOp49
 70
     1
102
RTVSPost2010Prop50
 90
       50
102
RTVSPost2010PropOp50
 70
     1
102
RTVSPost2010Prop51ColorIndex
 90
      256
102
RTVSPost2010Prop51ColorRGB
 90
-16777216
102
RTVSPost2010PropOp51
 70
     0
102
RTVSPost2010Prop52
140
1.0
102
RTVSPost2010PropOp52
 70
     0
102
RTVSPost2010Prop53
 90
        2
102
RTVSPost2010PropOp53
 70
     1
102
RTVSPost2010Prop54
  1
strokes_ogs.tif
102
RTVSPost2010PropOp54
 70
     1
102
RTVSPost2010Prop55
280
     0
102
RTVSPost2010PropOp55
 70
     1
102
RTVSPost2010Prop56
140
1.0
102
RTVSPost2010PropOp56
 70
     1
102
RTVSPost2010Prop57
140
1.0
102
RTVSPost2010PropOp57
 70
     1
  0
XRECORD
  5
16A
102
{ACAD_REACTORS
330
169
102
}
330
169
100
AcDbXrecord
280
     1
102
RTVSPost2010Prop28
280
     0
102
RTVSPost2010PropOp28
 70
     1
102
RTVSPost2010Prop29
280
     1
102
RTVSPost2010PropOp29
 70
     1
102
RTVSPost2010Prop30
280
     1
102
RTVSPost2010PropOp30
 70
     1
102
RTVSPost2010Prop31
280
     0
102
RTVSPost2010PropOp31
 70
     1
102
RTVSPost2010Prop32
280
     0
102
RTVSPost2010PropOp32
 70
     1
102
RTVSPost2010Prop33
280
     0
102
RTVSPost2010PropOp33
 70
     1
102
RTVSPost2010Prop34
280
     0
102
RTVSPost2010PropOp34
 70
     1
102
RTVSPost2010Prop35
280
     0
102
RTVSPost2010PropOp35
 70
     1
102
RTVSPost2010Prop36
280
     0
102
RTVSPost2010PropOp36
 70
     1
102
RTVSPost2010Prop37
 90
       50
102
RTVSPost2010PropOp37
 70
     1
102
RTVSPost2010Prop38
140
0.0
102
RTVSPost2010PropOp38
 70
     1
102
RTVSPost2010Prop39
140
1.0
102
RTVSPost2010PropOp39
 70
     1
102
RTVSPost2010Prop40
 90
        0
102
RTVSPost2010PropOp40
 70
     1
102
RTVSPost2010Prop41ColorIndex
 90
       18
102
RTVSPost2010Prop41ColorRGB
 90
        0
102
RTVSPost2010PropOp41
 70
     1
102
RTVSPost2010Prop42
 90
       50
102
RTVSPost2010PropOp42
 70
     1
102
RTVSPost2010Prop43
 90
        3
102
RTVSPost2010PropOp43
 70
     1
102
RTVSPost2010Prop44ColorIndex
 90
        5
102
RTVSPost2010Prop44ColorRGB
 90
      255
102
RTVSPost2010PropOp44
 70
     1
102
RTVSPost2010Prop45
280
     0
102
RTVSPost2010PropOp45
 70
     1
102
RTVSPost2010Prop46
 90
       50
102
RTVSPost2010PropOp46
 70
     1
102
RTVSPost2010Prop47
 90
       50
102
RTVSPost2010PropOp47
 70
     1
102
RTVSPost2010Prop48
 90
       50
102
RTVSPost2010PropOp48
 70
     1
102
RTVSPost2010Prop49
280
     0
102
RTVSPost2010PropOp49
 70
     1
102
RTVSPost2010Prop50
 90
       50
102
RTVSPost2010PropOp50
 70
     1
102
RTVSPost2010Prop51ColorIndex
 90
      256
102
RTVSPost2010Prop51ColorRGB
 90
-16777216
102
RTVSPost2010PropOp51
 70
     0
102
RTVSPost2010Prop52
140
1.0
102
RTVSPost2010PropOp52
 70
     0
102
RTVSPost2010Prop53
 90
        2
102
RTVSPost2010PropOp53
 70
     1
102
RTVSPost2010Prop54
  1
strokes_ogs.tif
102
RTVSPost2010PropOp54
 70
     1
102
RTVSPost2010Prop55
280
     0
102
RTVSPost2010PropOp55
 70
     1
102
RTVSPost2010Prop56
140
1.0
102
RTVSPost2010PropOp56
 70
     1
102
RTVSPost2010Prop57
140
1.0
102
RTVSPost2010PropOp57
 70
     1
  0
XRECORD
  5
16C
102
{ACAD_REACTORS
330
16B
102
}
330
16B
100
AcDbXrecord
280
     1
102
RTVSPost2010Prop28
280
     0
102
RTVSPost2010PropOp28
 70
     1
102
RTVSPost2010Prop29
280
     1
102
RTVSPost2010PropOp29
 70
     1
102
RTVSPost2010Prop30
280
     1
102
RTVSPost2010PropOp30
 70
     1
102
RTVSPost2010Prop31
280
     0
102
RTVSPost2010PropOp31
 70
     1
102
RTVSPost2010Prop32
280
     0
102
RTVSPost2010PropOp32
 70
     1
102
RTVSPost2010Prop33
280
     0
102
RTVSPost2010PropOp33
 70
     1
102
RTVSPost2010Prop34
280
     0
102
RTVSPost2010PropOp34
 70
     1
102
RTVSPost2010Prop35
280
     0
102
RTVSPost2010PropOp35
 70
     1
102
RTVSPost2010Prop36
280
     0
102
RTVSPost2010PropOp36
 70
     1
102
RTVSPost2010Prop37
 90
       50
102
RTVSPost2010PropOp37
 70
     1
102
RTVSPost2010Prop38
140
0.0
102
RTVSPost2010PropOp38
 70
     1
102
RTVSPost2010Prop39
140
1.0
102
RTVSPost2010PropOp39
 70
     1
102
RTVSPost2010Prop40
 90
        0
102
RTVSPost2010PropOp40
 70
     1
102
RTVSPost2010Prop41ColorIndex
 90
       18
102
RTVSPost2010Prop41ColorRGB
 90
        0
102
RTVSPost2010PropOp41
 70
     1
102
RTVSPost2010Prop42
 90
       50
102
RTVSPost2010PropOp42
 70
     1
102
RTVSPost2010Prop43
 90
        3
102
RTVSPost2010PropOp43
 70
     1
102
RTVSPost2010Prop44ColorIndex
 90
        5
102
RTVSPost2010Prop44ColorRGB
 90
      255
102
RTVSPost2010PropOp44
 70
     1
102
RTVSPost2010Prop45
280
     0
102
RTVSPost2010PropOp45
 70
     1
102
RTVSPost2010Prop46
 90
       50
102
RTVSPost2010PropOp46
 70
     1
102
RTVSPost2010Prop47
 90
       50
102
RTVSPost2010PropOp47
 70
     1
102
RTVSPost2010Prop48
 90
       50
102
RTVSPost2010PropOp48
 70
     1
102
RTVSPost2010Prop49
280
     0
102
RTVSPost2010PropOp49
 70
     1
102
RTVSPost2010Prop50
 90
       50
102
RTVSPost2010PropOp50
 70
     1
102
RTVSPost2010Prop51ColorIndex
 90
      256
102
RTVSPost2010Prop51ColorRGB
 90
-16777216
102
RTVSPost2010PropOp51
 70
     0
102
RTVSPost2010Prop52
140
1.0
102
RTVSPost2010PropOp52
 70
     0
102
RTVSPost2010Prop53
 90
        2
102
RTVSPost2010PropOp53
 70
     1
102
RTVSPost2010Prop54
  1
strokes_ogs.tif
102
RTVSPost2010PropOp54
 70
     1
102
RTVSPost2010Prop55
280
     0
102
RTVSPost2010PropOp55
 70
     1
102
RTVSPost2010Prop56
140
1.0
102
RTVSPost2010PropOp56
 70
     1
102
RTVSPost2010Prop57
140
1.0
102
RTVSPost2010PropOp57
 70
     1
  0
XRECORD
  5
16E
102
{ACAD_REACTORS
330
16D
102
}
330
16D
100
AcDbXrecord
280
     1
102
RTVSPost2010Prop28
280
     0
102
RTVSPost2010PropOp28
 70
     1
102
RTVSPost2010Prop29
280
     1
102
RTVSPost2010PropOp29
 70
     1
102
RTVSPost2010Prop30
280
     1
102
RTVSPost2010PropOp30
 70
     1
102
RTVSPost2010Prop31
280
     0
102
RTVSPost2010PropOp31
 70
     1
102
RTVSPost2010Prop32
280
     0
102
RTVSPost2010PropOp32
 70
     1
102
RTVSPost2010Prop33
280
     0
102
RTVSPost2010PropOp33
 70
     1
102
RTVSPost2010Prop34
280
     0
102
RTVSPost2010PropOp34
 70
     1
102
RTVSPost2010Prop35
280
     0
102
RTVSPost2010PropOp35
 70
     1
102
RTVSPost2010Prop36
280
     0
102
RTVSPost2010PropOp36
 70
     1
102
RTVSPost2010Prop37
 90
       50
102
RTVSPost2010PropOp37
 70
     1
102
RTVSPost2010Prop38
140
0.0
102
RTVSPost2010PropOp38
 70
     1
102
RTVSPost2010Prop39
140
1.0
102
RTVSPost2010PropOp39
 70
     1
102
RTVSPost2010Prop40
 90
        0
102
RTVSPost2010PropOp40
 70
     1
102
RTVSPost2010Prop41ColorIndex
 90
       18
102
RTVSPost2010Prop41ColorRGB
 90
        0
102
RTVSPost2010PropOp41
 70
     1
102
RTVSPost2010Prop42
 90
       50
102
RTVSPost2010PropOp42
 70
     1
102
RTVSPost2010Prop43
 90
        3
102
RTVSPost2010PropOp43
 70
     1
102
RTVSPost2010Prop44ColorIndex
 90
        5
102
RTVSPost2010Prop44ColorRGB
 90
      255
102
RTVSPost2010PropOp44
 70
     1
102
RTVSPost2010Prop45
280
     0
102
RTVSPost2010PropOp45
 70
     1
102
RTVSPost2010Prop46
 90
       50
102
RTVSPost2010PropOp46
 70
     1
102
RTVSPost2010Prop47
 90
       50
102
RTVSPost2010PropOp47
 70
     1
102
RTVSPost2010Prop48
 90
       50
102
RTVSPost2010PropOp48
 70
     1
102
RTVSPost2010Prop49
280
     0
102
RTVSPost2010PropOp49
 70
     1
102
RTVSPost2010Prop50
 90
       50
102
RTVSPost2010PropOp50
 70
     1
102
RTVSPost2010Prop51ColorIndex
 90
      256
102
RTVSPost2010Prop51ColorRGB
 90
-16777216
102
RTVSPost2010PropOp51
 70
     0
102
RTVSPost2010Prop52
140
1.0
102
RTVSPost2010PropOp52
 70
     0
102
RTVSPost2010Prop53
 90
        2
102
RTVSPost2010PropOp53
 70
     1
102
RTVSPost2010Prop54
  1
strokes_ogs.tif
102
RTVSPost2010PropOp54
 70
     1
102
RTVSPost2010Prop55
280
     0
102
RTVSPost2010PropOp55
 70
     1
102
RTVSPost2010Prop56
140
1.0
102
RTVSPost2010PropOp56
 70
     1
102
RTVSPost2010Prop57
140
1.0
102
RTVSPost2010PropOp57
 70
     1
  0
XRECORD
  5
170
102
{ACAD_REACTORS
330
16F
102
}
330
16F
100
AcDbXrecord
280
     1
102
RTVSPost2010Prop28
280
     0
102
RTVSPost2010PropOp28
 70
     1
102
RTVSPost2010Prop29
280
     1
102
RTVSPost2010PropOp29
 70
     1
102
RTVSPost2010Prop30
280
     1
102
RTVSPost2010PropOp30
 70
     1
102
RTVSPost2010Prop31
280
     0
102
RTVSPost2010PropOp31
 70
     1
102
RTVSPost2010Prop32
280
     0
102
RTVSPost2010PropOp32
 70
     1
102
RTVSPost2010Prop33
280
     0
102
RTVSPost2010PropOp33
 70
     1
102
RTVSPost2010Prop34
280
     0
102
RTVSPost2010PropOp34
 70
     1
102
RTVSPost2010Prop35
280
     0
102
RTVSPost2010PropOp35
 70
     1
102
RTVSPost2010Prop36
280
     0
102
RTVSPost2010PropOp36
 70
     1
102
RTVSPost2010Prop37
 90
       50
102
RTVSPost2010PropOp37
 70
     1
102
RTVSPost2010Prop38
140
0.0
102
RTVSPost2010PropOp38
 70
     1
102
RTVSPost2010Prop39
140
1.0
102
RTVSPost2010PropOp39
 70
     1
102
RTVSPost2010Prop40
 90
        0
102
RTVSPost2010PropOp40
 70
     1
102
RTVSPost2010Prop41ColorIndex
 90
       18
102
RTVSPost2010Prop41ColorRGB
 90
        0
102
RTVSPost2010PropOp41
 70
     1
102
RTVSPost2010Prop42
 90
       50
102
RTVSPost2010PropOp42
 70
     1
102
RTVSPost2010Prop43
 90
        3
102
RTVSPost2010PropOp43
 70
     1
102
RTVSPost2010Prop44ColorIndex
 90
        5
102
RTVSPost2010Prop44ColorRGB
 90
      255
102
RTVSPost2010PropOp44
 70
     1
102
RTVSPost2010Prop45
280
     0
102
RTVSPost2010PropOp45
 70
     1
102
RTVSPost2010Prop46
 90
       50
102
RTVSPost2010PropOp46
 70
     1
102
RTVSPost2010Prop47
 90
       50
102
RTVSPost2010PropOp47
 70
     1
102
RTVSPost2010Prop48
 90
       50
102
RTVSPost2010PropOp48
 70
     1
102
RTVSPost2010Prop49
280
     0
102
RTVSPost2010PropOp49
 70
     1
102
RTVSPost2010Prop50
 90
       50
102
RTVSPost2010PropOp50
 70
     1
102
RTVSPost2010Prop51ColorIndex
 90
      256
102
RTVSPost2010Prop51ColorRGB
 90
-16777216
102
RTVSPost2010PropOp51
 70
     0
102
RTVSPost2010Prop52
140
1.0
102
RTVSPost2010PropOp52
 70
     0
102
RTVSPost2010Prop53
 90
        2
102
RTVSPost2010PropOp53
 70
     1
102
RTVSPost2010Prop54
  1
strokes_ogs.tif
102
RTVSPost2010PropOp54
 70
     1
102
RTVSPost2010Prop55
280
     0
102
RTVSPost2010PropOp55
 70
     1
102
RTVSPost2010Prop56
140
1.0
102
RTVSPost2010PropOp56
 70
     1
102
RTVSPost2010Prop57
140
1.0
102
RTVSPost2010PropOp57
 70
     1
  0
XRECORD
  5
178
102
{ACAD_REACTORS
330
177
102
}
330
177
100
AcDbXrecord
280
     1
102
RTVSPost2010Prop28
280
     0
102
RTVSPost2010PropOp28
 70
     1
102
RTVSPost2010Prop29
280
     1
102
RTVSPost2010PropOp29
 70
     1
102
RTVSPost2010Prop30
280
     1
102
RTVSPost2010PropOp30
 70
     1
102
RTVSPost2010Prop31
280
     0
102
RTVSPost2010PropOp31
 70
     1
102
RTVSPost2010Prop32
280
     0
102
RTVSPost2010PropOp32
 70
     1
102
RTVSPost2010Prop33
280
     0
102
RTVSPost2010PropOp33
 70
     1
102
RTVSPost2010Prop34
280
     0
102
RTVSPost2010PropOp34
 70
     1
102
RTVSPost2010Prop35
280
     0
102
RTVSPost2010PropOp35
 70
     1
102
RTVSPost2010Prop36
280
     0
102
RTVSPost2010PropOp36
 70
     1
102
RTVSPost2010Prop37
 90
       50
102
RTVSPost2010PropOp37
 70
     1
102
RTVSPost2010Prop38
140
0.0
102
RTVSPost2010PropOp38
 70
     1
102
RTVSPost2010Prop39
140
1.0
102
RTVSPost2010PropOp39
 70
     1
102
RTVSPost2010Prop40
 90
        0
102
RTVSPost2010PropOp40
 70
     1
102
RTVSPost2010Prop41ColorIndex
 90
       18
102
RTVSPost2010Prop41ColorRGB
 90
        0
102
RTVSPost2010PropOp41
 70
     1
102
RTVSPost2010Prop42
 90
       50
102
RTVSPost2010PropOp42
 70
     1
102
RTVSPost2010Prop43
 90
        3
102
RTVSPost2010PropOp43
 70
     1
102
RTVSPost2010Prop44ColorIndex
 90
        5
102
RTVSPost2010Prop44ColorRGB
 90
      255
102
RTVSPost2010PropOp44
 70
     1
102
RTVSPost2010Prop45
280
     0
102
RTVSPost2010PropOp45
 70
     1
102
RTVSPost2010Prop46
 90
       50
102
RTVSPost2010PropOp46
 70
     1
102
RTVSPost2010Prop47
 90
       50
102
RTVSPost2010PropOp47
 70
     1
102
RTVSPost2010Prop48
 90
       50
102
RTVSPost2010PropOp48
 70
     1
102
RTVSPost2010Prop49
280
     0
102
RTVSPost2010PropOp49
 70
     1
102
RTVSPost2010Prop50
 90
       50
102
RTVSPost2010PropOp50
 70
     1
102
RTVSPost2010Prop51ColorIndex
 90
      256
102
RTVSPost2010Prop51ColorRGB
 90
-16777216
102
RTVSPost2010PropOp51
 70
     0
102
RTVSPost2010Prop52
140
1.0
102
RTVSPost2010PropOp52
 70
     0
102
RTVSPost2010Prop53
 90
        2
102
RTVSPost2010PropOp53
 70
     1
102
RTVSPost2010Prop54
  1
strokes_ogs.tif
102
RTVSPost2010PropOp54
 70
     1
102
RTVSPost2010Prop55
280
     0
102
RTVSPost2010PropOp55
 70
     1
102
RTVSPost2010Prop56
140
1.0
102
RTVSPost2010PropOp56
 70
     1
102
RTVSPost2010Prop57
140
1.0
102
RTVSPost2010PropOp57
 70
     1
  0
XRECORD
  5
194
102
{ACAD_REACTORS
330
193
102
}
330
193
100
AcDbXrecord
280
     1
102
RTVSPost2010Prop28
280
     0
102
RTVSPost2010PropOp28
 70
     0
102
RTVSPost2010Prop29
280
     1
102
RTVSPost2010PropOp29
 70
     0
102
RTVSPost2010Prop30
280
     1
102
RTVSPost2010PropOp30
 70
     0
102
RTVSPost2010Prop31
280
     0
102
RTVSPost2010PropOp31
 70
     0
102
RTVSPost2010Prop32
280
     0
102
RTVSPost2010PropOp32
 70
     0
102
RTVSPost2010Prop33
280
     0
102
RTVSPost2010PropOp33
 70
     0
102
RTVSPost2010Prop34
280
     0
102
RTVSPost2010PropOp34
 70
     0
102
RTVSPost2010Prop35
280
     0
102
RTVSPost2010PropOp35
 70
     0
102
RTVSPost2010Prop36
280
     0
102
RTVSPost2010PropOp36
 70
     0
102
RTVSPost2010Prop37
 90
       50
102
RTVSPost2010PropOp37
 70
     0
102
RTVSPost2010Prop38
140
0.0
102
RTVSPost2010PropOp38
 70
     0
102
RTVSPost2010Prop39
140
1.0
102
RTVSPost2010PropOp39
 70
     0
102
RTVSPost2010Prop40
 90
        0
102
RTVSPost2010PropOp40
 70
     0
102
RTVSPost2010Prop41ColorIndex
 90
       18
102
RTVSPost2010Prop41ColorRGB
 90
        0
102
RTVSPost2010PropOp41
 70
     0
102
RTVSPost2010Prop42
 90
       50
102
RTVSPost2010PropOp42
 70
     0
102
RTVSPost2010Prop43
 90
        3
102
RTVSPost2010PropOp43
 70
     0
102
RTVSPost2010Prop44ColorIndex
 90
        5
102
RTVSPost2010Prop44ColorRGB
 90
      255
102
RTVSPost2010PropOp44
 70
     0
102
RTVSPost2010Prop45
280
     0
102
RTVSPost2010PropOp45
 70
     0
102
RTVSPost2010Prop46
 90
       50
102
RTVSPost2010PropOp46
 70
     0
102
RTVSPost2010Prop47
 90
       50
102
RTVSPost2010PropOp47
 70
     0
102
RTVSPost2010Prop48
 90
       50
102
RTVSPost2010PropOp48
 70
     0
102
RTVSPost2010Prop49
280
     0
102
RTVSPost2010PropOp49
 70
     0
102
RTVSPost2010Prop50
 90
       50
102
RTVSPost2010PropOp50
 70
     0
102
RTVSPost2010Prop51ColorIndex
 90
      256
102
RTVSPost2010Prop51ColorRGB
 90
-16777216
102
RTVSPost2010PropOp51
 70
     0
102
RTVSPost2010Prop52
140
1.0
102
RTVSPost2010PropOp52
 70
     0
102
RTVSPost2010Prop53
 90
        2
102
RTVSPost2010PropOp53
 70
     0
102
RTVSPost2010Prop54
  1
strokes_ogs.tif
102
RTVSPost2010PropOp54
 70
     0
102
RTVSPost2010Prop55
280
     0
102
RTVSPost2010PropOp55
 70
     0
102
RTVSPost2010Prop56
140
1.0
102
RTVSPost2010PropOp56
 70
     0
102
RTVSPost2010Prop57
140
1.0
102
RTVSPost2010PropOp57
 70
     0
  0
XRECORD
  5
184
102
{ACAD_REACTORS
330
183
102
}
330
183
100
AcDbXrecord
280
     1
102
RTVSPost2010Prop28
280
     0
102
RTVSPost2010PropOp28
 70
     1
102
RTVSPost2010Prop29
280
     1
102
RTVSPost2010PropOp29
 70
     1
102
RTVSPost2010Prop30
280
     1
102
RTVSPost2010PropOp30
 70
     1
102
RTVSPost2010Prop31
280
     0
102
RTVSPost2010PropOp31
 70
     1
102
RTVSPost2010Prop32
280
     0
102
RTVSPost2010PropOp32
 70
     1
102
RTVSPost2010Prop33
280
     0
102
RTVSPost2010PropOp33
 70
     1
102
RTVSPost2010Prop34
280
     0
102
RTVSPost2010PropOp34
 70
     1
102
RTVSPost2010Prop35
280
     0
102
RTVSPost2010PropOp35
 70
     1
102
RTVSPost2010Prop36
280
     0
102
RTVSPost2010PropOp36
 70
     1
102
RTVSPost2010Prop37
 90
       50
102
RTVSPost2010PropOp37
 70
     1
102
RTVSPost2010Prop38
140
0.0
102
RTVSPost2010PropOp38
 70
     1
102
RTVSPost2010Prop39
140
1.0
102
RTVSPost2010PropOp39
 70
     1
102
RTVSPost2010Prop40
 90
        0
102
RTVSPost2010PropOp40
 70
     1
102
RTVSPost2010Prop41ColorIndex
 90
       18
102
RTVSPost2010Prop41ColorRGB
 90
        0
102
RTVSPost2010PropOp41
 70
     1
102
RTVSPost2010Prop42
 90
       50
102
RTVSPost2010PropOp42
 70
     1
102
RTVSPost2010Prop43
 90
        3
102
RTVSPost2010PropOp43
 70
     1
102
RTVSPost2010Prop44ColorIndex
 90
        5
102
RTVSPost2010Prop44ColorRGB
 90
      255
102
RTVSPost2010PropOp44
 70
     1
102
RTVSPost2010Prop45
280
     0
102
RTVSPost2010PropOp45
 70
     1
102
RTVSPost2010Prop46
 90
       50
102
RTVSPost2010PropOp46
 70
     1
102
RTVSPost2010Prop47
 90
       50
102
RTVSPost2010PropOp47
 70
     1
102
RTVSPost2010Prop48
 90
       50
102
RTVSPost2010PropOp48
 70
     1
102
RTVSPost2010Prop49
280
     0
102
RTVSPost2010PropOp49
 70
     1
102
RTVSPost2010Prop50
 90
       50
102
RTVSPost2010PropOp50
 70
     1
102
RTVSPost2010Prop51ColorIndex
 90
      256
102
RTVSPost2010Prop51ColorRGB
 90
-16777216
102
RTVSPost2010PropOp51
 70
     0
102
RTVSPost2010Prop52
140
1.0
102
RTVSPost2010PropOp52
 70
     0
102
RTVSPost2010Prop53
 90
        2
102
RTVSPost2010PropOp53
 70
     1
102
RTVSPost2010Prop54
  1
strokes_ogs.tif
102
RTVSPost2010PropOp54
 70
     1
102
RTVSPost2010Prop55
280
     0
102
RTVSPost2010PropOp55
 70
     1
102
RTVSPost2010Prop56
140
1.0
102
RTVSPost2010PropOp56
 70
     1
102
RTVSPost2010Prop57
140
1.0
102
RTVSPost2010PropOp57
 70
     1
  0
XRECORD
  5
196
102
{ACAD_REACTORS
330
195
102
}
330
195
100
AcDbXrecord
280
     1
102
RTVSPost2010Prop28
280
     0
102
RTVSPost2010PropOp28
 70
     0
102
RTVSPost2010Prop29
280
     1
102
RTVSPost2010PropOp29
 70
     0
102
RTVSPost2010Prop30
280
     1
102
RTVSPost2010PropOp30
 70
     0
102
RTVSPost2010Prop31
280
     0
102
RTVSPost2010PropOp31
 70
     0
102
RTVSPost2010Prop32
280
     0
102
RTVSPost2010PropOp32
 70
     0
102
RTVSPost2010Prop33
280
     0
102
RTVSPost2010PropOp33
 70
     0
102
RTVSPost2010Prop34
280
     0
102
RTVSPost2010PropOp34
 70
     0
102
RTVSPost2010Prop35
280
     0
102
RTVSPost2010PropOp35
 70
     0
102
RTVSPost2010Prop36
280
     0
102
RTVSPost2010PropOp36
 70
     0
102
RTVSPost2010Prop37
 90
       50
102
RTVSPost2010PropOp37
 70
     0
102
RTVSPost2010Prop38
140
0.0
102
RTVSPost2010PropOp38
 70
     0
102
RTVSPost2010Prop39
140
1.0
102
RTVSPost2010PropOp39
 70
     0
102
RTVSPost2010Prop40
 90
        0
102
RTVSPost2010PropOp40
 70
     0
102
RTVSPost2010Prop41ColorIndex
 90
       18
102
RTVSPost2010Prop41ColorRGB
 90
        0
102
RTVSPost2010PropOp41
 70
     0
102
RTVSPost2010Prop42
 90
       50
102
RTVSPost2010PropOp42
 70
     0
102
RTVSPost2010Prop43
 90
        3
102
RTVSPost2010PropOp43
 70
     0
102
RTVSPost2010Prop44ColorIndex
 90
        5
102
RTVSPost2010Prop44ColorRGB
 90
      255
102
RTVSPost2010PropOp44
 70
     0
102
RTVSPost2010Prop45
280
     0
102
RTVSPost2010PropOp45
 70
     0
102
RTVSPost2010Prop46
 90
       50
102
RTVSPost2010PropOp46
 70
     0
102
RTVSPost2010Prop47
 90
       50
102
RTVSPost2010PropOp47
 70
     0
102
RTVSPost2010Prop48
 90
       50
102
RTVSPost2010PropOp48
 70
     0
102
RTVSPost2010Prop49
280
     0
102
RTVSPost2010PropOp49
 70
     0
102
RTVSPost2010Prop50
 90
       50
102
RTVSPost2010PropOp50
 70
     0
102
RTVSPost2010Prop51ColorIndex
 90
      256
102
RTVSPost2010Prop51ColorRGB
 90
-16777216
102
RTVSPost2010PropOp51
 70
     0
102
RTVSPost2010Prop52
140
1.0
102
RTVSPost2010PropOp52
 70
     0
102
RTVSPost2010Prop53
 90
        2
102
RTVSPost2010PropOp53
 70
     0
102
RTVSPost2010Prop54
  1
strokes_ogs.tif
102
RTVSPost2010PropOp54
 70
     0
102
RTVSPost2010Prop55
280
     0
102
RTVSPost2010PropOp55
 70
     0
102
RTVSPost2010Prop56
140
1.0
102
RTVSPost2010PropOp56
 70
     0
102
RTVSPost2010Prop57
140
1.0
102
RTVSPost2010PropOp57
 70
     0
  0
XRECORD
  5
17C
102
{ACAD_REACTORS
330
17B
102
}
330
17B
100
AcDbXrecord
280
     1
102
RTVSPost2010Prop28
280
     0
102
RTVSPost2010PropOp28
 70
     1
102
RTVSPost2010Prop29
280
     1
102
RTVSPost2010PropOp29
 70
     1
102
RTVSPost2010Prop30
280
     1
102
RTVSPost2010PropOp30
 70
     1
102
RTVSPost2010Prop31
280
     0
102
RTVSPost2010PropOp31
 70
     1
102
RTVSPost2010Prop32
280
     0
102
RTVSPost2010PropOp32
 70
     1
102
RTVSPost2010Prop33
280
     0
102
RTVSPost2010PropOp33
 70
     1
102
RTVSPost2010Prop34
280
     0
102
RTVSPost2010PropOp34
 70
     1
102
RTVSPost2010Prop35
280
     0
102
RTVSPost2010PropOp35
 70
     1
102
RTVSPost2010Prop36
280
     0
102
RTVSPost2010PropOp36
 70
     1
102
RTVSPost2010Prop37
 90
       50
102
RTVSPost2010PropOp37
 70
     1
102
RTVSPost2010Prop38
140
0.0
102
RTVSPost2010PropOp38
 70
     1
102
RTVSPost2010Prop39
140
1.0
102
RTVSPost2010PropOp39
 70
     1
102
RTVSPost2010Prop40
 90
        0
102
RTVSPost2010PropOp40
 70
     1
102
RTVSPost2010Prop41ColorIndex
 90
       18
102
RTVSPost2010Prop41ColorRGB
 90
        0
102
RTVSPost2010PropOp41
 70
     1
102
RTVSPost2010Prop42
 90
       50
102
RTVSPost2010PropOp42
 70
     1
102
RTVSPost2010Prop43
 90
        3
102
RTVSPost2010PropOp43
 70
     1
102
RTVSPost2010Prop44ColorIndex
 90
        5
102
RTVSPost2010Prop44ColorRGB
 90
      255
102
RTVSPost2010PropOp44
 70
     1
102
RTVSPost2010Prop45
280
     0
102
RTVSPost2010PropOp45
 70
     1
102
RTVSPost2010Prop46
 90
       50
102
RTVSPost2010PropOp46
 70
     1
102
RTVSPost2010Prop47
 90
       50
102
RTVSPost2010PropOp47
 70
     1
102
RTVSPost2010Prop48
 90
       50
102
RTVSPost2010PropOp48
 70
     1
102
RTVSPost2010Prop49
280
     0
102
RTVSPost2010PropOp49
 70
     1
102
RTVSPost2010Prop50
 90
       50
102
RTVSPost2010PropOp50
 70
     1
102
RTVSPost2010Prop51ColorIndex
 90
      256
102
RTVSPost2010Prop51ColorRGB
 90
-16777216
102
RTVSPost2010PropOp51
 70
     0
102
RTVSPost2010Prop52
140
1.0
102
RTVSPost2010PropOp52
 70
     0
102
RTVSPost2010Prop53
 90
        2
102
RTVSPost2010PropOp53
 70
     1
102
RTVSPost2010Prop54
  1
strokes_ogs.tif
102
RTVSPost2010PropOp54
 70
     1
102
RTVSPost2010Prop55
280
     0
102
RTVSPost2010PropOp55
 70
     1
102
RTVSPost2010Prop56
140
1.0
102
RTVSPost2010PropOp56
 70
     1
102
RTVSPost2010Prop57
140
1.0
102
RTVSPost2010PropOp57
 70
     1
  0
XRECORD
  5
192
102
{ACAD_REACTORS
330
191
102
}
330
191
100
AcDbXrecord
280
     1
102
RTVSPost2010Prop28
280
     0
102
RTVSPost2010PropOp28
 70
     1
102
RTVSPost2010Prop29
280
     1
102
RTVSPost2010PropOp29
 70
     1
102
RTVSPost2010Prop30
280
     1
102
RTVSPost2010PropOp30
 70
     1
102
RTVSPost2010Prop31
280
     0
102
RTVSPost2010PropOp31
 70
     1
102
RTVSPost2010Prop32
280
     0
102
RTVSPost2010PropOp32
 70
     1
102
RTVSPost2010Prop33
280
     0
102
RTVSPost2010PropOp33
 70
     1
102
RTVSPost2010Prop34
280
     0
102
RTVSPost2010PropOp34
 70
     1
102
RTVSPost2010Prop35
280
     0
102
RTVSPost2010PropOp35
 70
     1
102
RTVSPost2010Prop36
280
     0
102
RTVSPost2010PropOp36
 70
     1
102
RTVSPost2010Prop37
 90
       50
102
RTVSPost2010PropOp37
 70
     1
102
RTVSPost2010Prop38
140
0.0
102
RTVSPost2010PropOp38
 70
     1
102
RTVSPost2010Prop39
140
1.0
102
RTVSPost2010PropOp39
 70
     1
102
RTVSPost2010Prop40
 90
        0
102
RTVSPost2010PropOp40
 70
     1
102
RTVSPost2010Prop41ColorIndex
 90
       18
102
RTVSPost2010Prop41ColorRGB
 90
        0
102
RTVSPost2010PropOp41
 70
     1
102
RTVSPost2010Prop42
 90
       50
102
RTVSPost2010PropOp42
 70
     1
102
RTVSPost2010Prop43
 90
        3
102
RTVSPost2010PropOp43
 70
     1
102
RTVSPost2010Prop44ColorIndex
 90
        5
102
RTVSPost2010Prop44ColorRGB
 90
      255
102
RTVSPost2010PropOp44
 70
     1
102
RTVSPost2010Prop45
280
     0
102
RTVSPost2010PropOp45
 70
     1
102
RTVSPost2010Prop46
 90
       50
102
RTVSPost2010PropOp46
 70
     1
102
RTVSPost2010Prop47
 90
       50
102
RTVSPost2010PropOp47
 70
     1
102
RTVSPost2010Prop48
 90
       50
102
RTVSPost2010PropOp48
 70
     1
102
RTVSPost2010Prop49
280
     0
102
RTVSPost2010PropOp49
 70
     1
102
RTVSPost2010Prop50
 90
       50
102
RTVSPost2010PropOp50
 70
     1
102
RTVSPost2010Prop51ColorIndex
 90
      256
102
RTVSPost2010Prop51ColorRGB
 90
-16777216
102
RTVSPost2010PropOp51
 70
     0
102
RTVSPost2010Prop52
140
1.0
102
RTVSPost2010PropOp52
 70
     0
102
RTVSPost2010Prop53
 90
        2
102
RTVSPost2010PropOp53
 70
     1
102
RTVSPost2010Prop54
  1
strokes_ogs.tif
102
RTVSPost2010PropOp54
 70
     1
102
RTVSPost2010Prop55
280
     0
102
RTVSPost2010PropOp55
 70
     1
102
RTVSPost2010Prop56
140
1.0
102
RTVSPost2010PropOp56
 70
     1
102
RTVSPost2010Prop57
140
1.0
102
RTVSPost2010PropOp57
 70
     1
  0
XRECORD
  5
190
102
{ACAD_REACTORS
330
18F
102
}
330
18F
100
AcDbXrecord
280
     1
102
RTVSPost2010Prop28
280
     0
102
RTVSPost2010PropOp28
 70
     1
102
RTVSPost2010Prop29
280
     1
102
RTVSPost2010PropOp29
 70
     1
102
RTVSPost2010Prop30
280
     1
102
RTVSPost2010PropOp30
 70
     1
102
RTVSPost2010Prop31
280
     0
102
RTVSPost2010PropOp31
 70
     1
102
RTVSPost2010Prop32
280
     0
102
RTVSPost2010PropOp32
 70
     1
102
RTVSPost2010Prop33
280
     0
102
RTVSPost2010PropOp33
 70
     1
102
RTVSPost2010Prop34
280
     0
102
RTVSPost2010PropOp34
 70
     1
102
RTVSPost2010Prop35
280
     0
102
RTVSPost2010PropOp35
 70
     1
102
RTVSPost2010Prop36
280
     0
102
RTVSPost2010PropOp36
 70
     1
102
RTVSPost2010Prop37
 90
       50
102
RTVSPost2010PropOp37
 70
     1
102
RTVSPost2010Prop38
140
0.0
102
RTVSPost2010PropOp38
 70
     1
102
RTVSPost2010Prop39
140
1.0
102
RTVSPost2010PropOp39
 70
     1
102
RTVSPost2010Prop40
 90
        0
102
RTVSPost2010PropOp40
 70
     1
102
RTVSPost2010Prop41ColorIndex
 90
       18
102
RTVSPost2010Prop41ColorRGB
 90
        0
102
RTVSPost2010PropOp41
 70
     1
102
RTVSPost2010Prop42
 90
       50
102
RTVSPost2010PropOp42
 70
     1
102
RTVSPost2010Prop43
 90
        3
102
RTVSPost2010PropOp43
 70
     1
102
RTVSPost2010Prop44ColorIndex
 90
        5
102
RTVSPost2010Prop44ColorRGB
 90
      255
102
RTVSPost2010PropOp44
 70
     1
102
RTVSPost2010Prop45
280
     0
102
RTVSPost2010PropOp45
 70
     1
102
RTVSPost2010Prop46
 90
       50
102
RTVSPost2010PropOp46
 70
     1
102
RTVSPost2010Prop47
 90
       50
102
RTVSPost2010PropOp47
 70
     1
102
RTVSPost2010Prop48
 90
       50
102
RTVSPost2010PropOp48
 70
     1
102
RTVSPost2010Prop49
280
     0
102
RTVSPost2010PropOp49
 70
     1
102
RTVSPost2010Prop50
 90
       50
102
RTVSPost2010PropOp50
 70
     1
102
RTVSPost2010Prop51ColorIndex
 90
      256
102
RTVSPost2010Prop51ColorRGB
 90
-16777216
102
RTVSPost2010PropOp51
 70
     0
102
RTVSPost2010Prop52
140
1.0
102
RTVSPost2010PropOp52
 70
     0
102
RTVSPost2010Prop53
 90
        2
102
RTVSPost2010PropOp53
 70
     1
102
RTVSPost2010Prop54
  1
strokes_ogs.tif
102
RTVSPost2010PropOp54
 70
     1
102
RTVSPost2010Prop55
280
     0
102
RTVSPost2010PropOp55
 70
     1
102
RTVSPost2010Prop56
140
1.0
102
RTVSPost2010PropOp56
 70
     1
102
RTVSPost2010Prop57
140
1.0
102
RTVSPost2010PropOp57
 70
     1
  0
XRECORD
  5
18A
102
{ACAD_REACTORS
330
189
102
}
330
189
100
AcDbXrecord
280
     1
102
RTVSPost2010Prop28
280
     0
102
RTVSPost2010PropOp28
 70
     1
102
RTVSPost2010Prop29
280
     1
102
RTVSPost2010PropOp29
 70
     1
102
RTVSPost2010Prop30
280
     1
102
RTVSPost2010PropOp30
 70
     1
102
RTVSPost2010Prop31
280
     0
102
RTVSPost2010PropOp31
 70
     1
102
RTVSPost2010Prop32
280
     0
102
RTVSPost2010PropOp32
 70
     1
102
RTVSPost2010Prop33
280
     0
102
RTVSPost2010PropOp33
 70
     1
102
RTVSPost2010Prop34
280
     0
102
RTVSPost2010PropOp34
 70
     1
102
RTVSPost2010Prop35
280
     0
102
RTVSPost2010PropOp35
 70
     1
102
RTVSPost2010Prop36
280
     0
102
RTVSPost2010PropOp36
 70
     1
102
RTVSPost2010Prop37
 90
       50
102
RTVSPost2010PropOp37
 70
     1
102
RTVSPost2010Prop38
140
0.0
102
RTVSPost2010PropOp38
 70
     1
102
RTVSPost2010Prop39
140
1.0
102
RTVSPost2010PropOp39
 70
     1
102
RTVSPost2010Prop40
 90
        0
102
RTVSPost2010PropOp40
 70
     1
102
RTVSPost2010Prop41ColorIndex
 90
       18
102
RTVSPost2010Prop41ColorRGB
 90
        0
102
RTVSPost2010PropOp41
 70
     1
102
RTVSPost2010Prop42
 90
       50
102
RTVSPost2010PropOp42
 70
     1
102
RTVSPost2010Prop43
 90
        3
102
RTVSPost2010PropOp43
 70
     1
102
RTVSPost2010Prop44ColorIndex
 90
        5
102
RTVSPost2010Prop44ColorRGB
 90
      255
102
RTVSPost2010PropOp44
 70
     1
102
RTVSPost2010Prop45
280
     0
102
RTVSPost2010PropOp45
 70
     1
102
RTVSPost2010Prop46
 90
       50
102
RTVSPost2010PropOp46
 70
     1
102
RTVSPost2010Prop47
 90
       50
102
RTVSPost2010PropOp47
 70
     1
102
RTVSPost2010Prop48
 90
       50
102
RTVSPost2010PropOp48
 70
     1
102
RTVSPost2010Prop49
280
     0
102
RTVSPost2010PropOp49
 70
     1
102
RTVSPost2010Prop50
 90
       50
102
RTVSPost2010PropOp50
 70
     1
102
RTVSPost2010Prop51ColorIndex
 90
      256
102
RTVSPost2010Prop51ColorRGB
 90
-16777216
102
RTVSPost2010PropOp51
 70
     0
102
RTVSPost2010Prop52
140
1.0
102
RTVSPost2010PropOp52
 70
     0
102
RTVSPost2010Prop53
 90
        2
102
RTVSPost2010PropOp53
 70
     1
102
RTVSPost2010Prop54
  1
strokes_ogs.tif
102
RTVSPost2010PropOp54
 70
     1
102
RTVSPost2010Prop55
280
     0
102
RTVSPost2010PropOp55
 70
     1
102
RTVSPost2010Prop56
140
1.0
102
RTVSPost2010PropOp56
 70
     1
102
RTVSPost2010Prop57
140
1.0
102
RTVSPost2010PropOp57
 70
     1
  0
XRECORD
  5
18C
102
{ACAD_REACTORS
330
18B
102
}
330
18B
100
AcDbXrecord
280
     1
102
RTVSPost2010Prop28
280
     0
102
RTVSPost2010PropOp28
 70
     1
102
RTVSPost2010Prop29
280
     1
102
RTVSPost2010PropOp29
 70
     1
102
RTVSPost2010Prop30
280
     1
102
RTVSPost2010PropOp30
 70
     1
102
RTVSPost2010Prop31
280
     0
102
RTVSPost2010PropOp31
 70
     1
102
RTVSPost2010Prop32
280
     0
102
RTVSPost2010PropOp32
 70
     1
102
RTVSPost2010Prop33
280
     0
102
RTVSPost2010PropOp33
 70
     1
102
RTVSPost2010Prop34
280
     0
102
RTVSPost2010PropOp34
 70
     1
102
RTVSPost2010Prop35
280
     0
102
RTVSPost2010PropOp35
 70
     1
102
RTVSPost2010Prop36
280
     0
102
RTVSPost2010PropOp36
 70
     1
102
RTVSPost2010Prop37
 90
       50
102
RTVSPost2010PropOp37
 70
     1
102
RTVSPost2010Prop38
140
0.0
102
RTVSPost2010PropOp38
 70
     1
102
RTVSPost2010Prop39
140
1.0
102
RTVSPost2010PropOp39
 70
     1
102
RTVSPost2010Prop40
 90
        0
102
RTVSPost2010PropOp40
 70
     1
102
RTVSPost2010Prop41ColorIndex
 90
       18
102
RTVSPost2010Prop41ColorRGB
 90
        0
102
RTVSPost2010PropOp41
 70
     1
102
RTVSPost2010Prop42
 90
       50
102
RTVSPost2010PropOp42
 70
     1
102
RTVSPost2010Prop43
 90
        3
102
RTVSPost2010PropOp43
 70
     1
102
RTVSPost2010Prop44ColorIndex
 90
        5
102
RTVSPost2010Prop44ColorRGB
 90
      255
102
RTVSPost2010PropOp44
 70
     1
102
RTVSPost2010Prop45
280
     0
102
RTVSPost2010PropOp45
 70
     1
102
RTVSPost2010Prop46
 90
       50
102
RTVSPost2010PropOp46
 70
     1
102
RTVSPost2010Prop47
 90
       50
102
RTVSPost2010PropOp47
 70
     1
102
RTVSPost2010Prop48
 90
       50
102
RTVSPost2010PropOp48
 70
     1
102
RTVSPost2010Prop49
280
     0
102
RTVSPost2010PropOp49
 70
     1
102
RTVSPost2010Prop50
 90
       50
102
RTVSPost2010PropOp50
 70
     1
102
RTVSPost2010Prop51ColorIndex
 90
      256
102
RTVSPost2010Prop51ColorRGB
 90
-16777216
102
RTVSPost2010PropOp51
 70
     0
102
RTVSPost2010Prop52
140
1.0
102
RTVSPost2010PropOp52
 70
     0
102
RTVSPost2010Prop53
 90
        2
102
RTVSPost2010PropOp53
 70
     1
102
RTVSPost2010Prop54
  1
strokes_ogs.tif
102
RTVSPost2010PropOp54
 70
     1
102
RTVSPost2010Prop55
280
     0
102
RTVSPost2010PropOp55
 70
     1
102
RTVSPost2010Prop56
140
1.0
102
RTVSPost2010PropOp56
 70
     1
102
RTVSPost2010Prop57
140
1.0
102
RTVSPost2010PropOp57
 70
     1
  0
XRECORD
  5
182
102
{ACAD_REACTORS
330
181
102
}
330
181
100
AcDbXrecord
280
     1
102
RTVSPost2010Prop28
280
     0
102
RTVSPost2010PropOp28
 70
     1
102
RTVSPost2010Prop29
280
     1
102
RTVSPost2010PropOp29
 70
     1
102
RTVSPost2010Prop30
280
     1
102
RTVSPost2010PropOp30
 70
     1
102
RTVSPost2010Prop31
280
     0
102
RTVSPost2010PropOp31
 70
     1
102
RTVSPost2010Prop32
280
     0
102
RTVSPost2010PropOp32
 70
     1
102
RTVSPost2010Prop33
280
     0
102
RTVSPost2010PropOp33
 70
     1
102
RTVSPost2010Prop34
280
     0
102
RTVSPost2010PropOp34
 70
     1
102
RTVSPost2010Prop35
280
     0
102
RTVSPost2010PropOp35
 70
     1
102
RTVSPost2010Prop36
280
     0
102
RTVSPost2010PropOp36
 70
     1
102
RTVSPost2010Prop37
 90
       50
102
RTVSPost2010PropOp37
 70
     1
102
RTVSPost2010Prop38
140
0.0
102
RTVSPost2010PropOp38
 70
     1
102
RTVSPost2010Prop39
140
1.0
102
RTVSPost2010PropOp39
 70
     1
102
RTVSPost2010Prop40
 90
        0
102
RTVSPost2010PropOp40
 70
     1
102
RTVSPost2010Prop41ColorIndex
 90
       18
102
RTVSPost2010Prop41ColorRGB
 90
        0
102
RTVSPost2010PropOp41
 70
     1
102
RTVSPost2010Prop42
 90
       50
102
RTVSPost2010PropOp42
 70
     1
102
RTVSPost2010Prop43
 90
        3
102
RTVSPost2010PropOp43
 70
     1
102
RTVSPost2010Prop44ColorIndex
 90
        5
102
RTVSPost2010Prop44ColorRGB
 90
      255
102
RTVSPost2010PropOp44
 70
     1
102
RTVSPost2010Prop45
280
     0
102
RTVSPost2010PropOp45
 70
     1
102
RTVSPost2010Prop46
 90
       50
102
RTVSPost2010PropOp46
 70
     1
102
RTVSPost2010Prop47
 90
       50
102
RTVSPost2010PropOp47
 70
     1
102
RTVSPost2010Prop48
 90
       50
102
RTVSPost2010PropOp48
 70
     1
102
RTVSPost2010Prop49
280
     0
102
RTVSPost2010PropOp49
 70
     1
102
RTVSPost2010Prop50
 90
       50
102
RTVSPost2010PropOp50
 70
     1
102
RTVSPost2010Prop51ColorIndex
 90
      256
102
RTVSPost2010Prop51ColorRGB
 90
-16777216
102
RTVSPost2010PropOp51
 70
     0
102
RTVSPost2010Prop52
140
1.0
102
RTVSPost2010PropOp52
 70
     0
102
RTVSPost2010Prop53
 90
        2
102
RTVSPost2010PropOp53
 70
     1
102
RTVSPost2010Prop54
  1
strokes_ogs.tif
102
RTVSPost2010PropOp54
 70
     1
102
RTVSPost2010Prop55
280
     0
102
RTVSPost2010PropOp55
 70
     1
102
RTVSPost2010Prop56
140
1.0
102
RTVSPost2010PropOp56
 70
     1
102
RTVSPost2010Prop57
140
1.0
102
RTVSPost2010PropOp57
 70
     1
  0
XRECORD
  5
176
102
{ACAD_REACTORS
330
175
102
}
330
175
100
AcDbXrecord
280
     1
102
RTVSPost2010Prop28
280
     0
102
RTVSPost2010PropOp28
 70
     1
102
RTVSPost2010Prop29
280
     1
102
RTVSPost2010PropOp29
 70
     1
102
RTVSPost2010Prop30
280
     1
102
RTVSPost2010PropOp30
 70
     1
102
RTVSPost2010Prop31
280
     0
102
RTVSPost2010PropOp31
 70
     1
102
RTVSPost2010Prop32
280
     0
102
RTVSPost2010PropOp32
 70
     1
102
RTVSPost2010Prop33
280
     0
102
RTVSPost2010PropOp33
 70
     1
102
RTVSPost2010Prop34
280
     0
102
RTVSPost2010PropOp34
 70
     1
102
RTVSPost2010Prop35
280
     0
102
RTVSPost2010PropOp35
 70
     1
102
RTVSPost2010Prop36
280
     0
102
RTVSPost2010PropOp36
 70
     1
102
RTVSPost2010Prop37
 90
       50
102
RTVSPost2010PropOp37
 70
     1
102
RTVSPost2010Prop38
140
0.0
102
RTVSPost2010PropOp38
 70
     1
102
RTVSPost2010Prop39
140
1.0
102
RTVSPost2010PropOp39
 70
     1
102
RTVSPost2010Prop40
 90
        0
102
RTVSPost2010PropOp40
 70
     1
102
RTVSPost2010Prop41ColorIndex
 90
       18
102
RTVSPost2010Prop41ColorRGB
 90
        0
102
RTVSPost2010PropOp41
 70
     1
102
RTVSPost2010Prop42
 90
       50
102
RTVSPost2010PropOp42
 70
     1
102
RTVSPost2010Prop43
 90
        3
102
RTVSPost2010PropOp43
 70
     1
102
RTVSPost2010Prop44ColorIndex
 90
        5
102
RTVSPost2010Prop44ColorRGB
 90
      255
102
RTVSPost2010PropOp44
 70
     1
102
RTVSPost2010Prop45
280
     0
102
RTVSPost2010PropOp45
 70
     1
102
RTVSPost2010Prop46
 90
       50
102
RTVSPost2010PropOp46
 70
     1
102
RTVSPost2010Prop47
 90
       50
102
RTVSPost2010PropOp47
 70
     1
102
RTVSPost2010Prop48
 90
       50
102
RTVSPost2010PropOp48
 70
     1
102
RTVSPost2010Prop49
280
     0
102
RTVSPost2010PropOp49
 70
     1
102
RTVSPost2010Prop50
 90
       50
102
RTVSPost2010PropOp50
 70
     1
102
RTVSPost2010Prop51ColorIndex
 90
      256
102
RTVSPost2010Prop51ColorRGB
 90
-16777216
102
RTVSPost2010PropOp51
 70
     0
102
RTVSPost2010Prop52
140
1.0
102
RTVSPost2010PropOp52
 70
     0
102
RTVSPost2010Prop53
 90
        2
102
RTVSPost2010PropOp53
 70
     1
102
RTVSPost2010Prop54
  1
strokes_ogs.tif
102
RTVSPost2010PropOp54
 70
     1
102
RTVSPost2010Prop55
280
     0
102
RTVSPost2010PropOp55
 70
     1
102
RTVSPost2010Prop56
140
1.0
102
RTVSPost2010PropOp56
 70
     1
102
RTVSPost2010Prop57
140
1.0
102
RTVSPost2010PropOp57
 70
     1
  0
XRECORD
  5
18E
102
{ACAD_REACTORS
330
18D
102
}
330
18D
100
AcDbXrecord
280
     1
102
RTVSPost2010Prop28
280
     0
102
RTVSPost2010PropOp28
 70
     1
102
RTVSPost2010Prop29
280
     1
102
RTVSPost2010PropOp29
 70
     1
102
RTVSPost2010Prop30
280
     1
102
RTVSPost2010PropOp30
 70
     1
102
RTVSPost2010Prop31
280
     0
102
RTVSPost2010PropOp31
 70
     1
102
RTVSPost2010Prop32
280
     0
102
RTVSPost2010PropOp32
 70
     1
102
RTVSPost2010Prop33
280
     0
102
RTVSPost2010PropOp33
 70
     1
102
RTVSPost2010Prop34
280
     0
102
RTVSPost2010PropOp34
 70
     1
102
RTVSPost2010Prop35
280
     0
102
RTVSPost2010PropOp35
 70
     1
102
RTVSPost2010Prop36
280
     0
102
RTVSPost2010PropOp36
 70
     1
102
RTVSPost2010Prop37
 90
       50
102
RTVSPost2010PropOp37
 70
     1
102
RTVSPost2010Prop38
140
0.0
102
RTVSPost2010PropOp38
 70
     1
102
RTVSPost2010Prop39
140
1.0
102
RTVSPost2010PropOp39
 70
     1
102
RTVSPost2010Prop40
 90
        0
102
RTVSPost2010PropOp40
 70
     1
102
RTVSPost2010Prop41ColorIndex
 90
       18
102
RTVSPost2010Prop41ColorRGB
 90
        0
102
RTVSPost2010PropOp41
 70
     1
102
RTVSPost2010Prop42
 90
       50
102
RTVSPost2010PropOp42
 70
     1
102
RTVSPost2010Prop43
 90
        3
102
RTVSPost2010PropOp43
 70
     1
102
RTVSPost2010Prop44ColorIndex
 90
        5
102
RTVSPost2010Prop44ColorRGB
 90
      255
102
RTVSPost2010PropOp44
 70
     1
102
RTVSPost2010Prop45
280
     0
102
RTVSPost2010PropOp45
 70
     1
102
RTVSPost2010Prop46
 90
       50
102
RTVSPost2010PropOp46
 70
     1
102
RTVSPost2010Prop47
 90
       50
102
RTVSPost2010PropOp47
 70
     1
102
RTVSPost2010Prop48
 90
       50
102
RTVSPost2010PropOp48
 70
     1
102
RTVSPost2010Prop49
280
     0
102
RTVSPost2010PropOp49
 70
     1
102
RTVSPost2010Prop50
 90
       50
102
RTVSPost2010PropOp50
 70
     1
102
RTVSPost2010Prop51ColorIndex
 90
      256
102
RTVSPost2010Prop51ColorRGB
 90
-16777216
102
RTVSPost2010PropOp51
 70
     0
102
RTVSPost2010Prop52
140
1.0
102
RTVSPost2010PropOp52
 70
     0
102
RTVSPost2010Prop53
 90
        2
102
RTVSPost2010PropOp53
 70
     1
102
RTVSPost2010Prop54
  1
strokes_ogs.tif
102
RTVSPost2010PropOp54
 70
     1
102
RTVSPost2010Prop55
280
     0
102
RTVSPost2010PropOp55
 70
     1
102
RTVSPost2010Prop56
140
1.0
102
RTVSPost2010PropOp56
 70
     1
102
RTVSPost2010Prop57
140
1.0
102
RTVSPost2010PropOp57
 70
     1
  0
ENDSEC
  0
EOF
