  0
SECTION
  2
HEADER
  9
$ACADVER
  1
AC1024
  9
$ACADMAINTVER
 70
     6
  9
$DWGCODEPAGE
  3
UNDEFINED
  9
$INSBASE
 10
0.0
 20
0.0
 30
0.0
  9
$EXTMIN
 10
1.000000000000000E+20
 20
1.000000000000000E+20
 30
1.000000000000000E+20
  9
$EXTMAX
 10
-1.000000000000000E+20
 20
-1.000000000000000E+20
 30
-1.000000000000000E+20
  9
$LIMMIN
 10
0.0
 20
0.0
  9
$LIMMAX
 10
12.0
 20
9.0
  9
$ORTHOMODE
 70
     0
  9
$REGENMODE
 70
     1
  9
$FILLMODE
 70
     1
  9
$QTEXTMODE
 70
     0
  9
$MIRRTEXT
 70
     1
  9
$LTSCALE
 40
1.0
  9
$ATTMODE
 70
     1
  9
$TEXTSIZE
 40
0.2
  9
$TRACEWID
 40
0.05
  9
$TEXTSTYLE
  7
Standard
  9
$CLAYER
  8
0
  9
$CELTYPE
  6
ByLayer
  9
$CECOLOR
 62
   256
  9
$CELTSCALE
 40
1.0
  9
$DISPSILH
 70
     0
  9
$DIMSCALE
 40
1.0
  9
$DIMASZ
 40
0.18
  9
$DIMEXO
 40
0.0625
  9
$DIMDLI
 40
0.38
  9
$DIMRND
 40
0.0
  9
$DIMDLE
 40
0.0
  9
$DIMEXE
 40
0.18
  9
$DIMTP
 40
0.0
  9
$DIMTM
 40
0.0
  9
$DIMTXT
 40
0.18
  9
$DIMCEN
 40
0.09
  9
$DIMTSZ
 40
0.0
  9
$DIMTOL
 70
     0
  9
$DIMLIM
 70
     0
  9
$DIMTIH
 70
     1
  9
$DIMTOH
 70
     1
  9
$DIMSE1
 70
     0
  9
$DIMSE2
 70
     0
  9
$DIMTAD
 70
     0
  9
$DIMZIN
 70
     0
  9
$DIMBLK
  1

  9
$DIMASO
 70
     1
  9
$DIMSHO
 70
     1
  9
$DIMPOST
  1

  9
$DIMAPOST
  1

  9
$DIMALT
 70
     0
  9
$DIMALTD
 70
     2
  9
$DIMALTF
 40
25.4
  9
$DIMLFAC
 40
1.0
  9
$DIMTOFL
 70
     0
  9
$DIMTVP
 40
0.0
  9
$DIMTIX
 70
     0
  9
$DIMSOXD
 70
     0
  9
$DIMSAH
 70
     0
  9
$DIMBLK1
  1

  9
$DIMBLK2
  1

  9
$DIMSTYLE
  2
Standard
  9
$DIMCLRD
 70
     0
  9
$DIMCLRE
 70
     0
  9
$DIMCLRT
 70
     0
  9
$DIMTFAC
 40
1.0
  9
$DIMGAP
 40
0.09
  9
$DIMJUST
 70
     0
  9
$DIMSD1
 70
     0
  9
$DIMSD2
 70
     0
  9
$DIMTOLJ
 70
     1
  9
$DIMTZIN
 70
     0
  9
$DIMALTZ
 70
     0
  9
$DIMALTTZ
 70
     0
  9
$DIMUPT
 70
     0
  9
$DIMDEC
 70
     4
  9
$DIMTDEC
 70
     4
  9
$DIMALTU
 70
     2
  9
$DIMALTTD
 70
     2
  9
$DIMTXSTY
  7
Standard
  9
$DIMAUNIT
 70
     0
  9
$DIMADEC
 70
     0
  9
$DIMALTRND
 40
0.0
  9
$DIMAZIN
 70
     0
  9
$DIMDSEP
 70
    46
  9
$DIMATFIT
 70
     3
  9
$DIMFRAC
 70
     0
  9
$DIMLDRBLK
  1

  9
$DIMLUNIT
 70
     2
  9
$DIMLWD
 70
    -2
  9
$DIMLWE
 70
    -2
  9
$DIMTMOVE
 70
     0
  9
$DIMFXL
 40
1.0
  9
$DIMFXLON
 70
     0
  9
$DIMJOGANG
 40
0.7853981633974483
  9
$DIMTFILL
 70
     0
  9
$DIMTFILLCLR
 70
     0
  9
$DIMARCSYM
 70
     0
  9
$DIMLTYPE
  6

  9
$DIMLTEX1
  6

  9
$DIMLTEX2
  6

  9
$DIMTXTDIRECTION
 70
     0
  9
$LUNITS
 70
     2
  9
$LUPREC
 70
     4
  9
$SKETCHINC
 40
0.1
  9
$FILLETRAD
 40
0.5
  9
$AUNITS
 70
     0
  9
$AUPREC
 70
     0
  9
$MENU
  1
.
  9
$ELEVATION
 40
0.0
  9
$PELEVATION
 40
0.0
  9
$THICKNESS
 40
0.0
  9
$LIMCHECK
 70
     0
  9
$CHAMFERA
 40
0.5
  9
$CHAMFERB
 40
0.5
  9
$CHAMFERC
 40
1.0
  9
$CHAMFERD
 40
0.0
  9
$SKPOLY
 70
     0
  9
$TDCREATE
 40
2457917.595312488
  9
$TDUCREATE
 40
2457917.2203125
  9
$TDUPDATE
 40
2457917.595312488
  9
$TDUUPDATE
 40
2457917.2203125
  9
$TDINDWG
 40
0.0000000116
  9
$TDUSRTIMER
 40
0.0000000116
  9
$USRTIMER
 70
     1
  9
$ANGBASE
 50
0.0
  9
$ANGDIR
 70
     0
  9
$PDMODE
 70
     0
  9
$PDSIZE
 40
0.0
  9
$PLINEWID
 40
0.0
  9
$SPLFRAME
 70
     0
  9
$SPLINETYPE
 70
     6
  9
$SPLINESEGS
 70
     8
  9
$HANDSEED
  5
180
  9
$SURFTAB1
 70
     6
  9
$SURFTAB2
 70
     6
  9
$SURFTYPE
 70
     6
  9
$SURFU
 70
     6
  9
$SURFV
 70
     6
  9
$UCSBASE
  2

  9
$UCSNAME
  2

  9
$UCSORG
 10
0.0
 20
0.0
 30
0.0
  9
$UCSXDIR
 10
1.0
 20
0.0
 30
0.0
  9
$UCSYDIR
 10
0.0
 20
1.0
 30
0.0
  9
$UCSORTHOREF
  2

  9
$UCSORTHOVIEW
 70
     0
  9
$UCSORGTOP
 10
0.0
 20
0.0
 30
0.0
  9
$UCSORGBOTTOM
 10
0.0
 20
0.0
 30
0.0
  9
$UCSORGLEFT
 10
0.0
 20
0.0
 30
0.0
  9
$UCSORGRIGHT
 10
0.0
 20
0.0
 30
0.0
  9
$UCSORGFRONT
 10
0.0
 20
0.0
 30
0.0
  9
$UCSORGBACK
 10
0.0
 20
0.0
 30
0.0
  9
$PUCSBASE
  2

  9
$PUCSNAME
  2

  9
$PUCSORG
 10
0.0
 20
0.0
 30
0.0
  9
$PUCSXDIR
 10
1.0
 20
0.0
 30
0.0
  9
$PUCSYDIR
 10
0.0
 20
1.0
 30
0.0
  9
$PUCSORTHOREF
  2

  9
$PUCSORTHOVIEW
 70
     0
  9
$PUCSORGTOP
 10
0.0
 20
0.0
 30
0.0
  9
$PUCSORGBOTTOM
 10
0.0
 20
0.0
 30
0.0
  9
$PUCSORGLEFT
 10
0.0
 20
0.0
 30
0.0
  9
$PUCSORGRIGHT
 10
0.0
 20
0.0
 30
0.0
  9
$PUCSORGFRONT
 10
0.0
 20
0.0
 30
0.0
  9
$PUCSORGBACK
 10
0.0
 20
0.0
 30
0.0
  9
$USERI1
 70
     0
  9
$USERI2
 70
     0
  9
$USERI3
 70
     0
  9
$USERI4
 70
     0
  9
$USERI5
 70
     0
  9
$USERR1
 40
0.0
  9
$USERR2
 40
0.0
  9
$USERR3
 40
0.0
  9
$USERR4
 40
0.0
  9
$USERR5
 40
0.0
  9
$WORLDVIEW
 70
     1
  9
$SHADEDGE
 70
     3
  9
$SHADEDIF
 70
    70
  9
$TILEMODE
 70
     1
  9
$MAXACTVP
 70
    64
  9
$PINSBASE
 10
0.0
 20
0.0
 30
0.0
  9
$PLIMCHECK
 70
     0
  9
$PEXTMIN
 10
1.000000000000000E+20
 20
1.000000000000000E+20
 30
1.000000000000000E+20
  9
$PEXTMAX
 10
-1.000000000000000E+20
 20
-1.000000000000000E+20
 30
-1.000000000000000E+20
  9
$PLIMMIN
 10
0.0
 20
0.0
  9
$PLIMMAX
 10
12.0
 20
9.0
  9
$UNITMODE
 70
     0
  9
$VISRETAIN
 70
     1
  9
$PLINEGEN
 70
     0
  9
$PSLTSCALE
 70
     1
  9
$TREEDEPTH
 70
  3020
  9
$CMLSTYLE
  2
Standard
  9
$CMLJUST
 70
     0
  9
$CMLSCALE
 40
1.0
  9
$PROXYGRAPHICS
 70
     1
  9
$MEASUREMENT
 70
     0
  9
$CELWEIGHT
370
    -1
  9
$ENDCAPS
280
     0
  9
$JOINSTYLE
280
     0
  9
$LWDISPLAY
290
     1
  9
$INSUNITS
 70
     1
  9
$HYPERLINKBASE
  1

  9
$STYLESHEET
  1

  9
$XEDIT
290
     1
  9
$CEPSNTYPE
380
     0
  9
$PSTYLEMODE
290
     1
  9
$FINGERPRINTGUID
  2
{003B6578-A772-4626-F589-2B7C783109E0}
  9
$VERSIONGUID
  2
{FAEB1C32-E019-11D5-929B-00C0DF256EC4}
  9
$EXTNAMES
290
     1
  9
$PSVPSCALE
 40
0.0
  9
$OLESTARTUP
290
     0
  9
$SORTENTS
280
   127
  9
$INDEXCTL
280
     0
  9
$HIDETEXT
280
     1
  9
$XCLIPFRAME
280
     2
  9
$HALOGAP
280
     0
  9
$OBSCOLOR
 70
   257
  9
$OBSLTYPE
280
     0
  9
$INTERSECTIONDISPLAY
280
     0
  9
$INTERSECTIONCOLOR
 70
   257
  9
$DIMASSOC
280
     2
  9
$PROJECTNAME
  1

  9
$CAMERADISPLAY
290
     0
  9
$LENSLENGTH
 40
50.0
  9
$CAMERAHEIGHT
 40
0.0
  9
$STEPSPERSEC
 40
2.0
  9
$STEPSIZE
 40
6.0
  9
$3DDWFPREC
 40
2.0
  9
$PSOLWIDTH
 40
0.25
  9
$PSOLHEIGHT
 40
4.0
  9
$LOFTANG1
 40
1.570796326794897
  9
$LOFTANG2
 40
1.570796326794897
  9
$LOFTMAG1
 40
0.0
  9
$LOFTMAG2
 40
0.0
  9
$LOFTPARAM
 70
     7
  9
$LOFTNORMALS
280
     1
  9
$LATITUDE
 40
37.795
  9
$LONGITUDE
 40
-122.394
  9
$NORTHDIRECTION
 40
0.0
  9
$TIMEZONE
 70
 -8000
  9
$LIGHTGLYPHDISPLAY
280
     1
  9
$TILEMODELIGHTSYNCH
280
     1
  9
$CMATERIAL
347
3C
  9
$SOLIDHIST
280
     1
  9
$SHOWHIST
280
     1
  9
$DWFFRAME
280
     2
  9
$DGNFRAME
280
     2
  9
$REALWORLDSCALE
290
     1
  9
$INTERFERECOLOR
 62
   256
  9
$CSHADOW
280
     0
  9
$SHADOWPLANELOCATION
 40
0.0
  0
ENDSEC
  0
SECTION
  2
CLASSES
  0
CLASS
  1
ACDBDICTIONARYWDFLT
  2
AcDbDictionaryWithDefault
  3
ObjectDBX Classes
 90
        0
 91
        4
280
     0
281
     0
  0
CLASS
  1
VISUALSTYLE
  2
AcDbVisualStyle
  3
ObjectDBX Classes
 90
     4095
 91
        4
280
     0
281
     0
  0
CLASS
  1
MATERIAL
  2
AcDbMaterial
  3
ObjectDBX Classes
 90
     1153
 91
        4
280
     0
281
     0
  0
CLASS
  1
SUN
  2
AcDbSun
  3
SCENEOE
 90
     1024
 91
        4
280
     0
281
     0
  0
ENDSEC
  0
SECTION
  2
TABLES
  0
TABLE
  2
VPORT
  5
8
330
0
100
AcDbSymbolTable
 70
     1
  0
VPORT
  5
29
330
8
100
AcDbSymbolTableRecord
100
AcDbViewportTableRecord
  2
*Active
 70
     0
 10
0.0
 20
0.0
 11
1.0
 21
1.0
 12
0.0
 22
0.0
 13
0.0
 23
0.0
 14
0.5
 24
0.5
 15
0.5
 25
0.5
 16
0.0
 26
0.0
 36
1.0
 17
91.00082462281999
 27
-128.4993055234307
 37
0.0
 40
256.9986110468615
 41
0.7081814508812795
 42
50.0
 43
0.0
 44
0.0
 50
0.0
 51
0.0
 71
     0
 72
   100
 73
     1
 74
     3
 75
     0
 76
     0
 77
     0
 78
     0
281
     0
 65
     1
110
0.0
120
0.0
130
0.0
111
1.0
121
0.0
131
0.0
112
0.0
122
1.0
132
0.0
 79
     0
146
0.0
 60
     3
 61
     5
292
     1
282
     1
141
0.0
142
0.0
 63
   250
361
3F
  0
ENDTAB
  0
TABLE
  2
LTYPE
  5
5
330
0
100
AcDbSymbolTable
 70
     1
  0
LTYPE
  5
14
330
5
100
AcDbSymbolTableRecord
100
AcDbLinetypeTableRecord
  2
ByBlock
 70
     0
  3

 72
    65
 73
     0
 40
0.0
  0
LTYPE
  5
15
330
5
100
AcDbSymbolTableRecord
100
AcDbLinetypeTableRecord
  2
ByLayer
 70
     0
  3

 72
    65
 73
     0
 40
0.0
  0
LTYPE
  5
16
330
5
100
AcDbSymbolTableRecord
100
AcDbLinetypeTableRecord
  2
Continuous
 70
     0
  3
Solid line
 72
    65
 73
     0
 40
0.0
  0
ENDTAB
  0
TABLE
  2
LAYER
  5
2
330
0
100
AcDbSymbolTable
 70
     2
  0
LAYER
  5
10
330
2
100
AcDbSymbolTableRecord
100
AcDbLayerTableRecord
  2
0
 70
     0
 62
     7
  6
Continuous
370
    -3
390
F
347
3E
  0
LAYER
  5
40
330
2
100
AcDbSymbolTableRecord
100
AcDbLayerTableRecord
  2
_U+30EC_U+30A4_U+30E4_U+30FC 1
 70
     0
 62
     7
  6
Continuous
370
    -3
390
F
347
3E
  0
ENDTAB
  0
TABLE
  2
STYLE
  5
3
330
0
100
AcDbSymbolTable
 70
     1
  0
STYLE
  5
11
330
3
100
AcDbSymbolTableRecord
100
AcDbTextStyleTableRecord
  2
Standard
 70
     0
 40
0.0
 41
1.0
 50
0.0
 71
     0
 42
0.2
  3
txt
  4

  0
ENDTAB
  0
TABLE
  2
VIEW
  5
6
330
0
100
AcDbSymbolTable
 70
     0
  0
ENDTAB
  0
TABLE
  2
UCS
  5
7
330
0
100
AcDbSymbolTable
 70
     0
  0
ENDTAB
  0
TABLE
  2
APPID
  5
9
330
0
100
AcDbSymbolTable
 70
     1
  0
APPID
  5
12
330
9
100
AcDbSymbolTableRecord
100
AcDbRegAppTableRecord
  2
ACAD
 70
     0
  0
ENDTAB
  0
TABLE
  2
DIMSTYLE
  5
A
330
0
100
AcDbSymbolTable
 70
     1
100
AcDbDimStyleTable
  0
DIMSTYLE
105
27
330
A
100
AcDbSymbolTableRecord
100
AcDbDimStyleTableRecord
  2
Standard
 70
     0
178
     0
340
11
  0
ENDTAB
  0
TABLE
  2
BLOCK_RECORD
  5
1
330
0
100
AcDbSymbolTable
 70
    10
  0
BLOCK_RECORD
  5
1F
330
1
100
AcDbSymbolTableRecord
100
AcDbBlockTableRecord
  2
*Model_Space
340
22
 70
     0
280
     1
281
     0
  0
BLOCK_RECORD
  5
1B
330
1
100
AcDbSymbolTableRecord
100
AcDbBlockTableRecord
  2
*Paper_Space
340
1E
 70
     0
280
     1
281
     0
  0
BLOCK_RECORD
  5
23
330
1
100
AcDbSymbolTableRecord
100
AcDbBlockTableRecord
  2
*Paper_Space0
340
26
 70
     0
280
     1
281
     0
  0
BLOCK_RECORD
  5
A6
330
1
100
AcDbSymbolTableRecord
100
AcDbBlockTableRecord
  2
block 2
340
0
102
{BLKREFS
331
A7
102
}
 70
     0
280
     1
281
     0
  0
BLOCK_RECORD
  5
B8
330
1
100
AcDbSymbolTableRecord
100
AcDbBlockTableRecord
  2
block 3
340
0
102
{BLKREFS
331
B9
102
}
 70
     0
280
     1
281
     0
  0
BLOCK_RECORD
  5
CE
330
1
100
AcDbSymbolTableRecord
100
AcDbBlockTableRecord
  2
block 4
340
0
102
{BLKREFS
331
CF
102
}
 70
     0
280
     1
281
     0
  0
BLOCK_RECORD
  5
E0
330
1
100
AcDbSymbolTableRecord
100
AcDbBlockTableRecord
  2
block 5
340
0
102
{BLKREFS
331
E1
102
}
 70
     0
280
     1
281
     0
  0
BLOCK_RECORD
  5
FE
330
1
100
AcDbSymbolTableRecord
100
AcDbBlockTableRecord
  2
block 6
340
0
102
{BLKREFS
331
FF
102
}
 70
     0
280
     1
281
     0
  0
BLOCK_RECORD
  5
11C
330
1
100
AcDbSymbolTableRecord
100
AcDbBlockTableRecord
  2
block 7
340
0
102
{BLKREFS
331
11D
102
}
 70
     0
280
     1
281
     0
  0
BLOCK_RECORD
  5
132
330
1
100
AcDbSymbolTableRecord
100
AcDbBlockTableRecord
  2
block 8
340
0
102
{BLKREFS
331
133
102
}
 70
     0
280
     1
281
     0
  0
BLOCK_RECORD
  5
152
330
1
100
AcDbSymbolTableRecord
100
AcDbBlockTableRecord
  2
block 9
340
0
102
{BLKREFS
331
153
102
}
 70
     0
280
     1
281
     0
  0
BLOCK_RECORD
  5
175
330
1
100
AcDbSymbolTableRecord
100
AcDbBlockTableRecord
  2
block 10
340
0
102
{BLKREFS
331
176
102
}
 70
     0
280
     1
281
     0
  0
ENDTAB
  0
ENDSEC
  0
SECTION
  2
BLOCKS
  0
BLOCK
  5
20
330
1F
100
AcDbEntity
  8
0
100
AcDbBlockBegin
  2
*Model_Space
 70
     0
 10
0.0
 20
0.0
 30
0.0
  3
*Model_Space
  1

  0
ENDBLK
  5
21
330
1F
100
AcDbEntity
  8
0
100
AcDbBlockEnd
  0
BLOCK
  5
1C
330
1B
100
AcDbEntity
 67
     1
  8
0
100
AcDbBlockBegin
  2
*Paper_Space
 70
     0
 10
0.0
 20
0.0
 30
0.0
  3
*Paper_Space
  1

  0
ENDBLK
  5
1D
330
1B
100
AcDbEntity
 67
     1
  8
0
100
AcDbBlockEnd
  0
BLOCK
  5
24
330
23
100
AcDbEntity
  8
0
100
AcDbBlockBegin
  2
*Paper_Space0
 70
     0
 10
0.0
 20
0.0
 30
0.0
  3
*Paper_Space0
  1

  0
ENDBLK
  5
25
330
23
100
AcDbEntity
  8
0
100
AcDbBlockEnd
  0
BLOCK
  5
A8
330
A6
100
AcDbEntity
  8
0
100
AcDbBlockBegin
  2
block 2
 70
     0
 10
0.0
 20
0.0
 30
0.0
  3
block 2
  1

  0
SPLINE
  5
AA
330
A6
100
AcDbEntity
  8
_U+30EC_U+30A4_U+30E4_U+30FC 1
370
     0
100
AcDbSpline
210
0.0
220
0.0
230
1.0
 70
    11
 71
     3
 72
    26
 73
    22
 74
     0
 42
0.0000000001
 43
0.0000000001
 12
1.0
 22
0.0
 32
0.0
 13
1.0
 23
0.0
 33
0.0
 40
0.0
 40
0.0
 40
0.0
 40
0.0
 40
1.0
 40
1.0
 40
1.0
 40
2.0
 40
2.0
 40
2.0
 40
3.0
 40
3.0
 40
3.0
 40
4.0
 40
4.0
 40
4.0
 40
5.0
 40
5.0
 40
5.0
 40
6.0
 40
6.0
 40
6.0
 40
7.0
 40
7.0
 40
7.0
 40
7.0
 10
89.03125811576302
 20
-120.5025498830688
 30
0.0
 10
89.03125811576302
 20
-120.5025498830688
 30
0.0
 10
88.79440780115209
 20
-120.5025498830688
 30
0.0
 10
88.79440780115209
 20
-120.5025498830688
 30
0.0
 10
88.81972925296868
 20
-120.1936970728162
 30
0.0
 10
89.01231009059416
 20
-119.6753824570603
 30
0.0
 10
89.41848684830511
 20
-119.1698146945999
 30
0.0
 10
89.41848684830511
 20
-119.1698146945999
 30
0.0
 10
88.58063962629234
 20
-119.1698146945999
 30
0.0
 10
88.58063962629234
 20
-119.1698146945999
 30
0.0
 10
88.58063962629234
 20
-119.1698146945999
 30
0.0
 10
88.58063962629234
 20
-118.9582858318056
 30
0.0
 10
88.58063962629234
 20
-118.9582858318056
 30
0.0
 10
88.58063962629234
 20
-118.9582858318056
 30
0.0
 10
89.65533716291603
 20
-118.9582858318056
 30
0.0
 10
89.65533716291603
 20
-118.9582858318056
 30
0.0
 10
89.65533716291603
 20
-118.9582858318056
 30
0.0
 10
89.65533716291603
 20
-119.1698146945999
 30
0.0
 10
89.65533716291603
 20
-119.1698146945999
 30
0.0
 10
89.33167044207681
 20
-119.4595472249094
 30
0.0
 10
89.06519230629273
 20
-120.0519313935981
 30
0.0
 10
89.03125811576302
 20
-120.5025498830688
 30
0.0
  0
HATCH
  5
AB
330
A6
100
AcDbEntity
  8
_U+30EC_U+30A4_U+30E4_U+30FC 1
 62
     7
420
 16777215
100
AcDbHatch
 10
0.0
 20
0.0
 30
0.0
210
0.0
220
0.0
230
1.0
  2
SOLID
 70
     1
 71
     0
 91
        1
 92
        1
 93
        1
 72
     4
 94
        3
 73
     0
 74
     1
 95
       26
 96
       22
 40
0.0
 40
0.0
 40
0.0
 40
0.0
 40
1.0
 40
1.0
 40
1.0
 40
2.0
 40
2.0
 40
2.0
 40
3.0
 40
3.0
 40
3.0
 40
4.0
 40
4.0
 40
4.0
 40
5.0
 40
5.0
 40
5.0
 40
6.0
 40
6.0
 40
6.0
 40
7.0
 40
7.0
 40
7.0
 40
7.0
 10
89.03125811576302
 20
-120.5025498830688
 10
89.03125811576302
 20
-120.5025498830688
 10
88.79440780115209
 20
-120.5025498830688
 10
88.79440780115209
 20
-120.5025498830688
 10
88.81972925296868
 20
-120.1936970728162
 10
89.01231009059416
 20
-119.6753824570603
 10
89.41848684830511
 20
-119.1698146945999
 10
89.41848684830511
 20
-119.1698146945999
 10
88.58063962629234
 20
-119.1698146945999
 10
88.58063962629234
 20
-119.1698146945999
 10
88.58063962629234
 20
-119.1698146945999
 10
88.58063962629234
 20
-118.9582858318056
 10
88.58063962629234
 20
-118.9582858318056
 10
88.58063962629234
 20
-118.9582858318056
 10
89.65533716291603
 20
-118.9582858318056
 10
89.65533716291603
 20
-118.9582858318056
 10
89.65533716291603
 20
-118.9582858318056
 10
89.65533716291603
 20
-119.1698146945999
 10
89.65533716291603
 20
-119.1698146945999
 10
89.33167044207681
 20
-119.4595472249094
 10
89.06519230629273
 20
-120.0519313935981
 10
89.03125811576302
 20
-120.5025498830688
 97
        0
 97
        0
 75
     2
 76
     1
 98
        0
  0
ENDBLK
  5
A9
330
A6
100
AcDbEntity
  8
0
100
AcDbBlockEnd
  0
BLOCK
  5
BA
330
B8
100
AcDbEntity
  8
0
100
AcDbBlockBegin
  2
block 3
 70
     0
 10
0.0
 20
0.0
 30
0.0
  3
block 3
  1

  0
SPLINE
  5
BC
330
B8
100
AcDbEntity
  8
_U+30EC_U+30A4_U+30E4_U+30FC 1
370
     0
100
AcDbSpline
210
0.0
220
0.0
230
1.0
 70
    11
 71
     3
 72
    26
 73
    22
 74
     0
 42
0.0000000001
 43
0.0000000001
 12
1.0
 22
0.0
 32
0.0
 13
1.0
 23
0.0
 33
0.0
 40
0.0
 40
0.0
 40
0.0
 40
0.0
 40
1.0
 40
1.0
 40
1.0
 40
2.0
 40
2.0
 40
2.0
 40
3.0
 40
3.0
 40
3.0
 40
4.0
 40
4.0
 40
4.0
 40
5.0
 40
5.0
 40
5.0
 40
6.0
 40
6.0
 40
6.0
 40
7.0
 40
7.0
 40
7.0
 40
7.0
 10
96.02445744127166
 20
-128.7445963219805
 30
0.0
 10
96.02445744127166
 20
-128.7445963219805
 30
0.0
 10
96.02445744127166
 20
-128.9816188913657
 30
0.0
 10
96.02445744127166
 20
-128.9816188913657
 30
0.0
 10
95.71543237624476
 20
-128.9561251847749
 30
0.0
 10
95.19729001526318
 20
-128.7635443471494
 30
0.0
 10
94.6915499980285
 20
-128.3573675894384
 30
0.0
 10
94.6915499980285
 20
-128.3573675894384
 30
0.0
 10
94.6915499980285
 20
-129.1952148114512
 30
0.0
 10
94.6915499980285
 20
-129.1952148114512
 30
0.0
 10
94.6915499980285
 20
-129.1952148114512
 30
0.0
 10
94.48002113523417
 20
-129.1952148114512
 30
0.0
 10
94.48002113523417
 20
-129.1952148114512
 30
0.0
 10
94.48002113523417
 20
-129.1952148114512
 30
0.0
 10
94.48002113523417
 20
-128.1205172748275
 30
0.0
 10
94.48002113523417
 20
-128.1205172748275
 30
0.0
 10
94.48002113523417
 20
-128.1205172748275
 30
0.0
 10
94.6915499980285
 20
-128.1205172748275
 30
0.0
 10
94.6915499980285
 20
-128.1205172748275
 30
0.0
 10
94.98162703788654
 20
-128.4441839956667
 30
0.0
 10
95.573838951801
 20
-128.7106621314508
 30
0.0
 10
96.02445744127166
 20
-128.7445963219805
 30
0.0
  0
HATCH
  5
BD
330
B8
100
AcDbEntity
  8
_U+30EC_U+30A4_U+30E4_U+30FC 1
 62
     7
420
 16777215
100
AcDbHatch
 10
0.0
 20
0.0
 30
0.0
210
0.0
220
0.0
230
1.0
  2
SOLID
 70
     1
 71
     0
 91
        1
 92
        1
 93
        1
 72
     4
 94
        3
 73
     0
 74
     1
 95
       26
 96
       22
 40
0.0
 40
0.0
 40
0.0
 40
0.0
 40
1.0
 40
1.0
 40
1.0
 40
2.0
 40
2.0
 40
2.0
 40
3.0
 40
3.0
 40
3.0
 40
4.0
 40
4.0
 40
4.0
 40
5.0
 40
5.0
 40
5.0
 40
6.0
 40
6.0
 40
6.0
 40
7.0
 40
7.0
 40
7.0
 40
7.0
 10
96.02445744127166
 20
-128.7445963219805
 10
96.02445744127166
 20
-128.7445963219805
 10
96.02445744127166
 20
-128.9816188913657
 10
96.02445744127166
 20
-128.9816188913657
 10
95.71543237624476
 20
-128.9561251847749
 10
95.19729001526318
 20
-128.7635443471494
 10
94.6915499980285
 20
-128.3573675894384
 10
94.6915499980285
 20
-128.3573675894384
 10
94.6915499980285
 20
-129.1952148114512
 10
94.6915499980285
 20
-129.1952148114512
 10
94.6915499980285
 20
-129.1952148114512
 10
94.48002113523417
 20
-129.1952148114512
 10
94.48002113523417
 20
-129.1952148114512
 10
94.48002113523417
 20
-129.1952148114512
 10
94.48002113523417
 20
-128.1205172748275
 10
94.48002113523417
 20
-128.1205172748275
 10
94.48002113523417
 20
-128.1205172748275
 10
94.6915499980285
 20
-128.1205172748275
 10
94.6915499980285
 20
-128.1205172748275
 10
94.98162703788654
 20
-128.4441839956667
 10
95.573838951801
 20
-128.7106621314508
 10
96.02445744127166
 20
-128.7445963219805
 97
        0
 97
        0
 75
     2
 76
     1
 98
        0
  0
ENDBLK
  5
BB
330
B8
100
AcDbEntity
  8
0
100
AcDbBlockEnd
  0
BLOCK
  5
D0
330
CE
100
AcDbEntity
  8
0
100
AcDbBlockBegin
  2
block 4
 70
     0
 10
0.0
 20
0.0
 30
0.0
  3
block 4
  1

  0
SPLINE
  5
D2
330
CE
100
AcDbEntity
  8
_U+30EC_U+30A4_U+30E4_U+30FC 1
370
     0
100
AcDbSpline
210
0.0
220
0.0
230
1.0
 70
    11
 71
     3
 72
    26
 73
    22
 74
     0
 42
0.0000000001
 43
0.0000000001
 12
1.0
 22
0.0
 32
0.0
 13
1.0
 23
0.0
 33
0.0
 40
0.0
 40
0.0
 40
0.0
 40
0.0
 40
1.0
 40
1.0
 40
1.0
 40
2.0
 40
2.0
 40
2.0
 40
3.0
 40
3.0
 40
3.0
 40
4.0
 40
4.0
 40
4.0
 40
5.0
 40
5.0
 40
5.0
 40
6.0
 40
6.0
 40
6.0
 40
7.0
 40
7.0
 40
7.0
 40
7.0
 10
88.57409394487037
 20
-128.5020615998189
 30
0.0
 10
88.57409394487037
 20
-128.5020615998189
 30
0.0
 10
88.57409394487037
 20
-127.3977362420221
 30
0.0
 10
88.57409394487037
 20
-127.3977362420221
 30
0.0
 10
88.57409394487037
 20
-127.3977362420221
 30
0.0
 10
88.24405379738343
 20
-127.3977362420221
 30
0.0
 10
88.24405379738343
 20
-127.3977362420221
 30
0.0
 10
88.24405379738343
 20
-127.3977362420221
 30
0.0
 10
88.24405379738343
 20
-127.2497693909306
 30
0.0
 10
88.24405379738343
 20
-127.2497693909306
 30
0.0
 10
88.57616100216151
 20
-127.234955480344
 30
0.0
 10
88.62266979121239
 20
-127.0720024638917
 30
0.0
 10
88.65229761238554
 20
-126.9577975485557
 30
0.0
 10
88.65229761238554
 20
-126.9577975485557
 30
0.0
 10
88.79836966096013
 20
-126.9577975485557
 30
0.0
 10
88.79836966096013
 20
-126.9577975485557
 30
0.0
 10
88.79836966096013
 20
-126.9577975485557
 30
0.0
 10
88.79836966096013
 20
-128.5020615998189
 30
0.0
 10
88.79836966096013
 20
-128.5020615998189
 30
0.0
 10
88.79836966096013
 20
-128.5020615998189
 30
0.0
 10
88.57409394487037
 20
-128.5020615998189
 30
0.0
 10
88.57409394487037
 20
-128.5020615998189
 30
0.0
  0
HATCH
  5
D3
330
CE
100
AcDbEntity
  8
_U+30EC_U+30A4_U+30E4_U+30FC 1
 62
     7
420
 16777215
100
AcDbHatch
 10
0.0
 20
0.0
 30
0.0
210
0.0
220
0.0
230
1.0
  2
SOLID
 70
     1
 71
     0
 91
        1
 92
        1
 93
        1
 72
     4
 94
        3
 73
     0
 74
     1
 95
       26
 96
       22
 40
0.0
 40
0.0
 40
0.0
 40
0.0
 40
1.0
 40
1.0
 40
1.0
 40
2.0
 40
2.0
 40
2.0
 40
3.0
 40
3.0
 40
3.0
 40
4.0
 40
4.0
 40
4.0
 40
5.0
 40
5.0
 40
5.0
 40
6.0
 40
6.0
 40
6.0
 40
7.0
 40
7.0
 40
7.0
 40
7.0
 10
88.57409394487037
 20
-128.5020615998189
 10
88.57409394487037
 20
-128.5020615998189
 10
88.57409394487037
 20
-127.3977362420221
 10
88.57409394487037
 20
-127.3977362420221
 10
88.57409394487037
 20
-127.3977362420221
 10
88.24405379738343
 20
-127.3977362420221
 10
88.24405379738343
 20
-127.3977362420221
 10
88.24405379738343
 20
-127.3977362420221
 10
88.24405379738343
 20
-127.2497693909306
 10
88.24405379738343
 20
-127.2497693909306
 10
88.57616100216151
 20
-127.234955480344
 10
88.62266979121239
 20
-127.0720024638917
 10
88.65229761238554
 20
-126.9577975485557
 10
88.65229761238554
 20
-126.9577975485557
 10
88.79836966096013
 20
-126.9577975485557
 10
88.79836966096013
 20
-126.9577975485557
 10
88.79836966096013
 20
-126.9577975485557
 10
88.79836966096013
 20
-128.5020615998189
 10
88.79836966096013
 20
-128.5020615998189
 10
88.79836966096013
 20
-128.5020615998189
 10
88.57409394487037
 20
-128.5020615998189
 10
88.57409394487037
 20
-128.5020615998189
 97
        0
 97
        0
 75
     2
 76
     1
 98
        0
  0
ENDBLK
  5
D1
330
CE
100
AcDbEntity
  8
0
100
AcDbBlockEnd
  0
BLOCK
  5
E2
330
E0
100
AcDbEntity
  8
0
100
AcDbBlockBegin
  2
block 5
 70
     0
 10
0.0
 20
0.0
 30
0.0
  3
block 5
  1

  0
SPLINE
  5
E4
330
E0
100
AcDbEntity
  8
_U+30EC_U+30A4_U+30E4_U+30FC 1
370
     0
100
AcDbSpline
210
0.0
220
0.0
230
1.0
 70
    11
 71
     3
 72
    44
 73
    40
 74
     0
 42
0.0000000001
 43
0.0000000001
 12
1.0
 22
0.0
 32
0.0
 13
1.0
 23
0.0
 33
0.0
 40
0.0
 40
0.0
 40
0.0
 40
0.0
 40
1.0
 40
1.0
 40
1.0
 40
2.0
 40
2.0
 40
2.0
 40
3.0
 40
3.0
 40
3.0
 40
4.0
 40
4.0
 40
4.0
 40
5.0
 40
5.0
 40
5.0
 40
6.0
 40
6.0
 40
6.0
 40
7.0
 40
7.0
 40
7.0
 40
8.0
 40
8.0
 40
8.0
 40
9.0
 40
9.0
 40
9.0
 40
10.0
 40
10.0
 40
10.0
 40
11.0
 40
11.0
 40
11.0
 40
12.0
 40
12.0
 40
12.0
 40
13.0
 40
13.0
 40
13.0
 40
13.0
 10
90.33074813279926
 20
-140.2205538928962
 30
0.0
 10
90.11301809813148
 20
-140.3793727947663
 30
0.0
 10
90.02000052002973
 20
-140.4534423476991
 30
0.0
 10
89.97108016413918
 20
-140.597102829434
 30
0.0
 10
89.97108016413918
 20
-140.597102829434
 30
0.0
 10
90.74967174380564
 20
-140.597102829434
 30
0.0
 10
90.74967174380564
 20
-140.597102829434
 30
0.0
 10
90.74967174380564
 20
-140.597102829434
 30
0.0
 10
90.74967174380564
 20
-140.802430520355
 30
0.0
 10
90.74967174380564
 20
-140.802430520355
 30
0.0
 10
90.74967174380564
 20
-140.802430520355
 30
0.0
 10
89.72165525100709
 20
-140.802430520355
 30
0.0
 10
89.72165525100709
 20
-140.802430520355
 30
0.0
 10
89.75335012947139
 20
-140.444829608986
 30
0.0
 10
89.81880694369113
 20
-140.3666259414709
 30
0.0
 10
90.20396861894207
 20
-140.0682806724482
 30
0.0
 10
90.45993921349613
 20
-139.8694986629493
 30
0.0
 10
90.52539602771587
 20
-139.8016302818899
 30
0.0
 10
90.52539602771587
 20
-139.6641709720284
 30
0.0
 10
90.52539602771587
 20
-139.5456596873358
 30
0.0
 10
90.45339353207416
 20
-139.4147460588963
 30
0.0
 10
90.25667857986639
 20
-139.4147460588963
 30
0.0
 10
89.99657387073003
 20
-139.4147460588963
 30
0.0
 10
89.98830564156543
 20
-139.6452229468595
 30
0.0
 10
89.9838270174346
 20
-139.761667174261
 30
0.0
 10
89.9838270174346
 20
-139.761667174261
 30
0.0
 10
89.75955130134484
 20
-139.761667174261
 30
0.0
 10
89.75955130134484
 20
-139.761667174261
 30
0.0
 10
89.76816404005797
 20
-139.6345431508553
 30
0.0
 10
89.77884383606224
 20
-139.5225775475846
 30
0.0
 10
89.85911456086856
 20
-139.4040662628921
 30
0.0
 10
89.96901310684802
 20
-139.2431803037309
 30
0.0
 10
90.15539277260004
 20
-139.2094183679754
 30
0.0
 10
90.27149249045297
 20
-139.2094183679754
 30
0.0
 10
90.54882267701558
 20
-139.2094183679754
 30
0.0
 10
90.75621742522762
 20
-139.3933864668878
 30
0.0
 10
90.75621742522762
 20
-139.6662380293195
 30
0.0
 10
90.75621742522762
 20
-139.8949923695401
 30
0.0
 10
90.63977319782617
 20
-139.9942111195153
 30
0.0
 10
90.33074813279926
 20
-140.2205538928962
 30
0.0
  0
HATCH
  5
E5
330
E0
100
AcDbEntity
  8
_U+30EC_U+30A4_U+30E4_U+30FC 1
 62
     7
420
 16777215
100
AcDbHatch
 10
0.0
 20
0.0
 30
0.0
210
0.0
220
0.0
230
1.0
  2
SOLID
 70
     1
 71
     0
 91
        1
 92
        1
 93
        1
 72
     4
 94
        3
 73
     0
 74
     1
 95
       44
 96
       40
 40
0.0
 40
0.0
 40
0.0
 40
0.0
 40
1.0
 40
1.0
 40
1.0
 40
2.0
 40
2.0
 40
2.0
 40
3.0
 40
3.0
 40
3.0
 40
4.0
 40
4.0
 40
4.0
 40
5.0
 40
5.0
 40
5.0
 40
6.0
 40
6.0
 40
6.0
 40
7.0
 40
7.0
 40
7.0
 40
8.0
 40
8.0
 40
8.0
 40
9.0
 40
9.0
 40
9.0
 40
10.0
 40
10.0
 40
10.0
 40
11.0
 40
11.0
 40
11.0
 40
12.0
 40
12.0
 40
12.0
 40
13.0
 40
13.0
 40
13.0
 40
13.0
 10
90.33074813279926
 20
-140.2205538928962
 10
90.11301809813148
 20
-140.3793727947663
 10
90.02000052002973
 20
-140.4534423476991
 10
89.97108016413918
 20
-140.597102829434
 10
89.97108016413918
 20
-140.597102829434
 10
90.74967174380564
 20
-140.597102829434
 10
90.74967174380564
 20
-140.597102829434
 10
90.74967174380564
 20
-140.597102829434
 10
90.74967174380564
 20
-140.802430520355
 10
90.74967174380564
 20
-140.802430520355
 10
90.74967174380564
 20
-140.802430520355
 10
89.72165525100709
 20
-140.802430520355
 10
89.72165525100709
 20
-140.802430520355
 10
89.75335012947139
 20
-140.444829608986
 10
89.81880694369113
 20
-140.3666259414709
 10
90.20396861894207
 20
-140.0682806724482
 10
90.45993921349613
 20
-139.8694986629493
 10
90.52539602771587
 20
-139.8016302818899
 10
90.52539602771587
 20
-139.6641709720284
 10
90.52539602771587
 20
-139.5456596873358
 10
90.45339353207416
 20
-139.4147460588963
 10
90.25667857986639
 20
-139.4147460588963
 10
89.99657387073003
 20
-139.4147460588963
 10
89.98830564156543
 20
-139.6452229468595
 10
89.9838270174346
 20
-139.761667174261
 10
89.9838270174346
 20
-139.761667174261
 10
89.75955130134484
 20
-139.761667174261
 10
89.75955130134484
 20
-139.761667174261
 10
89.76816404005797
 20
-139.6345431508553
 10
89.77884383606224
 20
-139.5225775475846
 10
89.85911456086856
 20
-139.4040662628921
 10
89.96901310684802
 20
-139.2431803037309
 10
90.15539277260004
 20
-139.2094183679754
 10
90.27149249045297
 20
-139.2094183679754
 10
90.54882267701558
 20
-139.2094183679754
 10
90.75621742522762
 20
-139.3933864668878
 10
90.75621742522762
 20
-139.6662380293195
 10
90.75621742522762
 20
-139.8949923695401
 10
90.63977319782617
 20
-139.9942111195153
 10
90.33074813279926
 20
-140.2205538928962
 97
        0
 97
        0
 75
     2
 76
     1
 98
        0
  0
SPLINE
  5
E6
330
E0
100
AcDbEntity
  8
_U+30EC_U+30A4_U+30E4_U+30FC 1
370
     0
100
AcDbSpline
210
0.0
220
0.0
230
1.0
 70
    11
 71
     3
 72
    44
 73
    40
 74
     0
 42
0.0000000001
 43
0.0000000001
 12
1.0
 22
0.0
 32
0.0
 13
1.0
 23
0.0
 33
0.0
 40
0.0
 40
0.0
 40
0.0
 40
0.0
 40
1.0
 40
1.0
 40
1.0
 40
2.0
 40
2.0
 40
2.0
 40
3.0
 40
3.0
 40
3.0
 40
4.0
 40
4.0
 40
4.0
 40
5.0
 40
5.0
 40
5.0
 40
6.0
 40
6.0
 40
6.0
 40
7.0
 40
7.0
 40
7.0
 40
8.0
 40
8.0
 40
8.0
 40
9.0
 40
9.0
 40
9.0
 40
10.0
 40
10.0
 40
10.0
 40
11.0
 40
11.0
 40
11.0
 40
12.0
 40
12.0
 40
12.0
 40
13.0
 40
13.0
 40
13.0
 40
13.0
 10
91.5075927505606
 20
-140.2205538928962
 30
0.0
 10
91.28986271589281
 20
-140.3793727947663
 30
0.0
 10
91.19684513779107
 20
-140.4534423476991
 30
0.0
 10
91.14792478190053
 20
-140.597102829434
 30
0.0
 10
91.14792478190053
 20
-140.597102829434
 30
0.0
 10
91.92651636156698
 20
-140.597102829434
 30
0.0
 10
91.92651636156698
 20
-140.597102829434
 30
0.0
 10
91.92651636156698
 20
-140.597102829434
 30
0.0
 10
91.92651636156698
 20
-140.802430520355
 30
0.0
 10
91.92651636156698
 20
-140.802430520355
 30
0.0
 10
91.92651636156698
 20
-140.802430520355
 30
0.0
 10
90.89849986876844
 20
-140.802430520355
 30
0.0
 10
90.89849986876844
 20
-140.802430520355
 30
0.0
 10
90.93019474723273
 20
-140.444829608986
 30
0.0
 10
90.99565156145248
 20
-140.3666259414709
 30
0.0
 10
91.38081323670342
 20
-140.0682806724482
 30
0.0
 10
91.63678383125747
 20
-139.8694986629493
 30
0.0
 10
91.70224064547722
 20
-139.8016302818899
 30
0.0
 10
91.70224064547722
 20
-139.6641709720284
 30
0.0
 10
91.70224064547722
 20
-139.5456596873358
 30
0.0
 10
91.6302381498355
 20
-139.4147460588963
 30
0.0
 10
91.43352319762774
 20
-139.4147460588963
 30
0.0
 10
91.17341848849138
 20
-139.4147460588963
 30
0.0
 10
91.16515025932677
 20
-139.6452229468595
 30
0.0
 10
91.16067163519595
 20
-139.761667174261
 30
0.0
 10
91.16067163519595
 20
-139.761667174261
 30
0.0
 10
90.93639591910619
 20
-139.761667174261
 30
0.0
 10
90.93639591910619
 20
-139.761667174261
 30
0.0
 10
90.9450086578193
 20
-139.6345431508553
 30
0.0
 10
90.95568845382358
 20
-139.5225775475846
 30
0.0
 10
91.03595917862991
 20
-139.4040662628921
 30
0.0
 10
91.14585772460937
 20
-139.2431803037309
 30
0.0
 10
91.33223739036139
 20
-139.2094183679754
 30
0.0
 10
91.4483371082143
 20
-139.2094183679754
 30
0.0
 10
91.72566729477693
 20
-139.2094183679754
 30
0.0
 10
91.93306204298896
 20
-139.3933864668878
 30
0.0
 10
91.93306204298896
 20
-139.6662380293195
 30
0.0
 10
91.93306204298896
 20
-139.8949923695401
 30
0.0
 10
91.81661781558752
 20
-139.9942111195153
 30
0.0
 10
91.5075927505606
 20
-140.2205538928962
 30
0.0
  0
HATCH
  5
E7
330
E0
100
AcDbEntity
  8
_U+30EC_U+30A4_U+30E4_U+30FC 1
 62
     7
420
 16777215
100
AcDbHatch
 10
0.0
 20
0.0
 30
0.0
210
0.0
220
0.0
230
1.0
  2
SOLID
 70
     1
 71
     0
 91
        1
 92
        1
 93
        1
 72
     4
 94
        3
 73
     0
 74
     1
 95
       44
 96
       40
 40
0.0
 40
0.0
 40
0.0
 40
0.0
 40
1.0
 40
1.0
 40
1.0
 40
2.0
 40
2.0
 40
2.0
 40
3.0
 40
3.0
 40
3.0
 40
4.0
 40
4.0
 40
4.0
 40
5.0
 40
5.0
 40
5.0
 40
6.0
 40
6.0
 40
6.0
 40
7.0
 40
7.0
 40
7.0
 40
8.0
 40
8.0
 40
8.0
 40
9.0
 40
9.0
 40
9.0
 40
10.0
 40
10.0
 40
10.0
 40
11.0
 40
11.0
 40
11.0
 40
12.0
 40
12.0
 40
12.0
 40
13.0
 40
13.0
 40
13.0
 40
13.0
 10
91.5075927505606
 20
-140.2205538928962
 10
91.28986271589281
 20
-140.3793727947663
 10
91.19684513779107
 20
-140.4534423476991
 10
91.14792478190053
 20
-140.597102829434
 10
91.14792478190053
 20
-140.597102829434
 10
91.92651636156698
 20
-140.597102829434
 10
91.92651636156698
 20
-140.597102829434
 10
91.92651636156698
 20
-140.597102829434
 10
91.92651636156698
 20
-140.802430520355
 10
91.92651636156698
 20
-140.802430520355
 10
91.92651636156698
 20
-140.802430520355
 10
90.89849986876844
 20
-140.802430520355
 10
90.89849986876844
 20
-140.802430520355
 10
90.93019474723273
 20
-140.444829608986
 10
90.99565156145248
 20
-140.3666259414709
 10
91.38081323670342
 20
-140.0682806724482
 10
91.63678383125747
 20
-139.8694986629493
 10
91.70224064547722
 20
-139.8016302818899
 10
91.70224064547722
 20
-139.6641709720284
 10
91.70224064547722
 20
-139.5456596873358
 10
91.6302381498355
 20
-139.4147460588963
 10
91.43352319762774
 20
-139.4147460588963
 10
91.17341848849138
 20
-139.4147460588963
 10
91.16515025932677
 20
-139.6452229468595
 10
91.16067163519595
 20
-139.761667174261
 10
91.16067163519595
 20
-139.761667174261
 10
90.93639591910619
 20
-139.761667174261
 10
90.93639591910619
 20
-139.761667174261
 10
90.9450086578193
 20
-139.6345431508553
 10
90.95568845382358
 20
-139.5225775475846
 10
91.03595917862991
 20
-139.4040662628921
 10
91.14585772460937
 20
-139.2431803037309
 10
91.33223739036139
 20
-139.2094183679754
 10
91.4483371082143
 20
-139.2094183679754
 10
91.72566729477693
 20
-139.2094183679754
 10
91.93306204298896
 20
-139.3933864668878
 10
91.93306204298896
 20
-139.6662380293195
 10
91.93306204298896
 20
-139.8949923695401
 10
91.81661781558752
 20
-139.9942111195153
 10
91.5075927505606
 20
-140.2205538928962
 97
        0
 97
        0
 75
     2
 76
     1
 98
        0
  0
POLYLINE
  5
E8
330
E0
100
AcDbEntity
  8
_U+30EC_U+30A4_U+30E4_U+30FC 1
370
     0
100
AcDb2dPolyline
 66
     1
 10
0.0
 20
0.0
 30
0.0
  0
VERTEX
  5
E9
330
E8
100
AcDbEntity
  8
_U+30EC_U+30A4_U+30E4_U+30FC 1
370
     0
100
AcDbVertex
100
AcDb2dVertex
 10
92.1514810967538
 20
-140.802430520355
 30
0.0
  0
VERTEX
  5
EA
330
E8
100
AcDbEntity
  8
_U+30EC_U+30A4_U+30E4_U+30FC 1
370
     0
100
AcDbVertex
100
AcDb2dVertex
 10
92.1514810967538
 20
-140.5505940403832
 30
0.0
  0
VERTEX
  5
EB
330
E8
100
AcDbEntity
  8
_U+30EC_U+30A4_U+30E4_U+30FC 1
370
     0
100
AcDbVertex
100
AcDb2dVertex
 10
92.40331757672557
 20
-140.5505940403832
 30
0.0
  0
VERTEX
  5
EC
330
E8
100
AcDbEntity
  8
_U+30EC_U+30A4_U+30E4_U+30FC 1
370
     0
100
AcDbVertex
100
AcDb2dVertex
 10
92.40331757672557
 20
-140.802430520355
 30
0.0
  0
VERTEX
  5
ED
330
E8
100
AcDbEntity
  8
_U+30EC_U+30A4_U+30E4_U+30FC 1
370
     0
100
AcDbVertex
100
AcDb2dVertex
 10
92.1514810967538
 20
-140.802430520355
 30
0.0
  0
SEQEND
  5
EE
330
E8
100
AcDbEntity
  8
_U+30EC_U+30A4_U+30E4_U+30FC 1
370
     0
  0
HATCH
  5
EF
330
E0
100
AcDbEntity
  8
_U+30EC_U+30A4_U+30E4_U+30FC 1
 62
     7
420
 16777215
100
AcDbHatch
 10
0.0
 20
0.0
 30
0.0
210
0.0
220
0.0
230
1.0
  2
SOLID
 70
     1
 71
     0
 91
        1
 92
        1
 93
        4
 72
     1
 10
92.1514810967538
 20
-140.802430520355
 11
92.1514810967538
 21
-140.5505940403832
 72
     1
 10
92.1514810967538
 20
-140.5505940403832
 11
92.40331757672557
 21
-140.5505940403832
 72
     1
 10
92.40331757672557
 20
-140.5505940403832
 11
92.40331757672557
 21
-140.802430520355
 72
     1
 10
92.40331757672557
 20
-140.802430520355
 11
92.1514810967538
 21
-140.802430520355
 97
        0
 75
     2
 76
     1
 98
        0
  0
SPLINE
  5
F0
330
E0
100
AcDbEntity
  8
_U+30EC_U+30A4_U+30E4_U+30FC 1
370
     0
100
AcDbSpline
210
0.0
220
0.0
230
1.0
 70
    11
 71
     3
 72
    53
 73
    49
 74
     0
 42
0.0000000001
 43
0.0000000001
 12
1.0
 22
0.0
 32
0.0
 13
1.0
 23
0.0
 33
0.0
 40
0.0
 40
0.0
 40
0.0
 40
0.0
 40
1.0
 40
1.0
 40
1.0
 40
2.0
 40
2.0
 40
2.0
 40
3.0
 40
3.0
 40
3.0
 40
4.0
 40
4.0
 40
4.0
 40
5.0
 40
5.0
 40
5.0
 40
6.0
 40
6.0
 40
6.0
 40
7.0
 40
7.0
 40
7.0
 40
8.0
 40
8.0
 40
8.0
 40
9.0
 40
9.0
 40
9.0
 40
10.0
 40
10.0
 40
10.0
 40
11.0
 40
11.0
 40
11.0
 40
12.0
 40
12.0
 40
12.0
 40
13.0
 40
13.0
 40
13.0
 40
14.0
 40
14.0
 40
14.0
 40
15.0
 40
15.0
 40
15.0
 40
16.0
 40
16.0
 40
16.0
 40
16.0
 10
93.12058645675458
 20
-140.8530734239881
 30
0.0
 10
93.04238278923941
 20
-140.8530734239881
 30
0.0
 10
92.94075247242453
 20
-140.8361924561104
 30
0.0
 10
92.83912215560967
 20
-140.7728026991818
 30
0.0
 10
92.6658338527016
 20
-140.6629041532023
 30
0.0
 10
92.64447426069306
 20
-140.5316460152143
 30
0.0
 10
92.62552623552418
 20
-140.423814526526
 30
0.0
 10
92.62552623552418
 20
-140.423814526526
 30
0.0
 10
92.8477348943228
 20
-140.423814526526
 30
0.0
 10
92.8477348943228
 20
-140.423814526526
 30
0.0
 10
92.90251191253826
 20
-140.6225965360249
 30
0.0
 10
93.02963593594399
 20
-140.6522243571981
 30
0.0
 10
93.12265351404572
 20
-140.6522243571981
 30
0.0
 10
93.26217988119835
 20
-140.6522243571981
 30
0.0
 10
93.41445310164639
 20
-140.5526610976743
 30
0.0
 10
93.41445310164639
 20
-140.32011715242
 30
0.0
 10
93.41445310164639
 20
-140.0641465578659
 30
0.0
 10
93.23461911731636
 20
-139.9942111195153
 30
0.0
 10
93.11404077533261
 20
-139.9942111195153
 30
0.0
 10
93.0823458968683
 20
-139.9942111195153
 30
0.0
 10
92.94075247242453
 20
-139.9942111195153
 30
0.0
 10
92.8518690089051
 20
-140.1234022002122
 30
0.0
 10
92.8518690089051
 20
-140.1234022002122
 30
0.0
 10
92.67616913915735
 20
-140.1044541750433
 30
0.0
 10
92.67616913915735
 20
-140.1044541750433
 30
0.0
 10
92.67616913915735
 20
-140.1044541750433
 30
0.0
 10
92.7967474811411
 20
-139.2579942143174
 30
0.0
 10
92.7967474811411
 20
-139.2579942143174
 30
0.0
 10
92.7967474811411
 20
-139.2579942143174
 30
0.0
 10
93.57533906080756
 20
-139.2579942143174
 30
0.0
 10
93.57533906080756
 20
-139.2579942143174
 30
0.0
 10
93.57533906080756
 20
-139.2579942143174
 30
0.0
 10
93.57533906080756
 20
-139.4526421092341
 30
0.0
 10
93.57533906080756
 20
-139.4526421092341
 30
0.0
 10
93.57533906080756
 20
-139.4526421092341
 30
0.0
 10
92.95970049759342
 20
-139.4526421092341
 30
0.0
 10
92.95970049759342
 20
-139.4526421092341
 30
0.0
 10
92.95970049759342
 20
-139.4526421092341
 30
0.0
 10
92.89424368337366
 20
-139.8756998348227
 30
0.0
 10
92.89424368337366
 20
-139.8756998348227
 30
0.0
 10
92.95556638301112
 20
-139.8419378990673
 30
0.0
 10
93.03790416510859
 20
-139.8016302818899
 30
0.0
 10
93.15641544980117
 20
-139.8016302818899
 30
0.0
 10
93.41031898706409
 20
-139.8016302818899
 30
0.0
 10
93.64734155644928
 20
-139.9880099476419
 30
0.0
 10
93.64734155644928
 20
-140.3011691272511
 30
0.0
 10
93.64734155644928
 20
-140.6184624214426
 30
0.0
 10
93.42306584035951
 20
-140.8530734239881
 30
0.0
 10
93.12058645675458
 20
-140.8530734239881
 30
0.0
  0
HATCH
  5
F1
330
E0
100
AcDbEntity
  8
_U+30EC_U+30A4_U+30E4_U+30FC 1
 62
     7
420
 16777215
100
AcDbHatch
 10
0.0
 20
0.0
 30
0.0
210
0.0
220
0.0
230
1.0
  2
SOLID
 70
     1
 71
     0
 91
        1
 92
        1
 93
        1
 72
     4
 94
        3
 73
     0
 74
     1
 95
       53
 96
       49
 40
0.0
 40
0.0
 40
0.0
 40
0.0
 40
1.0
 40
1.0
 40
1.0
 40
2.0
 40
2.0
 40
2.0
 40
3.0
 40
3.0
 40
3.0
 40
4.0
 40
4.0
 40
4.0
 40
5.0
 40
5.0
 40
5.0
 40
6.0
 40
6.0
 40
6.0
 40
7.0
 40
7.0
 40
7.0
 40
8.0
 40
8.0
 40
8.0
 40
9.0
 40
9.0
 40
9.0
 40
10.0
 40
10.0
 40
10.0
 40
11.0
 40
11.0
 40
11.0
 40
12.0
 40
12.0
 40
12.0
 40
13.0
 40
13.0
 40
13.0
 40
14.0
 40
14.0
 40
14.0
 40
15.0
 40
15.0
 40
15.0
 40
16.0
 40
16.0
 40
16.0
 40
16.0
 10
93.12058645675458
 20
-140.8530734239881
 10
93.04238278923941
 20
-140.8530734239881
 10
92.94075247242453
 20
-140.8361924561104
 10
92.83912215560967
 20
-140.7728026991818
 10
92.6658338527016
 20
-140.6629041532023
 10
92.64447426069306
 20
-140.5316460152143
 10
92.62552623552418
 20
-140.423814526526
 10
92.62552623552418
 20
-140.423814526526
 10
92.8477348943228
 20
-140.423814526526
 10
92.8477348943228
 20
-140.423814526526
 10
92.90251191253826
 20
-140.6225965360249
 10
93.02963593594399
 20
-140.6522243571981
 10
93.12265351404572
 20
-140.6522243571981
 10
93.26217988119835
 20
-140.6522243571981
 10
93.41445310164639
 20
-140.5526610976743
 10
93.41445310164639
 20
-140.32011715242
 10
93.41445310164639
 20
-140.0641465578659
 10
93.23461911731636
 20
-139.9942111195153
 10
93.11404077533261
 20
-139.9942111195153
 10
93.0823458968683
 20
-139.9942111195153
 10
92.94075247242453
 20
-139.9942111195153
 10
92.8518690089051
 20
-140.1234022002122
 10
92.8518690089051
 20
-140.1234022002122
 10
92.67616913915735
 20
-140.1044541750433
 10
92.67616913915735
 20
-140.1044541750433
 10
92.67616913915735
 20
-140.1044541750433
 10
92.7967474811411
 20
-139.2579942143174
 10
92.7967474811411
 20
-139.2579942143174
 10
92.7967474811411
 20
-139.2579942143174
 10
93.57533906080756
 20
-139.2579942143174
 10
93.57533906080756
 20
-139.2579942143174
 10
93.57533906080756
 20
-139.2579942143174
 10
93.57533906080756
 20
-139.4526421092341
 10
93.57533906080756
 20
-139.4526421092341
 10
93.57533906080756
 20
-139.4526421092341
 10
92.95970049759342
 20
-139.4526421092341
 10
92.95970049759342
 20
-139.4526421092341
 10
92.95970049759342
 20
-139.4526421092341
 10
92.89424368337366
 20
-139.8756998348227
 10
92.89424368337366
 20
-139.8756998348227
 10
92.95556638301112
 20
-139.8419378990673
 10
93.03790416510859
 20
-139.8016302818899
 10
93.15641544980117
 20
-139.8016302818899
 10
93.41031898706409
 20
-139.8016302818899
 10
93.64734155644928
 20
-139.9880099476419
 10
93.64734155644928
 20
-140.3011691272511
 10
93.64734155644928
 20
-140.6184624214426
 10
93.42306584035951
 20
-140.8530734239881
 10
93.12058645675458
 20
-140.8530734239881
 97
        0
 97
        0
 75
     2
 76
     1
 98
        0
  0
ENDBLK
  5
E3
330
E0
100
AcDbEntity
  8
0
100
AcDbBlockEnd
  0
BLOCK
  5
100
330
FE
100
AcDbEntity
  8
0
100
AcDbBlockBegin
  2
block 6
 70
     0
 10
0.0
 20
0.0
 30
0.0
  3
block 6
  1

  0
SPLINE
  5
102
330
FE
100
AcDbEntity
  8
_U+30EC_U+30A4_U+30E4_U+30FC 1
370
     0
100
AcDbSpline
210
0.0
220
0.0
230
1.0
 70
    11
 71
     3
 72
    26
 73
    22
 74
     0
 42
0.0000000001
 43
0.0000000001
 12
1.0
 22
0.0
 32
0.0
 13
1.0
 23
0.0
 33
0.0
 40
0.0
 40
0.0
 40
0.0
 40
0.0
 40
1.0
 40
1.0
 40
1.0
 40
2.0
 40
2.0
 40
2.0
 40
3.0
 40
3.0
 40
3.0
 40
4.0
 40
4.0
 40
4.0
 40
5.0
 40
5.0
 40
5.0
 40
6.0
 40
6.0
 40
6.0
 40
7.0
 40
7.0
 40
7.0
 40
7.0
 10
75.72406003966273
 20
-130.0296169379787
 30
0.0
 10
75.72406003966273
 20
-130.0296169379787
 30
0.0
 10
74.6197346818659
 20
-130.0296169379787
 30
0.0
 10
74.6197346818659
 20
-130.0296169379787
 30
0.0
 10
74.6197346818659
 20
-130.0296169379787
 30
0.0
 10
74.6197346818659
 20
-130.3596570854656
 30
0.0
 10
74.6197346818659
 20
-130.3596570854656
 30
0.0
 10
74.6197346818659
 20
-130.3596570854656
 30
0.0
 10
74.47159557600015
 20
-130.3596570854656
 30
0.0
 10
74.47159557600015
 20
-130.3596570854656
 30
0.0
 10
74.45695392018784
 20
-130.0275498806876
 30
0.0
 10
74.29400090373554
 20
-129.9810410916367
 30
0.0
 10
74.1797959883995
 20
-129.9514132704635
 30
0.0
 10
74.1797959883995
 20
-129.9514132704635
 30
0.0
 10
74.1797959883995
 20
-129.8053412218889
 30
0.0
 10
74.1797959883995
 20
-129.8053412218889
 30
0.0
 10
74.1797959883995
 20
-129.8053412218889
 30
0.0
 10
75.72406003966273
 20
-129.8053412218889
 30
0.0
 10
75.72406003966273
 20
-129.8053412218889
 30
0.0
 10
75.72406003966273
 20
-129.8053412218889
 30
0.0
 10
75.72406003966273
 20
-130.0296169379787
 30
0.0
 10
75.72406003966273
 20
-130.0296169379787
 30
0.0
  0
HATCH
  5
103
330
FE
100
AcDbEntity
  8
_U+30EC_U+30A4_U+30E4_U+30FC 1
 62
     7
420
 16777215
100
AcDbHatch
 10
0.0
 20
0.0
 30
0.0
210
0.0
220
0.0
230
1.0
  2
SOLID
 70
     1
 71
     0
 91
        1
 92
        1
 93
        1
 72
     4
 94
        3
 73
     0
 74
     1
 95
       26
 96
       22
 40
0.0
 40
0.0
 40
0.0
 40
0.0
 40
1.0
 40
1.0
 40
1.0
 40
2.0
 40
2.0
 40
2.0
 40
3.0
 40
3.0
 40
3.0
 40
4.0
 40
4.0
 40
4.0
 40
5.0
 40
5.0
 40
5.0
 40
6.0
 40
6.0
 40
6.0
 40
7.0
 40
7.0
 40
7.0
 40
7.0
 10
75.72406003966273
 20
-130.0296169379787
 10
75.72406003966273
 20
-130.0296169379787
 10
74.6197346818659
 20
-130.0296169379787
 10
74.6197346818659
 20
-130.0296169379787
 10
74.6197346818659
 20
-130.0296169379787
 10
74.6197346818659
 20
-130.3596570854656
 10
74.6197346818659
 20
-130.3596570854656
 10
74.6197346818659
 20
-130.3596570854656
 10
74.47159557600015
 20
-130.3596570854656
 10
74.47159557600015
 20
-130.3596570854656
 10
74.45695392018784
 20
-130.0275498806876
 10
74.29400090373554
 20
-129.9810410916367
 10
74.1797959883995
 20
-129.9514132704635
 10
74.1797959883995
 20
-129.9514132704635
 10
74.1797959883995
 20
-129.8053412218889
 10
74.1797959883995
 20
-129.8053412218889
 10
74.1797959883995
 20
-129.8053412218889
 10
75.72406003966273
 20
-129.8053412218889
 10
75.72406003966273
 20
-129.8053412218889
 10
75.72406003966273
 20
-129.8053412218889
 10
75.72406003966273
 20
-130.0296169379787
 10
75.72406003966273
 20
-130.0296169379787
 97
        0
 97
        0
 75
     2
 76
     1
 98
        0
  0
SPLINE
  5
104
330
FE
100
AcDbEntity
  8
_U+30EC_U+30A4_U+30E4_U+30FC 1
370
     0
100
AcDbSpline
210
0.0
220
0.0
230
1.0
 70
    11
 71
     3
 72
    26
 73
    22
 74
     0
 42
0.0000000001
 43
0.0000000001
 12
1.0
 22
0.0
 32
0.0
 13
1.0
 23
0.0
 33
0.0
 40
0.0
 40
0.0
 40
0.0
 40
0.0
 40
1.0
 40
1.0
 40
1.0
 40
2.0
 40
2.0
 40
2.0
 40
3.0
 40
3.0
 40
3.0
 40
4.0
 40
4.0
 40
4.0
 40
5.0
 40
5.0
 40
5.0
 40
6.0
 40
6.0
 40
6.0
 40
7.0
 40
7.0
 40
7.0
 40
7.0
 10
75.72406003966273
 20
-128.8930799373948
 30
0.0
 10
75.72406003966273
 20
-128.8930799373948
 30
0.0
 10
75.72406003966273
 20
-129.13010250678
 30
0.0
 10
75.72406003966273
 20
-129.13010250678
 30
0.0
 10
75.41520722941009
 20
-129.1046088001891
 30
0.0
 10
74.89689261365426
 20
-128.9120279625637
 30
0.0
 10
74.39132485119384
 20
-128.5058512048527
 30
0.0
 10
74.39132485119384
 20
-128.5058512048527
 30
0.0
 10
74.39132485119384
 20
-129.3436984268655
 30
0.0
 10
74.39132485119384
 20
-129.3436984268655
 30
0.0
 10
74.39132485119384
 20
-129.3436984268655
 30
0.0
 10
74.1797959883995
 20
-129.3436984268655
 30
0.0
 10
74.1797959883995
 20
-129.3436984268655
 30
0.0
 10
74.1797959883995
 20
-129.3436984268655
 30
0.0
 10
74.1797959883995
 20
-128.2688286354675
 30
0.0
 10
74.1797959883995
 20
-128.2688286354675
 30
0.0
 10
74.1797959883995
 20
-128.2688286354675
 30
0.0
 10
74.39132485119384
 20
-128.2688286354675
 30
0.0
 10
74.39132485119384
 20
-128.2688286354675
 30
0.0
 10
74.68105738150335
 20
-128.592667611081
 30
0.0
 10
75.27344155019206
 20
-128.8593180016393
 30
0.0
 10
75.72406003966273
 20
-128.8930799373948
 30
0.0
  0
HATCH
  5
105
330
FE
100
AcDbEntity
  8
_U+30EC_U+30A4_U+30E4_U+30FC 1
 62
     7
420
 16777215
100
AcDbHatch
 10
0.0
 20
0.0
 30
0.0
210
0.0
220
0.0
230
1.0
  2
SOLID
 70
     1
 71
     0
 91
        1
 92
        1
 93
        1
 72
     4
 94
        3
 73
     0
 74
     1
 95
       26
 96
       22
 40
0.0
 40
0.0
 40
0.0
 40
0.0
 40
1.0
 40
1.0
 40
1.0
 40
2.0
 40
2.0
 40
2.0
 40
3.0
 40
3.0
 40
3.0
 40
4.0
 40
4.0
 40
4.0
 40
5.0
 40
5.0
 40
5.0
 40
6.0
 40
6.0
 40
6.0
 40
7.0
 40
7.0
 40
7.0
 40
7.0
 10
75.72406003966273
 20
-128.8930799373948
 10
75.72406003966273
 20
-128.8930799373948
 10
75.72406003966273
 20
-129.13010250678
 10
75.72406003966273
 20
-129.13010250678
 10
75.41520722941009
 20
-129.1046088001891
 10
74.89689261365426
 20
-128.9120279625637
 10
74.39132485119384
 20
-128.5058512048527
 10
74.39132485119384
 20
-128.5058512048527
 10
74.39132485119384
 20
-129.3436984268655
 10
74.39132485119384
 20
-129.3436984268655
 10
74.39132485119384
 20
-129.3436984268655
 10
74.1797959883995
 20
-129.3436984268655
 10
74.1797959883995
 20
-129.3436984268655
 10
74.1797959883995
 20
-129.3436984268655
 10
74.1797959883995
 20
-128.2688286354675
 10
74.1797959883995
 20
-128.2688286354675
 10
74.1797959883995
 20
-128.2688286354675
 10
74.39132485119384
 20
-128.2688286354675
 10
74.39132485119384
 20
-128.2688286354675
 10
74.68105738150335
 20
-128.592667611081
 10
75.27344155019206
 20
-128.8593180016393
 10
75.72406003966273
 20
-128.8930799373948
 97
        0
 97
        0
 75
     2
 76
     1
 98
        0
  0
POLYLINE
  5
106
330
FE
100
AcDbEntity
  8
_U+30EC_U+30A4_U+30E4_U+30FC 1
370
     0
100
AcDb2dPolyline
 66
     1
 10
0.0
 20
0.0
 30
0.0
  0
VERTEX
  5
107
330
106
100
AcDbEntity
  8
_U+30EC_U+30A4_U+30E4_U+30FC 1
370
     0
100
AcDbVertex
100
AcDb2dVertex
 10
75.72406003966273
 20
-128.0672905495804
 30
0.0
  0
VERTEX
  5
108
330
106
100
AcDbEntity
  8
_U+30EC_U+30A4_U+30E4_U+30FC 1
370
     0
100
AcDbVertex
100
AcDb2dVertex
 10
75.47239581446524
 20
-128.0672905495804
 30
0.0
  0
VERTEX
  5
109
330
106
100
AcDbEntity
  8
_U+30EC_U+30A4_U+30E4_U+30FC 1
370
     0
100
AcDbVertex
100
AcDb2dVertex
 10
75.47239581446524
 20
-127.8154540696086
 30
0.0
  0
VERTEX
  5
10A
330
106
100
AcDbEntity
  8
_U+30EC_U+30A4_U+30E4_U+30FC 1
370
     0
100
AcDbVertex
100
AcDb2dVertex
 10
75.72406003966273
 20
-127.8154540696086
 30
0.0
  0
VERTEX
  5
10B
330
106
100
AcDbEntity
  8
_U+30EC_U+30A4_U+30E4_U+30FC 1
370
     0
100
AcDbVertex
100
AcDb2dVertex
 10
75.72406003966273
 20
-128.0672905495804
 30
0.0
  0
SEQEND
  5
10C
330
106
100
AcDbEntity
  8
_U+30EC_U+30A4_U+30E4_U+30FC 1
370
     0
  0
HATCH
  5
10D
330
FE
100
AcDbEntity
  8
_U+30EC_U+30A4_U+30E4_U+30FC 1
 62
     7
420
 16777215
100
AcDbHatch
 10
0.0
 20
0.0
 30
0.0
210
0.0
220
0.0
230
1.0
  2
SOLID
 70
     1
 71
     0
 91
        1
 92
        1
 93
        4
 72
     1
 10
75.72406003966273
 20
-128.0672905495804
 11
75.47239581446524
 21
-128.0672905495804
 72
     1
 10
75.47239581446524
 20
-128.0672905495804
 11
75.47239581446524
 21
-127.8154540696086
 72
     1
 10
75.47239581446524
 20
-127.8154540696086
 11
75.72406003966273
 21
-127.8154540696086
 72
     1
 10
75.72406003966273
 20
-127.8154540696086
 11
75.72406003966273
 21
-128.0672905495804
 97
        0
 75
     2
 76
     1
 98
        0
  0
SPLINE
  5
10E
330
FE
100
AcDbEntity
  8
_U+30EC_U+30A4_U+30E4_U+30FC 1
370
     0
100
AcDbSpline
210
0.0
220
0.0
230
1.0
 70
    11
 71
     3
 72
    53
 73
    49
 74
     0
 42
0.0000000001
 43
0.0000000001
 12
1.0
 22
0.0
 32
0.0
 13
1.0
 23
0.0
 33
0.0
 40
0.0
 40
0.0
 40
0.0
 40
0.0
 40
1.0
 40
1.0
 40
1.0
 40
2.0
 40
2.0
 40
2.0
 40
3.0
 40
3.0
 40
3.0
 40
4.0
 40
4.0
 40
4.0
 40
5.0
 40
5.0
 40
5.0
 40
6.0
 40
6.0
 40
6.0
 40
7.0
 40
7.0
 40
7.0
 40
8.0
 40
8.0
 40
8.0
 40
9.0
 40
9.0
 40
9.0
 40
10.0
 40
10.0
 40
10.0
 40
11.0
 40
11.0
 40
11.0
 40
12.0
 40
12.0
 40
12.0
 40
13.0
 40
13.0
 40
13.0
 40
14.0
 40
14.0
 40
14.0
 40
15.0
 40
15.0
 40
15.0
 40
16.0
 40
16.0
 40
16.0
 40
16.0
 10
75.77487519807018
 20
-127.0981851895796
 30
0.0
 10
75.77487519807018
 20
-127.1763888570948
 30
0.0
 10
75.75799423019245
 20
-127.2780191739097
 30
0.0
 10
75.6944322184896
 20
-127.3796494907245
 30
0.0
 10
75.58436141773586
 20
-127.5529377936326
 30
0.0
 10
75.4532755345221
 20
-127.5742973856412
 30
0.0
 10
75.34544404583379
 20
-127.59324541081
 30
0.0
 10
75.34544404583379
 20
-127.59324541081
 30
0.0
 10
75.34544404583379
 20
-127.3710367520114
 30
0.0
 10
75.34544404583379
 20
-127.3710367520114
 30
0.0
 10
75.5442260553327
 20
-127.3162597337959
 30
0.0
 10
75.57385387650585
 20
-127.1891357103902
 30
0.0
 10
75.57385387650585
 20
-127.0961181322885
 30
0.0
 10
75.57385387650585
 20
-126.9565917651359
 30
0.0
 10
75.47446287175639
 20
-126.8043185446878
 30
0.0
 10
75.24174667172777
 20
-126.8043185446878
 30
0.0
 10
74.9857760771737
 20
-126.8043185446878
 30
0.0
 10
74.91601289359738
 20
-126.9841525290179
 30
0.0
 10
74.91601289359738
 20
-127.1047308710016
 30
0.0
 10
74.91601289359738
 20
-127.1364257494659
 30
0.0
 10
74.91601289359738
 20
-127.2780191739097
 30
0.0
 10
75.04503171952
 20
-127.3669026374291
 30
0.0
 10
75.04503171952
 20
-127.3669026374291
 30
0.0
 10
75.02591143957686
 20
-127.5426025071769
 30
0.0
 10
75.02591143957686
 20
-127.5426025071769
 30
0.0
 10
75.02591143957686
 20
-127.5426025071769
 30
0.0
 10
74.1797959883995
 20
-127.4220241651931
 30
0.0
 10
74.1797959883995
 20
-127.4220241651931
 30
0.0
 10
74.1797959883995
 20
-127.4220241651931
 30
0.0
 10
74.1797959883995
 20
-126.6434325855267
 30
0.0
 10
74.1797959883995
 20
-126.6434325855267
 30
0.0
 10
74.1797959883995
 20
-126.6434325855267
 30
0.0
 10
74.37444388331612
 20
-126.6434325855267
 30
0.0
 10
74.37444388331612
 20
-126.6434325855267
 30
0.0
 10
74.37444388331612
 20
-126.6434325855267
 30
0.0
 10
74.37444388331612
 20
-127.2590711487408
 30
0.0
 10
74.37444388331612
 20
-127.2590711487408
 30
0.0
 10
74.37444388331612
 20
-127.2590711487408
 30
0.0
 10
74.7975016089048
 20
-127.3245279629605
 30
0.0
 10
74.7975016089048
 20
-127.3245279629605
 30
0.0
 10
74.76356741837509
 20
-127.2632052633231
 30
0.0
 10
74.72343205597193
 20
-127.1808674812256
 30
0.0
 10
74.72343205597193
 20
-127.062356196533
 30
0.0
 10
74.72343205597193
 20
-126.8084526592701
 30
0.0
 10
74.90963946694967
 20
-126.5714300898849
 30
0.0
 10
75.22262639178463
 20
-126.5714300898849
 30
0.0
 10
75.5400919407504
 20
-126.5714300898849
 30
0.0
 10
75.77487519807018
 20
-126.7957058059747
 30
0.0
 10
75.77487519807018
 20
-127.0981851895796
 30
0.0
  0
HATCH
  5
10F
330
FE
100
AcDbEntity
  8
_U+30EC_U+30A4_U+30E4_U+30FC 1
 62
     7
420
 16777215
100
AcDbHatch
 10
0.0
 20
0.0
 30
0.0
210
0.0
220
0.0
230
1.0
  2
SOLID
 70
     1
 71
     0
 91
        1
 92
        1
 93
        1
 72
     4
 94
        3
 73
     0
 74
     1
 95
       53
 96
       49
 40
0.0
 40
0.0
 40
0.0
 40
0.0
 40
1.0
 40
1.0
 40
1.0
 40
2.0
 40
2.0
 40
2.0
 40
3.0
 40
3.0
 40
3.0
 40
4.0
 40
4.0
 40
4.0
 40
5.0
 40
5.0
 40
5.0
 40
6.0
 40
6.0
 40
6.0
 40
7.0
 40
7.0
 40
7.0
 40
8.0
 40
8.0
 40
8.0
 40
9.0
 40
9.0
 40
9.0
 40
10.0
 40
10.0
 40
10.0
 40
11.0
 40
11.0
 40
11.0
 40
12.0
 40
12.0
 40
12.0
 40
13.0
 40
13.0
 40
13.0
 40
14.0
 40
14.0
 40
14.0
 40
15.0
 40
15.0
 40
15.0
 40
16.0
 40
16.0
 40
16.0
 40
16.0
 10
75.77487519807018
 20
-127.0981851895796
 10
75.77487519807018
 20
-127.1763888570948
 10
75.75799423019245
 20
-127.2780191739097
 10
75.6944322184896
 20
-127.3796494907245
 10
75.58436141773586
 20
-127.5529377936326
 10
75.4532755345221
 20
-127.5742973856412
 10
75.34544404583379
 20
-127.59324541081
 10
75.34544404583379
 20
-127.59324541081
 10
75.34544404583379
 20
-127.3710367520114
 10
75.34544404583379
 20
-127.3710367520114
 10
75.5442260553327
 20
-127.3162597337959
 10
75.57385387650585
 20
-127.1891357103902
 10
75.57385387650585
 20
-127.0961181322885
 10
75.57385387650585
 20
-126.9565917651359
 10
75.47446287175639
 20
-126.8043185446878
 10
75.24174667172777
 20
-126.8043185446878
 10
74.9857760771737
 20
-126.8043185446878
 10
74.91601289359738
 20
-126.9841525290179
 10
74.91601289359738
 20
-127.1047308710016
 10
74.91601289359738
 20
-127.1364257494659
 10
74.91601289359738
 20
-127.2780191739097
 10
75.04503171952
 20
-127.3669026374291
 10
75.04503171952
 20
-127.3669026374291
 10
75.02591143957686
 20
-127.5426025071769
 10
75.02591143957686
 20
-127.5426025071769
 10
75.02591143957686
 20
-127.5426025071769
 10
74.1797959883995
 20
-127.4220241651931
 10
74.1797959883995
 20
-127.4220241651931
 10
74.1797959883995
 20
-127.4220241651931
 10
74.1797959883995
 20
-126.6434325855267
 10
74.1797959883995
 20
-126.6434325855267
 10
74.1797959883995
 20
-126.6434325855267
 10
74.37444388331612
 20
-126.6434325855267
 10
74.37444388331612
 20
-126.6434325855267
 10
74.37444388331612
 20
-126.6434325855267
 10
74.37444388331612
 20
-127.2590711487408
 10
74.37444388331612
 20
-127.2590711487408
 10
74.37444388331612
 20
-127.2590711487408
 10
74.7975016089048
 20
-127.3245279629605
 10
74.7975016089048
 20
-127.3245279629605
 10
74.76356741837509
 20
-127.2632052633231
 10
74.72343205597193
 20
-127.1808674812256
 10
74.72343205597193
 20
-127.062356196533
 10
74.72343205597193
 20
-126.8084526592701
 10
74.90963946694967
 20
-126.5714300898849
 10
75.22262639178463
 20
-126.5714300898849
 10
75.5400919407504
 20
-126.5714300898849
 10
75.77487519807018
 20
-126.7957058059747
 10
75.77487519807018
 20
-127.0981851895796
 97
        0
 97
        0
 75
     2
 76
     1
 98
        0
  0
ENDBLK
  5
101
330
FE
100
AcDbEntity
  8
0
100
AcDbBlockEnd
  0
BLOCK
  5
11E
330
11C
100
AcDbEntity
  8
0
100
AcDbBlockBegin
  2
block 7
 70
     0
 10
0.0
 20
0.0
 30
0.0
  3
block 7
  1

  0
SPLINE
  5
120
330
11C
100
AcDbEntity
  8
_U+30EC_U+30A4_U+30E4_U+30FC 1
370
     0
100
AcDbSpline
210
0.0
220
0.0
230
1.0
 70
    11
 71
     3
 72
    53
 73
    49
 74
     0
 42
0.0000000001
 43
0.0000000001
 12
1.0
 22
0.0
 32
0.0
 13
1.0
 23
0.0
 33
0.0
 40
0.0
 40
0.0
 40
0.0
 40
0.0
 40
1.0
 40
1.0
 40
1.0
 40
2.0
 40
2.0
 40
2.0
 40
3.0
 40
3.0
 40
3.0
 40
4.0
 40
4.0
 40
4.0
 40
5.0
 40
5.0
 40
5.0
 40
6.0
 40
6.0
 40
6.0
 40
7.0
 40
7.0
 40
7.0
 40
8.0
 40
8.0
 40
8.0
 40
9.0
 40
9.0
 40
9.0
 40
10.0
 40
10.0
 40
10.0
 40
11.0
 40
11.0
 40
11.0
 40
12.0
 40
12.0
 40
12.0
 40
13.0
 40
13.0
 40
13.0
 40
14.0
 40
14.0
 40
14.0
 40
15.0
 40
15.0
 40
15.0
 40
16.0
 40
16.0
 40
16.0
 40
16.0
 10
76.80547551248266
 20
-140.8909694743259
 30
0.0
 10
76.7501817299444
 20
-140.8355034370134
 30
0.0
 10
76.69023706850106
 20
-140.7517876167218
 30
0.0
 10
76.6633653237161
 20
-140.6349988797718
 30
0.0
 10
76.61840682763359
 20
-140.4344943225303
 30
0.0
 10
76.69626598560025
 20
-140.3270073433905
 30
0.0
 10
76.75913897820605
 20
-140.2370903512254
 30
0.0
 10
76.75913897820605
 20
-140.2370903512254
 30
0.0
 10
76.91623533233344
 20
-140.3941867053528
 30
0.0
 10
76.91623533233344
 20
-140.3941867053528
 30
0.0
 10
76.81443276074431
 20
-140.5736761801344
 30
0.0
 10
76.88316241567505
 20
-140.6842637452109
 30
0.0
 10
76.94913599421758
 20
-140.7500650689792
 30
0.0
 10
77.04783797986998
 20
-140.8489393094058
 30
0.0
 10
77.22577716168314
 20
-140.8864908501951
 30
0.0
 10
77.39028047110382
 20
-140.7218152860001
 30
0.0
 10
77.5713202388537
 20
-140.5409477730245
 30
0.0
 10
77.49363333566131
 20
-140.3642143746312
 30
0.0
 10
77.40836722240138
 20
-140.2791205161455
 30
0.0
 10
77.385801846973
 20
-140.2567273954914
 30
0.0
 10
77.28554956835222
 20
-140.1564751168706
 30
0.0
 10
77.13155380016156
 20
-140.1847248998497
 30
0.0
 10
77.13155380016156
 20
-140.1847248998497
 30
0.0
 10
77.02079398031077
 20
-140.0472655899882
 30
0.0
 10
77.02079398031077
 20
-140.0472655899882
 30
0.0
 10
77.02079398031077
 20
-140.0472655899882
 30
0.0
 10
77.7044731793586
 20
-139.533946362686
 30
0.0
 10
77.7044731793586
 20
-139.533946362686
 30
0.0
 10
77.7044731793586
 20
-139.533946362686
 30
0.0
 10
78.25499943790153
 20
-140.0844726212289
 30
0.0
 10
78.25499943790153
 20
-140.0844726212289
 30
0.0
 10
78.25499943790153
 20
-140.0844726212289
 30
0.0
 10
78.1173678732658
 20
-140.2222764406389
 30
0.0
 10
78.1173678732658
 20
-140.2222764406389
 30
0.0
 10
78.1173678732658
 20
-140.2222764406389
 30
0.0
 10
77.68208005870449
 20
-139.7868163713033
 30
0.0
 10
77.68208005870449
 20
-139.7868163713033
 30
0.0
 10
77.68208005870449
 20
-139.7868163713033
 30
0.0
 10
77.33653698153392
 20
-140.0396863799207
 30
0.0
 10
77.33653698153392
 20
-140.0396863799207
 30
0.0
 10
77.40388859827056
 20
-140.058978914638
 30
0.0
 10
77.4905327497246
 20
-140.0889512453597
 30
0.0
 10
77.57442082479042
 20
-140.1726670656513
 30
0.0
 10
77.75391029957194
 20
-140.3521565404328
 30
0.0
 10
77.78973929261853
 20
-140.651535338101
 30
0.0
 10
77.56839190769124
 20
-140.872710468254
 30
0.0
 10
77.34394393682722
 20
-141.0973306938923
 30
0.0
 10
77.01941594211668
 20
-141.1045653944114
 30
0.0
 10
76.80547551248266
 20
-140.8909694743259
 30
0.0
  0
HATCH
  5
121
330
11C
100
AcDbEntity
  8
_U+30EC_U+30A4_U+30E4_U+30FC 1
 62
     7
420
 16777215
100
AcDbHatch
 10
0.0
 20
0.0
 30
0.0
210
0.0
220
0.0
230
1.0
  2
SOLID
 70
     1
 71
     0
 91
        1
 92
        1
 93
        1
 72
     4
 94
        3
 73
     0
 74
     1
 95
       53
 96
       49
 40
0.0
 40
0.0
 40
0.0
 40
0.0
 40
1.0
 40
1.0
 40
1.0
 40
2.0
 40
2.0
 40
2.0
 40
3.0
 40
3.0
 40
3.0
 40
4.0
 40
4.0
 40
4.0
 40
5.0
 40
5.0
 40
5.0
 40
6.0
 40
6.0
 40
6.0
 40
7.0
 40
7.0
 40
7.0
 40
8.0
 40
8.0
 40
8.0
 40
9.0
 40
9.0
 40
9.0
 40
10.0
 40
10.0
 40
10.0
 40
11.0
 40
11.0
 40
11.0
 40
12.0
 40
12.0
 40
12.0
 40
13.0
 40
13.0
 40
13.0
 40
14.0
 40
14.0
 40
14.0
 40
15.0
 40
15.0
 40
15.0
 40
16.0
 40
16.0
 40
16.0
 40
16.0
 10
76.80547551248266
 20
-140.8909694743259
 10
76.7501817299444
 20
-140.8355034370134
 10
76.69023706850106
 20
-140.7517876167218
 10
76.6633653237161
 20
-140.6349988797718
 10
76.61840682763359
 20
-140.4344943225303
 10
76.69626598560025
 20
-140.3270073433905
 10
76.75913897820605
 20
-140.2370903512254
 10
76.75913897820605
 20
-140.2370903512254
 10
76.91623533233344
 20
-140.3941867053528
 10
76.91623533233344
 20
-140.3941867053528
 10
76.81443276074431
 20
-140.5736761801344
 10
76.88316241567505
 20
-140.6842637452109
 10
76.94913599421758
 20
-140.7500650689792
 10
77.04783797986998
 20
-140.8489393094058
 10
77.22577716168314
 20
-140.8864908501951
 10
77.39028047110382
 20
-140.7218152860001
 10
77.5713202388537
 20
-140.5409477730245
 10
77.49363333566131
 20
-140.3642143746312
 10
77.40836722240138
 20
-140.2791205161455
 10
77.385801846973
 20
-140.2567273954914
 10
77.28554956835222
 20
-140.1564751168706
 10
77.13155380016156
 20
-140.1847248998497
 10
77.13155380016156
 20
-140.1847248998497
 10
77.02079398031077
 20
-140.0472655899882
 10
77.02079398031077
 20
-140.0472655899882
 10
77.02079398031077
 20
-140.0472655899882
 10
77.7044731793586
 20
-139.533946362686
 10
77.7044731793586
 20
-139.533946362686
 10
77.7044731793586
 20
-139.533946362686
 10
78.25499943790153
 20
-140.0844726212289
 10
78.25499943790153
 20
-140.0844726212289
 10
78.25499943790153
 20
-140.0844726212289
 10
78.1173678732658
 20
-140.2222764406389
 10
78.1173678732658
 20
-140.2222764406389
 10
78.1173678732658
 20
-140.2222764406389
 10
77.68208005870449
 20
-139.7868163713033
 10
77.68208005870449
 20
-139.7868163713033
 10
77.68208005870449
 20
-139.7868163713033
 10
77.33653698153392
 20
-140.0396863799207
 10
77.33653698153392
 20
-140.0396863799207
 10
77.40388859827056
 20
-140.058978914638
 10
77.4905327497246
 20
-140.0889512453597
 10
77.57442082479042
 20
-140.1726670656513
 10
77.75391029957194
 20
-140.3521565404328
 10
77.78973929261853
 20
-140.651535338101
 10
77.56839190769124
 20
-140.872710468254
 10
77.34394393682722
 20
-141.0973306938923
 10
77.01941594211668
 20
-141.1045653944114
 10
76.80547551248266
 20
-140.8909694743259
 97
        0
 97
        0
 75
     2
 76
     1
 98
        0
  0
ENDBLK
  5
11F
330
11C
100
AcDbEntity
  8
0
100
AcDbBlockEnd
  0
BLOCK
  5
134
330
132
100
AcDbEntity
  8
0
100
AcDbBlockBegin
  2
block 8
 70
     0
 10
0.0
 20
0.0
 30
0.0
  3
block 8
  1

  0
SPLINE
  5
136
330
132
100
AcDbEntity
  8
_U+30EC_U+30A4_U+30E4_U+30FC 1
370
     0
100
AcDbSpline
210
0.0
220
0.0
230
1.0
 70
    11
 71
     3
 72
    62
 73
    58
 74
     0
 42
0.0000000001
 43
0.0000000001
 12
1.0
 22
0.0
 32
0.0
 13
1.0
 23
0.0
 33
0.0
 40
0.0
 40
0.0
 40
0.0
 40
0.0
 40
1.0
 40
1.0
 40
1.0
 40
2.0
 40
2.0
 40
2.0
 40
3.0
 40
3.0
 40
3.0
 40
4.0
 40
4.0
 40
4.0
 40
5.0
 40
5.0
 40
5.0
 40
6.0
 40
6.0
 40
6.0
 40
7.0
 40
7.0
 40
7.0
 40
8.0
 40
8.0
 40
8.0
 40
9.0
 40
9.0
 40
9.0
 40
10.0
 40
10.0
 40
10.0
 40
11.0
 40
11.0
 40
11.0
 40
12.0
 40
12.0
 40
12.0
 40
13.0
 40
13.0
 40
13.0
 40
14.0
 40
14.0
 40
14.0
 40
15.0
 40
15.0
 40
15.0
 40
16.0
 40
16.0
 40
16.0
 40
17.0
 40
17.0
 40
17.0
 40
18.0
 40
18.0
 40
18.0
 40
19.0
 40
19.0
 40
19.0
 40
19.0
 10
106.274994548084
 20
-135.8359808688188
 30
0.0
 10
106.274994548084
 20
-135.9314100137602
 30
0.0
 10
106.253979465624
 20
-136.149140048428
 30
0.0
 10
106.0679443094205
 20
-136.2741970145426
 30
0.0
 10
105.9556341966014
 20
-136.3479220579269
 30
0.0
 10
105.8564154466262
 20
-136.3524006820577
 30
0.0
 10
105.771666097689
 20
-136.35653479664
 30
0.0
 10
105.771666097689
 20
-136.35653479664
 30
0.0
 10
105.771666097689
 20
-136.1363931951326
 30
0.0
 10
105.771666097689
 20
-136.1363931951326
 30
0.0
 10
105.8457356506219
 20
-136.1343261378414
 30
0.0
 10
106.0803466531674
 20
-136.1239908513857
 30
0.0
 10
106.0803466531674
 20
-135.8404594929496
 30
0.0
 10
106.0803466531674
 20
-135.7030001830881
 30
0.0
 10
106.0107557243654
 20
-135.5503824530916
 30
0.0
 10
105.7823458936933
 20
-135.5503824530916
 30
0.0
 10
105.6659016662919
 20
-135.5503824530916
 30
0.0
 10
105.6173258199498
 20
-135.5886230129778
 30
0.0
 10
105.5856309414855
 20
-135.6203178914421
 30
0.0
 10
105.5115613885527
 20
-135.694387444375
 30
0.0
 10
105.4988145352572
 20
-135.8108316717765
 30
0.0
 10
105.4988145352572
 20
-135.8656086899919
 30
0.0
 10
105.4988145352572
 20
-135.8849012247093
 30
0.0
 10
105.5008815925484
 20
-135.9207302177559
 30
0.0
 10
105.5050157071307
 20
-135.9482909816379
 30
0.0
 10
105.5050157071307
 20
-135.9482909816379
 30
0.0
 10
105.3103678122141
 20
-135.9482909816379
 30
0.0
 10
105.3103678122141
 20
-135.9482909816379
 30
0.0
 10
105.3169134936361
 20
-135.9100504217517
 30
0.0
 10
105.3189805509272
 20
-135.8680202568316
 30
0.0
 10
105.3189805509272
 20
-135.8614745754096
 30
0.0
 10
105.3189805509272
 20
-135.7960177611899
 30
0.0
 10
105.2976209589187
 20
-135.597235751691
 30
0.0
 10
105.060942899082
 20
-135.597235751691
 30
0.0
 10
104.8831759720431
 20
-135.597235751691
 30
0.0
 10
104.8280544442791
 20
-135.7281493801305
 30
0.0
 10
104.8280544442791
 20
-135.8383924356585
 30
0.0
 10
104.8280544442791
 20
-136.1026312593771
 30
0.0
 10
105.060942899082
 20
-136.1112439980903
 30
0.0
 10
105.1326008851752
 20
-136.1153781126725
 30
0.0
 10
105.1326008851752
 20
-136.1153781126725
 30
0.0
 10
105.1326008851752
 20
-136.3186387463023
 30
0.0
 10
105.1326008851752
 20
-136.3186387463023
 30
0.0
 10
105.0078884286091
 20
-136.3100260075892
 30
0.0
 10
104.6313394920713
 20
-136.2824652437072
 30
0.0
 10
104.6313394920713
 20
-135.8256455823631
 30
0.0
 10
104.6313394920713
 20
-135.6013698662733
 30
0.0
 10
104.7584635154771
 20
-135.3602131823058
 30
0.0
 10
105.05439721766
 20
-135.3602131823058
 30
0.0
 10
105.240776883412
 20
-135.3602131823058
 30
0.0
 10
105.3231146655095
 20
-135.4552978176987
 30
0.0
 10
105.384437365147
 20
-135.5548610772224
 30
0.0
 10
105.4119981290289
 20
-135.493538377585
 30
0.0
 10
105.4922688538353
 20
-135.3116373359638
 30
0.0
 10
105.7695990403979
 20
-135.3116373359638
 30
0.0
 10
106.1079074170494
 20
-135.3116373359638
 30
0.0
 10
106.274994548084
 20
-135.5589951918047
 30
0.0
 10
106.274994548084
 20
-135.8359808688188
 30
0.0
  0
HATCH
  5
137
330
132
100
AcDbEntity
  8
_U+30EC_U+30A4_U+30E4_U+30FC 1
 62
     7
420
 16777215
100
AcDbHatch
 10
0.0
 20
0.0
 30
0.0
210
0.0
220
0.0
230
1.0
  2
SOLID
 70
     1
 71
     0
 91
        1
 92
        1
 93
        1
 72
     4
 94
        3
 73
     0
 74
     1
 95
       62
 96
       58
 40
0.0
 40
0.0
 40
0.0
 40
0.0
 40
1.0
 40
1.0
 40
1.0
 40
2.0
 40
2.0
 40
2.0
 40
3.0
 40
3.0
 40
3.0
 40
4.0
 40
4.0
 40
4.0
 40
5.0
 40
5.0
 40
5.0
 40
6.0
 40
6.0
 40
6.0
 40
7.0
 40
7.0
 40
7.0
 40
8.0
 40
8.0
 40
8.0
 40
9.0
 40
9.0
 40
9.0
 40
10.0
 40
10.0
 40
10.0
 40
11.0
 40
11.0
 40
11.0
 40
12.0
 40
12.0
 40
12.0
 40
13.0
 40
13.0
 40
13.0
 40
14.0
 40
14.0
 40
14.0
 40
15.0
 40
15.0
 40
15.0
 40
16.0
 40
16.0
 40
16.0
 40
17.0
 40
17.0
 40
17.0
 40
18.0
 40
18.0
 40
18.0
 40
19.0
 40
19.0
 40
19.0
 40
19.0
 10
106.274994548084
 20
-135.8359808688188
 10
106.274994548084
 20
-135.9314100137602
 10
106.253979465624
 20
-136.149140048428
 10
106.0679443094205
 20
-136.2741970145426
 10
105.9556341966014
 20
-136.3479220579269
 10
105.8564154466262
 20
-136.3524006820577
 10
105.771666097689
 20
-136.35653479664
 10
105.771666097689
 20
-136.35653479664
 10
105.771666097689
 20
-136.1363931951326
 10
105.771666097689
 20
-136.1363931951326
 10
105.8457356506219
 20
-136.1343261378414
 10
106.0803466531674
 20
-136.1239908513857
 10
106.0803466531674
 20
-135.8404594929496
 10
106.0803466531674
 20
-135.7030001830881
 10
106.0107557243654
 20
-135.5503824530916
 10
105.7823458936933
 20
-135.5503824530916
 10
105.6659016662919
 20
-135.5503824530916
 10
105.6173258199498
 20
-135.5886230129778
 10
105.5856309414855
 20
-135.6203178914421
 10
105.5115613885527
 20
-135.694387444375
 10
105.4988145352572
 20
-135.8108316717765
 10
105.4988145352572
 20
-135.8656086899919
 10
105.4988145352572
 20
-135.8849012247093
 10
105.5008815925484
 20
-135.9207302177559
 10
105.5050157071307
 20
-135.9482909816379
 10
105.5050157071307
 20
-135.9482909816379
 10
105.3103678122141
 20
-135.9482909816379
 10
105.3103678122141
 20
-135.9482909816379
 10
105.3169134936361
 20
-135.9100504217517
 10
105.3189805509272
 20
-135.8680202568316
 10
105.3189805509272
 20
-135.8614745754096
 10
105.3189805509272
 20
-135.7960177611899
 10
105.2976209589187
 20
-135.597235751691
 10
105.060942899082
 20
-135.597235751691
 10
104.8831759720431
 20
-135.597235751691
 10
104.8280544442791
 20
-135.7281493801305
 10
104.8280544442791
 20
-135.8383924356585
 10
104.8280544442791
 20
-136.1026312593771
 10
105.060942899082
 20
-136.1112439980903
 10
105.1326008851752
 20
-136.1153781126725
 10
105.1326008851752
 20
-136.1153781126725
 10
105.1326008851752
 20
-136.3186387463023
 10
105.1326008851752
 20
-136.3186387463023
 10
105.0078884286091
 20
-136.3100260075892
 10
104.6313394920713
 20
-136.2824652437072
 10
104.6313394920713
 20
-135.8256455823631
 10
104.6313394920713
 20
-135.6013698662733
 10
104.7584635154771
 20
-135.3602131823058
 10
105.05439721766
 20
-135.3602131823058
 10
105.240776883412
 20
-135.3602131823058
 10
105.3231146655095
 20
-135.4552978176987
 10
105.384437365147
 20
-135.5548610772224
 10
105.4119981290289
 20
-135.493538377585
 10
105.4922688538353
 20
-135.3116373359638
 10
105.7695990403979
 20
-135.3116373359638
 10
106.1079074170494
 20
-135.3116373359638
 10
106.274994548084
 20
-135.5589951918047
 10
106.274994548084
 20
-135.8359808688188
 97
        0
 97
        0
 75
     2
 76
     1
 98
        0
  0
POLYLINE
  5
138
330
132
100
AcDbEntity
  8
_U+30EC_U+30A4_U+30E4_U+30FC 1
370
     0
100
AcDb2dPolyline
 66
     1
 10
0.0
 20
0.0
 30
0.0
  0
VERTEX
  5
139
330
138
100
AcDbEntity
  8
_U+30EC_U+30A4_U+30E4_U+30FC 1
370
     0
100
AcDbVertex
100
AcDb2dVertex
 10
106.2243516444509
 20
-135.0908067153592
 30
0.0
  0
VERTEX
  5
13A
330
138
100
AcDbEntity
  8
_U+30EC_U+30A4_U+30E4_U+30FC 1
370
     0
100
AcDbVertex
100
AcDb2dVertex
 10
105.9725151644791
 20
-135.0908067153592
 30
0.0
  0
VERTEX
  5
13B
330
138
100
AcDbEntity
  8
_U+30EC_U+30A4_U+30E4_U+30FC 1
370
     0
100
AcDbVertex
100
AcDb2dVertex
 10
105.9725151644791
 20
-134.8389702353875
 30
0.0
  0
VERTEX
  5
13C
330
138
100
AcDbEntity
  8
_U+30EC_U+30A4_U+30E4_U+30FC 1
370
     0
100
AcDbVertex
100
AcDb2dVertex
 10
106.2243516444509
 20
-134.8389702353875
 30
0.0
  0
VERTEX
  5
13D
330
138
100
AcDbEntity
  8
_U+30EC_U+30A4_U+30E4_U+30FC 1
370
     0
100
AcDbVertex
100
AcDb2dVertex
 10
106.2243516444509
 20
-135.0908067153592
 30
0.0
  0
SEQEND
  5
13E
330
138
100
AcDbEntity
  8
_U+30EC_U+30A4_U+30E4_U+30FC 1
370
     0
  0
HATCH
  5
13F
330
132
100
AcDbEntity
  8
_U+30EC_U+30A4_U+30E4_U+30FC 1
 62
     7
420
 16777215
100
AcDbHatch
 10
0.0
 20
0.0
 30
0.0
210
0.0
220
0.0
230
1.0
  2
SOLID
 70
     1
 71
     0
 91
        1
 92
        1
 93
        4
 72
     1
 10
106.2243516444509
 20
-135.0908067153592
 11
105.9725151644791
 21
-135.0908067153592
 72
     1
 10
105.9725151644791
 20
-135.0908067153592
 11
105.9725151644791
 21
-134.8389702353875
 72
     1
 10
105.9725151644791
 20
-134.8389702353875
 11
106.2243516444509
 21
-134.8389702353875
 72
     1
 10
106.2243516444509
 20
-134.8389702353875
 11
106.2243516444509
 21
-135.0908067153592
 97
        0
 75
     2
 76
     1
 98
        0
  0
SPLINE
  5
140
330
132
100
AcDbEntity
  8
_U+30EC_U+30A4_U+30E4_U+30FC 1
370
     0
100
AcDbSpline
210
0.0
220
0.0
230
1.0
 70
    11
 71
     3
 72
    53
 73
    49
 74
     0
 42
0.0000000001
 43
0.0000000001
 12
1.0
 22
0.0
 32
0.0
 13
1.0
 23
0.0
 33
0.0
 40
0.0
 40
0.0
 40
0.0
 40
0.0
 40
1.0
 40
1.0
 40
1.0
 40
2.0
 40
2.0
 40
2.0
 40
3.0
 40
3.0
 40
3.0
 40
4.0
 40
4.0
 40
4.0
 40
5.0
 40
5.0
 40
5.0
 40
6.0
 40
6.0
 40
6.0
 40
7.0
 40
7.0
 40
7.0
 40
8.0
 40
8.0
 40
8.0
 40
9.0
 40
9.0
 40
9.0
 40
10.0
 40
10.0
 40
10.0
 40
11.0
 40
11.0
 40
11.0
 40
12.0
 40
12.0
 40
12.0
 40
13.0
 40
13.0
 40
13.0
 40
14.0
 40
14.0
 40
14.0
 40
15.0
 40
15.0
 40
15.0
 40
16.0
 40
16.0
 40
16.0
 40
16.0
 10
106.274994548084
 20
-134.1217013553585
 30
0.0
 10
106.274994548084
 20
-134.1999050228737
 30
0.0
 10
106.2581135802063
 20
-134.3015353396885
 30
0.0
 10
106.1947238232777
 20
-134.4031656565034
 30
0.0
 10
106.0848252772982
 20
-134.5764539594115
 30
0.0
 10
105.9535671393102
 20
-134.59781355142
 30
0.0
 10
105.8457356506219
 20
-134.6167615765889
 30
0.0
 10
105.8457356506219
 20
-134.6167615765889
 30
0.0
 10
105.8457356506219
 20
-134.3945529177903
 30
0.0
 10
105.8457356506219
 20
-134.3945529177903
 30
0.0
 10
106.0445176601208
 20
-134.3397758995748
 30
0.0
 10
106.074145481294
 20
-134.2126518761691
 30
0.0
 10
106.074145481294
 20
-134.1196342980673
 30
0.0
 10
106.074145481294
 20
-133.9801079309147
 30
0.0
 10
105.9745822217702
 20
-133.8278347104666
 30
0.0
 10
105.7420382765159
 20
-133.8278347104666
 30
0.0
 10
105.4860676819618
 20
-133.8278347104666
 30
0.0
 10
105.4161322436112
 20
-134.0076686947967
 30
0.0
 10
105.4161322436112
 20
-134.1282470367804
 30
0.0
 10
105.4161322436112
 20
-134.1599419152447
 30
0.0
 10
105.4161322436112
 20
-134.3015353396885
 30
0.0
 10
105.5453233243081
 20
-134.390418803208
 30
0.0
 10
105.5453233243081
 20
-134.390418803208
 30
0.0
 10
105.5263752991392
 20
-134.5661186729557
 30
0.0
 10
105.5263752991392
 20
-134.5661186729557
 30
0.0
 10
105.5263752991392
 20
-134.5661186729557
 30
0.0
 10
104.6799153384134
 20
-134.445540330972
 30
0.0
 10
104.6799153384134
 20
-134.445540330972
 30
0.0
 10
104.6799153384134
 20
-134.445540330972
 30
0.0
 10
104.6799153384134
 20
-133.6669487513055
 30
0.0
 10
104.6799153384134
 20
-133.6669487513055
 30
0.0
 10
104.6799153384134
 20
-133.6669487513055
 30
0.0
 10
104.87456323333
 20
-133.6669487513055
 30
0.0
 10
104.87456323333
 20
-133.6669487513055
 30
0.0
 10
104.87456323333
 20
-133.6669487513055
 30
0.0
 10
104.87456323333
 20
-134.2825873145196
 30
0.0
 10
104.87456323333
 20
-134.2825873145196
 30
0.0
 10
104.87456323333
 20
-134.2825873145196
 30
0.0
 10
105.2976209589187
 20
-134.3480441287394
 30
0.0
 10
105.2976209589187
 20
-134.3480441287394
 30
0.0
 10
105.2638590231632
 20
-134.2867214291019
 30
0.0
 10
105.2235514059858
 20
-134.2043836470045
 30
0.0
 10
105.2235514059858
 20
-134.0858723623119
 30
0.0
 10
105.2235514059858
 20
-133.831968825049
 30
0.0
 10
105.4099310717378
 20
-133.5949462556638
 30
0.0
 10
105.723090251347
 20
-133.5949462556638
 30
0.0
 10
106.0403835455385
 20
-133.5949462556638
 30
0.0
 10
106.274994548084
 20
-133.8192219717535
 30
0.0
 10
106.274994548084
 20
-134.1217013553585
 30
0.0
  0
HATCH
  5
141
330
132
100
AcDbEntity
  8
_U+30EC_U+30A4_U+30E4_U+30FC 1
 62
     7
420
 16777215
100
AcDbHatch
 10
0.0
 20
0.0
 30
0.0
210
0.0
220
0.0
230
1.0
  2
SOLID
 70
     1
 71
     0
 91
        1
 92
        1
 93
        1
 72
     4
 94
        3
 73
     0
 74
     1
 95
       53
 96
       49
 40
0.0
 40
0.0
 40
0.0
 40
0.0
 40
1.0
 40
1.0
 40
1.0
 40
2.0
 40
2.0
 40
2.0
 40
3.0
 40
3.0
 40
3.0
 40
4.0
 40
4.0
 40
4.0
 40
5.0
 40
5.0
 40
5.0
 40
6.0
 40
6.0
 40
6.0
 40
7.0
 40
7.0
 40
7.0
 40
8.0
 40
8.0
 40
8.0
 40
9.0
 40
9.0
 40
9.0
 40
10.0
 40
10.0
 40
10.0
 40
11.0
 40
11.0
 40
11.0
 40
12.0
 40
12.0
 40
12.0
 40
13.0
 40
13.0
 40
13.0
 40
14.0
 40
14.0
 40
14.0
 40
15.0
 40
15.0
 40
15.0
 40
16.0
 40
16.0
 40
16.0
 40
16.0
 10
106.274994548084
 20
-134.1217013553585
 10
106.274994548084
 20
-134.1999050228737
 10
106.2581135802063
 20
-134.3015353396885
 10
106.1947238232777
 20
-134.4031656565034
 10
106.0848252772982
 20
-134.5764539594115
 10
105.9535671393102
 20
-134.59781355142
 10
105.8457356506219
 20
-134.6167615765889
 10
105.8457356506219
 20
-134.6167615765889
 10
105.8457356506219
 20
-134.3945529177903
 10
105.8457356506219
 20
-134.3945529177903
 10
106.0445176601208
 20
-134.3397758995748
 10
106.074145481294
 20
-134.2126518761691
 10
106.074145481294
 20
-134.1196342980673
 10
106.074145481294
 20
-133.9801079309147
 10
105.9745822217702
 20
-133.8278347104666
 10
105.7420382765159
 20
-133.8278347104666
 10
105.4860676819618
 20
-133.8278347104666
 10
105.4161322436112
 20
-134.0076686947967
 10
105.4161322436112
 20
-134.1282470367804
 10
105.4161322436112
 20
-134.1599419152447
 10
105.4161322436112
 20
-134.3015353396885
 10
105.5453233243081
 20
-134.390418803208
 10
105.5453233243081
 20
-134.390418803208
 10
105.5263752991392
 20
-134.5661186729557
 10
105.5263752991392
 20
-134.5661186729557
 10
105.5263752991392
 20
-134.5661186729557
 10
104.6799153384134
 20
-134.445540330972
 10
104.6799153384134
 20
-134.445540330972
 10
104.6799153384134
 20
-134.445540330972
 10
104.6799153384134
 20
-133.6669487513055
 10
104.6799153384134
 20
-133.6669487513055
 10
104.6799153384134
 20
-133.6669487513055
 10
104.87456323333
 20
-133.6669487513055
 10
104.87456323333
 20
-133.6669487513055
 10
104.87456323333
 20
-133.6669487513055
 10
104.87456323333
 20
-134.2825873145196
 10
104.87456323333
 20
-134.2825873145196
 10
104.87456323333
 20
-134.2825873145196
 10
105.2976209589187
 20
-134.3480441287394
 10
105.2976209589187
 20
-134.3480441287394
 10
105.2638590231632
 20
-134.2867214291019
 10
105.2235514059858
 20
-134.2043836470045
 10
105.2235514059858
 20
-134.0858723623119
 10
105.2235514059858
 20
-133.831968825049
 10
105.4099310717378
 20
-133.5949462556638
 10
105.723090251347
 20
-133.5949462556638
 10
106.0403835455385
 20
-133.5949462556638
 10
106.274994548084
 20
-133.8192219717535
 10
106.274994548084
 20
-134.1217013553585
 97
        0
 97
        0
 75
     2
 76
     1
 98
        0
  0
ENDBLK
  5
135
330
132
100
AcDbEntity
  8
0
100
AcDbBlockEnd
  0
BLOCK
  5
154
330
152
100
AcDbEntity
  8
0
100
AcDbBlockBegin
  2
block 9
 70
     0
 10
0.0
 20
0.0
 30
0.0
  3
block 9
  1

  0
SPLINE
  5
156
330
152
100
AcDbEntity
  8
_U+30EC_U+30A4_U+30E4_U+30FC 1
370
     0
100
AcDbSpline
210
0.0
220
0.0
230
1.0
 70
    11
 71
     3
 72
    29
 73
    25
 74
     0
 42
0.0000000001
 43
0.0000000001
 12
1.0
 22
0.0
 32
0.0
 13
1.0
 23
0.0
 33
0.0
 40
0.0
 40
0.0
 40
0.0
 40
0.0
 40
1.0
 40
1.0
 40
1.0
 40
2.0
 40
2.0
 40
2.0
 40
3.0
 40
3.0
 40
3.0
 40
4.0
 40
4.0
 40
4.0
 40
5.0
 40
5.0
 40
5.0
 40
6.0
 40
6.0
 40
6.0
 40
7.0
 40
7.0
 40
7.0
 40
8.0
 40
8.0
 40
8.0
 40
8.0
 10
83.70376245737268
 20
-115.1240668114968
 30
0.0
 10
83.59558645913583
 20
-115.333528617
 30
0.0
 10
83.42229815622777
 20
-115.3526488969431
 30
0.0
 10
83.30585392882632
 20
-115.3526488969431
 30
0.0
 10
83.14496796966515
 20
-115.3526488969431
 30
0.0
 10
83.00337454522138
 20
-115.3061401078922
 30
0.0
 10
82.90828990982848
 20
-115.1240668114968
 30
0.0
 10
82.80459253572246
 20
-114.9294189165801
 30
0.0
 10
82.78530000100507
 20
-114.6925686019692
 30
0.0
 10
82.78530000100507
 20
-114.5296155855169
 30
0.0
 10
82.78530000100507
 20
-114.3857828490077
 30
0.0
 10
82.80252547843132
 20
-114.1341186238102
 30
0.0
 10
82.90828990982848
 20
-113.935164359537
 30
0.0
 10
83.0161213985168
 20
-113.7320759806816
 30
0.0
 10
83.17700735767798
 20
-113.7088215861561
 30
0.0
 10
83.30585392882632
 20
-113.7088215861561
 30
0.0
 10
83.46467283069633
 20
-113.7088215861561
 30
0.0
 10
83.60833331243126
 20
-113.7532633179159
 30
0.0
 10
83.70376245737268
 20
-113.935164359537
 30
0.0
 10
83.80298120734787
 20
-114.1277451971625
 30
0.0
 10
83.82640785664756
 20
-114.3561550278346
 30
0.0
 10
83.82640785664756
 20
-114.5296155855169
 30
0.0
 10
83.82640785664756
 20
-114.7010090859081
 30
0.0
 10
83.80504826463903
 20
-114.9316582286456
 30
0.0
 10
83.70376245737268
 20
-115.1240668114968
 30
0.0
  0
SPLINE
  5
157
330
152
100
AcDbEntity
  8
_U+30EC_U+30A4_U+30E4_U+30FC 1
370
     0
100
AcDbSpline
210
0.0
220
0.0
230
1.0
 70
    11
 71
     3
 72
    17
 73
    13
 74
     0
 42
0.0000000001
 43
0.0000000001
 12
1.0
 22
0.0
 32
0.0
 13
1.0
 23
0.0
 33
0.0
 40
0.0
 40
0.0
 40
0.0
 40
0.0
 40
1.0
 40
1.0
 40
1.0
 40
2.0
 40
2.0
 40
2.0
 40
3.0
 40
3.0
 40
3.0
 40
4.0
 40
4.0
 40
4.0
 40
4.0
 10
83.30585392882632
 20
-113.9014024237816
 30
0.0
 10
83.05608450614571
 20
-113.9014024237816
 30
0.0
 10
83.00957571709483
 20
-114.1849337822177
 30
0.0
 10
83.00957571709483
 20
-114.5296155855169
 30
0.0
 10
83.00957571709483
 20
-114.8491481917738
 30
0.0
 10
83.04574921968995
 20
-115.1580010020265
 30
0.0
 10
83.30585392882632
 20
-115.1580010020265
 30
0.0
 10
83.55355629421578
 20
-115.1580010020265
 30
0.0
 10
83.6021321405578
 20
-114.8765367008816
 30
0.0
 10
83.6021321405578
 20
-114.5296155855169
 30
0.0
 10
83.6021321405578
 20
-114.2102552340342
 30
0.0
 10
83.56389158067154
 20
-113.9014024237816
 30
0.0
 10
83.30585392882632
 20
-113.9014024237816
 30
0.0
  0
HATCH
  5
158
330
152
100
AcDbEntity
  8
_U+30EC_U+30A4_U+30E4_U+30FC 1
 62
     7
420
 16777215
100
AcDbHatch
 10
0.0
 20
0.0
 30
0.0
210
0.0
220
0.0
230
1.0
  2
SOLID
 70
     1
 71
     0
 91
        2
 92
        1
 93
        1
 72
     4
 94
        3
 73
     0
 74
     1
 95
       29
 96
       25
 40
0.0
 40
0.0
 40
0.0
 40
0.0
 40
1.0
 40
1.0
 40
1.0
 40
2.0
 40
2.0
 40
2.0
 40
3.0
 40
3.0
 40
3.0
 40
4.0
 40
4.0
 40
4.0
 40
5.0
 40
5.0
 40
5.0
 40
6.0
 40
6.0
 40
6.0
 40
7.0
 40
7.0
 40
7.0
 40
8.0
 40
8.0
 40
8.0
 40
8.0
 10
83.70376245737268
 20
-115.1240668114968
 10
83.59558645913583
 20
-115.333528617
 10
83.42229815622777
 20
-115.3526488969431
 10
83.30585392882632
 20
-115.3526488969431
 10
83.14496796966515
 20
-115.3526488969431
 10
83.00337454522138
 20
-115.3061401078922
 10
82.90828990982848
 20
-115.1240668114968
 10
82.80459253572246
 20
-114.9294189165801
 10
82.78530000100507
 20
-114.6925686019692
 10
82.78530000100507
 20
-114.5296155855169
 10
82.78530000100507
 20
-114.3857828490077
 10
82.80252547843132
 20
-114.1341186238102
 10
82.90828990982848
 20
-113.935164359537
 10
83.0161213985168
 20
-113.7320759806816
 10
83.17700735767798
 20
-113.7088215861561
 10
83.30585392882632
 20
-113.7088215861561
 10
83.46467283069633
 20
-113.7088215861561
 10
83.60833331243126
 20
-113.7532633179159
 10
83.70376245737268
 20
-113.935164359537
 10
83.80298120734787
 20
-114.1277451971625
 10
83.82640785664756
 20
-114.3561550278346
 10
83.82640785664756
 20
-114.5296155855169
 10
83.82640785664756
 20
-114.7010090859081
 10
83.80504826463903
 20
-114.9316582286456
 10
83.70376245737268
 20
-115.1240668114968
 97
        0
 97
        0
 92
        1
 93
        1
 72
     4
 94
        3
 73
     0
 74
     1
 95
       17
 96
       13
 40
0.0
 40
0.0
 40
0.0
 40
0.0
 40
1.0
 40
1.0
 40
1.0
 40
2.0
 40
2.0
 40
2.0
 40
3.0
 40
3.0
 40
3.0
 40
4.0
 40
4.0
 40
4.0
 40
4.0
 10
83.30585392882632
 20
-113.9014024237816
 10
83.05608450614571
 20
-113.9014024237816
 10
83.00957571709483
 20
-114.1849337822177
 10
83.00957571709483
 20
-114.5296155855169
 10
83.00957571709483
 20
-114.8491481917738
 10
83.04574921968995
 20
-115.1580010020265
 10
83.30585392882632
 20
-115.1580010020265
 10
83.55355629421578
 20
-115.1580010020265
 10
83.6021321405578
 20
-114.8765367008816
 10
83.6021321405578
 20
-114.5296155855169
 10
83.6021321405578
 20
-114.2102552340342
 10
83.56389158067154
 20
-113.9014024237816
 10
83.30585392882632
 20
-113.9014024237816
 97
        0
 97
        0
 75
     2
 76
     1
 98
        0
  0
POLYLINE
  5
159
330
152
100
AcDbEntity
  8
_U+30EC_U+30A4_U+30E4_U+30FC 1
370
     0
100
AcDb2dPolyline
 66
     1
 10
0.0
 20
0.0
 30
0.0
  0
VERTEX
  5
15A
330
159
100
AcDbEntity
  8
_U+30EC_U+30A4_U+30E4_U+30FC 1
370
     0
100
AcDbVertex
100
AcDb2dVertex
 10
84.04275985312125
 20
-115.3018337385357
 30
0.0
  0
VERTEX
  5
15B
330
159
100
AcDbEntity
  8
_U+30EC_U+30A4_U+30E4_U+30FC 1
370
     0
100
AcDbVertex
100
AcDb2dVertex
 10
84.04275985312125
 20
-115.0501695133382
 30
0.0
  0
VERTEX
  5
15C
330
159
100
AcDbEntity
  8
_U+30EC_U+30A4_U+30E4_U+30FC 1
370
     0
100
AcDbVertex
100
AcDb2dVertex
 10
84.29459633309303
 20
-115.0501695133382
 30
0.0
  0
VERTEX
  5
15D
330
159
100
AcDbEntity
  8
_U+30EC_U+30A4_U+30E4_U+30FC 1
370
     0
100
AcDbVertex
100
AcDb2dVertex
 10
84.29459633309303
 20
-115.3018337385357
 30
0.0
  0
VERTEX
  5
15E
330
159
100
AcDbEntity
  8
_U+30EC_U+30A4_U+30E4_U+30FC 1
370
     0
100
AcDbVertex
100
AcDb2dVertex
 10
84.04275985312125
 20
-115.3018337385357
 30
0.0
  0
SEQEND
  5
15F
330
159
100
AcDbEntity
  8
_U+30EC_U+30A4_U+30E4_U+30FC 1
370
     0
  0
HATCH
  5
160
330
152
100
AcDbEntity
  8
_U+30EC_U+30A4_U+30E4_U+30FC 1
 62
     7
420
 16777215
100
AcDbHatch
 10
0.0
 20
0.0
 30
0.0
210
0.0
220
0.0
230
1.0
  2
SOLID
 70
     1
 71
     0
 91
        1
 92
        1
 93
        4
 72
     1
 10
84.04275985312125
 20
-115.3018337385357
 11
84.04275985312125
 21
-115.0501695133382
 72
     1
 10
84.04275985312125
 20
-115.0501695133382
 11
84.29459633309303
 21
-115.0501695133382
 72
     1
 10
84.29459633309303
 20
-115.0501695133382
 11
84.29459633309303
 21
-115.3018337385357
 72
     1
 10
84.29459633309303
 20
-115.3018337385357
 11
84.04275985312125
 21
-115.3018337385357
 97
        0
 75
     2
 76
     1
 98
        0
  0
SPLINE
  5
161
330
152
100
AcDbEntity
  8
_U+30EC_U+30A4_U+30E4_U+30FC 1
370
     0
100
AcDbSpline
210
0.0
220
0.0
230
1.0
 70
    11
 71
     3
 72
    29
 73
    25
 74
     0
 42
0.0000000001
 43
0.0000000001
 12
1.0
 22
0.0
 32
0.0
 13
1.0
 23
0.0
 33
0.0
 40
0.0
 40
0.0
 40
0.0
 40
0.0
 40
1.0
 40
1.0
 40
1.0
 40
2.0
 40
2.0
 40
2.0
 40
3.0
 40
3.0
 40
3.0
 40
4.0
 40
4.0
 40
4.0
 40
5.0
 40
5.0
 40
5.0
 40
6.0
 40
6.0
 40
6.0
 40
7.0
 40
7.0
 40
7.0
 40
8.0
 40
8.0
 40
8.0
 40
8.0
 10
85.03081323829092
 20
-115.3526488969431
 30
0.0
 10
84.76416284773258
 20
-115.3526488969431
 30
0.0
 10
84.51060382001819
 20
-115.2150173323074
 30
0.0
 10
84.51060382001819
 20
-114.8660291596516
 30
0.0
 10
84.51060382001819
 20
-114.6100585650975
 30
0.0
 10
84.65219724446196
 20
-114.5148016749303
 30
0.0
 10
84.75796167585912
 20
-114.4534789752929
 30
0.0
 10
84.63324921929308
 20
-114.3942233329466
 30
0.0
 10
84.55711260906907
 20
-114.2800184176106
 30
0.0
 10
84.55711260906907
 20
-114.1193047132237
 30
0.0
 10
84.55711260906907
 20
-113.8442138387264
 30
0.0
 10
84.75589461856798
 20
-113.7088215861561
 30
0.0
 10
85.03081323829092
 20
-113.7088215861561
 30
0.0
 10
85.31434459672697
 20
-113.7088215861561
 30
0.0
 10
85.50485837706128
 20
-113.8526543226653
 30
0.0
 10
85.50485837706128
 20
-114.1193047132237
 30
0.0
 10
85.50485837706128
 20
-114.2800184176106
 30
0.0
 10
85.42631019999759
 20
-114.3942233329466
 30
0.0
 10
85.30159774343154
 20
-114.4534789752929
 30
0.0
 10
85.390481206951
 20
-114.5042941337003
 30
0.0
 10
85.54930010882101
 20
-114.5995510238675
 30
0.0
 10
85.54930010882101
 20
-114.8618950450692
 30
0.0
 10
85.54930010882101
 20
-115.2362046695416
 30
0.0
 10
85.26990286496725
 20
-115.3526488969431
 30
0.0
 10
85.03081323829092
 20
-115.3526488969431
 30
0.0
  0
SPLINE
  5
162
330
152
100
AcDbEntity
  8
_U+30EC_U+30A4_U+30E4_U+30FC 1
370
     0
100
AcDbSpline
210
0.0
220
0.0
230
1.0
 70
    11
 71
     3
 72
    17
 73
    13
 74
     0
 42
0.0000000001
 43
0.0000000001
 12
1.0
 22
0.0
 32
0.0
 13
1.0
 23
0.0
 33
0.0
 40
0.0
 40
0.0
 40
0.0
 40
0.0
 40
1.0
 40
1.0
 40
1.0
 40
2.0
 40
2.0
 40
2.0
 40
3.0
 40
3.0
 40
3.0
 40
4.0
 40
4.0
 40
4.0
 40
4.0
 10
85.03081323829092
 20
-114.5614827187555
 30
0.0
 10
84.88715275655599
 20
-114.5614827187555
 30
0.0
 10
84.73453502655943
 20
-114.6481268702095
 30
0.0
 10
84.73453502655943
 20
-114.851215249065
 30
0.0
 10
84.73453502655943
 20
-115.0563706852116
 30
0.0
 10
84.86165904996514
 20
-115.1580010020265
 30
0.0
 10
85.03081323829092
 20
-115.1580010020265
 30
0.0
 10
85.2168483944944
 20
-115.1580010020265
 30
0.0
 10
85.3270914500224
 20
-115.0353556027516
 30
0.0
 10
85.3270914500224
 20
-114.8575886757127
 30
0.0
 10
85.3270914500224
 20
-114.6353800169141
 30
0.0
 10
85.16413843357007
 20
-114.5614827187555
 30
0.0
 10
85.03081323829092
 20
-114.5614827187555
 30
0.0
  0
SPLINE
  5
163
330
152
100
AcDbEntity
  8
_U+30EC_U+30A4_U+30E4_U+30FC 1
370
     0
100
AcDbSpline
210
0.0
220
0.0
230
1.0
 70
    11
 71
     3
 72
    17
 73
    13
 74
     0
 42
0.0000000001
 43
0.0000000001
 12
1.0
 22
0.0
 32
0.0
 13
1.0
 23
0.0
 33
0.0
 40
0.0
 40
0.0
 40
0.0
 40
0.0
 40
1.0
 40
1.0
 40
1.0
 40
2.0
 40
2.0
 40
2.0
 40
3.0
 40
3.0
 40
3.0
 40
4.0
 40
4.0
 40
4.0
 40
4.0
 10
85.03081323829092
 20
-113.9014024237816
 30
0.0
 10
84.86579316454744
 20
-113.9014024237816
 30
0.0
 10
84.78138832515883
 20
-113.9964870591745
 30
0.0
 10
84.78138832515883
 20
-114.1318793117448
 30
0.0
 10
84.78138832515883
 20
-114.254696965794
 30
0.0
 10
84.85304631125202
 20
-114.3732082504866
 30
0.0
 10
85.03081323829092
 20
-114.3732082504866
 30
0.0
 10
85.2085801653298
 20
-114.3732082504866
 30
0.0
 10
85.28058266097152
 20
-114.254696965794
 30
0.0
 10
85.28058266097152
 20
-114.1318793117448
 30
0.0
 10
85.28058266097152
 20
-113.9964870591745
 30
0.0
 10
85.19376625474322
 20
-113.9014024237816
 30
0.0
 10
85.03081323829092
 20
-113.9014024237816
 30
0.0
  0
HATCH
  5
164
330
152
100
AcDbEntity
  8
_U+30EC_U+30A4_U+30E4_U+30FC 1
 62
     7
420
 16777215
100
AcDbHatch
 10
0.0
 20
0.0
 30
0.0
210
0.0
220
0.0
230
1.0
  2
SOLID
 70
     1
 71
     0
 91
        3
 92
        1
 93
        1
 72
     4
 94
        3
 73
     0
 74
     1
 95
       29
 96
       25
 40
0.0
 40
0.0
 40
0.0
 40
0.0
 40
1.0
 40
1.0
 40
1.0
 40
2.0
 40
2.0
 40
2.0
 40
3.0
 40
3.0
 40
3.0
 40
4.0
 40
4.0
 40
4.0
 40
5.0
 40
5.0
 40
5.0
 40
6.0
 40
6.0
 40
6.0
 40
7.0
 40
7.0
 40
7.0
 40
8.0
 40
8.0
 40
8.0
 40
8.0
 10
85.03081323829092
 20
-115.3526488969431
 10
84.76416284773258
 20
-115.3526488969431
 10
84.51060382001819
 20
-115.2150173323074
 10
84.51060382001819
 20
-114.8660291596516
 10
84.51060382001819
 20
-114.6100585650975
 10
84.65219724446196
 20
-114.5148016749303
 10
84.75796167585912
 20
-114.4534789752929
 10
84.63324921929308
 20
-114.3942233329466
 10
84.55711260906907
 20
-114.2800184176106
 10
84.55711260906907
 20
-114.1193047132237
 10
84.55711260906907
 20
-113.8442138387264
 10
84.75589461856798
 20
-113.7088215861561
 10
85.03081323829092
 20
-113.7088215861561
 10
85.31434459672697
 20
-113.7088215861561
 10
85.50485837706128
 20
-113.8526543226653
 10
85.50485837706128
 20
-114.1193047132237
 10
85.50485837706128
 20
-114.2800184176106
 10
85.42631019999759
 20
-114.3942233329466
 10
85.30159774343154
 20
-114.4534789752929
 10
85.390481206951
 20
-114.5042941337003
 10
85.54930010882101
 20
-114.5995510238675
 10
85.54930010882101
 20
-114.8618950450692
 10
85.54930010882101
 20
-115.2362046695416
 10
85.26990286496725
 20
-115.3526488969431
 10
85.03081323829092
 20
-115.3526488969431
 97
        0
 97
        0
 92
        1
 93
        1
 72
     4
 94
        3
 73
     0
 74
     1
 95
       17
 96
       13
 40
0.0
 40
0.0
 40
0.0
 40
0.0
 40
1.0
 40
1.0
 40
1.0
 40
2.0
 40
2.0
 40
2.0
 40
3.0
 40
3.0
 40
3.0
 40
4.0
 40
4.0
 40
4.0
 40
4.0
 10
85.03081323829092
 20
-114.5614827187555
 10
84.88715275655599
 20
-114.5614827187555
 10
84.73453502655943
 20
-114.6481268702095
 10
84.73453502655943
 20
-114.851215249065
 10
84.73453502655943
 20
-115.0563706852116
 10
84.86165904996514
 20
-115.1580010020265
 10
85.03081323829092
 20
-115.1580010020265
 10
85.2168483944944
 20
-115.1580010020265
 10
85.3270914500224
 20
-115.0353556027516
 10
85.3270914500224
 20
-114.8575886757127
 10
85.3270914500224
 20
-114.6353800169141
 10
85.16413843357007
 20
-114.5614827187555
 10
85.03081323829092
 20
-114.5614827187555
 97
        0
 97
        0
 92
        1
 93
        1
 72
     4
 94
        3
 73
     0
 74
     1
 95
       17
 96
       13
 40
0.0
 40
0.0
 40
0.0
 40
0.0
 40
1.0
 40
1.0
 40
1.0
 40
2.0
 40
2.0
 40
2.0
 40
3.0
 40
3.0
 40
3.0
 40
4.0
 40
4.0
 40
4.0
 40
4.0
 10
85.03081323829092
 20
-113.9014024237816
 10
84.86579316454744
 20
-113.9014024237816
 10
84.78138832515883
 20
-113.9964870591745
 10
84.78138832515883
 20
-114.1318793117448
 10
84.78138832515883
 20
-114.254696965794
 10
84.85304631125202
 20
-114.3732082504866
 10
85.03081323829092
 20
-114.3732082504866
 10
85.2085801653298
 20
-114.3732082504866
 10
85.28058266097152
 20
-114.254696965794
 10
85.28058266097152
 20
-114.1318793117448
 10
85.28058266097152
 20
-113.9964870591745
 10
85.19376625474322
 20
-113.9014024237816
 10
85.03081323829092
 20
-113.9014024237816
 97
        0
 97
        0
 75
     2
 76
     1
 98
        0
  0
ENDBLK
  5
155
330
152
100
AcDbEntity
  8
0
100
AcDbBlockEnd
  0
BLOCK
  5
177
330
175
100
AcDbEntity
  8
0
100
AcDbBlockBegin
  2
block 10
 70
     0
 10
0.0
 20
0.0
 30
0.0
  3
block 10
  1

  0
SPLINE
  5
179
330
175
100
AcDbEntity
  8
_U+30EC_U+30A4_U+30E4_U+30FC 1
370
     0
100
AcDbSpline
210
0.0
220
0.0
230
1.0
 70
    11
 71
     3
 72
    44
 73
    40
 74
     0
 42
0.0000000001
 43
0.0000000001
 12
1.0
 22
0.0
 32
0.0
 13
1.0
 23
0.0
 33
0.0
 40
0.0
 40
0.0
 40
0.0
 40
0.0
 40
1.0
 40
1.0
 40
1.0
 40
2.0
 40
2.0
 40
2.0
 40
3.0
 40
3.0
 40
3.0
 40
4.0
 40
4.0
 40
4.0
 40
5.0
 40
5.0
 40
5.0
 40
6.0
 40
6.0
 40
6.0
 40
7.0
 40
7.0
 40
7.0
 40
8.0
 40
8.0
 40
8.0
 40
9.0
 40
9.0
 40
9.0
 40
10.0
 40
10.0
 40
10.0
 40
11.0
 40
11.0
 40
11.0
 40
12.0
 40
12.0
 40
12.0
 40
13.0
 40
13.0
 40
13.0
 40
13.0
 10
88.45110403604696
 20
-131.3866400496186
 30
0.0
 10
88.42767738674725
 20
-131.3421983178589
 30
0.0
 10
88.40666230428722
 20
-131.289143847386
 30
0.0
 10
88.40442299222181
 20
-131.0586669594229
 30
0.0
 10
88.40028887763951
 20
-130.8154432181642
 30
0.0
 10
88.34103323529322
 20
-130.7455077798136
 30
0.0
 10
88.16326630825432
 20
-130.7455077798136
 30
0.0
 10
88.16326630825432
 20
-130.7455077798136
 30
0.0
 10
87.75502249325223
 20
-130.7455077798136
 30
0.0
 10
87.75502249325223
 20
-130.7455077798136
 30
0.0
 10
87.75502249325223
 20
-130.7455077798136
 30
0.0
 10
87.75502249325223
 20
-131.3866400496186
 30
0.0
 10
87.75502249325223
 20
-131.3866400496186
 30
0.0
 10
87.75502249325223
 20
-131.3866400496186
 30
0.0
 10
87.52023923593245
 20
-131.3866400496186
 30
0.0
 10
87.52023923593245
 20
-131.3866400496186
 30
0.0
 10
87.52023923593245
 20
-131.3866400496186
 30
0.0
 10
87.52023923593245
 20
-129.8422037435811
 30
0.0
 10
87.52023923593245
 20
-129.8422037435811
 30
0.0
 10
87.52023923593245
 20
-129.8422037435811
 30
0.0
 10
88.19513344149289
 20
-129.8422037435811
 30
0.0
 10
88.19513344149289
 20
-129.8422037435811
 30
0.0
 10
88.50174693968012
 20
-129.8422037435811
 30
0.0
 10
88.66883407071474
 20
-130.0137694987466
 30
0.0
 10
88.66883407071474
 20
-130.2697400933006
 30
0.0
 10
88.66883407071474
 20
-130.3203829969338
 30
0.0
 10
88.66039358677588
 20
-130.4030652885798
 30
0.0
 10
88.61595185501615
 20
-130.4833360133861
 30
0.0
 10
88.55686846744412
 20
-130.5870333874921
 30
0.0
 10
88.4912393984501
 20
-130.605981412661
 30
0.0
 10
88.42991669881266
 20
-130.6228623805387
 30
0.0
 10
88.56737600867413
 20
-130.6652370550073
 30
0.0
 10
88.63507213495929
 20
-130.7138129013493
 30
0.0
 10
88.63937850431586
 20
-131.0290391382497
 30
0.0
 10
88.64351261889816
 20
-131.2998236433903
 30
0.0
 10
88.67951386671902
 20
-131.3318630314031
 30
0.0
 10
88.74720999300418
 20
-131.3866400496186
 30
0.0
 10
88.74720999300418
 20
-131.3866400496186
 30
0.0
 10
88.45110403604696
 20
-131.3866400496186
 30
0.0
 10
88.45110403604696
 20
-131.3866400496186
 30
0.0
  0
SPLINE
  5
17A
330
175
100
AcDbEntity
  8
_U+30EC_U+30A4_U+30E4_U+30FC 1
370
     0
100
AcDbSpline
210
0.0
220
0.0
230
1.0
 70
    11
 71
     3
 72
    20
 73
    16
 74
     0
 42
0.0000000001
 43
0.0000000001
 12
1.0
 22
0.0
 32
0.0
 13
1.0
 23
0.0
 33
0.0
 40
0.0
 40
0.0
 40
0.0
 40
0.0
 40
1.0
 40
1.0
 40
1.0
 40
2.0
 40
2.0
 40
2.0
 40
3.0
 40
3.0
 40
3.0
 40
4.0
 40
4.0
 40
4.0
 40
5.0
 40
5.0
 40
5.0
 40
5.0
 10
88.19926755607518
 20
-130.0537326063755
 30
0.0
 10
88.19926755607518
 20
-130.0537326063755
 30
0.0
 10
87.75502249325223
 20
-130.0537326063755
 30
0.0
 10
87.75502249325223
 20
-130.0537326063755
 30
0.0
 10
87.75502249325223
 20
-130.0537326063755
 30
0.0
 10
87.75502249325223
 20
-130.5339789170193
 30
0.0
 10
87.75502249325223
 20
-130.5339789170193
 30
0.0
 10
87.75502249325223
 20
-130.5339789170193
 30
0.0
 10
88.19720049878404
 20
-130.5339789170193
 30
0.0
 10
88.19720049878404
 20
-130.5339789170193
 30
0.0
 10
88.29659150353349
 20
-130.5339789170193
 30
0.0
 10
88.43198375610382
 20
-130.4581868163438
 30
0.0
 10
88.43198375610382
 20
-130.2866210611784
 30
0.0
 10
88.43198375610382
 20
-130.2080728841146
 30
0.0
 10
88.3980495655741
 20
-130.0537326063755
 30
0.0
 10
88.19926755607518
 20
-130.0537326063755
 30
0.0
  0
HATCH
  5
17B
330
175
100
AcDbEntity
  8
_U+30EC_U+30A4_U+30E4_U+30FC 1
 62
   179
420
  2234388
100
AcDbHatch
 10
0.0
 20
0.0
 30
0.0
210
0.0
220
0.0
230
1.0
  2
SOLID
 70
     1
 71
     0
 91
        2
 92
        1
 93
        1
 72
     4
 94
        3
 73
     0
 74
     1
 95
       44
 96
       40
 40
0.0
 40
0.0
 40
0.0
 40
0.0
 40
1.0
 40
1.0
 40
1.0
 40
2.0
 40
2.0
 40
2.0
 40
3.0
 40
3.0
 40
3.0
 40
4.0
 40
4.0
 40
4.0
 40
5.0
 40
5.0
 40
5.0
 40
6.0
 40
6.0
 40
6.0
 40
7.0
 40
7.0
 40
7.0
 40
8.0
 40
8.0
 40
8.0
 40
9.0
 40
9.0
 40
9.0
 40
10.0
 40
10.0
 40
10.0
 40
11.0
 40
11.0
 40
11.0
 40
12.0
 40
12.0
 40
12.0
 40
13.0
 40
13.0
 40
13.0
 40
13.0
 10
88.45110403604696
 20
-131.3866400496186
 10
88.42767738674725
 20
-131.3421983178589
 10
88.40666230428722
 20
-131.289143847386
 10
88.40442299222181
 20
-131.0586669594229
 10
88.40028887763951
 20
-130.8154432181642
 10
88.34103323529322
 20
-130.7455077798136
 10
88.16326630825432
 20
-130.7455077798136
 10
88.16326630825432
 20
-130.7455077798136
 10
87.75502249325223
 20
-130.7455077798136
 10
87.75502249325223
 20
-130.7455077798136
 10
87.75502249325223
 20
-130.7455077798136
 10
87.75502249325223
 20
-131.3866400496186
 10
87.75502249325223
 20
-131.3866400496186
 10
87.75502249325223
 20
-131.3866400496186
 10
87.52023923593245
 20
-131.3866400496186
 10
87.52023923593245
 20
-131.3866400496186
 10
87.52023923593245
 20
-131.3866400496186
 10
87.52023923593245
 20
-129.8422037435811
 10
87.52023923593245
 20
-129.8422037435811
 10
87.52023923593245
 20
-129.8422037435811
 10
88.19513344149289
 20
-129.8422037435811
 10
88.19513344149289
 20
-129.8422037435811
 10
88.50174693968012
 20
-129.8422037435811
 10
88.66883407071474
 20
-130.0137694987466
 10
88.66883407071474
 20
-130.2697400933006
 10
88.66883407071474
 20
-130.3203829969338
 10
88.66039358677588
 20
-130.4030652885798
 10
88.61595185501615
 20
-130.4833360133861
 10
88.55686846744412
 20
-130.5870333874921
 10
88.4912393984501
 20
-130.605981412661
 10
88.42991669881266
 20
-130.6228623805387
 10
88.56737600867413
 20
-130.6652370550073
 10
88.63507213495929
 20
-130.7138129013493
 10
88.63937850431586
 20
-131.0290391382497
 10
88.64351261889816
 20
-131.2998236433903
 10
88.67951386671902
 20
-131.3318630314031
 10
88.74720999300418
 20
-131.3866400496186
 10
88.74720999300418
 20
-131.3866400496186
 10
88.45110403604696
 20
-131.3866400496186
 10
88.45110403604696
 20
-131.3866400496186
 97
        0
 97
        0
 92
        1
 93
        1
 72
     4
 94
        3
 73
     0
 74
     1
 95
       20
 96
       16
 40
0.0
 40
0.0
 40
0.0
 40
0.0
 40
1.0
 40
1.0
 40
1.0
 40
2.0
 40
2.0
 40
2.0
 40
3.0
 40
3.0
 40
3.0
 40
4.0
 40
4.0
 40
4.0
 40
5.0
 40
5.0
 40
5.0
 40
5.0
 10
88.19926755607518
 20
-130.0537326063755
 10
88.19926755607518
 20
-130.0537326063755
 10
87.75502249325223
 20
-130.0537326063755
 10
87.75502249325223
 20
-130.0537326063755
 10
87.75502249325223
 20
-130.0537326063755
 10
87.75502249325223
 20
-130.5339789170193
 10
87.75502249325223
 20
-130.5339789170193
 10
87.75502249325223
 20
-130.5339789170193
 10
88.19720049878404
 20
-130.5339789170193
 10
88.19720049878404
 20
-130.5339789170193
 10
88.29659150353349
 20
-130.5339789170193
 10
88.43198375610382
 20
-130.4581868163438
 10
88.43198375610382
 20
-130.2866210611784
 10
88.43198375610382
 20
-130.2080728841146
 10
88.3980495655741
 20
-130.0537326063755
 10
88.19926755607518
 20
-130.0537326063755
 97
        0
 97
        0
 75
     2
 76
     1
 98
        0
  0
SPLINE
  5
17C
330
175
100
AcDbEntity
  8
_U+30EC_U+30A4_U+30E4_U+30FC 1
370
     0
100
AcDbSpline
210
0.0
220
0.0
230
1.0
 70
    11
 71
     3
 72
    26
 73
    22
 74
     0
 42
0.0000000001
 43
0.0000000001
 12
1.0
 22
0.0
 32
0.0
 13
1.0
 23
0.0
 33
0.0
 40
0.0
 40
0.0
 40
0.0
 40
0.0
 40
1.0
 40
1.0
 40
1.0
 40
2.0
 40
2.0
 40
2.0
 40
3.0
 40
3.0
 40
3.0
 40
4.0
 40
4.0
 40
4.0
 40
5.0
 40
5.0
 40
5.0
 40
6.0
 40
6.0
 40
6.0
 40
7.0
 40
7.0
 40
7.0
 40
7.0
 10
89.33821612349878
 20
-131.3866400496186
 30
0.0
 10
89.33821612349878
 20
-131.3866400496186
 30
0.0
 10
89.33821612349878
 20
-130.282486946596
 30
0.0
 10
89.33821612349878
 20
-130.282486946596
 30
0.0
 10
89.33821612349878
 20
-130.282486946596
 30
0.0
 10
89.00817597601186
 20
-130.282486946596
 30
0.0
 10
89.00817597601186
 20
-130.282486946596
 30
0.0
 10
89.00817597601186
 20
-130.282486946596
 30
0.0
 10
89.00817597601186
 20
-130.1343478407303
 30
0.0
 10
89.00817597601186
 20
-130.1343478407303
 30
0.0
 10
89.34028318078994
 20
-130.1195339301437
 30
0.0
 10
89.3867919698408
 20
-129.9565809136914
 30
0.0
 10
89.41641979101395
 20
-129.8422037435811
 30
0.0
 10
89.41641979101395
 20
-129.8422037435811
 30
0.0
 10
89.56249183958855
 20
-129.8422037435811
 30
0.0
 10
89.56249183958855
 20
-129.8422037435811
 30
0.0
 10
89.56249183958855
 20
-129.8422037435811
 30
0.0
 10
89.56249183958855
 20
-131.3866400496186
 30
0.0
 10
89.56249183958855
 20
-131.3866400496186
 30
0.0
 10
89.56249183958855
 20
-131.3866400496186
 30
0.0
 10
89.33821612349878
 20
-131.3866400496186
 30
0.0
 10
89.33821612349878
 20
-131.3866400496186
 30
0.0
  0
HATCH
  5
17D
330
175
100
AcDbEntity
  8
_U+30EC_U+30A4_U+30E4_U+30FC 1
 62
   179
420
  2234388
100
AcDbHatch
 10
0.0
 20
0.0
 30
0.0
210
0.0
220
0.0
230
1.0
  2
SOLID
 70
     1
 71
     0
 91
        1
 92
        1
 93
        1
 72
     4
 94
        3
 73
     0
 74
     1
 95
       26
 96
       22
 40
0.0
 40
0.0
 40
0.0
 40
0.0
 40
1.0
 40
1.0
 40
1.0
 40
2.0
 40
2.0
 40
2.0
 40
3.0
 40
3.0
 40
3.0
 40
4.0
 40
4.0
 40
4.0
 40
5.0
 40
5.0
 40
5.0
 40
6.0
 40
6.0
 40
6.0
 40
7.0
 40
7.0
 40
7.0
 40
7.0
 10
89.33821612349878
 20
-131.3866400496186
 10
89.33821612349878
 20
-131.3866400496186
 10
89.33821612349878
 20
-130.282486946596
 10
89.33821612349878
 20
-130.282486946596
 10
89.33821612349878
 20
-130.282486946596
 10
89.00817597601186
 20
-130.282486946596
 10
89.00817597601186
 20
-130.282486946596
 10
89.00817597601186
 20
-130.282486946596
 10
89.00817597601186
 20
-130.1343478407303
 10
89.00817597601186
 20
-130.1343478407303
 10
89.34028318078994
 20
-130.1195339301437
 10
89.3867919698408
 20
-129.9565809136914
 10
89.41641979101395
 20
-129.8422037435811
 10
89.41641979101395
 20
-129.8422037435811
 10
89.56249183958855
 20
-129.8422037435811
 10
89.56249183958855
 20
-129.8422037435811
 10
89.56249183958855
 20
-129.8422037435811
 10
89.56249183958855
 20
-131.3866400496186
 10
89.56249183958855
 20
-131.3866400496186
 10
89.56249183958855
 20
-131.3866400496186
 10
89.33821612349878
 20
-131.3866400496186
 10
89.33821612349878
 20
-131.3866400496186
 97
        0
 97
        0
 75
     2
 76
     1
 98
        0
  0
ENDBLK
  5
178
330
175
100
AcDbEntity
  8
0
100
AcDbBlockEnd
  0
ENDSEC
  0
SECTION
  2
ENTITIES
  0
POLYLINE
  5
41
330
1F
100
AcDbEntity
  8
_U+30EC_U+30A4_U+30E4_U+30FC 1
 62
     7
420
 16777215
370
    25
100
AcDb2dPolyline
 66
     1
 10
0.0
 20
0.0
 30
0.0
  0
VERTEX
  5
42
330
41
100
AcDbEntity
  8
_U+30EC_U+30A4_U+30E4_U+30FC 1
 62
     7
420
 16777215
370
    25
100
AcDbVertex
100
AcDb2dVertex
 10
80.32016017308422
 20
-119.8986185811365
 30
0.0
  0
VERTEX
  5
43
330
41
100
AcDbEntity
  8
_U+30EC_U+30A4_U+30E4_U+30FC 1
 62
     7
420
 16777215
370
    25
100
AcDbVertex
100
AcDb2dVertex
 10
80.32016017308422
 20
-133.8629741332012
 30
0.0
  0
SEQEND
  5
44
330
41
100
AcDbEntity
  8
_U+30EC_U+30A4_U+30E4_U+30FC 1
 62
     7
420
 16777215
370
    25
  0
POLYLINE
  5
45
330
1F
100
AcDbEntity
  8
_U+30EC_U+30A4_U+30E4_U+30FC 1
 62
     7
420
 16777215
370
    25
100
AcDb2dPolyline
 66
     1
 10
0.0
 20
0.0
 30
0.0
  0
VERTEX
  5
46
330
45
100
AcDbEntity
  8
_U+30EC_U+30A4_U+30E4_U+30FC 1
 62
     7
420
 16777215
370
    25
100
AcDbVertex
100
AcDb2dVertex
 10
83.8555225828896
 20
-137.3986894100948
 30
0.0
  0
VERTEX
  5
47
330
45
100
AcDbEntity
  8
_U+30EC_U+30A4_U+30E4_U+30FC 1
 62
     7
420
 16777215
370
    25
100
AcDbVertex
100
AcDb2dVertex
 10
102.8202583076285
 20
-137.3986894100948
 30
0.0
  0
SEQEND
  5
48
330
45
100
AcDbEntity
  8
_U+30EC_U+30A4_U+30E4_U+30FC 1
 62
     7
420
 16777215
370
    25
  0
POLYLINE
  5
49
330
1F
100
AcDbEntity
  8
_U+30EC_U+30A4_U+30E4_U+30FC 1
 62
     7
420
 16777215
370
    25
100
AcDb2dPolyline
 66
     1
 10
0.0
 20
0.0
 30
0.0
  0
VERTEX
  5
4A
330
49
100
AcDbEntity
  8
_U+30EC_U+30A4_U+30E4_U+30FC 1
 62
     7
420
 16777215
370
    25
100
AcDbVertex
100
AcDb2dVertex
 10
80.32016017308422
 20
-133.8629741332012
 30
0.0
  0
VERTEX
  5
4B
330
49
100
AcDbEntity
  8
_U+30EC_U+30A4_U+30E4_U+30FC 1
 62
     7
420
 16777215
370
    25
100
AcDbVertex
100
AcDb2dVertex
 10
83.8555225828896
 20
-137.3986894100948
 30
0.0
  0
SEQEND
  5
4C
330
49
100
AcDbEntity
  8
_U+30EC_U+30A4_U+30E4_U+30FC 1
 62
     7
420
 16777215
370
    25
  0
POLYLINE
  5
4D
330
1F
100
AcDbEntity
  8
_U+30EC_U+30A4_U+30E4_U+30FC 1
 62
     7
420
 16777215
370
    25
100
AcDb2dPolyline
 66
     1
 10
0.0
 20
0.0
 30
0.0
  0
VERTEX
  5
4E
330
4D
100
AcDbEntity
  8
_U+30EC_U+30A4_U+30E4_U+30FC 1
 62
     7
420
 16777215
370
    25
100
AcDbVertex
100
AcDb2dVertex
 10
95.32027090151063
 20
-136.5987305214061
 30
0.0
  0
VERTEX
  5
4F
330
4D
100
AcDbEntity
  8
_U+30EC_U+30A4_U+30E4_U+30FC 1
 62
     7
420
 16777215
370
    25
100
AcDbVertex
100
AcDb2dVertex
 10
102.6114818266074
 20
-136.5987305214061
 30
0.0
  0
SEQEND
  5
50
330
4D
100
AcDbEntity
  8
_U+30EC_U+30A4_U+30E4_U+30FC 1
 62
     7
420
 16777215
370
    25
  0
POLYLINE
  5
51
330
1F
100
AcDbEntity
  8
_U+30EC_U+30A4_U+30E4_U+30FC 1
 62
     7
420
 16777215
370
    25
100
AcDb2dPolyline
 66
     1
 10
0.0
 20
0.0
 30
0.0
  0
VERTEX
  5
52
330
51
100
AcDbEntity
  8
_U+30EC_U+30A4_U+30E4_U+30FC 1
 62
     7
420
 16777215
370
    25
100
AcDbVertex
100
AcDb2dVertex
 10
84.26996590564961
 20
-136.3985644103451
 30
0.0
  0
VERTEX
  5
53
330
51
100
AcDbEntity
  8
_U+30EC_U+30A4_U+30E4_U+30FC 1
 62
     7
420
 16777215
370
    25
100
AcDbVertex
100
AcDb2dVertex
 10
94.97370202146344
 20
-136.3985644103451
 30
0.0
  0
SEQEND
  5
54
330
51
100
AcDbEntity
  8
_U+30EC_U+30A4_U+30E4_U+30FC 1
 62
     7
420
 16777215
370
    25
  0
POLYLINE
  5
55
330
1F
100
AcDbEntity
  8
_U+30EC_U+30A4_U+30E4_U+30FC 1
 62
     7
420
 16777215
370
    25
100
AcDb2dPolyline
 66
     1
 10
0.0
 20
0.0
 30
0.0
  0
VERTEX
  5
56
330
55
100
AcDbEntity
  8
_U+30EC_U+30A4_U+30E4_U+30FC 1
 62
     7
420
 16777215
370
    25
100
AcDbVertex
100
AcDb2dVertex
 10
81.31993236980013
 20
-133.448883577749
 30
0.0
  0
VERTEX
  5
57
330
55
100
AcDbEntity
  8
_U+30EC_U+30A4_U+30E4_U+30FC 1
 62
     7
420
 16777215
370
    25
100
AcDbVertex
100
AcDb2dVertex
 10
82.44165984118247
 20
-134.570258299691
 30
0.0
  0
SEQEND
  5
58
330
55
100
AcDbEntity
  8
_U+30EC_U+30A4_U+30E4_U+30FC 1
 62
     7
420
 16777215
370
    25
  0
POLYLINE
  5
59
330
1F
100
AcDbEntity
  8
_U+30EC_U+30A4_U+30E4_U+30FC 1
 62
     7
420
 16777215
370
    25
100
AcDb2dPolyline
 66
     1
 10
0.0
 20
0.0
 30
0.0
  0
VERTEX
  5
5A
330
59
100
AcDbEntity
  8
_U+30EC_U+30A4_U+30E4_U+30FC 1
 62
     7
420
 16777215
370
    25
100
AcDbVertex
100
AcDb2dVertex
 10
94.97370202146344
 20
-136.3985644103451
 30
0.0
  0
VERTEX
  5
5B
330
59
100
AcDbEntity
  8
_U+30EC_U+30A4_U+30E4_U+30FC 1
 62
     7
420
 16777215
370
    25
100
AcDbVertex
100
AcDb2dVertex
 10
95.32027090151063
 20
-136.5987305214061
 30
0.0
  0
SEQEND
  5
5C
330
59
100
AcDbEntity
  8
_U+30EC_U+30A4_U+30E4_U+30FC 1
 62
     7
420
 16777215
370
    25
  0
POLYLINE
  5
5D
330
1F
100
AcDbEntity
  8
_U+30EC_U+30A4_U+30E4_U+30FC 1
 62
     7
420
 16777215
370
    25
100
AcDb2dPolyline
 66
     1
 10
0.0
 20
0.0
 30
0.0
  0
VERTEX
  5
5E
330
5D
100
AcDbEntity
  8
_U+30EC_U+30A4_U+30E4_U+30FC 1
 62
     7
420
 16777215
370
    25
100
AcDbVertex
100
AcDb2dVertex
 10
81.31993236980013
 20
-127.7448196902862
 30
0.0
  0
VERTEX
  5
5F
330
5D
100
AcDbEntity
  8
_U+30EC_U+30A4_U+30E4_U+30FC 1
 62
     7
420
 16777215
370
    25
100
AcDbVertex
100
AcDb2dVertex
 10
81.31993236980013
 20
-133.448883577749
 30
0.0
  0
SEQEND
  5
60
330
5D
100
AcDbEntity
  8
_U+30EC_U+30A4_U+30E4_U+30FC 1
 62
     7
420
 16777215
370
    25
  0
POLYLINE
  5
61
330
1F
100
AcDbEntity
  8
_U+30EC_U+30A4_U+30E4_U+30FC 1
 62
     7
420
 16777215
370
    25
100
AcDb2dPolyline
 66
     1
 10
0.0
 20
0.0
 30
0.0
  0
VERTEX
  5
62
330
61
100
AcDbEntity
  8
_U+30EC_U+30A4_U+30E4_U+30FC 1
 62
     7
420
 16777215
370
    25
100
AcDbVertex
100
AcDb2dVertex
 10
81.12011904156446
 20
-120.1070396921955
 30
0.0
  0
VERTEX
  5
63
330
61
100
AcDbEntity
  8
_U+30EC_U+30A4_U+30E4_U+30FC 1
 62
     7
420
 16777215
370
    25
100
AcDbVertex
100
AcDb2dVertex
 10
81.12011904156446
 20
-127.3986035792614
 30
0.0
  0
SEQEND
  5
64
330
61
100
AcDbEntity
  8
_U+30EC_U+30A4_U+30E4_U+30FC 1
 62
     7
420
 16777215
370
    25
  0
POLYLINE
  5
65
330
1F
100
AcDbEntity
  8
_U+30EC_U+30A4_U+30E4_U+30FC 1
 62
     7
420
 16777215
370
    25
100
AcDb2dPolyline
 66
     1
 10
0.0
 20
0.0
 30
0.0
  0
VERTEX
  5
66
330
65
100
AcDbEntity
  8
_U+30EC_U+30A4_U+30E4_U+30FC 1
 62
     7
420
 16777215
370
    25
100
AcDbVertex
100
AcDb2dVertex
 10
81.12011904156446
 20
-127.3986035792614
 30
0.0
  0
VERTEX
  5
67
330
65
100
AcDbEntity
  8
_U+30EC_U+30A4_U+30E4_U+30FC 1
 62
     7
420
 16777215
370
    25
100
AcDbVertex
100
AcDb2dVertex
 10
81.31993236980013
 20
-127.7448196902862
 30
0.0
  0
SEQEND
  5
68
330
65
100
AcDbEntity
  8
_U+30EC_U+30A4_U+30E4_U+30FC 1
 62
     7
420
 16777215
370
    25
  0
POLYLINE
  5
69
330
1F
100
AcDbEntity
  8
_U+30EC_U+30A4_U+30E4_U+30FC 1
 62
     7
420
 16777215
370
    25
100
AcDb2dPolyline
 66
     1
 10
0.0
 20
0.0
 30
0.0
  0
VERTEX
  5
6A
330
69
100
AcDbEntity
  8
_U+30EC_U+30A4_U+30E4_U+30FC 1
 62
     7
420
 16777215
370
    25
100
AcDbVertex
100
AcDb2dVertex
 10
84.6203447855996
 20
-132.3915733002354
 30
0.0
  0
VERTEX
  5
6B
330
69
100
AcDbEntity
  8
_U+30EC_U+30A4_U+30E4_U+30FC 1
 62
     7
420
 16777215
370
    25
100
AcDbVertex
100
AcDb2dVertex
 10
82.44165984118247
 20
-134.570258299691
 30
0.0
  0
SEQEND
  5
6C
330
69
100
AcDbEntity
  8
_U+30EC_U+30A4_U+30E4_U+30FC 1
 62
     7
420
 16777215
370
    25
  0
POLYLINE
  5
6D
330
1F
100
AcDbEntity
  8
_U+30EC_U+30A4_U+30E4_U+30FC 1
 62
     7
420
 16777215
370
    25
100
AcDb2dPolyline
 66
     1
 10
0.0
 20
0.0
 30
0.0
  0
VERTEX
  5
6E
330
6D
100
AcDbEntity
  8
_U+30EC_U+30A4_U+30E4_U+30FC 1
 62
     7
420
 16777215
370
    25
100
AcDbVertex
100
AcDb2dVertex
 10
85.32727615645317
 20
-133.0985046889475
 30
0.0
  0
VERTEX
  5
6F
330
6D
100
AcDbEntity
  8
_U+30EC_U+30A4_U+30E4_U+30FC 1
 62
     7
420
 16777215
370
    25
100
AcDbVertex
100
AcDb2dVertex
 10
83.14859121203604
 20
-135.2771896884031
 30
0.0
  0
SEQEND
  5
70
330
6D
100
AcDbEntity
  8
_U+30EC_U+30A4_U+30E4_U+30FC 1
 62
     7
420
 16777215
370
    25
  0
POLYLINE
  5
71
330
1F
100
AcDbEntity
  8
_U+30EC_U+30A4_U+30E4_U+30FC 1
 62
     7
420
 16777215
370
    25
100
AcDb2dPolyline
 66
     1
 10
0.0
 20
0.0
 30
0.0
  0
VERTEX
  5
72
330
71
100
AcDbEntity
  8
_U+30EC_U+30A4_U+30E4_U+30FC 1
 62
     7
420
 16777215
370
    25
100
AcDbVertex
100
AcDb2dVertex
 10
83.14859121203604
 20
-135.2771896884031
 30
0.0
  0
VERTEX
  5
73
330
71
100
AcDbEntity
  8
_U+30EC_U+30A4_U+30E4_U+30FC 1
 62
     7
420
 16777215
370
    25
100
AcDbVertex
100
AcDb2dVertex
 10
84.26996590564961
 20
-136.3985644103451
 30
0.0
  0
SEQEND
  5
74
330
71
100
AcDbEntity
  8
_U+30EC_U+30A4_U+30E4_U+30FC 1
 62
     7
420
 16777215
370
    25
  0
POLYLINE
  5
75
330
1F
100
AcDbEntity
  8
_U+30EC_U+30A4_U+30E4_U+30FC 1
 62
     7
420
 16777215
370
    25
100
AcDb2dPolyline
 66
     1
 10
0.0
 20
0.0
 30
0.0
  0
VERTEX
  5
76
330
75
100
AcDbEntity
  8
_U+30EC_U+30A4_U+30E4_U+30FC 1
 62
     7
420
 16777215
370
    25
100
AcDbVertex
100
AcDb2dVertex
 10
85.32727615645317
 20
-133.0985046889475
 30
0.0
  0
VERTEX
  5
77
330
75
100
AcDbEntity
  8
_U+30EC_U+30A4_U+30E4_U+30FC 1
 62
     7
420
 16777215
370
    25
100
AcDbVertex
100
AcDb2dVertex
 10
92.62000402595572
 20
-133.0985046889475
 30
0.0
  0
SEQEND
  5
78
330
75
100
AcDbEntity
  8
_U+30EC_U+30A4_U+30E4_U+30FC 1
 62
     7
420
 16777215
370
    25
  0
POLYLINE
  5
79
330
1F
100
AcDbEntity
  8
_U+30EC_U+30A4_U+30E4_U+30FC 1
 62
     7
420
 16777215
370
    25
100
AcDb2dPolyline
 66
     1
 10
0.0
 20
0.0
 30
0.0
  0
VERTEX
  5
7A
330
79
100
AcDbEntity
  8
_U+30EC_U+30A4_U+30E4_U+30FC 1
 62
     7
420
 16777215
370
    25
100
AcDbVertex
100
AcDb2dVertex
 10
84.6203447855996
 20
-125.0986688576141
 30
0.0
  0
VERTEX
  5
7B
330
79
100
AcDbEntity
  8
_U+30EC_U+30A4_U+30E4_U+30FC 1
 62
     7
420
 16777215
370
    25
100
AcDbVertex
100
AcDb2dVertex
 10
84.6203447855996
 20
-132.3915733002354
 30
0.0
  0
SEQEND
  5
7C
330
79
100
AcDbEntity
  8
_U+30EC_U+30A4_U+30E4_U+30FC 1
 62
     7
420
 16777215
370
    25
  0
POLYLINE
  5
7D
330
1F
100
AcDbEntity
  8
_U+30EC_U+30A4_U+30E4_U+30FC 1
 62
     7
420
 16777215
370
    25
100
AcDb2dPolyline
 66
     1
 10
0.0
 20
0.0
 30
0.0
  0
VERTEX
  5
7E
330
7D
100
AcDbEntity
  8
_U+30EC_U+30A4_U+30E4_U+30FC 1
 62
     7
420
 16777215
370
    25
100
AcDbVertex
100
AcDb2dVertex
 10
86.12032058066535
 20
-132.0987324669755
 30
0.0
  0
VERTEX
  5
7F
330
7D
100
AcDbEntity
  8
_U+30EC_U+30A4_U+30E4_U+30FC 1
 62
     7
420
 16777215
370
    25
100
AcDbVertex
100
AcDb2dVertex
 10
92.26997792377453
 20
-132.0987324669755
 30
0.0
  0
SEQEND
  5
80
330
7D
100
AcDbEntity
  8
_U+30EC_U+30A4_U+30E4_U+30FC 1
 62
     7
420
 16777215
370
    25
  0
POLYLINE
  5
81
330
1F
100
AcDbEntity
  8
_U+30EC_U+30A4_U+30E4_U+30FC 1
 62
     7
420
 16777215
370
    25
100
AcDb2dPolyline
 66
     1
 10
0.0
 20
0.0
 30
0.0
  0
VERTEX
  5
82
330
81
100
AcDbEntity
  8
_U+30EC_U+30A4_U+30E4_U+30FC 1
 62
     7
420
 16777215
370
    25
100
AcDbVertex
100
AcDb2dVertex
 10
85.62008170453862
 20
-125.4486596908601
 30
0.0
  0
VERTEX
  5
83
330
81
100
AcDbEntity
  8
_U+30EC_U+30A4_U+30E4_U+30FC 1
 62
     7
420
 16777215
370
    25
100
AcDbVertex
100
AcDb2dVertex
 10
85.62008170453862
 20
-131.5985288559893
 30
0.0
  0
SEQEND
  5
84
330
81
100
AcDbEntity
  8
_U+30EC_U+30A4_U+30E4_U+30FC 1
 62
     7
420
 16777215
370
    25
  0
SPLINE
  5
85
330
1F
100
AcDbEntity
  8
_U+30EC_U+30A4_U+30E4_U+30FC 1
 62
     7
420
 16777215
370
    25
100
AcDbSpline
210
0.0
220
0.0
230
1.0
 70
     8
 71
     3
 72
     8
 73
     4
 74
     0
 42
0.0000000001
 43
0.0000000001
 12
1.0
 22
0.0
 32
0.0
 13
1.0
 23
0.0
 33
0.0
 40
0.0
 40
0.0
 40
0.0
 40
0.0
 40
1.0
 40
1.0
 40
1.0
 40
1.0
 10
85.62008170453862
 20
-131.5985288559893
 30
0.0
 10
85.62008170453862
 20
-131.8748244114758
 30
0.0
 10
85.84402503215868
 20
-132.0987324669755
 30
0.0
 10
86.12032058066535
 20
-132.0987324669755
 30
0.0
  0
SPLINE
  5
86
330
1F
100
AcDbEntity
  8
_U+30EC_U+30A4_U+30E4_U+30FC 1
 62
     7
420
 16777215
370
    25
100
AcDbSpline
210
0.0
220
0.0
230
1.0
 70
     8
 71
     3
 72
     8
 73
     4
 74
     0
 42
0.0000000001
 43
0.0000000001
 12
1.0
 22
0.0
 32
0.0
 13
1.0
 23
0.0
 33
0.0
 40
0.0
 40
0.0
 40
0.0
 40
0.0
 40
1.0
 40
1.0
 40
1.0
 40
1.0
 10
85.62008170453862
 20
-125.4486596908601
 30
0.0
 10
85.34036421167481
 20
-125.2140624686965
 30
0.0
 10
84.98483477630067
 20
-125.0897083020609
 30
0.0
 10
84.6203447855996
 20
-125.0986688576141
 30
0.0
  0
SPLINE
  5
87
330
1F
100
AcDbEntity
  8
_U+30EC_U+30A4_U+30E4_U+30FC 1
 62
     7
420
 16777215
370
    25
100
AcDbSpline
210
0.0
220
0.0
230
1.0
 70
     8
 71
     3
 72
     8
 73
     4
 74
     0
 42
0.0000000001
 43
0.0000000001
 12
1.0
 22
0.0
 32
0.0
 13
1.0
 23
0.0
 33
0.0
 40
0.0
 40
0.0
 40
0.0
 40
0.0
 40
1.0
 40
1.0
 40
1.0
 40
1.0
 10
92.62000402595572
 20
-133.0985046889475
 30
0.0
 10
92.62896458128269
 20
-132.7336619112609
 30
0.0
 10
92.50425764001977
 20
-132.3781324669055
 30
0.0
 10
92.26997792377453
 20
-132.0987324669755
 30
0.0
  0
SPLINE
  5
88
330
1F
100
AcDbEntity
  8
_U+30EC_U+30A4_U+30E4_U+30FC 1
 62
     7
420
 16777215
370
    25
100
AcDbSpline
210
0.0
220
0.0
230
1.0
 70
     8
 71
     3
 72
     8
 73
     4
 74
     0
 42
0.0000000001
 43
0.0000000001
 12
1.0
 22
0.0
 32
0.0
 13
1.0
 23
0.0
 33
0.0
 40
0.0
 40
0.0
 40
0.0
 40
0.0
 40
1.0
 40
1.0
 40
1.0
 40
1.0
 10
102.8202583076285
 20
-137.3986894100948
 30
0.0
 10
102.8271348766612
 20
-137.1175607990542
 30
0.0
 10
102.7547801562849
 20
-136.8405596880122
 30
0.0
 10
102.6114818266074
 20
-136.5987305214061
 30
0.0
  0
SPLINE
  5
89
330
1F
100
AcDbEntity
  8
_U+30EC_U+30A4_U+30E4_U+30FC 1
 62
     7
420
 16777215
370
    25
100
AcDbSpline
210
0.0
220
0.0
230
1.0
 70
     8
 71
     3
 72
     8
 73
     4
 74
     0
 42
0.0000000001
 43
0.0000000001
 12
1.0
 22
0.0
 32
0.0
 13
1.0
 23
0.0
 33
0.0
 40
0.0
 40
0.0
 40
0.0
 40
0.0
 40
1.0
 40
1.0
 40
1.0
 40
1.0
 10
81.12011904156446
 20
-120.1070396921955
 30
0.0
 10
80.87825460329049
 20
-119.9640941366756
 30
0.0
 10
80.60128877702314
 20
-119.8917394144714
 30
0.0
 10
80.32016017308422
 20
-119.8986185811365
 30
0.0
  0
SPLINE
  5
8A
330
1F
100
AcDbEntity
  8
_U+30EC_U+30A4_U+30E4_U+30FC 1
 62
     7
420
 16777215
370
     9
100
AcDbSpline
210
0.0
220
0.0
230
1.0
 70
    11
 71
     3
 72
    17
 73
    13
 74
     0
 42
0.0000000001
 43
0.0000000001
 12
1.0
 22
0.0
 32
0.0
 13
1.0
 23
0.0
 33
0.0
 40
0.0
 40
0.0
 40
0.0
 40
0.0
 40
1.0
 40
1.0
 40
1.0
 40
2.0
 40
2.0
 40
2.0
 40
3.0
 40
3.0
 40
3.0
 40
4.0
 40
4.0
 40
4.0
 40
4.0
 10
84.72025144971742
 20
-129.0987455232806
 30
0.0
 10
84.72025144971742
 20
-129.0432888566279
 30
0.0
 10
84.67544867308267
 20
-128.9984860788618
 30
0.0
 10
84.6203447855996
 20
-128.9984860788618
 30
0.0
 10
84.56485284257087
 20
-128.9984860788618
 30
0.0
 10
84.52008534371298
 20
-129.0432888566279
 30
0.0
 10
84.52008534371298
 20
-129.0987455232806
 30
0.0
 10
84.52008534371298
 20
-129.1538846899336
 30
0.0
 10
84.56485284257087
 20
-129.1986521899229
 30
0.0
 10
84.6203447855996
 20
-129.1986521899229
 30
0.0
 10
84.67544867308267
 20
-129.1986521899229
 30
0.0
 10
84.72025144971742
 20
-129.1538846899336
 30
0.0
 10
84.72025144971742
 20
-129.0987455232806
 30
0.0
  0
SPLINE
  5
8B
330
1F
100
AcDbEntity
  8
_U+30EC_U+30A4_U+30E4_U+30FC 1
 62
     7
420
 16777215
370
     9
100
AcDbSpline
210
0.0
220
0.0
230
1.0
 70
    11
 71
     3
 72
    17
 73
    13
 74
     0
 42
0.0000000001
 43
0.0000000001
 12
1.0
 22
0.0
 32
0.0
 13
1.0
 23
0.0
 33
0.0
 40
0.0
 40
0.0
 40
0.0
 40
0.0
 40
1.0
 40
1.0
 40
1.0
 40
2.0
 40
2.0
 40
2.0
 40
3.0
 40
3.0
 40
3.0
 40
4.0
 40
4.0
 40
4.0
 40
4.0
 10
85.71998836865646
 20
-129.0987455232806
 30
0.0
 10
85.71998836865646
 20
-129.0432888566279
 30
0.0
 10
85.67522086979858
 20
-128.9984860788618
 30
0.0
 10
85.62008170453862
 20
-128.9984860788618
 30
0.0
 10
85.56497781705555
 20
-128.9984860788618
 30
0.0
 10
85.5201750404208
 20
-129.0432888566279
 30
0.0
 10
85.5201750404208
 20
-129.0987455232806
 30
0.0
 10
85.5201750404208
 20
-129.1538846899336
 30
0.0
 10
85.56497781705555
 20
-129.1986521899229
 30
0.0
 10
85.62008170453862
 20
-129.1986521899229
 30
0.0
 10
85.67522086979858
 20
-129.1986521899229
 30
0.0
 10
85.71998836865646
 20
-129.1538846899336
 30
0.0
 10
85.71998836865646
 20
-129.0987455232806
 30
0.0
  0
SPLINE
  5
8C
330
1F
100
AcDbEntity
  8
_U+30EC_U+30A4_U+30E4_U+30FC 1
 62
     7
420
 16777215
370
     9
100
AcDbSpline
210
0.0
220
0.0
230
1.0
 70
    11
 71
     3
 72
    17
 73
    13
 74
     0
 42
0.0000000001
 43
0.0000000001
 12
1.0
 22
0.0
 32
0.0
 13
1.0
 23
0.0
 33
0.0
 40
0.0
 40
0.0
 40
0.0
 40
0.0
 40
1.0
 40
1.0
 40
1.0
 40
2.0
 40
2.0
 40
2.0
 40
3.0
 40
3.0
 40
3.0
 40
4.0
 40
4.0
 40
4.0
 40
4.0
 10
76.41995499480896
 20
-119.8986185811365
 30
0.0
 10
76.41995499480896
 20
-119.8431619144838
 30
0.0
 10
76.37518749595108
 20
-119.7987119144949
 30
0.0
 10
76.32004833069114
 20
-119.7987119144949
 30
0.0
 10
76.26494444320807
 20
-119.7987119144949
 30
0.0
 10
76.2201416665733
 20
-119.8431619144838
 30
0.0
 10
76.2201416665733
 20
-119.8986185811365
 30
0.0
 10
76.2201416665733
 20
-119.9540752477892
 30
0.0
 10
76.26494444320807
 20
-119.9988780255559
 30
0.0
 10
76.32004833069114
 20
-119.9988780255559
 30
0.0
 10
76.37518749595108
 20
-119.9988780255559
 30
0.0
 10
76.41995499480896
 20
-119.9540752477892
 30
0.0
 10
76.41995499480896
 20
-119.8986185811365
 30
0.0
  0
SPLINE
  5
8D
330
1F
100
AcDbEntity
  8
_U+30EC_U+30A4_U+30E4_U+30FC 1
 62
     7
420
 16777215
370
     9
100
AcDbSpline
210
0.0
220
0.0
230
1.0
 70
    11
 71
     3
 72
    17
 73
    13
 74
     0
 42
0.0000000001
 43
0.0000000001
 12
1.0
 22
0.0
 32
0.0
 13
1.0
 23
0.0
 33
0.0
 40
0.0
 40
0.0
 40
0.0
 40
0.0
 40
1.0
 40
1.0
 40
1.0
 40
2.0
 40
2.0
 40
2.0
 40
3.0
 40
3.0
 40
3.0
 40
4.0
 40
4.0
 40
4.0
 40
4.0
 10
76.41995499480896
 20
-137.3986894100948
 30
0.0
 10
76.41995499480896
 20
-137.3435502434417
 30
0.0
 10
76.37518749595108
 20
-137.2987827434531
 30
0.0
 10
76.32004833069114
 20
-137.2987827434531
 30
0.0
 10
76.26494444320807
 20
-137.2987827434531
 30
0.0
 10
76.2201416665733
 20
-137.3435502434417
 30
0.0
 10
76.2201416665733
 20
-137.3986894100948
 30
0.0
 10
76.2201416665733
 20
-137.4537932989697
 30
0.0
 10
76.26494444320807
 20
-137.4985960767364
 30
0.0
 10
76.32004833069114
 20
-137.4985960767364
 30
0.0
 10
76.37518749595108
 20
-137.4985960767364
 30
0.0
 10
76.41995499480896
 20
-137.4537932989697
 30
0.0
 10
76.41995499480896
 20
-137.3986894100948
 30
0.0
  0
SPLINE
  5
8E
330
1F
100
AcDbEntity
  8
_U+30EC_U+30A4_U+30E4_U+30FC 1
 62
     7
420
 16777215
370
     9
100
AcDbSpline
210
0.0
220
0.0
230
1.0
 70
    11
 71
     3
 72
    17
 73
    13
 74
     0
 42
0.0000000001
 43
0.0000000001
 12
1.0
 22
0.0
 32
0.0
 13
1.0
 23
0.0
 33
0.0
 40
0.0
 40
0.0
 40
0.0
 40
0.0
 40
1.0
 40
1.0
 40
1.0
 40
2.0
 40
2.0
 40
2.0
 40
3.0
 40
3.0
 40
3.0
 40
4.0
 40
4.0
 40
4.0
 40
4.0
 10
74.7632047592984
 20
-139.5198363540087
 30
0.0
 10
74.7632047592984
 20
-139.4646971873563
 30
0.0
 10
74.7187900382093
 20
-139.419929687367
 30
0.0
 10
74.66329998133426
 20
-139.419929687367
 30
0.0
 10
74.60784142992873
 20
-139.419929687367
 30
0.0
 10
74.56307393107083
 20
-139.4646971873563
 30
0.0
 10
74.56307393107083
 20
-139.5198363540087
 30
0.0
 10
74.56307393107083
 20
-139.575293020662
 30
0.0
 10
74.60784142992873
 20
-139.6200605206506
 30
0.0
 10
74.66329998133426
 20
-139.6200605206506
 30
0.0
 10
74.7187900382093
 20
-139.6200605206506
 30
0.0
 10
74.7632047592984
 20
-139.575293020662
 30
0.0
 10
74.7632047592984
 20
-139.5198363540087
 30
0.0
  0
SPLINE
  5
8F
330
1F
100
AcDbEntity
  8
_U+30EC_U+30A4_U+30E4_U+30FC 1
 62
     7
420
 16777215
370
     9
100
AcDbSpline
210
0.0
220
0.0
230
1.0
 70
    11
 71
     3
 72
    17
 73
    13
 74
     0
 42
0.0000000001
 43
0.0000000001
 12
1.0
 22
0.0
 32
0.0
 13
1.0
 23
0.0
 33
0.0
 40
0.0
 40
0.0
 40
0.0
 40
0.0
 40
1.0
 40
1.0
 40
1.0
 40
2.0
 40
2.0
 40
2.0
 40
3.0
 40
3.0
 40
3.0
 40
4.0
 40
4.0
 40
4.0
 40
4.0
 10
78.29891994687257
 20
-143.0555163531247
 30
0.0
 10
78.29891994687257
 20
-143.0004124642498
 30
0.0
 10
78.2541524480147
 20
-142.9556096864831
 30
0.0
 10
78.19901328275475
 20
-142.9556096864831
 30
0.0
 10
78.1435566175029
 20
-142.9556096864831
 30
0.0
 10
78.09875384086813
 20
-143.0004124642498
 30
0.0
 10
78.09875384086813
 20
-143.0555163531247
 30
0.0
 10
78.09875384086813
 20
-143.1106555197778
 30
0.0
 10
78.1435566175029
 20
-143.155423019767
 30
0.0
 10
78.19901328275475
 20
-143.155423019767
 30
0.0
 10
78.2541524480147
 20
-143.155423019767
 30
0.0
 10
78.29891994687257
 20
-143.1106555197778
 30
0.0
 10
78.29891994687257
 20
-143.0555163531247
 30
0.0
  0
SPLINE
  5
90
330
1F
100
AcDbEntity
  8
_U+30EC_U+30A4_U+30E4_U+30FC 1
 62
     7
420
 16777215
370
     9
100
AcDbSpline
210
0.0
220
0.0
230
1.0
 70
    11
 71
     3
 72
    17
 73
    13
 74
     0
 42
0.0000000001
 43
0.0000000001
 12
1.0
 22
0.0
 32
0.0
 13
1.0
 23
0.0
 33
0.0
 40
0.0
 40
0.0
 40
0.0
 40
0.0
 40
1.0
 40
1.0
 40
1.0
 40
2.0
 40
2.0
 40
2.0
 40
3.0
 40
3.0
 40
3.0
 40
4.0
 40
4.0
 40
4.0
 40
4.0
 10
80.42006683720206
 20
-141.3987660757612
 30
0.0
 10
80.42006683720206
 20
-141.3433094091086
 30
0.0
 10
80.37561683833607
 20
-141.29854190912
 30
0.0
 10
80.32016017308422
 20
-141.29854190912
 30
0.0
 10
80.26470553548936
 20
-141.29854190912
 30
0.0
 10
80.21990275772296
 20
-141.3433094091086
 30
0.0
 10
80.21990275772296
 20
-141.3987660757612
 30
0.0
 10
80.21990275772296
 20
-141.4539052424143
 30
0.0
 10
80.26470553548936
 20
-141.4986727424029
 30
0.0
 10
80.32016017308422
 20
-141.4986727424029
 30
0.0
 10
80.37561683833607
 20
-141.4986727424029
 30
0.0
 10
80.42006683720206
 20
-141.4539052424143
 30
0.0
 10
80.42006683720206
 20
-141.3987660757612
 30
0.0
  0
SPLINE
  5
91
330
1F
100
AcDbEntity
  8
_U+30EC_U+30A4_U+30E4_U+30FC 1
 62
     7
420
 16777215
370
     9
100
AcDbSpline
210
0.0
220
0.0
230
1.0
 70
    11
 71
     3
 72
    17
 73
    13
 74
     0
 42
0.0000000001
 43
0.0000000001
 12
1.0
 22
0.0
 32
0.0
 13
1.0
 23
0.0
 33
0.0
 40
0.0
 40
0.0
 40
0.0
 40
0.0
 40
1.0
 40
1.0
 40
1.0
 40
2.0
 40
2.0
 40
2.0
 40
3.0
 40
3.0
 40
3.0
 40
4.0
 40
4.0
 40
4.0
 40
4.0
 10
102.9201623742879
 20
-141.3987660757612
 30
0.0
 10
102.9201623742879
 20
-141.3433094091086
 30
0.0
 10
102.8753595976531
 20
-141.29854190912
 30
0.0
 10
102.8202583076285
 20
-141.29854190912
 30
0.0
 10
102.7651165449101
 20
-141.29854190912
 30
0.0
 10
102.7203490460522
 20
-141.3433094091086
 30
0.0
 10
102.7203490460522
 20
-141.3987660757612
 30
0.0
 10
102.7203490460522
 20
-141.4539052424143
 30
0.0
 10
102.7651165449101
 20
-141.4986727424029
 30
0.0
 10
102.8202583076285
 20
-141.4986727424029
 30
0.0
 10
102.8753595976531
 20
-141.4986727424029
 30
0.0
 10
102.9201623742879
 20
-141.4539052424143
 30
0.0
 10
102.9201623742879
 20
-141.3987660757612
 30
0.0
  0
SPLINE
  5
92
330
1F
100
AcDbEntity
  8
_U+30EC_U+30A4_U+30E4_U+30FC 1
 62
     7
420
 16777215
370
     9
100
AcDbSpline
210
0.0
220
0.0
230
1.0
 70
    11
 71
     3
 72
    17
 73
    13
 74
     0
 42
0.0000000001
 43
0.0000000001
 12
1.0
 22
0.0
 32
0.0
 13
1.0
 23
0.0
 33
0.0
 40
0.0
 40
0.0
 40
0.0
 40
0.0
 40
1.0
 40
1.0
 40
1.0
 40
2.0
 40
2.0
 40
2.0
 40
3.0
 40
3.0
 40
3.0
 40
4.0
 40
4.0
 40
4.0
 40
4.0
 10
106.9199214389122
 20
-136.5987305214061
 30
0.0
 10
106.9199214389122
 20
-136.5432738547528
 30
0.0
 10
106.8751186622775
 20
-136.4984710769867
 30
0.0
 10
106.8200147747944
 20
-136.4984710769867
 30
0.0
 10
106.7648756095344
 20
-136.4984710769867
 30
0.0
 10
106.7201081106765
 20
-136.5432738547528
 30
0.0
 10
106.7201081106765
 20
-136.5987305214061
 30
0.0
 10
106.7201081106765
 20
-136.6538344102811
 30
0.0
 10
106.7648756095344
 20
-136.6986371880478
 30
0.0
 10
106.8200147747944
 20
-136.6986371880478
 30
0.0
 10
106.8751186622775
 20
-136.6986371880478
 30
0.0
 10
106.9199214389122
 20
-136.6538344102811
 30
0.0
 10
106.9199214389122
 20
-136.5987305214061
 30
0.0
  0
SPLINE
  5
93
330
1F
100
AcDbEntity
  8
_U+30EC_U+30A4_U+30E4_U+30FC 1
 62
     7
420
 16777215
370
     9
100
AcDbSpline
210
0.0
220
0.0
230
1.0
 70
    11
 71
     3
 72
    17
 73
    13
 74
     0
 42
0.0000000001
 43
0.0000000001
 12
1.0
 22
0.0
 32
0.0
 13
1.0
 23
0.0
 33
0.0
 40
0.0
 40
0.0
 40
0.0
 40
0.0
 40
1.0
 40
1.0
 40
1.0
 40
2.0
 40
2.0
 40
2.0
 40
3.0
 40
3.0
 40
3.0
 40
4.0
 40
4.0
 40
4.0
 40
4.0
 10
106.9199214389122
 20
-133.0985046889475
 30
0.0
 10
106.9199214389122
 20
-133.0434008000725
 30
0.0
 10
106.8751186622775
 20
-132.9985980223058
 30
0.0
 10
106.8200147747944
 20
-132.9985980223058
 30
0.0
 10
106.7648756095344
 20
-132.9985980223058
 30
0.0
 10
106.7201081106765
 20
-133.0434008000725
 30
0.0
 10
106.7201081106765
 20
-133.0985046889475
 30
0.0
 10
106.7201081106765
 20
-133.1539613556001
 30
0.0
 10
106.7648756095344
 20
-133.1987641333668
 30
0.0
 10
106.8200147747944
 20
-133.1987641333668
 30
0.0
 10
106.8751186622775
 20
-133.1987641333668
 30
0.0
 10
106.9199214389122
 20
-133.1539613556001
 30
0.0
 10
106.9199214389122
 20
-133.0985046889475
 30
0.0
  0
SPLINE
  5
94
330
1F
100
AcDbEntity
  8
_U+30EC_U+30A4_U+30E4_U+30FC 1
 62
     7
420
 16777215
370
     9
100
AcDbSpline
210
0.0
220
0.0
230
1.0
 70
    11
 71
     3
 72
    17
 73
    13
 74
     0
 42
0.0000000001
 43
0.0000000001
 12
1.0
 22
0.0
 32
0.0
 13
1.0
 23
0.0
 33
0.0
 40
0.0
 40
0.0
 40
0.0
 40
0.0
 40
1.0
 40
1.0
 40
1.0
 40
2.0
 40
2.0
 40
2.0
 40
3.0
 40
3.0
 40
3.0
 40
4.0
 40
4.0
 40
4.0
 40
4.0
 10
96.72037775359757
 20
-132.0983796891978
 30
0.0
 10
96.72037775359757
 20
-132.0432758003222
 30
0.0
 10
96.67557497583086
 20
-131.9984730225561
 30
0.0
 10
96.6204686461176
 20
-131.9984730225561
 30
0.0
 10
96.56465920309697
 20
-131.9984730225561
 30
0.0
 10
96.5198564264622
 20
-132.0432758003222
 30
0.0
 10
96.5198564264622
 20
-132.0983796891978
 30
0.0
 10
96.5198564264622
 20
-132.1542244114057
 30
0.0
 10
96.56465920309697
 20
-132.198991911395
 30
0.0
 10
96.6204686461176
 20
-132.198991911395
 30
0.0
 10
96.67557497583086
 20
-132.198991911395
 30
0.0
 10
96.72037775359757
 20
-132.1542244114057
 30
0.0
 10
96.72037775359757
 20
-132.0983796891978
 30
0.0
  0
SPLINE
  5
95
330
1F
100
AcDbEntity
  8
_U+30EC_U+30A4_U+30E4_U+30FC 1
 62
     7
420
 16777215
370
     9
100
AcDbSpline
210
0.0
220
0.0
230
1.0
 70
    11
 71
     3
 72
    17
 73
    13
 74
     0
 42
0.0000000001
 43
0.0000000001
 12
1.0
 22
0.0
 32
0.0
 13
1.0
 23
0.0
 33
0.0
 40
0.0
 40
0.0
 40
0.0
 40
0.0
 40
1.0
 40
1.0
 40
1.0
 40
2.0
 40
2.0
 40
2.0
 40
3.0
 40
3.0
 40
3.0
 40
4.0
 40
4.0
 40
4.0
 40
4.0
 10
96.72037775359757
 20
-125.0986688576141
 30
0.0
 10
96.72037775359757
 20
-125.0431769131836
 30
0.0
 10
96.67557497583086
 20
-124.998409413195
 30
0.0
 10
96.6204686461176
 20
-124.998409413195
 30
0.0
 10
96.56465920309697
 20
-124.998409413195
 30
0.0
 10
96.5198564264622
 20
-125.0431769131836
 30
0.0
 10
96.5198564264622
 20
-125.0986688576141
 30
0.0
 10
96.5198564264622
 20
-125.1537727464893
 30
0.0
 10
96.56465920309697
 20
-125.198575524256
 30
0.0
 10
96.6204686461176
 20
-125.198575524256
 30
0.0
 10
96.67557497583086
 20
-125.198575524256
 30
0.0
 10
96.72037775359757
 20
-125.1537727464893
 30
0.0
 10
96.72037775359757
 20
-125.0986688576141
 30
0.0
  0
SPLINE
  5
96
330
1F
100
AcDbEntity
  8
_U+30EC_U+30A4_U+30E4_U+30FC 1
 62
     7
420
 16777215
370
     9
100
AcDbSpline
210
0.0
220
0.0
230
1.0
 70
    11
 71
     3
 72
    17
 73
    13
 74
     0
 42
0.0000000001
 43
0.0000000001
 12
1.0
 22
0.0
 32
0.0
 13
1.0
 23
0.0
 33
0.0
 40
0.0
 40
0.0
 40
0.0
 40
0.0
 40
1.0
 40
1.0
 40
1.0
 40
2.0
 40
2.0
 40
2.0
 40
3.0
 40
3.0
 40
3.0
 40
4.0
 40
4.0
 40
4.0
 40
4.0
 10
92.71991069007356
 20
-121.0985569141697
 30
0.0
 10
92.71991069007356
 20
-121.043417747517
 30
0.0
 10
92.67514319121568
 20
-120.9986502475281
 30
0.0
 10
92.62000402595572
 20
-120.9986502475281
 30
0.0
 10
92.56490013847265
 20
-120.9986502475281
 30
0.0
 10
92.5200973618379
 20
-121.043417747517
 30
0.0
 10
92.5200973618379
 20
-121.0985569141697
 30
0.0
 10
92.5200973618379
 20
-121.153660803045
 30
0.0
 10
92.56490013847265
 20
-121.1984635808114
 30
0.0
 10
92.62000402595572
 20
-121.1984635808114
 30
0.0
 10
92.67514319121568
 20
-121.1984635808114
 30
0.0
 10
92.71991069007356
 20
-121.153660803045
 30
0.0
 10
92.71991069007356
 20
-121.0985569141697
 30
0.0
  0
SPLINE
  5
97
330
1F
100
AcDbEntity
  8
_U+30EC_U+30A4_U+30E4_U+30FC 1
 62
     7
420
 16777215
370
     9
100
AcDbSpline
210
0.0
220
0.0
230
1.0
 70
    11
 71
     3
 72
    17
 73
    13
 74
     0
 42
0.0000000001
 43
0.0000000001
 12
1.0
 22
0.0
 32
0.0
 13
1.0
 23
0.0
 33
0.0
 40
0.0
 40
0.0
 40
0.0
 40
0.0
 40
1.0
 40
1.0
 40
1.0
 40
2.0
 40
2.0
 40
2.0
 40
3.0
 40
3.0
 40
3.0
 40
4.0
 40
4.0
 40
4.0
 40
4.0
 10
85.72034114642524
 20
-121.0985569141697
 30
0.0
 10
85.72034114642524
 20
-121.043417747517
 30
0.0
 10
85.67557364756735
 20
-120.9986502475281
 30
0.0
 10
85.6204344823074
 20
-120.9986502475281
 30
0.0
 10
85.56497781705555
 20
-120.9986502475281
 30
0.0
 10
85.5201750404208
 20
-121.043417747517
 30
0.0
 10
85.5201750404208
 20
-121.0985569141697
 30
0.0
 10
85.5201750404208
 20
-121.153660803045
 30
0.0
 10
85.56497781705555
 20
-121.1984635808114
 30
0.0
 10
85.6204344823074
 20
-121.1984635808114
 30
0.0
 10
85.67557364756735
 20
-121.1984635808114
 30
0.0
 10
85.72034114642524
 20
-121.153660803045
 30
0.0
 10
85.72034114642524
 20
-121.0985569141697
 30
0.0
  0
SPLINE
  5
98
330
1F
100
AcDbEntity
  8
_U+30EC_U+30A4_U+30E4_U+30FC 1
 62
     7
420
 16777215
370
     9
100
AcDbSpline
210
0.0
220
0.0
230
1.0
 70
    11
 71
     3
 72
    17
 73
    13
 74
     0
 42
0.0000000001
 43
0.0000000001
 12
1.0
 22
0.0
 32
0.0
 13
1.0
 23
0.0
 33
0.0
 40
0.0
 40
0.0
 40
0.0
 40
0.0
 40
1.0
 40
1.0
 40
1.0
 40
2.0
 40
2.0
 40
2.0
 40
3.0
 40
3.0
 40
3.0
 40
4.0
 40
4.0
 40
4.0
 40
4.0
 10
81.22002775747262
 20
-115.8981891376922
 30
0.0
 10
81.22002775747262
 20
-115.8426971932614
 30
0.0
 10
81.17522497970621
 20
-115.7982824710503
 30
0.0
 10
81.12011904156446
 20
-115.7982824710503
 30
0.0
 10
81.0649798763045
 20
-115.7982824710503
 30
0.0
 10
81.02021237744663
 20
-115.8426971932614
 30
0.0
 10
81.02021237744663
 20
-115.8981891376922
 30
0.0
 10
81.02021237744663
 20
-115.9536458043449
 30
0.0
 10
81.0649798763045
 20
-115.9984485821116
 30
0.0
 10
81.12011904156446
 20
-115.9984485821116
 30
0.0
 10
81.17522497970621
 20
-115.9984485821116
 30
0.0
 10
81.22002775747262
 20
-115.9536458043449
 30
0.0
 10
81.22002775747262
 20
-115.8981891376922
 30
0.0
  0
SPLINE
  5
99
330
1F
100
AcDbEntity
  8
_U+30EC_U+30A4_U+30E4_U+30FC 1
 62
     7
420
 16777215
370
     9
100
AcDbSpline
210
0.0
220
0.0
230
1.0
 70
    11
 71
     3
 72
    17
 73
    13
 74
     0
 42
0.0000000001
 43
0.0000000001
 12
1.0
 22
0.0
 32
0.0
 13
1.0
 23
0.0
 33
0.0
 40
0.0
 40
0.0
 40
0.0
 40
0.0
 40
1.0
 40
1.0
 40
1.0
 40
2.0
 40
2.0
 40
2.0
 40
3.0
 40
3.0
 40
3.0
 40
4.0
 40
4.0
 40
4.0
 40
4.0
 10
80.42006683720206
 20
-115.8981891376922
 30
0.0
 10
80.42006683720206
 20
-115.8426971932614
 30
0.0
 10
80.37561683833607
 20
-115.7982824710503
 30
0.0
 10
80.32016017308422
 20
-115.7982824710503
 30
0.0
 10
80.26470553548936
 20
-115.7982824710503
 30
0.0
 10
80.21990275772296
 20
-115.8426971932614
 30
0.0
 10
80.21990275772296
 20
-115.8981891376922
 30
0.0
 10
80.21990275772296
 20
-115.9536458043449
 30
0.0
 10
80.26470553548936
 20
-115.9984485821116
 30
0.0
 10
80.32016017308422
 20
-115.9984485821116
 30
0.0
 10
80.37561683833607
 20
-115.9984485821116
 30
0.0
 10
80.42006683720206
 20
-115.9536458043449
 30
0.0
 10
80.42006683720206
 20
-115.8981891376922
 30
0.0
  0
POLYLINE
  5
9A
330
1F
100
AcDbEntity
  8
_U+30EC_U+30A4_U+30E4_U+30FC 1
 62
     7
420
 16777215
370
     9
100
AcDb2dPolyline
 66
     1
 10
0.0
 20
0.0
 30
0.0
  0
VERTEX
  5
9B
330
9A
100
AcDbEntity
  8
_U+30EC_U+30A4_U+30E4_U+30FC 1
 62
     7
420
 16777215
370
     9
100
AcDbVertex
100
AcDb2dVertex
 10
85.6204344823074
 20
-121.0985569141697
 30
0.0
  0
VERTEX
  5
9C
330
9A
100
AcDbEntity
  8
_U+30EC_U+30A4_U+30E4_U+30FC 1
 62
     7
420
 16777215
370
     9
100
AcDbVertex
100
AcDb2dVertex
 10
92.62000402595572
 20
-121.0985569141697
 30
0.0
  0
SEQEND
  5
9D
330
9A
100
AcDbEntity
  8
_U+30EC_U+30A4_U+30E4_U+30FC 1
 62
     7
420
 16777215
370
     9
  0
POLYLINE
  5
9E
330
1F
100
AcDbEntity
  8
_U+30EC_U+30A4_U+30E4_U+30FC 1
 62
     7
420
 16777215
370
     9
100
AcDb2dPolyline
 66
     1
 10
0.0
 20
0.0
 30
0.0
  0
VERTEX
  5
9F
330
9E
100
AcDbEntity
  8
_U+30EC_U+30A4_U+30E4_U+30FC 1
 62
     7
420
 16777215
370
     9
100
AcDbVertex
100
AcDb2dVertex
 10
85.6204344823074
 20
-122.5585983026938
 30
0.0
  0
VERTEX
  5
A0
330
9E
100
AcDbEntity
  8
_U+30EC_U+30A4_U+30E4_U+30FC 1
 62
     7
420
 16777215
370
     9
100
AcDbVertex
100
AcDb2dVertex
 10
85.6204344823074
 20
-120.0987846921975
 30
0.0
  0
SEQEND
  5
A1
330
9E
100
AcDbEntity
  8
_U+30EC_U+30A4_U+30E4_U+30FC 1
 62
     7
420
 16777215
370
     9
  0
POLYLINE
  5
A2
330
1F
100
AcDbEntity
  8
_U+30EC_U+30A4_U+30E4_U+30FC 1
 62
     7
420
 16777215
370
     9
100
AcDb2dPolyline
 66
     1
 10
0.0
 20
0.0
 30
0.0
  0
VERTEX
  5
A3
330
A2
100
AcDbEntity
  8
_U+30EC_U+30A4_U+30E4_U+30FC 1
 62
     7
420
 16777215
370
     9
100
AcDbVertex
100
AcDb2dVertex
 10
92.62000402595572
 20
-130.5587869118049
 30
0.0
  0
VERTEX
  5
A4
330
A2
100
AcDbEntity
  8
_U+30EC_U+30A4_U+30E4_U+30FC 1
 62
     7
420
 16777215
370
     9
100
AcDbVertex
100
AcDb2dVertex
 10
92.62000402595572
 20
-120.0987846921975
 30
0.0
  0
SEQEND
  5
A5
330
A2
100
AcDbEntity
  8
_U+30EC_U+30A4_U+30E4_U+30FC 1
 62
     7
420
 16777215
370
     9
  0
INSERT
  5
A7
330
1F
100
AcDbEntity
  8
_U+30EC_U+30A4_U+30E4_U+30FC 1
100
AcDbBlockReference
  2
block 2
 10
0.0
 20
0.0
 30
0.0
  0
POLYLINE
  5
AC
330
1F
100
AcDbEntity
  8
_U+30EC_U+30A4_U+30E4_U+30FC 1
 62
     7
420
 16777215
370
     9
100
AcDb2dPolyline
 66
     1
 10
0.0
 20
0.0
 30
0.0
  0
VERTEX
  5
AD
330
AC
100
AcDbEntity
  8
_U+30EC_U+30A4_U+30E4_U+30FC 1
 62
     7
420
 16777215
370
     9
100
AcDbVertex
100
AcDb2dVertex
 10
96.6204686461176
 20
-125.0986688576141
 30
0.0
  0
VERTEX
  5
AE
330
AC
100
AcDbEntity
  8
_U+30EC_U+30A4_U+30E4_U+30FC 1
 62
     7
420
 16777215
370
     9
100
AcDbVertex
100
AcDb2dVertex
 10
96.6204686461176
 20
-132.0987324669755
 30
0.0
  0
SEQEND
  5
AF
330
AC
100
AcDbEntity
  8
_U+30EC_U+30A4_U+30E4_U+30FC 1
 62
     7
420
 16777215
370
     9
  0
POLYLINE
  5
B0
330
1F
100
AcDbEntity
  8
_U+30EC_U+30A4_U+30E4_U+30FC 1
 62
     7
420
 16777215
370
     9
100
AcDb2dPolyline
 66
     1
 10
0.0
 20
0.0
 30
0.0
  0
VERTEX
  5
B1
330
B0
100
AcDbEntity
  8
_U+30EC_U+30A4_U+30E4_U+30FC 1
 62
     7
420
 16777215
370
     9
100
AcDbVertex
100
AcDb2dVertex
 10
87.16006249858377
 20
-125.0986688576141
 30
0.0
  0
VERTEX
  5
B2
330
B0
100
AcDbEntity
  8
_U+30EC_U+30A4_U+30E4_U+30FC 1
 62
     7
420
 16777215
370
     9
100
AcDbVertex
100
AcDb2dVertex
 10
97.62024084283351
 20
-125.0986688576141
 30
0.0
  0
SEQEND
  5
B3
330
B0
100
AcDbEntity
  8
_U+30EC_U+30A4_U+30E4_U+30FC 1
 62
     7
420
 16777215
370
     9
  0
POLYLINE
  5
B4
330
1F
100
AcDbEntity
  8
_U+30EC_U+30A4_U+30E4_U+30FC 1
 62
     7
420
 16777215
370
     9
100
AcDb2dPolyline
 66
     1
 10
0.0
 20
0.0
 30
0.0
  0
VERTEX
  5
B5
330
B4
100
AcDbEntity
  8
_U+30EC_U+30A4_U+30E4_U+30FC 1
 62
     7
420
 16777215
370
     9
100
AcDbVertex
100
AcDb2dVertex
 10
95.16042729447746
 20
-133.0985046889475
 30
0.0
  0
VERTEX
  5
B6
330
B4
100
AcDbEntity
  8
_U+30EC_U+30A4_U+30E4_U+30FC 1
 62
     7
420
 16777215
370
     9
100
AcDbVertex
100
AcDb2dVertex
 10
97.62024084283351
 20
-133.0985046889475
 30
0.0
  0
SEQEND
  5
B7
330
B4
100
AcDbEntity
  8
_U+30EC_U+30A4_U+30E4_U+30FC 1
 62
     7
420
 16777215
370
     9
  0
INSERT
  5
B9
330
1F
100
AcDbEntity
  8
_U+30EC_U+30A4_U+30E4_U+30FC 1
100
AcDbBlockReference
  2
block 3
 10
0.0
 20
0.0
 30
0.0
  0
POLYLINE
  5
BE
330
1F
100
AcDbEntity
  8
_U+30EC_U+30A4_U+30E4_U+30FC 1
 62
     7
420
 16777215
370
     9
100
AcDb2dPolyline
 66
     1
 10
0.0
 20
0.0
 30
0.0
  0
VERTEX
  5
BF
330
BE
100
AcDbEntity
  8
_U+30EC_U+30A4_U+30E4_U+30FC 1
 62
     7
420
 16777215
370
     9
100
AcDbVertex
100
AcDb2dVertex
 10
85.62008170453862
 20
-129.0987455232806
 30
0.0
  0
VERTEX
  5
C0
330
BE
100
AcDbEntity
  8
_U+30EC_U+30A4_U+30E4_U+30FC 1
 62
     7
420
 16777215
370
     9
100
AcDbVertex
100
AcDb2dVertex
 10
89.39039410834994
 20
-129.0987455232806
 30
0.0
  0
SEQEND
  5
C1
330
BE
100
AcDbEntity
  8
_U+30EC_U+30A4_U+30E4_U+30FC 1
 62
     7
420
 16777215
370
     9
  0
POLYLINE
  5
C2
330
1F
100
AcDbEntity
  8
_U+30EC_U+30A4_U+30E4_U+30FC 1
 62
     7
420
 16777215
370
     9
100
AcDb2dPolyline
 66
     1
 10
0.0
 20
0.0
 30
0.0
  0
VERTEX
  5
C3
330
C2
100
AcDbEntity
  8
_U+30EC_U+30A4_U+30E4_U+30FC 1
 62
     7
420
 16777215
370
     9
100
AcDbVertex
100
AcDb2dVertex
 10
85.62008170453862
 20
-129.0987455232806
 30
0.0
  0
VERTEX
  5
C4
330
C2
100
AcDbEntity
  8
_U+30EC_U+30A4_U+30E4_U+30FC 1
 62
     7
420
 16777215
370
     9
100
AcDbVertex
100
AcDb2dVertex
 10
83.62021981111491
 20
-129.0987455232806
 30
0.0
  0
SEQEND
  5
C5
330
C2
100
AcDbEntity
  8
_U+30EC_U+30A4_U+30E4_U+30FC 1
 62
     7
420
 16777215
370
     9
  0
POLYLINE
  5
C6
330
1F
100
AcDbEntity
  8
_U+30EC_U+30A4_U+30E4_U+30FC 1
 62
     7
420
 16777215
370
     9
100
AcDb2dPolyline
 66
     1
 10
0.0
 20
0.0
 30
0.0
  0
VERTEX
  5
C7
330
C6
100
AcDbEntity
  8
_U+30EC_U+30A4_U+30E4_U+30FC 1
 62
     7
420
 16777215
370
     9
100
AcDbVertex
100
AcDb2dVertex
 10
85.62008170453862
 20
-131.6384633004237
 30
0.0
  0
VERTEX
  5
C8
330
C6
100
AcDbEntity
  8
_U+30EC_U+30A4_U+30E4_U+30FC 1
 62
     7
420
 16777215
370
     9
100
AcDbVertex
100
AcDb2dVertex
 10
85.62008170453862
 20
-129.0997685788363
 30
0.0
  0
SEQEND
  5
C9
330
C6
100
AcDbEntity
  8
_U+30EC_U+30A4_U+30E4_U+30FC 1
 62
     7
420
 16777215
370
     9
  0
POLYLINE
  5
CA
330
1F
100
AcDbEntity
  8
_U+30EC_U+30A4_U+30E4_U+30FC 1
 62
     7
420
 16777215
370
     9
100
AcDb2dPolyline
 66
     1
 10
0.0
 20
0.0
 30
0.0
  0
VERTEX
  5
CB
330
CA
100
AcDbEntity
  8
_U+30EC_U+30A4_U+30E4_U+30FC 1
 62
     7
420
 16777215
370
     9
100
AcDbVertex
100
AcDb2dVertex
 10
84.6203447855996
 20
-131.6384633004237
 30
0.0
  0
VERTEX
  5
CC
330
CA
100
AcDbEntity
  8
_U+30EC_U+30A4_U+30E4_U+30FC 1
 62
     7
420
 16777215
370
     9
100
AcDbVertex
100
AcDb2dVertex
 10
84.6203447855996
 20
-129.0997685788363
 30
0.0
  0
SEQEND
  5
CD
330
CA
100
AcDbEntity
  8
_U+30EC_U+30A4_U+30E4_U+30FC 1
 62
     7
420
 16777215
370
     9
  0
INSERT
  5
CF
330
1F
100
AcDbEntity
  8
_U+30EC_U+30A4_U+30E4_U+30FC 1
100
AcDbBlockReference
  2
block 4
 10
0.0
 20
0.0
 30
0.0
  0
POLYLINE
  5
D4
330
1F
100
AcDbEntity
  8
_U+30EC_U+30A4_U+30E4_U+30FC 1
 62
     7
420
 16777215
370
     9
100
AcDb2dPolyline
 66
     1
 10
0.0
 20
0.0
 30
0.0
  0
VERTEX
  5
D5
330
D4
100
AcDbEntity
  8
_U+30EC_U+30A4_U+30E4_U+30FC 1
 62
     7
420
 16777215
370
     9
100
AcDbVertex
100
AcDb2dVertex
 10
80.32016017308422
 20
-141.3987660757612
 30
0.0
  0
VERTEX
  5
D6
330
D4
100
AcDbEntity
  8
_U+30EC_U+30A4_U+30E4_U+30FC 1
 62
     7
420
 16777215
370
     9
100
AcDbVertex
100
AcDb2dVertex
 10
102.8202583076285
 20
-141.3987660757612
 30
0.0
  0
SEQEND
  5
D7
330
D4
100
AcDbEntity
  8
_U+30EC_U+30A4_U+30E4_U+30FC 1
 62
     7
420
 16777215
370
     9
  0
POLYLINE
  5
D8
330
1F
100
AcDbEntity
  8
_U+30EC_U+30A4_U+30E4_U+30FC 1
 62
     7
420
 16777215
370
     9
100
AcDb2dPolyline
 66
     1
 10
0.0
 20
0.0
 30
0.0
  0
VERTEX
  5
D9
330
D8
100
AcDbEntity
  8
_U+30EC_U+30A4_U+30E4_U+30FC 1
 62
     7
420
 16777215
370
     9
100
AcDbVertex
100
AcDb2dVertex
 10
80.32016017308422
 20
-136.4030446881215
 30
0.0
  0
VERTEX
  5
DA
330
D8
100
AcDbEntity
  8
_U+30EC_U+30A4_U+30E4_U+30FC 1
 62
     7
420
 16777215
370
     9
100
AcDbVertex
100
AcDb2dVertex
 10
80.32016017308422
 20
-142.3985382977338
 30
0.0
  0
SEQEND
  5
DB
330
D8
100
AcDbEntity
  8
_U+30EC_U+30A4_U+30E4_U+30FC 1
 62
     7
420
 16777215
370
     9
  0
POLYLINE
  5
DC
330
1F
100
AcDbEntity
  8
_U+30EC_U+30A4_U+30E4_U+30FC 1
 62
     7
420
 16777215
370
     9
100
AcDb2dPolyline
 66
     1
 10
0.0
 20
0.0
 30
0.0
  0
VERTEX
  5
DD
330
DC
100
AcDbEntity
  8
_U+30EC_U+30A4_U+30E4_U+30FC 1
 62
     7
420
 16777215
370
     9
100
AcDbVertex
100
AcDb2dVertex
 10
102.8202583076285
 20
-139.9387599650151
 30
0.0
  0
VERTEX
  5
DE
330
DC
100
AcDbEntity
  8
_U+30EC_U+30A4_U+30E4_U+30FC 1
 62
     7
420
 16777215
370
     9
100
AcDbVertex
100
AcDb2dVertex
 10
102.8202583076285
 20
-142.3985382977338
 30
0.0
  0
SEQEND
  5
DF
330
DC
100
AcDbEntity
  8
_U+30EC_U+30A4_U+30E4_U+30FC 1
 62
     7
420
 16777215
370
     9
  0
INSERT
  5
E1
330
1F
100
AcDbEntity
  8
_U+30EC_U+30A4_U+30E4_U+30FC 1
100
AcDbBlockReference
  2
block 5
 10
0.0
 20
0.0
 30
0.0
  0
POLYLINE
  5
F2
330
1F
100
AcDbEntity
  8
_U+30EC_U+30A4_U+30E4_U+30FC 1
 62
     7
420
 16777215
370
     9
100
AcDb2dPolyline
 66
     1
 10
0.0
 20
0.0
 30
0.0
  0
VERTEX
  5
F3
330
F2
100
AcDbEntity
  8
_U+30EC_U+30A4_U+30E4_U+30FC 1
 62
     7
420
 16777215
370
     9
100
AcDbVertex
100
AcDb2dVertex
 10
76.32004833069114
 20
-119.8986185811365
 30
0.0
  0
VERTEX
  5
F4
330
F2
100
AcDbEntity
  8
_U+30EC_U+30A4_U+30E4_U+30FC 1
 62
     7
420
 16777215
370
     9
100
AcDbVertex
100
AcDb2dVertex
 10
76.32004833069114
 20
-137.3986894100948
 30
0.0
  0
SEQEND
  5
F5
330
F2
100
AcDbEntity
  8
_U+30EC_U+30A4_U+30E4_U+30FC 1
 62
     7
420
 16777215
370
     9
  0
POLYLINE
  5
F6
330
1F
100
AcDbEntity
  8
_U+30EC_U+30A4_U+30E4_U+30FC 1
 62
     7
420
 16777215
370
     9
100
AcDb2dPolyline
 66
     1
 10
0.0
 20
0.0
 30
0.0
  0
VERTEX
  5
F7
330
F6
100
AcDbEntity
  8
_U+30EC_U+30A4_U+30E4_U+30FC 1
 62
     7
420
 16777215
370
     9
100
AcDbVertex
100
AcDb2dVertex
 10
77.78009164722174
 20
-119.8986185811365
 30
0.0
  0
VERTEX
  5
F8
330
F6
100
AcDbEntity
  8
_U+30EC_U+30A4_U+30E4_U+30FC 1
 62
     7
420
 16777215
370
     9
100
AcDbVertex
100
AcDb2dVertex
 10
75.32027613397523
 20
-119.8986185811365
 30
0.0
  0
SEQEND
  5
F9
330
F6
100
AcDbEntity
  8
_U+30EC_U+30A4_U+30E4_U+30FC 1
 62
     7
420
 16777215
370
     9
  0
POLYLINE
  5
FA
330
1F
100
AcDbEntity
  8
_U+30EC_U+30A4_U+30E4_U+30FC 1
 62
     7
420
 16777215
370
     9
100
AcDb2dPolyline
 66
     1
 10
0.0
 20
0.0
 30
0.0
  0
VERTEX
  5
FB
330
FA
100
AcDbEntity
  8
_U+30EC_U+30A4_U+30E4_U+30FC 1
 62
     7
420
 16777215
370
     9
100
AcDbVertex
100
AcDb2dVertex
 10
81.31580486990543
 20
-137.3986894100948
 30
0.0
  0
VERTEX
  5
FC
330
FA
100
AcDbEntity
  8
_U+30EC_U+30A4_U+30E4_U+30FC 1
 62
     7
420
 16777215
370
     9
100
AcDbVertex
100
AcDb2dVertex
 10
75.32027613397523
 20
-137.3986894100948
 30
0.0
  0
SEQEND
  5
FD
330
FA
100
AcDbEntity
  8
_U+30EC_U+30A4_U+30E4_U+30FC 1
 62
     7
420
 16777215
370
     9
  0
INSERT
  5
FF
330
1F
100
AcDbEntity
  8
_U+30EC_U+30A4_U+30E4_U+30FC 1
100
AcDbBlockReference
  2
block 6
 10
0.0
 20
0.0
 30
0.0
  0
POLYLINE
  5
110
330
1F
100
AcDbEntity
  8
_U+30EC_U+30A4_U+30E4_U+30FC 1
 62
     7
420
 16777215
370
     9
100
AcDb2dPolyline
 66
     1
 10
0.0
 20
0.0
 30
0.0
  0
VERTEX
  5
111
330
110
100
AcDbEntity
  8
_U+30EC_U+30A4_U+30E4_U+30FC 1
 62
     7
420
 16777215
370
     9
100
AcDbVertex
100
AcDb2dVertex
 10
78.19901328275475
 20
-143.0555163531247
 30
0.0
  0
VERTEX
  5
112
330
110
100
AcDbEntity
  8
_U+30EC_U+30A4_U+30E4_U+30FC 1
 62
     7
420
 16777215
370
     9
100
AcDbVertex
100
AcDb2dVertex
 10
74.66329998133426
 20
-139.5198363540087
 30
0.0
  0
SEQEND
  5
113
330
110
100
AcDbEntity
  8
_U+30EC_U+30A4_U+30E4_U+30FC 1
 62
     7
420
 16777215
370
     9
  0
POLYLINE
  5
114
330
1F
100
AcDbEntity
  8
_U+30EC_U+30A4_U+30E4_U+30FC 1
 62
     7
420
 16777215
370
     9
100
AcDb2dPolyline
 66
     1
 10
0.0
 20
0.0
 30
0.0
  0
VERTEX
  5
115
330
114
100
AcDbEntity
  8
_U+30EC_U+30A4_U+30E4_U+30FC 1
 62
     7
420
 16777215
370
     9
100
AcDbVertex
100
AcDb2dVertex
 10
82.05960151759626
 20
-139.1946105207569
 30
0.0
  0
VERTEX
  5
116
330
114
100
AcDbEntity
  8
_U+30EC_U+30A4_U+30E4_U+30FC 1
 62
     7
420
 16777215
370
     9
100
AcDbVertex
100
AcDb2dVertex
 10
77.4917291341324
 20
-143.7624477418374
 30
0.0
  0
SEQEND
  5
117
330
114
100
AcDbEntity
  8
_U+30EC_U+30A4_U+30E4_U+30FC 1
 62
     7
420
 16777215
370
     9
  0
POLYLINE
  5
118
330
1F
100
AcDbEntity
  8
_U+30EC_U+30A4_U+30E4_U+30FC 1
 62
     7
420
 16777215
370
     9
100
AcDb2dPolyline
 66
     1
 10
0.0
 20
0.0
 30
0.0
  0
VERTEX
  5
119
330
118
100
AcDbEntity
  8
_U+30EC_U+30A4_U+30E4_U+30FC 1
 62
     7
420
 16777215
370
     9
100
AcDbVertex
100
AcDb2dVertex
 10
78.52423910779088
 20
-135.6592480216405
 30
0.0
  0
VERTEX
  5
11A
330
118
100
AcDbEntity
  8
_U+30EC_U+30A4_U+30E4_U+30FC 1
 62
     7
420
 16777215
370
     9
100
AcDbVertex
100
AcDb2dVertex
 10
73.9560492243351
 20
-140.227085242721
 30
0.0
  0
SEQEND
  5
11B
330
118
100
AcDbEntity
  8
_U+30EC_U+30A4_U+30E4_U+30FC 1
 62
     7
420
 16777215
370
     9
  0
INSERT
  5
11D
330
1F
100
AcDbEntity
  8
_U+30EC_U+30A4_U+30E4_U+30FC 1
100
AcDbBlockReference
  2
block 7
 10
0.0
 20
0.0
 30
0.0
  0
POLYLINE
  5
122
330
1F
100
AcDbEntity
  8
_U+30EC_U+30A4_U+30E4_U+30FC 1
 62
     7
420
 16777215
370
     9
100
AcDb2dPolyline
 66
     1
 10
0.0
 20
0.0
 30
0.0
  0
VERTEX
  5
123
330
122
100
AcDbEntity
  8
_U+30EC_U+30A4_U+30E4_U+30FC 1
 62
     7
420
 16777215
370
     9
100
AcDbVertex
100
AcDb2dVertex
 10
106.8200147747944
 20
-136.5987305214061
 30
0.0
  0
VERTEX
  5
124
330
122
100
AcDbEntity
  8
_U+30EC_U+30A4_U+30E4_U+30FC 1
 62
     7
420
 16777215
370
     9
100
AcDbVertex
100
AcDb2dVertex
 10
106.8200147747944
 20
-141.8562835756473
 30
0.0
  0
SEQEND
  5
125
330
122
100
AcDbEntity
  8
_U+30EC_U+30A4_U+30E4_U+30FC 1
 62
     7
420
 16777215
370
     9
  0
POLYLINE
  5
126
330
1F
100
AcDbEntity
  8
_U+30EC_U+30A4_U+30E4_U+30FC 1
 62
     7
420
 16777215
370
     9
100
AcDb2dPolyline
 66
     1
 10
0.0
 20
0.0
 30
0.0
  0
VERTEX
  5
127
330
126
100
AcDbEntity
  8
_U+30EC_U+30A4_U+30E4_U+30FC 1
 62
     7
420
 16777215
370
     9
100
AcDbVertex
100
AcDb2dVertex
 10
106.8200147747944
 20
-136.5987305214061
 30
0.0
  0
VERTEX
  5
128
330
126
100
AcDbEntity
  8
_U+30EC_U+30A4_U+30E4_U+30FC 1
 62
     7
420
 16777215
370
     9
100
AcDbVertex
100
AcDb2dVertex
 10
106.8200147747944
 20
-133.0985046889475
 30
0.0
  0
SEQEND
  5
129
330
126
100
AcDbEntity
  8
_U+30EC_U+30A4_U+30E4_U+30FC 1
 62
     7
420
 16777215
370
     9
  0
POLYLINE
  5
12A
330
1F
100
AcDbEntity
  8
_U+30EC_U+30A4_U+30E4_U+30FC 1
 62
     7
420
 16777215
370
     9
100
AcDb2dPolyline
 66
     1
 10
0.0
 20
0.0
 30
0.0
  0
VERTEX
  5
12B
330
12A
100
AcDbEntity
  8
_U+30EC_U+30A4_U+30E4_U+30FC 1
 62
     7
420
 16777215
370
     9
100
AcDbVertex
100
AcDb2dVertex
 10
105.1519050951292
 20
-136.5987305214061
 30
0.0
  0
VERTEX
  5
12C
330
12A
100
AcDbEntity
  8
_U+30EC_U+30A4_U+30E4_U+30FC 1
 62
     7
420
 16777215
370
     9
100
AcDbVertex
100
AcDb2dVertex
 10
107.820457249271
 20
-136.5987305214061
 30
0.0
  0
SEQEND
  5
12D
330
12A
100
AcDbEntity
  8
_U+30EC_U+30A4_U+30E4_U+30FC 1
 62
     7
420
 16777215
370
     9
  0
POLYLINE
  5
12E
330
1F
100
AcDbEntity
  8
_U+30EC_U+30A4_U+30E4_U+30FC 1
 62
     7
420
 16777215
370
     9
100
AcDb2dPolyline
 66
     1
 10
0.0
 20
0.0
 30
0.0
  0
VERTEX
  5
12F
330
12E
100
AcDbEntity
  8
_U+30EC_U+30A4_U+30E4_U+30FC 1
 62
     7
420
 16777215
370
     9
100
AcDbVertex
100
AcDb2dVertex
 10
95.16042729447746
 20
-133.0985046889475
 30
0.0
  0
VERTEX
  5
130
330
12E
100
AcDbEntity
  8
_U+30EC_U+30A4_U+30E4_U+30FC 1
 62
     7
420
 16777215
370
     9
100
AcDbVertex
100
AcDb2dVertex
 10
107.820457249271
 20
-133.0985046889475
 30
0.0
  0
SEQEND
  5
131
330
12E
100
AcDbEntity
  8
_U+30EC_U+30A4_U+30E4_U+30FC 1
 62
     7
420
 16777215
370
     9
  0
INSERT
  5
133
330
1F
100
AcDbEntity
  8
_U+30EC_U+30A4_U+30E4_U+30FC 1
100
AcDbBlockReference
  2
block 8
 10
0.0
 20
0.0
 30
0.0
  0
POLYLINE
  5
142
330
1F
100
AcDbEntity
  8
_U+30EC_U+30A4_U+30E4_U+30FC 1
 62
     7
420
 16777215
370
     9
100
AcDb2dPolyline
 66
     1
 10
0.0
 20
0.0
 30
0.0
  0
VERTEX
  5
143
330
142
100
AcDbEntity
  8
_U+30EC_U+30A4_U+30E4_U+30FC 1
 62
     7
420
 16777215
370
     9
100
AcDbVertex
100
AcDb2dVertex
 10
81.12011904156446
 20
-115.8981891376922
 30
0.0
  0
VERTEX
  5
144
330
142
100
AcDbEntity
  8
_U+30EC_U+30A4_U+30E4_U+30FC 1
 62
     7
420
 16777215
370
     9
100
AcDbVertex
100
AcDb2dVertex
 10
86.37802474075744
 20
-115.8981891376922
 30
0.0
  0
SEQEND
  5
145
330
142
100
AcDbEntity
  8
_U+30EC_U+30A4_U+30E4_U+30FC 1
 62
     7
420
 16777215
370
     9
  0
POLYLINE
  5
146
330
1F
100
AcDbEntity
  8
_U+30EC_U+30A4_U+30E4_U+30FC 1
 62
     7
420
 16777215
370
     9
100
AcDb2dPolyline
 66
     1
 10
0.0
 20
0.0
 30
0.0
  0
VERTEX
  5
147
330
146
100
AcDbEntity
  8
_U+30EC_U+30A4_U+30E4_U+30FC 1
 62
     7
420
 16777215
370
     9
100
AcDbVertex
100
AcDb2dVertex
 10
79.32003519859954
 20
-115.8981891376922
 30
0.0
  0
VERTEX
  5
148
330
146
100
AcDbEntity
  8
_U+30EC_U+30A4_U+30E4_U+30FC 1
 62
     7
420
 16777215
370
     9
100
AcDbVertex
100
AcDb2dVertex
 10
81.12011904156446
 20
-115.8981891376922
 30
0.0
  0
SEQEND
  5
149
330
146
100
AcDbEntity
  8
_U+30EC_U+30A4_U+30E4_U+30FC 1
 62
     7
420
 16777215
370
     9
  0
POLYLINE
  5
14A
330
1F
100
AcDbEntity
  8
_U+30EC_U+30A4_U+30E4_U+30FC 1
 62
     7
420
 16777215
370
     9
100
AcDb2dPolyline
 66
     1
 10
0.0
 20
0.0
 30
0.0
  0
VERTEX
  5
14B
330
14A
100
AcDbEntity
  8
_U+30EC_U+30A4_U+30E4_U+30FC 1
 62
     7
420
 16777215
370
     9
100
AcDbVertex
100
AcDb2dVertex
 10
80.32016017308422
 20
-117.3585480262159
 30
0.0
  0
VERTEX
  5
14C
330
14A
100
AcDbEntity
  8
_U+30EC_U+30A4_U+30E4_U+30FC 1
 62
     7
420
 16777215
370
     9
100
AcDbVertex
100
AcDb2dVertex
 10
80.32016017308422
 20
-114.8980641379423
 30
0.0
  0
SEQEND
  5
14D
330
14A
100
AcDbEntity
  8
_U+30EC_U+30A4_U+30E4_U+30FC 1
 62
     7
420
 16777215
370
     9
  0
POLYLINE
  5
14E
330
1F
100
AcDbEntity
  8
_U+30EC_U+30A4_U+30E4_U+30FC 1
 62
     7
420
 16777215
370
     9
100
AcDb2dPolyline
 66
     1
 10
0.0
 20
0.0
 30
0.0
  0
VERTEX
  5
14F
330
14E
100
AcDbEntity
  8
_U+30EC_U+30A4_U+30E4_U+30FC 1
 62
     7
420
 16777215
370
     9
100
AcDbVertex
100
AcDb2dVertex
 10
81.12011904156446
 20
-117.5673219150526
 30
0.0
  0
VERTEX
  5
150
330
14E
100
AcDbEntity
  8
_U+30EC_U+30A4_U+30E4_U+30FC 1
 62
     7
420
 16777215
370
     9
100
AcDbVertex
100
AcDb2dVertex
 10
81.12011904156446
 20
-114.8980641379423
 30
0.0
  0
SEQEND
  5
151
330
14E
100
AcDbEntity
  8
_U+30EC_U+30A4_U+30E4_U+30FC 1
 62
     7
420
 16777215
370
     9
  0
INSERT
  5
153
330
1F
100
AcDbEntity
  8
_U+30EC_U+30A4_U+30E4_U+30FC 1
100
AcDbBlockReference
  2
block 9
 10
0.0
 20
0.0
 30
0.0
  0
POLYLINE
  5
165
330
1F
100
AcDbEntity
  8
_U+30EC_U+30A4_U+30E4_U+30FC 1
 62
     7
420
 16777215
370
     9
100
AcDb2dPolyline
 66
     1
 10
0.0
 20
0.0
 30
0.0
  0
VERTEX
  5
166
330
165
100
AcDbEntity
  8
_U+30EC_U+30A4_U+30E4_U+30FC 1
 62
     7
420
 16777215
370
     9
100
AcDbVertex
100
AcDb2dVertex
 10
95.16042729447746
 20
-132.0987324669755
 30
0.0
  0
VERTEX
  5
167
330
165
100
AcDbEntity
  8
_U+30EC_U+30A4_U+30E4_U+30FC 1
 62
     7
420
 16777215
370
     9
100
AcDbVertex
100
AcDb2dVertex
 10
97.62024084283351
 20
-132.0987324669755
 30
0.0
  0
SEQEND
  5
168
330
165
100
AcDbEntity
  8
_U+30EC_U+30A4_U+30E4_U+30FC 1
 62
     7
420
 16777215
370
     9
  0
POLYLINE
  5
169
330
1F
100
AcDbEntity
  8
_U+30EC_U+30A4_U+30E4_U+30FC 1
 62
   179
420
  2234388
370
     9
100
AcDb2dPolyline
 66
     1
 10
0.0
 20
0.0
 30
0.0
  0
VERTEX
  5
16A
330
169
100
AcDbEntity
  8
_U+30EC_U+30A4_U+30E4_U+30FC 1
 62
   179
420
  2234388
370
     9
100
AcDbVertex
100
AcDb2dVertex
 10
85.7775264227441
 20
-131.8389821892625
 30
0.0
  0
VERTEX
  5
16B
330
169
100
AcDbEntity
  8
_U+30EC_U+30A4_U+30E4_U+30FC 1
 62
   179
420
  2234388
370
     9
100
AcDbVertex
100
AcDb2dVertex
 10
86.29910835388188
 20
-130.9356946894885
 30
0.0
  0
SEQEND
  5
16C
330
169
100
AcDbEntity
  8
_U+30EC_U+30A4_U+30E4_U+30FC 1
 62
   179
420
  2234388
370
     9
  0
POLYLINE
  5
16D
330
1F
100
AcDbEntity
  8
_U+30EC_U+30A4_U+30E4_U+30FC 1
 62
   179
420
  2234388
370
     9
100
AcDb2dPolyline
 66
     1
 10
0.0
 20
0.0
 30
0.0
  0
VERTEX
  5
16E
330
16D
100
AcDbEntity
  8
_U+30EC_U+30A4_U+30E4_U+30FC 1
 62
   179
420
  2234388
370
     9
100
AcDbVertex
100
AcDb2dVertex
 10
85.7775264227441
 20
-131.8389821892625
 30
0.0
  0
VERTEX
  5
16F
330
16D
100
AcDbEntity
  8
_U+30EC_U+30A4_U+30E4_U+30FC 1
 62
   179
420
  2234388
370
     9
100
AcDbVertex
100
AcDb2dVertex
 10
87.1955519421228
 20
-130.4836805229346
 30
0.0
  0
SEQEND
  5
170
330
16D
100
AcDbEntity
  8
_U+30EC_U+30A4_U+30E4_U+30FC 1
 62
   179
420
  2234388
370
     9
  0
POLYLINE
  5
171
330
1F
100
AcDbEntity
  8
_U+30EC_U+30A4_U+30E4_U+30FC 1
 62
   179
420
  2234388
370
     9
100
AcDb2dPolyline
 66
     1
 10
0.0
 20
0.0
 30
0.0
  0
VERTEX
  5
172
330
171
100
AcDbEntity
  8
_U+30EC_U+30A4_U+30E4_U+30FC 1
 62
   179
420
  2234388
370
     9
100
AcDbVertex
100
AcDb2dVertex
 10
85.7775264227441
 20
-131.8389821892625
 30
0.0
  0
VERTEX
  5
173
330
171
100
AcDbEntity
  8
_U+30EC_U+30A4_U+30E4_U+30FC 1
 62
   179
420
  2234388
370
     9
100
AcDbVertex
100
AcDb2dVertex
 10
86.68014362193864
 20
-131.3174002449487
 30
0.0
  0
SEQEND
  5
174
330
171
100
AcDbEntity
  8
_U+30EC_U+30A4_U+30E4_U+30FC 1
 62
   179
420
  2234388
370
     9
  0
INSERT
  5
176
330
1F
100
AcDbEntity
  8
_U+30EC_U+30A4_U+30E4_U+30FC 1
100
AcDbBlockReference
  2
block 10
 10
0.0
 20
0.0
 30
0.0
  0
ENDSEC
  0
SECTION
  2
OBJECTS
  0
DICTIONARY
  5
C
330
0
100
AcDbDictionary
281
     1
  3
ACAD_GROUP
350
D
  3
ACAD_LAYOUT
350
1A
  3
ACAD_MATERIAL
350
3B
  3
ACAD_MLEADERSTYLE
350
17F
  3
ACAD_MLINESTYLE
350
17
  3
ACAD_PLOTSETTINGS
350
19
  3
ACAD_PLOTSTYLENAME
350
E
  3
ACAD_TABLESTYLE
350
17E
  3
ACAD_VISUALSTYLE
350
2A
  0
SUN
  5
3F
330
29
100
AcDbSun
 90
        1
290
     0
 63
     7
421
 16777215
 40
1.0
291
     1
 91
  2455826
 92
 54000000
292
     0
 70
     2
 71
   256
280
     1
  0
DICTIONARY
  5
D
102
{ACAD_REACTORS
330
C
102
}
330
C
100
AcDbDictionary
281
     1
  0
DICTIONARY
  5
1A
102
{ACAD_REACTORS
330
C
102
}
330
C
100
AcDbDictionary
281
     1
  3
Layout1
350
1E
  3
Layout2
350
26
  3
Model
350
22
  0
DICTIONARY
  5
3B
102
{ACAD_REACTORS
330
C
102
}
330
C
100
AcDbDictionary
281
     1
  3
ByBlock
350
3D
  3
ByLayer
350
3C
  3
Global
350
3E
  0
DICTIONARY
  5
17F
102
{ACAD_REACTORS
330
C
102
}
330
C
100
AcDbDictionary
281
     1
  0
DICTIONARY
  5
17
102
{ACAD_REACTORS
330
C
102
}
330
C
100
AcDbDictionary
281
     1
  3
Standard
350
18
  0
DICTIONARY
  5
19
102
{ACAD_REACTORS
330
C
102
}
330
C
100
AcDbDictionary
281
     1
  0
ACDBDICTIONARYWDFLT
  5
E
102
{ACAD_REACTORS
330
C
102
}
330
C
100
AcDbDictionary
281
     1
  3
Normal
350
F
100
AcDbDictionaryWithDefault
340
F
  0
DICTIONARY
  5
17E
102
{ACAD_REACTORS
330
C
102
}
330
C
100
AcDbDictionary
281
     1
  0
DICTIONARY
  5
2A
102
{ACAD_REACTORS
330
C
102
}
330
C
100
AcDbDictionary
281
     1
  3
2dWireframe
350
2F
  3
3D Hidden
350
31
  3
3dWireframe
350
30
  3
Basic
350
32
  3
Brighten
350
36
  3
ColorChange
350
3A
  3
Conceptual
350
34
  3
Dim
350
35
  3
Facepattern
350
39
  3
Flat
350
2B
  3
FlatWithEdges
350
2C
  3
Gouraud
350
2D
  3
GouraudWithEdges
350
2E
  3
Linepattern
350
38
  3
Realistic
350
33
  3
Thicken
350
37
  0
LAYOUT
  5
1E
102
{ACAD_REACTORS
330
1A
102
}
330
1A
100
AcDbPlotSettings
  1

  2
none_device
  4

  6

 40
0.0
 41
0.0
 42
0.0
 43
0.0
 44
0.0
 45
0.0
 46
0.0
 47
0.0
 48
0.0
 49
0.0
140
0.0
141
0.0
142
1.0
143
1.0
 70
   688
 72
     0
 73
     0
 74
     5
  7

 75
    16
 76
     0
 77
     2
 78
   300
147
1.0
148
0.0
149
0.0
100
AcDbLayout
  1
Layout1
 70
     1
 71
     1
 10
0.0
 20
0.0
 11
12.0
 21
9.0
 12
0.0
 22
0.0
 32
0.0
 14
1.000000000000000E+20
 24
1.000000000000000E+20
 34
1.000000000000000E+20
 15
-1.000000000000000E+20
 25
-1.000000000000000E+20
 35
-1.000000000000000E+20
146
0.0
 13
0.0
 23
0.0
 33
0.0
 16
1.0
 26
0.0
 36
0.0
 17
0.0
 27
1.0
 37
0.0
 76
     0
330
1B
  0
LAYOUT
  5
26
102
{ACAD_REACTORS
330
1A
102
}
330
1A
100
AcDbPlotSettings
  1

  2
none_device
  4

  6

 40
0.0
 41
0.0
 42
0.0
 43
0.0
 44
0.0
 45
0.0
 46
0.0
 47
0.0
 48
0.0
 49
0.0
140
0.0
141
0.0
142
1.0
143
1.0
 70
   688
 72
     0
 73
     0
 74
     5
  7

 75
    16
 76
     0
 77
     2
 78
   300
147
1.0
148
0.0
149
0.0
100
AcDbLayout
  1
Layout2
 70
     1
 71
     2
 10
0.0
 20
0.0
 11
0.0
 21
0.0
 12
0.0
 22
0.0
 32
0.0
 14
0.0
 24
0.0
 34
0.0
 15
0.0
 25
0.0
 35
0.0
146
0.0
 13
0.0
 23
0.0
 33
0.0
 16
1.0
 26
0.0
 36
0.0
 17
0.0
 27
1.0
 37
0.0
 76
     0
330
23
  0
LAYOUT
  5
22
102
{ACAD_REACTORS
330
1A
102
}
330
1A
100
AcDbPlotSettings
  1

  2
none_device
  4

  6

 40
0.0
 41
0.0
 42
0.0
 43
0.0
 44
0.0
 45
0.0
 46
0.0
 47
0.0
 48
0.0
 49
0.0
140
0.0
141
0.0
142
1.0
143
1.0
 70
  1712
 72
     0
 73
     0
 74
     0
  7

 75
     0
 76
     0
 77
     2
 78
   300
147
1.0
148
0.0
149
0.0
100
AcDbLayout
  1
Model
 70
     1
 71
     0
 10
0.0
 20
0.0
 11
12.0
 21
9.0
 12
0.0
 22
0.0
 32
0.0
 14
1.000000000000000E+20
 24
1.000000000000000E+20
 34
1.000000000000000E+20
 15
-1.000000000000000E+20
 25
-1.000000000000000E+20
 35
-1.000000000000000E+20
146
0.0
 13
0.0
 23
0.0
 33
0.0
 16
1.0
 26
0.0
 36
0.0
 17
0.0
 27
1.0
 37
0.0
 76
     0
330
1F
331
29
  0
MATERIAL
  5
3D
102
{ACAD_REACTORS
330
3B
102
}
330
3B
100
AcDbMaterial
  1
ByBlock
 72
     1
 94
      127
  0
MATERIAL
  5
3C
102
{ACAD_REACTORS
330
3B
102
}
330
3B
100
AcDbMaterial
  1
ByLayer
 72
     1
 94
      127
  0
MATERIAL
  5
3E
102
{ACAD_REACTORS
330
3B
102
}
330
3B
100
AcDbMaterial
  1
Global
 72
     1
 94
      127
  0
MLINESTYLE
  5
18
102
{ACAD_REACTORS
330
17
102
}
330
17
100
AcDbMlineStyle
  2
Standard
 70
     0
  3

 62
   256
 51
90.0
 52
90.0
 71
     2
 49
0.5
 62
   256
  6
BYLAYER
 49
-0.5
 62
   256
  6
BYLAYER
  0
ACDBPLACEHOLDER
  5
F
102
{ACAD_REACTORS
330
E
102
}
330
E
  0
VISUALSTYLE
  5
2F
102
{ACAD_REACTORS
330
2A
102
}
330
2A
100
AcDbVisualStyle
  2
2dWireframe
 70
     4
177
     2
291
     0
 71
     0
176
     1
 72
     2
176
     1
 73
     0
176
     1
 90
        0
176
     1
 40
-0.6
176
     1
 41
-30.0
176
     1
 62
     5
 63
     7
421
 16777215
176
     1
 74
     1
176
     1
 91
        4
176
     1
 64
     7
176
     1
 65
   257
176
     1
 75
     1
176
     1
175
     1
176
     1
 42
1.0
176
     1
 92
        0
176
     1
 66
   257
176
     1
 43
1.0
176
     1
 76
     1
176
     1
 77
     6
176
     1
 78
     2
176
     1
 67
     7
176
     1
 79
     5
176
     1
170
     0
176
     1
171
     0
176
     1
290
     0
176
     1
 93
        1
176
     1
 44
0.0
176
     1
173
     0
176
     1
  0
VISUALSTYLE
  5
31
102
{ACAD_REACTORS
330
2A
102
}
330
2A
100
AcDbVisualStyle
  2
3D Hidden
 70
     6
177
     2
291
     0
 71
     1
176
     1
 72
     2
176
     1
 73
     2
176
     1
 90
        0
176
     1
 40
-0.6
176
     1
 41
-30.0
176
     1
 62
     5
 63
     7
421
 16777215
176
     1
 74
     2
176
     1
 91
        2
176
     1
 64
     7
176
     1
 65
   257
176
     1
 75
     2
176
     1
175
     1
176
     1
 42
40.0
176
     1
 92
        0
176
     1
 66
   257
176
     1
 43
1.0
176
     1
 76
     1
176
     1
 77
     6
176
     1
 78
     2
176
     1
 67
     7
176
     1
 79
     3
176
     1
170
     0
176
     1
171
     0
176
     1
290
     0
176
     1
 93
        1
176
     1
 44
0.0
176
     1
173
     0
176
     1
  0
VISUALSTYLE
  5
30
102
{ACAD_REACTORS
330
2A
102
}
330
2A
100
AcDbVisualStyle
  2
3dWireframe
 70
     5
177
     2
291
     0
 71
     0
176
     1
 72
     2
176
     1
 73
     0
176
     1
 90
        0
176
     1
 40
-0.6
176
     1
 41
-30.0
176
     1
 62
     5
 63
     7
421
 16777215
176
     1
 74
     1
176
     1
 91
        4
176
     1
 64
     7
176
     1
 65
   257
176
     1
 75
     1
176
     1
175
     1
176
     1
 42
1.0
176
     1
 92
        0
176
     1
 66
   257
176
     1
 43
1.0
176
     1
 76
     1
176
     1
 77
     6
176
     1
 78
     2
176
     1
 67
     7
176
     1
 79
     5
176
     1
170
     0
176
     1
171
     0
176
     1
290
     0
176
     1
 93
        1
176
     1
 44
0.0
176
     1
173
     0
176
     1
  0
VISUALSTYLE
  5
32
102
{ACAD_REACTORS
330
2A
102
}
330
2A
100
AcDbVisualStyle
  2
Basic
 70
     7
177
     2
291
     1
 71
     1
176
     1
 72
     0
176
     1
 73
     1
176
     1
 90
        0
176
     1
 40
-0.6
176
     1
 41
-30.0
176
     1
 62
     5
 63
     7
421
 16777215
176
     1
 74
     0
176
     1
 91
        4
176
     1
 64
     7
176
     1
 65
   257
176
     1
 75
     1
176
     1
175
     1
176
     1
 42
1.0
176
     1
 92
        8
176
     1
 66
     7
176
     1
 43
1.0
176
     1
 76
     1
176
     1
 77
     6
176
     1
 78
     2
176
     1
 67
     7
176
     1
 79
     5
176
     1
170
     0
176
     1
171
     0
176
     1
290
     0
176
     1
 93
        1
176
     1
 44
0.0
176
     1
173
     0
176
     1
  0
VISUALSTYLE
  5
36
102
{ACAD_REACTORS
330
2A
102
}
330
2A
100
AcDbVisualStyle
  2
Brighten
 70
    12
177
     2
291
     1
 71
     2
176
     1
 72
     2
176
     1
 73
     0
176
     1
 90
        0
176
     1
 40
-0.6
176
     1
 41
-30.0
176
     1
 62
     5
 63
     7
421
 16777215
176
     1
 74
     1
176
     1
 91
        4
176
     1
 64
     7
176
     1
 65
   257
176
     1
 75
     1
176
     1
175
     1
176
     1
 42
1.0
176
     1
 92
        8
176
     1
 66
     7
176
     1
 43
1.0
176
     1
 76
     1
176
     1
 77
     6
176
     1
 78
     2
176
     1
 67
     7
176
     1
 79
     5
176
     1
170
     0
176
     1
171
     0
176
     1
290
     0
176
     1
 93
        1
176
     1
 44
50.0
176
     1
173
     0
176
     1
  0
VISUALSTYLE
  5
3A
102
{ACAD_REACTORS
330
2A
102
}
330
2A
100
AcDbVisualStyle
  2
ColorChange
 70
    16
177
     2
291
     1
 71
     2
176
     1
 72
     2
176
     1
 73
     3
176
     1
 90
        0
176
     1
 40
-0.6
176
     1
 41
-30.0
176
     1
 62
     5
 63
     8
421
  8421504
176
     1
 74
     1
176
     1
 91
        4
176
     1
 64
     7
176
     1
 65
   257
176
     1
 75
     1
176
     1
175
     1
176
     1
 42
1.0
176
     1
 92
        8
176
     1
 66
     8
424
  8421504
176
     1
 43
1.0
176
     1
 76
     1
176
     1
 77
     6
176
     1
 78
     2
176
     1
 67
     7
176
     1
 79
     5
176
     1
170
     0
176
     1
171
     0
176
     1
290
     0
176
     1
 93
        1
176
     1
 44
0.0
176
     1
173
     0
176
     1
  0
VISUALSTYLE
  5
34
102
{ACAD_REACTORS
330
2A
102
}
330
2A
100
AcDbVisualStyle
  2
Conceptual
 70
     9
177
     2
291
     0
 71
     3
176
     1
 72
     2
176
     1
 73
     0
176
     1
 90
        0
176
     1
 40
-0.6
176
     1
 41
-30.0
176
     1
 62
     5
 63
     7
421
 16777215
176
     1
 74
     2
176
     1
 91
        2
176
     1
 64
     7
176
     1
 65
   257
176
     1
 75
     1
176
     1
175
     1
176
     1
 42
40.0
176
     1
 92
        8
176
     1
 66
     7
176
     1
 43
1.0
176
     1
 76
     1
176
     1
 77
     6
176
     1
 78
     2
176
     1
 67
     7
176
     1
 79
     3
176
     1
170
     0
176
     1
171
     0
176
     1
290
     0
176
     1
 93
        1
176
     1
 44
0.0
176
     1
173
     0
176
     1
  0
VISUALSTYLE
  5
35
102
{ACAD_REACTORS
330
2A
102
}
330
2A
100
AcDbVisualStyle
  2
Dim
 70
    11
177
     2
291
     1
 71
     2
176
     1
 72
     2
176
     1
 73
     0
176
     1
 90
        0
176
     1
 40
-0.6
176
     1
 41
-30.0
176
     1
 62
     5
 63
     7
421
 16777215
176
     1
 74
     1
176
     1
 91
        4
176
     1
 64
     7
176
     1
 65
   257
176
     1
 75
     1
176
     1
175
     1
176
     1
 42
1.0
176
     1
 92
        8
176
     1
 66
     7
176
     1
 43
1.0
176
     1
 76
     1
176
     1
 77
     6
176
     1
 78
     2
176
     1
 67
     7
176
     1
 79
     5
176
     1
170
     0
176
     1
171
     0
176
     1
290
     0
176
     1
 93
        1
176
     1
 44
-50.0
176
     1
173
     0
176
     1
  0
VISUALSTYLE
  5
39
102
{ACAD_REACTORS
330
2A
102
}
330
2A
100
AcDbVisualStyle
  2
Facepattern
 70
    15
177
     2
291
     1
 71
     2
176
     1
 72
     2
176
     1
 73
     0
176
     1
 90
        0
176
     1
 40
-0.6
176
     1
 41
-30.0
176
     1
 62
     5
 63
     7
421
 16777215
176
     1
 74
     1
176
     1
 91
        4
176
     1
 64
     7
176
     1
 65
   257
176
     1
 75
     1
176
     1
175
     1
176
     1
 42
1.0
176
     1
 92
        8
176
     1
 66
     7
176
     1
 43
1.0
176
     1
 76
     1
176
     1
 77
     6
176
     1
 78
     2
176
     1
 67
     7
176
     1
 79
     5
176
     1
170
     0
176
     1
171
     0
176
     1
290
     0
176
     1
 93
        1
176
     1
 44
0.0
176
     1
173
     0
176
     1
  0
VISUALSTYLE
  5
2B
102
{ACAD_REACTORS
330
2A
102
}
330
2A
100
AcDbVisualStyle
  2
Flat
 70
     0
177
     2
291
     1
 71
     2
176
     1
 72
     1
176
     1
 73
     1
176
     1
 90
        2
176
     1
 40
-0.6
176
     1
 41
30.0
176
     1
 62
     5
 63
     7
421
 16777215
176
     1
 74
     0
176
     1
 91
        4
176
     1
 64
     7
176
     1
 65
   257
176
     1
 75
     1
176
     1
175
     1
176
     1
 42
1.0
176
     1
 92
        8
176
     1
 66
     7
176
     1
 43
1.0
176
     1
 76
     1
176
     1
 77
     6
176
     1
 78
     2
176
     1
 67
     7
176
     1
 79
     5
176
     1
170
     0
176
     1
171
     0
176
     1
290
     0
176
     1
 93
       13
176
     1
 44
0.0
176
     1
173
     0
176
     1
  0
VISUALSTYLE
  5
2C
102
{ACAD_REACTORS
330
2A
102
}
330
2A
100
AcDbVisualStyle
  2
FlatWithEdges
 70
     1
177
     2
291
     1
 71
     2
176
     1
 72
     1
176
     1
 73
     1
176
     1
 90
        2
176
     1
 40
-0.6
176
     1
 41
30.0
176
     1
 62
     5
 63
     7
421
 16777215
176
     1
 74
     1
176
     1
 91
        4
176
     1
 64
     7
176
     1
 65
   257
176
     1
 75
     1
176
     1
175
     1
176
     1
 42
1.0
176
     1
 92
        0
176
     1
 66
   257
176
     1
 43
1.0
176
     1
 76
     1
176
     1
 77
     6
176
     1
 78
     2
176
     1
 67
     7
176
     1
 79
     5
176
     1
170
     0
176
     1
171
     0
176
     1
290
     0
176
     1
 93
       13
176
     1
 44
0.0
176
     1
173
     0
176
     1
  0
VISUALSTYLE
  5
2D
102
{ACAD_REACTORS
330
2A
102
}
330
2A
100
AcDbVisualStyle
  2
Gouraud
 70
     2
177
     2
291
     1
 71
     2
176
     1
 72
     2
176
     1
 73
     1
176
     1
 90
        2
176
     1
 40
-0.6
176
     1
 41
30.0
176
     1
 62
     5
 63
     7
421
 16777215
176
     1
 74
     0
176
     1
 91
        4
176
     1
 64
     7
176
     1
 65
   257
176
     1
 75
     1
176
     1
175
     1
176
     1
 42
1.0
176
     1
 92
        0
176
     1
 66
     7
176
     1
 43
1.0
176
     1
 76
     1
176
     1
 77
     6
176
     1
 78
     2
176
     1
 67
     7
176
     1
 79
     5
176
     1
170
     0
176
     1
171
     0
176
     1
290
     0
176
     1
 93
       13
176
     1
 44
0.0
176
     1
173
     0
176
     1
  0
VISUALSTYLE
  5
2E
102
{ACAD_REACTORS
330
2A
102
}
330
2A
100
AcDbVisualStyle
  2
GouraudWithEdges
 70
     3
177
     2
291
     1
 71
     2
176
     1
 72
     2
176
     1
 73
     1
176
     1
 90
        2
176
     1
 40
-0.6
176
     1
 41
30.0
176
     1
 62
     5
 63
     7
421
 16777215
176
     1
 74
     1
176
     1
 91
        4
176
     1
 64
     7
176
     1
 65
   257
176
     1
 75
     1
176
     1
175
     1
176
     1
 42
1.0
176
     1
 92
        0
176
     1
 66
   257
176
     1
 43
1.0
176
     1
 76
     1
176
     1
 77
     6
176
     1
 78
     2
176
     1
 67
     7
176
     1
 79
     5
176
     1
170
     0
176
     1
171
     0
176
     1
290
     0
176
     1
 93
       13
176
     1
 44
0.0
176
     1
173
     0
176
     1
  0
VISUALSTYLE
  5
38
102
{ACAD_REACTORS
330
2A
102
}
330
2A
100
AcDbVisualStyle
  2
Linepattern
 70
    14
177
     2
291
     1
 71
     2
176
     1
 72
     2
176
     1
 73
     0
176
     1
 90
        0
176
     1
 40
-0.6
176
     1
 41
-30.0
176
     1
 62
     5
 63
     7
421
 16777215
176
     1
 74
     1
176
     1
 91
        4
176
     1
 64
     7
176
     1
 65
   257
176
     1
 75
     7
176
     1
175
     7
176
     1
 42
1.0
176
     1
 92
        8
176
     1
 66
     7
176
     1
 43
1.0
176
     1
 76
     1
176
     1
 77
     6
176
     1
 78
     2
176
     1
 67
     7
176
     1
 79
     5
176
     1
170
     0
176
     1
171
     0
176
     1
290
     0
176
     1
 93
        1
176
     1
 44
0.0
176
     1
173
     0
176
     1
  0
VISUALSTYLE
  5
33
102
{ACAD_REACTORS
330
2A
102
}
330
2A
100
AcDbVisualStyle
  2
Realistic
 70
     8
177
     2
291
     0
 71
     2
176
     1
 72
     2
176
     1
 73
     0
176
     1
 90
        0
176
     1
 40
-0.6
176
     1
 41
-30.0
176
     1
 62
     5
 63
     7
421
 16777215
176
     1
 74
     1
176
     1
 91
        0
176
     1
 64
     7
176
     1
 65
   257
176
     1
 75
     1
176
     1
175
     1
176
     1
 42
1.0
176
     1
 92
        8
176
     1
 66
     8
424
  7895160
176
     1
 43
1.0
176
     1
 76
     1
176
     1
 77
     6
176
     1
 78
     2
176
     1
 67
     7
176
     1
 79
     5
176
     1
170
     0
176
     1
171
     0
176
     1
290
     0
176
     1
 93
       13
176
     1
 44
0.0
176
     1
173
     0
176
     1
  0
VISUALSTYLE
  5
37
102
{ACAD_REACTORS
330
2A
102
}
330
2A
100
AcDbVisualStyle
  2
Thicken
 70
    13
177
     2
291
     1
 71
     2
176
     1
 72
     2
176
     1
 73
     0
176
     1
 90
        0
176
     1
 40
-0.6
176
     1
 41
-30.0
176
     1
 62
     5
 63
     7
421
 16777215
176
     1
 74
     1
176
     1
 91
        4
176
     1
 64
     7
176
     1
 65
   257
176
     1
 75
     1
176
     1
175
     1
176
     1
 42
1.0
176
     1
 92
       12
176
     1
 66
     7
176
     1
 43
1.0
176
     1
 76
     1
176
     1
 77
     6
176
     1
 78
     2
176
     1
 67
     7
176
     1
 79
     5
176
     1
170
     0
176
     1
171
     0
176
     1
290
     0
176
     1
 93
        1
176
     1
 44
0.0
176
     1
173
     0
176
     1
  0
ENDSEC
  0
EOF
