  0
SECTION
  2
HEADER
  9
$ACADVER
  1
AC1024
  9
$ACADMAINTVER
 70
     6
  9
$DWGCODEPAGE
  3
UNDEFINED
  9
$INSBASE
 10
0.0
 20
0.0
 30
0.0
  9
$EXTMIN
 10
1.000000000000000E+20
 20
1.000000000000000E+20
 30
1.000000000000000E+20
  9
$EXTMAX
 10
-1.000000000000000E+20
 20
-1.000000000000000E+20
 30
-1.000000000000000E+20
  9
$LIMMIN
 10
0.0
 20
0.0
  9
$LIMMAX
 10
12.0
 20
9.0
  9
$ORTHOMODE
 70
     0
  9
$REGENMODE
 70
     1
  9
$FILLMODE
 70
     1
  9
$QTEXTMODE
 70
     0
  9
$MIRRTEXT
 70
     1
  9
$LTSCALE
 40
1.0
  9
$ATTMODE
 70
     1
  9
$TEXTSIZE
 40
0.2
  9
$TRACEWID
 40
0.05
  9
$TEXTSTYLE
  7
Standard
  9
$CLAYER
  8
0
  9
$CELTYPE
  6
ByLayer
  9
$CECOLOR
 62
   256
  9
$CELTSCALE
 40
1.0
  9
$DISPSILH
 70
     0
  9
$DIMSCALE
 40
1.0
  9
$DIMASZ
 40
0.18
  9
$DIMEXO
 40
0.0625
  9
$DIMDLI
 40
0.38
  9
$DIMRND
 40
0.0
  9
$DIMDLE
 40
0.0
  9
$DIMEXE
 40
0.18
  9
$DIMTP
 40
0.0
  9
$DIMTM
 40
0.0
  9
$DIMTXT
 40
0.18
  9
$DIMCEN
 40
0.09
  9
$DIMTSZ
 40
0.0
  9
$DIMTOL
 70
     0
  9
$DIMLIM
 70
     0
  9
$DIMTIH
 70
     1
  9
$DIMTOH
 70
     1
  9
$DIMSE1
 70
     0
  9
$DIMSE2
 70
     0
  9
$DIMTAD
 70
     0
  9
$DIMZIN
 70
     0
  9
$DIMBLK
  1

  9
$DIMASO
 70
     1
  9
$DIMSHO
 70
     1
  9
$DIMPOST
  1

  9
$DIMAPOST
  1

  9
$DIMALT
 70
     0
  9
$DIMALTD
 70
     2
  9
$DIMALTF
 40
25.4
  9
$DIMLFAC
 40
1.0
  9
$DIMTOFL
 70
     0
  9
$DIMTVP
 40
0.0
  9
$DIMTIX
 70
     0
  9
$DIMSOXD
 70
     0
  9
$DIMSAH
 70
     0
  9
$DIMBLK1
  1

  9
$DIMBLK2
  1

  9
$DIMSTYLE
  2
Standard
  9
$DIMCLRD
 70
     0
  9
$DIMCLRE
 70
     0
  9
$DIMCLRT
 70
     0
  9
$DIMTFAC
 40
1.0
  9
$DIMGAP
 40
0.09
  9
$DIMJUST
 70
     0
  9
$DIMSD1
 70
     0
  9
$DIMSD2
 70
     0
  9
$DIMTOLJ
 70
     1
  9
$DIMTZIN
 70
     0
  9
$DIMALTZ
 70
     0
  9
$DIMALTTZ
 70
     0
  9
$DIMUPT
 70
     0
  9
$DIMDEC
 70
     4
  9
$DIMTDEC
 70
     4
  9
$DIMALTU
 70
     2
  9
$DIMALTTD
 70
     2
  9
$DIMTXSTY
  7
Standard
  9
$DIMAUNIT
 70
     0
  9
$DIMADEC
 70
     0
  9
$DIMALTRND
 40
0.0
  9
$DIMAZIN
 70
     0
  9
$DIMDSEP
 70
    46
  9
$DIMATFIT
 70
     3
  9
$DIMFRAC
 70
     0
  9
$DIMLDRBLK
  1

  9
$DIMLUNIT
 70
     2
  9
$DIMLWD
 70
    -2
  9
$DIMLWE
 70
    -2
  9
$DIMTMOVE
 70
     0
  9
$DIMFXL
 40
1.0
  9
$DIMFXLON
 70
     0
  9
$DIMJOGANG
 40
0.7853981633974483
  9
$DIMTFILL
 70
     0
  9
$DIMTFILLCLR
 70
     0
  9
$DIMARCSYM
 70
     0
  9
$DIMLTYPE
  6

  9
$DIMLTEX1
  6

  9
$DIMLTEX2
  6

  9
$DIMTXTDIRECTION
 70
     0
  9
$LUNITS
 70
     2
  9
$LUPREC
 70
     4
  9
$SKETCHINC
 40
0.1
  9
$FILLETRAD
 40
0.5
  9
$AUNITS
 70
     0
  9
$AUPREC
 70
     0
  9
$MENU
  1
.
  9
$ELEVATION
 40
0.0
  9
$PELEVATION
 40
0.0
  9
$THICKNESS
 40
0.0
  9
$LIMCHECK
 70
     0
  9
$CHAMFERA
 40
0.5
  9
$CHAMFERB
 40
0.5
  9
$CHAMFERC
 40
1.0
  9
$CHAMFERD
 40
0.0
  9
$SKPOLY
 70
     0
  9
$TDCREATE
 40
2457917.59525463
  9
$TDUCREATE
 40
2457917.22025463
  9
$TDUPDATE
 40
2457917.59525463
  9
$TDUUPDATE
 40
2457917.22025463
  9
$TDINDWG
 40
0.0000000116
  9
$TDUSRTIMER
 40
0.0000000116
  9
$USRTIMER
 70
     1
  9
$ANGBASE
 50
0.0
  9
$ANGDIR
 70
     0
  9
$PDMODE
 70
     0
  9
$PDSIZE
 40
0.0
  9
$PLINEWID
 40
0.0
  9
$SPLFRAME
 70
     0
  9
$SPLINETYPE
 70
     6
  9
$SPLINESEGS
 70
     8
  9
$HANDSEED
  5
E2
  9
$SURFTAB1
 70
     6
  9
$SURFTAB2
 70
     6
  9
$SURFTYPE
 70
     6
  9
$SURFU
 70
     6
  9
$SURFV
 70
     6
  9
$UCSBASE
  2

  9
$UCSNAME
  2

  9
$UCSORG
 10
0.0
 20
0.0
 30
0.0
  9
$UCSXDIR
 10
1.0
 20
0.0
 30
0.0
  9
$UCSYDIR
 10
0.0
 20
1.0
 30
0.0
  9
$UCSORTHOREF
  2

  9
$UCSORTHOVIEW
 70
     0
  9
$UCSORGTOP
 10
0.0
 20
0.0
 30
0.0
  9
$UCSORGBOTTOM
 10
0.0
 20
0.0
 30
0.0
  9
$UCSORGLEFT
 10
0.0
 20
0.0
 30
0.0
  9
$UCSORGRIGHT
 10
0.0
 20
0.0
 30
0.0
  9
$UCSORGFRONT
 10
0.0
 20
0.0
 30
0.0
  9
$UCSORGBACK
 10
0.0
 20
0.0
 30
0.0
  9
$PUCSBASE
  2

  9
$PUCSNAME
  2

  9
$PUCSORG
 10
0.0
 20
0.0
 30
0.0
  9
$PUCSXDIR
 10
1.0
 20
0.0
 30
0.0
  9
$PUCSYDIR
 10
0.0
 20
1.0
 30
0.0
  9
$PUCSORTHOREF
  2

  9
$PUCSORTHOVIEW
 70
     0
  9
$PUCSORGTOP
 10
0.0
 20
0.0
 30
0.0
  9
$PUCSORGBOTTOM
 10
0.0
 20
0.0
 30
0.0
  9
$PUCSORGLEFT
 10
0.0
 20
0.0
 30
0.0
  9
$PUCSORGRIGHT
 10
0.0
 20
0.0
 30
0.0
  9
$PUCSORGFRONT
 10
0.0
 20
0.0
 30
0.0
  9
$PUCSORGBACK
 10
0.0
 20
0.0
 30
0.0
  9
$USERI1
 70
     0
  9
$USERI2
 70
     0
  9
$USERI3
 70
     0
  9
$USERI4
 70
     0
  9
$USERI5
 70
     0
  9
$USERR1
 40
0.0
  9
$USERR2
 40
0.0
  9
$USERR3
 40
0.0
  9
$USERR4
 40
0.0
  9
$USERR5
 40
0.0
  9
$WORLDVIEW
 70
     1
  9
$SHADEDGE
 70
     3
  9
$SHADEDIF
 70
    70
  9
$TILEMODE
 70
     1
  9
$MAXACTVP
 70
    64
  9
$PINSBASE
 10
0.0
 20
0.0
 30
0.0
  9
$PLIMCHECK
 70
     0
  9
$PEXTMIN
 10
1.000000000000000E+20
 20
1.000000000000000E+20
 30
1.000000000000000E+20
  9
$PEXTMAX
 10
-1.000000000000000E+20
 20
-1.000000000000000E+20
 30
-1.000000000000000E+20
  9
$PLIMMIN
 10
0.0
 20
0.0
  9
$PLIMMAX
 10
12.0
 20
9.0
  9
$UNITMODE
 70
     0
  9
$VISRETAIN
 70
     1
  9
$PLINEGEN
 70
     0
  9
$PSLTSCALE
 70
     1
  9
$TREEDEPTH
 70
  3020
  9
$CMLSTYLE
  2
Standard
  9
$CMLJUST
 70
     0
  9
$CMLSCALE
 40
1.0
  9
$PROXYGRAPHICS
 70
     1
  9
$MEASUREMENT
 70
     0
  9
$CELWEIGHT
370
    -1
  9
$ENDCAPS
280
     0
  9
$JOINSTYLE
280
     0
  9
$LWDISPLAY
290
     1
  9
$INSUNITS
 70
     1
  9
$HYPERLINKBASE
  1

  9
$STYLESHEET
  1

  9
$XEDIT
290
     1
  9
$CEPSNTYPE
380
     0
  9
$PSTYLEMODE
290
     1
  9
$FINGERPRINTGUID
  2
{6A1F8DAC-022F-77EE-5320-518A449B135D}
  9
$VERSIONGUID
  2
{FAEB1C32-E019-11D5-929B-00C0DF256EC4}
  9
$EXTNAMES
290
     1
  9
$PSVPSCALE
 40
0.0
  9
$OLESTARTUP
290
     0
  9
$SORTENTS
280
   127
  9
$INDEXCTL
280
     0
  9
$HIDETEXT
280
     1
  9
$XCLIPFRAME
280
     2
  9
$HALOGAP
280
     0
  9
$OBSCOLOR
 70
   257
  9
$OBSLTYPE
280
     0
  9
$INTERSECTIONDISPLAY
280
     0
  9
$INTERSECTIONCOLOR
 70
   257
  9
$DIMASSOC
280
     2
  9
$PROJECTNAME
  1

  9
$CAMERADISPLAY
290
     0
  9
$LENSLENGTH
 40
50.0
  9
$CAMERAHEIGHT
 40
0.0
  9
$STEPSPERSEC
 40
2.0
  9
$STEPSIZE
 40
6.0
  9
$3DDWFPREC
 40
2.0
  9
$PSOLWIDTH
 40
0.25
  9
$PSOLHEIGHT
 40
4.0
  9
$LOFTANG1
 40
1.570796326794897
  9
$LOFTANG2
 40
1.570796326794897
  9
$LOFTMAG1
 40
0.0
  9
$LOFTMAG2
 40
0.0
  9
$LOFTPARAM
 70
     7
  9
$LOFTNORMALS
280
     1
  9
$LATITUDE
 40
37.795
  9
$LONGITUDE
 40
-122.394
  9
$NORTHDIRECTION
 40
0.0
  9
$TIMEZONE
 70
 -8000
  9
$LIGHTGLYPHDISPLAY
280
     1
  9
$TILEMODELIGHTSYNCH
280
     1
  9
$CMATERIAL
347
3C
  9
$SOLIDHIST
280
     1
  9
$SHOWHIST
280
     1
  9
$DWFFRAME
280
     2
  9
$DGNFRAME
280
     2
  9
$REALWORLDSCALE
290
     1
  9
$INTERFERECOLOR
 62
   256
  9
$CSHADOW
280
     0
  9
$SHADOWPLANELOCATION
 40
0.0
  0
ENDSEC
  0
SECTION
  2
CLASSES
  0
CLASS
  1
ACDBDICTIONARYWDFLT
  2
AcDbDictionaryWithDefault
  3
ObjectDBX Classes
 90
        0
 91
        4
280
     0
281
     0
  0
CLASS
  1
VISUALSTYLE
  2
AcDbVisualStyle
  3
ObjectDBX Classes
 90
     4095
 91
        4
280
     0
281
     0
  0
CLASS
  1
MATERIAL
  2
AcDbMaterial
  3
ObjectDBX Classes
 90
     1153
 91
        4
280
     0
281
     0
  0
CLASS
  1
SUN
  2
AcDbSun
  3
SCENEOE
 90
     1024
 91
        4
280
     0
281
     0
  0
ENDSEC
  0
SECTION
  2
TABLES
  0
TABLE
  2
VPORT
  5
8
330
0
100
AcDbSymbolTable
 70
     1
  0
VPORT
  5
29
330
8
100
AcDbSymbolTableRecord
100
AcDbViewportTableRecord
  2
*Active
 70
     0
 10
0.0
 20
0.0
 11
1.0
 21
1.0
 12
0.0
 22
0.0
 13
0.0
 23
0.0
 14
0.5
 24
0.5
 15
0.5
 25
0.5
 16
0.0
 26
0.0
 36
1.0
 17
91.00082462281999
 27
-128.4993055234307
 37
0.0
 40
256.9986110468615
 41
0.7081814508812795
 42
50.0
 43
0.0
 44
0.0
 50
0.0
 51
0.0
 71
     0
 72
   100
 73
     1
 74
     3
 75
     0
 76
     0
 77
     0
 78
     0
281
     0
 65
     1
110
0.0
120
0.0
130
0.0
111
1.0
121
0.0
131
0.0
112
0.0
122
1.0
132
0.0
 79
     0
146
0.0
 60
     3
 61
     5
292
     1
282
     1
141
0.0
142
0.0
 63
   250
361
3F
  0
ENDTAB
  0
TABLE
  2
LTYPE
  5
5
330
0
100
AcDbSymbolTable
 70
     1
  0
LTYPE
  5
14
330
5
100
AcDbSymbolTableRecord
100
AcDbLinetypeTableRecord
  2
ByBlock
 70
     0
  3

 72
    65
 73
     0
 40
0.0
  0
LTYPE
  5
15
330
5
100
AcDbSymbolTableRecord
100
AcDbLinetypeTableRecord
  2
ByLayer
 70
     0
  3

 72
    65
 73
     0
 40
0.0
  0
LTYPE
  5
16
330
5
100
AcDbSymbolTableRecord
100
AcDbLinetypeTableRecord
  2
Continuous
 70
     0
  3
Solid line
 72
    65
 73
     0
 40
0.0
  0
ENDTAB
  0
TABLE
  2
LAYER
  5
2
330
0
100
AcDbSymbolTable
 70
     2
  0
LAYER
  5
10
330
2
100
AcDbSymbolTableRecord
100
AcDbLayerTableRecord
  2
0
 70
     0
 62
     7
  6
Continuous
370
    -3
390
F
347
3E
  0
LAYER
  5
40
330
2
100
AcDbSymbolTableRecord
100
AcDbLayerTableRecord
  2
_U+30EC_U+30A4_U+30E4_U+30FC 1
 70
     0
 62
     7
  6
Continuous
370
    -3
390
F
347
3E
  0
ENDTAB
  0
TABLE
  2
STYLE
  5
3
330
0
100
AcDbSymbolTable
 70
     1
  0
STYLE
  5
11
330
3
100
AcDbSymbolTableRecord
100
AcDbTextStyleTableRecord
  2
Standard
 70
     0
 40
0.0
 41
1.0
 50
0.0
 71
     0
 42
0.2
  3
txt
  4

  0
ENDTAB
  0
TABLE
  2
VIEW
  5
6
330
0
100
AcDbSymbolTable
 70
     0
  0
ENDTAB
  0
TABLE
  2
UCS
  5
7
330
0
100
AcDbSymbolTable
 70
     0
  0
ENDTAB
  0
TABLE
  2
APPID
  5
9
330
0
100
AcDbSymbolTable
 70
     1
  0
APPID
  5
12
330
9
100
AcDbSymbolTableRecord
100
AcDbRegAppTableRecord
  2
ACAD
 70
     0
  0
ENDTAB
  0
TABLE
  2
DIMSTYLE
  5
A
330
0
100
AcDbSymbolTable
 70
     1
100
AcDbDimStyleTable
  0
DIMSTYLE
105
27
330
A
100
AcDbSymbolTableRecord
100
AcDbDimStyleTableRecord
  2
Standard
 70
     0
178
     0
340
11
  0
ENDTAB
  0
TABLE
  2
BLOCK_RECORD
  5
1
330
0
100
AcDbSymbolTable
 70
     7
  0
BLOCK_RECORD
  5
1F
330
1
100
AcDbSymbolTableRecord
100
AcDbBlockTableRecord
  2
*Model_Space
340
22
 70
     0
280
     1
281
     0
  0
BLOCK_RECORD
  5
1B
330
1
100
AcDbSymbolTableRecord
100
AcDbBlockTableRecord
  2
*Paper_Space
340
1E
 70
     0
280
     1
281
     0
  0
BLOCK_RECORD
  5
23
330
1
100
AcDbSymbolTableRecord
100
AcDbBlockTableRecord
  2
*Paper_Space0
340
26
 70
     0
280
     1
281
     0
  0
BLOCK_RECORD
  5
4F
330
1
100
AcDbSymbolTableRecord
100
AcDbBlockTableRecord
  2
block 2
340
0
102
{BLKREFS
331
50
102
}
 70
     0
280
     1
281
     0
  0
BLOCK_RECORD
  5
78
330
1
100
AcDbSymbolTableRecord
100
AcDbBlockTableRecord
  2
block 3
340
0
102
{BLKREFS
331
79
102
}
 70
     0
280
     1
281
     0
  0
BLOCK_RECORD
  5
9F
330
1
100
AcDbSymbolTableRecord
100
AcDbBlockTableRecord
  2
block 4
340
0
102
{BLKREFS
331
A0
102
}
 70
     0
280
     1
281
     0
  0
BLOCK_RECORD
  5
B9
330
1
100
AcDbSymbolTableRecord
100
AcDbBlockTableRecord
  2
block 5
340
0
102
{BLKREFS
331
BA
102
}
 70
     0
280
     1
281
     0
  0
BLOCK_RECORD
  5
CE
330
1
100
AcDbSymbolTableRecord
100
AcDbBlockTableRecord
  2
block 6
340
0
102
{BLKREFS
331
CF
102
}
 70
     0
280
     1
281
     0
  0
BLOCK_RECORD
  5
DA
330
1
100
AcDbSymbolTableRecord
100
AcDbBlockTableRecord
  2
block 7
340
0
102
{BLKREFS
331
DB
102
}
 70
     0
280
     1
281
     0
  0
ENDTAB
  0
ENDSEC
  0
SECTION
  2
BLOCKS
  0
BLOCK
  5
20
330
1F
100
AcDbEntity
  8
0
100
AcDbBlockBegin
  2
*Model_Space
 70
     0
 10
0.0
 20
0.0
 30
0.0
  3
*Model_Space
  1

  0
ENDBLK
  5
21
330
1F
100
AcDbEntity
  8
0
100
AcDbBlockEnd
  0
BLOCK
  5
1C
330
1B
100
AcDbEntity
 67
     1
  8
0
100
AcDbBlockBegin
  2
*Paper_Space
 70
     0
 10
0.0
 20
0.0
 30
0.0
  3
*Paper_Space
  1

  0
ENDBLK
  5
1D
330
1B
100
AcDbEntity
 67
     1
  8
0
100
AcDbBlockEnd
  0
BLOCK
  5
24
330
23
100
AcDbEntity
  8
0
100
AcDbBlockBegin
  2
*Paper_Space0
 70
     0
 10
0.0
 20
0.0
 30
0.0
  3
*Paper_Space0
  1

  0
ENDBLK
  5
25
330
23
100
AcDbEntity
  8
0
100
AcDbBlockEnd
  0
BLOCK
  5
51
330
4F
100
AcDbEntity
  8
0
100
AcDbBlockBegin
  2
block 2
 70
     0
 10
0.0
 20
0.0
 30
0.0
  3
block 2
  1

  0
SPLINE
  5
53
330
4F
100
AcDbEntity
  8
_U+30EC_U+30A4_U+30E4_U+30FC 1
370
     0
100
AcDbSpline
210
0.0
220
0.0
230
1.0
 70
    11
 71
     3
 72
    26
 73
    22
 74
     0
 42
0.0000000001
 43
0.0000000001
 12
1.0
 22
0.0
 32
0.0
 13
1.0
 23
0.0
 33
0.0
 40
0.0
 40
0.0
 40
0.0
 40
0.0
 40
1.0
 40
1.0
 40
1.0
 40
2.0
 40
2.0
 40
2.0
 40
3.0
 40
3.0
 40
3.0
 40
4.0
 40
4.0
 40
4.0
 40
5.0
 40
5.0
 40
5.0
 40
6.0
 40
6.0
 40
6.0
 40
7.0
 40
7.0
 40
7.0
 40
7.0
 10
92.12219778512917
 20
-139.8980929554769
 30
0.0
 10
92.12219778512917
 20
-139.8980929554769
 30
0.0
 10
92.12219778512917
 20
-138.7939398524543
 30
0.0
 10
92.12219778512917
 20
-138.7939398524543
 30
0.0
 10
92.12219778512917
 20
-138.7939398524543
 30
0.0
 10
91.76976451698812
 20
-138.7939398524543
 30
0.0
 10
91.76976451698812
 20
-138.7939398524543
 30
0.0
 10
91.76976451698812
 20
-138.7939398524543
 30
0.0
 10
91.76976451698812
 20
-138.6458007465885
 30
0.0
 10
91.76976451698812
 20
-138.6458007465885
 30
0.0
 10
92.12460935196886
 20
-138.630986836002
 30
0.0
 10
92.17421872695645
 20
-138.4680338195497
 30
0.0
 10
92.20591360542075
 20
-138.3536566494394
 30
0.0
 10
92.20591360542075
 20
-138.3536566494394
 30
0.0
 10
92.36197643090257
 20
-138.3536566494394
 30
0.0
 10
92.36197643090257
 20
-138.3536566494394
 30
0.0
 10
92.36197643090257
 20
-138.3536566494394
 30
0.0
 10
92.36197643090257
 20
-139.8980929554769
 30
0.0
 10
92.36197643090257
 20
-139.8980929554769
 30
0.0
 10
92.36197643090257
 20
-139.8980929554769
 30
0.0
 10
92.12219778512917
 20
-139.8980929554769
 30
0.0
 10
92.12219778512917
 20
-139.8980929554769
 30
0.0
  0
HATCH
  5
54
330
4F
100
AcDbEntity
  8
_U+30EC_U+30A4_U+30E4_U+30FC 1
 62
     7
420
 16777215
100
AcDbHatch
 10
0.0
 20
0.0
 30
0.0
210
0.0
220
0.0
230
1.0
  2
SOLID
 70
     1
 71
     0
 91
        1
 92
        1
 93
        1
 72
     4
 94
        3
 73
     0
 74
     1
 95
       26
 96
       22
 40
0.0
 40
0.0
 40
0.0
 40
0.0
 40
1.0
 40
1.0
 40
1.0
 40
2.0
 40
2.0
 40
2.0
 40
3.0
 40
3.0
 40
3.0
 40
4.0
 40
4.0
 40
4.0
 40
5.0
 40
5.0
 40
5.0
 40
6.0
 40
6.0
 40
6.0
 40
7.0
 40
7.0
 40
7.0
 40
7.0
 10
92.12219778512917
 20
-139.8980929554769
 10
92.12219778512917
 20
-139.8980929554769
 10
92.12219778512917
 20
-138.7939398524543
 10
92.12219778512917
 20
-138.7939398524543
 10
92.12219778512917
 20
-138.7939398524543
 10
91.76976451698812
 20
-138.7939398524543
 10
91.76976451698812
 20
-138.7939398524543
 10
91.76976451698812
 20
-138.7939398524543
 10
91.76976451698812
 20
-138.6458007465885
 10
91.76976451698812
 20
-138.6458007465885
 10
92.12460935196886
 20
-138.630986836002
 10
92.17421872695645
 20
-138.4680338195497
 10
92.20591360542075
 20
-138.3536566494394
 10
92.20591360542075
 20
-138.3536566494394
 10
92.36197643090257
 20
-138.3536566494394
 10
92.36197643090257
 20
-138.3536566494394
 10
92.36197643090257
 20
-138.3536566494394
 10
92.36197643090257
 20
-139.8980929554769
 10
92.36197643090257
 20
-139.8980929554769
 10
92.36197643090257
 20
-139.8980929554769
 10
92.12219778512917
 20
-139.8980929554769
 10
92.12219778512917
 20
-139.8980929554769
 97
        0
 97
        0
 75
     2
 76
     1
 98
        0
  0
POLYLINE
  5
55
330
4F
100
AcDbEntity
  8
_U+30EC_U+30A4_U+30E4_U+30FC 1
370
     0
100
AcDb2dPolyline
 66
     1
 10
0.0
 20
0.0
 30
0.0
  0
VERTEX
  5
56
330
55
100
AcDbEntity
  8
_U+30EC_U+30A4_U+30E4_U+30FC 1
370
     0
100
AcDbVertex
100
AcDb2dVertex
 10
93.78721243315043
 20
-139.5511718401122
 30
0.0
  0
VERTEX
  5
57
330
55
100
AcDbEntity
  8
_U+30EC_U+30A4_U+30E4_U+30FC 1
370
     0
100
AcDbVertex
100
AcDb2dVertex
 10
93.78721243315043
 20
-139.8980929554769
 30
0.0
  0
VERTEX
  5
58
330
55
100
AcDbEntity
  8
_U+30EC_U+30A4_U+30E4_U+30FC 1
370
     0
100
AcDbVertex
100
AcDb2dVertex
 10
93.55432397834754
 20
-139.8980929554769
 30
0.0
  0
VERTEX
  5
59
330
55
100
AcDbEntity
  8
_U+30EC_U+30A4_U+30E4_U+30FC 1
370
     0
100
AcDbVertex
100
AcDb2dVertex
 10
93.55432397834754
 20
-139.5511718401122
 30
0.0
  0
VERTEX
  5
5A
330
55
100
AcDbEntity
  8
_U+30EC_U+30A4_U+30E4_U+30FC 1
370
     0
100
AcDbVertex
100
AcDb2dVertex
 10
92.85324704709919
 20
-139.5511718401122
 30
0.0
  0
VERTEX
  5
5B
330
55
100
AcDbEntity
  8
_U+30EC_U+30A4_U+30E4_U+30FC 1
370
     0
100
AcDbVertex
100
AcDb2dVertex
 10
92.85324704709919
 20
-139.3268961240225
 30
0.0
  0
VERTEX
  5
5C
330
55
100
AcDbEntity
  8
_U+30EC_U+30A4_U+30E4_U+30FC 1
370
     0
100
AcDbVertex
100
AcDb2dVertex
 10
93.57912866584134
 20
-138.3536566494394
 30
0.0
  0
VERTEX
  5
5D
330
55
100
AcDbEntity
  8
_U+30EC_U+30A4_U+30E4_U+30FC 1
370
     0
100
AcDbVertex
100
AcDb2dVertex
 10
93.78721243315043
 20
-138.3536566494394
 30
0.0
  0
VERTEX
  5
5E
330
55
100
AcDbEntity
  8
_U+30EC_U+30A4_U+30E4_U+30FC 1
370
     0
100
AcDbVertex
100
AcDb2dVertex
 10
93.78721243315043
 20
-139.3523898306133
 30
0.0
  0
VERTEX
  5
5F
330
55
100
AcDbEntity
  8
_U+30EC_U+30A4_U+30E4_U+30FC 1
370
     0
100
AcDbVertex
100
AcDb2dVertex
 10
94.00873207285198
 20
-139.3523898306133
 30
0.0
  0
VERTEX
  5
60
330
55
100
AcDbEntity
  8
_U+30EC_U+30A4_U+30E4_U+30FC 1
370
     0
100
AcDbVertex
100
AcDb2dVertex
 10
94.00873207285198
 20
-139.5511718401122
 30
0.0
  0
VERTEX
  5
61
330
55
100
AcDbEntity
  8
_U+30EC_U+30A4_U+30E4_U+30FC 1
370
     0
100
AcDbVertex
100
AcDb2dVertex
 10
93.78721243315043
 20
-139.5511718401122
 30
0.0
  0
SEQEND
  5
62
330
55
100
AcDbEntity
  8
_U+30EC_U+30A4_U+30E4_U+30FC 1
370
     0
  0
POLYLINE
  5
63
330
4F
100
AcDbEntity
  8
_U+30EC_U+30A4_U+30E4_U+30FC 1
370
     0
100
AcDb2dPolyline
 66
     1
 10
0.0
 20
0.0
 30
0.0
  0
VERTEX
  5
64
330
63
100
AcDbEntity
  8
_U+30EC_U+30A4_U+30E4_U+30FC 1
370
     0
100
AcDbVertex
100
AcDb2dVertex
 10
93.55432397834754
 20
-138.6964436502217
 30
0.0
  0
VERTEX
  5
65
330
63
100
AcDbEntity
  8
_U+30EC_U+30A4_U+30E4_U+30FC 1
370
     0
100
AcDbVertex
100
AcDb2dVertex
 10
93.0658094385391
 20
-139.3523898306133
 30
0.0
  0
VERTEX
  5
66
330
63
100
AcDbEntity
  8
_U+30EC_U+30A4_U+30E4_U+30FC 1
370
     0
100
AcDbVertex
100
AcDb2dVertex
 10
93.55432397834754
 20
-139.3523898306133
 30
0.0
  0
VERTEX
  5
67
330
63
100
AcDbEntity
  8
_U+30EC_U+30A4_U+30E4_U+30FC 1
370
     0
100
AcDbVertex
100
AcDb2dVertex
 10
93.55432397834754
 20
-138.6964436502217
 30
0.0
  0
SEQEND
  5
68
330
63
100
AcDbEntity
  8
_U+30EC_U+30A4_U+30E4_U+30FC 1
370
     0
  0
HATCH
  5
69
330
4F
100
AcDbEntity
  8
_U+30EC_U+30A4_U+30E4_U+30FC 1
 62
     7
420
 16777215
100
AcDbHatch
 10
0.0
 20
0.0
 30
0.0
210
0.0
220
0.0
230
1.0
  2
SOLID
 70
     1
 71
     0
 91
        2
 92
        1
 93
       11
 72
     1
 10
93.78721243315043
 20
-139.5511718401122
 11
93.78721243315043
 21
-139.8980929554769
 72
     1
 10
93.78721243315043
 20
-139.8980929554769
 11
93.55432397834754
 21
-139.8980929554769
 72
     1
 10
93.55432397834754
 20
-139.8980929554769
 11
93.55432397834754
 21
-139.5511718401122
 72
     1
 10
93.55432397834754
 20
-139.5511718401122
 11
92.85324704709919
 21
-139.5511718401122
 72
     1
 10
92.85324704709919
 20
-139.5511718401122
 11
92.85324704709919
 21
-139.3268961240225
 72
     1
 10
92.85324704709919
 20
-139.3268961240225
 11
93.57912866584134
 21
-138.3536566494394
 72
     1
 10
93.57912866584134
 20
-138.3536566494394
 11
93.78721243315043
 21
-138.3536566494394
 72
     1
 10
93.78721243315043
 20
-138.3536566494394
 11
93.78721243315043
 21
-139.3523898306133
 72
     1
 10
93.78721243315043
 20
-139.3523898306133
 11
94.00873207285198
 21
-139.3523898306133
 72
     1
 10
94.00873207285198
 20
-139.3523898306133
 11
94.00873207285198
 21
-139.5511718401122
 72
     1
 10
94.00873207285198
 20
-139.5511718401122
 11
93.78721243315043
 21
-139.5511718401122
 97
        0
 92
        1
 93
        3
 72
     1
 10
93.55432397834754
 20
-138.6964436502217
 11
93.0658094385391
 21
-139.3523898306133
 72
     1
 10
93.0658094385391
 20
-139.3523898306133
 11
93.55432397834754
 21
-139.3523898306133
 72
     1
 10
93.55432397834754
 20
-139.3523898306133
 11
93.55432397834754
 21
-138.6964436502217
 97
        0
 75
     2
 76
     1
 98
        0
  0
ENDBLK
  5
52
330
4F
100
AcDbEntity
  8
0
100
AcDbBlockEnd
  0
BLOCK
  5
7A
330
78
100
AcDbEntity
  8
0
100
AcDbBlockBegin
  2
block 3
 70
     0
 10
0.0
 20
0.0
 30
0.0
  3
block 3
  1

  0
SPLINE
  5
7C
330
78
100
AcDbEntity
  8
_U+30EC_U+30A4_U+30E4_U+30FC 1
370
     0
100
AcDbSpline
210
0.0
220
0.0
230
1.0
 70
    11
 71
     3
 72
    26
 73
    22
 74
     0
 42
0.0000000001
 43
0.0000000001
 12
1.0
 22
0.0
 32
0.0
 13
1.0
 23
0.0
 33
0.0
 40
0.0
 40
0.0
 40
0.0
 40
0.0
 40
1.0
 40
1.0
 40
1.0
 40
2.0
 40
2.0
 40
2.0
 40
3.0
 40
3.0
 40
3.0
 40
4.0
 40
4.0
 40
4.0
 40
5.0
 40
5.0
 40
5.0
 40
6.0
 40
6.0
 40
6.0
 40
7.0
 40
7.0
 40
7.0
 40
7.0
 10
81.6122449882775
 20
-129.6909640517786
 30
0.0
 10
81.6122449882775
 20
-129.6909640517786
 30
0.0
 10
80.50791963048066
 20
-129.6909640517786
 30
0.0
 10
80.50791963048066
 20
-129.6909640517786
 30
0.0
 10
80.50791963048066
 20
-129.6909640517786
 30
0.0
 10
80.50791963048066
 20
-130.0437418294682
 30
0.0
 10
80.50791963048066
 20
-130.0437418294682
 30
0.0
 10
80.50791963048066
 20
-130.0437418294682
 30
0.0
 10
80.35978052461492
 20
-130.0437418294682
 30
0.0
 10
80.35978052461492
 20
-130.0437418294682
 30
0.0
 10
80.34513886880261
 20
-129.6888969944875
 30
0.0
 10
80.18218585235029
 20
-129.6389431099514
 30
0.0
 10
80.06798093701426
 20
-129.6072482314871
 30
0.0
 10
80.06798093701426
 20
-129.6072482314871
 30
0.0
 10
80.06798093701426
 20
-129.4515299155538
 30
0.0
 10
80.06798093701426
 20
-129.4515299155538
 30
0.0
 10
80.06798093701426
 20
-129.4515299155538
 30
0.0
 10
81.6122449882775
 20
-129.4515299155538
 30
0.0
 10
81.6122449882775
 20
-129.4515299155538
 30
0.0
 10
81.6122449882775
 20
-129.4515299155538
 30
0.0
 10
81.6122449882775
 20
-129.6909640517786
 30
0.0
 10
81.6122449882775
 20
-129.6909640517786
 30
0.0
  0
HATCH
  5
7D
330
78
100
AcDbEntity
  8
_U+30EC_U+30A4_U+30E4_U+30FC 1
 62
     7
420
 16777215
100
AcDbHatch
 10
0.0
 20
0.0
 30
0.0
210
0.0
220
0.0
230
1.0
  2
SOLID
 70
     1
 71
     0
 91
        1
 92
        1
 93
        1
 72
     4
 94
        3
 73
     0
 74
     1
 95
       26
 96
       22
 40
0.0
 40
0.0
 40
0.0
 40
0.0
 40
1.0
 40
1.0
 40
1.0
 40
2.0
 40
2.0
 40
2.0
 40
3.0
 40
3.0
 40
3.0
 40
4.0
 40
4.0
 40
4.0
 40
5.0
 40
5.0
 40
5.0
 40
6.0
 40
6.0
 40
6.0
 40
7.0
 40
7.0
 40
7.0
 40
7.0
 10
81.6122449882775
 20
-129.6909640517786
 10
81.6122449882775
 20
-129.6909640517786
 10
80.50791963048066
 20
-129.6909640517786
 10
80.50791963048066
 20
-129.6909640517786
 10
80.50791963048066
 20
-129.6909640517786
 10
80.50791963048066
 20
-130.0437418294682
 10
80.50791963048066
 20
-130.0437418294682
 10
80.50791963048066
 20
-130.0437418294682
 10
80.35978052461492
 20
-130.0437418294682
 10
80.35978052461492
 20
-130.0437418294682
 10
80.34513886880261
 20
-129.6888969944875
 10
80.18218585235029
 20
-129.6389431099514
 10
80.06798093701426
 20
-129.6072482314871
 10
80.06798093701426
 20
-129.6072482314871
 10
80.06798093701426
 20
-129.4515299155538
 10
80.06798093701426
 20
-129.4515299155538
 10
80.06798093701426
 20
-129.4515299155538
 10
81.6122449882775
 20
-129.4515299155538
 10
81.6122449882775
 20
-129.4515299155538
 10
81.6122449882775
 20
-129.4515299155538
 10
81.6122449882775
 20
-129.6909640517786
 10
81.6122449882775
 20
-129.6909640517786
 97
        0
 97
        0
 75
     2
 76
     1
 98
        0
  0
SPLINE
  5
7E
330
78
100
AcDbEntity
  8
_U+30EC_U+30A4_U+30E4_U+30FC 1
370
     0
100
AcDbSpline
210
0.0
220
0.0
230
1.0
 70
    11
 71
     3
 72
    32
 73
    28
 74
     0
 42
0.0000000001
 43
0.0000000001
 12
1.0
 22
0.0
 32
0.0
 13
1.0
 23
0.0
 33
0.0
 40
0.0
 40
0.0
 40
0.0
 40
0.0
 40
1.0
 40
1.0
 40
1.0
 40
2.0
 40
2.0
 40
2.0
 40
3.0
 40
3.0
 40
3.0
 40
4.0
 40
4.0
 40
4.0
 40
5.0
 40
5.0
 40
5.0
 40
6.0
 40
6.0
 40
6.0
 40
7.0
 40
7.0
 40
7.0
 40
8.0
 40
8.0
 40
8.0
 40
9.0
 40
9.0
 40
9.0
 40
9.0
 10
81.66306014668493
 20
-128.3766601241558
 30
0.0
 10
81.66306014668493
 20
-128.9282199113443
 30
0.0
 10
81.10874428310824
 20
-128.9375216691545
 30
0.0
 10
80.89514836302274
 20
-128.9375216691545
 30
0.0
 10
80.66449922028526
 20
-128.9375216691545
 30
0.0
 10
80.01716577860682
 20
-128.9171956057915
 30
0.0
 10
80.01716577860682
 20
-128.3360079974299
 30
0.0
 10
80.01716577860682
 20
-128.1506618603235
 30
0.0
 10
80.08692896218314
 20
-127.8883178391217
 30
0.0
 10
80.41903616696122
 20
-127.8476657123957
 30
0.0
 10
80.41903616696122
 20
-127.8476657123957
 30
0.0
 10
80.41903616696122
 20
-128.0759032882935
 30
0.0
 10
80.41903616696122
 20
-128.0759032882935
 30
0.0
 10
80.36201983668033
 20
-128.0872721033949
 30
0.0
 10
80.2138807308146
 20
-128.1212062939246
 30
0.0
 10
80.2138807308146
 20
-128.3382473094953
 30
0.0
 10
80.2138807308146
 20
-128.6502007056847
 30
0.0
 10
80.54185382101038
 20
-128.6932643992503
 30
0.0
 10
80.747009257157
 20
-128.7067002716428
 30
0.0
 10
80.66880558964183
 20
-128.6073092668933
 30
0.0
 10
80.60954994729553
 20
-128.5349622617031
 30
0.0
 10
80.60954994729553
 20
-128.3404866215607
 30
0.0
 10
80.60954994729553
 20
-128.1482502934838
 30
0.0
 10
80.71738143598385
 20
-127.8251003369673
 30
0.0
 10
81.1235581936948
 20
-127.8251003369673
 30
0.0
 10
81.44291854517746
 20
-127.8251003369673
 30
0.0
 10
81.66306014668493
 20
-128.037490473633
 30
0.0
 10
81.66306014668493
 20
-128.3766601241558
 30
0.0
  0
SPLINE
  5
7F
330
78
100
AcDbEntity
  8
_U+30EC_U+30A4_U+30E4_U+30FC 1
370
     0
100
AcDbSpline
210
0.0
220
0.0
230
1.0
 70
    11
 71
     3
 72
    17
 73
    13
 74
     0
 42
0.0000000001
 43
0.0000000001
 12
1.0
 22
0.0
 32
0.0
 13
1.0
 23
0.0
 33
0.0
 40
0.0
 40
0.0
 40
0.0
 40
0.0
 40
1.0
 40
1.0
 40
1.0
 40
2.0
 40
2.0
 40
2.0
 40
3.0
 40
3.0
 40
3.0
 40
4.0
 40
4.0
 40
4.0
 40
4.0
 10
80.80419784221215
 20
-128.3585733728583
 30
0.0
 10
80.80419784221215
 20
-128.6388318905834
 30
0.0
 10
81.01572670500649
 20
-128.6796562720836
 30
0.0
 10
81.13199867763367
 20
-128.6796562720836
 30
0.0
 10
81.30752629260715
 20
-128.6796562720836
 30
0.0
 10
81.47047930905947
 20
-128.5778537004944
 30
0.0
 10
81.47047930905947
 20
-128.3811387482867
 30
0.0
 10
81.47047930905947
 20
-128.2522921771383
 30
0.0
 10
81.41122366671317
 20
-128.0647067279665
 30
0.0
 10
81.12562525098596
 20
-128.0647067279665
 30
0.0
 10
80.9013495348962
 20
-128.0647067279665
 30
0.0
 10
80.80419784221215
 20
-128.2138793624778
 30
0.0
 10
80.80419784221215
 20
-128.3585733728583
 30
0.0
  0
HATCH
  5
80
330
78
100
AcDbEntity
  8
_U+30EC_U+30A4_U+30E4_U+30FC 1
 62
     7
420
 16777215
100
AcDbHatch
 10
0.0
 20
0.0
 30
0.0
210
0.0
220
0.0
230
1.0
  2
SOLID
 70
     1
 71
     0
 91
        2
 92
        1
 93
        1
 72
     4
 94
        3
 73
     0
 74
     1
 95
       32
 96
       28
 40
0.0
 40
0.0
 40
0.0
 40
0.0
 40
1.0
 40
1.0
 40
1.0
 40
2.0
 40
2.0
 40
2.0
 40
3.0
 40
3.0
 40
3.0
 40
4.0
 40
4.0
 40
4.0
 40
5.0
 40
5.0
 40
5.0
 40
6.0
 40
6.0
 40
6.0
 40
7.0
 40
7.0
 40
7.0
 40
8.0
 40
8.0
 40
8.0
 40
9.0
 40
9.0
 40
9.0
 40
9.0
 10
81.66306014668493
 20
-128.3766601241558
 10
81.66306014668493
 20
-128.9282199113443
 10
81.10874428310824
 20
-128.9375216691545
 10
80.89514836302274
 20
-128.9375216691545
 10
80.66449922028526
 20
-128.9375216691545
 10
80.01716577860682
 20
-128.9171956057915
 10
80.01716577860682
 20
-128.3360079974299
 10
80.01716577860682
 20
-128.1506618603235
 10
80.08692896218314
 20
-127.8883178391217
 10
80.41903616696122
 20
-127.8476657123957
 10
80.41903616696122
 20
-127.8476657123957
 10
80.41903616696122
 20
-128.0759032882935
 10
80.41903616696122
 20
-128.0759032882935
 10
80.36201983668033
 20
-128.0872721033949
 10
80.2138807308146
 20
-128.1212062939246
 10
80.2138807308146
 20
-128.3382473094953
 10
80.2138807308146
 20
-128.6502007056847
 10
80.54185382101038
 20
-128.6932643992503
 10
80.747009257157
 20
-128.7067002716428
 10
80.66880558964183
 20
-128.6073092668933
 10
80.60954994729553
 20
-128.5349622617031
 10
80.60954994729553
 20
-128.3404866215607
 10
80.60954994729553
 20
-128.1482502934838
 10
80.71738143598385
 20
-127.8251003369673
 10
81.1235581936948
 20
-127.8251003369673
 10
81.44291854517746
 20
-127.8251003369673
 10
81.66306014668493
 20
-128.037490473633
 10
81.66306014668493
 20
-128.3766601241558
 97
        0
 97
        0
 92
        1
 93
        1
 72
     4
 94
        3
 73
     0
 74
     1
 95
       17
 96
       13
 40
0.0
 40
0.0
 40
0.0
 40
0.0
 40
1.0
 40
1.0
 40
1.0
 40
2.0
 40
2.0
 40
2.0
 40
3.0
 40
3.0
 40
3.0
 40
4.0
 40
4.0
 40
4.0
 40
4.0
 10
80.80419784221215
 20
-128.3585733728583
 10
80.80419784221215
 20
-128.6388318905834
 10
81.01572670500649
 20
-128.6796562720836
 10
81.13199867763367
 20
-128.6796562720836
 10
81.30752629260715
 20
-128.6796562720836
 10
81.47047930905947
 20
-128.5778537004944
 10
81.47047930905947
 20
-128.3811387482867
 10
81.47047930905947
 20
-128.2522921771383
 10
81.41122366671317
 20
-128.0647067279665
 10
81.12562525098596
 20
-128.0647067279665
 10
80.9013495348962
 20
-128.0647067279665
 10
80.80419784221215
 20
-128.2138793624778
 10
80.80419784221215
 20
-128.3585733728583
 97
        0
 97
        0
 75
     2
 76
     1
 98
        0
  0
POLYLINE
  5
81
330
78
100
AcDbEntity
  8
_U+30EC_U+30A4_U+30E4_U+30FC 1
370
     0
100
AcDb2dPolyline
 66
     1
 10
0.0
 20
0.0
 30
0.0
  0
VERTEX
  5
82
330
81
100
AcDbEntity
  8
_U+30EC_U+30A4_U+30E4_U+30FC 1
370
     0
100
AcDbVertex
100
AcDb2dVertex
 10
81.6122449882775
 20
-127.5935899203586
 30
0.0
  0
VERTEX
  5
83
330
81
100
AcDbEntity
  8
_U+30EC_U+30A4_U+30E4_U+30FC 1
370
     0
100
AcDbVertex
100
AcDb2dVertex
 10
81.36058076308
 20
-127.5935899203586
 30
0.0
  0
VERTEX
  5
84
330
81
100
AcDbEntity
  8
_U+30EC_U+30A4_U+30E4_U+30FC 1
370
     0
100
AcDbVertex
100
AcDb2dVertex
 10
81.36058076308
 20
-127.3245279629605
 30
0.0
  0
VERTEX
  5
85
330
81
100
AcDbEntity
  8
_U+30EC_U+30A4_U+30E4_U+30FC 1
370
     0
100
AcDbVertex
100
AcDb2dVertex
 10
81.6122449882775
 20
-127.3245279629605
 30
0.0
  0
VERTEX
  5
86
330
81
100
AcDbEntity
  8
_U+30EC_U+30A4_U+30E4_U+30FC 1
370
     0
100
AcDbVertex
100
AcDb2dVertex
 10
81.6122449882775
 20
-127.5935899203586
 30
0.0
  0
SEQEND
  5
87
330
81
100
AcDbEntity
  8
_U+30EC_U+30A4_U+30E4_U+30FC 1
370
     0
  0
HATCH
  5
88
330
78
100
AcDbEntity
  8
_U+30EC_U+30A4_U+30E4_U+30FC 1
 62
     7
420
 16777215
100
AcDbHatch
 10
0.0
 20
0.0
 30
0.0
210
0.0
220
0.0
230
1.0
  2
SOLID
 70
     1
 71
     0
 91
        1
 92
        1
 93
        4
 72
     1
 10
81.6122449882775
 20
-127.5935899203586
 11
81.36058076308
 21
-127.5935899203586
 72
     1
 10
81.36058076308
 20
-127.5935899203586
 11
81.36058076308
 21
-127.3245279629605
 72
     1
 10
81.36058076308
 20
-127.3245279629605
 11
81.6122449882775
 21
-127.3245279629605
 72
     1
 10
81.6122449882775
 20
-127.3245279629605
 11
81.6122449882775
 21
-127.5935899203586
 97
        0
 75
     2
 76
     1
 98
        0
  0
SPLINE
  5
89
330
78
100
AcDbEntity
  8
_U+30EC_U+30A4_U+30E4_U+30FC 1
370
     0
100
AcDbSpline
210
0.0
220
0.0
230
1.0
 70
    11
 71
     3
 72
    53
 73
    49
 74
     0
 42
0.0000000001
 43
0.0000000001
 12
1.0
 22
0.0
 32
0.0
 13
1.0
 23
0.0
 33
0.0
 40
0.0
 40
0.0
 40
0.0
 40
0.0
 40
1.0
 40
1.0
 40
1.0
 40
2.0
 40
2.0
 40
2.0
 40
3.0
 40
3.0
 40
3.0
 40
4.0
 40
4.0
 40
4.0
 40
5.0
 40
5.0
 40
5.0
 40
6.0
 40
6.0
 40
6.0
 40
7.0
 40
7.0
 40
7.0
 40
8.0
 40
8.0
 40
8.0
 40
9.0
 40
9.0
 40
9.0
 40
10.0
 40
10.0
 40
10.0
 40
11.0
 40
11.0
 40
11.0
 40
12.0
 40
12.0
 40
12.0
 40
13.0
 40
13.0
 40
13.0
 40
14.0
 40
14.0
 40
14.0
 40
15.0
 40
15.0
 40
15.0
 40
16.0
 40
16.0
 40
16.0
 40
16.0
 10
81.66306014668493
 20
-126.5576497079439
 30
0.0
 10
81.66306014668493
 20
-126.6413655282355
 30
0.0
 10
81.6461791788072
 20
-126.7498860360209
 30
0.0
 10
81.58261716710435
 20
-126.8584065438062
 30
0.0
 10
81.47254636635061
 20
-127.0437526809127
 30
0.0
 10
81.34146048313686
 20
-127.0664903111153
 30
0.0
 10
81.23362899444854
 20
-127.0868163744783
 30
0.0
 10
81.23362899444854
 20
-127.0868163744783
 30
0.0
 10
81.23362899444854
 20
-126.8494492955446
 30
0.0
 10
81.23362899444854
 20
-126.8494492955446
 30
0.0
 10
81.43241100394745
 20
-126.7905381627468
 30
0.0
 10
81.4620388251206
 20
-126.6549736554022
 30
0.0
 10
81.4620388251206
 20
-126.5554103958785
 30
0.0
 10
81.4620388251206
 20
-126.4062377613672
 30
0.0
 10
81.36264782037115
 20
-126.2434569996891
 30
0.0
 10
81.12993162034252
 20
-126.2434569996891
 30
0.0
 10
80.87396102578846
 20
-126.2434569996891
 30
0.0
 10
80.80419784221215
 20
-126.4356933277661
 30
0.0
 10
80.80419784221215
 20
-126.5645398989144
 30
0.0
 10
80.80419784221215
 20
-126.5984740894441
 30
0.0
 10
80.80419784221215
 20
-126.7498860360209
 30
0.0
 10
80.93321666813476
 20
-126.8447984166395
 30
0.0
 10
80.93321666813476
 20
-126.8447984166395
 30
0.0
 10
80.91409638819162
 20
-127.0325561205856
 30
0.0
 10
80.91409638819162
 20
-127.0325561205856
 30
0.0
 10
80.91409638819162
 20
-127.0325561205856
 30
0.0
 10
80.06798093701426
 20
-126.903537294663
 30
0.0
 10
80.06798093701426
 20
-126.903537294663
 30
0.0
 10
80.06798093701426
 20
-126.903537294663
 30
0.0
 10
80.06798093701426
 20
-126.0715467349752
 30
0.0
 10
80.06798093701426
 20
-126.0715467349752
 30
0.0
 10
80.06798093701426
 20
-126.0715467349752
 30
0.0
 10
80.26262883193087
 20
-126.0715467349752
 30
0.0
 10
80.26262883193087
 20
-126.0715467349752
 30
0.0
 10
80.26262883193087
 20
-126.0715467349752
 30
0.0
 10
80.26262883193087
 20
-126.7295599726579
 30
0.0
 10
80.26262883193087
 20
-126.7295599726579
 30
0.0
 10
80.26262883193087
 20
-126.7295599726579
 30
0.0
 10
80.68568655751956
 20
-126.7996676657827
 30
0.0
 10
80.68568655751956
 20
-126.7996676657827
 30
0.0
 10
80.65175236698984
 20
-126.7340385967887
 30
0.0
 10
80.61161700458668
 20
-126.6458441523663
 30
0.0
 10
80.61161700458668
 20
-126.5192368932834
 30
0.0
 10
80.61161700458668
 20
-126.24793562382
 30
0.0
 10
80.79782441556443
 20
-125.9947211056541
 30
0.0
 10
81.11081134039938
 20
-125.9947211056541
 30
0.0
 10
81.42827688936515
 20
-125.9947211056541
 30
0.0
 10
81.66306014668493
 20
-126.2344997514275
 30
0.0
 10
81.66306014668493
 20
-126.5576497079439
 30
0.0
  0
HATCH
  5
8A
330
78
100
AcDbEntity
  8
_U+30EC_U+30A4_U+30E4_U+30FC 1
 62
     7
420
 16777215
100
AcDbHatch
 10
0.0
 20
0.0
 30
0.0
210
0.0
220
0.0
230
1.0
  2
SOLID
 70
     1
 71
     0
 91
        1
 92
        1
 93
        1
 72
     4
 94
        3
 73
     0
 74
     1
 95
       53
 96
       49
 40
0.0
 40
0.0
 40
0.0
 40
0.0
 40
1.0
 40
1.0
 40
1.0
 40
2.0
 40
2.0
 40
2.0
 40
3.0
 40
3.0
 40
3.0
 40
4.0
 40
4.0
 40
4.0
 40
5.0
 40
5.0
 40
5.0
 40
6.0
 40
6.0
 40
6.0
 40
7.0
 40
7.0
 40
7.0
 40
8.0
 40
8.0
 40
8.0
 40
9.0
 40
9.0
 40
9.0
 40
10.0
 40
10.0
 40
10.0
 40
11.0
 40
11.0
 40
11.0
 40
12.0
 40
12.0
 40
12.0
 40
13.0
 40
13.0
 40
13.0
 40
14.0
 40
14.0
 40
14.0
 40
15.0
 40
15.0
 40
15.0
 40
16.0
 40
16.0
 40
16.0
 40
16.0
 10
81.66306014668493
 20
-126.5576497079439
 10
81.66306014668493
 20
-126.6413655282355
 10
81.6461791788072
 20
-126.7498860360209
 10
81.58261716710435
 20
-126.8584065438062
 10
81.47254636635061
 20
-127.0437526809127
 10
81.34146048313686
 20
-127.0664903111153
 10
81.23362899444854
 20
-127.0868163744783
 10
81.23362899444854
 20
-127.0868163744783
 10
81.23362899444854
 20
-126.8494492955446
 10
81.23362899444854
 20
-126.8494492955446
 10
81.43241100394745
 20
-126.7905381627468
 10
81.4620388251206
 20
-126.6549736554022
 10
81.4620388251206
 20
-126.5554103958785
 10
81.4620388251206
 20
-126.4062377613672
 10
81.36264782037115
 20
-126.2434569996891
 10
81.12993162034252
 20
-126.2434569996891
 10
80.87396102578846
 20
-126.2434569996891
 10
80.80419784221215
 20
-126.4356933277661
 10
80.80419784221215
 20
-126.5645398989144
 10
80.80419784221215
 20
-126.5984740894441
 10
80.80419784221215
 20
-126.7498860360209
 10
80.93321666813476
 20
-126.8447984166395
 10
80.93321666813476
 20
-126.8447984166395
 10
80.91409638819162
 20
-127.0325561205856
 10
80.91409638819162
 20
-127.0325561205856
 10
80.91409638819162
 20
-127.0325561205856
 10
80.06798093701426
 20
-126.903537294663
 10
80.06798093701426
 20
-126.903537294663
 10
80.06798093701426
 20
-126.903537294663
 10
80.06798093701426
 20
-126.0715467349752
 10
80.06798093701426
 20
-126.0715467349752
 10
80.06798093701426
 20
-126.0715467349752
 10
80.26262883193087
 20
-126.0715467349752
 10
80.26262883193087
 20
-126.0715467349752
 10
80.26262883193087
 20
-126.0715467349752
 10
80.26262883193087
 20
-126.7295599726579
 10
80.26262883193087
 20
-126.7295599726579
 10
80.26262883193087
 20
-126.7295599726579
 10
80.68568655751956
 20
-126.7996676657827
 10
80.68568655751956
 20
-126.7996676657827
 10
80.65175236698984
 20
-126.7340385967887
 10
80.61161700458668
 20
-126.6458441523663
 10
80.61161700458668
 20
-126.5192368932834
 10
80.61161700458668
 20
-126.24793562382
 10
80.79782441556443
 20
-125.9947211056541
 10
81.11081134039938
 20
-125.9947211056541
 10
81.42827688936515
 20
-125.9947211056541
 10
81.66306014668493
 20
-126.2344997514275
 10
81.66306014668493
 20
-126.5576497079439
 97
        0
 97
        0
 75
     2
 76
     1
 98
        0
  0
ENDBLK
  5
7B
330
78
100
AcDbEntity
  8
0
100
AcDbBlockEnd
  0
BLOCK
  5
A1
330
9F
100
AcDbEntity
  8
0
100
AcDbBlockBegin
  2
block 4
 70
     0
 10
0.0
 20
0.0
 30
0.0
  3
block 4
  1

  0
SPLINE
  5
A3
330
9F
100
AcDbEntity
  8
_U+30EC_U+30A4_U+30E4_U+30FC 1
370
     0
100
AcDbSpline
210
0.0
220
0.0
230
1.0
 70
    11
 71
     3
 72
    29
 73
    25
 74
     0
 42
0.0000000001
 43
0.0000000001
 12
1.0
 22
0.0
 32
0.0
 13
1.0
 23
0.0
 33
0.0
 40
0.0
 40
0.0
 40
0.0
 40
0.0
 40
1.0
 40
1.0
 40
1.0
 40
2.0
 40
2.0
 40
2.0
 40
3.0
 40
3.0
 40
3.0
 40
4.0
 40
4.0
 40
4.0
 40
5.0
 40
5.0
 40
5.0
 40
6.0
 40
6.0
 40
6.0
 40
7.0
 40
7.0
 40
7.0
 40
8.0
 40
8.0
 40
8.0
 40
8.0
 10
101.7185112592926
 20
-131.7897162213929
 30
0.0
 10
101.7185112592926
 20
-132.0742811084745
 30
0.0
 10
101.5810519494311
 20
-132.3457546327122
 30
0.0
 10
101.2320637767753
 20
-132.3457546327122
 30
0.0
 10
100.9760931822213
 20
-132.3457546327122
 30
0.0
 10
100.8810085468284
 20
-132.1941704313612
 30
0.0
 10
100.8196858471909
 20
-132.081171299445
 30
0.0
 10
100.7604302048446
 20
-132.2144964947242
 30
0.0
 10
100.6460530347343
 20
-132.2961452577246
 30
0.0
 10
100.4851670755732
 20
-132.2961452577246
 30
0.0
 10
100.2102484558502
 20
-132.2961452577246
 30
0.0
 10
100.0748562032799
 20
-132.0835828662847
 30
0.0
 10
100.0748562032799
 20
-131.7897162213929
 30
0.0
 10
100.0748562032799
 20
-131.4865478186909
 30
0.0
 10
100.2188611945633
 20
-131.2832871850611
 30
0.0
 10
100.4851670755732
 20
-131.2832871850611
 30
0.0
 10
100.6460530347343
 20
-131.2832871850611
 30
0.0
 10
100.7604302048446
 20
-131.3666584958042
 30
0.0
 10
100.8196858471909
 20
-131.5003282006319
 30
0.0
 10
100.8703287508241
 20
-131.405243565239
 30
0.0
 10
100.965413386217
 20
-131.2357448673647
 30
0.0
 10
101.227929662193
 20
-131.2357448673647
 30
0.0
 10
101.6024115414397
 20
-131.2357448673647
 30
0.0
 10
101.7185112592926
 20
-131.5340901363873
 30
0.0
 10
101.7185112592926
 20
-131.7897162213929
 30
0.0
  0
SPLINE
  5
A4
330
9F
100
AcDbEntity
  8
_U+30EC_U+30A4_U+30E4_U+30FC 1
370
     0
100
AcDbSpline
210
0.0
220
0.0
230
1.0
 70
    11
 71
     3
 72
    17
 73
    13
 74
     0
 42
0.0000000001
 43
0.0000000001
 12
1.0
 22
0.0
 32
0.0
 13
1.0
 23
0.0
 33
0.0
 40
0.0
 40
0.0
 40
0.0
 40
0.0
 40
1.0
 40
1.0
 40
1.0
 40
2.0
 40
2.0
 40
2.0
 40
3.0
 40
3.0
 40
3.0
 40
4.0
 40
4.0
 40
4.0
 40
4.0
 10
100.2674370409054
 20
-131.7897162213929
 30
0.0
 10
100.2674370409054
 20
-131.9661051102376
 30
0.0
 10
100.3625216762983
 20
-132.0563666119512
 30
0.0
 10
100.4979139288686
 20
-132.0563666119512
 30
0.0
 10
100.6205593281435
 20
-132.0563666119512
 30
0.0
 10
100.7390706128361
 20
-131.9795409826301
 30
0.0
 10
100.7390706128361
 20
-131.7897162213929
 30
0.0
 10
100.7390706128361
 20
-131.5995469506071
 30
0.0
 10
100.6205593281435
 20
-131.522721321286
 30
0.0
 10
100.4979139288686
 20
-131.522721321286
 30
0.0
 10
100.3625216762983
 20
-131.522721321286
 30
0.0
 10
100.2674370409054
 20
-131.6153943898392
 30
0.0
 10
100.2674370409054
 20
-131.7897162213929
 30
0.0
  0
SPLINE
  5
A5
330
9F
100
AcDbEntity
  8
_U+30EC_U+30A4_U+30E4_U+30FC 1
370
     0
100
AcDbSpline
210
0.0
220
0.0
230
1.0
 70
    11
 71
     3
 72
    17
 73
    13
 74
     0
 42
0.0000000001
 43
0.0000000001
 12
1.0
 22
0.0
 32
0.0
 13
1.0
 23
0.0
 33
0.0
 40
0.0
 40
0.0
 40
0.0
 40
0.0
 40
1.0
 40
1.0
 40
1.0
 40
2.0
 40
2.0
 40
2.0
 40
3.0
 40
3.0
 40
3.0
 40
4.0
 40
4.0
 40
4.0
 40
4.0
 10
100.9275173358792
 20
-131.7897162213929
 30
0.0
 10
100.9275173358792
 20
-131.943367480035
 30
0.0
 10
101.0143337421075
 20
-132.1059759869388
 30
0.0
 10
101.2172498661888
 20
-132.1059759869388
 30
0.0
 10
101.4225775571096
 20
-132.1059759869388
 30
0.0
 10
101.523863364376
 20
-131.9705837343685
 30
0.0
 10
101.523863364376
 20
-131.7897162213929
 30
0.0
 10
101.523863364376
 20
-131.5905897023454
 30
0.0
 10
101.4012179651011
 20
-131.4731119462984
 30
0.0
 10
101.2234510380622
 20
-131.4731119462984
 30
0.0
 10
101.0015868888121
 20
-131.4731119462984
 30
0.0
 10
100.9275173358792
 20
-131.6470892683035
 30
0.0
 10
100.9275173358792
 20
-131.7897162213929
 30
0.0
  0
HATCH
  5
A6
330
9F
100
AcDbEntity
  8
_U+30EC_U+30A4_U+30E4_U+30FC 1
 62
     7
420
 16777215
100
AcDbHatch
 10
0.0
 20
0.0
 30
0.0
210
0.0
220
0.0
230
1.0
  2
SOLID
 70
     1
 71
     0
 91
        3
 92
        1
 93
        1
 72
     4
 94
        3
 73
     0
 74
     1
 95
       29
 96
       25
 40
0.0
 40
0.0
 40
0.0
 40
0.0
 40
1.0
 40
1.0
 40
1.0
 40
2.0
 40
2.0
 40
2.0
 40
3.0
 40
3.0
 40
3.0
 40
4.0
 40
4.0
 40
4.0
 40
5.0
 40
5.0
 40
5.0
 40
6.0
 40
6.0
 40
6.0
 40
7.0
 40
7.0
 40
7.0
 40
8.0
 40
8.0
 40
8.0
 40
8.0
 10
101.7185112592926
 20
-131.7897162213929
 10
101.7185112592926
 20
-132.0742811084745
 10
101.5810519494311
 20
-132.3457546327122
 10
101.2320637767753
 20
-132.3457546327122
 10
100.9760931822213
 20
-132.3457546327122
 10
100.8810085468284
 20
-132.1941704313612
 10
100.8196858471909
 20
-132.081171299445
 10
100.7604302048446
 20
-132.2144964947242
 10
100.6460530347343
 20
-132.2961452577246
 10
100.4851670755732
 20
-132.2961452577246
 10
100.2102484558502
 20
-132.2961452577246
 10
100.0748562032799
 20
-132.0835828662847
 10
100.0748562032799
 20
-131.7897162213929
 10
100.0748562032799
 20
-131.4865478186909
 10
100.2188611945633
 20
-131.2832871850611
 10
100.4851670755732
 20
-131.2832871850611
 10
100.6460530347343
 20
-131.2832871850611
 10
100.7604302048446
 20
-131.3666584958042
 10
100.8196858471909
 20
-131.5003282006319
 10
100.8703287508241
 20
-131.405243565239
 10
100.965413386217
 20
-131.2357448673647
 10
101.227929662193
 20
-131.2357448673647
 10
101.6024115414397
 20
-131.2357448673647
 10
101.7185112592926
 20
-131.5340901363873
 10
101.7185112592926
 20
-131.7897162213929
 97
        0
 97
        0
 92
        1
 93
        1
 72
     4
 94
        3
 73
     0
 74
     1
 95
       17
 96
       13
 40
0.0
 40
0.0
 40
0.0
 40
0.0
 40
1.0
 40
1.0
 40
1.0
 40
2.0
 40
2.0
 40
2.0
 40
3.0
 40
3.0
 40
3.0
 40
4.0
 40
4.0
 40
4.0
 40
4.0
 10
100.2674370409054
 20
-131.7897162213929
 10
100.2674370409054
 20
-131.9661051102376
 10
100.3625216762983
 20
-132.0563666119512
 10
100.4979139288686
 20
-132.0563666119512
 10
100.6205593281435
 20
-132.0563666119512
 10
100.7390706128361
 20
-131.9795409826301
 10
100.7390706128361
 20
-131.7897162213929
 10
100.7390706128361
 20
-131.5995469506071
 10
100.6205593281435
 20
-131.522721321286
 10
100.4979139288686
 20
-131.522721321286
 10
100.3625216762983
 20
-131.522721321286
 10
100.2674370409054
 20
-131.6153943898392
 10
100.2674370409054
 20
-131.7897162213929
 97
        0
 97
        0
 92
        1
 93
        1
 72
     4
 94
        3
 73
     0
 74
     1
 95
       17
 96
       13
 40
0.0
 40
0.0
 40
0.0
 40
0.0
 40
1.0
 40
1.0
 40
1.0
 40
2.0
 40
2.0
 40
2.0
 40
3.0
 40
3.0
 40
3.0
 40
4.0
 40
4.0
 40
4.0
 40
4.0
 10
100.9275173358792
 20
-131.7897162213929
 10
100.9275173358792
 20
-131.943367480035
 10
101.0143337421075
 20
-132.1059759869388
 10
101.2172498661888
 20
-132.1059759869388
 10
101.4225775571096
 20
-132.1059759869388
 10
101.523863364376
 20
-131.9705837343685
 10
101.523863364376
 20
-131.7897162213929
 10
101.523863364376
 20
-131.5905897023454
 10
101.4012179651011
 20
-131.4731119462984
 10
101.2234510380622
 20
-131.4731119462984
 10
101.0015868888121
 20
-131.4731119462984
 10
100.9275173358792
 20
-131.6470892683035
 10
100.9275173358792
 20
-131.7897162213929
 97
        0
 97
        0
 75
     2
 76
     1
 98
        0
  0
POLYLINE
  5
A7
330
9F
100
AcDbEntity
  8
_U+30EC_U+30A4_U+30E4_U+30FC 1
370
     0
100
AcDb2dPolyline
 66
     1
 10
0.0
 20
0.0
 30
0.0
  0
VERTEX
  5
A8
330
A7
100
AcDbEntity
  8
_U+30EC_U+30A4_U+30E4_U+30FC 1
370
     0
100
AcDbVertex
100
AcDb2dVertex
 10
101.6678683556594
 20
-131.0021673934647
 30
0.0
  0
VERTEX
  5
A9
330
A7
100
AcDbEntity
  8
_U+30EC_U+30A4_U+30E4_U+30FC 1
370
     0
100
AcDbVertex
100
AcDb2dVertex
 10
101.4160318756877
 20
-131.0021673934647
 30
0.0
  0
VERTEX
  5
AA
330
A7
100
AcDbEntity
  8
_U+30EC_U+30A4_U+30E4_U+30FC 1
370
     0
100
AcDbVertex
100
AcDb2dVertex
 10
101.4160318756877
 20
-130.7331054360667
 30
0.0
  0
VERTEX
  5
AB
330
A7
100
AcDbEntity
  8
_U+30EC_U+30A4_U+30E4_U+30FC 1
370
     0
100
AcDbVertex
100
AcDb2dVertex
 10
101.6678683556594
 20
-130.7331054360667
 30
0.0
  0
VERTEX
  5
AC
330
A7
100
AcDbEntity
  8
_U+30EC_U+30A4_U+30E4_U+30FC 1
370
     0
100
AcDbVertex
100
AcDb2dVertex
 10
101.6678683556594
 20
-131.0021673934647
 30
0.0
  0
SEQEND
  5
AD
330
A7
100
AcDbEntity
  8
_U+30EC_U+30A4_U+30E4_U+30FC 1
370
     0
  0
HATCH
  5
AE
330
9F
100
AcDbEntity
  8
_U+30EC_U+30A4_U+30E4_U+30FC 1
 62
     7
420
 16777215
100
AcDbHatch
 10
0.0
 20
0.0
 30
0.0
210
0.0
220
0.0
230
1.0
  2
SOLID
 70
     1
 71
     0
 91
        1
 92
        1
 93
        4
 72
     1
 10
101.6678683556594
 20
-131.0021673934647
 11
101.4160318756877
 21
-131.0021673934647
 72
     1
 10
101.4160318756877
 20
-131.0021673934647
 11
101.4160318756877
 21
-130.7331054360667
 72
     1
 10
101.4160318756877
 20
-130.7331054360667
 11
101.6678683556594
 21
-130.7331054360667
 72
     1
 10
101.6678683556594
 20
-130.7331054360667
 11
101.6678683556594
 21
-131.0021673934647
 97
        0
 75
     2
 76
     1
 98
        0
  0
SPLINE
  5
AF
330
9F
100
AcDbEntity
  8
_U+30EC_U+30A4_U+30E4_U+30FC 1
370
     0
100
AcDbSpline
210
0.0
220
0.0
230
1.0
 70
    11
 71
     3
 72
    53
 73
    49
 74
     0
 42
0.0000000001
 43
0.0000000001
 12
1.0
 22
0.0
 32
0.0
 13
1.0
 23
0.0
 33
0.0
 40
0.0
 40
0.0
 40
0.0
 40
0.0
 40
1.0
 40
1.0
 40
1.0
 40
2.0
 40
2.0
 40
2.0
 40
3.0
 40
3.0
 40
3.0
 40
4.0
 40
4.0
 40
4.0
 40
5.0
 40
5.0
 40
5.0
 40
6.0
 40
6.0
 40
6.0
 40
7.0
 40
7.0
 40
7.0
 40
8.0
 40
8.0
 40
8.0
 40
9.0
 40
9.0
 40
9.0
 40
10.0
 40
10.0
 40
10.0
 40
11.0
 40
11.0
 40
11.0
 40
12.0
 40
12.0
 40
12.0
 40
13.0
 40
13.0
 40
13.0
 40
14.0
 40
14.0
 40
14.0
 40
15.0
 40
15.0
 40
15.0
 40
16.0
 40
16.0
 40
16.0
 40
16.0
 10
101.7185112592926
 20
-129.9662271810501
 30
0.0
 10
101.7185112592926
 20
-130.0499430013417
 30
0.0
 10
101.7016302914149
 20
-130.1581189995785
 30
0.0
 10
101.6382405344863
 20
-130.2669840169124
 30
0.0
 10
101.5283419885068
 20
-130.4523301540189
 30
0.0
 10
101.3970838505188
 20
-130.474723274673
 30
0.0
 10
101.2892523618305
 20
-130.495049338036
 30
0.0
 10
101.2892523618305
 20
-130.495049338036
 30
0.0
 10
101.2892523618305
 20
-130.2576822591022
 30
0.0
 10
101.2892523618305
 20
-130.2576822591022
 30
0.0
 10
101.4880343713294
 20
-130.199115635853
 30
0.0
 10
101.5176621925025
 20
-130.0633788737342
 30
0.0
 10
101.5176621925025
 20
-129.9638156142104
 30
0.0
 10
101.5176621925025
 20
-129.8146429796991
 30
0.0
 10
101.4180989329788
 20
-129.6520344727953
 30
0.0
 10
101.1855549877244
 20
-129.6520344727953
 30
0.0
 10
100.9295843931704
 20
-129.6520344727953
 30
0.0
 10
100.8596489548198
 20
-129.8442708008723
 30
0.0
 10
100.8596489548198
 20
-129.9727728624721
 30
0.0
 10
100.8596489548198
 20
-130.0068793077761
 30
0.0
 10
100.8596489548198
 20
-130.1581189995785
 30
0.0
 10
100.9888400355167
 20
-130.2532036349714
 30
0.0
 10
100.9888400355167
 20
-130.2532036349714
 30
0.0
 10
100.9698920103478
 20
-130.4409613389175
 30
0.0
 10
100.9698920103478
 20
-130.4409613389175
 30
0.0
 10
100.9698920103478
 20
-130.4409613389175
 30
0.0
 10
100.1234320496219
 20
-130.3121147677692
 30
0.0
 10
100.1234320496219
 20
-130.3121147677692
 30
0.0
 10
100.1234320496219
 20
-130.3121147677692
 30
0.0
 10
100.1234320496219
 20
-129.4801242080814
 30
0.0
 10
100.1234320496219
 20
-129.4801242080814
 30
0.0
 10
100.1234320496219
 20
-129.4801242080814
 30
0.0
 10
100.3180799445385
 20
-129.4801242080814
 30
0.0
 10
100.3180799445385
 20
-129.4801242080814
 30
0.0
 10
100.3180799445385
 20
-129.4801242080814
 30
0.0
 10
100.3180799445385
 20
-130.1377929362156
 30
0.0
 10
100.3180799445385
 20
-130.1377929362156
 30
0.0
 10
100.3180799445385
 20
-130.1377929362156
 30
0.0
 10
100.7411376701272
 20
-130.2080728841146
 30
0.0
 10
100.7411376701272
 20
-130.2080728841146
 30
0.0
 10
100.7073757343718
 20
-130.1426160698949
 30
0.0
 10
100.6670681171943
 20
-130.0544216254725
 30
0.0
 10
100.6670681171943
 20
-129.9276421116153
 30
0.0
 10
100.6670681171943
 20
-129.6565130969261
 30
0.0
 10
100.8534477829464
 20
-129.4032985787603
 30
0.0
 10
101.1666069625556
 20
-129.4032985787603
 30
0.0
 10
101.4839002567471
 20
-129.4032985787603
 30
0.0
 10
101.7185112592926
 20
-129.6427327149852
 30
0.0
 10
101.7185112592926
 20
-129.9662271810501
 30
0.0
  0
HATCH
  5
B0
330
9F
100
AcDbEntity
  8
_U+30EC_U+30A4_U+30E4_U+30FC 1
 62
     7
420
 16777215
100
AcDbHatch
 10
0.0
 20
0.0
 30
0.0
210
0.0
220
0.0
230
1.0
  2
SOLID
 70
     1
 71
     0
 91
        1
 92
        1
 93
        1
 72
     4
 94
        3
 73
     0
 74
     1
 95
       53
 96
       49
 40
0.0
 40
0.0
 40
0.0
 40
0.0
 40
1.0
 40
1.0
 40
1.0
 40
2.0
 40
2.0
 40
2.0
 40
3.0
 40
3.0
 40
3.0
 40
4.0
 40
4.0
 40
4.0
 40
5.0
 40
5.0
 40
5.0
 40
6.0
 40
6.0
 40
6.0
 40
7.0
 40
7.0
 40
7.0
 40
8.0
 40
8.0
 40
8.0
 40
9.0
 40
9.0
 40
9.0
 40
10.0
 40
10.0
 40
10.0
 40
11.0
 40
11.0
 40
11.0
 40
12.0
 40
12.0
 40
12.0
 40
13.0
 40
13.0
 40
13.0
 40
14.0
 40
14.0
 40
14.0
 40
15.0
 40
15.0
 40
15.0
 40
16.0
 40
16.0
 40
16.0
 40
16.0
 10
101.7185112592926
 20
-129.9662271810501
 10
101.7185112592926
 20
-130.0499430013417
 10
101.7016302914149
 20
-130.1581189995785
 10
101.6382405344863
 20
-130.2669840169124
 10
101.5283419885068
 20
-130.4523301540189
 10
101.3970838505188
 20
-130.474723274673
 10
101.2892523618305
 20
-130.495049338036
 10
101.2892523618305
 20
-130.495049338036
 10
101.2892523618305
 20
-130.2576822591022
 10
101.2892523618305
 20
-130.2576822591022
 10
101.4880343713294
 20
-130.199115635853
 10
101.5176621925025
 20
-130.0633788737342
 10
101.5176621925025
 20
-129.9638156142104
 10
101.5176621925025
 20
-129.8146429796991
 10
101.4180989329788
 20
-129.6520344727953
 10
101.1855549877244
 20
-129.6520344727953
 10
100.9295843931704
 20
-129.6520344727953
 10
100.8596489548198
 20
-129.8442708008723
 10
100.8596489548198
 20
-129.9727728624721
 10
100.8596489548198
 20
-130.0068793077761
 10
100.8596489548198
 20
-130.1581189995785
 10
100.9888400355167
 20
-130.2532036349714
 10
100.9888400355167
 20
-130.2532036349714
 10
100.9698920103478
 20
-130.4409613389175
 10
100.9698920103478
 20
-130.4409613389175
 10
100.9698920103478
 20
-130.4409613389175
 10
100.1234320496219
 20
-130.3121147677692
 10
100.1234320496219
 20
-130.3121147677692
 10
100.1234320496219
 20
-130.3121147677692
 10
100.1234320496219
 20
-129.4801242080814
 10
100.1234320496219
 20
-129.4801242080814
 10
100.1234320496219
 20
-129.4801242080814
 10
100.3180799445385
 20
-129.4801242080814
 10
100.3180799445385
 20
-129.4801242080814
 10
100.3180799445385
 20
-129.4801242080814
 10
100.3180799445385
 20
-130.1377929362156
 10
100.3180799445385
 20
-130.1377929362156
 10
100.3180799445385
 20
-130.1377929362156
 10
100.7411376701272
 20
-130.2080728841146
 10
100.7411376701272
 20
-130.2080728841146
 10
100.7073757343718
 20
-130.1426160698949
 10
100.6670681171943
 20
-130.0544216254725
 10
100.6670681171943
 20
-129.9276421116153
 10
100.6670681171943
 20
-129.6565130969261
 10
100.8534477829464
 20
-129.4032985787603
 10
101.1666069625556
 20
-129.4032985787603
 10
101.4839002567471
 20
-129.4032985787603
 10
101.7185112592926
 20
-129.6427327149852
 10
101.7185112592926
 20
-129.9662271810501
 97
        0
 97
        0
 75
     2
 76
     1
 98
        0
  0
ENDBLK
  5
A2
330
9F
100
AcDbEntity
  8
0
100
AcDbBlockEnd
  0
BLOCK
  5
BB
330
B9
100
AcDbEntity
  8
0
100
AcDbBlockBegin
  2
block 5
 70
     0
 10
0.0
 20
0.0
 30
0.0
  3
block 5
  1

  0
SPLINE
  5
BD
330
B9
100
AcDbEntity
  8
_U+30EC_U+30A4_U+30E4_U+30FC 1
370
     0
100
AcDbSpline
210
0.0
220
0.0
230
1.0
 70
    11
 71
     3
 72
    32
 73
    28
 74
     0
 42
0.0000000001
 43
0.0000000001
 12
1.0
 22
0.0
 32
0.0
 13
1.0
 23
0.0
 33
0.0
 40
0.0
 40
0.0
 40
0.0
 40
0.0
 40
1.0
 40
1.0
 40
1.0
 40
2.0
 40
2.0
 40
2.0
 40
3.0
 40
3.0
 40
3.0
 40
4.0
 40
4.0
 40
4.0
 40
5.0
 40
5.0
 40
5.0
 40
6.0
 40
6.0
 40
6.0
 40
7.0
 40
7.0
 40
7.0
 40
8.0
 40
8.0
 40
8.0
 40
9.0
 40
9.0
 40
9.0
 40
9.0
 10
101.7181667497441
 20
-123.0648396502234
 30
0.0
 10
101.7181667497441
 20
-123.6165716921861
 30
0.0
 10
101.1641953957159
 20
-123.6255289404478
 30
0.0
 10
100.9502549660819
 20
-123.6255289404478
 30
0.0
 10
100.7197780781187
 20
-123.6255289404478
 30
0.0
 10
100.0724446364402
 20
-123.6052028770848
 30
0.0
 10
100.0724446364402
 20
-123.0241875234974
 30
0.0
 10
100.0724446364402
 20
-122.8386691316167
 30
0.0
 10
100.1423800747908
 20
-122.5764973651892
 30
0.0
 10
100.4744872795689
 20
-122.5358452384633
 30
0.0
 10
100.4744872795689
 20
-122.5358452384633
 30
0.0
 10
100.4744872795689
 20
-122.7640828143611
 30
0.0
 10
100.4744872795689
 20
-122.7640828143611
 30
0.0
 10
100.4172986945137
 20
-122.7754516294624
 30
0.0
 10
100.269159588648
 20
-122.8093858199921
 30
0.0
 10
100.269159588648
 20
-123.0264268355628
 30
0.0
 10
100.269159588648
 20
-123.3383802317522
 30
0.0
 10
100.5971326788438
 20
-123.3812716705436
 30
0.0
 10
100.8021158602161
 20
-123.3948797977103
 30
0.0
 10
100.723912192701
 20
-123.2954887929609
 30
0.0
 10
100.6646565503547
 20
-123.2231417877706
 30
0.0
 10
100.6646565503547
 20
-123.0286661476283
 30
0.0
 10
100.6646565503547
 20
-122.8364298195513
 30
0.0
 10
100.7728325485915
 20
-122.5131076082606
 30
0.0
 10
101.1790093063025
 20
-122.5131076082606
 30
0.0
 10
101.4983696577851
 20
-122.5131076082606
 30
0.0
 10
101.7181667497441
 20
-122.7256699997005
 30
0.0
 10
101.7181667497441
 20
-123.0648396502234
 30
0.0
  0
SPLINE
  5
BE
330
B9
100
AcDbEntity
  8
_U+30EC_U+30A4_U+30E4_U+30FC 1
370
     0
100
AcDbSpline
210
0.0
220
0.0
230
1.0
 70
    11
 71
     3
 72
    17
 73
    13
 74
     0
 42
0.0000000001
 43
0.0000000001
 12
1.0
 22
0.0
 32
0.0
 13
1.0
 23
0.0
 33
0.0
 40
0.0
 40
0.0
 40
0.0
 40
0.0
 40
1.0
 40
1.0
 40
1.0
 40
2.0
 40
2.0
 40
2.0
 40
3.0
 40
3.0
 40
3.0
 40
4.0
 40
4.0
 40
4.0
 40
4.0
 10
100.8593044452713
 20
-123.0467528989258
 30
0.0
 10
100.8593044452713
 20
-123.3271836714252
 30
0.0
 10
101.0708333080656
 20
-123.3678357981511
 30
0.0
 10
101.1872775354671
 20
-123.3678357981511
 30
0.0
 10
101.3629774052148
 20
-123.3678357981511
 30
0.0
 10
101.5259304216671
 20
-123.266033226562
 30
0.0
 10
101.5259304216671
 20
-123.0693182743542
 30
0.0
 10
101.5259304216671
 20
-122.9404717032059
 30
0.0
 10
101.4666747793208
 20
-122.752886254034
 30
0.0
 10
101.1810763635936
 20
-122.752886254034
 30
0.0
 10
100.9568006475039
 20
-122.752886254034
 30
0.0
 10
100.8593044452713
 20
-122.9020588885453
 30
0.0
 10
100.8593044452713
 20
-123.0467528989258
 30
0.0
  0
HATCH
  5
BF
330
B9
100
AcDbEntity
  8
_U+30EC_U+30A4_U+30E4_U+30FC 1
 62
     7
420
 16777215
100
AcDbHatch
 10
0.0
 20
0.0
 30
0.0
210
0.0
220
0.0
230
1.0
  2
SOLID
 70
     1
 71
     0
 91
        2
 92
        1
 93
        1
 72
     4
 94
        3
 73
     0
 74
     1
 95
       32
 96
       28
 40
0.0
 40
0.0
 40
0.0
 40
0.0
 40
1.0
 40
1.0
 40
1.0
 40
2.0
 40
2.0
 40
2.0
 40
3.0
 40
3.0
 40
3.0
 40
4.0
 40
4.0
 40
4.0
 40
5.0
 40
5.0
 40
5.0
 40
6.0
 40
6.0
 40
6.0
 40
7.0
 40
7.0
 40
7.0
 40
8.0
 40
8.0
 40
8.0
 40
9.0
 40
9.0
 40
9.0
 40
9.0
 10
101.7181667497441
 20
-123.0648396502234
 10
101.7181667497441
 20
-123.6165716921861
 10
101.1641953957159
 20
-123.6255289404478
 10
100.9502549660819
 20
-123.6255289404478
 10
100.7197780781187
 20
-123.6255289404478
 10
100.0724446364402
 20
-123.6052028770848
 10
100.0724446364402
 20
-123.0241875234974
 10
100.0724446364402
 20
-122.8386691316167
 10
100.1423800747908
 20
-122.5764973651892
 10
100.4744872795689
 20
-122.5358452384633
 10
100.4744872795689
 20
-122.5358452384633
 10
100.4744872795689
 20
-122.7640828143611
 10
100.4744872795689
 20
-122.7640828143611
 10
100.4172986945137
 20
-122.7754516294624
 10
100.269159588648
 20
-122.8093858199921
 10
100.269159588648
 20
-123.0264268355628
 10
100.269159588648
 20
-123.3383802317522
 10
100.5971326788438
 20
-123.3812716705436
 10
100.8021158602161
 20
-123.3948797977103
 10
100.723912192701
 20
-123.2954887929609
 10
100.6646565503547
 20
-123.2231417877706
 10
100.6646565503547
 20
-123.0286661476283
 10
100.6646565503547
 20
-122.8364298195513
 10
100.7728325485915
 20
-122.5131076082606
 10
101.1790093063025
 20
-122.5131076082606
 10
101.4983696577851
 20
-122.5131076082606
 10
101.7181667497441
 20
-122.7256699997005
 10
101.7181667497441
 20
-123.0648396502234
 97
        0
 97
        0
 92
        1
 93
        1
 72
     4
 94
        3
 73
     0
 74
     1
 95
       17
 96
       13
 40
0.0
 40
0.0
 40
0.0
 40
0.0
 40
1.0
 40
1.0
 40
1.0
 40
2.0
 40
2.0
 40
2.0
 40
3.0
 40
3.0
 40
3.0
 40
4.0
 40
4.0
 40
4.0
 40
4.0
 10
100.8593044452713
 20
-123.0467528989258
 10
100.8593044452713
 20
-123.3271836714252
 10
101.0708333080656
 20
-123.3678357981511
 10
101.1872775354671
 20
-123.3678357981511
 10
101.3629774052148
 20
-123.3678357981511
 10
101.5259304216671
 20
-123.266033226562
 10
101.5259304216671
 20
-123.0693182743542
 10
101.5259304216671
 20
-122.9404717032059
 10
101.4666747793208
 20
-122.752886254034
 10
101.1810763635936
 20
-122.752886254034
 10
100.9568006475039
 20
-122.752886254034
 10
100.8593044452713
 20
-122.9020588885453
 10
100.8593044452713
 20
-123.0467528989258
 97
        0
 97
        0
 75
     2
 76
     1
 98
        0
  0
ENDBLK
  5
BC
330
B9
100
AcDbEntity
  8
0
100
AcDbBlockEnd
  0
BLOCK
  5
D0
330
CE
100
AcDbEntity
  8
0
100
AcDbBlockBegin
  2
block 6
 70
     0
 10
0.0
 20
0.0
 30
0.0
  3
block 6
  1

  0
SPLINE
  5
D2
330
CE
100
AcDbEntity
  8
_U+30EC_U+30A4_U+30E4_U+30FC 1
370
     0
100
AcDbSpline
210
0.0
220
0.0
230
1.0
 70
    11
 71
     3
 72
    32
 73
    28
 74
     0
 42
0.0000000001
 43
0.0000000001
 12
1.0
 22
0.0
 32
0.0
 13
1.0
 23
0.0
 33
0.0
 40
0.0
 40
0.0
 40
0.0
 40
0.0
 40
1.0
 40
1.0
 40
1.0
 40
2.0
 40
2.0
 40
2.0
 40
3.0
 40
3.0
 40
3.0
 40
4.0
 40
4.0
 40
4.0
 40
5.0
 40
5.0
 40
5.0
 40
6.0
 40
6.0
 40
6.0
 40
7.0
 40
7.0
 40
7.0
 40
8.0
 40
8.0
 40
8.0
 40
9.0
 40
9.0
 40
9.0
 40
9.0
 10
89.91096324792157
 20
-117.3578667241328
 30
0.0
 10
89.35940346073308
 20
-117.3578667241328
 30
0.0
 10
89.35044621247143
 20
-116.8038953701046
 30
0.0
 10
89.35044621247143
 20
-116.5899549404706
 30
0.0
 10
89.35044621247143
 20
-116.3594780525074
 30
0.0
 10
89.3707722758344
 20
-115.7121446108289
 30
0.0
 10
89.95195988419604
 20
-115.7121446108289
 30
0.0
 10
90.13730602130248
 20
-115.7121446108289
 30
0.0
 10
90.39947778772999
 20
-115.7820800491795
 30
0.0
 10
90.44012991445594
 20
-116.1141872539576
 30
0.0
 10
90.44012991445594
 20
-116.1141872539576
 30
0.0
 10
90.21172008378387
 20
-116.1141872539576
 30
0.0
 10
90.21172008378387
 20
-116.1141872539576
 30
0.0
 10
90.20035126868255
 20
-116.0569986689024
 30
0.0
 10
90.1665893329271
 20
-115.9088595630367
 30
0.0
 10
89.94954831735637
 20
-115.9088595630367
 30
0.0
 10
89.63742266639274
 20
-115.9088595630367
 30
0.0
 10
89.59470348237564
 20
-116.2368326532325
 30
0.0
 10
89.58092310043463
 20
-116.4418158346048
 30
0.0
 10
89.68048635995835
 20
-116.3636121670897
 30
0.0
 10
89.7528333651486
 20
-116.3043565247434
 30
0.0
 10
89.94748126006522
 20
-116.3043565247434
 30
0.0
 10
90.13937307859364
 20
-116.3043565247434
 30
0.0
 10
90.4628675446586
 20
-116.4125325229802
 30
0.0
 10
90.4628675446586
 20
-116.8187092806912
 30
0.0
 10
90.4628675446586
 20
-117.1380696321738
 30
0.0
 10
90.25030515321868
 20
-117.3578667241328
 30
0.0
 10
89.91096324792157
 20
-117.3578667241328
 30
0.0
  0
SPLINE
  5
D3
330
CE
100
AcDbEntity
  8
_U+30EC_U+30A4_U+30E4_U+30FC 1
370
     0
100
AcDbSpline
210
0.0
220
0.0
230
1.0
 70
    11
 71
     3
 72
    17
 73
    13
 74
     0
 42
0.0000000001
 43
0.0000000001
 12
1.0
 22
0.0
 32
0.0
 13
1.0
 23
0.0
 33
0.0
 40
0.0
 40
0.0
 40
0.0
 40
0.0
 40
1.0
 40
1.0
 40
1.0
 40
2.0
 40
2.0
 40
2.0
 40
3.0
 40
3.0
 40
3.0
 40
4.0
 40
4.0
 40
4.0
 40
4.0
 10
89.92922225399339
 20
-116.49900441966
 30
0.0
 10
89.64879148149406
 20
-116.49900441966
 30
0.0
 10
89.60813935476811
 20
-116.7105332824543
 30
0.0
 10
89.60813935476811
 20
-116.8269775098558
 30
0.0
 10
89.60813935476811
 20
-117.0026773796035
 30
0.0
 10
89.70976967158298
 20
-117.1656303960558
 30
0.0
 10
89.90648462379075
 20
-117.1656303960558
 30
0.0
 10
90.03533119493909
 20
-117.1656303960558
 30
0.0
 10
90.22308889888521
 20
-117.1063747537095
 30
0.0
 10
90.22308889888521
 20
-116.8207763379823
 30
0.0
 10
90.22308889888521
 20
-116.5965006218925
 30
0.0
 10
90.07391626437389
 20
-116.49900441966
 30
0.0
 10
89.92922225399339
 20
-116.49900441966
 30
0.0
  0
HATCH
  5
D4
330
CE
100
AcDbEntity
  8
_U+30EC_U+30A4_U+30E4_U+30FC 1
 62
     7
420
 16777215
100
AcDbHatch
 10
0.0
 20
0.0
 30
0.0
210
0.0
220
0.0
230
1.0
  2
SOLID
 70
     1
 71
     0
 91
        2
 92
        1
 93
        1
 72
     4
 94
        3
 73
     0
 74
     1
 95
       32
 96
       28
 40
0.0
 40
0.0
 40
0.0
 40
0.0
 40
1.0
 40
1.0
 40
1.0
 40
2.0
 40
2.0
 40
2.0
 40
3.0
 40
3.0
 40
3.0
 40
4.0
 40
4.0
 40
4.0
 40
5.0
 40
5.0
 40
5.0
 40
6.0
 40
6.0
 40
6.0
 40
7.0
 40
7.0
 40
7.0
 40
8.0
 40
8.0
 40
8.0
 40
9.0
 40
9.0
 40
9.0
 40
9.0
 10
89.91096324792157
 20
-117.3578667241328
 10
89.35940346073308
 20
-117.3578667241328
 10
89.35044621247143
 20
-116.8038953701046
 10
89.35044621247143
 20
-116.5899549404706
 10
89.35044621247143
 20
-116.3594780525074
 10
89.3707722758344
 20
-115.7121446108289
 10
89.95195988419604
 20
-115.7121446108289
 10
90.13730602130248
 20
-115.7121446108289
 10
90.39947778772999
 20
-115.7820800491795
 10
90.44012991445594
 20
-116.1141872539576
 10
90.44012991445594
 20
-116.1141872539576
 10
90.21172008378387
 20
-116.1141872539576
 10
90.21172008378387
 20
-116.1141872539576
 10
90.20035126868255
 20
-116.0569986689024
 10
90.1665893329271
 20
-115.9088595630367
 10
89.94954831735637
 20
-115.9088595630367
 10
89.63742266639274
 20
-115.9088595630367
 10
89.59470348237564
 20
-116.2368326532325
 10
89.58092310043463
 20
-116.4418158346048
 10
89.68048635995835
 20
-116.3636121670897
 10
89.7528333651486
 20
-116.3043565247434
 10
89.94748126006522
 20
-116.3043565247434
 10
90.13937307859364
 20
-116.3043565247434
 10
90.4628675446586
 20
-116.4125325229802
 10
90.4628675446586
 20
-116.8187092806912
 10
90.4628675446586
 20
-117.1380696321738
 10
90.25030515321868
 20
-117.3578667241328
 10
89.91096324792157
 20
-117.3578667241328
 97
        0
 97
        0
 92
        1
 93
        1
 72
     4
 94
        3
 73
     0
 74
     1
 95
       17
 96
       13
 40
0.0
 40
0.0
 40
0.0
 40
0.0
 40
1.0
 40
1.0
 40
1.0
 40
2.0
 40
2.0
 40
2.0
 40
3.0
 40
3.0
 40
3.0
 40
4.0
 40
4.0
 40
4.0
 40
4.0
 10
89.92922225399339
 20
-116.49900441966
 10
89.64879148149406
 20
-116.49900441966
 10
89.60813935476811
 20
-116.7105332824543
 10
89.60813935476811
 20
-116.8269775098558
 10
89.60813935476811
 20
-117.0026773796035
 10
89.70976967158298
 20
-117.1656303960558
 10
89.90648462379075
 20
-117.1656303960558
 10
90.03533119493909
 20
-117.1656303960558
 10
90.22308889888521
 20
-117.1063747537095
 10
90.22308889888521
 20
-116.8207763379823
 10
90.22308889888521
 20
-116.5965006218925
 10
90.07391626437389
 20
-116.49900441966
 10
89.92922225399339
 20
-116.49900441966
 97
        0
 97
        0
 75
     2
 76
     1
 98
        0
  0
ENDBLK
  5
D1
330
CE
100
AcDbEntity
  8
0
100
AcDbBlockEnd
  0
BLOCK
  5
DC
330
DA
100
AcDbEntity
  8
0
100
AcDbBlockBegin
  2
block 7
 70
     0
 10
0.0
 20
0.0
 30
0.0
  3
block 7
  1

  0
SPLINE
  5
DE
330
DA
100
AcDbEntity
  8
_U+30EC_U+30A4_U+30E4_U+30FC 1
370
     0
100
AcDbSpline
210
0.0
220
0.0
230
1.0
 70
    11
 71
     3
 72
    26
 73
    22
 74
     0
 42
0.0000000001
 43
0.0000000001
 12
1.0
 22
0.0
 32
0.0
 13
1.0
 23
0.0
 33
0.0
 40
0.0
 40
0.0
 40
0.0
 40
0.0
 40
1.0
 40
1.0
 40
1.0
 40
2.0
 40
2.0
 40
2.0
 40
3.0
 40
3.0
 40
3.0
 40
4.0
 40
4.0
 40
4.0
 40
5.0
 40
5.0
 40
5.0
 40
6.0
 40
6.0
 40
6.0
 40
7.0
 40
7.0
 40
7.0
 40
7.0
 10
88.60733911630302
 20
-122.5165527037459
 30
0.0
 10
88.60733911630302
 20
-122.5165527037459
 30
0.0
 10
88.60733911630302
 20
-121.4123996007233
 30
0.0
 10
88.60733911630302
 20
-121.4123996007233
 30
0.0
 10
88.60733911630302
 20
-121.4123996007233
 30
0.0
 10
88.2772989688161
 20
-121.4123996007233
 30
0.0
 10
88.2772989688161
 20
-121.4123996007233
 30
0.0
 10
88.2772989688161
 20
-121.4123996007233
 30
0.0
 10
88.2772989688161
 20
-121.2642604948576
 30
0.0
 10
88.2772989688161
 20
-121.2642604948576
 30
0.0
 10
88.60940617359418
 20
-121.249446584271
 30
0.0
 10
88.65591496264506
 20
-121.0864935678187
 30
0.0
 10
88.6855427838182
 20
-120.9721163977084
 30
0.0
 10
88.6855427838182
 20
-120.9721163977084
 30
0.0
 10
88.8316148323928
 20
-120.9721163977084
 30
0.0
 10
88.8316148323928
 20
-120.9721163977084
 30
0.0
 10
88.8316148323928
 20
-120.9721163977084
 30
0.0
 10
88.8316148323928
 20
-122.5165527037459
 30
0.0
 10
88.8316148323928
 20
-122.5165527037459
 30
0.0
 10
88.8316148323928
 20
-122.5165527037459
 30
0.0
 10
88.60733911630302
 20
-122.5165527037459
 30
0.0
 10
88.60733911630302
 20
-122.5165527037459
 30
0.0
  0
HATCH
  5
DF
330
DA
100
AcDbEntity
  8
_U+30EC_U+30A4_U+30E4_U+30FC 1
 62
   179
420
  2234388
100
AcDbHatch
 10
0.0
 20
0.0
 30
0.0
210
0.0
220
0.0
230
1.0
  2
SOLID
 70
     1
 71
     0
 91
        1
 92
        1
 93
        1
 72
     4
 94
        3
 73
     0
 74
     1
 95
       26
 96
       22
 40
0.0
 40
0.0
 40
0.0
 40
0.0
 40
1.0
 40
1.0
 40
1.0
 40
2.0
 40
2.0
 40
2.0
 40
3.0
 40
3.0
 40
3.0
 40
4.0
 40
4.0
 40
4.0
 40
5.0
 40
5.0
 40
5.0
 40
6.0
 40
6.0
 40
6.0
 40
7.0
 40
7.0
 40
7.0
 40
7.0
 10
88.60733911630302
 20
-122.5165527037459
 10
88.60733911630302
 20
-122.5165527037459
 10
88.60733911630302
 20
-121.4123996007233
 10
88.60733911630302
 20
-121.4123996007233
 10
88.60733911630302
 20
-121.4123996007233
 10
88.2772989688161
 20
-121.4123996007233
 10
88.2772989688161
 20
-121.4123996007233
 10
88.2772989688161
 20
-121.4123996007233
 10
88.2772989688161
 20
-121.2642604948576
 10
88.2772989688161
 20
-121.2642604948576
 10
88.60940617359418
 20
-121.249446584271
 10
88.65591496264506
 20
-121.0864935678187
 10
88.6855427838182
 20
-120.9721163977084
 10
88.6855427838182
 20
-120.9721163977084
 10
88.8316148323928
 20
-120.9721163977084
 10
88.8316148323928
 20
-120.9721163977084
 10
88.8316148323928
 20
-120.9721163977084
 10
88.8316148323928
 20
-122.5165527037459
 10
88.8316148323928
 20
-122.5165527037459
 10
88.8316148323928
 20
-122.5165527037459
 10
88.60733911630302
 20
-122.5165527037459
 10
88.60733911630302
 20
-122.5165527037459
 97
        0
 97
        0
 75
     2
 76
     1
 98
        0
  0
ENDBLK
  5
DD
330
DA
100
AcDbEntity
  8
0
100
AcDbBlockEnd
  0
ENDSEC
  0
SECTION
  2
ENTITIES
  0
SPLINE
  5
41
330
1F
100
AcDbEntity
  8
_U+30EC_U+30A4_U+30E4_U+30FC 1
 62
     7
420
 16777215
370
     9
100
AcDbSpline
210
0.0
220
0.0
230
1.0
 70
    11
 71
     3
 72
    17
 73
    13
 74
     0
 42
0.0000000001
 43
0.0000000001
 12
1.0
 22
0.0
 32
0.0
 13
1.0
 23
0.0
 33
0.0
 40
0.0
 40
0.0
 40
0.0
 40
0.0
 40
1.0
 40
1.0
 40
1.0
 40
2.0
 40
2.0
 40
2.0
 40
3.0
 40
3.0
 40
3.0
 40
4.0
 40
4.0
 40
4.0
 40
4.0
 10
99.80305328714532
 20
-140.4944555204321
 30
0.0
 10
99.80305328714532
 20
-140.439316353779
 30
0.0
 10
99.75825051051055
 20
-140.3945488537905
 30
0.0
 10
99.70311386396297
 20
-140.3945488537905
 30
0.0
 10
99.64800745776753
 20
-140.3945488537905
 30
0.0
 10
99.60320468113277
 20
-140.439316353779
 30
0.0
 10
99.60320468113277
 20
-140.4944555204321
 30
0.0
 10
99.60320468113277
 20
-140.549559409307
 30
0.0
 10
99.64800745776753
 20
-140.5943621870737
 30
0.0
 10
99.70311386396297
 20
-140.5943621870737
 30
0.0
 10
99.75825051051055
 20
-140.5943621870737
 30
0.0
 10
99.80305328714532
 20
-140.549559409307
 30
0.0
 10
99.80305328714532
 20
-140.4944555204321
 30
0.0
  0
SPLINE
  5
42
330
1F
100
AcDbEntity
  8
_U+30EC_U+30A4_U+30E4_U+30FC 1
 62
     7
420
 16777215
370
     9
100
AcDbSpline
210
0.0
220
0.0
230
1.0
 70
    11
 71
     3
 72
    17
 73
    13
 74
     0
 42
0.0000000001
 43
0.0000000001
 12
1.0
 22
0.0
 32
0.0
 13
1.0
 23
0.0
 33
0.0
 40
0.0
 40
0.0
 40
0.0
 40
0.0
 40
1.0
 40
1.0
 40
1.0
 40
2.0
 40
2.0
 40
2.0
 40
3.0
 40
3.0
 40
3.0
 40
4.0
 40
4.0
 40
4.0
 40
4.0
 10
85.90258614177579
 20
-140.4944555204321
 30
0.0
 10
85.90258614177579
 20
-140.439316353779
 30
0.0
 10
85.8581361429098
 20
-140.3945488537905
 30
0.0
 10
85.80267947765795
 20
-140.3945488537905
 30
0.0
 10
85.74789309016677
 20
-140.3945488537905
 30
0.0
 10
85.70277497857427
 20
-140.439316353779
 30
0.0
 10
85.70277497857427
 20
-140.4944555204321
 30
0.0
 10
85.70277497857427
 20
-140.549559409307
 30
0.0
 10
85.74789309016677
 20
-140.5943621870737
 30
0.0
 10
85.80267947765795
 20
-140.5943621870737
 30
0.0
 10
85.8581361429098
 20
-140.5943621870737
 30
0.0
 10
85.90258614177579
 20
-140.549559409307
 30
0.0
 10
85.90258614177579
 20
-140.4944555204321
 30
0.0
  0
POLYLINE
  5
43
330
1F
100
AcDbEntity
  8
_U+30EC_U+30A4_U+30E4_U+30FC 1
 62
     7
420
 16777215
370
     9
100
AcDb2dPolyline
 66
     1
 10
0.0
 20
0.0
 30
0.0
  0
VERTEX
  5
44
330
43
100
AcDbEntity
  8
_U+30EC_U+30A4_U+30E4_U+30FC 1
 62
     7
420
 16777215
370
     9
100
AcDbVertex
100
AcDb2dVertex
 10
85.80267947765795
 20
-140.4944555204321
 30
0.0
  0
VERTEX
  5
45
330
43
100
AcDbEntity
  8
_U+30EC_U+30A4_U+30E4_U+30FC 1
 62
     7
420
 16777215
370
     9
100
AcDbVertex
100
AcDb2dVertex
 10
99.80305328714532
 20
-140.4944555204321
 30
0.0
  0
SEQEND
  5
46
330
43
100
AcDbEntity
  8
_U+30EC_U+30A4_U+30E4_U+30FC 1
 62
     7
420
 16777215
370
     9
  0
POLYLINE
  5
47
330
1F
100
AcDbEntity
  8
_U+30EC_U+30A4_U+30E4_U+30FC 1
 62
     7
420
 16777215
370
     9
100
AcDb2dPolyline
 66
     1
 10
0.0
 20
0.0
 30
0.0
  0
VERTEX
  5
48
330
47
100
AcDbEntity
  8
_U+30EC_U+30A4_U+30E4_U+30FC 1
 62
     7
420
 16777215
370
     9
100
AcDbVertex
100
AcDb2dVertex
 10
85.80267947765795
 20
-138.0342891321581
 30
0.0
  0
VERTEX
  5
49
330
47
100
AcDbEntity
  8
_U+30EC_U+30A4_U+30E4_U+30FC 1
 62
     7
420
 16777215
370
     9
100
AcDbVertex
100
AcDb2dVertex
 10
85.80267947765795
 20
-141.4945452424042
 30
0.0
  0
SEQEND
  5
4A
330
47
100
AcDbEntity
  8
_U+30EC_U+30A4_U+30E4_U+30FC 1
 62
     7
420
 16777215
370
     9
  0
POLYLINE
  5
4B
330
1F
100
AcDbEntity
  8
_U+30EC_U+30A4_U+30E4_U+30FC 1
 62
     7
420
 16777215
370
     9
100
AcDb2dPolyline
 66
     1
 10
0.0
 20
0.0
 30
0.0
  0
VERTEX
  5
4C
330
4B
100
AcDbEntity
  8
_U+30EC_U+30A4_U+30E4_U+30FC 1
 62
     7
420
 16777215
370
     9
100
AcDbVertex
100
AcDb2dVertex
 10
99.70311386396297
 20
-138.0342891321581
 30
0.0
  0
VERTEX
  5
4D
330
4B
100
AcDbEntity
  8
_U+30EC_U+30A4_U+30E4_U+30FC 1
 62
     7
420
 16777215
370
     9
100
AcDbVertex
100
AcDb2dVertex
 10
99.70311386396297
 20
-141.4945452424042
 30
0.0
  0
SEQEND
  5
4E
330
4B
100
AcDbEntity
  8
_U+30EC_U+30A4_U+30E4_U+30FC 1
 62
     7
420
 16777215
370
     9
  0
INSERT
  5
50
330
1F
100
AcDbEntity
  8
_U+30EC_U+30A4_U+30E4_U+30FC 1
100
AcDbBlockReference
  2
block 2
 10
0.0
 20
0.0
 30
0.0
  0
SPLINE
  5
6A
330
1F
100
AcDbEntity
  8
_U+30EC_U+30A4_U+30E4_U+30FC 1
 62
     7
420
 16777215
370
     9
100
AcDbSpline
210
0.0
220
0.0
230
1.0
 70
    11
 71
     3
 72
    17
 73
    13
 74
     0
 42
0.0000000001
 43
0.0000000001
 12
1.0
 22
0.0
 32
0.0
 13
1.0
 23
0.0
 33
0.0
 40
0.0
 40
0.0
 40
0.0
 40
0.0
 40
1.0
 40
1.0
 40
1.0
 40
2.0
 40
2.0
 40
2.0
 40
3.0
 40
3.0
 40
3.0
 40
4.0
 40
4.0
 40
4.0
 40
4.0
 10
82.30830984458451
 20
-120.0098846922196
 30
0.0
 10
82.30830984458451
 20
-119.9547808033447
 30
0.0
 10
82.26319164610084
 20
-119.909978025578
 30
0.0
 10
82.20840318046669
 20
-119.909978025578
 30
0.0
 10
82.15294651521484
 20
-119.909978025578
 30
0.0
 10
82.10849651634885
 20
-119.9547808033447
 30
0.0
 10
82.10849651634885
 20
-120.0098846922196
 30
0.0
 10
82.10849651634885
 20
-120.0650238588727
 30
0.0
 10
82.15294651521484
 20
-120.1098266366391
 30
0.0
 10
82.20840318046669
 20
-120.1098266366391
 30
0.0
 10
82.26319164610084
 20
-120.1098266366391
 30
0.0
 10
82.30830984458451
 20
-120.0650238588727
 30
0.0
 10
82.30830984458451
 20
-120.0098846922196
 30
0.0
  0
SPLINE
  5
6B
330
1F
100
AcDbEntity
  8
_U+30EC_U+30A4_U+30E4_U+30FC 1
 62
     7
420
 16777215
370
     9
100
AcDbSpline
210
0.0
220
0.0
230
1.0
 70
    11
 71
     3
 72
    17
 73
    13
 74
     0
 42
0.0000000001
 43
0.0000000001
 12
1.0
 22
0.0
 32
0.0
 13
1.0
 23
0.0
 33
0.0
 40
0.0
 40
0.0
 40
0.0
 40
0.0
 40
1.0
 40
1.0
 40
1.0
 40
2.0
 40
2.0
 40
2.0
 40
3.0
 40
3.0
 40
3.0
 40
4.0
 40
4.0
 40
4.0
 40
4.0
 10
82.30830984458451
 20
-136.5098305214282
 30
0.0
 10
82.30830984458451
 20
-136.4547266325533
 30
0.0
 10
82.26319164610084
 20
-136.4099238547866
 30
0.0
 10
82.20840318046669
 20
-136.4099238547866
 30
0.0
 10
82.15294651521484
 20
-136.4099238547866
 30
0.0
 10
82.10849651634885
 20
-136.4547266325533
 30
0.0
 10
82.10849651634885
 20
-136.5098305214282
 30
0.0
 10
82.10849651634885
 20
-136.5653224658584
 30
0.0
 10
82.15294651521484
 20
-136.6100899658476
 30
0.0
 10
82.20840318046669
 20
-136.6100899658476
 30
0.0
 10
82.26319164610084
 20
-136.6100899658476
 30
0.0
 10
82.30830984458451
 20
-136.5653224658584
 30
0.0
 10
82.30830984458451
 20
-136.5098305214282
 30
0.0
  0
POLYLINE
  5
6C
330
1F
100
AcDbEntity
  8
_U+30EC_U+30A4_U+30E4_U+30FC 1
 62
     7
420
 16777215
370
     9
100
AcDb2dPolyline
 66
     1
 10
0.0
 20
0.0
 30
0.0
  0
VERTEX
  5
6D
330
6C
100
AcDbEntity
  8
_U+30EC_U+30A4_U+30E4_U+30FC 1
 62
     7
420
 16777215
370
     9
100
AcDbVertex
100
AcDb2dVertex
 10
82.20840318046669
 20
-136.5098305214282
 30
0.0
  0
VERTEX
  5
6E
330
6C
100
AcDbEntity
  8
_U+30EC_U+30A4_U+30E4_U+30FC 1
 62
     7
420
 16777215
370
     9
100
AcDbVertex
100
AcDb2dVertex
 10
82.20840318046669
 20
-120.0098846922196
 30
0.0
  0
SEQEND
  5
6F
330
6C
100
AcDbEntity
  8
_U+30EC_U+30A4_U+30E4_U+30FC 1
 62
     7
420
 16777215
370
     9
  0
POLYLINE
  5
70
330
1F
100
AcDbEntity
  8
_U+30EC_U+30A4_U+30E4_U+30FC 1
 62
     7
420
 16777215
370
     9
100
AcDb2dPolyline
 66
     1
 10
0.0
 20
0.0
 30
0.0
  0
VERTEX
  5
71
330
70
100
AcDbEntity
  8
_U+30EC_U+30A4_U+30E4_U+30FC 1
 62
     7
420
 16777215
370
     9
100
AcDbVertex
100
AcDb2dVertex
 10
84.66786395105395
 20
-136.5098305214282
 30
0.0
  0
VERTEX
  5
72
330
70
100
AcDbEntity
  8
_U+30EC_U+30A4_U+30E4_U+30FC 1
 62
     7
420
 16777215
370
     9
100
AcDbVertex
100
AcDb2dVertex
 10
81.20831348375887
 20
-136.5098305214282
 30
0.0
  0
SEQEND
  5
73
330
70
100
AcDbEntity
  8
_U+30EC_U+30A4_U+30E4_U+30FC 1
 62
     7
420
 16777215
370
     9
  0
POLYLINE
  5
74
330
1F
100
AcDbEntity
  8
_U+30EC_U+30A4_U+30E4_U+30FC 1
 62
     7
420
 16777215
370
     9
100
AcDb2dPolyline
 66
     1
 10
0.0
 20
0.0
 30
0.0
  0
VERTEX
  5
75
330
74
100
AcDbEntity
  8
_U+30EC_U+30A4_U+30E4_U+30FC 1
 62
     7
420
 16777215
370
     9
100
AcDbVertex
100
AcDb2dVertex
 10
83.66809175433804
 20
-120.0098846922196
 30
0.0
  0
VERTEX
  5
76
330
74
100
AcDbEntity
  8
_U+30EC_U+30A4_U+30E4_U+30FC 1
 62
     7
420
 16777215
370
     9
100
AcDbVertex
100
AcDb2dVertex
 10
81.20831348375887
 20
-120.0098846922196
 30
0.0
  0
SEQEND
  5
77
330
74
100
AcDbEntity
  8
_U+30EC_U+30A4_U+30E4_U+30FC 1
 62
     7
420
 16777215
370
     9
  0
INSERT
  5
79
330
1F
100
AcDbEntity
  8
_U+30EC_U+30A4_U+30E4_U+30FC 1
100
AcDbBlockReference
  2
block 3
 10
0.0
 20
0.0
 30
0.0
  0
SPLINE
  5
8B
330
1F
100
AcDbEntity
  8
_U+30EC_U+30A4_U+30E4_U+30FC 1
 62
     7
420
 16777215
370
     9
100
AcDbSpline
210
0.0
220
0.0
230
1.0
 70
    11
 71
     3
 72
    17
 73
    13
 74
     0
 42
0.0000000001
 43
0.0000000001
 12
1.0
 22
0.0
 32
0.0
 13
1.0
 23
0.0
 33
0.0
 40
0.0
 40
0.0
 40
0.0
 40
0.0
 40
1.0
 40
1.0
 40
1.0
 40
2.0
 40
2.0
 40
2.0
 40
3.0
 40
3.0
 40
3.0
 40
4.0
 40
4.0
 40
4.0
 40
4.0
 10
102.3634437773799
 20
-135.410151632814
 30
0.0
 10
102.3634437773799
 20
-135.3550477439391
 30
0.0
 10
102.3179707229844
 20
-135.3102449661724
 30
0.0
 10
102.263537113262
 20
-135.3102449661724
 30
0.0
 10
102.2077276702414
 20
-135.3102449661724
 30
0.0
 10
102.1636304491442
 20
-135.3550477439391
 30
0.0
 10
102.1636304491442
 20
-135.410151632814
 30
0.0
 10
102.1636304491442
 20
-135.4656435772449
 30
0.0
 10
102.2077276702414
 20
-135.5104110772334
 30
0.0
 10
102.263537113262
 20
-135.5104110772334
 30
0.0
 10
102.3179707229844
 20
-135.5104110772334
 30
0.0
 10
102.3634437773799
 20
-135.4656435772449
 30
0.0
 10
102.3634437773799
 20
-135.410151632814
 30
0.0
  0
SPLINE
  5
8C
330
1F
100
AcDbEntity
  8
_U+30EC_U+30A4_U+30E4_U+30FC 1
 62
     7
420
 16777215
370
     9
100
AcDbSpline
210
0.0
220
0.0
230
1.0
 70
    11
 71
     3
 72
    17
 73
    13
 74
     0
 42
0.0000000001
 43
0.0000000001
 12
1.0
 22
0.0
 32
0.0
 13
1.0
 23
0.0
 33
0.0
 40
0.0
 40
0.0
 40
0.0
 40
0.0
 40
1.0
 40
1.0
 40
1.0
 40
2.0
 40
2.0
 40
2.0
 40
3.0
 40
3.0
 40
3.0
 40
4.0
 40
4.0
 40
4.0
 40
4.0
 10
102.3634437773799
 20
-127.0099835793586
 30
0.0
 10
102.3634437773799
 20
-126.9548796904834
 30
0.0
 10
102.3179707229844
 20
-126.910076912717
 30
0.0
 10
102.263537113262
 20
-126.910076912717
 30
0.0
 10
102.2077276702414
 20
-126.910076912717
 30
0.0
 10
102.1636304491442
 20
-126.9548796904834
 30
0.0
 10
102.1636304491442
 20
-127.0099835793586
 30
0.0
 10
102.1636304491442
 20
-127.065793023789
 30
0.0
 10
102.2077276702414
 20
-127.1105958015558
 30
0.0
 10
102.263537113262
 20
-127.1105958015558
 30
0.0
 10
102.3179707229844
 20
-127.1105958015558
 30
0.0
 10
102.3634437773799
 20
-127.065793023789
 30
0.0
 10
102.3634437773799
 20
-127.0099835793586
 30
0.0
  0
SPLINE
  5
8D
330
1F
100
AcDbEntity
  8
_U+30EC_U+30A4_U+30E4_U+30FC 1
 62
     7
420
 16777215
370
     9
100
AcDbSpline
210
0.0
220
0.0
230
1.0
 70
    11
 71
     3
 72
    17
 73
    13
 74
     0
 42
0.0000000001
 43
0.0000000001
 12
1.0
 22
0.0
 32
0.0
 13
1.0
 23
0.0
 33
0.0
 40
0.0
 40
0.0
 40
0.0
 40
0.0
 40
1.0
 40
1.0
 40
1.0
 40
2.0
 40
2.0
 40
2.0
 40
3.0
 40
3.0
 40
3.0
 40
4.0
 40
4.0
 40
4.0
 40
4.0
 10
102.3634437773799
 20
-120.0102374699974
 30
0.0
 10
102.3634437773799
 20
-119.9551335811225
 30
0.0
 10
102.3179707229844
 20
-119.9103308033557
 30
0.0
 10
102.263537113262
 20
-119.9103308033557
 30
0.0
 10
102.2077276702414
 20
-119.9103308033557
 30
0.0
 10
102.1636304491442
 20
-119.9551335811225
 30
0.0
 10
102.1636304491442
 20
-120.0102374699974
 30
0.0
 10
102.1636304491442
 20
-120.0653766366505
 30
0.0
 10
102.2077276702414
 20
-120.110144136639
 30
0.0
 10
102.263537113262
 20
-120.110144136639
 30
0.0
 10
102.3179707229844
 20
-120.110144136639
 30
0.0
 10
102.3634437773799
 20
-120.0653766366505
 30
0.0
 10
102.3634437773799
 20
-120.0102374699974
 30
0.0
  0
POLYLINE
  5
8E
330
1F
100
AcDbEntity
  8
_U+30EC_U+30A4_U+30E4_U+30FC 1
 62
     7
420
 16777215
370
     9
100
AcDb2dPolyline
 66
     1
 10
0.0
 20
0.0
 30
0.0
  0
VERTEX
  5
8F
330
8E
100
AcDbEntity
  8
_U+30EC_U+30A4_U+30E4_U+30FC 1
 62
     7
420
 16777215
370
     9
100
AcDbVertex
100
AcDb2dVertex
 10
102.263537113262
 20
-135.410151632814
 30
0.0
  0
VERTEX
  5
90
330
8E
100
AcDbEntity
  8
_U+30EC_U+30A4_U+30E4_U+30FC 1
 62
     7
420
 16777215
370
     9
100
AcDbVertex
100
AcDb2dVertex
 10
102.263537113262
 20
-126.910076912717
 30
0.0
  0
SEQEND
  5
91
330
8E
100
AcDbEntity
  8
_U+30EC_U+30A4_U+30E4_U+30FC 1
 62
     7
420
 16777215
370
     9
  0
POLYLINE
  5
92
330
1F
100
AcDbEntity
  8
_U+30EC_U+30A4_U+30E4_U+30FC 1
 62
     7
420
 16777215
370
     9
100
AcDb2dPolyline
 66
     1
 10
0.0
 20
0.0
 30
0.0
  0
VERTEX
  5
93
330
92
100
AcDbEntity
  8
_U+30EC_U+30A4_U+30E4_U+30FC 1
 62
     7
420
 16777215
370
     9
100
AcDbVertex
100
AcDb2dVertex
 10
95.803294222521
 20
-135.410151632814
 30
0.0
  0
VERTEX
  5
94
330
92
100
AcDbEntity
  8
_U+30EC_U+30A4_U+30E4_U+30FC 1
 62
     7
420
 16777215
370
     9
100
AcDbVertex
100
AcDb2dVertex
 10
103.2632740322011
 20
-135.410151632814
 30
0.0
  0
SEQEND
  5
95
330
92
100
AcDbEntity
  8
_U+30EC_U+30A4_U+30E4_U+30FC 1
 62
     7
420
 16777215
370
     9
  0
POLYLINE
  5
96
330
1F
100
AcDbEntity
  8
_U+30EC_U+30A4_U+30E4_U+30FC 1
 62
     7
420
 16777215
370
     9
100
AcDb2dPolyline
 66
     1
 10
0.0
 20
0.0
 30
0.0
  0
VERTEX
  5
97
330
96
100
AcDbEntity
  8
_U+30EC_U+30A4_U+30E4_U+30FC 1
 62
     7
420
 16777215
370
     9
100
AcDbVertex
100
AcDb2dVertex
 10
95.803294222521
 20
-127.0099835793586
 30
0.0
  0
VERTEX
  5
98
330
96
100
AcDbEntity
  8
_U+30EC_U+30A4_U+30E4_U+30FC 1
 62
     7
420
 16777215
370
     9
100
AcDbVertex
100
AcDb2dVertex
 10
103.2632740322011
 20
-127.0099835793586
 30
0.0
  0
SEQEND
  5
99
330
96
100
AcDbEntity
  8
_U+30EC_U+30A4_U+30E4_U+30FC 1
 62
     7
420
 16777215
370
     9
  0
SPLINE
  5
9A
330
1F
100
AcDbEntity
  8
_U+30EC_U+30A4_U+30E4_U+30FC 1
 62
     7
420
 16777215
370
     9
100
AcDbSpline
210
0.0
220
0.0
230
1.0
 70
    11
 71
     3
 72
    17
 73
    13
 74
     0
 42
0.0000000001
 43
0.0000000001
 12
1.0
 22
0.0
 32
0.0
 13
1.0
 23
0.0
 33
0.0
 40
0.0
 40
0.0
 40
0.0
 40
0.0
 40
1.0
 40
1.0
 40
1.0
 40
2.0
 40
2.0
 40
2.0
 40
3.0
 40
3.0
 40
3.0
 40
4.0
 40
4.0
 40
4.0
 40
4.0
 10
102.3634437773799
 20
-125.9096344129671
 30
0.0
 10
102.3634437773799
 20
-125.8544952463143
 30
0.0
 10
102.3179707229844
 20
-125.8097277463254
 30
0.0
 10
102.263537113262
 20
-125.8097277463254
 30
0.0
 10
102.2077276702414
 20
-125.8097277463254
 30
0.0
 10
102.1636304491442
 20
-125.8544952463143
 30
0.0
 10
102.1636304491442
 20
-125.9096344129671
 30
0.0
 10
102.1636304491442
 20
-125.9654438573975
 30
0.0
 10
102.2077276702414
 20
-126.0102113573864
 30
0.0
 10
102.263537113262
 20
-126.0102113573864
 30
0.0
 10
102.3179707229844
 20
-126.0102113573864
 30
0.0
 10
102.3634437773799
 20
-125.9654438573975
 30
0.0
 10
102.3634437773799
 20
-125.9096344129671
 30
0.0
  0
POLYLINE
  5
9B
330
1F
100
AcDbEntity
  8
_U+30EC_U+30A4_U+30E4_U+30FC 1
 62
     7
420
 16777215
370
     9
100
AcDb2dPolyline
 66
     1
 10
0.0
 20
0.0
 30
0.0
  0
VERTEX
  5
9C
330
9B
100
AcDbEntity
  8
_U+30EC_U+30A4_U+30E4_U+30FC 1
 62
     7
420
 16777215
370
     9
100
AcDbVertex
100
AcDb2dVertex
 10
95.803294222521
 20
-125.9096344129671
 30
0.0
  0
VERTEX
  5
9D
330
9B
100
AcDbEntity
  8
_U+30EC_U+30A4_U+30E4_U+30FC 1
 62
     7
420
 16777215
370
     9
100
AcDbVertex
100
AcDb2dVertex
 10
103.2632740322011
 20
-125.9096344129671
 30
0.0
  0
SEQEND
  5
9E
330
9B
100
AcDbEntity
  8
_U+30EC_U+30A4_U+30E4_U+30FC 1
 62
     7
420
 16777215
370
     9
  0
INSERT
  5
A0
330
1F
100
AcDbEntity
  8
_U+30EC_U+30A4_U+30E4_U+30FC 1
100
AcDbBlockReference
  2
block 4
 10
0.0
 20
0.0
 30
0.0
  0
POLYLINE
  5
B1
330
1F
100
AcDbEntity
  8
_U+30EC_U+30A4_U+30E4_U+30FC 1
 62
     7
420
 16777215
370
     9
100
AcDb2dPolyline
 66
     1
 10
0.0
 20
0.0
 30
0.0
  0
VERTEX
  5
B2
330
B1
100
AcDbEntity
  8
_U+30EC_U+30A4_U+30E4_U+30FC 1
 62
     7
420
 16777215
370
     9
100
AcDbVertex
100
AcDb2dVertex
 10
102.263537113262
 20
-127.0099835793586
 30
0.0
  0
VERTEX
  5
B3
330
B1
100
AcDbEntity
  8
_U+30EC_U+30A4_U+30E4_U+30FC 1
 62
     7
420
 16777215
370
     9
100
AcDbVertex
100
AcDb2dVertex
 10
102.263537113262
 20
-120.0102374699974
 30
0.0
  0
SEQEND
  5
B4
330
B1
100
AcDbEntity
  8
_U+30EC_U+30A4_U+30E4_U+30FC 1
 62
     7
420
 16777215
370
     9
  0
POLYLINE
  5
B5
330
1F
100
AcDbEntity
  8
_U+30EC_U+30A4_U+30E4_U+30FC 1
 62
     7
420
 16777215
370
     9
100
AcDb2dPolyline
 66
     1
 10
0.0
 20
0.0
 30
0.0
  0
VERTEX
  5
B6
330
B5
100
AcDbEntity
  8
_U+30EC_U+30A4_U+30E4_U+30FC 1
 62
     7
420
 16777215
370
     9
100
AcDbVertex
100
AcDb2dVertex
 10
95.803294222521
 20
-120.0102374699974
 30
0.0
  0
VERTEX
  5
B7
330
B5
100
AcDbEntity
  8
_U+30EC_U+30A4_U+30E4_U+30FC 1
 62
     7
420
 16777215
370
     9
100
AcDbVertex
100
AcDb2dVertex
 10
103.2632740322011
 20
-120.0102374699974
 30
0.0
  0
SEQEND
  5
B8
330
B5
100
AcDbEntity
  8
_U+30EC_U+30A4_U+30E4_U+30FC 1
 62
     7
420
 16777215
370
     9
  0
INSERT
  5
BA
330
1F
100
AcDbEntity
  8
_U+30EC_U+30A4_U+30E4_U+30FC 1
100
AcDbBlockReference
  2
block 5
 10
0.0
 20
0.0
 30
0.0
  0
SPLINE
  5
C0
330
1F
100
AcDbEntity
  8
_U+30EC_U+30A4_U+30E4_U+30FC 1
 62
     7
420
 16777215
370
     9
100
AcDbSpline
210
0.0
220
0.0
230
1.0
 70
    11
 71
     3
 72
    17
 73
    13
 74
     0
 42
0.0000000001
 43
0.0000000001
 12
1.0
 22
0.0
 32
0.0
 13
1.0
 23
0.0
 33
0.0
 40
0.0
 40
0.0
 40
0.0
 40
0.0
 40
1.0
 40
1.0
 40
1.0
 40
2.0
 40
2.0
 40
2.0
 40
3.0
 40
3.0
 40
3.0
 40
4.0
 40
4.0
 40
4.0
 40
4.0
 10
93.00654262720542
 20
-117.9035544149685
 30
0.0
 10
93.00654262720542
 20
-117.8484505260936
 30
0.0
 10
92.96106957280998
 20
-117.8036477483268
 30
0.0
 10
92.90663596308758
 20
-117.8036477483268
 30
0.0
 10
92.85153207560451
 20
-117.8036477483268
 30
0.0
 10
92.80672929896974
 20
-117.8484505260936
 30
0.0
 10
92.80672929896974
 20
-117.9035544149685
 30
0.0
 10
92.80672929896974
 20
-117.9586935816215
 30
0.0
 10
92.85153207560451
 20
-118.0034610816101
 30
0.0
 10
92.90663596308758
 20
-118.0034610816101
 30
0.0
 10
92.96106957280998
 20
-118.0034610816101
 30
0.0
 10
93.00654262720542
 20
-117.9586935816215
 30
0.0
 10
93.00654262720542
 20
-117.9035544149685
 30
0.0
  0
SPLINE
  5
C1
330
1F
100
AcDbEntity
  8
_U+30EC_U+30A4_U+30E4_U+30FC 1
 62
     7
420
 16777215
370
     9
100
AcDbSpline
210
0.0
220
0.0
230
1.0
 70
    11
 71
     3
 72
    17
 73
    13
 74
     0
 42
0.0000000001
 43
0.0000000001
 12
1.0
 22
0.0
 32
0.0
 13
1.0
 23
0.0
 33
0.0
 40
0.0
 40
0.0
 40
0.0
 40
0.0
 40
1.0
 40
1.0
 40
1.0
 40
2.0
 40
2.0
 40
2.0
 40
3.0
 40
3.0
 40
3.0
 40
4.0
 40
4.0
 40
4.0
 40
4.0
 10
87.00639250250423
 20
-117.9035544149685
 30
0.0
 10
87.00639250250423
 20
-117.8484505260936
 30
0.0
 10
86.96162500364633
 20
-117.8036477483268
 30
0.0
 10
86.9061330606176
 20
-117.8036477483268
 30
0.0
 10
86.85138195090332
 20
-117.8036477483268
 30
0.0
 10
86.80622639649978
 20
-117.8484505260936
 30
0.0
 10
86.80622639649978
 20
-117.9035544149685
 30
0.0
 10
86.80622639649978
 20
-117.9586935816215
 30
0.0
 10
86.85138195090332
 20
-118.0034610816101
 30
0.0
 10
86.9061330606176
 20
-118.0034610816101
 30
0.0
 10
86.96162500364633
 20
-118.0034610816101
 30
0.0
 10
87.00639250250423
 20
-117.9586935816215
 30
0.0
 10
87.00639250250423
 20
-117.9035544149685
 30
0.0
  0
POLYLINE
  5
C2
330
1F
100
AcDbEntity
  8
_U+30EC_U+30A4_U+30E4_U+30FC 1
 62
     7
420
 16777215
370
     9
100
AcDb2dPolyline
 66
     1
 10
0.0
 20
0.0
 30
0.0
  0
VERTEX
  5
C3
330
C2
100
AcDbEntity
  8
_U+30EC_U+30A4_U+30E4_U+30FC 1
 62
     7
420
 16777215
370
     9
100
AcDbVertex
100
AcDb2dVertex
 10
86.9061330606176
 20
-117.9035544149685
 30
0.0
  0
VERTEX
  5
C4
330
C2
100
AcDbEntity
  8
_U+30EC_U+30A4_U+30E4_U+30FC 1
 62
     7
420
 16777215
370
     9
100
AcDbVertex
100
AcDb2dVertex
 10
92.90663596308758
 20
-117.9035544149685
 30
0.0
  0
SEQEND
  5
C5
330
C2
100
AcDbEntity
  8
_U+30EC_U+30A4_U+30E4_U+30FC 1
 62
     7
420
 16777215
370
     9
  0
POLYLINE
  5
C6
330
1F
100
AcDbEntity
  8
_U+30EC_U+30A4_U+30E4_U+30FC 1
 62
     7
420
 16777215
370
     9
100
AcDb2dPolyline
 66
     1
 10
0.0
 20
0.0
 30
0.0
  0
VERTEX
  5
C7
330
C6
100
AcDbEntity
  8
_U+30EC_U+30A4_U+30E4_U+30FC 1
 62
     7
420
 16777215
370
     9
100
AcDbVertex
100
AcDb2dVertex
 10
86.9061330606176
 20
-116.4435483042226
 30
0.0
  0
VERTEX
  5
C8
330
C6
100
AcDbEntity
  8
_U+30EC_U+30A4_U+30E4_U+30FC 1
 62
     7
420
 16777215
370
     9
100
AcDbVertex
100
AcDb2dVertex
 10
86.9061330606176
 20
-118.9036794147185
 30
0.0
  0
SEQEND
  5
C9
330
C6
100
AcDbEntity
  8
_U+30EC_U+30A4_U+30E4_U+30FC 1
 62
     7
420
 16777215
370
     9
  0
POLYLINE
  5
CA
330
1F
100
AcDbEntity
  8
_U+30EC_U+30A4_U+30E4_U+30FC 1
 62
     7
420
 16777215
370
     9
100
AcDb2dPolyline
 66
     1
 10
0.0
 20
0.0
 30
0.0
  0
VERTEX
  5
CB
330
CA
100
AcDbEntity
  8
_U+30EC_U+30A4_U+30E4_U+30FC 1
 62
     7
420
 16777215
370
     9
100
AcDbVertex
100
AcDb2dVertex
 10
92.90663596308758
 20
-116.4435483042226
 30
0.0
  0
VERTEX
  5
CC
330
CA
100
AcDbEntity
  8
_U+30EC_U+30A4_U+30E4_U+30FC 1
 62
     7
420
 16777215
370
     9
100
AcDbVertex
100
AcDb2dVertex
 10
92.90663596308758
 20
-118.9036794147185
 30
0.0
  0
SEQEND
  5
CD
330
CA
100
AcDbEntity
  8
_U+30EC_U+30A4_U+30E4_U+30FC 1
 62
     7
420
 16777215
370
     9
  0
INSERT
  5
CF
330
1F
100
AcDbEntity
  8
_U+30EC_U+30A4_U+30E4_U+30FC 1
100
AcDbBlockReference
  2
block 6
 10
0.0
 20
0.0
 30
0.0
  0
SPLINE
  5
D5
330
1F
100
AcDbEntity
  8
_U+30EC_U+30A4_U+30E4_U+30FC 1
 62
   179
420
  2234388
370
    25
100
AcDbSpline
210
0.0
220
0.0
230
1.0
 70
    11
 71
     3
 72
    44
 73
    40
 74
     0
 42
0.0000000001
 43
0.0000000001
 12
1.0
 22
0.0
 32
0.0
 13
1.0
 23
0.0
 33
0.0
 40
0.0
 40
0.0
 40
0.0
 40
0.0
 40
1.0
 40
1.0
 40
1.0
 40
2.0
 40
2.0
 40
2.0
 40
3.0
 40
3.0
 40
3.0
 40
4.0
 40
4.0
 40
4.0
 40
5.0
 40
5.0
 40
5.0
 40
6.0
 40
6.0
 40
6.0
 40
7.0
 40
7.0
 40
7.0
 40
8.0
 40
8.0
 40
8.0
 40
9.0
 40
9.0
 40
9.0
 40
10.0
 40
10.0
 40
10.0
 40
11.0
 40
11.0
 40
11.0
 40
12.0
 40
12.0
 40
12.0
 40
13.0
 40
13.0
 40
13.0
 40
13.0
 10
86.80245167437386
 20
-121.0100096919696
 30
0.0
 10
86.80245167437386
 20
-120.4574185809967
 30
0.0
 10
86.3549177969025
 20
-120.0098846922196
 30
0.0
 10
85.80267947765795
 20
-120.0098846922196
 30
0.0
 10
85.80267947765795
 20
-120.0098846922196
 30
0.0
 10
85.80267947765795
 20
-135.5100582994557
 30
0.0
 10
85.80267947765795
 20
-135.5100582994557
 30
0.0
 10
85.80267947765795
 20
-136.062331910429
 30
0.0
 10
86.25088363288997
 20
-136.5098305214282
 30
0.0
 10
86.80245167437386
 20
-136.5098305214282
 30
0.0
 10
86.80245167437386
 20
-136.5098305214282
 30
0.0
 10
99.80305328714532
 20
-136.5098305214282
 30
0.0
 10
99.80305328714532
 20
-136.5098305214282
 30
0.0
 10
99.80305328714532
 20
-136.0681880215382
 30
0.0
 10
99.44473690739784
 20
-135.7099069105171
 30
0.0
 10
99.00309441866509
 20
-135.7099069105171
 30
0.0
 10
99.00309441866509
 20
-135.7099069105171
 30
0.0
 10
93.14917067912224
 20
-135.7099069105171
 30
0.0
 10
93.14917067912224
 20
-135.7099069105171
 30
0.0
 10
93.14917067912224
 20
-135.7099069105171
 30
0.0
 10
92.8033073546126
 20
-135.5097407994561
 30
0.0
 10
92.8033073546126
 20
-135.5097407994561
 30
0.0
 10
92.8033073546126
 20
-135.5097407994561
 30
0.0
 10
86.8031572299114
 20
-135.5097407994561
 30
0.0
 10
86.8031572299114
 20
-135.5097407994561
 30
0.0
 10
86.8031572299114
 20
-135.5097407994561
 30
0.0
 10
86.8031572299114
 20
-127.0099835793586
 30
0.0
 10
86.8031572299114
 20
-127.0099835793586
 30
0.0
 10
86.8031572299114
 20
-127.0099835793586
 30
0.0
 10
92.8033073546126
 20
-127.0099835793586
 30
0.0
 10
92.8033073546126
 20
-127.0099835793586
 30
0.0
 10
92.8033073546126
 20
-126.4573924683857
 30
0.0
 10
92.35542069937247
 20
-126.0098938573865
 30
0.0
 10
91.80282960235914
 20
-126.0098938573865
 30
0.0
 10
91.80282960235914
 20
-126.0098938573865
 30
0.0
 10
86.8031572299114
 20
-126.0098938573865
 30
0.0
 10
86.8031572299114
 20
-126.0098938573865
 30
0.0
 10
86.8031572299114
 20
-126.0098938573865
 30
0.0
 10
86.80245167437386
 20
-121.0100096919696
 30
0.0
 10
86.80245167437386
 20
-121.0100096919696
 30
0.0
  0
POLYLINE
  5
D6
330
1F
100
AcDbEntity
  8
_U+30EC_U+30A4_U+30E4_U+30FC 1
 62
   179
420
  2234388
370
     9
100
AcDb2dPolyline
 66
     1
 10
0.0
 20
0.0
 30
0.0
  0
VERTEX
  5
D7
330
D6
100
AcDbEntity
  8
_U+30EC_U+30A4_U+30E4_U+30FC 1
 62
   179
420
  2234388
370
     9
100
AcDbVertex
100
AcDb2dVertex
 10
84.80290728094204
 20
-122.9658096914809
 30
0.0
  0
VERTEX
  5
D8
330
D6
100
AcDbEntity
  8
_U+30EC_U+30A4_U+30E4_U+30FC 1
 62
   179
420
  2234388
370
     9
100
AcDbVertex
100
AcDb2dVertex
 10
89.42348466306129
 20
-122.9658096914809
 30
0.0
  0
SEQEND
  5
D9
330
D6
100
AcDbEntity
  8
_U+30EC_U+30A4_U+30E4_U+30FC 1
 62
   179
420
  2234388
370
     9
  0
INSERT
  5
DB
330
1F
100
AcDbEntity
  8
_U+30EC_U+30A4_U+30E4_U+30FC 1
100
AcDbBlockReference
  2
block 7
 10
0.0
 20
0.0
 30
0.0
  0
ENDSEC
  0
SECTION
  2
OBJECTS
  0
DICTIONARY
  5
C
330
0
100
AcDbDictionary
281
     1
  3
ACAD_GROUP
350
D
  3
ACAD_LAYOUT
350
1A
  3
ACAD_MATERIAL
350
3B
  3
ACAD_MLEADERSTYLE
350
E1
  3
ACAD_MLINESTYLE
350
17
  3
ACAD_PLOTSETTINGS
350
19
  3
ACAD_PLOTSTYLENAME
350
E
  3
ACAD_TABLESTYLE
350
E0
  3
ACAD_VISUALSTYLE
350
2A
  0
SUN
  5
3F
330
29
100
AcDbSun
 90
        1
290
     0
 63
     7
421
 16777215
 40
1.0
291
     1
 91
  2455826
 92
 54000000
292
     0
 70
     2
 71
   256
280
     1
  0
DICTIONARY
  5
D
102
{ACAD_REACTORS
330
C
102
}
330
C
100
AcDbDictionary
281
     1
  0
DICTIONARY
  5
1A
102
{ACAD_REACTORS
330
C
102
}
330
C
100
AcDbDictionary
281
     1
  3
Layout1
350
1E
  3
Layout2
350
26
  3
Model
350
22
  0
DICTIONARY
  5
3B
102
{ACAD_REACTORS
330
C
102
}
330
C
100
AcDbDictionary
281
     1
  3
ByBlock
350
3D
  3
ByLayer
350
3C
  3
Global
350
3E
  0
DICTIONARY
  5
E1
102
{ACAD_REACTORS
330
C
102
}
330
C
100
AcDbDictionary
281
     1
  0
DICTIONARY
  5
17
102
{ACAD_REACTORS
330
C
102
}
330
C
100
AcDbDictionary
281
     1
  3
Standard
350
18
  0
DICTIONARY
  5
19
102
{ACAD_REACTORS
330
C
102
}
330
C
100
AcDbDictionary
281
     1
  0
ACDBDICTIONARYWDFLT
  5
E
102
{ACAD_REACTORS
330
C
102
}
330
C
100
AcDbDictionary
281
     1
  3
Normal
350
F
100
AcDbDictionaryWithDefault
340
F
  0
DICTIONARY
  5
E0
102
{ACAD_REACTORS
330
C
102
}
330
C
100
AcDbDictionary
281
     1
  0
DICTIONARY
  5
2A
102
{ACAD_REACTORS
330
C
102
}
330
C
100
AcDbDictionary
281
     1
  3
2dWireframe
350
2F
  3
3D Hidden
350
31
  3
3dWireframe
350
30
  3
Basic
350
32
  3
Brighten
350
36
  3
ColorChange
350
3A
  3
Conceptual
350
34
  3
Dim
350
35
  3
Facepattern
350
39
  3
Flat
350
2B
  3
FlatWithEdges
350
2C
  3
Gouraud
350
2D
  3
GouraudWithEdges
350
2E
  3
Linepattern
350
38
  3
Realistic
350
33
  3
Thicken
350
37
  0
LAYOUT
  5
1E
102
{ACAD_REACTORS
330
1A
102
}
330
1A
100
AcDbPlotSettings
  1

  2
none_device
  4

  6

 40
0.0
 41
0.0
 42
0.0
 43
0.0
 44
0.0
 45
0.0
 46
0.0
 47
0.0
 48
0.0
 49
0.0
140
0.0
141
0.0
142
1.0
143
1.0
 70
   688
 72
     0
 73
     0
 74
     5
  7

 75
    16
 76
     0
 77
     2
 78
   300
147
1.0
148
0.0
149
0.0
100
AcDbLayout
  1
Layout1
 70
     1
 71
     1
 10
0.0
 20
0.0
 11
12.0
 21
9.0
 12
0.0
 22
0.0
 32
0.0
 14
1.000000000000000E+20
 24
1.000000000000000E+20
 34
1.000000000000000E+20
 15
-1.000000000000000E+20
 25
-1.000000000000000E+20
 35
-1.000000000000000E+20
146
0.0
 13
0.0
 23
0.0
 33
0.0
 16
1.0
 26
0.0
 36
0.0
 17
0.0
 27
1.0
 37
0.0
 76
     0
330
1B
  0
LAYOUT
  5
26
102
{ACAD_REACTORS
330
1A
102
}
330
1A
100
AcDbPlotSettings
  1

  2
none_device
  4

  6

 40
0.0
 41
0.0
 42
0.0
 43
0.0
 44
0.0
 45
0.0
 46
0.0
 47
0.0
 48
0.0
 49
0.0
140
0.0
141
0.0
142
1.0
143
1.0
 70
   688
 72
     0
 73
     0
 74
     5
  7

 75
    16
 76
     0
 77
     2
 78
   300
147
1.0
148
0.0
149
0.0
100
AcDbLayout
  1
Layout2
 70
     1
 71
     2
 10
0.0
 20
0.0
 11
0.0
 21
0.0
 12
0.0
 22
0.0
 32
0.0
 14
0.0
 24
0.0
 34
0.0
 15
0.0
 25
0.0
 35
0.0
146
0.0
 13
0.0
 23
0.0
 33
0.0
 16
1.0
 26
0.0
 36
0.0
 17
0.0
 27
1.0
 37
0.0
 76
     0
330
23
  0
LAYOUT
  5
22
102
{ACAD_REACTORS
330
1A
102
}
330
1A
100
AcDbPlotSettings
  1

  2
none_device
  4

  6

 40
0.0
 41
0.0
 42
0.0
 43
0.0
 44
0.0
 45
0.0
 46
0.0
 47
0.0
 48
0.0
 49
0.0
140
0.0
141
0.0
142
1.0
143
1.0
 70
  1712
 72
     0
 73
     0
 74
     0
  7

 75
     0
 76
     0
 77
     2
 78
   300
147
1.0
148
0.0
149
0.0
100
AcDbLayout
  1
Model
 70
     1
 71
     0
 10
0.0
 20
0.0
 11
12.0
 21
9.0
 12
0.0
 22
0.0
 32
0.0
 14
1.000000000000000E+20
 24
1.000000000000000E+20
 34
1.000000000000000E+20
 15
-1.000000000000000E+20
 25
-1.000000000000000E+20
 35
-1.000000000000000E+20
146
0.0
 13
0.0
 23
0.0
 33
0.0
 16
1.0
 26
0.0
 36
0.0
 17
0.0
 27
1.0
 37
0.0
 76
     0
330
1F
331
29
  0
MATERIAL
  5
3D
102
{ACAD_REACTORS
330
3B
102
}
330
3B
100
AcDbMaterial
  1
ByBlock
 72
     1
 94
      127
  0
MATERIAL
  5
3C
102
{ACAD_REACTORS
330
3B
102
}
330
3B
100
AcDbMaterial
  1
ByLayer
 72
     1
 94
      127
  0
MATERIAL
  5
3E
102
{ACAD_REACTORS
330
3B
102
}
330
3B
100
AcDbMaterial
  1
Global
 72
     1
 94
      127
  0
MLINESTYLE
  5
18
102
{ACAD_REACTORS
330
17
102
}
330
17
100
AcDbMlineStyle
  2
Standard
 70
     0
  3

 62
   256
 51
90.0
 52
90.0
 71
     2
 49
0.5
 62
   256
  6
BYLAYER
 49
-0.5
 62
   256
  6
BYLAYER
  0
ACDBPLACEHOLDER
  5
F
102
{ACAD_REACTORS
330
E
102
}
330
E
  0
VISUALSTYLE
  5
2F
102
{ACAD_REACTORS
330
2A
102
}
330
2A
100
AcDbVisualStyle
  2
2dWireframe
 70
     4
177
     2
291
     0
 71
     0
176
     1
 72
     2
176
     1
 73
     0
176
     1
 90
        0
176
     1
 40
-0.6
176
     1
 41
-30.0
176
     1
 62
     5
 63
     7
421
 16777215
176
     1
 74
     1
176
     1
 91
        4
176
     1
 64
     7
176
     1
 65
   257
176
     1
 75
     1
176
     1
175
     1
176
     1
 42
1.0
176
     1
 92
        0
176
     1
 66
   257
176
     1
 43
1.0
176
     1
 76
     1
176
     1
 77
     6
176
     1
 78
     2
176
     1
 67
     7
176
     1
 79
     5
176
     1
170
     0
176
     1
171
     0
176
     1
290
     0
176
     1
 93
        1
176
     1
 44
0.0
176
     1
173
     0
176
     1
  0
VISUALSTYLE
  5
31
102
{ACAD_REACTORS
330
2A
102
}
330
2A
100
AcDbVisualStyle
  2
3D Hidden
 70
     6
177
     2
291
     0
 71
     1
176
     1
 72
     2
176
     1
 73
     2
176
     1
 90
        0
176
     1
 40
-0.6
176
     1
 41
-30.0
176
     1
 62
     5
 63
     7
421
 16777215
176
     1
 74
     2
176
     1
 91
        2
176
     1
 64
     7
176
     1
 65
   257
176
     1
 75
     2
176
     1
175
     1
176
     1
 42
40.0
176
     1
 92
        0
176
     1
 66
   257
176
     1
 43
1.0
176
     1
 76
     1
176
     1
 77
     6
176
     1
 78
     2
176
     1
 67
     7
176
     1
 79
     3
176
     1
170
     0
176
     1
171
     0
176
     1
290
     0
176
     1
 93
        1
176
     1
 44
0.0
176
     1
173
     0
176
     1
  0
VISUALSTYLE
  5
30
102
{ACAD_REACTORS
330
2A
102
}
330
2A
100
AcDbVisualStyle
  2
3dWireframe
 70
     5
177
     2
291
     0
 71
     0
176
     1
 72
     2
176
     1
 73
     0
176
     1
 90
        0
176
     1
 40
-0.6
176
     1
 41
-30.0
176
     1
 62
     5
 63
     7
421
 16777215
176
     1
 74
     1
176
     1
 91
        4
176
     1
 64
     7
176
     1
 65
   257
176
     1
 75
     1
176
     1
175
     1
176
     1
 42
1.0
176
     1
 92
        0
176
     1
 66
   257
176
     1
 43
1.0
176
     1
 76
     1
176
     1
 77
     6
176
     1
 78
     2
176
     1
 67
     7
176
     1
 79
     5
176
     1
170
     0
176
     1
171
     0
176
     1
290
     0
176
     1
 93
        1
176
     1
 44
0.0
176
     1
173
     0
176
     1
  0
VISUALSTYLE
  5
32
102
{ACAD_REACTORS
330
2A
102
}
330
2A
100
AcDbVisualStyle
  2
Basic
 70
     7
177
     2
291
     1
 71
     1
176
     1
 72
     0
176
     1
 73
     1
176
     1
 90
        0
176
     1
 40
-0.6
176
     1
 41
-30.0
176
     1
 62
     5
 63
     7
421
 16777215
176
     1
 74
     0
176
     1
 91
        4
176
     1
 64
     7
176
     1
 65
   257
176
     1
 75
     1
176
     1
175
     1
176
     1
 42
1.0
176
     1
 92
        8
176
     1
 66
     7
176
     1
 43
1.0
176
     1
 76
     1
176
     1
 77
     6
176
     1
 78
     2
176
     1
 67
     7
176
     1
 79
     5
176
     1
170
     0
176
     1
171
     0
176
     1
290
     0
176
     1
 93
        1
176
     1
 44
0.0
176
     1
173
     0
176
     1
  0
VISUALSTYLE
  5
36
102
{ACAD_REACTORS
330
2A
102
}
330
2A
100
AcDbVisualStyle
  2
Brighten
 70
    12
177
     2
291
     1
 71
     2
176
     1
 72
     2
176
     1
 73
     0
176
     1
 90
        0
176
     1
 40
-0.6
176
     1
 41
-30.0
176
     1
 62
     5
 63
     7
421
 16777215
176
     1
 74
     1
176
     1
 91
        4
176
     1
 64
     7
176
     1
 65
   257
176
     1
 75
     1
176
     1
175
     1
176
     1
 42
1.0
176
     1
 92
        8
176
     1
 66
     7
176
     1
 43
1.0
176
     1
 76
     1
176
     1
 77
     6
176
     1
 78
     2
176
     1
 67
     7
176
     1
 79
     5
176
     1
170
     0
176
     1
171
     0
176
     1
290
     0
176
     1
 93
        1
176
     1
 44
50.0
176
     1
173
     0
176
     1
  0
VISUALSTYLE
  5
3A
102
{ACAD_REACTORS
330
2A
102
}
330
2A
100
AcDbVisualStyle
  2
ColorChange
 70
    16
177
     2
291
     1
 71
     2
176
     1
 72
     2
176
     1
 73
     3
176
     1
 90
        0
176
     1
 40
-0.6
176
     1
 41
-30.0
176
     1
 62
     5
 63
     8
421
  8421504
176
     1
 74
     1
176
     1
 91
        4
176
     1
 64
     7
176
     1
 65
   257
176
     1
 75
     1
176
     1
175
     1
176
     1
 42
1.0
176
     1
 92
        8
176
     1
 66
     8
424
  8421504
176
     1
 43
1.0
176
     1
 76
     1
176
     1
 77
     6
176
     1
 78
     2
176
     1
 67
     7
176
     1
 79
     5
176
     1
170
     0
176
     1
171
     0
176
     1
290
     0
176
     1
 93
        1
176
     1
 44
0.0
176
     1
173
     0
176
     1
  0
VISUALSTYLE
  5
34
102
{ACAD_REACTORS
330
2A
102
}
330
2A
100
AcDbVisualStyle
  2
Conceptual
 70
     9
177
     2
291
     0
 71
     3
176
     1
 72
     2
176
     1
 73
     0
176
     1
 90
        0
176
     1
 40
-0.6
176
     1
 41
-30.0
176
     1
 62
     5
 63
     7
421
 16777215
176
     1
 74
     2
176
     1
 91
        2
176
     1
 64
     7
176
     1
 65
   257
176
     1
 75
     1
176
     1
175
     1
176
     1
 42
40.0
176
     1
 92
        8
176
     1
 66
     7
176
     1
 43
1.0
176
     1
 76
     1
176
     1
 77
     6
176
     1
 78
     2
176
     1
 67
     7
176
     1
 79
     3
176
     1
170
     0
176
     1
171
     0
176
     1
290
     0
176
     1
 93
        1
176
     1
 44
0.0
176
     1
173
     0
176
     1
  0
VISUALSTYLE
  5
35
102
{ACAD_REACTORS
330
2A
102
}
330
2A
100
AcDbVisualStyle
  2
Dim
 70
    11
177
     2
291
     1
 71
     2
176
     1
 72
     2
176
     1
 73
     0
176
     1
 90
        0
176
     1
 40
-0.6
176
     1
 41
-30.0
176
     1
 62
     5
 63
     7
421
 16777215
176
     1
 74
     1
176
     1
 91
        4
176
     1
 64
     7
176
     1
 65
   257
176
     1
 75
     1
176
     1
175
     1
176
     1
 42
1.0
176
     1
 92
        8
176
     1
 66
     7
176
     1
 43
1.0
176
     1
 76
     1
176
     1
 77
     6
176
     1
 78
     2
176
     1
 67
     7
176
     1
 79
     5
176
     1
170
     0
176
     1
171
     0
176
     1
290
     0
176
     1
 93
        1
176
     1
 44
-50.0
176
     1
173
     0
176
     1
  0
VISUALSTYLE
  5
39
102
{ACAD_REACTORS
330
2A
102
}
330
2A
100
AcDbVisualStyle
  2
Facepattern
 70
    15
177
     2
291
     1
 71
     2
176
     1
 72
     2
176
     1
 73
     0
176
     1
 90
        0
176
     1
 40
-0.6
176
     1
 41
-30.0
176
     1
 62
     5
 63
     7
421
 16777215
176
     1
 74
     1
176
     1
 91
        4
176
     1
 64
     7
176
     1
 65
   257
176
     1
 75
     1
176
     1
175
     1
176
     1
 42
1.0
176
     1
 92
        8
176
     1
 66
     7
176
     1
 43
1.0
176
     1
 76
     1
176
     1
 77
     6
176
     1
 78
     2
176
     1
 67
     7
176
     1
 79
     5
176
     1
170
     0
176
     1
171
     0
176
     1
290
     0
176
     1
 93
        1
176
     1
 44
0.0
176
     1
173
     0
176
     1
  0
VISUALSTYLE
  5
2B
102
{ACAD_REACTORS
330
2A
102
}
330
2A
100
AcDbVisualStyle
  2
Flat
 70
     0
177
     2
291
     1
 71
     2
176
     1
 72
     1
176
     1
 73
     1
176
     1
 90
        2
176
     1
 40
-0.6
176
     1
 41
30.0
176
     1
 62
     5
 63
     7
421
 16777215
176
     1
 74
     0
176
     1
 91
        4
176
     1
 64
     7
176
     1
 65
   257
176
     1
 75
     1
176
     1
175
     1
176
     1
 42
1.0
176
     1
 92
        8
176
     1
 66
     7
176
     1
 43
1.0
176
     1
 76
     1
176
     1
 77
     6
176
     1
 78
     2
176
     1
 67
     7
176
     1
 79
     5
176
     1
170
     0
176
     1
171
     0
176
     1
290
     0
176
     1
 93
       13
176
     1
 44
0.0
176
     1
173
     0
176
     1
  0
VISUALSTYLE
  5
2C
102
{ACAD_REACTORS
330
2A
102
}
330
2A
100
AcDbVisualStyle
  2
FlatWithEdges
 70
     1
177
     2
291
     1
 71
     2
176
     1
 72
     1
176
     1
 73
     1
176
     1
 90
        2
176
     1
 40
-0.6
176
     1
 41
30.0
176
     1
 62
     5
 63
     7
421
 16777215
176
     1
 74
     1
176
     1
 91
        4
176
     1
 64
     7
176
     1
 65
   257
176
     1
 75
     1
176
     1
175
     1
176
     1
 42
1.0
176
     1
 92
        0
176
     1
 66
   257
176
     1
 43
1.0
176
     1
 76
     1
176
     1
 77
     6
176
     1
 78
     2
176
     1
 67
     7
176
     1
 79
     5
176
     1
170
     0
176
     1
171
     0
176
     1
290
     0
176
     1
 93
       13
176
     1
 44
0.0
176
     1
173
     0
176
     1
  0
VISUALSTYLE
  5
2D
102
{ACAD_REACTORS
330
2A
102
}
330
2A
100
AcDbVisualStyle
  2
Gouraud
 70
     2
177
     2
291
     1
 71
     2
176
     1
 72
     2
176
     1
 73
     1
176
     1
 90
        2
176
     1
 40
-0.6
176
     1
 41
30.0
176
     1
 62
     5
 63
     7
421
 16777215
176
     1
 74
     0
176
     1
 91
        4
176
     1
 64
     7
176
     1
 65
   257
176
     1
 75
     1
176
     1
175
     1
176
     1
 42
1.0
176
     1
 92
        0
176
     1
 66
     7
176
     1
 43
1.0
176
     1
 76
     1
176
     1
 77
     6
176
     1
 78
     2
176
     1
 67
     7
176
     1
 79
     5
176
     1
170
     0
176
     1
171
     0
176
     1
290
     0
176
     1
 93
       13
176
     1
 44
0.0
176
     1
173
     0
176
     1
  0
VISUALSTYLE
  5
2E
102
{ACAD_REACTORS
330
2A
102
}
330
2A
100
AcDbVisualStyle
  2
GouraudWithEdges
 70
     3
177
     2
291
     1
 71
     2
176
     1
 72
     2
176
     1
 73
     1
176
     1
 90
        2
176
     1
 40
-0.6
176
     1
 41
30.0
176
     1
 62
     5
 63
     7
421
 16777215
176
     1
 74
     1
176
     1
 91
        4
176
     1
 64
     7
176
     1
 65
   257
176
     1
 75
     1
176
     1
175
     1
176
     1
 42
1.0
176
     1
 92
        0
176
     1
 66
   257
176
     1
 43
1.0
176
     1
 76
     1
176
     1
 77
     6
176
     1
 78
     2
176
     1
 67
     7
176
     1
 79
     5
176
     1
170
     0
176
     1
171
     0
176
     1
290
     0
176
     1
 93
       13
176
     1
 44
0.0
176
     1
173
     0
176
     1
  0
VISUALSTYLE
  5
38
102
{ACAD_REACTORS
330
2A
102
}
330
2A
100
AcDbVisualStyle
  2
Linepattern
 70
    14
177
     2
291
     1
 71
     2
176
     1
 72
     2
176
     1
 73
     0
176
     1
 90
        0
176
     1
 40
-0.6
176
     1
 41
-30.0
176
     1
 62
     5
 63
     7
421
 16777215
176
     1
 74
     1
176
     1
 91
        4
176
     1
 64
     7
176
     1
 65
   257
176
     1
 75
     7
176
     1
175
     7
176
     1
 42
1.0
176
     1
 92
        8
176
     1
 66
     7
176
     1
 43
1.0
176
     1
 76
     1
176
     1
 77
     6
176
     1
 78
     2
176
     1
 67
     7
176
     1
 79
     5
176
     1
170
     0
176
     1
171
     0
176
     1
290
     0
176
     1
 93
        1
176
     1
 44
0.0
176
     1
173
     0
176
     1
  0
VISUALSTYLE
  5
33
102
{ACAD_REACTORS
330
2A
102
}
330
2A
100
AcDbVisualStyle
  2
Realistic
 70
     8
177
     2
291
     0
 71
     2
176
     1
 72
     2
176
     1
 73
     0
176
     1
 90
        0
176
     1
 40
-0.6
176
     1
 41
-30.0
176
     1
 62
     5
 63
     7
421
 16777215
176
     1
 74
     1
176
     1
 91
        0
176
     1
 64
     7
176
     1
 65
   257
176
     1
 75
     1
176
     1
175
     1
176
     1
 42
1.0
176
     1
 92
        8
176
     1
 66
     8
424
  7895160
176
     1
 43
1.0
176
     1
 76
     1
176
     1
 77
     6
176
     1
 78
     2
176
     1
 67
     7
176
     1
 79
     5
176
     1
170
     0
176
     1
171
     0
176
     1
290
     0
176
     1
 93
       13
176
     1
 44
0.0
176
     1
173
     0
176
     1
  0
VISUALSTYLE
  5
37
102
{ACAD_REACTORS
330
2A
102
}
330
2A
100
AcDbVisualStyle
  2
Thicken
 70
    13
177
     2
291
     1
 71
     2
176
     1
 72
     2
176
     1
 73
     0
176
     1
 90
        0
176
     1
 40
-0.6
176
     1
 41
-30.0
176
     1
 62
     5
 63
     7
421
 16777215
176
     1
 74
     1
176
     1
 91
        4
176
     1
 64
     7
176
     1
 65
   257
176
     1
 75
     1
176
     1
175
     1
176
     1
 42
1.0
176
     1
 92
       12
176
     1
 66
     7
176
     1
 43
1.0
176
     1
 76
     1
176
     1
 77
     6
176
     1
 78
     2
176
     1
 67
     7
176
     1
 79
     5
176
     1
170
     0
176
     1
171
     0
176
     1
290
     0
176
     1
 93
        1
176
     1
 44
0.0
176
     1
173
     0
176
     1
  0
ENDSEC
  0
EOF
