  0
SECTION
  2
HEADER
  9
$ACADVER
  1
AC1024
  9
$ACADMAINTVER
 70
     6
  9
$DWGCODEPAGE
  3
UNDEFINED
  9
$INSBASE
 10
0.0
 20
0.0
 30
0.0
  9
$EXTMIN
 10
1.000000000000000E+20
 20
1.000000000000000E+20
 30
1.000000000000000E+20
  9
$EXTMAX
 10
-1.000000000000000E+20
 20
-1.000000000000000E+20
 30
-1.000000000000000E+20
  9
$LIMMIN
 10
0.0
 20
0.0
  9
$LIMMAX
 10
12.0
 20
9.0
  9
$ORTHOMODE
 70
     0
  9
$REGENMODE
 70
     1
  9
$FILLMODE
 70
     1
  9
$QTEXTMODE
 70
     0
  9
$MIRRTEXT
 70
     1
  9
$LTSCALE
 40
1.0
  9
$ATTMODE
 70
     1
  9
$TEXTSIZE
 40
0.2
  9
$TRACEWID
 40
0.05
  9
$TEXTSTYLE
  7
Standard
  9
$CLAYER
  8
0
  9
$CELTYPE
  6
ByLayer
  9
$CECOLOR
 62
   256
  9
$CELTSCALE
 40
1.0
  9
$DISPSILH
 70
     0
  9
$DIMSCALE
 40
1.0
  9
$DIMASZ
 40
0.18
  9
$DIMEXO
 40
0.0625
  9
$DIMDLI
 40
0.38
  9
$DIMRND
 40
0.0
  9
$DIMDLE
 40
0.0
  9
$DIMEXE
 40
0.18
  9
$DIMTP
 40
0.0
  9
$DIMTM
 40
0.0
  9
$DIMTXT
 40
0.18
  9
$DIMCEN
 40
0.09
  9
$DIMTSZ
 40
0.0
  9
$DIMTOL
 70
     0
  9
$DIMLIM
 70
     0
  9
$DIMTIH
 70
     1
  9
$DIMTOH
 70
     1
  9
$DIMSE1
 70
     0
  9
$DIMSE2
 70
     0
  9
$DIMTAD
 70
     0
  9
$DIMZIN
 70
     0
  9
$DIMBLK
  1

  9
$DIMASO
 70
     1
  9
$DIMSHO
 70
     1
  9
$DIMPOST
  1

  9
$DIMAPOST
  1

  9
$DIMALT
 70
     0
  9
$DIMALTD
 70
     2
  9
$DIMALTF
 40
25.4
  9
$DIMLFAC
 40
1.0
  9
$DIMTOFL
 70
     0
  9
$DIMTVP
 40
0.0
  9
$DIMTIX
 70
     0
  9
$DIMSOXD
 70
     0
  9
$DIMSAH
 70
     0
  9
$DIMBLK1
  1

  9
$DIMBLK2
  1

  9
$DIMSTYLE
  2
Standard
  9
$DIMCLRD
 70
     0
  9
$DIMCLRE
 70
     0
  9
$DIMCLRT
 70
     0
  9
$DIMTFAC
 40
1.0
  9
$DIMGAP
 40
0.09
  9
$DIMJUST
 70
     0
  9
$DIMSD1
 70
     0
  9
$DIMSD2
 70
     0
  9
$DIMTOLJ
 70
     1
  9
$DIMTZIN
 70
     0
  9
$DIMALTZ
 70
     0
  9
$DIMALTTZ
 70
     0
  9
$DIMUPT
 70
     0
  9
$DIMDEC
 70
     4
  9
$DIMTDEC
 70
     4
  9
$DIMALTU
 70
     2
  9
$DIMALTTD
 70
     2
  9
$DIMTXSTY
  7
Standard
  9
$DIMAUNIT
 70
     0
  9
$DIMADEC
 70
     0
  9
$DIMALTRND
 40
0.0
  9
$DIMAZIN
 70
     0
  9
$DIMDSEP
 70
    46
  9
$DIMATFIT
 70
     3
  9
$DIMFRAC
 70
     0
  9
$DIMLDRBLK
  1

  9
$DIMLUNIT
 70
     2
  9
$DIMLWD
 70
    -2
  9
$DIMLWE
 70
    -2
  9
$DIMTMOVE
 70
     0
  9
$DIMFXL
 40
1.0
  9
$DIMFXLON
 70
     0
  9
$DIMJOGANG
 40
0.7853981633974483
  9
$DIMTFILL
 70
     0
  9
$DIMTFILLCLR
 70
     0
  9
$DIMARCSYM
 70
     0
  9
$DIMLTYPE
  6

  9
$DIMLTEX1
  6

  9
$DIMLTEX2
  6

  9
$DIMTXTDIRECTION
 70
     0
  9
$LUNITS
 70
     2
  9
$LUPREC
 70
     4
  9
$SKETCHINC
 40
0.1
  9
$FILLETRAD
 40
0.5
  9
$AUNITS
 70
     0
  9
$AUPREC
 70
     0
  9
$MENU
  1
.
  9
$ELEVATION
 40
0.0
  9
$PELEVATION
 40
0.0
  9
$THICKNESS
 40
0.0
  9
$LIMCHECK
 70
     0
  9
$CHAMFERA
 40
0.5
  9
$CHAMFERB
 40
0.5
  9
$CHAMFERC
 40
1.0
  9
$CHAMFERD
 40
0.0
  9
$SKPOLY
 70
     0
  9
$TDCREATE
 40
2457917.595208333
  9
$TDUCREATE
 40
2457917.220208333
  9
$TDUPDATE
 40
2457917.595208333
  9
$TDUUPDATE
 40
2457917.220208333
  9
$TDINDWG
 40
0.0000000116
  9
$TDUSRTIMER
 40
0.0000000116
  9
$USRTIMER
 70
     1
  9
$ANGBASE
 50
0.0
  9
$ANGDIR
 70
     0
  9
$PDMODE
 70
     0
  9
$PDSIZE
 40
0.0
  9
$PLINEWID
 40
0.0
  9
$SPLFRAME
 70
     0
  9
$SPLINETYPE
 70
     6
  9
$SPLINESEGS
 70
     8
  9
$HANDSEED
  5
FA
  9
$SURFTAB1
 70
     6
  9
$SURFTAB2
 70
     6
  9
$SURFTYPE
 70
     6
  9
$SURFU
 70
     6
  9
$SURFV
 70
     6
  9
$UCSBASE
  2

  9
$UCSNAME
  2

  9
$UCSORG
 10
0.0
 20
0.0
 30
0.0
  9
$UCSXDIR
 10
1.0
 20
0.0
 30
0.0
  9
$UCSYDIR
 10
0.0
 20
1.0
 30
0.0
  9
$UCSORTHOREF
  2

  9
$UCSORTHOVIEW
 70
     0
  9
$UCSORGTOP
 10
0.0
 20
0.0
 30
0.0
  9
$UCSORGBOTTOM
 10
0.0
 20
0.0
 30
0.0
  9
$UCSORGLEFT
 10
0.0
 20
0.0
 30
0.0
  9
$UCSORGRIGHT
 10
0.0
 20
0.0
 30
0.0
  9
$UCSORGFRONT
 10
0.0
 20
0.0
 30
0.0
  9
$UCSORGBACK
 10
0.0
 20
0.0
 30
0.0
  9
$PUCSBASE
  2

  9
$PUCSNAME
  2

  9
$PUCSORG
 10
0.0
 20
0.0
 30
0.0
  9
$PUCSXDIR
 10
1.0
 20
0.0
 30
0.0
  9
$PUCSYDIR
 10
0.0
 20
1.0
 30
0.0
  9
$PUCSORTHOREF
  2

  9
$PUCSORTHOVIEW
 70
     0
  9
$PUCSORGTOP
 10
0.0
 20
0.0
 30
0.0
  9
$PUCSORGBOTTOM
 10
0.0
 20
0.0
 30
0.0
  9
$PUCSORGLEFT
 10
0.0
 20
0.0
 30
0.0
  9
$PUCSORGRIGHT
 10
0.0
 20
0.0
 30
0.0
  9
$PUCSORGFRONT
 10
0.0
 20
0.0
 30
0.0
  9
$PUCSORGBACK
 10
0.0
 20
0.0
 30
0.0
  9
$USERI1
 70
     0
  9
$USERI2
 70
     0
  9
$USERI3
 70
     0
  9
$USERI4
 70
     0
  9
$USERI5
 70
     0
  9
$USERR1
 40
0.0
  9
$USERR2
 40
0.0
  9
$USERR3
 40
0.0
  9
$USERR4
 40
0.0
  9
$USERR5
 40
0.0
  9
$WORLDVIEW
 70
     1
  9
$SHADEDGE
 70
     3
  9
$SHADEDIF
 70
    70
  9
$TILEMODE
 70
     1
  9
$MAXACTVP
 70
    64
  9
$PINSBASE
 10
0.0
 20
0.0
 30
0.0
  9
$PLIMCHECK
 70
     0
  9
$PEXTMIN
 10
1.000000000000000E+20
 20
1.000000000000000E+20
 30
1.000000000000000E+20
  9
$PEXTMAX
 10
-1.000000000000000E+20
 20
-1.000000000000000E+20
 30
-1.000000000000000E+20
  9
$PLIMMIN
 10
0.0
 20
0.0
  9
$PLIMMAX
 10
12.0
 20
9.0
  9
$UNITMODE
 70
     0
  9
$VISRETAIN
 70
     1
  9
$PLINEGEN
 70
     0
  9
$PSLTSCALE
 70
     1
  9
$TREEDEPTH
 70
  3020
  9
$CMLSTYLE
  2
Standard
  9
$CMLJUST
 70
     0
  9
$CMLSCALE
 40
1.0
  9
$PROXYGRAPHICS
 70
     1
  9
$MEASUREMENT
 70
     0
  9
$CELWEIGHT
370
    -1
  9
$ENDCAPS
280
     0
  9
$JOINSTYLE
280
     0
  9
$LWDISPLAY
290
     1
  9
$INSUNITS
 70
     1
  9
$HYPERLINKBASE
  1

  9
$STYLESHEET
  1

  9
$XEDIT
290
     1
  9
$CEPSNTYPE
380
     0
  9
$PSTYLEMODE
290
     1
  9
$FINGERPRINTGUID
  2
{F599441D-97B1-6137-7C95-96240D6D6F8E}
  9
$VERSIONGUID
  2
{FAEB1C32-E019-11D5-929B-00C0DF256EC4}
  9
$EXTNAMES
290
     1
  9
$PSVPSCALE
 40
0.0
  9
$OLESTARTUP
290
     0
  9
$SORTENTS
280
   127
  9
$INDEXCTL
280
     0
  9
$HIDETEXT
280
     1
  9
$XCLIPFRAME
280
     2
  9
$HALOGAP
280
     0
  9
$OBSCOLOR
 70
   257
  9
$OBSLTYPE
280
     0
  9
$INTERSECTIONDISPLAY
280
     0
  9
$INTERSECTIONCOLOR
 70
   257
  9
$DIMASSOC
280
     2
  9
$PROJECTNAME
  1

  9
$CAMERADISPLAY
290
     0
  9
$LENSLENGTH
 40
50.0
  9
$CAMERAHEIGHT
 40
0.0
  9
$STEPSPERSEC
 40
2.0
  9
$STEPSIZE
 40
6.0
  9
$3DDWFPREC
 40
2.0
  9
$PSOLWIDTH
 40
0.25
  9
$PSOLHEIGHT
 40
4.0
  9
$LOFTANG1
 40
1.570796326794897
  9
$LOFTANG2
 40
1.570796326794897
  9
$LOFTMAG1
 40
0.0
  9
$LOFTMAG2
 40
0.0
  9
$LOFTPARAM
 70
     7
  9
$LOFTNORMALS
280
     1
  9
$LATITUDE
 40
37.795
  9
$LONGITUDE
 40
-122.394
  9
$NORTHDIRECTION
 40
0.0
  9
$TIMEZONE
 70
 -8000
  9
$LIGHTGLYPHDISPLAY
280
     1
  9
$TILEMODELIGHTSYNCH
280
     1
  9
$CMATERIAL
347
3C
  9
$SOLIDHIST
280
     1
  9
$SHOWHIST
280
     1
  9
$DWFFRAME
280
     2
  9
$DGNFRAME
280
     2
  9
$REALWORLDSCALE
290
     1
  9
$INTERFERECOLOR
 62
   256
  9
$CSHADOW
280
     0
  9
$SHADOWPLANELOCATION
 40
0.0
  0
ENDSEC
  0
SECTION
  2
CLASSES
  0
CLASS
  1
ACDBDICTIONARYWDFLT
  2
AcDbDictionaryWithDefault
  3
ObjectDBX Classes
 90
        0
 91
        4
280
     0
281
     0
  0
CLASS
  1
VISUALSTYLE
  2
AcDbVisualStyle
  3
ObjectDBX Classes
 90
     4095
 91
        4
280
     0
281
     0
  0
CLASS
  1
MATERIAL
  2
AcDbMaterial
  3
ObjectDBX Classes
 90
     1153
 91
        4
280
     0
281
     0
  0
CLASS
  1
SUN
  2
AcDbSun
  3
SCENEOE
 90
     1024
 91
        4
280
     0
281
     0
  0
ENDSEC
  0
SECTION
  2
TABLES
  0
TABLE
  2
VPORT
  5
8
330
0
100
AcDbSymbolTable
 70
     1
  0
VPORT
  5
29
330
8
100
AcDbSymbolTableRecord
100
AcDbViewportTableRecord
  2
*Active
 70
     0
 10
0.0
 20
0.0
 11
1.0
 21
1.0
 12
0.0
 22
0.0
 13
0.0
 23
0.0
 14
0.5
 24
0.5
 15
0.5
 25
0.5
 16
0.0
 26
0.0
 36
1.0
 17
91.00082462281999
 27
-128.4993055234307
 37
0.0
 40
256.9986110468615
 41
0.7081814508812795
 42
50.0
 43
0.0
 44
0.0
 50
0.0
 51
0.0
 71
     0
 72
   100
 73
     1
 74
     3
 75
     0
 76
     0
 77
     0
 78
     0
281
     0
 65
     1
110
0.0
120
0.0
130
0.0
111
1.0
121
0.0
131
0.0
112
0.0
122
1.0
132
0.0
 79
     0
146
0.0
 60
     3
 61
     5
292
     1
282
     1
141
0.0
142
0.0
 63
   250
361
3F
  0
ENDTAB
  0
TABLE
  2
LTYPE
  5
5
330
0
100
AcDbSymbolTable
 70
     1
  0
LTYPE
  5
14
330
5
100
AcDbSymbolTableRecord
100
AcDbLinetypeTableRecord
  2
ByBlock
 70
     0
  3

 72
    65
 73
     0
 40
0.0
  0
LTYPE
  5
15
330
5
100
AcDbSymbolTableRecord
100
AcDbLinetypeTableRecord
  2
ByLayer
 70
     0
  3

 72
    65
 73
     0
 40
0.0
  0
LTYPE
  5
16
330
5
100
AcDbSymbolTableRecord
100
AcDbLinetypeTableRecord
  2
Continuous
 70
     0
  3
Solid line
 72
    65
 73
     0
 40
0.0
  0
ENDTAB
  0
TABLE
  2
LAYER
  5
2
330
0
100
AcDbSymbolTable
 70
     2
  0
LAYER
  5
10
330
2
100
AcDbSymbolTableRecord
100
AcDbLayerTableRecord
  2
0
 70
     0
 62
     7
  6
Continuous
370
    -3
390
F
347
3E
  0
LAYER
  5
40
330
2
100
AcDbSymbolTableRecord
100
AcDbLayerTableRecord
  2
_U+30EC_U+30A4_U+30E4_U+30FC 1
 70
     0
 62
     7
  6
Continuous
370
    -3
390
F
347
3E
  0
ENDTAB
  0
TABLE
  2
STYLE
  5
3
330
0
100
AcDbSymbolTable
 70
     1
  0
STYLE
  5
11
330
3
100
AcDbSymbolTableRecord
100
AcDbTextStyleTableRecord
  2
Standard
 70
     0
 40
0.0
 41
1.0
 50
0.0
 71
     0
 42
0.2
  3
txt
  4

  0
ENDTAB
  0
TABLE
  2
VIEW
  5
6
330
0
100
AcDbSymbolTable
 70
     0
  0
ENDTAB
  0
TABLE
  2
UCS
  5
7
330
0
100
AcDbSymbolTable
 70
     0
  0
ENDTAB
  0
TABLE
  2
APPID
  5
9
330
0
100
AcDbSymbolTable
 70
     1
  0
APPID
  5
12
330
9
100
AcDbSymbolTableRecord
100
AcDbRegAppTableRecord
  2
ACAD
 70
     0
  0
ENDTAB
  0
TABLE
  2
DIMSTYLE
  5
A
330
0
100
AcDbSymbolTable
 70
     1
100
AcDbDimStyleTable
  0
DIMSTYLE
105
27
330
A
100
AcDbSymbolTableRecord
100
AcDbDimStyleTableRecord
  2
Standard
 70
     0
178
     0
340
11
  0
ENDTAB
  0
TABLE
  2
BLOCK_RECORD
  5
1
330
0
100
AcDbSymbolTable
 70
     7
  0
BLOCK_RECORD
  5
1F
330
1
100
AcDbSymbolTableRecord
100
AcDbBlockTableRecord
  2
*Model_Space
340
22
 70
     0
280
     1
281
     0
  0
BLOCK_RECORD
  5
1B
330
1
100
AcDbSymbolTableRecord
100
AcDbBlockTableRecord
  2
*Paper_Space
340
1E
 70
     0
280
     1
281
     0
  0
BLOCK_RECORD
  5
23
330
1
100
AcDbSymbolTableRecord
100
AcDbBlockTableRecord
  2
*Paper_Space0
340
26
 70
     0
280
     1
281
     0
  0
BLOCK_RECORD
  5
7A
330
1
100
AcDbSymbolTableRecord
100
AcDbBlockTableRecord
  2
block 2
340
0
102
{BLKREFS
331
7B
102
}
 70
     0
280
     1
281
     0
  0
BLOCK_RECORD
  5
8C
330
1
100
AcDbSymbolTableRecord
100
AcDbBlockTableRecord
  2
block 3
340
0
102
{BLKREFS
331
8D
102
}
 70
     0
280
     1
281
     0
  0
BLOCK_RECORD
  5
B5
330
1
100
AcDbSymbolTableRecord
100
AcDbBlockTableRecord
  2
block 4
340
0
102
{BLKREFS
331
B6
102
}
 70
     0
280
     1
281
     0
  0
BLOCK_RECORD
  5
C8
330
1
100
AcDbSymbolTableRecord
100
AcDbBlockTableRecord
  2
block 5
340
0
102
{BLKREFS
331
C9
102
}
 70
     0
280
     1
281
     0
  0
BLOCK_RECORD
  5
E1
330
1
100
AcDbSymbolTableRecord
100
AcDbBlockTableRecord
  2
block 6
340
0
102
{BLKREFS
331
E2
102
}
 70
     0
280
     1
281
     0
  0
BLOCK_RECORD
  5
F1
330
1
100
AcDbSymbolTableRecord
100
AcDbBlockTableRecord
  2
block 7
340
0
102
{BLKREFS
331
F2
102
}
 70
     0
280
     1
281
     0
  0
ENDTAB
  0
ENDSEC
  0
SECTION
  2
BLOCKS
  0
BLOCK
  5
20
330
1F
100
AcDbEntity
  8
0
100
AcDbBlockBegin
  2
*Model_Space
 70
     0
 10
0.0
 20
0.0
 30
0.0
  3
*Model_Space
  1

  0
ENDBLK
  5
21
330
1F
100
AcDbEntity
  8
0
100
AcDbBlockEnd
  0
BLOCK
  5
1C
330
1B
100
AcDbEntity
 67
     1
  8
0
100
AcDbBlockBegin
  2
*Paper_Space
 70
     0
 10
0.0
 20
0.0
 30
0.0
  3
*Paper_Space
  1

  0
ENDBLK
  5
1D
330
1B
100
AcDbEntity
 67
     1
  8
0
100
AcDbBlockEnd
  0
BLOCK
  5
24
330
23
100
AcDbEntity
  8
0
100
AcDbBlockBegin
  2
*Paper_Space0
 70
     0
 10
0.0
 20
0.0
 30
0.0
  3
*Paper_Space0
  1

  0
ENDBLK
  5
25
330
23
100
AcDbEntity
  8
0
100
AcDbBlockEnd
  0
BLOCK
  5
7C
330
7A
100
AcDbEntity
  8
0
100
AcDbBlockBegin
  2
block 2
 70
     0
 10
0.0
 20
0.0
 30
0.0
  3
block 2
  1

  0
SPLINE
  5
7E
330
7A
100
AcDbEntity
  8
_U+30EC_U+30A4_U+30E4_U+30FC 1
370
     0
100
AcDbSpline
210
0.0
220
0.0
230
1.0
 70
    11
 71
     3
 72
    26
 73
    22
 74
     0
 42
0.0000000001
 43
0.0000000001
 12
1.0
 22
0.0
 32
0.0
 13
1.0
 23
0.0
 33
0.0
 40
0.0
 40
0.0
 40
0.0
 40
0.0
 40
1.0
 40
1.0
 40
1.0
 40
2.0
 40
2.0
 40
2.0
 40
3.0
 40
3.0
 40
3.0
 40
4.0
 40
4.0
 40
4.0
 40
5.0
 40
5.0
 40
5.0
 40
6.0
 40
6.0
 40
6.0
 40
7.0
 40
7.0
 40
7.0
 40
7.0
 10
89.73009573494595
 20
-121.529016082899
 30
0.0
 10
89.73009573494595
 20
-121.529016082899
 30
0.0
 10
89.73009573494595
 20
-120.4246907251022
 30
0.0
 10
89.73009573494595
 20
-120.4246907251022
 30
0.0
 10
89.73009573494595
 20
-120.4246907251022
 30
0.0
 10
89.37731795725637
 20
-120.4246907251022
 30
0.0
 10
89.37731795725637
 20
-120.4246907251022
 30
0.0
 10
89.37731795725637
 20
-120.4246907251022
 30
0.0
 10
89.37731795725637
 20
-120.2765516192364
 30
0.0
 10
89.37731795725637
 20
-120.2765516192364
 30
0.0
 10
89.73233504701136
 20
-120.2619099634241
 30
0.0
 10
89.78211667677323
 20
-120.0989569469718
 30
0.0
 10
89.81363930046327
 20
-119.9847520316358
 30
0.0
 10
89.81363930046327
 20
-119.9847520316358
 30
0.0
 10
89.96970212594508
 20
-119.9847520316358
 30
0.0
 10
89.96970212594508
 20
-119.9847520316358
 30
0.0
 10
89.96970212594508
 20
-119.9847520316358
 30
0.0
 10
89.96970212594508
 20
-121.529016082899
 30
0.0
 10
89.96970212594508
 20
-121.529016082899
 30
0.0
 10
89.96970212594508
 20
-121.529016082899
 30
0.0
 10
89.73009573494595
 20
-121.529016082899
 30
0.0
 10
89.73009573494595
 20
-121.529016082899
 30
0.0
  0
HATCH
  5
7F
330
7A
100
AcDbEntity
  8
_U+30EC_U+30A4_U+30E4_U+30FC 1
 62
     7
420
 16777215
100
AcDbHatch
 10
0.0
 20
0.0
 30
0.0
210
0.0
220
0.0
230
1.0
  2
SOLID
 70
     1
 71
     0
 91
        1
 92
        1
 93
        1
 72
     4
 94
        3
 73
     0
 74
     1
 95
       26
 96
       22
 40
0.0
 40
0.0
 40
0.0
 40
0.0
 40
1.0
 40
1.0
 40
1.0
 40
2.0
 40
2.0
 40
2.0
 40
3.0
 40
3.0
 40
3.0
 40
4.0
 40
4.0
 40
4.0
 40
5.0
 40
5.0
 40
5.0
 40
6.0
 40
6.0
 40
6.0
 40
7.0
 40
7.0
 40
7.0
 40
7.0
 10
89.73009573494595
 20
-121.529016082899
 10
89.73009573494595
 20
-121.529016082899
 10
89.73009573494595
 20
-120.4246907251022
 10
89.73009573494595
 20
-120.4246907251022
 10
89.73009573494595
 20
-120.4246907251022
 10
89.37731795725637
 20
-120.4246907251022
 10
89.37731795725637
 20
-120.4246907251022
 10
89.37731795725637
 20
-120.4246907251022
 10
89.37731795725637
 20
-120.2765516192364
 10
89.37731795725637
 20
-120.2765516192364
 10
89.73233504701136
 20
-120.2619099634241
 10
89.78211667677323
 20
-120.0989569469718
 10
89.81363930046327
 20
-119.9847520316358
 10
89.81363930046327
 20
-119.9847520316358
 10
89.96970212594508
 20
-119.9847520316358
 10
89.96970212594508
 20
-119.9847520316358
 10
89.96970212594508
 20
-119.9847520316358
 10
89.96970212594508
 20
-121.529016082899
 10
89.96970212594508
 20
-121.529016082899
 10
89.96970212594508
 20
-121.529016082899
 10
89.73009573494595
 20
-121.529016082899
 10
89.73009573494595
 20
-121.529016082899
 97
        0
 97
        0
 75
     2
 76
     1
 98
        0
  0
ENDBLK
  5
7D
330
7A
100
AcDbEntity
  8
0
100
AcDbBlockEnd
  0
BLOCK
  5
8E
330
8C
100
AcDbEntity
  8
0
100
AcDbBlockBegin
  2
block 3
 70
     0
 10
0.0
 20
0.0
 30
0.0
  3
block 3
  1

  0
SPLINE
  5
90
330
8C
100
AcDbEntity
  8
_U+30EC_U+30A4_U+30E4_U+30FC 1
370
     0
100
AcDbSpline
210
0.0
220
0.0
230
1.0
 70
    11
 71
     3
 72
    26
 73
    22
 74
     0
 42
0.0000000001
 43
0.0000000001
 12
1.0
 22
0.0
 32
0.0
 13
1.0
 23
0.0
 33
0.0
 40
0.0
 40
0.0
 40
0.0
 40
0.0
 40
1.0
 40
1.0
 40
1.0
 40
2.0
 40
2.0
 40
2.0
 40
3.0
 40
3.0
 40
3.0
 40
4.0
 40
4.0
 40
4.0
 40
5.0
 40
5.0
 40
5.0
 40
6.0
 40
6.0
 40
6.0
 40
7.0
 40
7.0
 40
7.0
 40
7.0
 10
92.05811900910354
 20
-142.1473957977965
 30
0.0
 10
92.05811900910354
 20
-142.1473957977965
 30
0.0
 10
92.05811900910354
 20
-141.0432426947739
 30
0.0
 10
92.05811900910354
 20
-141.0432426947739
 30
0.0
 10
92.05811900910354
 20
-141.0432426947739
 30
0.0
 10
91.70568574096247
 20
-141.0432426947739
 30
0.0
 10
91.70568574096247
 20
-141.0432426947739
 30
0.0
 10
91.70568574096247
 20
-141.0432426947739
 30
0.0
 10
91.70568574096247
 20
-140.8951035889082
 30
0.0
 10
91.70568574096247
 20
-140.8951035889082
 30
0.0
 10
92.0605305759432
 20
-140.8802896783216
 30
0.0
 10
92.1101399509308
 20
-140.7173366618693
 30
0.0
 10
92.1418348293951
 20
-140.602959491759
 30
0.0
 10
92.1418348293951
 20
-140.602959491759
 30
0.0
 10
92.29789765487692
 20
-140.602959491759
 30
0.0
 10
92.29789765487692
 20
-140.602959491759
 30
0.0
 10
92.29789765487692
 20
-140.602959491759
 30
0.0
 10
92.29789765487692
 20
-142.1473957977965
 30
0.0
 10
92.29789765487692
 20
-142.1473957977965
 30
0.0
 10
92.29789765487692
 20
-142.1473957977965
 30
0.0
 10
92.05811900910354
 20
-142.1473957977965
 30
0.0
 10
92.05811900910354
 20
-142.1473957977965
 30
0.0
  0
HATCH
  5
91
330
8C
100
AcDbEntity
  8
_U+30EC_U+30A4_U+30E4_U+30FC 1
 62
     7
420
 16777215
100
AcDbHatch
 10
0.0
 20
0.0
 30
0.0
210
0.0
220
0.0
230
1.0
  2
SOLID
 70
     1
 71
     0
 91
        1
 92
        1
 93
        1
 72
     4
 94
        3
 73
     0
 74
     1
 95
       26
 96
       22
 40
0.0
 40
0.0
 40
0.0
 40
0.0
 40
1.0
 40
1.0
 40
1.0
 40
2.0
 40
2.0
 40
2.0
 40
3.0
 40
3.0
 40
3.0
 40
4.0
 40
4.0
 40
4.0
 40
5.0
 40
5.0
 40
5.0
 40
6.0
 40
6.0
 40
6.0
 40
7.0
 40
7.0
 40
7.0
 40
7.0
 10
92.05811900910354
 20
-142.1473957977965
 10
92.05811900910354
 20
-142.1473957977965
 10
92.05811900910354
 20
-141.0432426947739
 10
92.05811900910354
 20
-141.0432426947739
 10
92.05811900910354
 20
-141.0432426947739
 10
91.70568574096247
 20
-141.0432426947739
 10
91.70568574096247
 20
-141.0432426947739
 10
91.70568574096247
 20
-141.0432426947739
 10
91.70568574096247
 20
-140.8951035889082
 10
91.70568574096247
 20
-140.8951035889082
 10
92.0605305759432
 20
-140.8802896783216
 10
92.1101399509308
 20
-140.7173366618693
 10
92.1418348293951
 20
-140.602959491759
 10
92.1418348293951
 20
-140.602959491759
 10
92.29789765487692
 20
-140.602959491759
 10
92.29789765487692
 20
-140.602959491759
 10
92.29789765487692
 20
-140.602959491759
 10
92.29789765487692
 20
-142.1473957977965
 10
92.29789765487692
 20
-142.1473957977965
 10
92.29789765487692
 20
-142.1473957977965
 10
92.05811900910354
 20
-142.1473957977965
 10
92.05811900910354
 20
-142.1473957977965
 97
        0
 97
        0
 75
     2
 76
     1
 98
        0
  0
POLYLINE
  5
92
330
8C
100
AcDbEntity
  8
_U+30EC_U+30A4_U+30E4_U+30FC 1
370
     0
100
AcDb2dPolyline
 66
     1
 10
0.0
 20
0.0
 30
0.0
  0
VERTEX
  5
93
330
92
100
AcDbEntity
  8
_U+30EC_U+30A4_U+30E4_U+30FC 1
370
     0
100
AcDbVertex
100
AcDb2dVertex
 10
93.72313365712478
 20
-141.8004746824318
 30
0.0
  0
VERTEX
  5
94
330
92
100
AcDbEntity
  8
_U+30EC_U+30A4_U+30E4_U+30FC 1
370
     0
100
AcDbVertex
100
AcDb2dVertex
 10
93.72313365712478
 20
-142.1473957977965
 30
0.0
  0
VERTEX
  5
95
330
92
100
AcDbEntity
  8
_U+30EC_U+30A4_U+30E4_U+30FC 1
370
     0
100
AcDbVertex
100
AcDb2dVertex
 10
93.49024520232189
 20
-142.1473957977965
 30
0.0
  0
VERTEX
  5
96
330
92
100
AcDbEntity
  8
_U+30EC_U+30A4_U+30E4_U+30FC 1
370
     0
100
AcDbVertex
100
AcDb2dVertex
 10
93.49024520232189
 20
-141.8004746824318
 30
0.0
  0
VERTEX
  5
97
330
92
100
AcDbEntity
  8
_U+30EC_U+30A4_U+30E4_U+30FC 1
370
     0
100
AcDbVertex
100
AcDb2dVertex
 10
92.78916827107355
 20
-141.8004746824318
 30
0.0
  0
VERTEX
  5
98
330
92
100
AcDbEntity
  8
_U+30EC_U+30A4_U+30E4_U+30FC 1
370
     0
100
AcDbVertex
100
AcDb2dVertex
 10
92.78916827107355
 20
-141.5761989663421
 30
0.0
  0
VERTEX
  5
99
330
92
100
AcDbEntity
  8
_U+30EC_U+30A4_U+30E4_U+30FC 1
370
     0
100
AcDbVertex
100
AcDb2dVertex
 10
93.51504988981569
 20
-140.602959491759
 30
0.0
  0
VERTEX
  5
9A
330
92
100
AcDbEntity
  8
_U+30EC_U+30A4_U+30E4_U+30FC 1
370
     0
100
AcDbVertex
100
AcDb2dVertex
 10
93.72313365712478
 20
-140.602959491759
 30
0.0
  0
VERTEX
  5
9B
330
92
100
AcDbEntity
  8
_U+30EC_U+30A4_U+30E4_U+30FC 1
370
     0
100
AcDbVertex
100
AcDb2dVertex
 10
93.72313365712478
 20
-141.6016926729329
 30
0.0
  0
VERTEX
  5
9C
330
92
100
AcDbEntity
  8
_U+30EC_U+30A4_U+30E4_U+30FC 1
370
     0
100
AcDbVertex
100
AcDb2dVertex
 10
93.94465329682635
 20
-141.6016926729329
 30
0.0
  0
VERTEX
  5
9D
330
92
100
AcDbEntity
  8
_U+30EC_U+30A4_U+30E4_U+30FC 1
370
     0
100
AcDbVertex
100
AcDb2dVertex
 10
93.94465329682635
 20
-141.8004746824318
 30
0.0
  0
VERTEX
  5
9E
330
92
100
AcDbEntity
  8
_U+30EC_U+30A4_U+30E4_U+30FC 1
370
     0
100
AcDbVertex
100
AcDb2dVertex
 10
93.72313365712478
 20
-141.8004746824318
 30
0.0
  0
SEQEND
  5
9F
330
92
100
AcDbEntity
  8
_U+30EC_U+30A4_U+30E4_U+30FC 1
370
     0
  0
POLYLINE
  5
A0
330
8C
100
AcDbEntity
  8
_U+30EC_U+30A4_U+30E4_U+30FC 1
370
     0
100
AcDb2dPolyline
 66
     1
 10
0.0
 20
0.0
 30
0.0
  0
VERTEX
  5
A1
330
A0
100
AcDbEntity
  8
_U+30EC_U+30A4_U+30E4_U+30FC 1
370
     0
100
AcDbVertex
100
AcDb2dVertex
 10
93.49024520232189
 20
-140.9457464925414
 30
0.0
  0
VERTEX
  5
A2
330
A0
100
AcDbEntity
  8
_U+30EC_U+30A4_U+30E4_U+30FC 1
370
     0
100
AcDbVertex
100
AcDb2dVertex
 10
93.00173066251347
 20
-141.6016926729329
 30
0.0
  0
VERTEX
  5
A3
330
A0
100
AcDbEntity
  8
_U+30EC_U+30A4_U+30E4_U+30FC 1
370
     0
100
AcDbVertex
100
AcDb2dVertex
 10
93.49024520232189
 20
-141.6016926729329
 30
0.0
  0
VERTEX
  5
A4
330
A0
100
AcDbEntity
  8
_U+30EC_U+30A4_U+30E4_U+30FC 1
370
     0
100
AcDbVertex
100
AcDb2dVertex
 10
93.49024520232189
 20
-140.9457464925414
 30
0.0
  0
SEQEND
  5
A5
330
A0
100
AcDbEntity
  8
_U+30EC_U+30A4_U+30E4_U+30FC 1
370
     0
  0
HATCH
  5
A6
330
8C
100
AcDbEntity
  8
_U+30EC_U+30A4_U+30E4_U+30FC 1
 62
     7
420
 16777215
100
AcDbHatch
 10
0.0
 20
0.0
 30
0.0
210
0.0
220
0.0
230
1.0
  2
SOLID
 70
     1
 71
     0
 91
        2
 92
        1
 93
       11
 72
     1
 10
93.72313365712478
 20
-141.8004746824318
 11
93.72313365712478
 21
-142.1473957977965
 72
     1
 10
93.72313365712478
 20
-142.1473957977965
 11
93.49024520232189
 21
-142.1473957977965
 72
     1
 10
93.49024520232189
 20
-142.1473957977965
 11
93.49024520232189
 21
-141.8004746824318
 72
     1
 10
93.49024520232189
 20
-141.8004746824318
 11
92.78916827107355
 21
-141.8004746824318
 72
     1
 10
92.78916827107355
 20
-141.8004746824318
 11
92.78916827107355
 21
-141.5761989663421
 72
     1
 10
92.78916827107355
 20
-141.5761989663421
 11
93.51504988981569
 21
-140.602959491759
 72
     1
 10
93.51504988981569
 20
-140.602959491759
 11
93.72313365712478
 21
-140.602959491759
 72
     1
 10
93.72313365712478
 20
-140.602959491759
 11
93.72313365712478
 21
-141.6016926729329
 72
     1
 10
93.72313365712478
 20
-141.6016926729329
 11
93.94465329682635
 21
-141.6016926729329
 72
     1
 10
93.94465329682635
 20
-141.6016926729329
 11
93.94465329682635
 21
-141.8004746824318
 72
     1
 10
93.94465329682635
 20
-141.8004746824318
 11
93.72313365712478
 21
-141.8004746824318
 97
        0
 92
        1
 93
        3
 72
     1
 10
93.49024520232189
 20
-140.9457464925414
 11
93.00173066251347
 21
-141.6016926729329
 72
     1
 10
93.00173066251347
 20
-141.6016926729329
 11
93.49024520232189
 21
-141.6016926729329
 72
     1
 10
93.49024520232189
 20
-141.6016926729329
 11
93.49024520232189
 21
-140.9457464925414
 97
        0
 75
     2
 76
     1
 98
        0
  0
ENDBLK
  5
8F
330
8C
100
AcDbEntity
  8
0
100
AcDbBlockEnd
  0
BLOCK
  5
B7
330
B5
100
AcDbEntity
  8
0
100
AcDbBlockBegin
  2
block 4
 70
     0
 10
0.0
 20
0.0
 30
0.0
  3
block 4
  1

  0
SPLINE
  5
B9
330
B5
100
AcDbEntity
  8
_U+30EC_U+30A4_U+30E4_U+30FC 1
370
     0
100
AcDbSpline
210
0.0
220
0.0
230
1.0
 70
    11
 71
     3
 72
    32
 73
    28
 74
     0
 42
0.0000000001
 43
0.0000000001
 12
1.0
 22
0.0
 32
0.0
 13
1.0
 23
0.0
 33
0.0
 40
0.0
 40
0.0
 40
0.0
 40
0.0
 40
1.0
 40
1.0
 40
1.0
 40
2.0
 40
2.0
 40
2.0
 40
3.0
 40
3.0
 40
3.0
 40
4.0
 40
4.0
 40
4.0
 40
5.0
 40
5.0
 40
5.0
 40
6.0
 40
6.0
 40
6.0
 40
7.0
 40
7.0
 40
7.0
 40
8.0
 40
8.0
 40
8.0
 40
9.0
 40
9.0
 40
9.0
 40
9.0
 10
89.84361163118493
 20
-115.0928886973552
 30
0.0
 10
89.29205184399643
 20
-115.0928886973552
 30
0.0
 10
89.28309459573478
 20
-114.5389173433271
 30
0.0
 10
89.28309459573478
 20
-114.3249769136931
 30
0.0
 10
89.28309459573478
 20
-114.0945000257299
 30
0.0
 10
89.30342065909775
 20
-113.4471665840514
 30
0.0
 10
89.88460826745941
 20
-113.4471665840514
 30
0.0
 10
90.06995440456585
 20
-113.4471665840514
 30
0.0
 10
90.33212617099336
 20
-113.517102022402
 30
0.0
 10
90.37277829771931
 20
-113.8492092271801
 30
0.0
 10
90.37277829771931
 20
-113.8492092271801
 30
0.0
 10
90.14436846704724
 20
-113.8492092271801
 30
0.0
 10
90.14436846704724
 20
-113.8492092271801
 30
0.0
 10
90.13299965194592
 20
-113.7920206421249
 30
0.0
 10
90.09923771619047
 20
-113.6438815362592
 30
0.0
 10
89.88219670061973
 20
-113.6438815362592
 30
0.0
 10
89.5700710496561
 20
-113.6438815362592
 30
0.0
 10
89.527351865639
 20
-113.971854626455
 30
0.0
 10
89.513571483698
 20
-114.1768378078273
 30
0.0
 10
89.61313474322172
 20
-114.0986341403122
 30
0.0
 10
89.68548174841197
 20
-114.0393784979659
 30
0.0
 10
89.88012964332859
 20
-114.0393784979659
 30
0.0
 10
90.072021461857
 20
-114.0393784979659
 30
0.0
 10
90.39551592792196
 20
-114.1475544962027
 30
0.0
 10
90.39551592792196
 20
-114.5537312539137
 30
0.0
 10
90.39551592792196
 20
-114.8730916053963
 30
0.0
 10
90.18295353648205
 20
-115.0928886973552
 30
0.0
 10
89.84361163118493
 20
-115.0928886973552
 30
0.0
  0
SPLINE
  5
BA
330
B5
100
AcDbEntity
  8
_U+30EC_U+30A4_U+30E4_U+30FC 1
370
     0
100
AcDbSpline
210
0.0
220
0.0
230
1.0
 70
    11
 71
     3
 72
    17
 73
    13
 74
     0
 42
0.0000000001
 43
0.0000000001
 12
1.0
 22
0.0
 32
0.0
 13
1.0
 23
0.0
 33
0.0
 40
0.0
 40
0.0
 40
0.0
 40
0.0
 40
1.0
 40
1.0
 40
1.0
 40
2.0
 40
2.0
 40
2.0
 40
3.0
 40
3.0
 40
3.0
 40
4.0
 40
4.0
 40
4.0
 40
4.0
 10
89.86187063725676
 20
-114.2340263928825
 30
0.0
 10
89.58143986475743
 20
-114.2340263928825
 30
0.0
 10
89.54078773803147
 20
-114.4455552556768
 30
0.0
 10
89.54078773803147
 20
-114.5619994830783
 30
0.0
 10
89.54078773803147
 20
-114.737699352826
 30
0.0
 10
89.64241805484635
 20
-114.9006523692783
 30
0.0
 10
89.83913300705412
 20
-114.9006523692783
 30
0.0
 10
89.96797957820246
 20
-114.9006523692783
 30
0.0
 10
90.15573728214856
 20
-114.841396726932
 30
0.0
 10
90.15573728214856
 20
-114.5557983112048
 30
0.0
 10
90.15573728214856
 20
-114.331522595115
 30
0.0
 10
90.00656464763725
 20
-114.2340263928825
 30
0.0
 10
89.86187063725676
 20
-114.2340263928825
 30
0.0
  0
HATCH
  5
BB
330
B5
100
AcDbEntity
  8
_U+30EC_U+30A4_U+30E4_U+30FC 1
 62
     7
420
 16777215
100
AcDbHatch
 10
0.0
 20
0.0
 30
0.0
210
0.0
220
0.0
230
1.0
  2
SOLID
 70
     1
 71
     0
 91
        2
 92
        1
 93
        1
 72
     4
 94
        3
 73
     0
 74
     1
 95
       32
 96
       28
 40
0.0
 40
0.0
 40
0.0
 40
0.0
 40
1.0
 40
1.0
 40
1.0
 40
2.0
 40
2.0
 40
2.0
 40
3.0
 40
3.0
 40
3.0
 40
4.0
 40
4.0
 40
4.0
 40
5.0
 40
5.0
 40
5.0
 40
6.0
 40
6.0
 40
6.0
 40
7.0
 40
7.0
 40
7.0
 40
8.0
 40
8.0
 40
8.0
 40
9.0
 40
9.0
 40
9.0
 40
9.0
 10
89.84361163118493
 20
-115.0928886973552
 10
89.29205184399643
 20
-115.0928886973552
 10
89.28309459573478
 20
-114.5389173433271
 10
89.28309459573478
 20
-114.3249769136931
 10
89.28309459573478
 20
-114.0945000257299
 10
89.30342065909775
 20
-113.4471665840514
 10
89.88460826745941
 20
-113.4471665840514
 10
90.06995440456585
 20
-113.4471665840514
 10
90.33212617099336
 20
-113.517102022402
 10
90.37277829771931
 20
-113.8492092271801
 10
90.37277829771931
 20
-113.8492092271801
 10
90.14436846704724
 20
-113.8492092271801
 10
90.14436846704724
 20
-113.8492092271801
 10
90.13299965194592
 20
-113.7920206421249
 10
90.09923771619047
 20
-113.6438815362592
 10
89.88219670061973
 20
-113.6438815362592
 10
89.5700710496561
 20
-113.6438815362592
 10
89.527351865639
 20
-113.971854626455
 10
89.513571483698
 20
-114.1768378078273
 10
89.61313474322172
 20
-114.0986341403122
 10
89.68548174841197
 20
-114.0393784979659
 10
89.88012964332859
 20
-114.0393784979659
 10
90.072021461857
 20
-114.0393784979659
 10
90.39551592792196
 20
-114.1475544962027
 10
90.39551592792196
 20
-114.5537312539137
 10
90.39551592792196
 20
-114.8730916053963
 10
90.18295353648205
 20
-115.0928886973552
 10
89.84361163118493
 20
-115.0928886973552
 97
        0
 97
        0
 92
        1
 93
        1
 72
     4
 94
        3
 73
     0
 74
     1
 95
       17
 96
       13
 40
0.0
 40
0.0
 40
0.0
 40
0.0
 40
1.0
 40
1.0
 40
1.0
 40
2.0
 40
2.0
 40
2.0
 40
3.0
 40
3.0
 40
3.0
 40
4.0
 40
4.0
 40
4.0
 40
4.0
 10
89.86187063725676
 20
-114.2340263928825
 10
89.58143986475743
 20
-114.2340263928825
 10
89.54078773803147
 20
-114.4455552556768
 10
89.54078773803147
 20
-114.5619994830783
 10
89.54078773803147
 20
-114.737699352826
 10
89.64241805484635
 20
-114.9006523692783
 10
89.83913300705412
 20
-114.9006523692783
 10
89.96797957820246
 20
-114.9006523692783
 10
90.15573728214856
 20
-114.841396726932
 10
90.15573728214856
 20
-114.5557983112048
 10
90.15573728214856
 20
-114.331522595115
 10
90.00656464763725
 20
-114.2340263928825
 10
89.86187063725676
 20
-114.2340263928825
 97
        0
 97
        0
 75
     2
 76
     1
 98
        0
  0
ENDBLK
  5
B8
330
B5
100
AcDbEntity
  8
0
100
AcDbBlockEnd
  0
BLOCK
  5
CA
330
C8
100
AcDbEntity
  8
0
100
AcDbBlockBegin
  2
block 5
 70
     0
 10
0.0
 20
0.0
 30
0.0
  3
block 5
  1

  0
SPLINE
  5
CC
330
C8
100
AcDbEntity
  8
_U+30EC_U+30A4_U+30E4_U+30FC 1
370
     0
100
AcDbSpline
210
0.0
220
0.0
230
1.0
 70
    11
 71
     3
 72
    44
 73
    40
 74
     0
 42
0.0000000001
 43
0.0000000001
 12
1.0
 22
0.0
 32
0.0
 13
1.0
 23
0.0
 33
0.0
 40
0.0
 40
0.0
 40
0.0
 40
0.0
 40
1.0
 40
1.0
 40
1.0
 40
2.0
 40
2.0
 40
2.0
 40
3.0
 40
3.0
 40
3.0
 40
4.0
 40
4.0
 40
4.0
 40
5.0
 40
5.0
 40
5.0
 40
6.0
 40
6.0
 40
6.0
 40
7.0
 40
7.0
 40
7.0
 40
8.0
 40
8.0
 40
8.0
 40
9.0
 40
9.0
 40
9.0
 40
10.0
 40
10.0
 40
10.0
 40
11.0
 40
11.0
 40
11.0
 40
12.0
 40
12.0
 40
12.0
 40
13.0
 40
13.0
 40
13.0
 40
13.0
 10
80.56131861050204
 20
-128.7738796336051
 30
0.0
 10
80.71996525759779
 20
-129.006768088408
 30
0.0
 10
80.79403481053066
 20
-129.1063313479318
 30
0.0
 10
80.93786754703984
 20
-129.158352289759
 30
0.0
 10
80.93786754703984
 20
-129.158352289759
 30
0.0
 10
80.93786754703984
 20
-128.3261894752969
 30
0.0
 10
80.93786754703984
 20
-128.3261894752969
 30
0.0
 10
80.93786754703984
 20
-128.3261894752969
 30
0.0
 10
81.14302298318647
 20
-128.3261894752969
 30
0.0
 10
81.14302298318647
 20
-128.3261894752969
 30
0.0
 10
81.14302298318647
 20
-128.3261894752969
 30
0.0
 10
81.14302298318647
 20
-129.4250026803174
 30
0.0
 10
81.14302298318647
 20
-129.4250026803174
 30
0.0
 10
80.78542207181754
 20
-129.3912407445619
 30
0.0
 10
80.70721840430237
 20
-129.3209607966628
 30
0.0
 10
80.40887313527973
 20
-128.909616395724
 30
0.0
 10
80.21009112578082
 20
-128.6359035594209
 30
0.0
 10
80.14239499949565
 20
-128.5657958662961
 30
0.0
 10
80.00493568963418
 20
-128.5657958662961
 30
0.0
 10
79.8864244049416
 20
-128.5657958662961
 30
0.0
 10
79.75516626695358
 20
-128.6427937503914
 30
0.0
 10
79.75516626695358
 20
-128.8531168297659
 30
0.0
 10
79.75516626695358
 20
-129.1311360354256
 30
0.0
 10
79.98581540969106
 20
-129.1400932836872
 30
0.0
 10
80.10225963709249
 20
-129.144571907818
 30
0.0
 10
80.10225963709249
 20
-129.144571907818
 30
0.0
 10
80.10225963709249
 20
-129.3843505535914
 30
0.0
 10
80.10225963709249
 20
-129.3843505535914
 30
0.0
 10
79.97530786846104
 20
-129.3753933053298
 30
0.0
 10
79.86317001041616
 20
-129.3640244902284
 30
0.0
 10
79.74465872572357
 20
-129.2782416126457
 30
0.0
 10
79.58394502133666
 20
-129.1604193470502
 30
0.0
 10
79.55001083080694
 20
-128.9616373375513
 30
0.0
 10
79.55001083080694
 20
-128.8372693905337
 30
0.0
 10
79.55001083080694
 20
-128.5409911788022
 30
0.0
 10
79.73415118449356
 20
-128.3194715391007
 30
0.0
 10
80.00700274692534
 20
-128.3194715391007
 30
0.0
 10
80.2354125775974
 20
-128.3194715391007
 30
0.0
 10
80.33497583712112
 20
-128.4436672313439
 30
0.0
 10
80.56131861050204
 20
-128.7738796336051
 30
0.0
  0
HATCH
  5
CD
330
C8
100
AcDbEntity
  8
_U+30EC_U+30A4_U+30E4_U+30FC 1
 62
     7
420
 16777215
100
AcDbHatch
 10
0.0
 20
0.0
 30
0.0
210
0.0
220
0.0
230
1.0
  2
SOLID
 70
     1
 71
     0
 91
        1
 92
        1
 93
        1
 72
     4
 94
        3
 73
     0
 74
     1
 95
       44
 96
       40
 40
0.0
 40
0.0
 40
0.0
 40
0.0
 40
1.0
 40
1.0
 40
1.0
 40
2.0
 40
2.0
 40
2.0
 40
3.0
 40
3.0
 40
3.0
 40
4.0
 40
4.0
 40
4.0
 40
5.0
 40
5.0
 40
5.0
 40
6.0
 40
6.0
 40
6.0
 40
7.0
 40
7.0
 40
7.0
 40
8.0
 40
8.0
 40
8.0
 40
9.0
 40
9.0
 40
9.0
 40
10.0
 40
10.0
 40
10.0
 40
11.0
 40
11.0
 40
11.0
 40
12.0
 40
12.0
 40
12.0
 40
13.0
 40
13.0
 40
13.0
 40
13.0
 10
80.56131861050204
 20
-128.7738796336051
 10
80.71996525759779
 20
-129.006768088408
 10
80.79403481053066
 20
-129.1063313479318
 10
80.93786754703984
 20
-129.158352289759
 10
80.93786754703984
 20
-129.158352289759
 10
80.93786754703984
 20
-128.3261894752969
 10
80.93786754703984
 20
-128.3261894752969
 10
80.93786754703984
 20
-128.3261894752969
 10
81.14302298318647
 20
-128.3261894752969
 10
81.14302298318647
 20
-128.3261894752969
 10
81.14302298318647
 20
-128.3261894752969
 10
81.14302298318647
 20
-129.4250026803174
 10
81.14302298318647
 20
-129.4250026803174
 10
80.78542207181754
 20
-129.3912407445619
 10
80.70721840430237
 20
-129.3209607966628
 10
80.40887313527973
 20
-128.909616395724
 10
80.21009112578082
 20
-128.6359035594209
 10
80.14239499949565
 20
-128.5657958662961
 10
80.00493568963418
 20
-128.5657958662961
 10
79.8864244049416
 20
-128.5657958662961
 10
79.75516626695358
 20
-128.6427937503914
 10
79.75516626695358
 20
-128.8531168297659
 10
79.75516626695358
 20
-129.1311360354256
 10
79.98581540969106
 20
-129.1400932836872
 10
80.10225963709249
 20
-129.144571907818
 10
80.10225963709249
 20
-129.144571907818
 10
80.10225963709249
 20
-129.3843505535914
 10
80.10225963709249
 20
-129.3843505535914
 10
79.97530786846104
 20
-129.3753933053298
 10
79.86317001041616
 20
-129.3640244902284
 10
79.74465872572357
 20
-129.2782416126457
 10
79.58394502133666
 20
-129.1604193470502
 10
79.55001083080694
 20
-128.9616373375513
 10
79.55001083080694
 20
-128.8372693905337
 10
79.55001083080694
 20
-128.5409911788022
 10
79.73415118449356
 20
-128.3194715391007
 10
80.00700274692534
 20
-128.3194715391007
 10
80.2354125775974
 20
-128.3194715391007
 10
80.33497583712112
 20
-128.4436672313439
 10
80.56131861050204
 20
-128.7738796336051
 97
        0
 97
        0
 75
     2
 76
     1
 98
        0
  0
SPLINE
  5
CE
330
C8
100
AcDbEntity
  8
_U+30EC_U+30A4_U+30E4_U+30FC 1
370
     0
100
AcDbSpline
210
0.0
220
0.0
230
1.0
 70
    11
 71
     3
 72
    26
 73
    22
 74
     0
 42
0.0000000001
 43
0.0000000001
 12
1.0
 22
0.0
 32
0.0
 13
1.0
 23
0.0
 33
0.0
 40
0.0
 40
0.0
 40
0.0
 40
0.0
 40
1.0
 40
1.0
 40
1.0
 40
2.0
 40
2.0
 40
2.0
 40
3.0
 40
3.0
 40
3.0
 40
4.0
 40
4.0
 40
4.0
 40
5.0
 40
5.0
 40
5.0
 40
6.0
 40
6.0
 40
6.0
 40
7.0
 40
7.0
 40
7.0
 40
7.0
 10
81.14302298318647
 20
-127.6674872185172
 30
0.0
 10
81.14302298318647
 20
-127.6674872185172
 30
0.0
 10
80.03869762538963
 20
-127.6674872185172
 30
0.0
 10
80.03869762538963
 20
-127.6674872185172
 30
0.0
 10
80.03869762538963
 20
-127.6674872185172
 30
0.0
 10
80.03869762538963
 20
-128.0202649962067
 30
0.0
 10
80.03869762538963
 20
-128.0202649962067
 30
0.0
 10
80.03869762538963
 20
-128.0202649962067
 30
0.0
 10
79.89055851952389
 20
-128.0202649962067
 30
0.0
 10
79.89055851952389
 20
-128.0202649962067
 30
0.0
 10
79.87591686371158
 20
-127.6652479064518
 30
0.0
 10
79.71296384725926
 20
-127.6154662766899
 30
0.0
 10
79.59875893192323
 20
-127.5837713982256
 30
0.0
 10
79.59875893192323
 20
-127.5837713982256
 30
0.0
 10
79.59875893192323
 20
-127.427880827518
 30
0.0
 10
79.59875893192323
 20
-127.427880827518
 30
0.0
 10
79.59875893192323
 20
-127.427880827518
 30
0.0
 10
81.14302298318647
 20
-127.427880827518
 30
0.0
 10
81.14302298318647
 20
-127.427880827518
 30
0.0
 10
81.14302298318647
 20
-127.427880827518
 30
0.0
 10
81.14302298318647
 20
-127.6674872185172
 30
0.0
 10
81.14302298318647
 20
-127.6674872185172
 30
0.0
  0
HATCH
  5
CF
330
C8
100
AcDbEntity
  8
_U+30EC_U+30A4_U+30E4_U+30FC 1
 62
     7
420
 16777215
100
AcDbHatch
 10
0.0
 20
0.0
 30
0.0
210
0.0
220
0.0
230
1.0
  2
SOLID
 70
     1
 71
     0
 91
        1
 92
        1
 93
        1
 72
     4
 94
        3
 73
     0
 74
     1
 95
       26
 96
       22
 40
0.0
 40
0.0
 40
0.0
 40
0.0
 40
1.0
 40
1.0
 40
1.0
 40
2.0
 40
2.0
 40
2.0
 40
3.0
 40
3.0
 40
3.0
 40
4.0
 40
4.0
 40
4.0
 40
5.0
 40
5.0
 40
5.0
 40
6.0
 40
6.0
 40
6.0
 40
7.0
 40
7.0
 40
7.0
 40
7.0
 10
81.14302298318647
 20
-127.6674872185172
 10
81.14302298318647
 20
-127.6674872185172
 10
80.03869762538963
 20
-127.6674872185172
 10
80.03869762538963
 20
-127.6674872185172
 10
80.03869762538963
 20
-127.6674872185172
 10
80.03869762538963
 20
-128.0202649962067
 10
80.03869762538963
 20
-128.0202649962067
 10
80.03869762538963
 20
-128.0202649962067
 10
79.89055851952389
 20
-128.0202649962067
 10
79.89055851952389
 20
-128.0202649962067
 10
79.87591686371158
 20
-127.6652479064518
 10
79.71296384725926
 20
-127.6154662766899
 10
79.59875893192323
 20
-127.5837713982256
 10
79.59875893192323
 20
-127.5837713982256
 10
79.59875893192323
 20
-127.427880827518
 10
79.59875893192323
 20
-127.427880827518
 10
79.59875893192323
 20
-127.427880827518
 10
81.14302298318647
 20
-127.427880827518
 10
81.14302298318647
 20
-127.427880827518
 10
81.14302298318647
 20
-127.427880827518
 10
81.14302298318647
 20
-127.6674872185172
 10
81.14302298318647
 20
-127.6674872185172
 97
        0
 97
        0
 75
     2
 76
     1
 98
        0
  0
ENDBLK
  5
CB
330
C8
100
AcDbEntity
  8
0
100
AcDbBlockEnd
  0
BLOCK
  5
E3
330
E1
100
AcDbEntity
  8
0
100
AcDbBlockBegin
  2
block 6
 70
     0
 10
0.0
 20
0.0
 30
0.0
  3
block 6
  1

  0
SPLINE
  5
E5
330
E1
100
AcDbEntity
  8
_U+30EC_U+30A4_U+30E4_U+30FC 1
370
     0
100
AcDbSpline
210
0.0
220
0.0
230
1.0
 70
    11
 71
     3
 72
    26
 73
    22
 74
     0
 42
0.0000000001
 43
0.0000000001
 12
1.0
 22
0.0
 32
0.0
 13
1.0
 23
0.0
 33
0.0
 40
0.0
 40
0.0
 40
0.0
 40
0.0
 40
1.0
 40
1.0
 40
1.0
 40
2.0
 40
2.0
 40
2.0
 40
3.0
 40
3.0
 40
3.0
 40
4.0
 40
4.0
 40
4.0
 40
5.0
 40
5.0
 40
5.0
 40
6.0
 40
6.0
 40
6.0
 40
7.0
 40
7.0
 40
7.0
 40
7.0
 10
101.5559027523888
 20
-131.9251084739632
 30
0.0
 10
101.5559027523888
 20
-131.9251084739632
 30
0.0
 10
100.4517496493662
 20
-131.9251084739632
 30
0.0
 10
100.4517496493662
 20
-131.9251084739632
 30
0.0
 10
100.4517496493662
 20
-131.9251084739632
 30
0.0
 10
100.4517496493662
 20
-132.2775417421042
 30
0.0
 10
100.4517496493662
 20
-132.2775417421042
 30
0.0
 10
100.4517496493662
 20
-132.2775417421042
 30
0.0
 10
100.3036105435005
 20
-132.2775417421042
 30
0.0
 10
100.3036105435005
 20
-132.2775417421042
 30
0.0
 10
100.2887966329139
 20
-131.9226969071235
 30
0.0
 10
100.1258436164616
 20
-131.8730875321359
 30
0.0
 10
100.0114664463513
 20
-131.8413926536716
 30
0.0
 10
100.0114664463513
 20
-131.8413926536716
 30
0.0
 10
100.0114664463513
 20
-131.6853298281898
 30
0.0
 10
100.0114664463513
 20
-131.6853298281898
 30
0.0
 10
100.0114664463513
 20
-131.6853298281898
 30
0.0
 10
101.5559027523888
 20
-131.6853298281898
 30
0.0
 10
101.5559027523888
 20
-131.6853298281898
 30
0.0
 10
101.5559027523888
 20
-131.6853298281898
 30
0.0
 10
101.5559027523888
 20
-131.9251084739632
 30
0.0
 10
101.5559027523888
 20
-131.9251084739632
 30
0.0
  0
HATCH
  5
E6
330
E1
100
AcDbEntity
  8
_U+30EC_U+30A4_U+30E4_U+30FC 1
 62
     7
420
 16777215
100
AcDbHatch
 10
0.0
 20
0.0
 30
0.0
210
0.0
220
0.0
230
1.0
  2
SOLID
 70
     1
 71
     0
 91
        1
 92
        1
 93
        1
 72
     4
 94
        3
 73
     0
 74
     1
 95
       26
 96
       22
 40
0.0
 40
0.0
 40
0.0
 40
0.0
 40
1.0
 40
1.0
 40
1.0
 40
2.0
 40
2.0
 40
2.0
 40
3.0
 40
3.0
 40
3.0
 40
4.0
 40
4.0
 40
4.0
 40
5.0
 40
5.0
 40
5.0
 40
6.0
 40
6.0
 40
6.0
 40
7.0
 40
7.0
 40
7.0
 40
7.0
 10
101.5559027523888
 20
-131.9251084739632
 10
101.5559027523888
 20
-131.9251084739632
 10
100.4517496493662
 20
-131.9251084739632
 10
100.4517496493662
 20
-131.9251084739632
 10
100.4517496493662
 20
-131.9251084739632
 10
100.4517496493662
 20
-132.2775417421042
 10
100.4517496493662
 20
-132.2775417421042
 10
100.4517496493662
 20
-132.2775417421042
 10
100.3036105435005
 20
-132.2775417421042
 10
100.3036105435005
 20
-132.2775417421042
 10
100.2887966329139
 20
-131.9226969071235
 10
100.1258436164616
 20
-131.8730875321359
 10
100.0114664463513
 20
-131.8413926536716
 10
100.0114664463513
 20
-131.8413926536716
 10
100.0114664463513
 20
-131.6853298281898
 10
100.0114664463513
 20
-131.6853298281898
 10
100.0114664463513
 20
-131.6853298281898
 10
101.5559027523888
 20
-131.6853298281898
 10
101.5559027523888
 20
-131.6853298281898
 10
101.5559027523888
 20
-131.6853298281898
 10
101.5559027523888
 20
-131.9251084739632
 10
101.5559027523888
 20
-131.9251084739632
 97
        0
 97
        0
 75
     2
 76
     1
 98
        0
  0
SPLINE
  5
E7
330
E1
100
AcDbEntity
  8
_U+30EC_U+30A4_U+30E4_U+30FC 1
370
     0
100
AcDbSpline
210
0.0
220
0.0
230
1.0
 70
    11
 71
     3
 72
    62
 73
    58
 74
     0
 42
0.0000000001
 43
0.0000000001
 12
1.0
 22
0.0
 32
0.0
 13
1.0
 23
0.0
 33
0.0
 40
0.0
 40
0.0
 40
0.0
 40
0.0
 40
1.0
 40
1.0
 40
1.0
 40
2.0
 40
2.0
 40
2.0
 40
3.0
 40
3.0
 40
3.0
 40
4.0
 40
4.0
 40
4.0
 40
5.0
 40
5.0
 40
5.0
 40
6.0
 40
6.0
 40
6.0
 40
7.0
 40
7.0
 40
7.0
 40
8.0
 40
8.0
 40
8.0
 40
9.0
 40
9.0
 40
9.0
 40
10.0
 40
10.0
 40
10.0
 40
11.0
 40
11.0
 40
11.0
 40
12.0
 40
12.0
 40
12.0
 40
13.0
 40
13.0
 40
13.0
 40
14.0
 40
14.0
 40
14.0
 40
15.0
 40
15.0
 40
15.0
 40
16.0
 40
16.0
 40
16.0
 40
17.0
 40
17.0
 40
17.0
 40
18.0
 40
18.0
 40
18.0
 40
19.0
 40
19.0
 40
19.0
 40
19.0
 10
101.606545656022
 20
-130.6242404187328
 30
0.0
 10
101.606545656022
 20
-130.7258707355477
 30
0.0
 10
101.585530573562
 20
-130.9587591903506
 30
0.0
 10
101.3994954173585
 20
-131.0920843856298
 30
0.0
 10
101.2871853045393
 20
-131.1713215817905
 30
0.0
 10
101.1879665545641
 20
-131.1758002059213
 30
0.0
 10
101.103217205627
 20
-131.1802788300521
 30
0.0
 10
101.103217205627
 20
-131.1802788300521
 30
0.0
 10
101.103217205627
 20
-130.9453233179581
 30
0.0
 10
101.103217205627
 20
-130.9453233179581
 30
0.0
 10
101.1772867585598
 20
-130.9429117511185
 30
0.0
 10
101.4118977611054
 20
-130.9315429360171
 30
0.0
 10
101.4118977611054
 20
-130.6287190428637
 30
0.0
 10
101.4118977611054
 20
-130.4816134656435
 30
0.0
 10
101.3423068323033
 20
-130.3190049587397
 30
0.0
 10
101.1138970016313
 20
-130.3190049587397
 30
0.0
 10
100.9974527742298
 20
-130.3190049587397
 30
0.0
 10
100.9488769278878
 20
-130.3596570854656
 30
0.0
 10
100.9171820494235
 20
-130.3937635307696
 30
0.0
 10
100.8431124964906
 20
-130.4726562173819
 30
0.0
 10
100.8303656431952
 20
-130.5970241643994
 30
0.0
 10
100.8303656431952
 20
-130.6559352971971
 30
0.0
 10
100.8303656431952
 20
-130.6762613605601
 30
0.0
 10
100.8324327004863
 20
-130.7145019204464
 30
0.0
 10
100.8365668150686
 20
-130.7441297416195
 30
0.0
 10
100.8365668150686
 20
-130.7441297416195
 30
0.0
 10
100.641918920152
 20
-130.7441297416195
 30
0.0
 10
100.641918920152
 20
-130.7441297416195
 30
0.0
 10
100.648464601574
 20
-130.7034776148936
 30
0.0
 10
100.6505316588651
 20
-130.6580023544883
 30
0.0
 10
100.6505316588651
 20
-130.6514566730663
 30
0.0
 10
100.6505316588651
 20
-130.5811767251672
 30
0.0
 10
100.6291720668566
 20
-130.3686143337273
 30
0.0
 10
100.3924940070199
 20
-130.3686143337273
 30
0.0
 10
100.214727079981
 20
-130.3686143337273
 30
0.0
 10
100.159605552217
 20
-130.508829719977
 30
0.0
 10
100.159605552217
 20
-130.626307476024
 30
0.0
 10
100.159605552217
 20
-130.909149815363
 30
0.0
 10
100.3924940070199
 20
-130.9181070636246
 30
0.0
 10
100.4641519931131
 20
-130.9225856877555
 30
0.0
 10
100.4641519931131
 20
-130.9225856877555
 30
0.0
 10
100.4641519931131
 20
-131.1396267033262
 30
0.0
 10
100.4641519931131
 20
-131.1396267033262
 30
0.0
 10
100.3394395365471
 20
-131.1306694550645
 30
0.0
 10
99.96289060000929
 20
-131.1013861434399
 30
0.0
 10
99.96289060000929
 20
-130.6128716036315
 30
0.0
 10
99.96289060000929
 20
-130.3730929578581
 30
0.0
 10
100.090014623415
 20
-130.1153998155614
 30
0.0
 10
100.385948325598
 20
-130.1153998155614
 30
0.0
 10
100.57232799135
 20
-130.1153998155614
 30
0.0
 10
100.6546657734474
 20
-130.2173746419248
 30
0.0
 10
100.7159884730849
 20
-130.3234835828705
 30
0.0
 10
100.7435492369669
 20
-130.2580267686508
 30
0.0
 10
100.8238199617732
 20
-130.0633788737342
 30
0.0
 10
101.1011501483358
 20
-130.0633788737342
 30
0.0
 10
101.4394585249874
 20
-130.0633788737342
 30
0.0
 10
101.606545656022
 20
-130.3279622070013
 30
0.0
 10
101.606545656022
 20
-130.6242404187328
 30
0.0
  0
HATCH
  5
E8
330
E1
100
AcDbEntity
  8
_U+30EC_U+30A4_U+30E4_U+30FC 1
 62
     7
420
 16777215
100
AcDbHatch
 10
0.0
 20
0.0
 30
0.0
210
0.0
220
0.0
230
1.0
  2
SOLID
 70
     1
 71
     0
 91
        1
 92
        1
 93
        1
 72
     4
 94
        3
 73
     0
 74
     1
 95
       62
 96
       58
 40
0.0
 40
0.0
 40
0.0
 40
0.0
 40
1.0
 40
1.0
 40
1.0
 40
2.0
 40
2.0
 40
2.0
 40
3.0
 40
3.0
 40
3.0
 40
4.0
 40
4.0
 40
4.0
 40
5.0
 40
5.0
 40
5.0
 40
6.0
 40
6.0
 40
6.0
 40
7.0
 40
7.0
 40
7.0
 40
8.0
 40
8.0
 40
8.0
 40
9.0
 40
9.0
 40
9.0
 40
10.0
 40
10.0
 40
10.0
 40
11.0
 40
11.0
 40
11.0
 40
12.0
 40
12.0
 40
12.0
 40
13.0
 40
13.0
 40
13.0
 40
14.0
 40
14.0
 40
14.0
 40
15.0
 40
15.0
 40
15.0
 40
16.0
 40
16.0
 40
16.0
 40
17.0
 40
17.0
 40
17.0
 40
18.0
 40
18.0
 40
18.0
 40
19.0
 40
19.0
 40
19.0
 40
19.0
 10
101.606545656022
 20
-130.6242404187328
 10
101.606545656022
 20
-130.7258707355477
 10
101.585530573562
 20
-130.9587591903506
 10
101.3994954173585
 20
-131.0920843856298
 10
101.2871853045393
 20
-131.1713215817905
 10
101.1879665545641
 20
-131.1758002059213
 10
101.103217205627
 20
-131.1802788300521
 10
101.103217205627
 20
-131.1802788300521
 10
101.103217205627
 20
-130.9453233179581
 10
101.103217205627
 20
-130.9453233179581
 10
101.1772867585598
 20
-130.9429117511185
 10
101.4118977611054
 20
-130.9315429360171
 10
101.4118977611054
 20
-130.6287190428637
 10
101.4118977611054
 20
-130.4816134656435
 10
101.3423068323033
 20
-130.3190049587397
 10
101.1138970016313
 20
-130.3190049587397
 10
100.9974527742298
 20
-130.3190049587397
 10
100.9488769278878
 20
-130.3596570854656
 10
100.9171820494235
 20
-130.3937635307696
 10
100.8431124964906
 20
-130.4726562173819
 10
100.8303656431952
 20
-130.5970241643994
 10
100.8303656431952
 20
-130.6559352971971
 10
100.8303656431952
 20
-130.6762613605601
 10
100.8324327004863
 20
-130.7145019204464
 10
100.8365668150686
 20
-130.7441297416195
 10
100.8365668150686
 20
-130.7441297416195
 10
100.641918920152
 20
-130.7441297416195
 10
100.641918920152
 20
-130.7441297416195
 10
100.648464601574
 20
-130.7034776148936
 10
100.6505316588651
 20
-130.6580023544883
 10
100.6505316588651
 20
-130.6514566730663
 10
100.6505316588651
 20
-130.5811767251672
 10
100.6291720668566
 20
-130.3686143337273
 10
100.3924940070199
 20
-130.3686143337273
 10
100.214727079981
 20
-130.3686143337273
 10
100.159605552217
 20
-130.508829719977
 10
100.159605552217
 20
-130.626307476024
 10
100.159605552217
 20
-130.909149815363
 10
100.3924940070199
 20
-130.9181070636246
 10
100.4641519931131
 20
-130.9225856877555
 10
100.4641519931131
 20
-130.9225856877555
 10
100.4641519931131
 20
-131.1396267033262
 10
100.4641519931131
 20
-131.1396267033262
 10
100.3394395365471
 20
-131.1306694550645
 10
99.96289060000929
 20
-131.1013861434399
 10
99.96289060000929
 20
-130.6128716036315
 10
99.96289060000929
 20
-130.3730929578581
 10
100.090014623415
 20
-130.1153998155614
 10
100.385948325598
 20
-130.1153998155614
 10
100.57232799135
 20
-130.1153998155614
 10
100.6546657734474
 20
-130.2173746419248
 10
100.7159884730849
 20
-130.3234835828705
 10
100.7435492369669
 20
-130.2580267686508
 10
100.8238199617732
 20
-130.0633788737342
 10
101.1011501483358
 20
-130.0633788737342
 10
101.4394585249874
 20
-130.0633788737342
 10
101.606545656022
 20
-130.3279622070013
 10
101.606545656022
 20
-130.6242404187328
 97
        0
 97
        0
 75
     2
 76
     1
 98
        0
  0
ENDBLK
  5
E4
330
E1
100
AcDbEntity
  8
0
100
AcDbBlockEnd
  0
BLOCK
  5
F3
330
F1
100
AcDbEntity
  8
0
100
AcDbBlockBegin
  2
block 7
 70
     0
 10
0.0
 20
0.0
 30
0.0
  3
block 7
  1

  0
SPLINE
  5
F5
330
F1
100
AcDbEntity
  8
_U+30EC_U+30A4_U+30E4_U+30FC 1
370
     0
100
AcDbSpline
210
0.0
220
0.0
230
1.0
 70
    11
 71
     3
 72
    32
 73
    28
 74
     0
 42
0.0000000001
 43
0.0000000001
 12
1.0
 22
0.0
 32
0.0
 13
1.0
 23
0.0
 33
0.0
 40
0.0
 40
0.0
 40
0.0
 40
0.0
 40
1.0
 40
1.0
 40
1.0
 40
2.0
 40
2.0
 40
2.0
 40
3.0
 40
3.0
 40
3.0
 40
4.0
 40
4.0
 40
4.0
 40
5.0
 40
5.0
 40
5.0
 40
6.0
 40
6.0
 40
6.0
 40
7.0
 40
7.0
 40
7.0
 40
8.0
 40
8.0
 40
8.0
 40
9.0
 40
9.0
 40
9.0
 40
9.0
 10
101.606545656022
 20
-120.8987358638725
 30
0.0
 10
101.606545656022
 20
-121.450295651061
 30
0.0
 10
101.0525743019938
 20
-121.4594251540969
 30
0.0
 10
100.8386338723598
 20
-121.4594251540969
 30
0.0
 10
100.6081569843966
 20
-121.4594251540969
 30
0.0
 10
99.96082354271813
 20
-121.439099090734
 30
0.0
 10
99.96082354271813
 20
-120.8580837371466
 30
0.0
 10
99.96082354271813
 20
-120.6727376000402
 30
0.0
 10
100.0307589810687
 20
-120.4103935788384
 30
0.0
 10
100.3628661858468
 20
-120.3697414521124
 30
0.0
 10
100.3628661858468
 20
-120.3697414521124
 30
0.0
 10
100.3628661858468
 20
-120.5979790280102
 30
0.0
 10
100.3628661858468
 20
-120.5979790280102
 30
0.0
 10
100.3056776007916
 20
-120.6093478431116
 30
0.0
 10
100.1575384949259
 20
-120.6432820336413
 30
0.0
 10
100.1575384949259
 20
-120.860323049212
 30
0.0
 10
100.1575384949259
 20
-121.1722764454014
 30
0.0
 10
100.4855115851217
 20
-121.215340138967
 30
0.0
 10
100.690494766494
 20
-121.2287760113595
 30
0.0
 10
100.6122910989789
 20
-121.12938500661
 30
0.0
 10
100.5530354566326
 20
-121.0570380014198
 30
0.0
 10
100.5530354566326
 20
-120.8625623612774
 30
0.0
 10
100.5530354566326
 20
-120.6703260332005
 30
0.0
 10
100.6612114548694
 20
-120.3471760766841
 30
0.0
 10
101.0673882125804
 20
-120.3471760766841
 30
0.0
 10
101.386748564063
 20
-120.3471760766841
 30
0.0
 10
101.606545656022
 20
-120.5595662133497
 30
0.0
 10
101.606545656022
 20
-120.8987358638725
 30
0.0
  0
SPLINE
  5
F6
330
F1
100
AcDbEntity
  8
_U+30EC_U+30A4_U+30E4_U+30FC 1
370
     0
100
AcDbSpline
210
0.0
220
0.0
230
1.0
 70
    11
 71
     3
 72
    17
 73
    13
 74
     0
 42
0.0000000001
 43
0.0000000001
 12
1.0
 22
0.0
 32
0.0
 13
1.0
 23
0.0
 33
0.0
 40
0.0
 40
0.0
 40
0.0
 40
0.0
 40
1.0
 40
1.0
 40
1.0
 40
2.0
 40
2.0
 40
2.0
 40
3.0
 40
3.0
 40
3.0
 40
4.0
 40
4.0
 40
4.0
 40
4.0
 10
100.7476833515492
 20
-120.880649112575
 30
0.0
 10
100.7476833515492
 20
-121.1609076303001
 30
0.0
 10
100.9592122143435
 20
-121.2017320118003
 30
0.0
 10
101.075656441745
 20
-121.2017320118003
 30
0.0
 10
101.2513563114927
 20
-121.2017320118003
 30
0.0
 10
101.414309327945
 20
-121.0999294402111
 30
0.0
 10
101.414309327945
 20
-120.9032144880034
 30
0.0
 10
101.414309327945
 20
-120.774367916855
 30
0.0
 10
101.3550536855987
 20
-120.5867824676832
 30
0.0
 10
101.0694552698715
 20
-120.5867824676832
 30
0.0
 10
100.8451795537818
 20
-120.5867824676832
 30
0.0
 10
100.7476833515492
 20
-120.7359551021945
 30
0.0
 10
100.7476833515492
 20
-120.880649112575
 30
0.0
  0
HATCH
  5
F7
330
F1
100
AcDbEntity
  8
_U+30EC_U+30A4_U+30E4_U+30FC 1
 62
     7
420
 16777215
100
AcDbHatch
 10
0.0
 20
0.0
 30
0.0
210
0.0
220
0.0
230
1.0
  2
SOLID
 70
     1
 71
     0
 91
        2
 92
        1
 93
        1
 72
     4
 94
        3
 73
     0
 74
     1
 95
       32
 96
       28
 40
0.0
 40
0.0
 40
0.0
 40
0.0
 40
1.0
 40
1.0
 40
1.0
 40
2.0
 40
2.0
 40
2.0
 40
3.0
 40
3.0
 40
3.0
 40
4.0
 40
4.0
 40
4.0
 40
5.0
 40
5.0
 40
5.0
 40
6.0
 40
6.0
 40
6.0
 40
7.0
 40
7.0
 40
7.0
 40
8.0
 40
8.0
 40
8.0
 40
9.0
 40
9.0
 40
9.0
 40
9.0
 10
101.606545656022
 20
-120.8987358638725
 10
101.606545656022
 20
-121.450295651061
 10
101.0525743019938
 20
-121.4594251540969
 10
100.8386338723598
 20
-121.4594251540969
 10
100.6081569843966
 20
-121.4594251540969
 10
99.96082354271813
 20
-121.439099090734
 10
99.96082354271813
 20
-120.8580837371466
 10
99.96082354271813
 20
-120.6727376000402
 10
100.0307589810687
 20
-120.4103935788384
 10
100.3628661858468
 20
-120.3697414521124
 10
100.3628661858468
 20
-120.3697414521124
 10
100.3628661858468
 20
-120.5979790280102
 10
100.3628661858468
 20
-120.5979790280102
 10
100.3056776007916
 20
-120.6093478431116
 10
100.1575384949259
 20
-120.6432820336413
 10
100.1575384949259
 20
-120.860323049212
 10
100.1575384949259
 20
-121.1722764454014
 10
100.4855115851217
 20
-121.215340138967
 10
100.690494766494
 20
-121.2287760113595
 10
100.6122910989789
 20
-121.12938500661
 10
100.5530354566326
 20
-121.0570380014198
 10
100.5530354566326
 20
-120.8625623612774
 10
100.5530354566326
 20
-120.6703260332005
 10
100.6612114548694
 20
-120.3471760766841
 10
101.0673882125804
 20
-120.3471760766841
 10
101.386748564063
 20
-120.3471760766841
 10
101.606545656022
 20
-120.5595662133497
 10
101.606545656022
 20
-120.8987358638725
 97
        0
 97
        0
 92
        1
 93
        1
 72
     4
 94
        3
 73
     0
 74
     1
 95
       17
 96
       13
 40
0.0
 40
0.0
 40
0.0
 40
0.0
 40
1.0
 40
1.0
 40
1.0
 40
2.0
 40
2.0
 40
2.0
 40
3.0
 40
3.0
 40
3.0
 40
4.0
 40
4.0
 40
4.0
 40
4.0
 10
100.7476833515492
 20
-120.880649112575
 10
100.7476833515492
 20
-121.1609076303001
 10
100.9592122143435
 20
-121.2017320118003
 10
101.075656441745
 20
-121.2017320118003
 10
101.2513563114927
 20
-121.2017320118003
 10
101.414309327945
 20
-121.0999294402111
 10
101.414309327945
 20
-120.9032144880034
 10
101.414309327945
 20
-120.774367916855
 10
101.3550536855987
 20
-120.5867824676832
 10
101.0694552698715
 20
-120.5867824676832
 10
100.8451795537818
 20
-120.5867824676832
 10
100.7476833515492
 20
-120.7359551021945
 10
100.7476833515492
 20
-120.880649112575
 97
        0
 97
        0
 75
     2
 76
     1
 98
        0
  0
ENDBLK
  5
F4
330
F1
100
AcDbEntity
  8
0
100
AcDbBlockEnd
  0
ENDSEC
  0
SECTION
  2
ENTITIES
  0
POLYLINE
  5
41
330
1F
100
AcDbEntity
  8
_U+30EC_U+30A4_U+30E4_U+30FC 1
 62
     7
420
 16777215
370
    25
100
AcDb2dPolyline
 66
     1
 10
0.0
 20
0.0
 30
0.0
  0
VERTEX
  5
42
330
41
100
AcDbEntity
  8
_U+30EC_U+30A4_U+30E4_U+30FC 1
 62
     7
420
 16777215
370
    25
100
AcDbVertex
100
AcDb2dVertex
 10
86.73905750932451
 20
-137.7438824655638
 30
0.0
  0
VERTEX
  5
43
330
41
100
AcDbEntity
  8
_U+30EC_U+30A4_U+30E4_U+30FC 1
 62
     7
420
 16777215
370
    25
100
AcDbVertex
100
AcDb2dVertex
 10
92.7392076340257
 20
-137.7438824655638
 30
0.0
  0
SEQEND
  5
44
330
41
100
AcDbEntity
  8
_U+30EC_U+30A4_U+30E4_U+30FC 1
 62
     7
420
 16777215
370
    25
  0
POLYLINE
  5
45
330
1F
100
AcDbEntity
  8
_U+30EC_U+30A4_U+30E4_U+30FC 1
 62
     7
420
 16777215
370
    25
100
AcDb2dPolyline
 66
     1
 10
0.0
 20
0.0
 30
0.0
  0
VERTEX
  5
46
330
45
100
AcDbEntity
  8
_U+30EC_U+30A4_U+30E4_U+30FC 1
 62
     7
420
 16777215
370
    25
100
AcDbVertex
100
AcDb2dVertex
 10
86.73905750932451
 20
-124.743986079925
 30
0.0
  0
VERTEX
  5
47
330
45
100
AcDbEntity
  8
_U+30EC_U+30A4_U+30E4_U+30FC 1
 62
     7
420
 16777215
370
    25
100
AcDbVertex
100
AcDb2dVertex
 10
92.7392076340257
 20
-124.743986079925
 30
0.0
  0
SEQEND
  5
48
330
45
100
AcDbEntity
  8
_U+30EC_U+30A4_U+30E4_U+30FC 1
 62
     7
420
 16777215
370
    25
  0
POLYLINE
  5
49
330
1F
100
AcDbEntity
  8
_U+30EC_U+30A4_U+30E4_U+30FC 1
 62
     7
420
 16777215
370
    25
100
AcDb2dPolyline
 66
     1
 10
0.0
 20
0.0
 30
0.0
  0
VERTEX
  5
4A
330
49
100
AcDbEntity
  8
_U+30EC_U+30A4_U+30E4_U+30FC 1
 62
     7
420
 16777215
370
    25
100
AcDbVertex
100
AcDb2dVertex
 10
86.73905750932451
 20
-138.7443249653137
 30
0.0
  0
VERTEX
  5
4B
330
49
100
AcDbEntity
  8
_U+30EC_U+30A4_U+30E4_U+30FC 1
 62
     7
420
 16777215
370
    25
100
AcDbVertex
100
AcDb2dVertex
 10
99.73895356655842
 20
-138.7443249653137
 30
0.0
  0
SEQEND
  5
4C
330
49
100
AcDbEntity
  8
_U+30EC_U+30A4_U+30E4_U+30FC 1
 62
     7
420
 16777215
370
    25
  0
POLYLINE
  5
4D
330
1F
100
AcDbEntity
  8
_U+30EC_U+30A4_U+30E4_U+30FC 1
 62
     7
420
 16777215
370
    25
100
AcDb2dPolyline
 66
     1
 10
0.0
 20
0.0
 30
0.0
  0
VERTEX
  5
4E
330
4D
100
AcDbEntity
  8
_U+30EC_U+30A4_U+30E4_U+30FC 1
 62
     7
420
 16777215
370
    25
100
AcDbVertex
100
AcDb2dVertex
 10
85.73861503484792
 20
-117.7438871927863
 30
0.0
  0
VERTEX
  5
4F
330
4D
100
AcDbEntity
  8
_U+30EC_U+30A4_U+30E4_U+30FC 1
 62
     7
420
 16777215
370
    25
100
AcDbVertex
100
AcDb2dVertex
 10
85.73861503484792
 20
-137.7438824655638
 30
0.0
  0
SEQEND
  5
50
330
4D
100
AcDbEntity
  8
_U+30EC_U+30A4_U+30E4_U+30FC 1
 62
     7
420
 16777215
370
    25
  0
POLYLINE
  5
51
330
1F
100
AcDbEntity
  8
_U+30EC_U+30A4_U+30E4_U+30FC 1
 62
     7
420
 16777215
370
    25
100
AcDb2dPolyline
 66
     1
 10
0.0
 20
0.0
 30
0.0
  0
VERTEX
  5
52
330
51
100
AcDbEntity
  8
_U+30EC_U+30A4_U+30E4_U+30FC 1
 62
     7
420
 16777215
370
    25
100
AcDbVertex
100
AcDb2dVertex
 10
86.73905750932451
 20
-118.7436594147585
 30
0.0
  0
VERTEX
  5
53
330
51
100
AcDbEntity
  8
_U+30EC_U+30A4_U+30E4_U+30FC 1
 62
     7
420
 16777215
370
    25
100
AcDbVertex
100
AcDb2dVertex
 10
86.73905750932451
 20
-123.7435083023975
 30
0.0
  0
SEQEND
  5
54
330
51
100
AcDbEntity
  8
_U+30EC_U+30A4_U+30E4_U+30FC 1
 62
     7
420
 16777215
370
    25
  0
POLYLINE
  5
55
330
1F
100
AcDbEntity
  8
_U+30EC_U+30A4_U+30E4_U+30FC 1
 62
     7
420
 16777215
370
    25
100
AcDb2dPolyline
 66
     1
 10
0.0
 20
0.0
 30
0.0
  0
VERTEX
  5
56
330
55
100
AcDbEntity
  8
_U+30EC_U+30A4_U+30E4_U+30FC 1
 62
     7
420
 16777215
370
    25
100
AcDbVertex
100
AcDb2dVertex
 10
86.73905750932451
 20
-123.7435083023975
 30
0.0
  0
VERTEX
  5
57
330
55
100
AcDbEntity
  8
_U+30EC_U+30A4_U+30E4_U+30FC 1
 62
     7
420
 16777215
370
    25
100
AcDbVertex
100
AcDb2dVertex
 10
91.73876515954912
 20
-123.7435083023975
 30
0.0
  0
SEQEND
  5
58
330
55
100
AcDbEntity
  8
_U+30EC_U+30A4_U+30E4_U+30FC 1
 62
     7
420
 16777215
370
    25
  0
POLYLINE
  5
59
330
1F
100
AcDbEntity
  8
_U+30EC_U+30A4_U+30E4_U+30FC 1
 62
     7
420
 16777215
370
    25
100
AcDb2dPolyline
 66
     1
 10
0.0
 20
0.0
 30
0.0
  0
VERTEX
  5
5A
330
59
100
AcDbEntity
  8
_U+30EC_U+30A4_U+30E4_U+30FC 1
 62
     7
420
 16777215
370
    25
100
AcDbVertex
100
AcDb2dVertex
 10
86.73905750932451
 20
-124.743986079925
 30
0.0
  0
VERTEX
  5
5B
330
59
100
AcDbEntity
  8
_U+30EC_U+30A4_U+30E4_U+30FC 1
 62
     7
420
 16777215
370
    25
100
AcDbVertex
100
AcDb2dVertex
 10
86.73905750932451
 20
-137.7438824655638
 30
0.0
  0
SEQEND
  5
5C
330
59
100
AcDbEntity
  8
_U+30EC_U+30A4_U+30E4_U+30FC 1
 62
     7
420
 16777215
370
    25
  0
POLYLINE
  5
5D
330
1F
100
AcDbEntity
  8
_U+30EC_U+30A4_U+30E4_U+30FC 1
 62
     7
420
 16777215
370
    25
100
AcDb2dPolyline
 66
     1
 10
0.0
 20
0.0
 30
0.0
  0
VERTEX
  5
5E
330
5D
100
AcDbEntity
  8
_U+30EC_U+30A4_U+30E4_U+30FC 1
 62
     7
420
 16777215
370
    25
100
AcDbVertex
100
AcDb2dVertex
 10
93.09748873599631
 20
-137.944366076625
 30
0.0
  0
VERTEX
  5
5F
330
5D
100
AcDbEntity
  8
_U+30EC_U+30A4_U+30E4_U+30FC 1
 62
     7
420
 16777215
370
    25
100
AcDbVertex
100
AcDb2dVertex
 10
98.9389971974876
 20
-137.944366076625
 30
0.0
  0
SEQEND
  5
60
330
5D
100
AcDbEntity
  8
_U+30EC_U+30A4_U+30E4_U+30FC 1
 62
     7
420
 16777215
370
    25
  0
POLYLINE
  5
61
330
1F
100
AcDbEntity
  8
_U+30EC_U+30A4_U+30E4_U+30FC 1
 62
     7
420
 16777215
370
    25
100
AcDb2dPolyline
 66
     1
 10
0.0
 20
0.0
 30
0.0
  0
VERTEX
  5
62
330
61
100
AcDbEntity
  8
_U+30EC_U+30A4_U+30E4_U+30FC 1
 62
     7
420
 16777215
370
    25
100
AcDbVertex
100
AcDb2dVertex
 10
92.7392076340257
 20
-137.7438824655638
 30
0.0
  0
VERTEX
  5
63
330
61
100
AcDbEntity
  8
_U+30EC_U+30A4_U+30E4_U+30FC 1
 62
     7
420
 16777215
370
    25
100
AcDbVertex
100
AcDb2dVertex
 10
93.0851062363122
 20
-137.944366076625
 30
0.0
  0
SEQEND
  5
64
330
61
100
AcDbEntity
  8
_U+30EC_U+30A4_U+30E4_U+30FC 1
 62
     7
420
 16777215
370
    25
  0
SPLINE
  5
65
330
1F
100
AcDbEntity
  8
_U+30EC_U+30A4_U+30E4_U+30FC 1
 62
     7
420
 16777215
370
    25
100
AcDbSpline
210
0.0
220
0.0
230
1.0
 70
     8
 71
     3
 72
     8
 73
     4
 74
     0
 42
0.0000000001
 43
0.0000000001
 12
1.0
 22
0.0
 32
0.0
 13
1.0
 23
0.0
 33
0.0
 40
0.0
 40
0.0
 40
0.0
 40
0.0
 40
1.0
 40
1.0
 40
1.0
 40
1.0
 10
85.73861503484792
 20
-137.7438824655638
 30
0.0
 10
85.73861503484792
 20
-138.2964735765373
 30
0.0
 10
86.18646641231116
 20
-138.7443249653137
 30
0.0
 10
86.73905750932451
 20
-138.7443249653137
 30
0.0
  0
SPLINE
  5
66
330
1F
100
AcDbEntity
  8
_U+30EC_U+30A4_U+30E4_U+30FC 1
 62
     7
420
 16777215
370
     9
100
AcDbSpline
210
0.0
220
0.0
230
1.0
 70
    11
 71
     3
 72
    17
 73
    13
 74
     0
 42
0.0000000001
 43
0.0000000001
 12
1.0
 22
0.0
 32
0.0
 13
1.0
 23
0.0
 33
0.0
 40
0.0
 40
0.0
 40
0.0
 40
0.0
 40
1.0
 40
1.0
 40
1.0
 40
2.0
 40
2.0
 40
2.0
 40
3.0
 40
3.0
 40
3.0
 40
4.0
 40
4.0
 40
4.0
 40
4.0
 10
85.83887447673453
 20
-121.9782435806164
 30
0.0
 10
85.83887447673453
 20
-121.9231396917415
 30
0.0
 10
85.79407170009976
 20
-121.8783369139748
 30
0.0
 10
85.73861503484792
 20
-121.8783369139748
 30
0.0
 10
85.68347586958797
 20
-121.8783369139748
 30
0.0
 10
85.63870837073009
 20
-121.9231396917415
 30
0.0
 10
85.63870837073009
 20
-121.9782435806164
 30
0.0
 10
85.63870837073009
 20
-122.0333827472695
 30
0.0
 10
85.68347586958797
 20
-122.0781502472584
 30
0.0
 10
85.73861503484792
 20
-122.0781502472584
 30
0.0
 10
85.79407170009976
 20
-122.0781502472584
 30
0.0
 10
85.83887447673453
 20
-122.0333827472695
 30
0.0
 10
85.83887447673453
 20
-121.9782435806164
 30
0.0
  0
SPLINE
  5
67
330
1F
100
AcDbEntity
  8
_U+30EC_U+30A4_U+30E4_U+30FC 1
 62
     7
420
 16777215
370
     9
100
AcDbSpline
210
0.0
220
0.0
230
1.0
 70
    11
 71
     3
 72
    17
 73
    13
 74
     0
 42
0.0000000001
 43
0.0000000001
 12
1.0
 22
0.0
 32
0.0
 13
1.0
 23
0.0
 33
0.0
 40
0.0
 40
0.0
 40
0.0
 40
0.0
 40
1.0
 40
1.0
 40
1.0
 40
2.0
 40
2.0
 40
2.0
 40
3.0
 40
3.0
 40
3.0
 40
4.0
 40
4.0
 40
4.0
 40
4.0
 10
86.83896417344235
 20
-121.9782435806164
 30
0.0
 10
86.83896417344235
 20
-121.9231396917415
 30
0.0
 10
86.79419667458446
 20
-121.8783369139748
 30
0.0
 10
86.73905750932451
 20
-121.8783369139748
 30
0.0
 10
86.68360084407266
 20
-121.8783369139748
 30
0.0
 10
86.63879806743789
 20
-121.9231396917415
 30
0.0
 10
86.63879806743789
 20
-121.9782435806164
 30
0.0
 10
86.63879806743789
 20
-122.0333827472695
 30
0.0
 10
86.68360084407266
 20
-122.0781502472584
 30
0.0
 10
86.73905750932451
 20
-122.0781502472584
 30
0.0
 10
86.79419667458446
 20
-122.0781502472584
 30
0.0
 10
86.83896417344235
 20
-122.0333827472695
 30
0.0
 10
86.83896417344235
 20
-121.9782435806164
 30
0.0
  0
SPLINE
  5
68
330
1F
100
AcDbEntity
  8
_U+30EC_U+30A4_U+30E4_U+30FC 1
 62
     7
420
 16777215
370
     9
100
AcDbSpline
210
0.0
220
0.0
230
1.0
 70
    11
 71
     3
 72
    17
 73
    13
 74
     0
 42
0.0000000001
 43
0.0000000001
 12
1.0
 22
0.0
 32
0.0
 13
1.0
 23
0.0
 33
0.0
 40
0.0
 40
0.0
 40
0.0
 40
0.0
 40
1.0
 40
1.0
 40
1.0
 40
2.0
 40
2.0
 40
2.0
 40
3.0
 40
3.0
 40
3.0
 40
4.0
 40
4.0
 40
4.0
 40
4.0
 10
99.73895356655842
 20
-142.7440841309806
 30
0.0
 10
99.73895356655842
 20
-142.6889802421056
 30
0.0
 10
99.69418606770053
 20
-142.6441774643389
 30
0.0
 10
99.63904690244058
 20
-142.6441774643389
 30
0.0
 10
99.58394301495751
 20
-142.6441774643389
 30
0.0
 10
99.53914023832274
 20
-142.6889802421056
 30
0.0
 10
99.53914023832274
 20
-142.7440841309806
 30
0.0
 10
99.53914023832274
 20
-142.7992232976336
 30
0.0
 10
99.58394301495751
 20
-142.8439907976222
 30
0.0
 10
99.63904690244058
 20
-142.8439907976222
 30
0.0
 10
99.69418606770053
 20
-142.8439907976222
 30
0.0
 10
99.73895356655842
 20
-142.7992232976336
 30
0.0
 10
99.73895356655842
 20
-142.7440841309806
 30
0.0
  0
SPLINE
  5
69
330
1F
100
AcDbEntity
  8
_U+30EC_U+30A4_U+30E4_U+30FC 1
 62
     7
420
 16777215
370
     9
100
AcDbSpline
210
0.0
220
0.0
230
1.0
 70
    11
 71
     3
 72
    17
 73
    13
 74
     0
 42
0.0000000001
 43
0.0000000001
 12
1.0
 22
0.0
 32
0.0
 13
1.0
 23
0.0
 33
0.0
 40
0.0
 40
0.0
 40
0.0
 40
0.0
 40
1.0
 40
1.0
 40
1.0
 40
2.0
 40
2.0
 40
2.0
 40
3.0
 40
3.0
 40
3.0
 40
4.0
 40
4.0
 40
4.0
 40
4.0
 10
85.83887447673453
 20
-142.7440841309806
 30
0.0
 10
85.83887447673453
 20
-142.6889802421056
 30
0.0
 10
85.79407170009976
 20
-142.6441774643389
 30
0.0
 10
85.73861503484792
 20
-142.6441774643389
 30
0.0
 10
85.68347586958797
 20
-142.6441774643389
 30
0.0
 10
85.63870837073009
 20
-142.6889802421056
 30
0.0
 10
85.63870837073009
 20
-142.7440841309806
 30
0.0
 10
85.63870837073009
 20
-142.7992232976336
 30
0.0
 10
85.68347586958797
 20
-142.8439907976222
 30
0.0
 10
85.73861503484792
 20
-142.8439907976222
 30
0.0
 10
85.79407170009976
 20
-142.8439907976222
 30
0.0
 10
85.83887447673453
 20
-142.7992232976336
 30
0.0
 10
85.83887447673453
 20
-142.7440841309806
 30
0.0
  0
SPLINE
  5
6A
330
1F
100
AcDbEntity
  8
_U+30EC_U+30A4_U+30E4_U+30FC 1
 62
     7
420
 16777215
370
    25
100
AcDbSpline
210
0.0
220
0.0
230
1.0
 70
     8
 71
     3
 72
     8
 73
     4
 74
     0
 42
0.0000000001
 43
0.0000000001
 12
1.0
 22
0.0
 32
0.0
 13
1.0
 23
0.0
 33
0.0
 40
0.0
 40
0.0
 40
0.0
 40
0.0
 40
1.0
 40
1.0
 40
1.0
 40
1.0
 10
86.73905750932451
 20
-118.7436594147585
 30
0.0
 10
86.73905750932451
 20
-118.191738581563
 30
0.0
 10
86.29120831176039
 20
-117.7438871927863
 30
0.0
 10
85.73861503484792
 20
-117.7438871927863
 30
0.0
  0
SPLINE
  5
6B
330
1F
100
AcDbEntity
  8
_U+30EC_U+30A4_U+30E4_U+30FC 1
 62
     7
420
 16777215
370
    25
100
AcDbSpline
210
0.0
220
0.0
230
1.0
 70
     8
 71
     3
 72
     8
 73
     4
 74
     0
 42
0.0000000001
 43
0.0000000001
 12
1.0
 22
0.0
 32
0.0
 13
1.0
 23
0.0
 33
0.0
 40
0.0
 40
0.0
 40
0.0
 40
0.0
 40
1.0
 40
1.0
 40
1.0
 40
1.0
 10
92.7392076340257
 20
-124.743986079925
 30
0.0
 10
92.7392076340257
 20
-124.1913949689521
 30
0.0
 10
92.29135625656245
 20
-123.7435083023975
 30
0.0
 10
91.73876515954912
 20
-123.7435083023975
 30
0.0
  0
SPLINE
  5
6C
330
1F
100
AcDbEntity
  8
_U+30EC_U+30A4_U+30E4_U+30FC 1
 62
     7
420
 16777215
370
    25
100
AcDbSpline
210
0.0
220
0.0
230
1.0
 70
     8
 71
     3
 72
     8
 73
     4
 74
     0
 42
0.0000000001
 43
0.0000000001
 12
1.0
 22
0.0
 32
0.0
 13
1.0
 23
0.0
 33
0.0
 40
0.0
 40
0.0
 40
0.0
 40
0.0
 40
1.0
 40
1.0
 40
1.0
 40
1.0
 10
99.73895356655842
 20
-138.7443249653137
 30
0.0
 10
99.73895356655842
 20
-138.3026824654243
 30
0.0
 10
99.3806749751551
 20
-137.944366076625
 30
0.0
 10
98.9389971974876
 20
-137.944366076625
 30
0.0
  0
SPLINE
  5
6D
330
1F
100
AcDbEntity
  8
_U+30EC_U+30A4_U+30E4_U+30FC 1
 62
     7
420
 16777215
370
     9
100
AcDbSpline
210
0.0
220
0.0
230
1.0
 70
    11
 71
     3
 72
    17
 73
    13
 74
     0
 42
0.0000000001
 43
0.0000000001
 12
1.0
 22
0.0
 32
0.0
 13
1.0
 23
0.0
 33
0.0
 40
0.0
 40
0.0
 40
0.0
 40
0.0
 40
1.0
 40
1.0
 40
1.0
 40
2.0
 40
2.0
 40
2.0
 40
3.0
 40
3.0
 40
3.0
 40
4.0
 40
4.0
 40
4.0
 40
4.0
 10
81.83876263434145
 20
-117.7442399705641
 30
0.0
 10
81.83876263434145
 20
-117.689100803911
 30
0.0
 10
81.79395985770668
 20
-117.6443333039221
 30
0.0
 10
81.73885597022361
 20
-117.6443333039221
 30
0.0
 10
81.68371680496367
 20
-117.6443333039221
 30
0.0
 10
81.63894930610577
 20
-117.689100803911
 30
0.0
 10
81.63894930610577
 20
-117.7442399705641
 30
0.0
 10
81.63894930610577
 20
-117.799343859439
 30
0.0
 10
81.68371680496367
 20
-117.8441466372057
 30
0.0
 10
81.73885597022361
 20
-117.8441466372057
 30
0.0
 10
81.79395985770668
 20
-117.8441466372057
 30
0.0
 10
81.83876263434145
 20
-117.799343859439
 30
0.0
 10
81.83876263434145
 20
-117.7442399705641
 30
0.0
  0
SPLINE
  5
6E
330
1F
100
AcDbEntity
  8
_U+30EC_U+30A4_U+30E4_U+30FC 1
 62
     7
420
 16777215
370
     9
100
AcDbSpline
210
0.0
220
0.0
230
1.0
 70
    11
 71
     3
 72
    17
 73
    13
 74
     0
 42
0.0000000001
 43
0.0000000001
 12
1.0
 22
0.0
 32
0.0
 13
1.0
 23
0.0
 33
0.0
 40
0.0
 40
0.0
 40
0.0
 40
0.0
 40
1.0
 40
1.0
 40
1.0
 40
2.0
 40
2.0
 40
2.0
 40
3.0
 40
3.0
 40
3.0
 40
4.0
 40
4.0
 40
4.0
 40
4.0
 10
81.83876263434145
 20
-138.7443249653137
 30
0.0
 10
81.83876263434145
 20
-138.6892210764387
 30
0.0
 10
81.79395985770668
 20
-138.644418298672
 30
0.0
 10
81.73885597022361
 20
-138.644418298672
 30
0.0
 10
81.68371680496367
 20
-138.644418298672
 30
0.0
 10
81.63894930610577
 20
-138.6892210764387
 30
0.0
 10
81.63894930610577
 20
-138.7443249653137
 30
0.0
 10
81.63894930610577
 20
-138.7994641319667
 30
0.0
 10
81.68371680496367
 20
-138.8442316319553
 30
0.0
 10
81.73885597022361
 20
-138.8442316319553
 30
0.0
 10
81.79395985770668
 20
-138.8442316319553
 30
0.0
 10
81.83876263434145
 20
-138.7994641319667
 30
0.0
 10
81.83876263434145
 20
-138.7443249653137
 30
0.0
  0
SPLINE
  5
6F
330
1F
100
AcDbEntity
  8
_U+30EC_U+30A4_U+30E4_U+30FC 1
 62
     7
420
 16777215
370
     9
100
AcDbSpline
210
0.0
220
0.0
230
1.0
 70
    11
 71
     3
 72
    17
 73
    13
 74
     0
 42
0.0000000001
 43
0.0000000001
 12
1.0
 22
0.0
 32
0.0
 13
1.0
 23
0.0
 33
0.0
 40
0.0
 40
0.0
 40
0.0
 40
0.0
 40
1.0
 40
1.0
 40
1.0
 40
2.0
 40
2.0
 40
2.0
 40
3.0
 40
3.0
 40
3.0
 40
4.0
 40
4.0
 40
4.0
 40
4.0
 10
102.2511193358011
 20
-137.7438824655638
 30
0.0
 10
102.2511193358011
 20
-137.6887432989113
 30
0.0
 10
102.2063518369432
 20
-137.6439757989221
 30
0.0
 10
102.1512126716832
 20
-137.6439757989221
 30
0.0
 10
102.0961087842002
 20
-137.6439757989221
 30
0.0
 10
102.0513060075654
 20
-137.6887432989113
 30
0.0
 10
102.0513060075654
 20
-137.7438824655638
 30
0.0
 10
102.0513060075654
 20
-137.7996919099948
 30
0.0
 10
102.0961087842002
 20
-137.8444594099834
 30
0.0
 10
102.1512126716832
 20
-137.8444594099834
 30
0.0
 10
102.2063518369432
 20
-137.8444594099834
 30
0.0
 10
102.2511193358011
 20
-137.7996919099948
 30
0.0
 10
102.2511193358011
 20
-137.7438824655638
 30
0.0
  0
SPLINE
  5
70
330
1F
100
AcDbEntity
  8
_U+30EC_U+30A4_U+30E4_U+30FC 1
 62
     7
420
 16777215
370
     9
100
AcDbSpline
210
0.0
220
0.0
230
1.0
 70
    11
 71
     3
 72
    17
 73
    13
 74
     0
 42
0.0000000001
 43
0.0000000001
 12
1.0
 22
0.0
 32
0.0
 13
1.0
 23
0.0
 33
0.0
 40
0.0
 40
0.0
 40
0.0
 40
0.0
 40
1.0
 40
1.0
 40
1.0
 40
2.0
 40
2.0
 40
2.0
 40
3.0
 40
3.0
 40
3.0
 40
4.0
 40
4.0
 40
4.0
 40
4.0
 10
102.2511193358011
 20
-124.8438927465669
 30
0.0
 10
102.2511193358011
 20
-124.7887535799138
 30
0.0
 10
102.2063518369432
 20
-124.743986079925
 30
0.0
 10
102.1512126716832
 20
-124.743986079925
 30
0.0
 10
102.0961087842002
 20
-124.743986079925
 30
0.0
 10
102.0513060075654
 20
-124.7887535799138
 30
0.0
 10
102.0513060075654
 20
-124.8438927465669
 30
0.0
 10
102.0513060075654
 20
-124.8993494132196
 30
0.0
 10
102.0961087842002
 20
-124.9441521909863
 30
0.0
 10
102.1512126716832
 20
-124.9441521909863
 30
0.0
 10
102.2063518369432
 20
-124.9441521909863
 30
0.0
 10
102.2511193358011
 20
-124.8993494132196
 30
0.0
 10
102.2511193358011
 20
-124.8438927465669
 30
0.0
  0
SPLINE
  5
71
330
1F
100
AcDbEntity
  8
_U+30EC_U+30A4_U+30E4_U+30FC 1
 62
     7
420
 16777215
370
     9
100
AcDbSpline
210
0.0
220
0.0
230
1.0
 70
    11
 71
     3
 72
    17
 73
    13
 74
     0
 42
0.0000000001
 43
0.0000000001
 12
1.0
 22
0.0
 32
0.0
 13
1.0
 23
0.0
 33
0.0
 40
0.0
 40
0.0
 40
0.0
 40
0.0
 40
1.0
 40
1.0
 40
1.0
 40
2.0
 40
2.0
 40
2.0
 40
3.0
 40
3.0
 40
3.0
 40
4.0
 40
4.0
 40
4.0
 40
4.0
 10
102.2511193358011
 20
-117.8437938594279
 30
0.0
 10
102.2511193358011
 20
-117.7886899705527
 30
0.0
 10
102.2063518369432
 20
-117.7438871927863
 30
0.0
 10
102.1512126716832
 20
-117.7438871927863
 30
0.0
 10
102.0961087842002
 20
-117.7438871927863
 30
0.0
 10
102.0513060075654
 20
-117.7886899705527
 30
0.0
 10
102.0513060075654
 20
-117.8437938594279
 30
0.0
 10
102.0513060075654
 20
-117.8989330260807
 30
0.0
 10
102.0961087842002
 20
-117.9437005260696
 30
0.0
 10
102.1512126716832
 20
-117.9437005260696
 30
0.0
 10
102.2063518369432
 20
-117.9437005260696
 30
0.0
 10
102.2511193358011
 20
-117.8989330260807
 30
0.0
 10
102.2511193358011
 20
-117.8437938594279
 30
0.0
  0
POLYLINE
  5
72
330
1F
100
AcDbEntity
  8
_U+30EC_U+30A4_U+30E4_U+30FC 1
 62
     7
420
 16777215
370
     9
100
AcDb2dPolyline
 66
     1
 10
0.0
 20
0.0
 30
0.0
  0
VERTEX
  5
73
330
72
100
AcDbEntity
  8
_U+30EC_U+30A4_U+30E4_U+30FC 1
 62
     7
420
 16777215
370
     9
100
AcDbVertex
100
AcDb2dVertex
 10
86.73905750932451
 20
-121.9782435806164
 30
0.0
  0
VERTEX
  5
74
330
72
100
AcDbEntity
  8
_U+30EC_U+30A4_U+30E4_U+30FC 1
 62
     7
420
 16777215
370
     9
100
AcDbVertex
100
AcDb2dVertex
 10
90.50937219959485
 20
-121.9782435806164
 30
0.0
  0
SEQEND
  5
75
330
72
100
AcDbEntity
  8
_U+30EC_U+30A4_U+30E4_U+30FC 1
 62
     7
420
 16777215
370
     9
  0
POLYLINE
  5
76
330
1F
100
AcDbEntity
  8
_U+30EC_U+30A4_U+30E4_U+30FC 1
 62
     7
420
 16777215
370
     9
100
AcDb2dPolyline
 66
     1
 10
0.0
 20
0.0
 30
0.0
  0
VERTEX
  5
77
330
76
100
AcDbEntity
  8
_U+30EC_U+30A4_U+30E4_U+30FC 1
 62
     7
420
 16777215
370
     9
100
AcDbVertex
100
AcDb2dVertex
 10
84.73884283813202
 20
-121.9782435806164
 30
0.0
  0
VERTEX
  5
78
330
76
100
AcDbEntity
  8
_U+30EC_U+30A4_U+30E4_U+30FC 1
 62
     7
420
 16777215
370
     9
100
AcDbVertex
100
AcDb2dVertex
 10
86.73905750932451
 20
-121.9782435806164
 30
0.0
  0
SEQEND
  5
79
330
76
100
AcDbEntity
  8
_U+30EC_U+30A4_U+30E4_U+30FC 1
 62
     7
420
 16777215
370
     9
  0
INSERT
  5
7B
330
1F
100
AcDbEntity
  8
_U+30EC_U+30A4_U+30E4_U+30FC 1
100
AcDbBlockReference
  2
block 2
 10
0.0
 20
0.0
 30
0.0
  0
POLYLINE
  5
80
330
1F
100
AcDbEntity
  8
_U+30EC_U+30A4_U+30E4_U+30FC 1
 62
     7
420
 16777215
370
     9
100
AcDb2dPolyline
 66
     1
 10
0.0
 20
0.0
 30
0.0
  0
VERTEX
  5
81
330
80
100
AcDbEntity
  8
_U+30EC_U+30A4_U+30E4_U+30FC 1
 62
     7
420
 16777215
370
     9
100
AcDbVertex
100
AcDb2dVertex
 10
85.73861503484792
 20
-142.7440841309806
 30
0.0
  0
VERTEX
  5
82
330
80
100
AcDbEntity
  8
_U+30EC_U+30A4_U+30E4_U+30FC 1
 62
     7
420
 16777215
370
     9
100
AcDbVertex
100
AcDb2dVertex
 10
99.73895356655842
 20
-142.7440841309806
 30
0.0
  0
SEQEND
  5
83
330
80
100
AcDbEntity
  8
_U+30EC_U+30A4_U+30E4_U+30FC 1
 62
     7
420
 16777215
370
     9
  0
POLYLINE
  5
84
330
1F
100
AcDbEntity
  8
_U+30EC_U+30A4_U+30E4_U+30FC 1
 62
     7
420
 16777215
370
     9
100
AcDb2dPolyline
 66
     1
 10
0.0
 20
0.0
 30
0.0
  0
VERTEX
  5
85
330
84
100
AcDbEntity
  8
_U+30EC_U+30A4_U+30E4_U+30FC 1
 62
     7
420
 16777215
370
     9
100
AcDbVertex
100
AcDb2dVertex
 10
85.73861503484792
 20
-140.2843057982625
 30
0.0
  0
VERTEX
  5
86
330
84
100
AcDbEntity
  8
_U+30EC_U+30A4_U+30E4_U+30FC 1
 62
     7
420
 16777215
370
     9
100
AcDbVertex
100
AcDb2dVertex
 10
85.73861503484792
 20
-143.7445266307305
 30
0.0
  0
SEQEND
  5
87
330
84
100
AcDbEntity
  8
_U+30EC_U+30A4_U+30E4_U+30FC 1
 62
     7
420
 16777215
370
     9
  0
POLYLINE
  5
88
330
1F
100
AcDbEntity
  8
_U+30EC_U+30A4_U+30E4_U+30FC 1
 62
     7
420
 16777215
370
     9
100
AcDb2dPolyline
 66
     1
 10
0.0
 20
0.0
 30
0.0
  0
VERTEX
  5
89
330
88
100
AcDbEntity
  8
_U+30EC_U+30A4_U+30E4_U+30FC 1
 62
     7
420
 16777215
370
     9
100
AcDbVertex
100
AcDb2dVertex
 10
99.63904690244058
 20
-140.2843057982625
 30
0.0
  0
VERTEX
  5
8A
330
88
100
AcDbEntity
  8
_U+30EC_U+30A4_U+30E4_U+30FC 1
 62
     7
420
 16777215
370
     9
100
AcDbVertex
100
AcDb2dVertex
 10
99.63904690244058
 20
-143.7445266307305
 30
0.0
  0
SEQEND
  5
8B
330
88
100
AcDbEntity
  8
_U+30EC_U+30A4_U+30E4_U+30FC 1
 62
     7
420
 16777215
370
     9
  0
INSERT
  5
8D
330
1F
100
AcDbEntity
  8
_U+30EC_U+30A4_U+30E4_U+30FC 1
100
AcDbBlockReference
  2
block 3
 10
0.0
 20
0.0
 30
0.0
  0
SPLINE
  5
A7
330
1F
100
AcDbEntity
  8
_U+30EC_U+30A4_U+30E4_U+30FC 1
 62
     7
420
 16777215
370
     9
100
AcDbSpline
210
0.0
220
0.0
230
1.0
 70
    11
 71
     3
 72
    17
 73
    13
 74
     0
 42
0.0000000001
 43
0.0000000001
 12
1.0
 22
0.0
 32
0.0
 13
1.0
 23
0.0
 33
0.0
 40
0.0
 40
0.0
 40
0.0
 40
0.0
 40
1.0
 40
1.0
 40
1.0
 40
2.0
 40
2.0
 40
2.0
 40
3.0
 40
3.0
 40
3.0
 40
4.0
 40
4.0
 40
4.0
 40
4.0
 10
92.93902096226137
 20
-115.6385799710903
 30
0.0
 10
92.93902096226137
 20
-115.5834760822154
 30
0.0
 10
92.89425346340349
 20
-115.5386733044486
 30
0.0
 10
92.83911664345663
 20
-115.5386733044486
 30
0.0
 10
92.78401041066047
 20
-115.5386733044486
 30
0.0
 10
92.7392076340257
 20
-115.5834760822154
 30
0.0
 10
92.7392076340257
 20
-115.6385799710903
 30
0.0
 10
92.7392076340257
 20
-115.6937191377434
 30
0.0
 10
92.78401041066047
 20
-115.7384866377319
 30
0.0
 10
92.83911664345663
 20
-115.7384866377319
 30
0.0
 10
92.89425346340349
 20
-115.7384866377319
 30
0.0
 10
92.93902096226137
 20
-115.6937191377434
 30
0.0
 10
92.93902096226137
 20
-115.6385799710903
 30
0.0
  0
SPLINE
  5
A8
330
1F
100
AcDbEntity
  8
_U+30EC_U+30A4_U+30E4_U+30FC 1
 62
     7
420
 16777215
370
     9
100
AcDbSpline
210
0.0
220
0.0
230
1.0
 70
    11
 71
     3
 72
    17
 73
    13
 74
     0
 42
0.0000000001
 43
0.0000000001
 12
1.0
 22
0.0
 32
0.0
 13
1.0
 23
0.0
 33
0.0
 40
0.0
 40
0.0
 40
0.0
 40
0.0
 40
1.0
 40
1.0
 40
1.0
 40
2.0
 40
2.0
 40
2.0
 40
3.0
 40
3.0
 40
3.0
 40
4.0
 40
4.0
 40
4.0
 40
4.0
 10
86.93887083756017
 20
-115.6385799710903
 30
0.0
 10
86.93887083756017
 20
-115.5834760822154
 30
0.0
 10
86.89410553383215
 20
-115.5386733044486
 30
0.0
 10
86.83896417344235
 20
-115.5386733044486
 30
0.0
 10
86.78386028595926
 20
-115.5386733044486
 30
0.0
 10
86.73905750932451
 20
-115.5834760822154
 30
0.0
 10
86.73905750932451
 20
-115.6385799710903
 30
0.0
 10
86.73905750932451
 20
-115.6937191377434
 30
0.0
 10
86.78386028595926
 20
-115.7384866377319
 30
0.0
 10
86.83896417344235
 20
-115.7384866377319
 30
0.0
 10
86.89410553383215
 20
-115.7384866377319
 30
0.0
 10
86.93887083756017
 20
-115.6937191377434
 30
0.0
 10
86.93887083756017
 20
-115.6385799710903
 30
0.0
  0
POLYLINE
  5
A9
330
1F
100
AcDbEntity
  8
_U+30EC_U+30A4_U+30E4_U+30FC 1
 62
     7
420
 16777215
370
     9
100
AcDb2dPolyline
 66
     1
 10
0.0
 20
0.0
 30
0.0
  0
VERTEX
  5
AA
330
A9
100
AcDbEntity
  8
_U+30EC_U+30A4_U+30E4_U+30FC 1
 62
     7
420
 16777215
370
     9
100
AcDbVertex
100
AcDb2dVertex
 10
86.83896417344235
 20
-115.6385799710903
 30
0.0
  0
VERTEX
  5
AB
330
A9
100
AcDbEntity
  8
_U+30EC_U+30A4_U+30E4_U+30FC 1
 62
     7
420
 16777215
370
     9
100
AcDbVertex
100
AcDb2dVertex
 10
92.83911664345663
 20
-115.6385799710903
 30
0.0
  0
SEQEND
  5
AC
330
A9
100
AcDbEntity
  8
_U+30EC_U+30A4_U+30E4_U+30FC 1
 62
     7
420
 16777215
370
     9
  0
POLYLINE
  5
AD
330
1F
100
AcDbEntity
  8
_U+30EC_U+30A4_U+30E4_U+30FC 1
 62
     7
420
 16777215
370
     9
100
AcDb2dPolyline
 66
     1
 10
0.0
 20
0.0
 30
0.0
  0
VERTEX
  5
AE
330
AD
100
AcDbEntity
  8
_U+30EC_U+30A4_U+30E4_U+30FC 1
 62
     7
420
 16777215
370
     9
100
AcDbVertex
100
AcDb2dVertex
 10
86.83896417344235
 20
-114.178891360344
 30
0.0
  0
VERTEX
  5
AF
330
AD
100
AcDbEntity
  8
_U+30EC_U+30A4_U+30E4_U+30FC 1
 62
     7
420
 16777215
370
     9
100
AcDbVertex
100
AcDb2dVertex
 10
86.83896417344235
 20
-116.639057748618
 30
0.0
  0
SEQEND
  5
B0
330
AD
100
AcDbEntity
  8
_U+30EC_U+30A4_U+30E4_U+30FC 1
 62
     7
420
 16777215
370
     9
  0
POLYLINE
  5
B1
330
1F
100
AcDbEntity
  8
_U+30EC_U+30A4_U+30E4_U+30FC 1
 62
     7
420
 16777215
370
     9
100
AcDb2dPolyline
 66
     1
 10
0.0
 20
0.0
 30
0.0
  0
VERTEX
  5
B2
330
B1
100
AcDbEntity
  8
_U+30EC_U+30A4_U+30E4_U+30FC 1
 62
     7
420
 16777215
370
     9
100
AcDbVertex
100
AcDb2dVertex
 10
92.83911664345663
 20
-114.178891360344
 30
0.0
  0
VERTEX
  5
B3
330
B1
100
AcDbEntity
  8
_U+30EC_U+30A4_U+30E4_U+30FC 1
 62
     7
420
 16777215
370
     9
100
AcDbVertex
100
AcDb2dVertex
 10
92.83911664345663
 20
-116.639057748618
 30
0.0
  0
SEQEND
  5
B4
330
B1
100
AcDbEntity
  8
_U+30EC_U+30A4_U+30E4_U+30FC 1
 62
     7
420
 16777215
370
     9
  0
INSERT
  5
B6
330
1F
100
AcDbEntity
  8
_U+30EC_U+30A4_U+30E4_U+30FC 1
100
AcDbBlockReference
  2
block 4
 10
0.0
 20
0.0
 30
0.0
  0
POLYLINE
  5
BC
330
1F
100
AcDbEntity
  8
_U+30EC_U+30A4_U+30E4_U+30FC 1
 62
     7
420
 16777215
370
     9
100
AcDb2dPolyline
 66
     1
 10
0.0
 20
0.0
 30
0.0
  0
VERTEX
  5
BD
330
BC
100
AcDbEntity
  8
_U+30EC_U+30A4_U+30E4_U+30FC 1
 62
     7
420
 16777215
370
     9
100
AcDbVertex
100
AcDb2dVertex
 10
81.73885597022361
 20
-138.7443249653137
 30
0.0
  0
VERTEX
  5
BE
330
BC
100
AcDbEntity
  8
_U+30EC_U+30A4_U+30E4_U+30FC 1
 62
     7
420
 16777215
370
     9
100
AcDbVertex
100
AcDb2dVertex
 10
81.73885597022361
 20
-117.7442399705641
 30
0.0
  0
SEQEND
  5
BF
330
BC
100
AcDbEntity
  8
_U+30EC_U+30A4_U+30E4_U+30FC 1
 62
     7
420
 16777215
370
     9
  0
POLYLINE
  5
C0
330
1F
100
AcDbEntity
  8
_U+30EC_U+30A4_U+30E4_U+30FC 1
 62
     7
420
 16777215
370
     9
100
AcDb2dPolyline
 66
     1
 10
0.0
 20
0.0
 30
0.0
  0
VERTEX
  5
C1
330
C0
100
AcDbEntity
  8
_U+30EC_U+30A4_U+30E4_U+30FC 1
 62
     7
420
 16777215
370
     9
100
AcDbVertex
100
AcDb2dVertex
 10
84.19863424080278
 20
-138.7443249653137
 30
0.0
  0
VERTEX
  5
C2
330
C0
100
AcDbEntity
  8
_U+30EC_U+30A4_U+30E4_U+30FC 1
 62
     7
420
 16777215
370
     9
100
AcDbVertex
100
AcDb2dVertex
 10
80.7390837735077
 20
-138.7443249653137
 30
0.0
  0
SEQEND
  5
C3
330
C0
100
AcDbEntity
  8
_U+30EC_U+30A4_U+30E4_U+30FC 1
 62
     7
420
 16777215
370
     9
  0
POLYLINE
  5
C4
330
1F
100
AcDbEntity
  8
_U+30EC_U+30A4_U+30E4_U+30FC 1
 62
     7
420
 16777215
370
     9
100
AcDb2dPolyline
 66
     1
 10
0.0
 20
0.0
 30
0.0
  0
VERTEX
  5
C5
330
C4
100
AcDbEntity
  8
_U+30EC_U+30A4_U+30E4_U+30FC 1
 62
     7
420
 16777215
370
     9
100
AcDbVertex
100
AcDb2dVertex
 10
83.19889732186374
 20
-117.7442399705641
 30
0.0
  0
VERTEX
  5
C6
330
C4
100
AcDbEntity
  8
_U+30EC_U+30A4_U+30E4_U+30FC 1
 62
     7
420
 16777215
370
     9
100
AcDbVertex
100
AcDb2dVertex
 10
80.7390837735077
 20
-117.7442399705641
 30
0.0
  0
SEQEND
  5
C7
330
C4
100
AcDbEntity
  8
_U+30EC_U+30A4_U+30E4_U+30FC 1
 62
     7
420
 16777215
370
     9
  0
INSERT
  5
C9
330
1F
100
AcDbEntity
  8
_U+30EC_U+30A4_U+30E4_U+30FC 1
100
AcDbBlockReference
  2
block 5
 10
0.0
 20
0.0
 30
0.0
  0
POLYLINE
  5
D0
330
1F
100
AcDbEntity
  8
_U+30EC_U+30A4_U+30E4_U+30FC 1
 62
     7
420
 16777215
370
     9
100
AcDb2dPolyline
 66
     1
 10
0.0
 20
0.0
 30
0.0
  0
VERTEX
  5
D1
330
D0
100
AcDbEntity
  8
_U+30EC_U+30A4_U+30E4_U+30FC 1
 62
     7
420
 16777215
370
     9
100
AcDbVertex
100
AcDb2dVertex
 10
102.1512126716832
 20
-137.7438824655638
 30
0.0
  0
VERTEX
  5
D2
330
D0
100
AcDbEntity
  8
_U+30EC_U+30A4_U+30E4_U+30FC 1
 62
     7
420
 16777215
370
     9
100
AcDbVertex
100
AcDb2dVertex
 10
102.1512126716832
 20
-124.743986079925
 30
0.0
  0
SEQEND
  5
D3
330
D0
100
AcDbEntity
  8
_U+30EC_U+30A4_U+30E4_U+30FC 1
 62
     7
420
 16777215
370
     9
  0
POLYLINE
  5
D4
330
1F
100
AcDbEntity
  8
_U+30EC_U+30A4_U+30E4_U+30FC 1
 62
     7
420
 16777215
370
     9
100
AcDb2dPolyline
 66
     1
 10
0.0
 20
0.0
 30
0.0
  0
VERTEX
  5
D5
330
D4
100
AcDbEntity
  8
_U+30EC_U+30A4_U+30E4_U+30FC 1
 62
     7
420
 16777215
370
     9
100
AcDbVertex
100
AcDb2dVertex
 10
95.69097219829948
 20
-137.7438824655638
 30
0.0
  0
VERTEX
  5
D6
330
D4
100
AcDbEntity
  8
_U+30EC_U+30A4_U+30E4_U+30FC 1
 62
     7
420
 16777215
370
     9
100
AcDbVertex
100
AcDb2dVertex
 10
103.1509848683991
 20
-137.7438824655638
 30
0.0
  0
SEQEND
  5
D7
330
D4
100
AcDbEntity
  8
_U+30EC_U+30A4_U+30E4_U+30FC 1
 62
     7
420
 16777215
370
     9
  0
POLYLINE
  5
D8
330
1F
100
AcDbEntity
  8
_U+30EC_U+30A4_U+30E4_U+30FC 1
 62
     7
420
 16777215
370
     9
100
AcDb2dPolyline
 66
     1
 10
0.0
 20
0.0
 30
0.0
  0
VERTEX
  5
D9
330
D8
100
AcDbEntity
  8
_U+30EC_U+30A4_U+30E4_U+30FC 1
 62
     7
420
 16777215
370
     9
100
AcDbVertex
100
AcDb2dVertex
 10
95.69097219829948
 20
-124.8438927465669
 30
0.0
  0
VERTEX
  5
DA
330
D8
100
AcDbEntity
  8
_U+30EC_U+30A4_U+30E4_U+30FC 1
 62
     7
420
 16777215
370
     9
100
AcDbVertex
100
AcDb2dVertex
 10
103.1509848683991
 20
-124.8438927465669
 30
0.0
  0
SEQEND
  5
DB
330
D8
100
AcDbEntity
  8
_U+30EC_U+30A4_U+30E4_U+30FC 1
 62
     7
420
 16777215
370
     9
  0
SPLINE
  5
DC
330
1F
100
AcDbEntity
  8
_U+30EC_U+30A4_U+30E4_U+30FC 1
 62
     7
420
 16777215
370
     9
100
AcDbSpline
210
0.0
220
0.0
230
1.0
 70
    11
 71
     3
 72
    17
 73
    13
 74
     0
 42
0.0000000001
 43
0.0000000001
 12
1.0
 22
0.0
 32
0.0
 13
1.0
 23
0.0
 33
0.0
 40
0.0
 40
0.0
 40
0.0
 40
0.0
 40
1.0
 40
1.0
 40
1.0
 40
2.0
 40
2.0
 40
2.0
 40
3.0
 40
3.0
 40
3.0
 40
4.0
 40
4.0
 40
4.0
 40
4.0
 10
102.2511193358011
 20
-123.7435083023975
 30
0.0
 10
102.2511193358011
 20
-123.6884044135223
 30
0.0
 10
102.2063518369432
 20
-123.6436016357559
 30
0.0
 10
102.1512126716832
 20
-123.6436016357559
 30
0.0
 10
102.0961087842002
 20
-123.6436016357559
 30
0.0
 10
102.0513060075654
 20
-123.6884044135223
 30
0.0
 10
102.0513060075654
 20
-123.7435083023975
 30
0.0
 10
102.0513060075654
 20
-123.7990002468281
 30
0.0
 10
102.0961087842002
 20
-123.8437677468169
 30
0.0
 10
102.1512126716832
 20
-123.8437677468169
 30
0.0
 10
102.2063518369432
 20
-123.8437677468169
 30
0.0
 10
102.2511193358011
 20
-123.7990002468281
 30
0.0
 10
102.2511193358011
 20
-123.7435083023975
 30
0.0
  0
POLYLINE
  5
DD
330
1F
100
AcDbEntity
  8
_U+30EC_U+30A4_U+30E4_U+30FC 1
 62
     7
420
 16777215
370
     9
100
AcDb2dPolyline
 66
     1
 10
0.0
 20
0.0
 30
0.0
  0
VERTEX
  5
DE
330
DD
100
AcDbEntity
  8
_U+30EC_U+30A4_U+30E4_U+30FC 1
 62
     7
420
 16777215
370
     9
100
AcDbVertex
100
AcDb2dVertex
 10
95.69097219829948
 20
-123.7435083023975
 30
0.0
  0
VERTEX
  5
DF
330
DD
100
AcDbEntity
  8
_U+30EC_U+30A4_U+30E4_U+30FC 1
 62
     7
420
 16777215
370
     9
100
AcDbVertex
100
AcDb2dVertex
 10
103.1509848683991
 20
-123.7435083023975
 30
0.0
  0
SEQEND
  5
E0
330
DD
100
AcDbEntity
  8
_U+30EC_U+30A4_U+30E4_U+30FC 1
 62
     7
420
 16777215
370
     9
  0
INSERT
  5
E2
330
1F
100
AcDbEntity
  8
_U+30EC_U+30A4_U+30E4_U+30FC 1
100
AcDbBlockReference
  2
block 6
 10
0.0
 20
0.0
 30
0.0
  0
POLYLINE
  5
E9
330
1F
100
AcDbEntity
  8
_U+30EC_U+30A4_U+30E4_U+30FC 1
 62
     7
420
 16777215
370
     9
100
AcDb2dPolyline
 66
     1
 10
0.0
 20
0.0
 30
0.0
  0
VERTEX
  5
EA
330
E9
100
AcDbEntity
  8
_U+30EC_U+30A4_U+30E4_U+30FC 1
 62
     7
420
 16777215
370
     9
100
AcDbVertex
100
AcDb2dVertex
 10
102.1512126716832
 20
-124.8438927465669
 30
0.0
  0
VERTEX
  5
EB
330
E9
100
AcDbEntity
  8
_U+30EC_U+30A4_U+30E4_U+30FC 1
 62
     7
420
 16777215
370
     9
100
AcDbVertex
100
AcDb2dVertex
 10
102.1512126716832
 20
-117.8437938594279
 30
0.0
  0
SEQEND
  5
EC
330
E9
100
AcDbEntity
  8
_U+30EC_U+30A4_U+30E4_U+30FC 1
 62
     7
420
 16777215
370
     9
  0
POLYLINE
  5
ED
330
1F
100
AcDbEntity
  8
_U+30EC_U+30A4_U+30E4_U+30FC 1
 62
     7
420
 16777215
370
     9
100
AcDb2dPolyline
 66
     1
 10
0.0
 20
0.0
 30
0.0
  0
VERTEX
  5
EE
330
ED
100
AcDbEntity
  8
_U+30EC_U+30A4_U+30E4_U+30FC 1
 62
     7
420
 16777215
370
     9
100
AcDbVertex
100
AcDb2dVertex
 10
95.69097219829948
 20
-117.8437938594279
 30
0.0
  0
VERTEX
  5
EF
330
ED
100
AcDbEntity
  8
_U+30EC_U+30A4_U+30E4_U+30FC 1
 62
     7
420
 16777215
370
     9
100
AcDbVertex
100
AcDb2dVertex
 10
103.1509848683991
 20
-117.8437938594279
 30
0.0
  0
SEQEND
  5
F0
330
ED
100
AcDbEntity
  8
_U+30EC_U+30A4_U+30E4_U+30FC 1
 62
     7
420
 16777215
370
     9
  0
INSERT
  5
F2
330
1F
100
AcDbEntity
  8
_U+30EC_U+30A4_U+30E4_U+30FC 1
100
AcDbBlockReference
  2
block 7
 10
0.0
 20
0.0
 30
0.0
  0
ENDSEC
  0
SECTION
  2
OBJECTS
  0
DICTIONARY
  5
C
330
0
100
AcDbDictionary
281
     1
  3
ACAD_GROUP
350
D
  3
ACAD_LAYOUT
350
1A
  3
ACAD_MATERIAL
350
3B
  3
ACAD_MLEADERSTYLE
350
F9
  3
ACAD_MLINESTYLE
350
17
  3
ACAD_PLOTSETTINGS
350
19
  3
ACAD_PLOTSTYLENAME
350
E
  3
ACAD_TABLESTYLE
350
F8
  3
ACAD_VISUALSTYLE
350
2A
  0
SUN
  5
3F
330
29
100
AcDbSun
 90
        1
290
     0
 63
     7
421
 16777215
 40
1.0
291
     1
 91
  2455826
 92
 54000000
292
     0
 70
     2
 71
   256
280
     1
  0
DICTIONARY
  5
D
102
{ACAD_REACTORS
330
C
102
}
330
C
100
AcDbDictionary
281
     1
  0
DICTIONARY
  5
1A
102
{ACAD_REACTORS
330
C
102
}
330
C
100
AcDbDictionary
281
     1
  3
Layout1
350
1E
  3
Layout2
350
26
  3
Model
350
22
  0
DICTIONARY
  5
3B
102
{ACAD_REACTORS
330
C
102
}
330
C
100
AcDbDictionary
281
     1
  3
ByBlock
350
3D
  3
ByLayer
350
3C
  3
Global
350
3E
  0
DICTIONARY
  5
F9
102
{ACAD_REACTORS
330
C
102
}
330
C
100
AcDbDictionary
281
     1
  0
DICTIONARY
  5
17
102
{ACAD_REACTORS
330
C
102
}
330
C
100
AcDbDictionary
281
     1
  3
Standard
350
18
  0
DICTIONARY
  5
19
102
{ACAD_REACTORS
330
C
102
}
330
C
100
AcDbDictionary
281
     1
  0
ACDBDICTIONARYWDFLT
  5
E
102
{ACAD_REACTORS
330
C
102
}
330
C
100
AcDbDictionary
281
     1
  3
Normal
350
F
100
AcDbDictionaryWithDefault
340
F
  0
DICTIONARY
  5
F8
102
{ACAD_REACTORS
330
C
102
}
330
C
100
AcDbDictionary
281
     1
  0
DICTIONARY
  5
2A
102
{ACAD_REACTORS
330
C
102
}
330
C
100
AcDbDictionary
281
     1
  3
2dWireframe
350
2F
  3
3D Hidden
350
31
  3
3dWireframe
350
30
  3
Basic
350
32
  3
Brighten
350
36
  3
ColorChange
350
3A
  3
Conceptual
350
34
  3
Dim
350
35
  3
Facepattern
350
39
  3
Flat
350
2B
  3
FlatWithEdges
350
2C
  3
Gouraud
350
2D
  3
GouraudWithEdges
350
2E
  3
Linepattern
350
38
  3
Realistic
350
33
  3
Thicken
350
37
  0
LAYOUT
  5
1E
102
{ACAD_REACTORS
330
1A
102
}
330
1A
100
AcDbPlotSettings
  1

  2
none_device
  4

  6

 40
0.0
 41
0.0
 42
0.0
 43
0.0
 44
0.0
 45
0.0
 46
0.0
 47
0.0
 48
0.0
 49
0.0
140
0.0
141
0.0
142
1.0
143
1.0
 70
   688
 72
     0
 73
     0
 74
     5
  7

 75
    16
 76
     0
 77
     2
 78
   300
147
1.0
148
0.0
149
0.0
100
AcDbLayout
  1
Layout1
 70
     1
 71
     1
 10
0.0
 20
0.0
 11
12.0
 21
9.0
 12
0.0
 22
0.0
 32
0.0
 14
1.000000000000000E+20
 24
1.000000000000000E+20
 34
1.000000000000000E+20
 15
-1.000000000000000E+20
 25
-1.000000000000000E+20
 35
-1.000000000000000E+20
146
0.0
 13
0.0
 23
0.0
 33
0.0
 16
1.0
 26
0.0
 36
0.0
 17
0.0
 27
1.0
 37
0.0
 76
     0
330
1B
  0
LAYOUT
  5
26
102
{ACAD_REACTORS
330
1A
102
}
330
1A
100
AcDbPlotSettings
  1

  2
none_device
  4

  6

 40
0.0
 41
0.0
 42
0.0
 43
0.0
 44
0.0
 45
0.0
 46
0.0
 47
0.0
 48
0.0
 49
0.0
140
0.0
141
0.0
142
1.0
143
1.0
 70
   688
 72
     0
 73
     0
 74
     5
  7

 75
    16
 76
     0
 77
     2
 78
   300
147
1.0
148
0.0
149
0.0
100
AcDbLayout
  1
Layout2
 70
     1
 71
     2
 10
0.0
 20
0.0
 11
0.0
 21
0.0
 12
0.0
 22
0.0
 32
0.0
 14
0.0
 24
0.0
 34
0.0
 15
0.0
 25
0.0
 35
0.0
146
0.0
 13
0.0
 23
0.0
 33
0.0
 16
1.0
 26
0.0
 36
0.0
 17
0.0
 27
1.0
 37
0.0
 76
     0
330
23
  0
LAYOUT
  5
22
102
{ACAD_REACTORS
330
1A
102
}
330
1A
100
AcDbPlotSettings
  1

  2
none_device
  4

  6

 40
0.0
 41
0.0
 42
0.0
 43
0.0
 44
0.0
 45
0.0
 46
0.0
 47
0.0
 48
0.0
 49
0.0
140
0.0
141
0.0
142
1.0
143
1.0
 70
  1712
 72
     0
 73
     0
 74
     0
  7

 75
     0
 76
     0
 77
     2
 78
   300
147
1.0
148
0.0
149
0.0
100
AcDbLayout
  1
Model
 70
     1
 71
     0
 10
0.0
 20
0.0
 11
12.0
 21
9.0
 12
0.0
 22
0.0
 32
0.0
 14
1.000000000000000E+20
 24
1.000000000000000E+20
 34
1.000000000000000E+20
 15
-1.000000000000000E+20
 25
-1.000000000000000E+20
 35
-1.000000000000000E+20
146
0.0
 13
0.0
 23
0.0
 33
0.0
 16
1.0
 26
0.0
 36
0.0
 17
0.0
 27
1.0
 37
0.0
 76
     0
330
1F
331
29
  0
MATERIAL
  5
3D
102
{ACAD_REACTORS
330
3B
102
}
330
3B
100
AcDbMaterial
  1
ByBlock
 72
     1
 94
      127
  0
MATERIAL
  5
3C
102
{ACAD_REACTORS
330
3B
102
}
330
3B
100
AcDbMaterial
  1
ByLayer
 72
     1
 94
      127
  0
MATERIAL
  5
3E
102
{ACAD_REACTORS
330
3B
102
}
330
3B
100
AcDbMaterial
  1
Global
 72
     1
 94
      127
  0
MLINESTYLE
  5
18
102
{ACAD_REACTORS
330
17
102
}
330
17
100
AcDbMlineStyle
  2
Standard
 70
     0
  3

 62
   256
 51
90.0
 52
90.0
 71
     2
 49
0.5
 62
   256
  6
BYLAYER
 49
-0.5
 62
   256
  6
BYLAYER
  0
ACDBPLACEHOLDER
  5
F
102
{ACAD_REACTORS
330
E
102
}
330
E
  0
VISUALSTYLE
  5
2F
102
{ACAD_REACTORS
330
2A
102
}
330
2A
100
AcDbVisualStyle
  2
2dWireframe
 70
     4
177
     2
291
     0
 71
     0
176
     1
 72
     2
176
     1
 73
     0
176
     1
 90
        0
176
     1
 40
-0.6
176
     1
 41
-30.0
176
     1
 62
     5
 63
     7
421
 16777215
176
     1
 74
     1
176
     1
 91
        4
176
     1
 64
     7
176
     1
 65
   257
176
     1
 75
     1
176
     1
175
     1
176
     1
 42
1.0
176
     1
 92
        0
176
     1
 66
   257
176
     1
 43
1.0
176
     1
 76
     1
176
     1
 77
     6
176
     1
 78
     2
176
     1
 67
     7
176
     1
 79
     5
176
     1
170
     0
176
     1
171
     0
176
     1
290
     0
176
     1
 93
        1
176
     1
 44
0.0
176
     1
173
     0
176
     1
  0
VISUALSTYLE
  5
31
102
{ACAD_REACTORS
330
2A
102
}
330
2A
100
AcDbVisualStyle
  2
3D Hidden
 70
     6
177
     2
291
     0
 71
     1
176
     1
 72
     2
176
     1
 73
     2
176
     1
 90
        0
176
     1
 40
-0.6
176
     1
 41
-30.0
176
     1
 62
     5
 63
     7
421
 16777215
176
     1
 74
     2
176
     1
 91
        2
176
     1
 64
     7
176
     1
 65
   257
176
     1
 75
     2
176
     1
175
     1
176
     1
 42
40.0
176
     1
 92
        0
176
     1
 66
   257
176
     1
 43
1.0
176
     1
 76
     1
176
     1
 77
     6
176
     1
 78
     2
176
     1
 67
     7
176
     1
 79
     3
176
     1
170
     0
176
     1
171
     0
176
     1
290
     0
176
     1
 93
        1
176
     1
 44
0.0
176
     1
173
     0
176
     1
  0
VISUALSTYLE
  5
30
102
{ACAD_REACTORS
330
2A
102
}
330
2A
100
AcDbVisualStyle
  2
3dWireframe
 70
     5
177
     2
291
     0
 71
     0
176
     1
 72
     2
176
     1
 73
     0
176
     1
 90
        0
176
     1
 40
-0.6
176
     1
 41
-30.0
176
     1
 62
     5
 63
     7
421
 16777215
176
     1
 74
     1
176
     1
 91
        4
176
     1
 64
     7
176
     1
 65
   257
176
     1
 75
     1
176
     1
175
     1
176
     1
 42
1.0
176
     1
 92
        0
176
     1
 66
   257
176
     1
 43
1.0
176
     1
 76
     1
176
     1
 77
     6
176
     1
 78
     2
176
     1
 67
     7
176
     1
 79
     5
176
     1
170
     0
176
     1
171
     0
176
     1
290
     0
176
     1
 93
        1
176
     1
 44
0.0
176
     1
173
     0
176
     1
  0
VISUALSTYLE
  5
32
102
{ACAD_REACTORS
330
2A
102
}
330
2A
100
AcDbVisualStyle
  2
Basic
 70
     7
177
     2
291
     1
 71
     1
176
     1
 72
     0
176
     1
 73
     1
176
     1
 90
        0
176
     1
 40
-0.6
176
     1
 41
-30.0
176
     1
 62
     5
 63
     7
421
 16777215
176
     1
 74
     0
176
     1
 91
        4
176
     1
 64
     7
176
     1
 65
   257
176
     1
 75
     1
176
     1
175
     1
176
     1
 42
1.0
176
     1
 92
        8
176
     1
 66
     7
176
     1
 43
1.0
176
     1
 76
     1
176
     1
 77
     6
176
     1
 78
     2
176
     1
 67
     7
176
     1
 79
     5
176
     1
170
     0
176
     1
171
     0
176
     1
290
     0
176
     1
 93
        1
176
     1
 44
0.0
176
     1
173
     0
176
     1
  0
VISUALSTYLE
  5
36
102
{ACAD_REACTORS
330
2A
102
}
330
2A
100
AcDbVisualStyle
  2
Brighten
 70
    12
177
     2
291
     1
 71
     2
176
     1
 72
     2
176
     1
 73
     0
176
     1
 90
        0
176
     1
 40
-0.6
176
     1
 41
-30.0
176
     1
 62
     5
 63
     7
421
 16777215
176
     1
 74
     1
176
     1
 91
        4
176
     1
 64
     7
176
     1
 65
   257
176
     1
 75
     1
176
     1
175
     1
176
     1
 42
1.0
176
     1
 92
        8
176
     1
 66
     7
176
     1
 43
1.0
176
     1
 76
     1
176
     1
 77
     6
176
     1
 78
     2
176
     1
 67
     7
176
     1
 79
     5
176
     1
170
     0
176
     1
171
     0
176
     1
290
     0
176
     1
 93
        1
176
     1
 44
50.0
176
     1
173
     0
176
     1
  0
VISUALSTYLE
  5
3A
102
{ACAD_REACTORS
330
2A
102
}
330
2A
100
AcDbVisualStyle
  2
ColorChange
 70
    16
177
     2
291
     1
 71
     2
176
     1
 72
     2
176
     1
 73
     3
176
     1
 90
        0
176
     1
 40
-0.6
176
     1
 41
-30.0
176
     1
 62
     5
 63
     8
421
  8421504
176
     1
 74
     1
176
     1
 91
        4
176
     1
 64
     7
176
     1
 65
   257
176
     1
 75
     1
176
     1
175
     1
176
     1
 42
1.0
176
     1
 92
        8
176
     1
 66
     8
424
  8421504
176
     1
 43
1.0
176
     1
 76
     1
176
     1
 77
     6
176
     1
 78
     2
176
     1
 67
     7
176
     1
 79
     5
176
     1
170
     0
176
     1
171
     0
176
     1
290
     0
176
     1
 93
        1
176
     1
 44
0.0
176
     1
173
     0
176
     1
  0
VISUALSTYLE
  5
34
102
{ACAD_REACTORS
330
2A
102
}
330
2A
100
AcDbVisualStyle
  2
Conceptual
 70
     9
177
     2
291
     0
 71
     3
176
     1
 72
     2
176
     1
 73
     0
176
     1
 90
        0
176
     1
 40
-0.6
176
     1
 41
-30.0
176
     1
 62
     5
 63
     7
421
 16777215
176
     1
 74
     2
176
     1
 91
        2
176
     1
 64
     7
176
     1
 65
   257
176
     1
 75
     1
176
     1
175
     1
176
     1
 42
40.0
176
     1
 92
        8
176
     1
 66
     7
176
     1
 43
1.0
176
     1
 76
     1
176
     1
 77
     6
176
     1
 78
     2
176
     1
 67
     7
176
     1
 79
     3
176
     1
170
     0
176
     1
171
     0
176
     1
290
     0
176
     1
 93
        1
176
     1
 44
0.0
176
     1
173
     0
176
     1
  0
VISUALSTYLE
  5
35
102
{ACAD_REACTORS
330
2A
102
}
330
2A
100
AcDbVisualStyle
  2
Dim
 70
    11
177
     2
291
     1
 71
     2
176
     1
 72
     2
176
     1
 73
     0
176
     1
 90
        0
176
     1
 40
-0.6
176
     1
 41
-30.0
176
     1
 62
     5
 63
     7
421
 16777215
176
     1
 74
     1
176
     1
 91
        4
176
     1
 64
     7
176
     1
 65
   257
176
     1
 75
     1
176
     1
175
     1
176
     1
 42
1.0
176
     1
 92
        8
176
     1
 66
     7
176
     1
 43
1.0
176
     1
 76
     1
176
     1
 77
     6
176
     1
 78
     2
176
     1
 67
     7
176
     1
 79
     5
176
     1
170
     0
176
     1
171
     0
176
     1
290
     0
176
     1
 93
        1
176
     1
 44
-50.0
176
     1
173
     0
176
     1
  0
VISUALSTYLE
  5
39
102
{ACAD_REACTORS
330
2A
102
}
330
2A
100
AcDbVisualStyle
  2
Facepattern
 70
    15
177
     2
291
     1
 71
     2
176
     1
 72
     2
176
     1
 73
     0
176
     1
 90
        0
176
     1
 40
-0.6
176
     1
 41
-30.0
176
     1
 62
     5
 63
     7
421
 16777215
176
     1
 74
     1
176
     1
 91
        4
176
     1
 64
     7
176
     1
 65
   257
176
     1
 75
     1
176
     1
175
     1
176
     1
 42
1.0
176
     1
 92
        8
176
     1
 66
     7
176
     1
 43
1.0
176
     1
 76
     1
176
     1
 77
     6
176
     1
 78
     2
176
     1
 67
     7
176
     1
 79
     5
176
     1
170
     0
176
     1
171
     0
176
     1
290
     0
176
     1
 93
        1
176
     1
 44
0.0
176
     1
173
     0
176
     1
  0
VISUALSTYLE
  5
2B
102
{ACAD_REACTORS
330
2A
102
}
330
2A
100
AcDbVisualStyle
  2
Flat
 70
     0
177
     2
291
     1
 71
     2
176
     1
 72
     1
176
     1
 73
     1
176
     1
 90
        2
176
     1
 40
-0.6
176
     1
 41
30.0
176
     1
 62
     5
 63
     7
421
 16777215
176
     1
 74
     0
176
     1
 91
        4
176
     1
 64
     7
176
     1
 65
   257
176
     1
 75
     1
176
     1
175
     1
176
     1
 42
1.0
176
     1
 92
        8
176
     1
 66
     7
176
     1
 43
1.0
176
     1
 76
     1
176
     1
 77
     6
176
     1
 78
     2
176
     1
 67
     7
176
     1
 79
     5
176
     1
170
     0
176
     1
171
     0
176
     1
290
     0
176
     1
 93
       13
176
     1
 44
0.0
176
     1
173
     0
176
     1
  0
VISUALSTYLE
  5
2C
102
{ACAD_REACTORS
330
2A
102
}
330
2A
100
AcDbVisualStyle
  2
FlatWithEdges
 70
     1
177
     2
291
     1
 71
     2
176
     1
 72
     1
176
     1
 73
     1
176
     1
 90
        2
176
     1
 40
-0.6
176
     1
 41
30.0
176
     1
 62
     5
 63
     7
421
 16777215
176
     1
 74
     1
176
     1
 91
        4
176
     1
 64
     7
176
     1
 65
   257
176
     1
 75
     1
176
     1
175
     1
176
     1
 42
1.0
176
     1
 92
        0
176
     1
 66
   257
176
     1
 43
1.0
176
     1
 76
     1
176
     1
 77
     6
176
     1
 78
     2
176
     1
 67
     7
176
     1
 79
     5
176
     1
170
     0
176
     1
171
     0
176
     1
290
     0
176
     1
 93
       13
176
     1
 44
0.0
176
     1
173
     0
176
     1
  0
VISUALSTYLE
  5
2D
102
{ACAD_REACTORS
330
2A
102
}
330
2A
100
AcDbVisualStyle
  2
Gouraud
 70
     2
177
     2
291
     1
 71
     2
176
     1
 72
     2
176
     1
 73
     1
176
     1
 90
        2
176
     1
 40
-0.6
176
     1
 41
30.0
176
     1
 62
     5
 63
     7
421
 16777215
176
     1
 74
     0
176
     1
 91
        4
176
     1
 64
     7
176
     1
 65
   257
176
     1
 75
     1
176
     1
175
     1
176
     1
 42
1.0
176
     1
 92
        0
176
     1
 66
     7
176
     1
 43
1.0
176
     1
 76
     1
176
     1
 77
     6
176
     1
 78
     2
176
     1
 67
     7
176
     1
 79
     5
176
     1
170
     0
176
     1
171
     0
176
     1
290
     0
176
     1
 93
       13
176
     1
 44
0.0
176
     1
173
     0
176
     1
  0
VISUALSTYLE
  5
2E
102
{ACAD_REACTORS
330
2A
102
}
330
2A
100
AcDbVisualStyle
  2
GouraudWithEdges
 70
     3
177
     2
291
     1
 71
     2
176
     1
 72
     2
176
     1
 73
     1
176
     1
 90
        2
176
     1
 40
-0.6
176
     1
 41
30.0
176
     1
 62
     5
 63
     7
421
 16777215
176
     1
 74
     1
176
     1
 91
        4
176
     1
 64
     7
176
     1
 65
   257
176
     1
 75
     1
176
     1
175
     1
176
     1
 42
1.0
176
     1
 92
        0
176
     1
 66
   257
176
     1
 43
1.0
176
     1
 76
     1
176
     1
 77
     6
176
     1
 78
     2
176
     1
 67
     7
176
     1
 79
     5
176
     1
170
     0
176
     1
171
     0
176
     1
290
     0
176
     1
 93
       13
176
     1
 44
0.0
176
     1
173
     0
176
     1
  0
VISUALSTYLE
  5
38
102
{ACAD_REACTORS
330
2A
102
}
330
2A
100
AcDbVisualStyle
  2
Linepattern
 70
    14
177
     2
291
     1
 71
     2
176
     1
 72
     2
176
     1
 73
     0
176
     1
 90
        0
176
     1
 40
-0.6
176
     1
 41
-30.0
176
     1
 62
     5
 63
     7
421
 16777215
176
     1
 74
     1
176
     1
 91
        4
176
     1
 64
     7
176
     1
 65
   257
176
     1
 75
     7
176
     1
175
     7
176
     1
 42
1.0
176
     1
 92
        8
176
     1
 66
     7
176
     1
 43
1.0
176
     1
 76
     1
176
     1
 77
     6
176
     1
 78
     2
176
     1
 67
     7
176
     1
 79
     5
176
     1
170
     0
176
     1
171
     0
176
     1
290
     0
176
     1
 93
        1
176
     1
 44
0.0
176
     1
173
     0
176
     1
  0
VISUALSTYLE
  5
33
102
{ACAD_REACTORS
330
2A
102
}
330
2A
100
AcDbVisualStyle
  2
Realistic
 70
     8
177
     2
291
     0
 71
     2
176
     1
 72
     2
176
     1
 73
     0
176
     1
 90
        0
176
     1
 40
-0.6
176
     1
 41
-30.0
176
     1
 62
     5
 63
     7
421
 16777215
176
     1
 74
     1
176
     1
 91
        0
176
     1
 64
     7
176
     1
 65
   257
176
     1
 75
     1
176
     1
175
     1
176
     1
 42
1.0
176
     1
 92
        8
176
     1
 66
     8
424
  7895160
176
     1
 43
1.0
176
     1
 76
     1
176
     1
 77
     6
176
     1
 78
     2
176
     1
 67
     7
176
     1
 79
     5
176
     1
170
     0
176
     1
171
     0
176
     1
290
     0
176
     1
 93
       13
176
     1
 44
0.0
176
     1
173
     0
176
     1
  0
VISUALSTYLE
  5
37
102
{ACAD_REACTORS
330
2A
102
}
330
2A
100
AcDbVisualStyle
  2
Thicken
 70
    13
177
     2
291
     1
 71
     2
176
     1
 72
     2
176
     1
 73
     0
176
     1
 90
        0
176
     1
 40
-0.6
176
     1
 41
-30.0
176
     1
 62
     5
 63
     7
421
 16777215
176
     1
 74
     1
176
     1
 91
        4
176
     1
 64
     7
176
     1
 65
   257
176
     1
 75
     1
176
     1
175
     1
176
     1
 42
1.0
176
     1
 92
       12
176
     1
 66
     7
176
     1
 43
1.0
176
     1
 76
     1
176
     1
 77
     6
176
     1
 78
     2
176
     1
 67
     7
176
     1
 79
     5
176
     1
170
     0
176
     1
171
     0
176
     1
290
     0
176
     1
 93
        1
176
     1
 44
0.0
176
     1
173
     0
176
     1
  0
ENDSEC
  0
EOF
