  0
SECTION
  2
HEADER
  9
$ACADVER
  1
AC1024
  9
$ACADMAINTVER
 70
     6
  9
$DWGCODEPAGE
  3
UNDEFINED
  9
$INSBASE
 10
0.0
 20
0.0
 30
0.0
  9
$EXTMIN
 10
1.000000000000000E+20
 20
1.000000000000000E+20
 30
1.000000000000000E+20
  9
$EXTMAX
 10
-1.000000000000000E+20
 20
-1.000000000000000E+20
 30
-1.000000000000000E+20
  9
$LIMMIN
 10
0.0
 20
0.0
  9
$LIMMAX
 10
12.0
 20
9.0
  9
$ORTHOMODE
 70
     0
  9
$REGENMODE
 70
     1
  9
$FILLMODE
 70
     1
  9
$QTEXTMODE
 70
     0
  9
$MIRRTEXT
 70
     1
  9
$LTSCALE
 40
1.0
  9
$ATTMODE
 70
     1
  9
$TEXTSIZE
 40
0.2
  9
$TRACEWID
 40
0.05
  9
$TEXTSTYLE
  7
Standard
  9
$CLAYER
  8
0
  9
$CELTYPE
  6
ByLayer
  9
$CECOLOR
 62
   256
  9
$CELTSCALE
 40
1.0
  9
$DISPSILH
 70
     0
  9
$DIMSCALE
 40
1.0
  9
$DIMASZ
 40
0.18
  9
$DIMEXO
 40
0.0625
  9
$DIMDLI
 40
0.38
  9
$DIMRND
 40
0.0
  9
$DIMDLE
 40
0.0
  9
$DIMEXE
 40
0.18
  9
$DIMTP
 40
0.0
  9
$DIMTM
 40
0.0
  9
$DIMTXT
 40
0.18
  9
$DIMCEN
 40
0.09
  9
$DIMTSZ
 40
0.0
  9
$DIMTOL
 70
     0
  9
$DIMLIM
 70
     0
  9
$DIMTIH
 70
     1
  9
$DIMTOH
 70
     1
  9
$DIMSE1
 70
     0
  9
$DIMSE2
 70
     0
  9
$DIMTAD
 70
     0
  9
$DIMZIN
 70
     0
  9
$DIMBLK
  1

  9
$DIMASO
 70
     1
  9
$DIMSHO
 70
     1
  9
$DIMPOST
  1

  9
$DIMAPOST
  1

  9
$DIMALT
 70
     0
  9
$DIMALTD
 70
     2
  9
$DIMALTF
 40
25.4
  9
$DIMLFAC
 40
1.0
  9
$DIMTOFL
 70
     0
  9
$DIMTVP
 40
0.0
  9
$DIMTIX
 70
     0
  9
$DIMSOXD
 70
     0
  9
$DIMSAH
 70
     0
  9
$DIMBLK1
  1

  9
$DIMBLK2
  1

  9
$DIMSTYLE
  2
Standard
  9
$DIMCLRD
 70
     0
  9
$DIMCLRE
 70
     0
  9
$DIMCLRT
 70
     0
  9
$DIMTFAC
 40
1.0
  9
$DIMGAP
 40
0.09
  9
$DIMJUST
 70
     0
  9
$DIMSD1
 70
     0
  9
$DIMSD2
 70
     0
  9
$DIMTOLJ
 70
     1
  9
$DIMTZIN
 70
     0
  9
$DIMALTZ
 70
     0
  9
$DIMALTTZ
 70
     0
  9
$DIMUPT
 70
     0
  9
$DIMDEC
 70
     4
  9
$DIMTDEC
 70
     4
  9
$DIMALTU
 70
     2
  9
$DIMALTTD
 70
     2
  9
$DIMTXSTY
  7
Standard
  9
$DIMAUNIT
 70
     0
  9
$DIMADEC
 70
     0
  9
$DIMALTRND
 40
0.0
  9
$DIMAZIN
 70
     0
  9
$DIMDSEP
 70
    46
  9
$DIMATFIT
 70
     3
  9
$DIMFRAC
 70
     0
  9
$DIMLDRBLK
  1

  9
$DIMLUNIT
 70
     2
  9
$DIMLWD
 70
    -2
  9
$DIMLWE
 70
    -2
  9
$DIMTMOVE
 70
     0
  9
$DIMFXL
 40
1.0
  9
$DIMFXLON
 70
     0
  9
$DIMJOGANG
 40
0.7853981633974483
  9
$DIMTFILL
 70
     0
  9
$DIMTFILLCLR
 70
     0
  9
$DIMARCSYM
 70
     0
  9
$DIMLTYPE
  6

  9
$DIMLTEX1
  6

  9
$DIMLTEX2
  6

  9
$DIMTXTDIRECTION
 70
     0
  9
$LUNITS
 70
     2
  9
$LUPREC
 70
     4
  9
$SKETCHINC
 40
0.1
  9
$FILLETRAD
 40
0.5
  9
$AUNITS
 70
     0
  9
$AUPREC
 70
     0
  9
$MENU
  1
.
  9
$ELEVATION
 40
0.0
  9
$PELEVATION
 40
0.0
  9
$THICKNESS
 40
0.0
  9
$LIMCHECK
 70
     0
  9
$CHAMFERA
 40
0.5
  9
$CHAMFERB
 40
0.5
  9
$CHAMFERC
 40
1.0
  9
$CHAMFERD
 40
0.0
  9
$SKPOLY
 70
     0
  9
$TDCREATE
 40
2457917.59472221
  9
$TDUCREATE
 40
2457917.219722222
  9
$TDUPDATE
 40
2457917.59472221
  9
$TDUUPDATE
 40
2457917.219722222
  9
$TDINDWG
 40
0.0000000116
  9
$TDUSRTIMER
 40
0.0000000116
  9
$USRTIMER
 70
     1
  9
$ANGBASE
 50
0.0
  9
$ANGDIR
 70
     0
  9
$PDMODE
 70
     0
  9
$PDSIZE
 40
0.0
  9
$PLINEWID
 40
0.0
  9
$SPLFRAME
 70
     0
  9
$SPLINETYPE
 70
     6
  9
$SPLINESEGS
 70
     8
  9
$HANDSEED
  5
D2
  9
$SURFTAB1
 70
     6
  9
$SURFTAB2
 70
     6
  9
$SURFTYPE
 70
     6
  9
$SURFU
 70
     6
  9
$SURFV
 70
     6
  9
$UCSBASE
  2

  9
$UCSNAME
  2

  9
$UCSORG
 10
0.0
 20
0.0
 30
0.0
  9
$UCSXDIR
 10
1.0
 20
0.0
 30
0.0
  9
$UCSYDIR
 10
0.0
 20
1.0
 30
0.0
  9
$UCSORTHOREF
  2

  9
$UCSORTHOVIEW
 70
     0
  9
$UCSORGTOP
 10
0.0
 20
0.0
 30
0.0
  9
$UCSORGBOTTOM
 10
0.0
 20
0.0
 30
0.0
  9
$UCSORGLEFT
 10
0.0
 20
0.0
 30
0.0
  9
$UCSORGRIGHT
 10
0.0
 20
0.0
 30
0.0
  9
$UCSORGFRONT
 10
0.0
 20
0.0
 30
0.0
  9
$UCSORGBACK
 10
0.0
 20
0.0
 30
0.0
  9
$PUCSBASE
  2

  9
$PUCSNAME
  2

  9
$PUCSORG
 10
0.0
 20
0.0
 30
0.0
  9
$PUCSXDIR
 10
1.0
 20
0.0
 30
0.0
  9
$PUCSYDIR
 10
0.0
 20
1.0
 30
0.0
  9
$PUCSORTHOREF
  2

  9
$PUCSORTHOVIEW
 70
     0
  9
$PUCSORGTOP
 10
0.0
 20
0.0
 30
0.0
  9
$PUCSORGBOTTOM
 10
0.0
 20
0.0
 30
0.0
  9
$PUCSORGLEFT
 10
0.0
 20
0.0
 30
0.0
  9
$PUCSORGRIGHT
 10
0.0
 20
0.0
 30
0.0
  9
$PUCSORGFRONT
 10
0.0
 20
0.0
 30
0.0
  9
$PUCSORGBACK
 10
0.0
 20
0.0
 30
0.0
  9
$USERI1
 70
     0
  9
$USERI2
 70
     0
  9
$USERI3
 70
     0
  9
$USERI4
 70
     0
  9
$USERI5
 70
     0
  9
$USERR1
 40
0.0
  9
$USERR2
 40
0.0
  9
$USERR3
 40
0.0
  9
$USERR4
 40
0.0
  9
$USERR5
 40
0.0
  9
$WORLDVIEW
 70
     1
  9
$SHADEDGE
 70
     3
  9
$SHADEDIF
 70
    70
  9
$TILEMODE
 70
     1
  9
$MAXACTVP
 70
    64
  9
$PINSBASE
 10
0.0
 20
0.0
 30
0.0
  9
$PLIMCHECK
 70
     0
  9
$PEXTMIN
 10
1.000000000000000E+20
 20
1.000000000000000E+20
 30
1.000000000000000E+20
  9
$PEXTMAX
 10
-1.000000000000000E+20
 20
-1.000000000000000E+20
 30
-1.000000000000000E+20
  9
$PLIMMIN
 10
0.0
 20
0.0
  9
$PLIMMAX
 10
12.0
 20
9.0
  9
$UNITMODE
 70
     0
  9
$VISRETAIN
 70
     1
  9
$PLINEGEN
 70
     0
  9
$PSLTSCALE
 70
     1
  9
$TREEDEPTH
 70
  3020
  9
$CMLSTYLE
  2
Standard
  9
$CMLJUST
 70
     0
  9
$CMLSCALE
 40
1.0
  9
$PROXYGRAPHICS
 70
     1
  9
$MEASUREMENT
 70
     0
  9
$CELWEIGHT
370
    -1
  9
$ENDCAPS
280
     0
  9
$JOINSTYLE
280
     0
  9
$LWDISPLAY
290
     1
  9
$INSUNITS
 70
     1
  9
$HYPERLINKBASE
  1

  9
$STYLESHEET
  1

  9
$XEDIT
290
     1
  9
$CEPSNTYPE
380
     0
  9
$PSTYLEMODE
290
     1
  9
$FINGERPRINTGUID
  2
{82390770-FB23-F6F6-86E3-0F7FD2FC1416}
  9
$VERSIONGUID
  2
{FAEB1C32-E019-11D5-929B-00C0DF256EC4}
  9
$EXTNAMES
290
     1
  9
$PSVPSCALE
 40
0.0
  9
$OLESTARTUP
290
     0
  9
$SORTENTS
280
   127
  9
$INDEXCTL
280
     0
  9
$HIDETEXT
280
     1
  9
$XCLIPFRAME
280
     2
  9
$HALOGAP
280
     0
  9
$OBSCOLOR
 70
   257
  9
$OBSLTYPE
280
     0
  9
$INTERSECTIONDISPLAY
280
     0
  9
$INTERSECTIONCOLOR
 70
   257
  9
$DIMASSOC
280
     2
  9
$PROJECTNAME
  1

  9
$CAMERADISPLAY
290
     0
  9
$LENSLENGTH
 40
50.0
  9
$CAMERAHEIGHT
 40
0.0
  9
$STEPSPERSEC
 40
2.0
  9
$STEPSIZE
 40
6.0
  9
$3DDWFPREC
 40
2.0
  9
$PSOLWIDTH
 40
0.25
  9
$PSOLHEIGHT
 40
4.0
  9
$LOFTANG1
 40
1.570796326794897
  9
$LOFTANG2
 40
1.570796326794897
  9
$LOFTMAG1
 40
0.0
  9
$LOFTMAG2
 40
0.0
  9
$LOFTPARAM
 70
     7
  9
$LOFTNORMALS
280
     1
  9
$LATITUDE
 40
37.795
  9
$LONGITUDE
 40
-122.394
  9
$NORTHDIRECTION
 40
0.0
  9
$TIMEZONE
 70
 -8000
  9
$LIGHTGLYPHDISPLAY
280
     1
  9
$TILEMODELIGHTSYNCH
280
     1
  9
$CMATERIAL
347
3C
  9
$SOLIDHIST
280
     1
  9
$SHOWHIST
280
     1
  9
$DWFFRAME
280
     2
  9
$DGNFRAME
280
     2
  9
$REALWORLDSCALE
290
     1
  9
$INTERFERECOLOR
 62
   256
  9
$CSHADOW
280
     0
  9
$SHADOWPLANELOCATION
 40
0.0
  0
ENDSEC
  0
SECTION
  2
CLASSES
  0
CLASS
  1
ACDBDICTIONARYWDFLT
  2
AcDbDictionaryWithDefault
  3
ObjectDBX Classes
 90
        0
 91
        4
280
     0
281
     0
  0
CLASS
  1
VISUALSTYLE
  2
AcDbVisualStyle
  3
ObjectDBX Classes
 90
     4095
 91
        4
280
     0
281
     0
  0
CLASS
  1
MATERIAL
  2
AcDbMaterial
  3
ObjectDBX Classes
 90
     1153
 91
        4
280
     0
281
     0
  0
CLASS
  1
SUN
  2
AcDbSun
  3
SCENEOE
 90
     1024
 91
        4
280
     0
281
     0
  0
ENDSEC
  0
SECTION
  2
TABLES
  0
TABLE
  2
VPORT
  5
8
330
0
100
AcDbSymbolTable
 70
     1
  0
VPORT
  5
29
330
8
100
AcDbSymbolTableRecord
100
AcDbViewportTableRecord
  2
*Active
 70
     0
 10
0.0
 20
0.0
 11
1.0
 21
1.0
 12
0.0
 22
0.0
 13
0.0
 23
0.0
 14
0.5
 24
0.5
 15
0.5
 25
0.5
 16
0.0
 26
0.0
 36
1.0
 17
91.00082462281999
 27
-128.4993055234307
 37
0.0
 40
256.9986110468615
 41
0.7081814508812795
 42
50.0
 43
0.0
 44
0.0
 50
0.0
 51
0.0
 71
     0
 72
   100
 73
     1
 74
     3
 75
     0
 76
     0
 77
     0
 78
     0
281
     0
 65
     1
110
0.0
120
0.0
130
0.0
111
1.0
121
0.0
131
0.0
112
0.0
122
1.0
132
0.0
 79
     0
146
0.0
 60
     3
 61
     5
292
     1
282
     1
141
0.0
142
0.0
 63
   250
361
3F
  0
ENDTAB
  0
TABLE
  2
LTYPE
  5
5
330
0
100
AcDbSymbolTable
 70
     1
  0
LTYPE
  5
14
330
5
100
AcDbSymbolTableRecord
100
AcDbLinetypeTableRecord
  2
ByBlock
 70
     0
  3

 72
    65
 73
     0
 40
0.0
  0
LTYPE
  5
15
330
5
100
AcDbSymbolTableRecord
100
AcDbLinetypeTableRecord
  2
ByLayer
 70
     0
  3

 72
    65
 73
     0
 40
0.0
  0
LTYPE
  5
16
330
5
100
AcDbSymbolTableRecord
100
AcDbLinetypeTableRecord
  2
Continuous
 70
     0
  3
Solid line
 72
    65
 73
     0
 40
0.0
  0
ENDTAB
  0
TABLE
  2
LAYER
  5
2
330
0
100
AcDbSymbolTable
 70
     2
  0
LAYER
  5
10
330
2
100
AcDbSymbolTableRecord
100
AcDbLayerTableRecord
  2
0
 70
     0
 62
     7
  6
Continuous
370
    -3
390
F
347
3E
  0
LAYER
  5
40
330
2
100
AcDbSymbolTableRecord
100
AcDbLayerTableRecord
  2
_U+30EC_U+30A4_U+30E4_U+30FC 1
 70
     0
 62
     7
  6
Continuous
370
    -3
390
F
347
3E
  0
ENDTAB
  0
TABLE
  2
STYLE
  5
3
330
0
100
AcDbSymbolTable
 70
     1
  0
STYLE
  5
11
330
3
100
AcDbSymbolTableRecord
100
AcDbTextStyleTableRecord
  2
Standard
 70
     0
 40
0.0
 41
1.0
 50
0.0
 71
     0
 42
0.2
  3
txt
  4

  0
ENDTAB
  0
TABLE
  2
VIEW
  5
6
330
0
100
AcDbSymbolTable
 70
     0
  0
ENDTAB
  0
TABLE
  2
UCS
  5
7
330
0
100
AcDbSymbolTable
 70
     0
  0
ENDTAB
  0
TABLE
  2
APPID
  5
9
330
0
100
AcDbSymbolTable
 70
     1
  0
APPID
  5
12
330
9
100
AcDbSymbolTableRecord
100
AcDbRegAppTableRecord
  2
ACAD
 70
     0
  0
ENDTAB
  0
TABLE
  2
DIMSTYLE
  5
A
330
0
100
AcDbSymbolTable
 70
     1
100
AcDbDimStyleTable
  0
DIMSTYLE
105
27
330
A
100
AcDbSymbolTableRecord
100
AcDbDimStyleTableRecord
  2
Standard
 70
     0
178
     0
340
11
  0
ENDTAB
  0
TABLE
  2
BLOCK_RECORD
  5
1
330
0
100
AcDbSymbolTable
 70
     9
  0
BLOCK_RECORD
  5
1F
330
1
100
AcDbSymbolTableRecord
100
AcDbBlockTableRecord
  2
*Model_Space
340
22
 70
     0
280
     1
281
     0
  0
BLOCK_RECORD
  5
1B
330
1
100
AcDbSymbolTableRecord
100
AcDbBlockTableRecord
  2
*Paper_Space
340
1E
 70
     0
280
     1
281
     0
  0
BLOCK_RECORD
  5
23
330
1
100
AcDbSymbolTableRecord
100
AcDbBlockTableRecord
  2
*Paper_Space0
340
26
 70
     0
280
     1
281
     0
  0
BLOCK_RECORD
  5
6C
330
1
100
AcDbSymbolTableRecord
100
AcDbBlockTableRecord
  2
block 2
340
0
102
{BLKREFS
331
6D
102
}
 70
     0
280
     1
281
     0
  0
BLOCK_RECORD
  5
72
330
1
100
AcDbSymbolTableRecord
100
AcDbBlockTableRecord
  2
block 3
340
0
102
{BLKREFS
331
73
102
}
 70
     0
280
     1
281
     0
  0
BLOCK_RECORD
  5
78
330
1
100
AcDbSymbolTableRecord
100
AcDbBlockTableRecord
  2
block 4
340
0
102
{BLKREFS
331
79
102
}
 70
     0
280
     1
281
     0
  0
BLOCK_RECORD
  5
82
330
1
100
AcDbSymbolTableRecord
100
AcDbBlockTableRecord
  2
block 5
340
0
102
{BLKREFS
331
83
102
}
 70
     0
280
     1
281
     0
  0
BLOCK_RECORD
  5
97
330
1
100
AcDbSymbolTableRecord
100
AcDbBlockTableRecord
  2
block 6
340
0
102
{BLKREFS
331
98
102
}
 70
     0
280
     1
281
     0
  0
BLOCK_RECORD
  5
9F
330
1
100
AcDbSymbolTableRecord
100
AcDbBlockTableRecord
  2
block 7
340
0
102
{BLKREFS
331
A0
102
}
 70
     0
280
     1
281
     0
  0
BLOCK_RECORD
  5
A8
330
1
100
AcDbSymbolTableRecord
100
AcDbBlockTableRecord
  2
block 8
340
0
102
{BLKREFS
331
A9
102
}
 70
     0
280
     1
281
     0
  0
BLOCK_RECORD
  5
B9
330
1
100
AcDbSymbolTableRecord
100
AcDbBlockTableRecord
  2
block 9
340
0
102
{BLKREFS
331
BA
102
}
 70
     0
280
     1
281
     0
  0
ENDTAB
  0
ENDSEC
  0
SECTION
  2
BLOCKS
  0
BLOCK
  5
20
330
1F
100
AcDbEntity
  8
0
100
AcDbBlockBegin
  2
*Model_Space
 70
     0
 10
0.0
 20
0.0
 30
0.0
  3
*Model_Space
  1

  0
ENDBLK
  5
21
330
1F
100
AcDbEntity
  8
0
100
AcDbBlockEnd
  0
BLOCK
  5
1C
330
1B
100
AcDbEntity
 67
     1
  8
0
100
AcDbBlockBegin
  2
*Paper_Space
 70
     0
 10
0.0
 20
0.0
 30
0.0
  3
*Paper_Space
  1

  0
ENDBLK
  5
1D
330
1B
100
AcDbEntity
 67
     1
  8
0
100
AcDbBlockEnd
  0
BLOCK
  5
24
330
23
100
AcDbEntity
  8
0
100
AcDbBlockBegin
  2
*Paper_Space0
 70
     0
 10
0.0
 20
0.0
 30
0.0
  3
*Paper_Space0
  1

  0
ENDBLK
  5
25
330
23
100
AcDbEntity
  8
0
100
AcDbBlockEnd
  0
BLOCK
  5
6E
330
6C
100
AcDbEntity
  8
0
100
AcDbBlockBegin
  2
block 2
 70
     0
 10
0.0
 20
0.0
 30
0.0
  3
block 2
  1

  0
SPLINE
  5
70
330
6C
100
AcDbEntity
  8
_U+30EC_U+30A4_U+30E4_U+30FC 1
370
     0
100
AcDbSpline
210
0.0
220
0.0
230
1.0
 70
    11
 71
     3
 72
    26
 73
    22
 74
     0
 42
0.0000000001
 43
0.0000000001
 12
1.0
 22
0.0
 32
0.0
 13
1.0
 23
0.0
 33
0.0
 40
0.0
 40
0.0
 40
0.0
 40
0.0
 40
1.0
 40
1.0
 40
1.0
 40
2.0
 40
2.0
 40
2.0
 40
3.0
 40
3.0
 40
3.0
 40
4.0
 40
4.0
 40
4.0
 40
5.0
 40
5.0
 40
5.0
 40
6.0
 40
6.0
 40
6.0
 40
7.0
 40
7.0
 40
7.0
 40
7.0
 10
114.7954047022039
 20
-139.3324082767988
 30
0.0
 10
114.7954047022039
 20
-139.3324082767988
 30
0.0
 10
114.7954047022039
 20
-139.569430846184
 30
0.0
 10
114.7954047022039
 20
-139.569430846184
 30
0.0
 10
114.486379637177
 20
-139.5439371395932
 30
0.0
 10
113.9682372761955
 20
-139.3513563019677
 30
0.0
 10
113.4624972589608
 20
-138.9451795442568
 30
0.0
 10
113.4624972589608
 20
-138.9451795442568
 30
0.0
 10
113.4624972589608
 20
-139.7830267662695
 30
0.0
 10
113.4624972589608
 20
-139.7830267662695
 30
0.0
 10
113.4624972589608
 20
-139.7830267662695
 30
0.0
 10
113.2509683961664
 20
-139.7830267662695
 30
0.0
 10
113.2509683961664
 20
-139.7830267662695
 30
0.0
 10
113.2509683961664
 20
-139.7830267662695
 30
0.0
 10
113.2509683961664
 20
-138.7081569748716
 30
0.0
 10
113.2509683961664
 20
-138.7081569748716
 30
0.0
 10
113.2509683961664
 20
-138.7081569748716
 30
0.0
 10
113.4624972589608
 20
-138.7081569748716
 30
0.0
 10
113.4624972589608
 20
-138.7081569748716
 30
0.0
 10
113.7525742988188
 20
-139.0319959504851
 30
0.0
 10
114.3447862127333
 20
-139.2986463410434
 30
0.0
 10
114.7954047022039
 20
-139.3324082767988
 30
0.0
  0
HATCH
  5
71
330
6C
100
AcDbEntity
  8
_U+30EC_U+30A4_U+30E4_U+30FC 1
 62
     7
420
 16777215
100
AcDbHatch
 10
0.0
 20
0.0
 30
0.0
210
0.0
220
0.0
230
1.0
  2
SOLID
 70
     1
 71
     0
 91
        1
 92
        1
 93
        1
 72
     4
 94
        3
 73
     0
 74
     1
 95
       26
 96
       22
 40
0.0
 40
0.0
 40
0.0
 40
0.0
 40
1.0
 40
1.0
 40
1.0
 40
2.0
 40
2.0
 40
2.0
 40
3.0
 40
3.0
 40
3.0
 40
4.0
 40
4.0
 40
4.0
 40
5.0
 40
5.0
 40
5.0
 40
6.0
 40
6.0
 40
6.0
 40
7.0
 40
7.0
 40
7.0
 40
7.0
 10
114.7954047022039
 20
-139.3324082767988
 10
114.7954047022039
 20
-139.3324082767988
 10
114.7954047022039
 20
-139.569430846184
 10
114.7954047022039
 20
-139.569430846184
 10
114.486379637177
 20
-139.5439371395932
 10
113.9682372761955
 20
-139.3513563019677
 10
113.4624972589608
 20
-138.9451795442568
 10
113.4624972589608
 20
-138.9451795442568
 10
113.4624972589608
 20
-139.7830267662695
 10
113.4624972589608
 20
-139.7830267662695
 10
113.4624972589608
 20
-139.7830267662695
 10
113.2509683961664
 20
-139.7830267662695
 10
113.2509683961664
 20
-139.7830267662695
 10
113.2509683961664
 20
-139.7830267662695
 10
113.2509683961664
 20
-138.7081569748716
 10
113.2509683961664
 20
-138.7081569748716
 10
113.2509683961664
 20
-138.7081569748716
 10
113.4624972589608
 20
-138.7081569748716
 10
113.4624972589608
 20
-138.7081569748716
 10
113.7525742988188
 20
-139.0319959504851
 10
114.3447862127333
 20
-139.2986463410434
 10
114.7954047022039
 20
-139.3324082767988
 97
        0
 97
        0
 75
     2
 76
     1
 98
        0
  0
ENDBLK
  5
6F
330
6C
100
AcDbEntity
  8
0
100
AcDbBlockEnd
  0
BLOCK
  5
74
330
72
100
AcDbEntity
  8
0
100
AcDbBlockBegin
  2
block 3
 70
     0
 10
0.0
 20
0.0
 30
0.0
  3
block 3
  1

  0
SPLINE
  5
76
330
72
100
AcDbEntity
  8
_U+30EC_U+30A4_U+30E4_U+30FC 1
370
     0
100
AcDbSpline
210
0.0
220
0.0
230
1.0
 70
    11
 71
     3
 72
    26
 73
    22
 74
     0
 42
0.0000000001
 43
0.0000000001
 12
1.0
 22
0.0
 32
0.0
 13
1.0
 23
0.0
 33
0.0
 40
0.0
 40
0.0
 40
0.0
 40
0.0
 40
1.0
 40
1.0
 40
1.0
 40
2.0
 40
2.0
 40
2.0
 40
3.0
 40
3.0
 40
3.0
 40
4.0
 40
4.0
 40
4.0
 40
5.0
 40
5.0
 40
5.0
 40
6.0
 40
6.0
 40
6.0
 40
7.0
 40
7.0
 40
7.0
 40
7.0
 10
114.7954047022039
 20
-135.5879339938808
 30
0.0
 10
114.7954047022039
 20
-135.5879339938808
 30
0.0
 10
113.6912515991814
 20
-135.5879339938808
 30
0.0
 10
113.6912515991814
 20
-135.5879339938808
 30
0.0
 10
113.6912515991814
 20
-135.5879339938808
 30
0.0
 10
113.6912515991814
 20
-135.9179741413677
 30
0.0
 10
113.6912515991814
 20
-135.9179741413677
 30
0.0
 10
113.6912515991814
 20
-135.9179741413677
 30
0.0
 10
113.5431124933156
 20
-135.9179741413677
 30
0.0
 10
113.5431124933156
 20
-135.9179741413677
 30
0.0
 10
113.528298582729
 20
-135.5858669365896
 30
0.0
 10
113.3653455662767
 20
-135.5393581475388
 30
0.0
 10
113.2509683961664
 20
-135.5097303263656
 30
0.0
 10
113.2509683961664
 20
-135.5097303263656
 30
0.0
 10
113.2509683961664
 20
-135.363658277791
 30
0.0
 10
113.2509683961664
 20
-135.363658277791
 30
0.0
 10
113.2509683961664
 20
-135.363658277791
 30
0.0
 10
114.7954047022039
 20
-135.363658277791
 30
0.0
 10
114.7954047022039
 20
-135.363658277791
 30
0.0
 10
114.7954047022039
 20
-135.363658277791
 30
0.0
 10
114.7954047022039
 20
-135.5879339938808
 30
0.0
 10
114.7954047022039
 20
-135.5879339938808
 30
0.0
  0
HATCH
  5
77
330
72
100
AcDbEntity
  8
_U+30EC_U+30A4_U+30E4_U+30FC 1
 62
     7
420
 16777215
100
AcDbHatch
 10
0.0
 20
0.0
 30
0.0
210
0.0
220
0.0
230
1.0
  2
SOLID
 70
     1
 71
     0
 91
        1
 92
        1
 93
        1
 72
     4
 94
        3
 73
     0
 74
     1
 95
       26
 96
       22
 40
0.0
 40
0.0
 40
0.0
 40
0.0
 40
1.0
 40
1.0
 40
1.0
 40
2.0
 40
2.0
 40
2.0
 40
3.0
 40
3.0
 40
3.0
 40
4.0
 40
4.0
 40
4.0
 40
5.0
 40
5.0
 40
5.0
 40
6.0
 40
6.0
 40
6.0
 40
7.0
 40
7.0
 40
7.0
 40
7.0
 10
114.7954047022039
 20
-135.5879339938808
 10
114.7954047022039
 20
-135.5879339938808
 10
113.6912515991814
 20
-135.5879339938808
 10
113.6912515991814
 20
-135.5879339938808
 10
113.6912515991814
 20
-135.5879339938808
 10
113.6912515991814
 20
-135.9179741413677
 10
113.6912515991814
 20
-135.9179741413677
 10
113.6912515991814
 20
-135.9179741413677
 10
113.5431124933156
 20
-135.9179741413677
 10
113.5431124933156
 20
-135.9179741413677
 10
113.528298582729
 20
-135.5858669365896
 10
113.3653455662767
 20
-135.5393581475388
 10
113.2509683961664
 20
-135.5097303263656
 10
113.2509683961664
 20
-135.5097303263656
 10
113.2509683961664
 20
-135.363658277791
 10
113.2509683961664
 20
-135.363658277791
 10
113.2509683961664
 20
-135.363658277791
 10
114.7954047022039
 20
-135.363658277791
 10
114.7954047022039
 20
-135.363658277791
 10
114.7954047022039
 20
-135.363658277791
 10
114.7954047022039
 20
-135.5879339938808
 10
114.7954047022039
 20
-135.5879339938808
 97
        0
 97
        0
 75
     2
 76
     1
 98
        0
  0
ENDBLK
  5
75
330
72
100
AcDbEntity
  8
0
100
AcDbBlockEnd
  0
BLOCK
  5
7A
330
78
100
AcDbEntity
  8
0
100
AcDbBlockBegin
  2
block 4
 70
     0
 10
0.0
 20
0.0
 30
0.0
  3
block 4
  1

  0
SPLINE
  5
7C
330
78
100
AcDbEntity
  8
_U+30EC_U+30A4_U+30E4_U+30FC 1
370
     0
100
AcDbSpline
210
0.0
220
0.0
230
1.0
 70
    11
 71
     3
 72
    44
 73
    40
 74
     0
 42
0.0000000001
 43
0.0000000001
 12
1.0
 22
0.0
 32
0.0
 13
1.0
 23
0.0
 33
0.0
 40
0.0
 40
0.0
 40
0.0
 40
0.0
 40
1.0
 40
1.0
 40
1.0
 40
2.0
 40
2.0
 40
2.0
 40
3.0
 40
3.0
 40
3.0
 40
4.0
 40
4.0
 40
4.0
 40
5.0
 40
5.0
 40
5.0
 40
6.0
 40
6.0
 40
6.0
 40
7.0
 40
7.0
 40
7.0
 40
8.0
 40
8.0
 40
8.0
 40
9.0
 40
9.0
 40
9.0
 40
10.0
 40
10.0
 40
10.0
 40
11.0
 40
11.0
 40
11.0
 40
12.0
 40
12.0
 40
12.0
 40
13.0
 40
13.0
 40
13.0
 40
13.0
 10
114.2135280747452
 20
-121.4768228862975
 30
0.0
 10
114.3723469766152
 20
-121.6945529209653
 30
0.0
 10
114.4464165295481
 20
-121.787570499067
 30
0.0
 10
114.590077011283
 20
-121.8364908549575
 30
0.0
 10
114.590077011283
 20
-121.8364908549575
 30
0.0
 10
114.590077011283
 20
-121.0578992752911
 30
0.0
 10
114.590077011283
 20
-121.0578992752911
 30
0.0
 10
114.590077011283
 20
-121.0578992752911
 30
0.0
 10
114.7954047022039
 20
-121.0578992752911
 30
0.0
 10
114.7954047022039
 20
-121.0578992752911
 30
0.0
 10
114.7954047022039
 20
-121.0578992752911
 30
0.0
 10
114.7954047022039
 20
-122.0859157680896
 30
0.0
 10
114.7954047022039
 20
-122.0859157680896
 30
0.0
 10
114.437803790835
 20
-122.0542208896253
 30
0.0
 10
114.3596001233198
 20
-121.9887640754056
 30
0.0
 10
114.0612548542972
 20
-121.6036024001547
 30
0.0
 10
113.8624728447983
 20
-121.3476318056006
 30
0.0
 10
113.7946044637388
 20
-121.2821749913809
 30
0.0
 10
113.6571451538774
 20
-121.2821749913809
 30
0.0
 10
113.5386338691848
 20
-121.2821749913809
 30
0.0
 10
113.4077202407453
 20
-121.3541774870226
 30
0.0
 10
113.4077202407453
 20
-121.5508924392303
 30
0.0
 10
113.4077202407453
 20
-121.8109971483667
 30
0.0
 10
113.6381971287085
 20
-121.8196098870798
 30
0.0
 10
113.75464135611
 20
-121.8237440016621
 30
0.0
 10
113.75464135611
 20
-121.8237440016621
 30
0.0
 10
113.75464135611
 20
-122.0480197177519
 30
0.0
 10
113.75464135611
 20
-122.0480197177519
 30
0.0
 10
113.6275173327042
 20
-122.0394069790388
 30
0.0
 10
113.5155517294336
 20
-122.0287271830345
 30
0.0
 10
113.397040444741
 20
-121.9484564582282
 30
0.0
 10
113.2361544855799
 20
-121.8385579122487
 30
0.0
 10
113.2023925498244
 20
-121.6521782464967
 30
0.0
 10
113.2023925498244
 20
-121.5360785286438
 30
0.0
 10
113.2023925498244
 20
-121.2587483420811
 30
0.0
 10
113.3863606487368
 20
-121.0513535938691
 30
0.0
 10
113.6592122111685
 20
-121.0513535938691
 30
0.0
 10
113.8879665513891
 20
-121.0513535938691
 30
0.0
 10
113.9871853013643
 20
-121.1677978212706
 30
0.0
 10
114.2135280747452
 20
-121.4768228862975
 30
0.0
  0
HATCH
  5
7D
330
78
100
AcDbEntity
  8
_U+30EC_U+30A4_U+30E4_U+30FC 1
 62
     7
420
 16777215
100
AcDbHatch
 10
0.0
 20
0.0
 30
0.0
210
0.0
220
0.0
230
1.0
  2
SOLID
 70
     1
 71
     0
 91
        1
 92
        1
 93
        1
 72
     4
 94
        3
 73
     0
 74
     1
 95
       44
 96
       40
 40
0.0
 40
0.0
 40
0.0
 40
0.0
 40
1.0
 40
1.0
 40
1.0
 40
2.0
 40
2.0
 40
2.0
 40
3.0
 40
3.0
 40
3.0
 40
4.0
 40
4.0
 40
4.0
 40
5.0
 40
5.0
 40
5.0
 40
6.0
 40
6.0
 40
6.0
 40
7.0
 40
7.0
 40
7.0
 40
8.0
 40
8.0
 40
8.0
 40
9.0
 40
9.0
 40
9.0
 40
10.0
 40
10.0
 40
10.0
 40
11.0
 40
11.0
 40
11.0
 40
12.0
 40
12.0
 40
12.0
 40
13.0
 40
13.0
 40
13.0
 40
13.0
 10
114.2135280747452
 20
-121.4768228862975
 10
114.3723469766152
 20
-121.6945529209653
 10
114.4464165295481
 20
-121.787570499067
 10
114.590077011283
 20
-121.8364908549575
 10
114.590077011283
 20
-121.8364908549575
 10
114.590077011283
 20
-121.0578992752911
 10
114.590077011283
 20
-121.0578992752911
 10
114.590077011283
 20
-121.0578992752911
 10
114.7954047022039
 20
-121.0578992752911
 10
114.7954047022039
 20
-121.0578992752911
 10
114.7954047022039
 20
-121.0578992752911
 10
114.7954047022039
 20
-122.0859157680896
 10
114.7954047022039
 20
-122.0859157680896
 10
114.437803790835
 20
-122.0542208896253
 10
114.3596001233198
 20
-121.9887640754056
 10
114.0612548542972
 20
-121.6036024001547
 10
113.8624728447983
 20
-121.3476318056006
 10
113.7946044637388
 20
-121.2821749913809
 10
113.6571451538774
 20
-121.2821749913809
 10
113.5386338691848
 20
-121.2821749913809
 10
113.4077202407453
 20
-121.3541774870226
 10
113.4077202407453
 20
-121.5508924392303
 10
113.4077202407453
 20
-121.8109971483667
 10
113.6381971287085
 20
-121.8196098870798
 10
113.75464135611
 20
-121.8237440016621
 10
113.75464135611
 20
-121.8237440016621
 10
113.75464135611
 20
-122.0480197177519
 10
113.75464135611
 20
-122.0480197177519
 10
113.6275173327042
 20
-122.0394069790388
 10
113.5155517294336
 20
-122.0287271830345
 10
113.397040444741
 20
-121.9484564582282
 10
113.2361544855799
 20
-121.8385579122487
 10
113.2023925498244
 20
-121.6521782464967
 10
113.2023925498244
 20
-121.5360785286438
 10
113.2023925498244
 20
-121.2587483420811
 10
113.3863606487368
 20
-121.0513535938691
 10
113.6592122111685
 20
-121.0513535938691
 10
113.8879665513891
 20
-121.0513535938691
 10
113.9871853013643
 20
-121.1677978212706
 10
114.2135280747452
 20
-121.4768228862975
 97
        0
 97
        0
 75
     2
 76
     1
 98
        0
  0
SPLINE
  5
7E
330
78
100
AcDbEntity
  8
_U+30EC_U+30A4_U+30E4_U+30FC 1
370
     0
100
AcDbSpline
210
0.0
220
0.0
230
1.0
 70
    11
 71
     3
 72
    29
 73
    25
 74
     0
 42
0.0000000001
 43
0.0000000001
 12
1.0
 22
0.0
 32
0.0
 13
1.0
 23
0.0
 33
0.0
 40
0.0
 40
0.0
 40
0.0
 40
0.0
 40
1.0
 40
1.0
 40
1.0
 40
2.0
 40
2.0
 40
2.0
 40
3.0
 40
3.0
 40
3.0
 40
4.0
 40
4.0
 40
4.0
 40
5.0
 40
5.0
 40
5.0
 40
6.0
 40
6.0
 40
6.0
 40
7.0
 40
7.0
 40
7.0
 40
8.0
 40
8.0
 40
8.0
 40
8.0
 10
114.8460476058371
 20
-120.3929958466379
 30
0.0
 10
114.8460476058371
 20
-120.6596462371962
 30
0.0
 10
114.7085882959756
 20
-120.9135497744591
 30
0.0
 10
114.3596001233198
 20
-120.9135497744591
 30
0.0
 10
114.1036295287658
 20
-120.9135497744591
 30
0.0
 10
114.0085448933729
 20
-120.7716118404668
 30
0.0
 10
113.9472221937354
 20
-120.6658474090697
 30
0.0
 10
113.8879665513891
 20
-120.7905598656357
 30
0.0
 10
113.7735893812788
 20
-120.8666964758597
 30
0.0
 10
113.6127034221177
 20
-120.8666964758597
 30
0.0
 10
113.3377848023947
 20
-120.8666964758597
 30
0.0
 10
113.2023925498244
 20
-120.6679144663608
 30
0.0
 10
113.2023925498244
 20
-120.3929958466379
 30
0.0
 10
113.2023925498244
 20
-120.1094644882018
 30
0.0
 10
113.3463975411078
 20
-119.9189507078675
 30
0.0
 10
113.6127034221177
 20
-119.9189507078675
 30
0.0
 10
113.7735893812788
 20
-119.9189507078675
 30
0.0
 10
113.8879665513891
 20
-119.9974988849312
 30
0.0
 10
113.9472221937354
 20
-120.1222113414972
 30
0.0
 10
113.9978650973686
 20
-120.0333278779778
 30
0.0
 10
114.0929497327615
 20
-119.8745089761078
 30
0.0
 10
114.3554660087375
 20
-119.8745089761078
 30
0.0
 10
114.7299478879842
 20
-119.8745089761078
 30
0.0
 10
114.8460476058371
 20
-120.1539062199615
 30
0.0
 10
114.8460476058371
 20
-120.3929958466379
 30
0.0
  0
SPLINE
  5
7F
330
78
100
AcDbEntity
  8
_U+30EC_U+30A4_U+30E4_U+30FC 1
370
     0
100
AcDbSpline
210
0.0
220
0.0
230
1.0
 70
    11
 71
     3
 72
    17
 73
    13
 74
     0
 42
0.0000000001
 43
0.0000000001
 12
1.0
 22
0.0
 32
0.0
 13
1.0
 23
0.0
 33
0.0
 40
0.0
 40
0.0
 40
0.0
 40
0.0
 40
1.0
 40
1.0
 40
1.0
 40
2.0
 40
2.0
 40
2.0
 40
3.0
 40
3.0
 40
3.0
 40
4.0
 40
4.0
 40
4.0
 40
4.0
 10
113.3949733874499
 20
-120.3929958466379
 30
0.0
 10
113.3949733874499
 20
-120.5580159203813
 30
0.0
 10
113.4900580228428
 20
-120.6427652693185
 30
0.0
 10
113.6254502754131
 20
-120.6427652693185
 30
0.0
 10
113.748095674688
 20
-120.6427652693185
 30
0.0
 10
113.8666069593806
 20
-120.5707627736768
 30
0.0
 10
113.8666069593806
 20
-120.3929958466379
 30
0.0
 10
113.8666069593806
 20
-120.215228919599
 30
0.0
 10
113.748095674688
 20
-120.1432264239573
 30
0.0
 10
113.6254502754131
 20
-120.1432264239573
 30
0.0
 10
113.4900580228428
 20
-120.1432264239573
 30
0.0
 10
113.3949733874499
 20
-120.2300428301856
 30
0.0
 10
113.3949733874499
 20
-120.3929958466379
 30
0.0
  0
SPLINE
  5
80
330
78
100
AcDbEntity
  8
_U+30EC_U+30A4_U+30E4_U+30FC 1
370
     0
100
AcDbSpline
210
0.0
220
0.0
230
1.0
 70
    11
 71
     3
 72
    17
 73
    13
 74
     0
 42
0.0000000001
 43
0.0000000001
 12
1.0
 22
0.0
 32
0.0
 13
1.0
 23
0.0
 33
0.0
 40
0.0
 40
0.0
 40
0.0
 40
0.0
 40
1.0
 40
1.0
 40
1.0
 40
2.0
 40
2.0
 40
2.0
 40
3.0
 40
3.0
 40
3.0
 40
4.0
 40
4.0
 40
4.0
 40
4.0
 10
114.0550536824237
 20
-120.3929958466379
 30
0.0
 10
114.0550536824237
 20
-120.5366563283728
 30
0.0
 10
114.141870088652
 20
-120.6892740583693
 30
0.0
 10
114.3447862127333
 20
-120.6892740583693
 30
0.0
 10
114.5501139036542
 20
-120.6892740583693
 30
0.0
 10
114.6513997109205
 20
-120.5621500349636
 30
0.0
 10
114.6513997109205
 20
-120.3929958466379
 30
0.0
 10
114.6513997109205
 20
-120.2069606904344
 30
0.0
 10
114.5287543116456
 20
-120.0967176349064
 30
0.0
 10
114.3509873846067
 20
-120.0967176349064
 30
0.0
 10
114.1291232353566
 20
-120.0967176349064
 30
0.0
 10
114.0550536824237
 20
-120.2596706513587
 30
0.0
 10
114.0550536824237
 20
-120.3929958466379
 30
0.0
  0
HATCH
  5
81
330
78
100
AcDbEntity
  8
_U+30EC_U+30A4_U+30E4_U+30FC 1
 62
     7
420
 16777215
100
AcDbHatch
 10
0.0
 20
0.0
 30
0.0
210
0.0
220
0.0
230
1.0
  2
SOLID
 70
     1
 71
     0
 91
        3
 92
        1
 93
        1
 72
     4
 94
        3
 73
     0
 74
     1
 95
       29
 96
       25
 40
0.0
 40
0.0
 40
0.0
 40
0.0
 40
1.0
 40
1.0
 40
1.0
 40
2.0
 40
2.0
 40
2.0
 40
3.0
 40
3.0
 40
3.0
 40
4.0
 40
4.0
 40
4.0
 40
5.0
 40
5.0
 40
5.0
 40
6.0
 40
6.0
 40
6.0
 40
7.0
 40
7.0
 40
7.0
 40
8.0
 40
8.0
 40
8.0
 40
8.0
 10
114.8460476058371
 20
-120.3929958466379
 10
114.8460476058371
 20
-120.6596462371962
 10
114.7085882959756
 20
-120.9135497744591
 10
114.3596001233198
 20
-120.9135497744591
 10
114.1036295287658
 20
-120.9135497744591
 10
114.0085448933729
 20
-120.7716118404668
 10
113.9472221937354
 20
-120.6658474090697
 10
113.8879665513891
 20
-120.7905598656357
 10
113.7735893812788
 20
-120.8666964758597
 10
113.6127034221177
 20
-120.8666964758597
 10
113.3377848023947
 20
-120.8666964758597
 10
113.2023925498244
 20
-120.6679144663608
 10
113.2023925498244
 20
-120.3929958466379
 10
113.2023925498244
 20
-120.1094644882018
 10
113.3463975411078
 20
-119.9189507078675
 10
113.6127034221177
 20
-119.9189507078675
 10
113.7735893812788
 20
-119.9189507078675
 10
113.8879665513891
 20
-119.9974988849312
 10
113.9472221937354
 20
-120.1222113414972
 10
113.9978650973686
 20
-120.0333278779778
 10
114.0929497327615
 20
-119.8745089761078
 10
114.3554660087375
 20
-119.8745089761078
 10
114.7299478879842
 20
-119.8745089761078
 10
114.8460476058371
 20
-120.1539062199615
 10
114.8460476058371
 20
-120.3929958466379
 97
        0
 97
        0
 92
        1
 93
        1
 72
     4
 94
        3
 73
     0
 74
     1
 95
       17
 96
       13
 40
0.0
 40
0.0
 40
0.0
 40
0.0
 40
1.0
 40
1.0
 40
1.0
 40
2.0
 40
2.0
 40
2.0
 40
3.0
 40
3.0
 40
3.0
 40
4.0
 40
4.0
 40
4.0
 40
4.0
 10
113.3949733874499
 20
-120.3929958466379
 10
113.3949733874499
 20
-120.5580159203813
 10
113.4900580228428
 20
-120.6427652693185
 10
113.6254502754131
 20
-120.6427652693185
 10
113.748095674688
 20
-120.6427652693185
 10
113.8666069593806
 20
-120.5707627736768
 10
113.8666069593806
 20
-120.3929958466379
 10
113.8666069593806
 20
-120.215228919599
 10
113.748095674688
 20
-120.1432264239573
 10
113.6254502754131
 20
-120.1432264239573
 10
113.4900580228428
 20
-120.1432264239573
 10
113.3949733874499
 20
-120.2300428301856
 10
113.3949733874499
 20
-120.3929958466379
 97
        0
 97
        0
 92
        1
 93
        1
 72
     4
 94
        3
 73
     0
 74
     1
 95
       17
 96
       13
 40
0.0
 40
0.0
 40
0.0
 40
0.0
 40
1.0
 40
1.0
 40
1.0
 40
2.0
 40
2.0
 40
2.0
 40
3.0
 40
3.0
 40
3.0
 40
4.0
 40
4.0
 40
4.0
 40
4.0
 10
114.0550536824237
 20
-120.3929958466379
 10
114.0550536824237
 20
-120.5366563283728
 10
114.141870088652
 20
-120.6892740583693
 10
114.3447862127333
 20
-120.6892740583693
 10
114.5501139036542
 20
-120.6892740583693
 10
114.6513997109205
 20
-120.5621500349636
 10
114.6513997109205
 20
-120.3929958466379
 10
114.6513997109205
 20
-120.2069606904344
 10
114.5287543116456
 20
-120.0967176349064
 10
114.3509873846067
 20
-120.0967176349064
 10
114.1291232353566
 20
-120.0967176349064
 10
114.0550536824237
 20
-120.2596706513587
 10
114.0550536824237
 20
-120.3929958466379
 97
        0
 97
        0
 75
     2
 76
     1
 98
        0
  0
ENDBLK
  5
7B
330
78
100
AcDbEntity
  8
0
100
AcDbBlockEnd
  0
BLOCK
  5
84
330
82
100
AcDbEntity
  8
0
100
AcDbBlockBegin
  2
block 5
 70
     0
 10
0.0
 20
0.0
 30
0.0
  3
block 5
  1

  0
SPLINE
  5
86
330
82
100
AcDbEntity
  8
_U+30EC_U+30A4_U+30E4_U+30FC 1
370
     0
100
AcDbSpline
210
0.0
220
0.0
230
1.0
 70
    11
 71
     3
 72
    26
 73
    22
 74
     0
 42
0.0000000001
 43
0.0000000001
 12
1.0
 22
0.0
 32
0.0
 13
1.0
 23
0.0
 33
0.0
 40
0.0
 40
0.0
 40
0.0
 40
0.0
 40
1.0
 40
1.0
 40
1.0
 40
2.0
 40
2.0
 40
2.0
 40
3.0
 40
3.0
 40
3.0
 40
4.0
 40
4.0
 40
4.0
 40
5.0
 40
5.0
 40
5.0
 40
6.0
 40
6.0
 40
6.0
 40
7.0
 40
7.0
 40
7.0
 40
7.0
 10
114.7954047022039
 20
-147.7098469682809
 30
0.0
 10
114.7954047022039
 20
-147.7098469682809
 30
0.0
 10
113.6912515991814
 20
-147.7098469682809
 30
0.0
 10
113.6912515991814
 20
-147.7098469682809
 30
0.0
 10
113.6912515991814
 20
-147.7098469682809
 30
0.0
 10
113.6912515991814
 20
-148.0398871157678
 30
0.0
 10
113.6912515991814
 20
-148.0398871157678
 30
0.0
 10
113.6912515991814
 20
-148.0398871157678
 30
0.0
 10
113.5431124933156
 20
-148.0398871157678
 30
0.0
 10
113.5431124933156
 20
-148.0398871157678
 30
0.0
 10
113.528298582729
 20
-147.7077799109897
 30
0.0
 10
113.3653455662767
 20
-147.6612711219389
 30
0.0
 10
113.2509683961664
 20
-147.6316433007657
 30
0.0
 10
113.2509683961664
 20
-147.6316433007657
 30
0.0
 10
113.2509683961664
 20
-147.4855712521911
 30
0.0
 10
113.2509683961664
 20
-147.4855712521911
 30
0.0
 10
113.2509683961664
 20
-147.4855712521911
 30
0.0
 10
114.7954047022039
 20
-147.4855712521911
 30
0.0
 10
114.7954047022039
 20
-147.4855712521911
 30
0.0
 10
114.7954047022039
 20
-147.4855712521911
 30
0.0
 10
114.7954047022039
 20
-147.7098469682809
 30
0.0
 10
114.7954047022039
 20
-147.7098469682809
 30
0.0
  0
HATCH
  5
87
330
82
100
AcDbEntity
  8
_U+30EC_U+30A4_U+30E4_U+30FC 1
 62
     7
420
 16777215
100
AcDbHatch
 10
0.0
 20
0.0
 30
0.0
210
0.0
220
0.0
230
1.0
  2
SOLID
 70
     1
 71
     0
 91
        1
 92
        1
 93
        1
 72
     4
 94
        3
 73
     0
 74
     1
 95
       26
 96
       22
 40
0.0
 40
0.0
 40
0.0
 40
0.0
 40
1.0
 40
1.0
 40
1.0
 40
2.0
 40
2.0
 40
2.0
 40
3.0
 40
3.0
 40
3.0
 40
4.0
 40
4.0
 40
4.0
 40
5.0
 40
5.0
 40
5.0
 40
6.0
 40
6.0
 40
6.0
 40
7.0
 40
7.0
 40
7.0
 40
7.0
 10
114.7954047022039
 20
-147.7098469682809
 10
114.7954047022039
 20
-147.7098469682809
 10
113.6912515991814
 20
-147.7098469682809
 10
113.6912515991814
 20
-147.7098469682809
 10
113.6912515991814
 20
-147.7098469682809
 10
113.6912515991814
 20
-148.0398871157678
 10
113.6912515991814
 20
-148.0398871157678
 10
113.6912515991814
 20
-148.0398871157678
 10
113.5431124933156
 20
-148.0398871157678
 10
113.5431124933156
 20
-148.0398871157678
 10
113.528298582729
 20
-147.7077799109897
 10
113.3653455662767
 20
-147.6612711219389
 10
113.2509683961664
 20
-147.6316433007657
 10
113.2509683961664
 20
-147.6316433007657
 10
113.2509683961664
 20
-147.4855712521911
 10
113.2509683961664
 20
-147.4855712521911
 10
113.2509683961664
 20
-147.4855712521911
 10
114.7954047022039
 20
-147.4855712521911
 10
114.7954047022039
 20
-147.4855712521911
 10
114.7954047022039
 20
-147.4855712521911
 10
114.7954047022039
 20
-147.7098469682809
 10
114.7954047022039
 20
-147.7098469682809
 97
        0
 97
        0
 75
     2
 76
     1
 98
        0
  0
POLYLINE
  5
88
330
82
100
AcDbEntity
  8
_U+30EC_U+30A4_U+30E4_U+30FC 1
370
     0
100
AcDb2dPolyline
 66
     1
 10
0.0
 20
0.0
 30
0.0
  0
VERTEX
  5
89
330
88
100
AcDbEntity
  8
_U+30EC_U+30A4_U+30E4_U+30FC 1
370
     0
100
AcDbVertex
100
AcDb2dVertex
 10
114.7954047022039
 20
-146.9243651976439
 30
0.0
  0
VERTEX
  5
8A
330
88
100
AcDbEntity
  8
_U+30EC_U+30A4_U+30E4_U+30FC 1
370
     0
100
AcDbVertex
100
AcDb2dVertex
 10
114.5435682222322
 20
-146.9243651976439
 30
0.0
  0
VERTEX
  5
8B
330
88
100
AcDbEntity
  8
_U+30EC_U+30A4_U+30E4_U+30FC 1
370
     0
100
AcDbVertex
100
AcDb2dVertex
 10
114.5435682222322
 20
-146.6725287176722
 30
0.0
  0
VERTEX
  5
8C
330
88
100
AcDbEntity
  8
_U+30EC_U+30A4_U+30E4_U+30FC 1
370
     0
100
AcDbVertex
100
AcDb2dVertex
 10
114.7954047022039
 20
-146.6725287176722
 30
0.0
  0
VERTEX
  5
8D
330
88
100
AcDbEntity
  8
_U+30EC_U+30A4_U+30E4_U+30FC 1
370
     0
100
AcDbVertex
100
AcDb2dVertex
 10
114.7954047022039
 20
-146.9243651976439
 30
0.0
  0
SEQEND
  5
8E
330
88
100
AcDbEntity
  8
_U+30EC_U+30A4_U+30E4_U+30FC 1
370
     0
  0
HATCH
  5
8F
330
82
100
AcDbEntity
  8
_U+30EC_U+30A4_U+30E4_U+30FC 1
 62
     7
420
 16777215
100
AcDbHatch
 10
0.0
 20
0.0
 30
0.0
210
0.0
220
0.0
230
1.0
  2
SOLID
 70
     1
 71
     0
 91
        1
 92
        1
 93
        4
 72
     1
 10
114.7954047022039
 20
-146.9243651976439
 11
114.5435682222322
 21
-146.9243651976439
 72
     1
 10
114.5435682222322
 20
-146.9243651976439
 11
114.5435682222322
 21
-146.6725287176722
 72
     1
 10
114.5435682222322
 20
-146.6725287176722
 11
114.7954047022039
 21
-146.6725287176722
 72
     1
 10
114.7954047022039
 20
-146.6725287176722
 11
114.7954047022039
 21
-146.9243651976439
 97
        0
 75
     2
 76
     1
 98
        0
  0
SPLINE
  5
90
330
82
100
AcDbEntity
  8
_U+30EC_U+30A4_U+30E4_U+30FC 1
370
     0
100
AcDbSpline
210
0.0
220
0.0
230
1.0
 70
    11
 71
     3
 72
    53
 73
    49
 74
     0
 42
0.0000000001
 43
0.0000000001
 12
1.0
 22
0.0
 32
0.0
 13
1.0
 23
0.0
 33
0.0
 40
0.0
 40
0.0
 40
0.0
 40
0.0
 40
1.0
 40
1.0
 40
1.0
 40
2.0
 40
2.0
 40
2.0
 40
3.0
 40
3.0
 40
3.0
 40
4.0
 40
4.0
 40
4.0
 40
5.0
 40
5.0
 40
5.0
 40
6.0
 40
6.0
 40
6.0
 40
7.0
 40
7.0
 40
7.0
 40
8.0
 40
8.0
 40
8.0
 40
9.0
 40
9.0
 40
9.0
 40
10.0
 40
10.0
 40
10.0
 40
11.0
 40
11.0
 40
11.0
 40
12.0
 40
12.0
 40
12.0
 40
13.0
 40
13.0
 40
13.0
 40
14.0
 40
14.0
 40
14.0
 40
15.0
 40
15.0
 40
15.0
 40
16.0
 40
16.0
 40
16.0
 40
16.0
 10
114.8460476058371
 20
-145.9552598376431
 30
0.0
 10
114.8460476058371
 20
-146.0334635051583
 30
0.0
 10
114.8291666379594
 20
-146.1350938219732
 30
0.0
 10
114.7657768810308
 20
-146.236724138788
 30
0.0
 10
114.6558783350513
 20
-146.4100124416961
 30
0.0
 10
114.5246201970633
 20
-146.4313720337047
 30
0.0
 10
114.416788708375
 20
-146.4503200588735
 30
0.0
 10
114.416788708375
 20
-146.4503200588735
 30
0.0
 10
114.416788708375
 20
-146.2281114000749
 30
0.0
 10
114.416788708375
 20
-146.2281114000749
 30
0.0
 10
114.6155707178739
 20
-146.1733343818595
 30
0.0
 10
114.645198539047
 20
-146.0462103584537
 30
0.0
 10
114.645198539047
 20
-145.953192780352
 30
0.0
 10
114.645198539047
 20
-145.8136664131994
 30
0.0
 10
114.5456352795233
 20
-145.6613931927513
 30
0.0
 10
114.313091334269
 20
-145.6613931927513
 30
0.0
 10
114.0571207397149
 20
-145.6613931927513
 30
0.0
 10
113.9871853013643
 20
-145.8412271770814
 30
0.0
 10
113.9871853013643
 20
-145.9618055190651
 30
0.0
 10
113.9871853013643
 20
-145.9935003975294
 30
0.0
 10
113.9871853013643
 20
-146.1350938219732
 30
0.0
 10
114.1163763820612
 20
-146.2239772854926
 30
0.0
 10
114.1163763820612
 20
-146.2239772854926
 30
0.0
 10
114.0974283568923
 20
-146.3996771552404
 30
0.0
 10
114.0974283568923
 20
-146.3996771552404
 30
0.0
 10
114.0974283568923
 20
-146.3996771552404
 30
0.0
 10
113.2509683961664
 20
-146.2790988132566
 30
0.0
 10
113.2509683961664
 20
-146.2790988132566
 30
0.0
 10
113.2509683961664
 20
-146.2790988132566
 30
0.0
 10
113.2509683961664
 20
-145.5005072335902
 30
0.0
 10
113.2509683961664
 20
-145.5005072335902
 30
0.0
 10
113.2509683961664
 20
-145.5005072335902
 30
0.0
 10
113.445616291083
 20
-145.5005072335902
 30
0.0
 10
113.445616291083
 20
-145.5005072335902
 30
0.0
 10
113.445616291083
 20
-145.5005072335902
 30
0.0
 10
113.445616291083
 20
-146.1161457968043
 30
0.0
 10
113.445616291083
 20
-146.1161457968043
 30
0.0
 10
113.445616291083
 20
-146.1161457968043
 30
0.0
 10
113.8686740166717
 20
-146.1816026110241
 30
0.0
 10
113.8686740166717
 20
-146.1816026110241
 30
0.0
 10
113.8349120809163
 20
-146.1202799113866
 30
0.0
 10
113.7946044637388
 20
-146.0379421292891
 30
0.0
 10
113.7946044637388
 20
-145.9194308445965
 30
0.0
 10
113.7946044637388
 20
-145.6655273073336
 30
0.0
 10
113.9809841294909
 20
-145.4285047379484
 30
0.0
 10
114.2941433091001
 20
-145.4285047379484
 30
0.0
 10
114.6114366032916
 20
-145.4285047379484
 30
0.0
 10
114.8460476058371
 20
-145.6527804540382
 30
0.0
 10
114.8460476058371
 20
-145.9552598376431
 30
0.0
  0
HATCH
  5
91
330
82
100
AcDbEntity
  8
_U+30EC_U+30A4_U+30E4_U+30FC 1
 62
     7
420
 16777215
100
AcDbHatch
 10
0.0
 20
0.0
 30
0.0
210
0.0
220
0.0
230
1.0
  2
SOLID
 70
     1
 71
     0
 91
        1
 92
        1
 93
        1
 72
     4
 94
        3
 73
     0
 74
     1
 95
       53
 96
       49
 40
0.0
 40
0.0
 40
0.0
 40
0.0
 40
1.0
 40
1.0
 40
1.0
 40
2.0
 40
2.0
 40
2.0
 40
3.0
 40
3.0
 40
3.0
 40
4.0
 40
4.0
 40
4.0
 40
5.0
 40
5.0
 40
5.0
 40
6.0
 40
6.0
 40
6.0
 40
7.0
 40
7.0
 40
7.0
 40
8.0
 40
8.0
 40
8.0
 40
9.0
 40
9.0
 40
9.0
 40
10.0
 40
10.0
 40
10.0
 40
11.0
 40
11.0
 40
11.0
 40
12.0
 40
12.0
 40
12.0
 40
13.0
 40
13.0
 40
13.0
 40
14.0
 40
14.0
 40
14.0
 40
15.0
 40
15.0
 40
15.0
 40
16.0
 40
16.0
 40
16.0
 40
16.0
 10
114.8460476058371
 20
-145.9552598376431
 10
114.8460476058371
 20
-146.0334635051583
 10
114.8291666379594
 20
-146.1350938219732
 10
114.7657768810308
 20
-146.236724138788
 10
114.6558783350513
 20
-146.4100124416961
 10
114.5246201970633
 20
-146.4313720337047
 10
114.416788708375
 20
-146.4503200588735
 10
114.416788708375
 20
-146.4503200588735
 10
114.416788708375
 20
-146.2281114000749
 10
114.416788708375
 20
-146.2281114000749
 10
114.6155707178739
 20
-146.1733343818595
 10
114.645198539047
 20
-146.0462103584537
 10
114.645198539047
 20
-145.953192780352
 10
114.645198539047
 20
-145.8136664131994
 10
114.5456352795233
 20
-145.6613931927513
 10
114.313091334269
 20
-145.6613931927513
 10
114.0571207397149
 20
-145.6613931927513
 10
113.9871853013643
 20
-145.8412271770814
 10
113.9871853013643
 20
-145.9618055190651
 10
113.9871853013643
 20
-145.9935003975294
 10
113.9871853013643
 20
-146.1350938219732
 10
114.1163763820612
 20
-146.2239772854926
 10
114.1163763820612
 20
-146.2239772854926
 10
114.0974283568923
 20
-146.3996771552404
 10
114.0974283568923
 20
-146.3996771552404
 10
114.0974283568923
 20
-146.3996771552404
 10
113.2509683961664
 20
-146.2790988132566
 10
113.2509683961664
 20
-146.2790988132566
 10
113.2509683961664
 20
-146.2790988132566
 10
113.2509683961664
 20
-145.5005072335902
 10
113.2509683961664
 20
-145.5005072335902
 10
113.2509683961664
 20
-145.5005072335902
 10
113.445616291083
 20
-145.5005072335902
 10
113.445616291083
 20
-145.5005072335902
 10
113.445616291083
 20
-145.5005072335902
 10
113.445616291083
 20
-146.1161457968043
 10
113.445616291083
 20
-146.1161457968043
 10
113.445616291083
 20
-146.1161457968043
 10
113.8686740166717
 20
-146.1816026110241
 10
113.8686740166717
 20
-146.1816026110241
 10
113.8349120809163
 20
-146.1202799113866
 10
113.7946044637388
 20
-146.0379421292891
 10
113.7946044637388
 20
-145.9194308445965
 10
113.7946044637388
 20
-145.6655273073336
 10
113.9809841294909
 20
-145.4285047379484
 10
114.2941433091001
 20
-145.4285047379484
 10
114.6114366032916
 20
-145.4285047379484
 10
114.8460476058371
 20
-145.6527804540382
 10
114.8460476058371
 20
-145.9552598376431
 97
        0
 97
        0
 75
     2
 76
     1
 98
        0
  0
ENDBLK
  5
85
330
82
100
AcDbEntity
  8
0
100
AcDbBlockEnd
  0
BLOCK
  5
99
330
97
100
AcDbEntity
  8
0
100
AcDbBlockBegin
  2
block 6
 70
     0
 10
0.0
 20
0.0
 30
0.0
  3
block 6
  1

  0
SPLINE
  5
9B
330
97
100
AcDbEntity
  8
_U+30EC_U+30A4_U+30E4_U+30FC 1
370
     0
100
AcDbSpline
210
0.0
220
0.0
230
1.0
 70
    11
 71
     3
 72
    26
 73
    22
 74
     0
 42
0.0000000001
 43
0.0000000001
 12
1.0
 22
0.0
 32
0.0
 13
1.0
 23
0.0
 33
0.0
 40
0.0
 40
0.0
 40
0.0
 40
0.0
 40
1.0
 40
1.0
 40
1.0
 40
2.0
 40
2.0
 40
2.0
 40
3.0
 40
3.0
 40
3.0
 40
4.0
 40
4.0
 40
4.0
 40
5.0
 40
5.0
 40
5.0
 40
6.0
 40
6.0
 40
6.0
 40
7.0
 40
7.0
 40
7.0
 40
7.0
 10
79.5314073151866
 20
-147.8841687998345
 30
0.0
 10
79.5314073151866
 20
-147.8841687998345
 30
0.0
 10
79.5314073151866
 20
-146.7800156968119
 30
0.0
 10
79.5314073151866
 20
-146.7800156968119
 30
0.0
 10
79.5314073151866
 20
-146.7800156968119
 30
0.0
 10
79.20136716769966
 20
-146.7800156968119
 30
0.0
 10
79.20136716769966
 20
-146.7800156968119
 30
0.0
 10
79.20136716769966
 20
-146.7800156968119
 30
0.0
 10
79.20136716769966
 20
-146.6318765909462
 30
0.0
 10
79.20136716769966
 20
-146.6318765909462
 30
0.0
 10
79.53347437247774
 20
-146.6170626803596
 30
0.0
 10
79.57998316152862
 20
-146.4541096639073
 30
0.0
 10
79.60961098270177
 20
-146.339732493797
 30
0.0
 10
79.60961098270177
 20
-146.339732493797
 30
0.0
 10
79.75568303127636
 20
-146.339732493797
 30
0.0
 10
79.75568303127636
 20
-146.339732493797
 30
0.0
 10
79.75568303127636
 20
-146.339732493797
 30
0.0
 10
79.75568303127636
 20
-147.8841687998345
 30
0.0
 10
79.75568303127636
 20
-147.8841687998345
 30
0.0
 10
79.75568303127636
 20
-147.8841687998345
 30
0.0
 10
79.5314073151866
 20
-147.8841687998345
 30
0.0
 10
79.5314073151866
 20
-147.8841687998345
 30
0.0
  0
HATCH
  5
9C
330
97
100
AcDbEntity
  8
_U+30EC_U+30A4_U+30E4_U+30FC 1
 62
     7
420
 16777215
100
AcDbHatch
 10
0.0
 20
0.0
 30
0.0
210
0.0
220
0.0
230
1.0
  2
SOLID
 70
     1
 71
     0
 91
        1
 92
        1
 93
        1
 72
     4
 94
        3
 73
     0
 74
     1
 95
       26
 96
       22
 40
0.0
 40
0.0
 40
0.0
 40
0.0
 40
1.0
 40
1.0
 40
1.0
 40
2.0
 40
2.0
 40
2.0
 40
3.0
 40
3.0
 40
3.0
 40
4.0
 40
4.0
 40
4.0
 40
5.0
 40
5.0
 40
5.0
 40
6.0
 40
6.0
 40
6.0
 40
7.0
 40
7.0
 40
7.0
 40
7.0
 10
79.5314073151866
 20
-147.8841687998345
 10
79.5314073151866
 20
-147.8841687998345
 10
79.5314073151866
 20
-146.7800156968119
 10
79.5314073151866
 20
-146.7800156968119
 10
79.5314073151866
 20
-146.7800156968119
 10
79.20136716769966
 20
-146.7800156968119
 10
79.20136716769966
 20
-146.7800156968119
 10
79.20136716769966
 20
-146.7800156968119
 10
79.20136716769966
 20
-146.6318765909462
 10
79.20136716769966
 20
-146.6318765909462
 10
79.53347437247774
 20
-146.6170626803596
 10
79.57998316152862
 20
-146.4541096639073
 10
79.60961098270177
 20
-146.339732493797
 10
79.60961098270177
 20
-146.339732493797
 10
79.75568303127636
 20
-146.339732493797
 10
79.75568303127636
 20
-146.339732493797
 10
79.75568303127636
 20
-146.339732493797
 10
79.75568303127636
 20
-147.8841687998345
 10
79.75568303127636
 20
-147.8841687998345
 10
79.75568303127636
 20
-147.8841687998345
 10
79.5314073151866
 20
-147.8841687998345
 10
79.5314073151866
 20
-147.8841687998345
 97
        0
 97
        0
 75
     2
 76
     1
 98
        0
  0
SPLINE
  5
9D
330
97
100
AcDbEntity
  8
_U+30EC_U+30A4_U+30E4_U+30FC 1
370
     0
100
AcDbSpline
210
0.0
220
0.0
230
1.0
 70
    11
 71
     3
 72
    53
 73
    49
 74
     0
 42
0.0000000001
 43
0.0000000001
 12
1.0
 22
0.0
 32
0.0
 13
1.0
 23
0.0
 33
0.0
 40
0.0
 40
0.0
 40
0.0
 40
0.0
 40
1.0
 40
1.0
 40
1.0
 40
2.0
 40
2.0
 40
2.0
 40
3.0
 40
3.0
 40
3.0
 40
4.0
 40
4.0
 40
4.0
 40
5.0
 40
5.0
 40
5.0
 40
6.0
 40
6.0
 40
6.0
 40
7.0
 40
7.0
 40
7.0
 40
8.0
 40
8.0
 40
8.0
 40
9.0
 40
9.0
 40
9.0
 40
10.0
 40
10.0
 40
10.0
 40
11.0
 40
11.0
 40
11.0
 40
12.0
 40
12.0
 40
12.0
 40
13.0
 40
13.0
 40
13.0
 40
14.0
 40
14.0
 40
14.0
 40
15.0
 40
15.0
 40
15.0
 40
16.0
 40
16.0
 40
16.0
 40
16.0
 10
80.7378797541211
 20
-147.9348117034677
 30
0.0
 10
80.65967608660591
 20
-147.9348117034677
 30
0.0
 10
80.55804576979105
 20
-147.91793073559
 30
0.0
 10
80.45641545297617
 20
-147.8545409786614
 30
0.0
 10
80.28312715006811
 20
-147.7446424326819
 30
0.0
 10
80.26176755805956
 20
-147.6133842946939
 30
0.0
 10
80.24281953289069
 20
-147.5055528060056
 30
0.0
 10
80.24281953289069
 20
-147.5055528060056
 30
0.0
 10
80.4650281916893
 20
-147.5055528060056
 30
0.0
 10
80.4650281916893
 20
-147.5055528060056
 30
0.0
 10
80.51980520990477
 20
-147.7043348155045
 30
0.0
 10
80.64692923331049
 20
-147.7339626366776
 30
0.0
 10
80.73994681141224
 20
-147.7339626366776
 30
0.0
 10
80.87947317856485
 20
-147.7339626366776
 30
0.0
 10
81.0317463990129
 20
-147.6343993771539
 30
0.0
 10
81.0317463990129
 20
-147.4018554318995
 30
0.0
 10
81.0317463990129
 20
-147.1458848373455
 30
0.0
 10
80.85191241468286
 20
-147.0759493989949
 30
0.0
 10
80.73133407269911
 20
-147.0759493989949
 30
0.0
 10
80.69963919423482
 20
-147.0759493989949
 30
0.0
 10
80.55804576979105
 20
-147.0759493989949
 30
0.0
 10
80.4691623062716
 20
-147.2051404796918
 30
0.0
 10
80.4691623062716
 20
-147.2051404796918
 30
0.0
 10
80.29346243652385
 20
-147.1861924545229
 30
0.0
 10
80.29346243652385
 20
-147.1861924545229
 30
0.0
 10
80.29346243652385
 20
-147.1861924545229
 30
0.0
 10
80.4140407785076
 20
-146.339732493797
 30
0.0
 10
80.4140407785076
 20
-146.339732493797
 30
0.0
 10
80.4140407785076
 20
-146.339732493797
 30
0.0
 10
81.19263235817407
 20
-146.339732493797
 30
0.0
 10
81.19263235817407
 20
-146.339732493797
 30
0.0
 10
81.19263235817407
 20
-146.339732493797
 30
0.0
 10
81.19263235817407
 20
-146.5343803887136
 30
0.0
 10
81.19263235817407
 20
-146.5343803887136
 30
0.0
 10
81.19263235817407
 20
-146.5343803887136
 30
0.0
 10
80.57699379495992
 20
-146.5343803887136
 30
0.0
 10
80.57699379495992
 20
-146.5343803887136
 30
0.0
 10
80.57699379495992
 20
-146.5343803887136
 30
0.0
 10
80.51153698074017
 20
-146.9574381143023
 30
0.0
 10
80.51153698074017
 20
-146.9574381143023
 30
0.0
 10
80.57285968037762
 20
-146.9236761785469
 30
0.0
 10
80.65519746247509
 20
-146.8833685613695
 30
0.0
 10
80.77370874716769
 20
-146.8833685613695
 30
0.0
 10
81.0276122844306
 20
-146.8833685613695
 30
0.0
 10
81.26463485381579
 20
-147.0697482271215
 30
0.0
 10
81.26463485381579
 20
-147.3829074067307
 30
0.0
 10
81.26463485381579
 20
-147.7002007009222
 30
0.0
 10
81.04035913772603
 20
-147.9348117034677
 30
0.0
 10
80.7378797541211
 20
-147.9348117034677
 30
0.0
  0
HATCH
  5
9E
330
97
100
AcDbEntity
  8
_U+30EC_U+30A4_U+30E4_U+30FC 1
 62
     7
420
 16777215
100
AcDbHatch
 10
0.0
 20
0.0
 30
0.0
210
0.0
220
0.0
230
1.0
  2
SOLID
 70
     1
 71
     0
 91
        1
 92
        1
 93
        1
 72
     4
 94
        3
 73
     0
 74
     1
 95
       53
 96
       49
 40
0.0
 40
0.0
 40
0.0
 40
0.0
 40
1.0
 40
1.0
 40
1.0
 40
2.0
 40
2.0
 40
2.0
 40
3.0
 40
3.0
 40
3.0
 40
4.0
 40
4.0
 40
4.0
 40
5.0
 40
5.0
 40
5.0
 40
6.0
 40
6.0
 40
6.0
 40
7.0
 40
7.0
 40
7.0
 40
8.0
 40
8.0
 40
8.0
 40
9.0
 40
9.0
 40
9.0
 40
10.0
 40
10.0
 40
10.0
 40
11.0
 40
11.0
 40
11.0
 40
12.0
 40
12.0
 40
12.0
 40
13.0
 40
13.0
 40
13.0
 40
14.0
 40
14.0
 40
14.0
 40
15.0
 40
15.0
 40
15.0
 40
16.0
 40
16.0
 40
16.0
 40
16.0
 10
80.7378797541211
 20
-147.9348117034677
 10
80.65967608660591
 20
-147.9348117034677
 10
80.55804576979105
 20
-147.91793073559
 10
80.45641545297617
 20
-147.8545409786614
 10
80.28312715006811
 20
-147.7446424326819
 10
80.26176755805956
 20
-147.6133842946939
 10
80.24281953289069
 20
-147.5055528060056
 10
80.24281953289069
 20
-147.5055528060056
 10
80.4650281916893
 20
-147.5055528060056
 10
80.4650281916893
 20
-147.5055528060056
 10
80.51980520990477
 20
-147.7043348155045
 10
80.64692923331049
 20
-147.7339626366776
 10
80.73994681141224
 20
-147.7339626366776
 10
80.87947317856485
 20
-147.7339626366776
 10
81.0317463990129
 20
-147.6343993771539
 10
81.0317463990129
 20
-147.4018554318995
 10
81.0317463990129
 20
-147.1458848373455
 10
80.85191241468286
 20
-147.0759493989949
 10
80.73133407269911
 20
-147.0759493989949
 10
80.69963919423482
 20
-147.0759493989949
 10
80.55804576979105
 20
-147.0759493989949
 10
80.4691623062716
 20
-147.2051404796918
 10
80.4691623062716
 20
-147.2051404796918
 10
80.29346243652385
 20
-147.1861924545229
 10
80.29346243652385
 20
-147.1861924545229
 10
80.29346243652385
 20
-147.1861924545229
 10
80.4140407785076
 20
-146.339732493797
 10
80.4140407785076
 20
-146.339732493797
 10
80.4140407785076
 20
-146.339732493797
 10
81.19263235817407
 20
-146.339732493797
 10
81.19263235817407
 20
-146.339732493797
 10
81.19263235817407
 20
-146.339732493797
 10
81.19263235817407
 20
-146.5343803887136
 10
81.19263235817407
 20
-146.5343803887136
 10
81.19263235817407
 20
-146.5343803887136
 10
80.57699379495992
 20
-146.5343803887136
 10
80.57699379495992
 20
-146.5343803887136
 10
80.57699379495992
 20
-146.5343803887136
 10
80.51153698074017
 20
-146.9574381143023
 10
80.51153698074017
 20
-146.9574381143023
 10
80.57285968037762
 20
-146.9236761785469
 10
80.65519746247509
 20
-146.8833685613695
 10
80.77370874716769
 20
-146.8833685613695
 10
81.0276122844306
 20
-146.8833685613695
 10
81.26463485381579
 20
-147.0697482271215
 10
81.26463485381579
 20
-147.3829074067307
 10
81.26463485381579
 20
-147.7002007009222
 10
81.04035913772603
 20
-147.9348117034677
 10
80.7378797541211
 20
-147.9348117034677
 97
        0
 97
        0
 75
     2
 76
     1
 98
        0
  0
ENDBLK
  5
9A
330
97
100
AcDbEntity
  8
0
100
AcDbBlockEnd
  0
BLOCK
  5
A1
330
9F
100
AcDbEntity
  8
0
100
AcDbBlockBegin
  2
block 7
 70
     0
 10
0.0
 20
0.0
 30
0.0
  3
block 7
  1

  0
SPLINE
  5
A3
330
9F
100
AcDbEntity
  8
_U+30EC_U+30A4_U+30E4_U+30FC 1
370
     0
100
AcDbSpline
210
0.0
220
0.0
230
1.0
 70
    11
 71
     3
 72
    26
 73
    22
 74
     0
 42
0.0000000001
 43
0.0000000001
 12
1.0
 22
0.0
 32
0.0
 13
1.0
 23
0.0
 33
0.0
 40
0.0
 40
0.0
 40
0.0
 40
0.0
 40
1.0
 40
1.0
 40
1.0
 40
2.0
 40
2.0
 40
2.0
 40
3.0
 40
3.0
 40
3.0
 40
4.0
 40
4.0
 40
4.0
 40
5.0
 40
5.0
 40
5.0
 40
6.0
 40
6.0
 40
6.0
 40
7.0
 40
7.0
 40
7.0
 40
7.0
 10
91.93202851434339
 20
-147.8841687998345
 30
0.0
 10
91.93202851434339
 20
-147.8841687998345
 30
0.0
 10
91.93202851434339
 20
-146.7800156968119
 30
0.0
 10
91.93202851434339
 20
-146.7800156968119
 30
0.0
 10
91.93202851434339
 20
-146.7800156968119
 30
0.0
 10
91.60198836685645
 20
-146.7800156968119
 30
0.0
 10
91.60198836685645
 20
-146.7800156968119
 30
0.0
 10
91.60198836685645
 20
-146.7800156968119
 30
0.0
 10
91.60198836685645
 20
-146.6318765909462
 30
0.0
 10
91.60198836685645
 20
-146.6318765909462
 30
0.0
 10
91.93409557163453
 20
-146.6170626803596
 30
0.0
 10
91.9806043606854
 20
-146.4541096639073
 30
0.0
 10
92.01023218185856
 20
-146.339732493797
 30
0.0
 10
92.01023218185856
 20
-146.339732493797
 30
0.0
 10
92.15630423043315
 20
-146.339732493797
 30
0.0
 10
92.15630423043315
 20
-146.339732493797
 30
0.0
 10
92.15630423043315
 20
-146.339732493797
 30
0.0
 10
92.15630423043315
 20
-147.8841687998345
 30
0.0
 10
92.15630423043315
 20
-147.8841687998345
 30
0.0
 10
92.15630423043315
 20
-147.8841687998345
 30
0.0
 10
91.93202851434339
 20
-147.8841687998345
 30
0.0
 10
91.93202851434339
 20
-147.8841687998345
 30
0.0
  0
HATCH
  5
A4
330
9F
100
AcDbEntity
  8
_U+30EC_U+30A4_U+30E4_U+30FC 1
 62
     7
420
 16777215
100
AcDbHatch
 10
0.0
 20
0.0
 30
0.0
210
0.0
220
0.0
230
1.0
  2
SOLID
 70
     1
 71
     0
 91
        1
 92
        1
 93
        1
 72
     4
 94
        3
 73
     0
 74
     1
 95
       26
 96
       22
 40
0.0
 40
0.0
 40
0.0
 40
0.0
 40
1.0
 40
1.0
 40
1.0
 40
2.0
 40
2.0
 40
2.0
 40
3.0
 40
3.0
 40
3.0
 40
4.0
 40
4.0
 40
4.0
 40
5.0
 40
5.0
 40
5.0
 40
6.0
 40
6.0
 40
6.0
 40
7.0
 40
7.0
 40
7.0
 40
7.0
 10
91.93202851434339
 20
-147.8841687998345
 10
91.93202851434339
 20
-147.8841687998345
 10
91.93202851434339
 20
-146.7800156968119
 10
91.93202851434339
 20
-146.7800156968119
 10
91.93202851434339
 20
-146.7800156968119
 10
91.60198836685645
 20
-146.7800156968119
 10
91.60198836685645
 20
-146.7800156968119
 10
91.60198836685645
 20
-146.7800156968119
 10
91.60198836685645
 20
-146.6318765909462
 10
91.60198836685645
 20
-146.6318765909462
 10
91.93409557163453
 20
-146.6170626803596
 10
91.9806043606854
 20
-146.4541096639073
 10
92.01023218185856
 20
-146.339732493797
 10
92.01023218185856
 20
-146.339732493797
 10
92.15630423043315
 20
-146.339732493797
 10
92.15630423043315
 20
-146.339732493797
 10
92.15630423043315
 20
-146.339732493797
 10
92.15630423043315
 20
-147.8841687998345
 10
92.15630423043315
 20
-147.8841687998345
 10
92.15630423043315
 20
-147.8841687998345
 10
91.93202851434339
 20
-147.8841687998345
 10
91.93202851434339
 20
-147.8841687998345
 97
        0
 97
        0
 75
     2
 76
     1
 98
        0
  0
SPLINE
  5
A5
330
9F
100
AcDbEntity
  8
_U+30EC_U+30A4_U+30E4_U+30FC 1
370
     0
100
AcDbSpline
210
0.0
220
0.0
230
1.0
 70
    11
 71
     3
 72
    29
 73
    25
 74
     0
 42
0.0000000001
 43
0.0000000001
 12
1.0
 22
0.0
 32
0.0
 13
1.0
 23
0.0
 33
0.0
 40
0.0
 40
0.0
 40
0.0
 40
0.0
 40
1.0
 40
1.0
 40
1.0
 40
2.0
 40
2.0
 40
2.0
 40
3.0
 40
3.0
 40
3.0
 40
4.0
 40
4.0
 40
4.0
 40
5.0
 40
5.0
 40
5.0
 40
6.0
 40
6.0
 40
6.0
 40
7.0
 40
7.0
 40
7.0
 40
8.0
 40
8.0
 40
8.0
 40
8.0
 10
93.5553575069931
 20
-147.7064018727956
 30
0.0
 10
93.44718150875626
 20
-147.9158636782988
 30
0.0
 10
93.2738932058482
 20
-147.9348117034677
 30
0.0
 10
93.15744897844675
 20
-147.9348117034677
 30
0.0
 10
92.99656301928559
 20
-147.9348117034677
 30
0.0
 10
92.85496959484182
 20
-147.8883029144168
 30
0.0
 10
92.75988495944893
 20
-147.7064018727956
 30
0.0
 10
92.6561875853429
 20
-147.511753977879
 30
0.0
 10
92.63723956017402
 20
-147.2747314084938
 30
0.0
 10
92.63723956017402
 20
-147.11212290159
 30
0.0
 10
92.63723956017402
 20
-146.9681179103066
 30
0.0
 10
92.65412052805175
 20
-146.7162814303348
 30
0.0
 10
92.75988495944893
 20
-146.5174994208359
 30
0.0
 10
92.86771644813724
 20
-146.3145832967547
 30
0.0
 10
93.02860240729841
 20
-146.291156647455
 30
0.0
 10
93.15744897844675
 20
-146.291156647455
 30
0.0
 10
93.31626788031677
 20
-146.291156647455
 30
0.0
 10
93.45992836205168
 20
-146.3355983792147
 30
0.0
 10
93.5553575069931
 20
-146.5174994208359
 30
0.0
 10
93.6545762569683
 20
-146.7100802584614
 30
0.0
 10
93.678002906268
 20
-146.9384900891334
 30
0.0
 10
93.678002906268
 20
-147.11212290159
 30
0.0
 10
93.678002906268
 20
-147.2833441472069
 30
0.0
 10
93.65664331425945
 20
-147.5138210351702
 30
0.0
 10
93.5553575069931
 20
-147.7064018727956
 30
0.0
  0
SPLINE
  5
A6
330
9F
100
AcDbEntity
  8
_U+30EC_U+30A4_U+30E4_U+30FC 1
370
     0
100
AcDbSpline
210
0.0
220
0.0
230
1.0
 70
    11
 71
     3
 72
    17
 73
    13
 74
     0
 42
0.0000000001
 43
0.0000000001
 12
1.0
 22
0.0
 32
0.0
 13
1.0
 23
0.0
 33
0.0
 40
0.0
 40
0.0
 40
0.0
 40
0.0
 40
1.0
 40
1.0
 40
1.0
 40
2.0
 40
2.0
 40
2.0
 40
3.0
 40
3.0
 40
3.0
 40
4.0
 40
4.0
 40
4.0
 40
4.0
 10
93.15744897844675
 20
-146.4837374850805
 30
0.0
 10
92.90802406531466
 20
-146.4837374850805
 30
0.0
 10
92.86117076671526
 20
-146.7672688435165
 30
0.0
 10
92.86117076671526
 20
-147.11212290159
 30
0.0
 10
92.86117076671526
 20
-147.4314832530727
 30
0.0
 10
92.8973442693104
 20
-147.7401638085511
 30
0.0
 10
93.15744897844675
 20
-147.7401638085511
 30
0.0
 10
93.40515134383622
 20
-147.7401638085511
 30
0.0
 10
93.45372719017824
 20
-147.4590440169547
 30
0.0
 10
93.45372719017824
 20
-147.11212290159
 30
0.0
 10
93.45372719017824
 20
-146.7924180405589
 30
0.0
 10
93.41548663029197
 20
-146.4837374850805
 30
0.0
 10
93.15744897844675
 20
-146.4837374850805
 30
0.0
  0
HATCH
  5
A7
330
9F
100
AcDbEntity
  8
_U+30EC_U+30A4_U+30E4_U+30FC 1
 62
     7
420
 16777215
100
AcDbHatch
 10
0.0
 20
0.0
 30
0.0
210
0.0
220
0.0
230
1.0
  2
SOLID
 70
     1
 71
     0
 91
        2
 92
        1
 93
        1
 72
     4
 94
        3
 73
     0
 74
     1
 95
       29
 96
       25
 40
0.0
 40
0.0
 40
0.0
 40
0.0
 40
1.0
 40
1.0
 40
1.0
 40
2.0
 40
2.0
 40
2.0
 40
3.0
 40
3.0
 40
3.0
 40
4.0
 40
4.0
 40
4.0
 40
5.0
 40
5.0
 40
5.0
 40
6.0
 40
6.0
 40
6.0
 40
7.0
 40
7.0
 40
7.0
 40
8.0
 40
8.0
 40
8.0
 40
8.0
 10
93.5553575069931
 20
-147.7064018727956
 10
93.44718150875626
 20
-147.9158636782988
 10
93.2738932058482
 20
-147.9348117034677
 10
93.15744897844675
 20
-147.9348117034677
 10
92.99656301928559
 20
-147.9348117034677
 10
92.85496959484182
 20
-147.8883029144168
 10
92.75988495944893
 20
-147.7064018727956
 10
92.6561875853429
 20
-147.511753977879
 10
92.63723956017402
 20
-147.2747314084938
 10
92.63723956017402
 20
-147.11212290159
 10
92.63723956017402
 20
-146.9681179103066
 10
92.65412052805175
 20
-146.7162814303348
 10
92.75988495944893
 20
-146.5174994208359
 10
92.86771644813724
 20
-146.3145832967547
 10
93.02860240729841
 20
-146.291156647455
 10
93.15744897844675
 20
-146.291156647455
 10
93.31626788031677
 20
-146.291156647455
 10
93.45992836205168
 20
-146.3355983792147
 10
93.5553575069931
 20
-146.5174994208359
 10
93.6545762569683
 20
-146.7100802584614
 10
93.678002906268
 20
-146.9384900891334
 10
93.678002906268
 20
-147.11212290159
 10
93.678002906268
 20
-147.2833441472069
 10
93.65664331425945
 20
-147.5138210351702
 10
93.5553575069931
 20
-147.7064018727956
 97
        0
 97
        0
 92
        1
 93
        1
 72
     4
 94
        3
 73
     0
 74
     1
 95
       17
 96
       13
 40
0.0
 40
0.0
 40
0.0
 40
0.0
 40
1.0
 40
1.0
 40
1.0
 40
2.0
 40
2.0
 40
2.0
 40
3.0
 40
3.0
 40
3.0
 40
4.0
 40
4.0
 40
4.0
 40
4.0
 10
93.15744897844675
 20
-146.4837374850805
 10
92.90802406531466
 20
-146.4837374850805
 10
92.86117076671526
 20
-146.7672688435165
 10
92.86117076671526
 20
-147.11212290159
 10
92.86117076671526
 20
-147.4314832530727
 10
92.8973442693104
 20
-147.7401638085511
 10
93.15744897844675
 20
-147.7401638085511
 10
93.40515134383622
 20
-147.7401638085511
 10
93.45372719017824
 20
-147.4590440169547
 10
93.45372719017824
 20
-147.11212290159
 10
93.45372719017824
 20
-146.7924180405589
 10
93.41548663029197
 20
-146.4837374850805
 10
93.15744897844675
 20
-146.4837374850805
 97
        0
 97
        0
 75
     2
 76
     1
 98
        0
  0
ENDBLK
  5
A2
330
9F
100
AcDbEntity
  8
0
100
AcDbBlockEnd
  0
BLOCK
  5
AA
330
A8
100
AcDbEntity
  8
0
100
AcDbBlockBegin
  2
block 8
 70
     0
 10
0.0
 20
0.0
 30
0.0
  3
block 8
  1

  0
SPLINE
  5
AC
330
A8
100
AcDbEntity
  8
_U+30EC_U+30A4_U+30E4_U+30FC 1
370
     0
100
AcDbSpline
210
0.0
220
0.0
230
1.0
 70
    11
 71
     3
 72
    26
 73
    22
 74
     0
 42
0.0000000001
 43
0.0000000001
 12
1.0
 22
0.0
 32
0.0
 13
1.0
 23
0.0
 33
0.0
 40
0.0
 40
0.0
 40
0.0
 40
0.0
 40
1.0
 40
1.0
 40
1.0
 40
2.0
 40
2.0
 40
2.0
 40
3.0
 40
3.0
 40
3.0
 40
4.0
 40
4.0
 40
4.0
 40
5.0
 40
5.0
 40
5.0
 40
6.0
 40
6.0
 40
6.0
 40
7.0
 40
7.0
 40
7.0
 40
7.0
 10
100.2143825704325
 20
-147.8841687998345
 30
0.0
 10
100.2143825704325
 20
-147.8841687998345
 30
0.0
 10
100.2143825704325
 20
-146.7800156968119
 30
0.0
 10
100.2143825704325
 20
-146.7800156968119
 30
0.0
 10
100.2143825704325
 20
-146.7800156968119
 30
0.0
 10
99.88434242294558
 20
-146.7800156968119
 30
0.0
 10
99.88434242294558
 20
-146.7800156968119
 30
0.0
 10
99.88434242294558
 20
-146.7800156968119
 30
0.0
 10
99.88434242294558
 20
-146.6318765909462
 30
0.0
 10
99.88434242294558
 20
-146.6318765909462
 30
0.0
 10
100.2164496277237
 20
-146.6170626803596
 30
0.0
 10
100.2629584167745
 20
-146.4541096639073
 30
0.0
 10
100.2925862379477
 20
-146.339732493797
 30
0.0
 10
100.2925862379477
 20
-146.339732493797
 30
0.0
 10
100.4386582865223
 20
-146.339732493797
 30
0.0
 10
100.4386582865223
 20
-146.339732493797
 30
0.0
 10
100.4386582865223
 20
-146.339732493797
 30
0.0
 10
100.4386582865223
 20
-147.8841687998345
 30
0.0
 10
100.4386582865223
 20
-147.8841687998345
 30
0.0
 10
100.4386582865223
 20
-147.8841687998345
 30
0.0
 10
100.2143825704325
 20
-147.8841687998345
 30
0.0
 10
100.2143825704325
 20
-147.8841687998345
 30
0.0
  0
HATCH
  5
AD
330
A8
100
AcDbEntity
  8
_U+30EC_U+30A4_U+30E4_U+30FC 1
 62
     7
420
 16777215
100
AcDbHatch
 10
0.0
 20
0.0
 30
0.0
210
0.0
220
0.0
230
1.0
  2
SOLID
 70
     1
 71
     0
 91
        1
 92
        1
 93
        1
 72
     4
 94
        3
 73
     0
 74
     1
 95
       26
 96
       22
 40
0.0
 40
0.0
 40
0.0
 40
0.0
 40
1.0
 40
1.0
 40
1.0
 40
2.0
 40
2.0
 40
2.0
 40
3.0
 40
3.0
 40
3.0
 40
4.0
 40
4.0
 40
4.0
 40
5.0
 40
5.0
 40
5.0
 40
6.0
 40
6.0
 40
6.0
 40
7.0
 40
7.0
 40
7.0
 40
7.0
 10
100.2143825704325
 20
-147.8841687998345
 10
100.2143825704325
 20
-147.8841687998345
 10
100.2143825704325
 20
-146.7800156968119
 10
100.2143825704325
 20
-146.7800156968119
 10
100.2143825704325
 20
-146.7800156968119
 10
99.88434242294558
 20
-146.7800156968119
 10
99.88434242294558
 20
-146.7800156968119
 10
99.88434242294558
 20
-146.7800156968119
 10
99.88434242294558
 20
-146.6318765909462
 10
99.88434242294558
 20
-146.6318765909462
 10
100.2164496277237
 20
-146.6170626803596
 10
100.2629584167745
 20
-146.4541096639073
 10
100.2925862379477
 20
-146.339732493797
 10
100.2925862379477
 20
-146.339732493797
 10
100.4386582865223
 20
-146.339732493797
 10
100.4386582865223
 20
-146.339732493797
 10
100.4386582865223
 20
-146.339732493797
 10
100.4386582865223
 20
-147.8841687998345
 10
100.4386582865223
 20
-147.8841687998345
 10
100.4386582865223
 20
-147.8841687998345
 10
100.2143825704325
 20
-147.8841687998345
 10
100.2143825704325
 20
-147.8841687998345
 97
        0
 97
        0
 75
     2
 76
     1
 98
        0
  0
POLYLINE
  5
AE
330
A8
100
AcDbEntity
  8
_U+30EC_U+30A4_U+30E4_U+30FC 1
370
     0
100
AcDb2dPolyline
 66
     1
 10
0.0
 20
0.0
 30
0.0
  0
VERTEX
  5
AF
330
AE
100
AcDbEntity
  8
_U+30EC_U+30A4_U+30E4_U+30FC 1
370
     0
100
AcDbVertex
100
AcDb2dVertex
 10
100.9998643410695
 20
-147.8841687998345
 30
0.0
  0
VERTEX
  5
B0
330
AE
100
AcDbEntity
  8
_U+30EC_U+30A4_U+30E4_U+30FC 1
370
     0
100
AcDbVertex
100
AcDb2dVertex
 10
100.9998643410695
 20
-147.6323323198628
 30
0.0
  0
VERTEX
  5
B1
330
AE
100
AcDbEntity
  8
_U+30EC_U+30A4_U+30E4_U+30FC 1
370
     0
100
AcDbVertex
100
AcDb2dVertex
 10
101.2517008210412
 20
-147.6323323198628
 30
0.0
  0
VERTEX
  5
B2
330
AE
100
AcDbEntity
  8
_U+30EC_U+30A4_U+30E4_U+30FC 1
370
     0
100
AcDbVertex
100
AcDb2dVertex
 10
101.2517008210412
 20
-147.8841687998345
 30
0.0
  0
VERTEX
  5
B3
330
AE
100
AcDbEntity
  8
_U+30EC_U+30A4_U+30E4_U+30FC 1
370
     0
100
AcDbVertex
100
AcDb2dVertex
 10
100.9998643410695
 20
-147.8841687998345
 30
0.0
  0
SEQEND
  5
B4
330
AE
100
AcDbEntity
  8
_U+30EC_U+30A4_U+30E4_U+30FC 1
370
     0
  0
HATCH
  5
B5
330
A8
100
AcDbEntity
  8
_U+30EC_U+30A4_U+30E4_U+30FC 1
 62
     7
420
 16777215
100
AcDbHatch
 10
0.0
 20
0.0
 30
0.0
210
0.0
220
0.0
230
1.0
  2
SOLID
 70
     1
 71
     0
 91
        1
 92
        1
 93
        4
 72
     1
 10
100.9998643410695
 20
-147.8841687998345
 11
100.9998643410695
 21
-147.6323323198628
 72
     1
 10
100.9998643410695
 20
-147.6323323198628
 11
101.2517008210412
 21
-147.6323323198628
 72
     1
 10
101.2517008210412
 20
-147.6323323198628
 11
101.2517008210412
 21
-147.8841687998345
 72
     1
 10
101.2517008210412
 20
-147.8841687998345
 11
100.9998643410695
 21
-147.8841687998345
 97
        0
 75
     2
 76
     1
 98
        0
  0
SPLINE
  5
B6
330
A8
100
AcDbEntity
  8
_U+30EC_U+30A4_U+30E4_U+30FC 1
370
     0
100
AcDbSpline
210
0.0
220
0.0
230
1.0
 70
    11
 71
     3
 72
    53
 73
    49
 74
     0
 42
0.0000000001
 43
0.0000000001
 12
1.0
 22
0.0
 32
0.0
 13
1.0
 23
0.0
 33
0.0
 40
0.0
 40
0.0
 40
0.0
 40
0.0
 40
1.0
 40
1.0
 40
1.0
 40
2.0
 40
2.0
 40
2.0
 40
3.0
 40
3.0
 40
3.0
 40
4.0
 40
4.0
 40
4.0
 40
5.0
 40
5.0
 40
5.0
 40
6.0
 40
6.0
 40
6.0
 40
7.0
 40
7.0
 40
7.0
 40
8.0
 40
8.0
 40
8.0
 40
9.0
 40
9.0
 40
9.0
 40
10.0
 40
10.0
 40
10.0
 40
11.0
 40
11.0
 40
11.0
 40
12.0
 40
12.0
 40
12.0
 40
13.0
 40
13.0
 40
13.0
 40
14.0
 40
14.0
 40
14.0
 40
15.0
 40
15.0
 40
15.0
 40
16.0
 40
16.0
 40
16.0
 40
16.0
 10
101.9689697010703
 20
-147.9348117034677
 30
0.0
 10
101.8907660335551
 20
-147.9348117034677
 30
0.0
 10
101.7891357167402
 20
-147.91793073559
 30
0.0
 10
101.6875053999254
 20
-147.8545409786614
 30
0.0
 10
101.5142170970173
 20
-147.7446424326819
 30
0.0
 10
101.4928575050087
 20
-147.6133842946939
 30
0.0
 10
101.4739094798399
 20
-147.5055528060056
 30
0.0
 10
101.4739094798399
 20
-147.5055528060056
 30
0.0
 10
101.6961181386385
 20
-147.5055528060056
 30
0.0
 10
101.6961181386385
 20
-147.5055528060056
 30
0.0
 10
101.7508951568539
 20
-147.7043348155045
 30
0.0
 10
101.8780191802597
 20
-147.7339626366776
 30
0.0
 10
101.9710367583614
 20
-147.7339626366776
 30
0.0
 10
102.110563125514
 20
-147.7339626366776
 30
0.0
 10
102.2628363459621
 20
-147.6343993771539
 30
0.0
 10
102.2628363459621
 20
-147.4018554318995
 30
0.0
 10
102.2628363459621
 20
-147.1458848373455
 30
0.0
 10
102.083002361632
 20
-147.0759493989949
 30
0.0
 10
101.9624240196483
 20
-147.0759493989949
 30
0.0
 10
101.930729141184
 20
-147.0759493989949
 30
0.0
 10
101.7891357167402
 20
-147.0759493989949
 30
0.0
 10
101.7002522532208
 20
-147.2051404796918
 30
0.0
 10
101.7002522532208
 20
-147.2051404796918
 30
0.0
 10
101.524552383473
 20
-147.1861924545229
 30
0.0
 10
101.524552383473
 20
-147.1861924545229
 30
0.0
 10
101.524552383473
 20
-147.1861924545229
 30
0.0
 10
101.6451307254568
 20
-146.339732493797
 30
0.0
 10
101.6451307254568
 20
-146.339732493797
 30
0.0
 10
101.6451307254568
 20
-146.339732493797
 30
0.0
 10
102.4237223051232
 20
-146.339732493797
 30
0.0
 10
102.4237223051232
 20
-146.339732493797
 30
0.0
 10
102.4237223051232
 20
-146.339732493797
 30
0.0
 10
102.4237223051232
 20
-146.5343803887136
 30
0.0
 10
102.4237223051232
 20
-146.5343803887136
 30
0.0
 10
102.4237223051232
 20
-146.5343803887136
 30
0.0
 10
101.8080837419091
 20
-146.5343803887136
 30
0.0
 10
101.8080837419091
 20
-146.5343803887136
 30
0.0
 10
101.8080837419091
 20
-146.5343803887136
 30
0.0
 10
101.7426269276893
 20
-146.9574381143023
 30
0.0
 10
101.7426269276893
 20
-146.9574381143023
 30
0.0
 10
101.8039496273268
 20
-146.9236761785469
 30
0.0
 10
101.8862874094243
 20
-146.8833685613695
 30
0.0
 10
102.0047986941169
 20
-146.8833685613695
 30
0.0
 10
102.2587022313798
 20
-146.8833685613695
 30
0.0
 10
102.495724800765
 20
-147.0697482271215
 30
0.0
 10
102.495724800765
 20
-147.3829074067307
 30
0.0
 10
102.495724800765
 20
-147.7002007009222
 30
0.0
 10
102.2714490846752
 20
-147.9348117034677
 30
0.0
 10
101.9689697010703
 20
-147.9348117034677
 30
0.0
  0
HATCH
  5
B7
330
A8
100
AcDbEntity
  8
_U+30EC_U+30A4_U+30E4_U+30FC 1
 62
     7
420
 16777215
100
AcDbHatch
 10
0.0
 20
0.0
 30
0.0
210
0.0
220
0.0
230
1.0
  2
SOLID
 70
     1
 71
     0
 91
        1
 92
        1
 93
        1
 72
     4
 94
        3
 73
     0
 74
     1
 95
       53
 96
       49
 40
0.0
 40
0.0
 40
0.0
 40
0.0
 40
1.0
 40
1.0
 40
1.0
 40
2.0
 40
2.0
 40
2.0
 40
3.0
 40
3.0
 40
3.0
 40
4.0
 40
4.0
 40
4.0
 40
5.0
 40
5.0
 40
5.0
 40
6.0
 40
6.0
 40
6.0
 40
7.0
 40
7.0
 40
7.0
 40
8.0
 40
8.0
 40
8.0
 40
9.0
 40
9.0
 40
9.0
 40
10.0
 40
10.0
 40
10.0
 40
11.0
 40
11.0
 40
11.0
 40
12.0
 40
12.0
 40
12.0
 40
13.0
 40
13.0
 40
13.0
 40
14.0
 40
14.0
 40
14.0
 40
15.0
 40
15.0
 40
15.0
 40
16.0
 40
16.0
 40
16.0
 40
16.0
 10
101.9689697010703
 20
-147.9348117034677
 10
101.8907660335551
 20
-147.9348117034677
 10
101.7891357167402
 20
-147.91793073559
 10
101.6875053999254
 20
-147.8545409786614
 10
101.5142170970173
 20
-147.7446424326819
 10
101.4928575050087
 20
-147.6133842946939
 10
101.4739094798399
 20
-147.5055528060056
 10
101.4739094798399
 20
-147.5055528060056
 10
101.6961181386385
 20
-147.5055528060056
 10
101.6961181386385
 20
-147.5055528060056
 10
101.7508951568539
 20
-147.7043348155045
 10
101.8780191802597
 20
-147.7339626366776
 10
101.9710367583614
 20
-147.7339626366776
 10
102.110563125514
 20
-147.7339626366776
 10
102.2628363459621
 20
-147.6343993771539
 10
102.2628363459621
 20
-147.4018554318995
 10
102.2628363459621
 20
-147.1458848373455
 10
102.083002361632
 20
-147.0759493989949
 10
101.9624240196483
 20
-147.0759493989949
 10
101.930729141184
 20
-147.0759493989949
 10
101.7891357167402
 20
-147.0759493989949
 10
101.7002522532208
 20
-147.2051404796918
 10
101.7002522532208
 20
-147.2051404796918
 10
101.524552383473
 20
-147.1861924545229
 10
101.524552383473
 20
-147.1861924545229
 10
101.524552383473
 20
-147.1861924545229
 10
101.6451307254568
 20
-146.339732493797
 10
101.6451307254568
 20
-146.339732493797
 10
101.6451307254568
 20
-146.339732493797
 10
102.4237223051232
 20
-146.339732493797
 10
102.4237223051232
 20
-146.339732493797
 10
102.4237223051232
 20
-146.339732493797
 10
102.4237223051232
 20
-146.5343803887136
 10
102.4237223051232
 20
-146.5343803887136
 10
102.4237223051232
 20
-146.5343803887136
 10
101.8080837419091
 20
-146.5343803887136
 10
101.8080837419091
 20
-146.5343803887136
 10
101.8080837419091
 20
-146.5343803887136
 10
101.7426269276893
 20
-146.9574381143023
 10
101.7426269276893
 20
-146.9574381143023
 10
101.8039496273268
 20
-146.9236761785469
 10
101.8862874094243
 20
-146.8833685613695
 10
102.0047986941169
 20
-146.8833685613695
 10
102.2587022313798
 20
-146.8833685613695
 10
102.495724800765
 20
-147.0697482271215
 10
102.495724800765
 20
-147.3829074067307
 10
102.495724800765
 20
-147.7002007009222
 10
102.2714490846752
 20
-147.9348117034677
 10
101.9689697010703
 20
-147.9348117034677
 97
        0
 97
        0
 75
     2
 76
     1
 98
        0
  0
ENDBLK
  5
AB
330
A8
100
AcDbEntity
  8
0
100
AcDbBlockEnd
  0
BLOCK
  5
BB
330
B9
100
AcDbEntity
  8
0
100
AcDbBlockBegin
  2
block 9
 70
     0
 10
0.0
 20
0.0
 30
0.0
  3
block 9
  1

  0
SPLINE
  5
BD
330
B9
100
AcDbEntity
  8
_U+30EC_U+30A4_U+30E4_U+30FC 1
370
     0
100
AcDbSpline
210
0.0
220
0.0
230
1.0
 70
    11
 71
     3
 72
    44
 73
    40
 74
     0
 42
0.0000000001
 43
0.0000000001
 12
1.0
 22
0.0
 32
0.0
 13
1.0
 23
0.0
 33
0.0
 40
0.0
 40
0.0
 40
0.0
 40
0.0
 40
1.0
 40
1.0
 40
1.0
 40
2.0
 40
2.0
 40
2.0
 40
3.0
 40
3.0
 40
3.0
 40
4.0
 40
4.0
 40
4.0
 40
5.0
 40
5.0
 40
5.0
 40
6.0
 40
6.0
 40
6.0
 40
7.0
 40
7.0
 40
7.0
 40
8.0
 40
8.0
 40
8.0
 40
9.0
 40
9.0
 40
9.0
 40
10.0
 40
10.0
 40
10.0
 40
11.0
 40
11.0
 40
11.0
 40
12.0
 40
12.0
 40
12.0
 40
13.0
 40
13.0
 40
13.0
 40
13.0
 10
67.8463324483162
 20
-149.4165472716736
 30
0.0
 10
67.8229057990165
 20
-149.3721055399139
 30
0.0
 10
67.80189071655647
 20
-149.3193955789896
 30
0.0
 10
67.79965140449106
 20
-149.0885741814779
 30
0.0
 10
67.79551728990876
 20
-148.8453504402192
 30
0.0
 10
67.73626164756247
 20
-148.7757595114172
 30
0.0
 10
67.55849472052357
 20
-148.7757595114172
 30
0.0
 10
67.55849472052357
 20
-148.7757595114172
 30
0.0
 10
67.15025090552147
 20
-148.7757595114172
 30
0.0
 10
67.15025090552147
 20
-148.7757595114172
 30
0.0
 10
67.15025090552147
 20
-148.7757595114172
 30
0.0
 10
67.15025090552147
 20
-149.4165472716736
 30
0.0
 10
67.15025090552147
 20
-149.4165472716736
 30
0.0
 10
67.15025090552147
 20
-149.4165472716736
 30
0.0
 10
66.9154676482017
 20
-149.4165472716736
 30
0.0
 10
66.9154676482017
 20
-149.4165472716736
 30
0.0
 10
66.9154676482017
 20
-149.4165472716736
 30
0.0
 10
66.9154676482017
 20
-147.8724554751847
 30
0.0
 10
66.9154676482017
 20
-147.8724554751847
 30
0.0
 10
66.9154676482017
 20
-147.8724554751847
 30
0.0
 10
67.59018959898788
 20
-147.8724554751847
 30
0.0
 10
67.59018959898788
 20
-147.8724554751847
 30
0.0
 10
67.89697535194937
 20
-147.8724554751847
 30
0.0
 10
68.06423473775826
 20
-148.0433322112531
 30
0.0
 10
68.06423473775826
 20
-148.2996473153557
 30
0.0
 10
68.06423473775826
 20
-148.3502902189888
 30
0.0
 10
68.05562199904513
 20
-148.4326280010863
 30
0.0
 10
68.0111802672854
 20
-148.5132432354411
 30
0.0
 10
67.95209687971337
 20
-148.6169406095472
 30
0.0
 10
67.88646781071935
 20
-148.635888634716
 30
0.0
 10
67.82514511108191
 20
-148.6527696025938
 30
0.0
 10
67.96260442094338
 20
-148.6951442770623
 30
0.0
 10
68.03030054722853
 20
-148.7440646329529
 30
0.0
 10
68.0346069165851
 20
-149.0589463603047
 30
0.0
 10
68.0387410311674
 20
-149.3297308654454
 30
0.0
 10
68.07474227898827
 20
-149.3614257439096
 30
0.0
 10
68.14243840527342
 20
-149.4165472716736
 30
0.0
 10
68.14243840527342
 20
-149.4165472716736
 30
0.0
 10
67.8463324483162
 20
-149.4165472716736
 30
0.0
 10
67.8463324483162
 20
-149.4165472716736
 30
0.0
  0
SPLINE
  5
BE
330
B9
100
AcDbEntity
  8
_U+30EC_U+30A4_U+30E4_U+30FC 1
370
     0
100
AcDbSpline
210
0.0
220
0.0
230
1.0
 70
    11
 71
     3
 72
    20
 73
    16
 74
     0
 42
0.0000000001
 43
0.0000000001
 12
1.0
 22
0.0
 32
0.0
 13
1.0
 23
0.0
 33
0.0
 40
0.0
 40
0.0
 40
0.0
 40
0.0
 40
1.0
 40
1.0
 40
1.0
 40
2.0
 40
2.0
 40
2.0
 40
3.0
 40
3.0
 40
3.0
 40
4.0
 40
4.0
 40
4.0
 40
5.0
 40
5.0
 40
5.0
 40
5.0
 10
67.59449596834443
 20
-148.083984337979
 30
0.0
 10
67.59449596834443
 20
-148.083984337979
 30
0.0
 10
67.15025090552147
 20
-148.083984337979
 30
0.0
 10
67.15025090552147
 20
-148.083984337979
 30
0.0
 10
67.15025090552147
 20
-148.083984337979
 30
0.0
 10
67.15025090552147
 20
-148.5642306486228
 30
0.0
 10
67.15025090552147
 20
-148.5642306486228
 30
0.0
 10
67.15025090552147
 20
-148.5642306486228
 30
0.0
 10
67.59242891105329
 20
-148.5642306486228
 30
0.0
 10
67.59242891105329
 20
-148.5642306486228
 30
0.0
 10
67.69181991580274
 20
-148.5642306486228
 30
0.0
 10
67.82721216837307
 20
-148.4877495288503
 30
0.0
 10
67.82721216837307
 20
-148.3165282832334
 30
0.0
 10
67.82721216837307
 20
-148.2383246157182
 30
0.0
 10
67.79345023261762
 20
-148.083984337979
 30
0.0
 10
67.59449596834443
 20
-148.083984337979
 30
0.0
  0
HATCH
  5
BF
330
B9
100
AcDbEntity
  8
_U+30EC_U+30A4_U+30E4_U+30FC 1
 62
     7
420
 16777215
100
AcDbHatch
 10
0.0
 20
0.0
 30
0.0
210
0.0
220
0.0
230
1.0
  2
SOLID
 70
     1
 71
     0
 91
        2
 92
        1
 93
        1
 72
     4
 94
        3
 73
     0
 74
     1
 95
       44
 96
       40
 40
0.0
 40
0.0
 40
0.0
 40
0.0
 40
1.0
 40
1.0
 40
1.0
 40
2.0
 40
2.0
 40
2.0
 40
3.0
 40
3.0
 40
3.0
 40
4.0
 40
4.0
 40
4.0
 40
5.0
 40
5.0
 40
5.0
 40
6.0
 40
6.0
 40
6.0
 40
7.0
 40
7.0
 40
7.0
 40
8.0
 40
8.0
 40
8.0
 40
9.0
 40
9.0
 40
9.0
 40
10.0
 40
10.0
 40
10.0
 40
11.0
 40
11.0
 40
11.0
 40
12.0
 40
12.0
 40
12.0
 40
13.0
 40
13.0
 40
13.0
 40
13.0
 10
67.8463324483162
 20
-149.4165472716736
 10
67.8229057990165
 20
-149.3721055399139
 10
67.80189071655647
 20
-149.3193955789896
 10
67.79965140449106
 20
-149.0885741814779
 10
67.79551728990876
 20
-148.8453504402192
 10
67.73626164756247
 20
-148.7757595114172
 10
67.55849472052357
 20
-148.7757595114172
 10
67.55849472052357
 20
-148.7757595114172
 10
67.15025090552147
 20
-148.7757595114172
 10
67.15025090552147
 20
-148.7757595114172
 10
67.15025090552147
 20
-148.7757595114172
 10
67.15025090552147
 20
-149.4165472716736
 10
67.15025090552147
 20
-149.4165472716736
 10
67.15025090552147
 20
-149.4165472716736
 10
66.9154676482017
 20
-149.4165472716736
 10
66.9154676482017
 20
-149.4165472716736
 10
66.9154676482017
 20
-149.4165472716736
 10
66.9154676482017
 20
-147.8724554751847
 10
66.9154676482017
 20
-147.8724554751847
 10
66.9154676482017
 20
-147.8724554751847
 10
67.59018959898788
 20
-147.8724554751847
 10
67.59018959898788
 20
-147.8724554751847
 10
67.89697535194937
 20
-147.8724554751847
 10
68.06423473775826
 20
-148.0433322112531
 10
68.06423473775826
 20
-148.2996473153557
 10
68.06423473775826
 20
-148.3502902189888
 10
68.05562199904513
 20
-148.4326280010863
 10
68.0111802672854
 20
-148.5132432354411
 10
67.95209687971337
 20
-148.6169406095472
 10
67.88646781071935
 20
-148.635888634716
 10
67.82514511108191
 20
-148.6527696025938
 10
67.96260442094338
 20
-148.6951442770623
 10
68.03030054722853
 20
-148.7440646329529
 10
68.0346069165851
 20
-149.0589463603047
 10
68.0387410311674
 20
-149.3297308654454
 10
68.07474227898827
 20
-149.3614257439096
 10
68.14243840527342
 20
-149.4165472716736
 10
68.14243840527342
 20
-149.4165472716736
 10
67.8463324483162
 20
-149.4165472716736
 10
67.8463324483162
 20
-149.4165472716736
 97
        0
 97
        0
 92
        1
 93
        1
 72
     4
 94
        3
 73
     0
 74
     1
 95
       20
 96
       16
 40
0.0
 40
0.0
 40
0.0
 40
0.0
 40
1.0
 40
1.0
 40
1.0
 40
2.0
 40
2.0
 40
2.0
 40
3.0
 40
3.0
 40
3.0
 40
4.0
 40
4.0
 40
4.0
 40
5.0
 40
5.0
 40
5.0
 40
5.0
 10
67.59449596834443
 20
-148.083984337979
 10
67.59449596834443
 20
-148.083984337979
 10
67.15025090552147
 20
-148.083984337979
 10
67.15025090552147
 20
-148.083984337979
 10
67.15025090552147
 20
-148.083984337979
 10
67.15025090552147
 20
-148.5642306486228
 10
67.15025090552147
 20
-148.5642306486228
 10
67.15025090552147
 20
-148.5642306486228
 10
67.59242891105329
 20
-148.5642306486228
 10
67.59242891105329
 20
-148.5642306486228
 10
67.69181991580274
 20
-148.5642306486228
 10
67.82721216837307
 20
-148.4877495288503
 10
67.82721216837307
 20
-148.3165282832334
 10
67.82721216837307
 20
-148.2383246157182
 10
67.79345023261762
 20
-148.083984337979
 10
67.59449596834443
 20
-148.083984337979
 97
        0
 97
        0
 75
     2
 76
     1
 98
        0
  0
SPLINE
  5
C0
330
B9
100
AcDbEntity
  8
_U+30EC_U+30A4_U+30E4_U+30FC 1
370
     0
100
AcDbSpline
210
0.0
220
0.0
230
1.0
 70
    11
 71
     3
 72
    26
 73
    22
 74
     0
 42
0.0000000001
 43
0.0000000001
 12
1.0
 22
0.0
 32
0.0
 13
1.0
 23
0.0
 33
0.0
 40
0.0
 40
0.0
 40
0.0
 40
0.0
 40
1.0
 40
1.0
 40
1.0
 40
2.0
 40
2.0
 40
2.0
 40
3.0
 40
3.0
 40
3.0
 40
4.0
 40
4.0
 40
4.0
 40
5.0
 40
5.0
 40
5.0
 40
6.0
 40
6.0
 40
6.0
 40
7.0
 40
7.0
 40
7.0
 40
7.0
 10
68.73344453576803
 20
-149.4165472716736
 30
0.0
 10
68.73344453576803
 20
-149.4165472716736
 30
0.0
 10
68.73344453576803
 20
-148.3120496591025
 30
0.0
 10
68.73344453576803
 20
-148.3120496591025
 30
0.0
 10
68.73344453576803
 20
-148.3120496591025
 30
0.0
 10
68.4034043882811
 20
-148.3120496591025
 30
0.0
 10
68.4034043882811
 20
-148.3120496591025
 30
0.0
 10
68.4034043882811
 20
-148.3120496591025
 30
0.0
 10
68.4034043882811
 20
-148.1642550627853
 30
0.0
 10
68.4034043882811
 20
-148.1642550627853
 30
0.0
 10
68.73551159305919
 20
-148.1494411521988
 30
0.0
 10
68.78202038211005
 20
-147.9864881357464
 30
0.0
 10
68.8116482032832
 20
-147.8724554751847
 30
0.0
 10
68.8116482032832
 20
-147.8724554751847
 30
0.0
 10
68.9577202518578
 20
-147.8724554751847
 30
0.0
 10
68.9577202518578
 20
-147.8724554751847
 30
0.0
 10
68.9577202518578
 20
-147.8724554751847
 30
0.0
 10
68.9577202518578
 20
-149.4165472716736
 30
0.0
 10
68.9577202518578
 20
-149.4165472716736
 30
0.0
 10
68.9577202518578
 20
-149.4165472716736
 30
0.0
 10
68.73344453576803
 20
-149.4165472716736
 30
0.0
 10
68.73344453576803
 20
-149.4165472716736
 30
0.0
  0
HATCH
  5
C1
330
B9
100
AcDbEntity
  8
_U+30EC_U+30A4_U+30E4_U+30FC 1
 62
     7
420
 16777215
100
AcDbHatch
 10
0.0
 20
0.0
 30
0.0
210
0.0
220
0.0
230
1.0
  2
SOLID
 70
     1
 71
     0
 91
        1
 92
        1
 93
        1
 72
     4
 94
        3
 73
     0
 74
     1
 95
       26
 96
       22
 40
0.0
 40
0.0
 40
0.0
 40
0.0
 40
1.0
 40
1.0
 40
1.0
 40
2.0
 40
2.0
 40
2.0
 40
3.0
 40
3.0
 40
3.0
 40
4.0
 40
4.0
 40
4.0
 40
5.0
 40
5.0
 40
5.0
 40
6.0
 40
6.0
 40
6.0
 40
7.0
 40
7.0
 40
7.0
 40
7.0
 10
68.73344453576803
 20
-149.4165472716736
 10
68.73344453576803
 20
-149.4165472716736
 10
68.73344453576803
 20
-148.3120496591025
 10
68.73344453576803
 20
-148.3120496591025
 10
68.73344453576803
 20
-148.3120496591025
 10
68.4034043882811
 20
-148.3120496591025
 10
68.4034043882811
 20
-148.3120496591025
 10
68.4034043882811
 20
-148.3120496591025
 10
68.4034043882811
 20
-148.1642550627853
 10
68.4034043882811
 20
-148.1642550627853
 10
68.73551159305919
 20
-148.1494411521988
 10
68.78202038211005
 20
-147.9864881357464
 10
68.8116482032832
 20
-147.8724554751847
 10
68.8116482032832
 20
-147.8724554751847
 10
68.9577202518578
 20
-147.8724554751847
 10
68.9577202518578
 20
-147.8724554751847
 10
68.9577202518578
 20
-147.8724554751847
 10
68.9577202518578
 20
-149.4165472716736
 10
68.9577202518578
 20
-149.4165472716736
 10
68.9577202518578
 20
-149.4165472716736
 10
68.73344453576803
 20
-149.4165472716736
 10
68.73344453576803
 20
-149.4165472716736
 97
        0
 97
        0
 75
     2
 76
     1
 98
        0
  0
SPLINE
  5
C2
330
B9
100
AcDbEntity
  8
_U+30EC_U+30A4_U+30E4_U+30FC 1
370
     0
100
AcDbSpline
210
0.0
220
0.0
230
1.0
 70
    11
 71
     3
 72
    53
 73
    49
 74
     0
 42
0.0000000001
 43
0.0000000001
 12
1.0
 22
0.0
 32
0.0
 13
1.0
 23
0.0
 33
0.0
 40
0.0
 40
0.0
 40
0.0
 40
0.0
 40
1.0
 40
1.0
 40
1.0
 40
2.0
 40
2.0
 40
2.0
 40
3.0
 40
3.0
 40
3.0
 40
4.0
 40
4.0
 40
4.0
 40
5.0
 40
5.0
 40
5.0
 40
6.0
 40
6.0
 40
6.0
 40
7.0
 40
7.0
 40
7.0
 40
8.0
 40
8.0
 40
8.0
 40
9.0
 40
9.0
 40
9.0
 40
10.0
 40
10.0
 40
10.0
 40
11.0
 40
11.0
 40
11.0
 40
12.0
 40
12.0
 40
12.0
 40
13.0
 40
13.0
 40
13.0
 40
14.0
 40
14.0
 40
14.0
 40
15.0
 40
15.0
 40
15.0
 40
16.0
 40
16.0
 40
16.0
 40
16.0
 10
69.93991697470253
 20
-149.4675346848553
 30
0.0
 10
69.86154105241309
 20
-149.4675346848553
 30
0.0
 10
69.76008299037248
 20
-149.4503092074291
 30
0.0
 10
69.65845267355762
 20
-149.3869194505005
 30
0.0
 10
69.48499211587529
 20
-149.2766763949725
 30
0.0
 10
69.46380477864099
 20
-149.145762766533
 30
0.0
 10
69.44485675347212
 20
-149.0379312778447
 30
0.0
 10
69.44485675347212
 20
-149.0379312778447
 30
0.0
 10
69.66689315749647
 20
-149.0379312778447
 30
0.0
 10
69.66689315749647
 20
-149.0379312778447
 30
0.0
 10
69.72201468526048
 20
-149.2367132873436
 30
0.0
 10
69.84896645389193
 20
-149.2663411085167
 30
0.0
 10
69.94198403199367
 20
-149.2663411085167
 30
0.0
 10
70.08168265392055
 20
-149.2663411085167
 30
0.0
 10
70.2339558743686
 20
-149.1671223585415
 30
0.0
 10
70.2339558743686
 20
-148.9342339037387
 30
0.0
 10
70.2339558743686
 20
-148.6782633091846
 30
0.0
 10
70.05412189003856
 20
-148.608327870834
 30
0.0
 10
69.93354354805481
 20
-148.608327870834
 30
0.0
 10
69.9018486695905
 20
-148.608327870834
 30
0.0
 10
69.76008299037248
 20
-148.608327870834
 30
0.0
 10
69.67119952685303
 20
-148.7375189515309
 30
0.0
 10
69.67119952685303
 20
-148.7375189515309
 30
0.0
 10
69.49567191187955
 20
-148.718570926362
 30
0.0
 10
69.49567191187955
 20
-148.718570926362
 30
0.0
 10
69.49567191187955
 20
-148.718570926362
 30
0.0
 10
69.6162502538633
 20
-147.8724554751847
 30
0.0
 10
69.6162502538633
 20
-147.8724554751847
 30
0.0
 10
69.6162502538633
 20
-147.8724554751847
 30
0.0
 10
70.3946695787555
 20
-147.8724554751847
 30
0.0
 10
70.3946695787555
 20
-147.8724554751847
 30
0.0
 10
70.3946695787555
 20
-147.8724554751847
 30
0.0
 10
70.3946695787555
 20
-148.0667588605528
 30
0.0
 10
70.3946695787555
 20
-148.0667588605528
 30
0.0
 10
70.3946695787555
 20
-148.0667588605528
 30
0.0
 10
69.77903101554136
 20
-148.0667588605528
 30
0.0
 10
69.77903101554136
 20
-148.0667588605528
 30
0.0
 10
69.77903101554136
 20
-148.0667588605528
 30
0.0
 10
69.7135742013216
 20
-148.4898165861414
 30
0.0
 10
69.7135742013216
 20
-148.4898165861414
 30
0.0
 10
69.77489690095906
 20
-148.456054650386
 30
0.0
 10
69.85740693783079
 20
-148.4160915427571
 30
0.0
 10
69.97574596774912
 20
-148.4160915427571
 30
0.0
 10
70.22964950501203
 20
-148.4160915427571
 30
0.0
 10
70.46667207439722
 20
-148.6021266989606
 30
0.0
 10
70.46667207439722
 20
-148.9149413690213
 30
0.0
 10
70.46667207439722
 20
-149.2325791727613
 30
0.0
 10
70.24239635830746
 20
-149.4675346848553
 30
0.0
 10
69.93991697470253
 20
-149.4675346848553
 30
0.0
  0
HATCH
  5
C3
330
B9
100
AcDbEntity
  8
_U+30EC_U+30A4_U+30E4_U+30FC 1
 62
     7
420
 16777215
100
AcDbHatch
 10
0.0
 20
0.0
 30
0.0
210
0.0
220
0.0
230
1.0
  2
SOLID
 70
     1
 71
     0
 91
        1
 92
        1
 93
        1
 72
     4
 94
        3
 73
     0
 74
     1
 95
       53
 96
       49
 40
0.0
 40
0.0
 40
0.0
 40
0.0
 40
1.0
 40
1.0
 40
1.0
 40
2.0
 40
2.0
 40
2.0
 40
3.0
 40
3.0
 40
3.0
 40
4.0
 40
4.0
 40
4.0
 40
5.0
 40
5.0
 40
5.0
 40
6.0
 40
6.0
 40
6.0
 40
7.0
 40
7.0
 40
7.0
 40
8.0
 40
8.0
 40
8.0
 40
9.0
 40
9.0
 40
9.0
 40
10.0
 40
10.0
 40
10.0
 40
11.0
 40
11.0
 40
11.0
 40
12.0
 40
12.0
 40
12.0
 40
13.0
 40
13.0
 40
13.0
 40
14.0
 40
14.0
 40
14.0
 40
15.0
 40
15.0
 40
15.0
 40
16.0
 40
16.0
 40
16.0
 40
16.0
 10
69.93991697470253
 20
-149.4675346848553
 10
69.86154105241309
 20
-149.4675346848553
 10
69.76008299037248
 20
-149.4503092074291
 10
69.65845267355762
 20
-149.3869194505005
 10
69.48499211587529
 20
-149.2766763949725
 10
69.46380477864099
 20
-149.145762766533
 10
69.44485675347212
 20
-149.0379312778447
 10
69.44485675347212
 20
-149.0379312778447
 10
69.66689315749647
 20
-149.0379312778447
 10
69.66689315749647
 20
-149.0379312778447
 10
69.72201468526048
 20
-149.2367132873436
 10
69.84896645389193
 20
-149.2663411085167
 10
69.94198403199367
 20
-149.2663411085167
 10
70.08168265392055
 20
-149.2663411085167
 10
70.2339558743686
 20
-149.1671223585415
 10
70.2339558743686
 20
-148.9342339037387
 10
70.2339558743686
 20
-148.6782633091846
 10
70.05412189003856
 20
-148.608327870834
 10
69.93354354805481
 20
-148.608327870834
 10
69.9018486695905
 20
-148.608327870834
 10
69.76008299037248
 20
-148.608327870834
 10
69.67119952685303
 20
-148.7375189515309
 10
69.67119952685303
 20
-148.7375189515309
 10
69.49567191187955
 20
-148.718570926362
 10
69.49567191187955
 20
-148.718570926362
 10
69.49567191187955
 20
-148.718570926362
 10
69.6162502538633
 20
-147.8724554751847
 10
69.6162502538633
 20
-147.8724554751847
 10
69.6162502538633
 20
-147.8724554751847
 10
70.3946695787555
 20
-147.8724554751847
 10
70.3946695787555
 20
-147.8724554751847
 10
70.3946695787555
 20
-147.8724554751847
 10
70.3946695787555
 20
-148.0667588605528
 10
70.3946695787555
 20
-148.0667588605528
 10
70.3946695787555
 20
-148.0667588605528
 10
69.77903101554136
 20
-148.0667588605528
 10
69.77903101554136
 20
-148.0667588605528
 10
69.77903101554136
 20
-148.0667588605528
 10
69.7135742013216
 20
-148.4898165861414
 10
69.7135742013216
 20
-148.4898165861414
 10
69.77489690095906
 20
-148.456054650386
 10
69.85740693783079
 20
-148.4160915427571
 10
69.97574596774912
 20
-148.4160915427571
 10
70.22964950501203
 20
-148.4160915427571
 10
70.46667207439722
 20
-148.6021266989606
 10
70.46667207439722
 20
-148.9149413690213
 10
70.46667207439722
 20
-149.2325791727613
 10
70.24239635830746
 20
-149.4675346848553
 10
69.93991697470253
 20
-149.4675346848553
 97
        0
 97
        0
 75
     2
 76
     1
 98
        0
  0
ENDBLK
  5
BC
330
B9
100
AcDbEntity
  8
0
100
AcDbBlockEnd
  0
ENDSEC
  0
SECTION
  2
ENTITIES
  0
SPLINE
  5
41
330
1F
100
AcDbEntity
  8
_U+30EC_U+30A4_U+30E4_U+30FC 1
 62
     7
420
 16777215
370
     9
100
AcDbSpline
210
0.0
220
0.0
230
1.0
 70
    11
 71
     3
 72
    17
 73
    13
 74
     0
 42
0.0000000001
 43
0.0000000001
 12
1.0
 22
0.0
 32
0.0
 13
1.0
 23
0.0
 33
0.0
 40
0.0
 40
0.0
 40
0.0
 40
0.0
 40
1.0
 40
1.0
 40
1.0
 40
2.0
 40
2.0
 40
2.0
 40
3.0
 40
3.0
 40
3.0
 40
4.0
 40
4.0
 40
4.0
 40
4.0
 10
87.66975581891374
 20
-148.4808505184356
 30
0.0
 10
87.66975581891374
 20
-148.42574662956
 30
0.0
 10
87.62495304227899
 20
-148.3809438517939
 30
0.0
 10
87.56914359925835
 20
-148.3809438517939
 30
0.0
 10
87.51403971177528
 20
-148.3809438517939
 30
0.0
 10
87.46923693514053
 20
-148.42574662956
 30
0.0
 10
87.46923693514053
 20
-148.4808505184356
 30
0.0
 10
87.46923693514053
 20
-148.535989685088
 30
0.0
 10
87.51403971177528
 20
-148.5807571850772
 30
0.0
 10
87.56914359925835
 20
-148.5807571850772
 30
0.0
 10
87.62495304227899
 20
-148.5807571850772
 30
0.0
 10
87.66975581891374
 20
-148.535989685088
 30
0.0
 10
87.66975581891374
 20
-148.4808505184356
 30
0.0
  0
POLYLINE
  5
42
330
1F
100
AcDbEntity
  8
_U+30EC_U+30A4_U+30E4_U+30FC 1
 62
     7
420
 16777215
370
     9
100
AcDb2dPolyline
 66
     1
 10
0.0
 20
0.0
 30
0.0
  0
VERTEX
  5
43
330
42
100
AcDbEntity
  8
_U+30EC_U+30A4_U+30E4_U+30FC 1
 62
     7
420
 16777215
370
     9
100
AcDbVertex
100
AcDb2dVertex
 10
87.56914359925835
 20
-147.0208444076894
 30
0.0
  0
VERTEX
  5
44
330
42
100
AcDbEntity
  8
_U+30EC_U+30A4_U+30E4_U+30FC 1
 62
     7
420
 16777215
370
     9
100
AcDbVertex
100
AcDb2dVertex
 10
87.56914359925835
 20
-149.4806227404075
 30
0.0
  0
SEQEND
  5
45
330
42
100
AcDbEntity
  8
_U+30EC_U+30A4_U+30E4_U+30FC 1
 62
     7
420
 16777215
370
     9
  0
SPLINE
  5
46
330
1F
100
AcDbEntity
  8
_U+30EC_U+30A4_U+30E4_U+30FC 1
 62
     7
420
 16777215
370
     9
100
AcDbSpline
210
0.0
220
0.0
230
1.0
 70
    11
 71
     3
 72
    17
 73
    13
 74
     0
 42
0.0000000001
 43
0.0000000001
 12
1.0
 22
0.0
 32
0.0
 13
1.0
 23
0.0
 33
0.0
 40
0.0
 40
0.0
 40
0.0
 40
0.0
 40
1.0
 40
1.0
 40
1.0
 40
2.0
 40
2.0
 40
2.0
 40
3.0
 40
3.0
 40
3.0
 40
4.0
 40
4.0
 40
4.0
 40
4.0
 10
97.66913584158608
 20
-148.4804977406578
 30
0.0
 10
97.66913584158608
 20
-148.4253938517822
 30
0.0
 10
97.6243683427282
 20
-148.3805910740162
 30
0.0
 10
97.56922917746826
 20
-148.3805910740162
 30
0.0
 10
97.51412775339914
 20
-148.3805910740162
 30
0.0
 10
97.46932497563242
 20
-148.4253938517822
 30
0.0
 10
97.46932497563242
 20
-148.4804977406578
 30
0.0
 10
97.46932497563242
 20
-148.5356369073102
 30
0.0
 10
97.51412775339914
 20
-148.580439685077
 30
0.0
 10
97.56922917746826
 20
-148.580439685077
 30
0.0
 10
97.6243683427282
 20
-148.580439685077
 30
0.0
 10
97.66913584158608
 20
-148.5356369073102
 30
0.0
 10
97.66913584158608
 20
-148.4804977406578
 30
0.0
  0
POLYLINE
  5
47
330
1F
100
AcDbEntity
  8
_U+30EC_U+30A4_U+30E4_U+30FC 1
 62
     7
420
 16777215
370
     9
100
AcDb2dPolyline
 66
     1
 10
0.0
 20
0.0
 30
0.0
  0
VERTEX
  5
48
330
47
100
AcDbEntity
  8
_U+30EC_U+30A4_U+30E4_U+30FC 1
 62
     7
420
 16777215
370
     9
100
AcDbVertex
100
AcDb2dVertex
 10
97.56922917746826
 20
-145.9807496857272
 30
0.0
  0
VERTEX
  5
49
330
47
100
AcDbEntity
  8
_U+30EC_U+30A4_U+30E4_U+30FC 1
 62
     7
420
 16777215
370
     9
100
AcDbVertex
100
AcDb2dVertex
 10
97.56922917746826
 20
-149.4806227404075
 30
0.0
  0
SEQEND
  5
4A
330
47
100
AcDbEntity
  8
_U+30EC_U+30A4_U+30E4_U+30FC 1
 62
     7
420
 16777215
370
     9
  0
SPLINE
  5
4B
330
1F
100
AcDbEntity
  8
_U+30EC_U+30A4_U+30E4_U+30FC 1
 62
     7
420
 16777215
370
     9
100
AcDbSpline
210
0.0
220
0.0
230
1.0
 70
    11
 71
     3
 72
    17
 73
    13
 74
     0
 42
0.0000000001
 43
0.0000000001
 12
1.0
 22
0.0
 32
0.0
 13
1.0
 23
0.0
 33
0.0
 40
0.0
 40
0.0
 40
0.0
 40
0.0
 40
1.0
 40
1.0
 40
1.0
 40
2.0
 40
2.0
 40
2.0
 40
3.0
 40
3.0
 40
3.0
 40
4.0
 40
4.0
 40
4.0
 40
4.0
 10
99.16914691442872
 20
-148.4804977406578
 30
0.0
 10
99.16914691442872
 20
-148.4253938517822
 30
0.0
 10
99.12434413779397
 20
-148.3805910740162
 30
0.0
 10
99.0692402503109
 20
-148.3805910740162
 30
0.0
 10
99.01410108505094
 20
-148.3805910740162
 30
0.0
 10
98.96933608636867
 20
-148.4253938517822
 30
0.0
 10
98.96933608636867
 20
-148.4804977406578
 30
0.0
 10
98.96933608636867
 20
-148.5356369073102
 30
0.0
 10
99.01410108505094
 20
-148.580439685077
 30
0.0
 10
99.0692402503109
 20
-148.580439685077
 30
0.0
 10
99.12434413779397
 20
-148.580439685077
 30
0.0
 10
99.16914691442872
 20
-148.5356369073102
 30
0.0
 10
99.16914691442872
 20
-148.4804977406578
 30
0.0
  0
POLYLINE
  5
4C
330
1F
100
AcDbEntity
  8
_U+30EC_U+30A4_U+30E4_U+30FC 1
 62
     7
420
 16777215
370
     9
100
AcDb2dPolyline
 66
     1
 10
0.0
 20
0.0
 30
0.0
  0
VERTEX
  5
4D
330
4C
100
AcDbEntity
  8
_U+30EC_U+30A4_U+30E4_U+30FC 1
 62
     7
420
 16777215
370
     9
100
AcDbVertex
100
AcDb2dVertex
 10
99.0692402503109
 20
-144.980659963755
 30
0.0
  0
VERTEX
  5
4E
330
4C
100
AcDbEntity
  8
_U+30EC_U+30A4_U+30E4_U+30FC 1
 62
     7
420
 16777215
370
     9
100
AcDbVertex
100
AcDb2dVertex
 10
99.0692402503109
 20
-149.4806227404075
 30
0.0
  0
SEQEND
  5
4F
330
4C
100
AcDbEntity
  8
_U+30EC_U+30A4_U+30E4_U+30FC 1
 62
     7
420
 16777215
370
     9
  0
POLYLINE
  5
50
330
1F
100
AcDbEntity
  8
_U+30EC_U+30A4_U+30E4_U+30FC 1
 62
     7
420
 16777215
370
     9
100
AcDb2dPolyline
 66
     1
 10
0.0
 20
0.0
 30
0.0
  0
VERTEX
  5
51
330
50
100
AcDbEntity
  8
_U+30EC_U+30A4_U+30E4_U+30FC 1
 62
     7
420
 16777215
370
     9
100
AcDbVertex
100
AcDb2dVertex
 10
72.56921109296869
 20
-135.4807777439079
 30
0.0
  0
VERTEX
  5
52
330
50
100
AcDbEntity
  8
_U+30EC_U+30A4_U+30E4_U+30FC 1
 62
     7
420
 16777215
370
     9
100
AcDbVertex
100
AcDb2dVertex
 10
72.56921109296869
 20
-149.4806227404075
 30
0.0
  0
SEQEND
  5
53
330
50
100
AcDbEntity
  8
_U+30EC_U+30A4_U+30E4_U+30FC 1
 62
     7
420
 16777215
370
     9
  0
SPLINE
  5
54
330
1F
100
AcDbEntity
  8
_U+30EC_U+30A4_U+30E4_U+30FC 1
 62
     7
420
 16777215
370
     9
100
AcDbSpline
210
0.0
220
0.0
230
1.0
 70
    11
 71
     3
 72
    17
 73
    13
 74
     0
 42
0.0000000001
 43
0.0000000001
 12
1.0
 22
0.0
 32
0.0
 13
1.0
 23
0.0
 33
0.0
 40
0.0
 40
0.0
 40
0.0
 40
0.0
 40
1.0
 40
1.0
 40
1.0
 40
2.0
 40
2.0
 40
2.0
 40
3.0
 40
3.0
 40
3.0
 40
4.0
 40
4.0
 40
4.0
 40
4.0
 10
112.6697757366657
 20
-135.9806638548938
 30
0.0
 10
112.6697757366657
 20
-135.9255599660189
 30
0.0
 10
112.625011082955
 20
-135.8807571882522
 30
0.0
 10
112.5698690725478
 20
-135.8807571882522
 30
0.0
 10
112.5147651850647
 20
-135.8807571882522
 30
0.0
 10
112.46996240843
 20
-135.9255599660189
 30
0.0
 10
112.46996240843
 20
-135.9806638548938
 30
0.0
 10
112.46996240843
 20
-136.0364732993243
 30
0.0
 10
112.5147651850647
 20
-136.081276077091
 30
0.0
 10
112.5698690725478
 20
-136.081276077091
 30
0.0
 10
112.625011082955
 20
-136.081276077091
 30
0.0
 10
112.6697757366657
 20
-136.0364732993243
 30
0.0
 10
112.6697757366657
 20
-135.9806638548938
 30
0.0
  0
SPLINE
  5
55
330
1F
100
AcDbEntity
  8
_U+30EC_U+30A4_U+30E4_U+30FC 1
 62
     7
420
 16777215
370
     9
100
AcDbSpline
210
0.0
220
0.0
230
1.0
 70
    11
 71
     3
 72
    17
 73
    13
 74
     0
 42
0.0000000001
 43
0.0000000001
 12
1.0
 22
0.0
 32
0.0
 13
1.0
 23
0.0
 33
0.0
 40
0.0
 40
0.0
 40
0.0
 40
0.0
 40
1.0
 40
1.0
 40
1.0
 40
2.0
 40
2.0
 40
2.0
 40
3.0
 40
3.0
 40
3.0
 40
4.0
 40
4.0
 40
4.0
 40
4.0
 10
112.6697757366657
 20
-144.4807738527684
 30
0.0
 10
112.6697757366657
 20
-144.425634686116
 30
0.0
 10
112.625011082955
 20
-144.3808671861268
 30
0.0
 10
112.5698690725478
 20
-144.3808671861268
 30
0.0
 10
112.5147651850647
 20
-144.3808671861268
 30
0.0
 10
112.46996240843
 20
-144.425634686116
 30
0.0
 10
112.46996240843
 20
-144.4807738527684
 30
0.0
 10
112.46996240843
 20
-144.5365832971989
 30
0.0
 10
112.5147651850647
 20
-144.5813507971881
 30
0.0
 10
112.5698690725478
 20
-144.5813507971881
 30
0.0
 10
112.625011082955
 20
-144.5813507971881
 30
0.0
 10
112.6697757366657
 20
-144.5365832971989
 30
0.0
 10
112.6697757366657
 20
-144.4807738527684
 30
0.0
  0
POLYLINE
  5
56
330
1F
100
AcDbEntity
  8
_U+30EC_U+30A4_U+30E4_U+30FC 1
 62
     7
420
 16777215
370
     9
100
AcDb2dPolyline
 66
     1
 10
0.0
 20
0.0
 30
0.0
  0
VERTEX
  5
57
330
56
100
AcDbEntity
  8
_U+30EC_U+30A4_U+30E4_U+30FC 1
 62
     7
420
 16777215
370
     9
100
AcDbVertex
100
AcDb2dVertex
 10
112.5698690725478
 20
-144.4807738527684
 30
0.0
  0
VERTEX
  5
58
330
56
100
AcDbEntity
  8
_U+30EC_U+30A4_U+30E4_U+30FC 1
 62
     7
420
 16777215
370
     9
100
AcDbVertex
100
AcDb2dVertex
 10
112.5698690725478
 20
-106.9808841399216
 30
0.0
  0
SEQEND
  5
59
330
56
100
AcDbEntity
  8
_U+30EC_U+30A4_U+30E4_U+30FC 1
 62
     7
420
 16777215
370
     9
  0
POLYLINE
  5
5A
330
1F
100
AcDbEntity
  8
_U+30EC_U+30A4_U+30E4_U+30FC 1
 62
     7
420
 16777215
370
     9
100
AcDb2dPolyline
 66
     1
 10
0.0
 20
0.0
 30
0.0
  0
VERTEX
  5
5B
330
5A
100
AcDbEntity
  8
_U+30EC_U+30A4_U+30E4_U+30FC 1
 62
     7
420
 16777215
370
     9
100
AcDbVertex
100
AcDb2dVertex
 10
99.56912634866885
 20
-144.4807738527684
 30
0.0
  0
VERTEX
  5
5C
330
5A
100
AcDbEntity
  8
_U+30EC_U+30A4_U+30E4_U+30FC 1
 62
     7
420
 16777215
370
     9
100
AcDbVertex
100
AcDb2dVertex
 10
113.5696412692637
 20
-144.4807738527684
 30
0.0
  0
SEQEND
  5
5D
330
5A
100
AcDbEntity
  8
_U+30EC_U+30A4_U+30E4_U+30FC 1
 62
     7
420
 16777215
370
     9
  0
SPLINE
  5
5E
330
1F
100
AcDbEntity
  8
_U+30EC_U+30A4_U+30E4_U+30FC 1
 62
     7
420
 16777215
370
     9
100
AcDbSpline
210
0.0
220
0.0
230
1.0
 70
    11
 71
     3
 72
    17
 73
    13
 74
     0
 42
0.0000000001
 43
0.0000000001
 12
1.0
 22
0.0
 32
0.0
 13
1.0
 23
0.0
 33
0.0
 40
0.0
 40
0.0
 40
0.0
 40
0.0
 40
1.0
 40
1.0
 40
1.0
 40
2.0
 40
2.0
 40
2.0
 40
3.0
 40
3.0
 40
3.0
 40
4.0
 40
4.0
 40
4.0
 40
4.0
 10
112.6697757366657
 20
-142.9807627420328
 30
0.0
 10
112.6697757366657
 20
-142.9256588531573
 30
0.0
 10
112.625011082955
 20
-142.8808560753912
 30
0.0
 10
112.5698690725478
 20
-142.8808560753912
 30
0.0
 10
112.5147651850647
 20
-142.8808560753912
 30
0.0
 10
112.46996240843
 20
-142.9256588531573
 30
0.0
 10
112.46996240843
 20
-142.9807627420328
 30
0.0
 10
112.46996240843
 20
-143.0365721864633
 30
0.0
 10
112.5147651850647
 20
-143.0813749642294
 30
0.0
 10
112.5698690725478
 20
-143.0813749642294
 30
0.0
 10
112.625011082955
 20
-143.0813749642294
 30
0.0
 10
112.6697757366657
 20
-143.0365721864633
 30
0.0
 10
112.6697757366657
 20
-142.9807627420328
 30
0.0
  0
POLYLINE
  5
5F
330
1F
100
AcDbEntity
  8
_U+30EC_U+30A4_U+30E4_U+30FC 1
 62
     7
420
 16777215
370
     9
100
AcDb2dPolyline
 66
     1
 10
0.0
 20
0.0
 30
0.0
  0
VERTEX
  5
60
330
5F
100
AcDbEntity
  8
_U+30EC_U+30A4_U+30E4_U+30FC 1
 62
     7
420
 16777215
370
     9
100
AcDbVertex
100
AcDb2dVertex
 10
100.2191899431955
 20
-142.9807627420328
 30
0.0
  0
VERTEX
  5
61
330
5F
100
AcDbEntity
  8
_U+30EC_U+30A4_U+30E4_U+30FC 1
 62
     7
420
 16777215
370
     9
100
AcDbVertex
100
AcDb2dVertex
 10
113.5696412692637
 20
-142.9807627420328
 30
0.0
  0
SEQEND
  5
62
330
5F
100
AcDbEntity
  8
_U+30EC_U+30A4_U+30E4_U+30FC 1
 62
     7
420
 16777215
370
     9
  0
POLYLINE
  5
63
330
1F
100
AcDbEntity
  8
_U+30EC_U+30A4_U+30E4_U+30FC 1
 62
     7
420
 16777215
370
     9
100
AcDb2dPolyline
 66
     1
 10
0.0
 20
0.0
 30
0.0
  0
VERTEX
  5
64
330
63
100
AcDbEntity
  8
_U+30EC_U+30A4_U+30E4_U+30FC 1
 62
     7
420
 16777215
370
     9
100
AcDbVertex
100
AcDb2dVertex
 10
111.1098305277782
 20
-135.9806638548938
 30
0.0
  0
VERTEX
  5
65
330
63
100
AcDbEntity
  8
_U+30EC_U+30A4_U+30E4_U+30FC 1
 62
     7
420
 16777215
370
     9
100
AcDbVertex
100
AcDb2dVertex
 10
113.5696412692637
 20
-135.9806638548938
 30
0.0
  0
SEQEND
  5
66
330
63
100
AcDbEntity
  8
_U+30EC_U+30A4_U+30E4_U+30FC 1
 62
     7
420
 16777215
370
     9
  0
SPLINE
  5
67
330
1F
100
AcDbEntity
  8
_U+30EC_U+30A4_U+30E4_U+30FC 1
 62
     7
420
 16777215
370
     9
100
AcDbSpline
210
0.0
220
0.0
230
1.0
 70
    11
 71
     3
 72
    17
 73
    13
 74
     0
 42
0.0000000001
 43
0.0000000001
 12
1.0
 22
0.0
 32
0.0
 13
1.0
 23
0.0
 33
0.0
 40
0.0
 40
0.0
 40
0.0
 40
0.0
 40
1.0
 40
1.0
 40
1.0
 40
2.0
 40
2.0
 40
2.0
 40
3.0
 40
3.0
 40
3.0
 40
4.0
 40
4.0
 40
4.0
 40
4.0
 10
112.6697757366657
 20
-134.9808916329213
 30
0.0
 10
112.6697757366657
 20
-134.9257877440464
 30
0.0
 10
112.625011082955
 20
-134.8809849662797
 30
0.0
 10
112.5698690725478
 20
-134.8809849662797
 30
0.0
 10
112.5147651850647
 20
-134.8809849662797
 30
0.0
 10
112.46996240843
 20
-134.9257877440464
 30
0.0
 10
112.46996240843
 20
-134.9808916329213
 30
0.0
 10
112.46996240843
 20
-135.0367363551299
 30
0.0
 10
112.5147651850647
 20
-135.0815038551185
 30
0.0
 10
112.5698690725478
 20
-135.0815038551185
 30
0.0
 10
112.625011082955
 20
-135.0815038551185
 30
0.0
 10
112.6697757366657
 20
-135.0367363551299
 30
0.0
 10
112.6697757366657
 20
-134.9808916329213
 30
0.0
  0
POLYLINE
  5
68
330
1F
100
AcDbEntity
  8
_U+30EC_U+30A4_U+30E4_U+30FC 1
 62
     7
420
 16777215
370
     9
100
AcDb2dPolyline
 66
     1
 10
0.0
 20
0.0
 30
0.0
  0
VERTEX
  5
69
330
68
100
AcDbEntity
  8
_U+30EC_U+30A4_U+30E4_U+30FC 1
 62
     7
420
 16777215
370
     9
100
AcDbVertex
100
AcDb2dVertex
 10
111.1098305277782
 20
-134.9808916329213
 30
0.0
  0
VERTEX
  5
6A
330
68
100
AcDbEntity
  8
_U+30EC_U+30A4_U+30E4_U+30FC 1
 62
     7
420
 16777215
370
     9
100
AcDbVertex
100
AcDb2dVertex
 10
113.5696412692637
 20
-134.9808916329213
 30
0.0
  0
SEQEND
  5
6B
330
68
100
AcDbEntity
  8
_U+30EC_U+30A4_U+30E4_U+30FC 1
 62
     7
420
 16777215
370
     9
  0
INSERT
  5
6D
330
1F
100
AcDbEntity
  8
_U+30EC_U+30A4_U+30E4_U+30FC 1
100
AcDbBlockReference
  2
block 2
 10
0.0
 20
0.0
 30
0.0
  0
INSERT
  5
73
330
1F
100
AcDbEntity
  8
_U+30EC_U+30A4_U+30E4_U+30FC 1
100
AcDbBlockReference
  2
block 3
 10
0.0
 20
0.0
 30
0.0
  0
INSERT
  5
79
330
1F
100
AcDbEntity
  8
_U+30EC_U+30A4_U+30E4_U+30FC 1
100
AcDbBlockReference
  2
block 4
 10
0.0
 20
0.0
 30
0.0
  0
INSERT
  5
83
330
1F
100
AcDbEntity
  8
_U+30EC_U+30A4_U+30E4_U+30FC 1
100
AcDbBlockReference
  2
block 5
 10
0.0
 20
0.0
 30
0.0
  0
SPLINE
  5
92
330
1F
100
AcDbEntity
  8
_U+30EC_U+30A4_U+30E4_U+30FC 1
 62
     7
420
 16777215
370
     9
100
AcDbSpline
210
0.0
220
0.0
230
1.0
 70
    11
 71
     3
 72
    17
 73
    13
 74
     0
 42
0.0000000001
 43
0.0000000001
 12
1.0
 22
0.0
 32
0.0
 13
1.0
 23
0.0
 33
0.0
 40
0.0
 40
0.0
 40
0.0
 40
0.0
 40
1.0
 40
1.0
 40
1.0
 40
2.0
 40
2.0
 40
2.0
 40
3.0
 40
3.0
 40
3.0
 40
4.0
 40
4.0
 40
4.0
 40
4.0
 10
72.66911592383418
 20
-148.4804977406578
 30
0.0
 10
72.66911592383418
 20
-148.4253938517822
 30
0.0
 10
72.62434842497629
 20
-148.3805910740162
 30
0.0
 10
72.56921109296869
 20
-148.3805910740162
 30
0.0
 10
72.51410537223327
 20
-148.3805910740162
 30
0.0
 10
72.4693025955985
 20
-148.4253938517822
 30
0.0
 10
72.4693025955985
 20
-148.4804977406578
 30
0.0
 10
72.4693025955985
 20
-148.5356369073102
 30
0.0
 10
72.51410537223327
 20
-148.580439685077
 30
0.0
 10
72.56921109296869
 20
-148.580439685077
 30
0.0
 10
72.62434842497629
 20
-148.580439685077
 30
0.0
 10
72.66911592383418
 20
-148.5356369073102
 30
0.0
 10
72.66911592383418
 20
-148.4804977406578
 30
0.0
  0
POLYLINE
  5
93
330
1F
100
AcDbEntity
  8
_U+30EC_U+30A4_U+30E4_U+30FC 1
 62
     7
420
 16777215
370
     9
100
AcDb2dPolyline
 66
     1
 10
0.0
 20
0.0
 30
0.0
  0
VERTEX
  5
94
330
93
100
AcDbEntity
  8
_U+30EC_U+30A4_U+30E4_U+30FC 1
 62
     7
420
 16777215
370
     9
100
AcDbVertex
100
AcDb2dVertex
 10
72.56938564860073
 20
-148.4804977406578
 30
0.0
  0
VERTEX
  5
95
330
93
100
AcDbEntity
  8
_U+30EC_U+30A4_U+30E4_U+30FC 1
 62
     7
420
 16777215
370
     9
100
AcDbVertex
100
AcDb2dVertex
 10
99.0692402503109
 20
-148.4804977406578
 30
0.0
  0
SEQEND
  5
96
330
93
100
AcDbEntity
  8
_U+30EC_U+30A4_U+30E4_U+30FC 1
 62
     7
420
 16777215
370
     9
  0
INSERT
  5
98
330
1F
100
AcDbEntity
  8
_U+30EC_U+30A4_U+30E4_U+30FC 1
100
AcDbBlockReference
  2
block 6
 10
0.0
 20
0.0
 30
0.0
  0
INSERT
  5
A0
330
1F
100
AcDbEntity
  8
_U+30EC_U+30A4_U+30E4_U+30FC 1
100
AcDbBlockReference
  2
block 7
 10
0.0
 20
0.0
 30
0.0
  0
INSERT
  5
A9
330
1F
100
AcDbEntity
  8
_U+30EC_U+30A4_U+30E4_U+30FC 1
100
AcDbBlockReference
  2
block 8
 10
0.0
 20
0.0
 30
0.0
  0
SPLINE
  5
B8
330
1F
100
AcDbEntity
  8
_U+30EC_U+30A4_U+30E4_U+30FC 1
 62
     7
420
 16777215
370
    25
100
AcDbSpline
210
0.0
220
0.0
230
1.0
 70
    11
 71
     3
 72
    71
 73
    67
 74
     0
 42
0.0000000001
 43
0.0000000001
 12
1.0
 22
0.0
 32
0.0
 13
1.0
 23
0.0
 33
0.0
 40
0.0
 40
0.0
 40
0.0
 40
0.0
 40
1.0
 40
1.0
 40
1.0
 40
2.0
 40
2.0
 40
2.0
 40
3.0
 40
3.0
 40
3.0
 40
4.0
 40
4.0
 40
4.0
 40
5.0
 40
5.0
 40
5.0
 40
6.0
 40
6.0
 40
6.0
 40
7.0
 40
7.0
 40
7.0
 40
8.0
 40
8.0
 40
8.0
 40
9.0
 40
9.0
 40
9.0
 40
10.0
 40
10.0
 40
10.0
 40
11.0
 40
11.0
 40
11.0
 40
12.0
 40
12.0
 40
12.0
 40
13.0
 40
13.0
 40
13.0
 40
14.0
 40
14.0
 40
14.0
 40
15.0
 40
15.0
 40
15.0
 40
16.0
 40
16.0
 40
16.0
 40
17.0
 40
17.0
 40
17.0
 40
18.0
 40
18.0
 40
18.0
 40
19.0
 40
19.0
 40
19.0
 40
20.0
 40
20.0
 40
20.0
 40
21.0
 40
21.0
 40
21.0
 40
22.0
 40
22.0
 40
22.0
 40
22.0
 10
74.06886942592718
 20
-119.4808944145741
 30
0.0
 10
74.06886942592718
 20
-119.4808944145741
 30
0.0
 10
74.06886942592718
 20
-117.9802130260605
 30
0.0
 10
74.06886942592718
 20
-117.9802130260605
 30
0.0
 10
74.06886942592718
 20
-117.9802130260605
 30
0.0
 10
72.56885831519124
 20
-119.4808944145741
 30
0.0
 10
72.56885831519124
 20
-119.4808944145741
 30
0.0
 10
72.56885831519124
 20
-119.4808944145741
 30
0.0
 10
72.56885831519124
 20
-129.4808038565186
 30
0.0
 10
72.56885831519124
 20
-129.4808038565186
 30
0.0
 10
72.56885831519124
 20
-129.4808038565186
 30
0.0
 10
72.56921109296869
 20
-129.4808038565186
 30
0.0
 10
72.56921109296869
 20
-129.4808038565186
 30
0.0
 10
72.56921109296869
 20
-137.7652255211145
 30
0.0
 10
79.28489853282927
 20
-144.4807738527684
 30
0.0
 10
87.56914359925835
 20
-144.4807738527684
 30
0.0
 10
87.56914359925835
 20
-144.4807738527684
 30
0.0
 10
97.56922917746826
 20
-144.4807738527684
 30
0.0
 10
97.56922917746826
 20
-144.4807738527684
 30
0.0
 10
97.56922917746826
 20
-144.4807738527684
 30
0.0
 10
99.0692402503109
 20
-142.9807627420328
 30
0.0
 10
99.0692402503109
 20
-142.9807627420328
 30
0.0
 10
99.0692402503109
 20
-142.9807627420328
 30
0.0
 10
97.56922917746826
 20
-142.9807627420328
 30
0.0
 10
97.56922917746826
 20
-142.9807627420328
 30
0.0
 10
97.56922917746826
 20
-142.9807627420328
 30
0.0
 10
97.0690255791184
 20
-143.4806488530188
 30
0.0
 10
97.0690255791184
 20
-143.4806488530188
 30
0.0
 10
97.0690255791184
 20
-143.4806488530188
 30
0.0
 10
87.56914359925835
 20
-143.4806488530188
 30
0.0
 10
87.56914359925835
 20
-143.4806488530188
 30
0.0
 10
83.88755480429462
 20
-143.4806488530188
 30
0.0
 10
80.53979961192519
 20
-142.0574727422635
 30
0.0
 10
78.0407218979042
 20
-139.7337607983999
 30
0.0
 10
78.0407218979042
 20
-139.7337607983999
 30
0.0
 10
81.79364442399596
 20
-135.9806638548938
 30
0.0
 10
81.79364442399596
 20
-135.9806638548938
 30
0.0
 10
81.79364442399596
 20
-135.9806638548938
 30
0.0
 10
110.0690627474598
 20
-135.9806638548938
 30
0.0
 10
110.0690627474598
 20
-135.9806638548938
 30
0.0
 10
110.0690627474598
 20
-135.9806638548938
 30
0.0
 10
110.0690627474598
 20
-134.947836355152
 30
0.0
 10
110.0690627474598
 20
-134.947836355152
 30
0.0
 10
110.0690627474598
 20
-134.947836355152
 30
0.0
 10
82.10232497947435
 20
-134.947836355152
 30
0.0
 10
82.10232497947435
 20
-134.947836355152
 30
0.0
 10
82.10232497947435
 20
-134.947836355152
 30
0.0
 10
82.10232497947435
 20
-106.9808841399216
 30
0.0
 10
82.10232497947435
 20
-106.9808841399216
 30
0.0
 10
82.10232497947435
 20
-106.9808841399216
 30
0.0
 10
81.06910737619921
 20
-106.9808841399216
 30
0.0
 10
81.06910737619921
 20
-106.9808841399216
 30
0.0
 10
81.06910737619921
 20
-106.9808841399216
 30
0.0
 10
81.06910737619921
 20
-135.2909832995107
 30
0.0
 10
81.06910737619921
 20
-135.2909832995107
 30
0.0
 10
81.06910737619921
 20
-135.2909832995107
 30
0.0
 10
77.33326136039747
 20
-139.0271821874656
 30
0.0
 10
77.33326136039747
 20
-139.0271821874656
 30
0.0
 10
74.99956586437945
 20
-136.5260230214239
 30
0.0
 10
73.56915784531664
 20
-133.1712121889297
 30
0.0
 10
73.56915784531664
 20
-129.480486356519
 30
0.0
 10
73.56915784531664
 20
-129.480486356519
 30
0.0
 10
73.56915784531664
 20
-119.9809569144493
 30
0.0
 10
73.56915784531664
 20
-119.9809569144493
 30
0.0
 10
73.56915784531664
 20
-119.9809569144493
 30
0.0
 10
74.06886942592718
 20
-119.4808944145741
 30
0.0
 10
74.06886942592718
 20
-119.4808944145741
 30
0.0
  0
INSERT
  5
BA
330
1F
100
AcDbEntity
  8
_U+30EC_U+30A4_U+30E4_U+30FC 1
100
AcDbBlockReference
  2
block 9
 10
0.0
 20
0.0
 30
0.0
  0
POLYLINE
  5
C4
330
1F
100
AcDbEntity
  8
_U+30EC_U+30A4_U+30E4_U+30FC 1
 62
     7
420
 16777215
370
     9
100
AcDb2dPolyline
 66
     1
 10
0.0
 20
0.0
 30
0.0
  0
VERTEX
  5
C5
330
C4
100
AcDbEntity
  8
_U+30EC_U+30A4_U+30E4_U+30FC 1
 62
     7
420
 16777215
370
     9
100
AcDbVertex
100
AcDb2dVertex
 10
69.7711171088794
 20
-147.2788660742911
 30
0.0
  0
VERTEX
  5
C6
330
C4
100
AcDbEntity
  8
_U+30EC_U+30A4_U+30E4_U+30FC 1
 62
     7
420
 16777215
370
     9
100
AcDbVertex
100
AcDb2dVertex
 10
76.57912832408145
 20
-140.4720541315487
 30
0.0
  0
SEQEND
  5
C7
330
C4
100
AcDbEntity
  8
_U+30EC_U+30A4_U+30E4_U+30FC 1
 62
     7
420
 16777215
370
     9
  0
POLYLINE
  5
C8
330
1F
100
AcDbEntity
  8
_U+30EC_U+30A4_U+30E4_U+30FC 1
 62
     7
420
 16777215
370
     9
100
AcDb2dPolyline
 66
     1
 10
0.0
 20
0.0
 30
0.0
  0
VERTEX
  5
C9
330
C8
100
AcDbEntity
  8
_U+30EC_U+30A4_U+30E4_U+30FC 1
 62
     7
420
 16777215
370
     9
100
AcDbVertex
100
AcDb2dVertex
 10
76.57912832408145
 20
-140.4720541315487
 30
0.0
  0
VERTEX
  5
CA
330
C8
100
AcDbEntity
  8
_U+30EC_U+30A4_U+30E4_U+30FC 1
 62
     7
420
 16777215
370
     9
100
AcDbVertex
100
AcDb2dVertex
 10
75.66719779179118
 20
-140.978466631422
 30
0.0
  0
SEQEND
  5
CB
330
C8
100
AcDbEntity
  8
_U+30EC_U+30A4_U+30E4_U+30FC 1
 62
     7
420
 16777215
370
     9
  0
POLYLINE
  5
CC
330
1F
100
AcDbEntity
  8
_U+30EC_U+30A4_U+30E4_U+30FC 1
 62
     7
420
 16777215
370
     9
100
AcDb2dPolyline
 66
     1
 10
0.0
 20
0.0
 30
0.0
  0
VERTEX
  5
CD
330
CC
100
AcDbEntity
  8
_U+30EC_U+30A4_U+30E4_U+30FC 1
 62
     7
420
 16777215
370
     9
100
AcDbVertex
100
AcDb2dVertex
 10
76.57912832408145
 20
-140.4720541315487
 30
0.0
  0
VERTEX
  5
CE
330
CC
100
AcDbEntity
  8
_U+30EC_U+30A4_U+30E4_U+30FC 1
 62
     7
420
 16777215
370
     9
100
AcDbVertex
100
AcDb2dVertex
 10
76.04170667112555
 20
-141.3660635757697
 30
0.0
  0
SEQEND
  5
CF
330
CC
100
AcDbEntity
  8
_U+30EC_U+30A4_U+30E4_U+30FC 1
 62
     7
420
 16777215
370
     9
  0
ENDSEC
  0
SECTION
  2
OBJECTS
  0
DICTIONARY
  5
C
330
0
100
AcDbDictionary
281
     1
  3
ACAD_GROUP
350
D
  3
ACAD_LAYOUT
350
1A
  3
ACAD_MATERIAL
350
3B
  3
ACAD_MLEADERSTYLE
350
D1
  3
ACAD_MLINESTYLE
350
17
  3
ACAD_PLOTSETTINGS
350
19
  3
ACAD_PLOTSTYLENAME
350
E
  3
ACAD_TABLESTYLE
350
D0
  3
ACAD_VISUALSTYLE
350
2A
  0
SUN
  5
3F
330
29
100
AcDbSun
 90
        1
290
     0
 63
     7
421
 16777215
 40
1.0
291
     1
 91
  2455826
 92
 54000000
292
     0
 70
     2
 71
   256
280
     1
  0
DICTIONARY
  5
D
102
{ACAD_REACTORS
330
C
102
}
330
C
100
AcDbDictionary
281
     1
  0
DICTIONARY
  5
1A
102
{ACAD_REACTORS
330
C
102
}
330
C
100
AcDbDictionary
281
     1
  3
Layout1
350
1E
  3
Layout2
350
26
  3
Model
350
22
  0
DICTIONARY
  5
3B
102
{ACAD_REACTORS
330
C
102
}
330
C
100
AcDbDictionary
281
     1
  3
ByBlock
350
3D
  3
ByLayer
350
3C
  3
Global
350
3E
  0
DICTIONARY
  5
D1
102
{ACAD_REACTORS
330
C
102
}
330
C
100
AcDbDictionary
281
     1
  0
DICTIONARY
  5
17
102
{ACAD_REACTORS
330
C
102
}
330
C
100
AcDbDictionary
281
     1
  3
Standard
350
18
  0
DICTIONARY
  5
19
102
{ACAD_REACTORS
330
C
102
}
330
C
100
AcDbDictionary
281
     1
  0
ACDBDICTIONARYWDFLT
  5
E
102
{ACAD_REACTORS
330
C
102
}
330
C
100
AcDbDictionary
281
     1
  3
Normal
350
F
100
AcDbDictionaryWithDefault
340
F
  0
DICTIONARY
  5
D0
102
{ACAD_REACTORS
330
C
102
}
330
C
100
AcDbDictionary
281
     1
  0
DICTIONARY
  5
2A
102
{ACAD_REACTORS
330
C
102
}
330
C
100
AcDbDictionary
281
     1
  3
2dWireframe
350
2F
  3
3D Hidden
350
31
  3
3dWireframe
350
30
  3
Basic
350
32
  3
Brighten
350
36
  3
ColorChange
350
3A
  3
Conceptual
350
34
  3
Dim
350
35
  3
Facepattern
350
39
  3
Flat
350
2B
  3
FlatWithEdges
350
2C
  3
Gouraud
350
2D
  3
GouraudWithEdges
350
2E
  3
Linepattern
350
38
  3
Realistic
350
33
  3
Thicken
350
37
  0
LAYOUT
  5
1E
102
{ACAD_REACTORS
330
1A
102
}
330
1A
100
AcDbPlotSettings
  1

  2
none_device
  4

  6

 40
0.0
 41
0.0
 42
0.0
 43
0.0
 44
0.0
 45
0.0
 46
0.0
 47
0.0
 48
0.0
 49
0.0
140
0.0
141
0.0
142
1.0
143
1.0
 70
   688
 72
     0
 73
     0
 74
     5
  7

 75
    16
 76
     0
 77
     2
 78
   300
147
1.0
148
0.0
149
0.0
100
AcDbLayout
  1
Layout1
 70
     1
 71
     1
 10
0.0
 20
0.0
 11
12.0
 21
9.0
 12
0.0
 22
0.0
 32
0.0
 14
1.000000000000000E+20
 24
1.000000000000000E+20
 34
1.000000000000000E+20
 15
-1.000000000000000E+20
 25
-1.000000000000000E+20
 35
-1.000000000000000E+20
146
0.0
 13
0.0
 23
0.0
 33
0.0
 16
1.0
 26
0.0
 36
0.0
 17
0.0
 27
1.0
 37
0.0
 76
     0
330
1B
  0
LAYOUT
  5
26
102
{ACAD_REACTORS
330
1A
102
}
330
1A
100
AcDbPlotSettings
  1

  2
none_device
  4

  6

 40
0.0
 41
0.0
 42
0.0
 43
0.0
 44
0.0
 45
0.0
 46
0.0
 47
0.0
 48
0.0
 49
0.0
140
0.0
141
0.0
142
1.0
143
1.0
 70
   688
 72
     0
 73
     0
 74
     5
  7

 75
    16
 76
     0
 77
     2
 78
   300
147
1.0
148
0.0
149
0.0
100
AcDbLayout
  1
Layout2
 70
     1
 71
     2
 10
0.0
 20
0.0
 11
0.0
 21
0.0
 12
0.0
 22
0.0
 32
0.0
 14
0.0
 24
0.0
 34
0.0
 15
0.0
 25
0.0
 35
0.0
146
0.0
 13
0.0
 23
0.0
 33
0.0
 16
1.0
 26
0.0
 36
0.0
 17
0.0
 27
1.0
 37
0.0
 76
     0
330
23
  0
LAYOUT
  5
22
102
{ACAD_REACTORS
330
1A
102
}
330
1A
100
AcDbPlotSettings
  1

  2
none_device
  4

  6

 40
0.0
 41
0.0
 42
0.0
 43
0.0
 44
0.0
 45
0.0
 46
0.0
 47
0.0
 48
0.0
 49
0.0
140
0.0
141
0.0
142
1.0
143
1.0
 70
  1712
 72
     0
 73
     0
 74
     0
  7

 75
     0
 76
     0
 77
     2
 78
   300
147
1.0
148
0.0
149
0.0
100
AcDbLayout
  1
Model
 70
     1
 71
     0
 10
0.0
 20
0.0
 11
12.0
 21
9.0
 12
0.0
 22
0.0
 32
0.0
 14
1.000000000000000E+20
 24
1.000000000000000E+20
 34
1.000000000000000E+20
 15
-1.000000000000000E+20
 25
-1.000000000000000E+20
 35
-1.000000000000000E+20
146
0.0
 13
0.0
 23
0.0
 33
0.0
 16
1.0
 26
0.0
 36
0.0
 17
0.0
 27
1.0
 37
0.0
 76
     0
330
1F
331
29
  0
MATERIAL
  5
3D
102
{ACAD_REACTORS
330
3B
102
}
330
3B
100
AcDbMaterial
  1
ByBlock
 72
     1
 94
      127
  0
MATERIAL
  5
3C
102
{ACAD_REACTORS
330
3B
102
}
330
3B
100
AcDbMaterial
  1
ByLayer
 72
     1
 94
      127
  0
MATERIAL
  5
3E
102
{ACAD_REACTORS
330
3B
102
}
330
3B
100
AcDbMaterial
  1
Global
 72
     1
 94
      127
  0
MLINESTYLE
  5
18
102
{ACAD_REACTORS
330
17
102
}
330
17
100
AcDbMlineStyle
  2
Standard
 70
     0
  3

 62
   256
 51
90.0
 52
90.0
 71
     2
 49
0.5
 62
   256
  6
BYLAYER
 49
-0.5
 62
   256
  6
BYLAYER
  0
ACDBPLACEHOLDER
  5
F
102
{ACAD_REACTORS
330
E
102
}
330
E
  0
VISUALSTYLE
  5
2F
102
{ACAD_REACTORS
330
2A
102
}
330
2A
100
AcDbVisualStyle
  2
2dWireframe
 70
     4
177
     2
291
     0
 71
     0
176
     1
 72
     2
176
     1
 73
     0
176
     1
 90
        0
176
     1
 40
-0.6
176
     1
 41
-30.0
176
     1
 62
     5
 63
     7
421
 16777215
176
     1
 74
     1
176
     1
 91
        4
176
     1
 64
     7
176
     1
 65
   257
176
     1
 75
     1
176
     1
175
     1
176
     1
 42
1.0
176
     1
 92
        0
176
     1
 66
   257
176
     1
 43
1.0
176
     1
 76
     1
176
     1
 77
     6
176
     1
 78
     2
176
     1
 67
     7
176
     1
 79
     5
176
     1
170
     0
176
     1
171
     0
176
     1
290
     0
176
     1
 93
        1
176
     1
 44
0.0
176
     1
173
     0
176
     1
  0
VISUALSTYLE
  5
31
102
{ACAD_REACTORS
330
2A
102
}
330
2A
100
AcDbVisualStyle
  2
3D Hidden
 70
     6
177
     2
291
     0
 71
     1
176
     1
 72
     2
176
     1
 73
     2
176
     1
 90
        0
176
     1
 40
-0.6
176
     1
 41
-30.0
176
     1
 62
     5
 63
     7
421
 16777215
176
     1
 74
     2
176
     1
 91
        2
176
     1
 64
     7
176
     1
 65
   257
176
     1
 75
     2
176
     1
175
     1
176
     1
 42
40.0
176
     1
 92
        0
176
     1
 66
   257
176
     1
 43
1.0
176
     1
 76
     1
176
     1
 77
     6
176
     1
 78
     2
176
     1
 67
     7
176
     1
 79
     3
176
     1
170
     0
176
     1
171
     0
176
     1
290
     0
176
     1
 93
        1
176
     1
 44
0.0
176
     1
173
     0
176
     1
  0
VISUALSTYLE
  5
30
102
{ACAD_REACTORS
330
2A
102
}
330
2A
100
AcDbVisualStyle
  2
3dWireframe
 70
     5
177
     2
291
     0
 71
     0
176
     1
 72
     2
176
     1
 73
     0
176
     1
 90
        0
176
     1
 40
-0.6
176
     1
 41
-30.0
176
     1
 62
     5
 63
     7
421
 16777215
176
     1
 74
     1
176
     1
 91
        4
176
     1
 64
     7
176
     1
 65
   257
176
     1
 75
     1
176
     1
175
     1
176
     1
 42
1.0
176
     1
 92
        0
176
     1
 66
   257
176
     1
 43
1.0
176
     1
 76
     1
176
     1
 77
     6
176
     1
 78
     2
176
     1
 67
     7
176
     1
 79
     5
176
     1
170
     0
176
     1
171
     0
176
     1
290
     0
176
     1
 93
        1
176
     1
 44
0.0
176
     1
173
     0
176
     1
  0
VISUALSTYLE
  5
32
102
{ACAD_REACTORS
330
2A
102
}
330
2A
100
AcDbVisualStyle
  2
Basic
 70
     7
177
     2
291
     1
 71
     1
176
     1
 72
     0
176
     1
 73
     1
176
     1
 90
        0
176
     1
 40
-0.6
176
     1
 41
-30.0
176
     1
 62
     5
 63
     7
421
 16777215
176
     1
 74
     0
176
     1
 91
        4
176
     1
 64
     7
176
     1
 65
   257
176
     1
 75
     1
176
     1
175
     1
176
     1
 42
1.0
176
     1
 92
        8
176
     1
 66
     7
176
     1
 43
1.0
176
     1
 76
     1
176
     1
 77
     6
176
     1
 78
     2
176
     1
 67
     7
176
     1
 79
     5
176
     1
170
     0
176
     1
171
     0
176
     1
290
     0
176
     1
 93
        1
176
     1
 44
0.0
176
     1
173
     0
176
     1
  0
VISUALSTYLE
  5
36
102
{ACAD_REACTORS
330
2A
102
}
330
2A
100
AcDbVisualStyle
  2
Brighten
 70
    12
177
     2
291
     1
 71
     2
176
     1
 72
     2
176
     1
 73
     0
176
     1
 90
        0
176
     1
 40
-0.6
176
     1
 41
-30.0
176
     1
 62
     5
 63
     7
421
 16777215
176
     1
 74
     1
176
     1
 91
        4
176
     1
 64
     7
176
     1
 65
   257
176
     1
 75
     1
176
     1
175
     1
176
     1
 42
1.0
176
     1
 92
        8
176
     1
 66
     7
176
     1
 43
1.0
176
     1
 76
     1
176
     1
 77
     6
176
     1
 78
     2
176
     1
 67
     7
176
     1
 79
     5
176
     1
170
     0
176
     1
171
     0
176
     1
290
     0
176
     1
 93
        1
176
     1
 44
50.0
176
     1
173
     0
176
     1
  0
VISUALSTYLE
  5
3A
102
{ACAD_REACTORS
330
2A
102
}
330
2A
100
AcDbVisualStyle
  2
ColorChange
 70
    16
177
     2
291
     1
 71
     2
176
     1
 72
     2
176
     1
 73
     3
176
     1
 90
        0
176
     1
 40
-0.6
176
     1
 41
-30.0
176
     1
 62
     5
 63
     8
421
  8421504
176
     1
 74
     1
176
     1
 91
        4
176
     1
 64
     7
176
     1
 65
   257
176
     1
 75
     1
176
     1
175
     1
176
     1
 42
1.0
176
     1
 92
        8
176
     1
 66
     8
424
  8421504
176
     1
 43
1.0
176
     1
 76
     1
176
     1
 77
     6
176
     1
 78
     2
176
     1
 67
     7
176
     1
 79
     5
176
     1
170
     0
176
     1
171
     0
176
     1
290
     0
176
     1
 93
        1
176
     1
 44
0.0
176
     1
173
     0
176
     1
  0
VISUALSTYLE
  5
34
102
{ACAD_REACTORS
330
2A
102
}
330
2A
100
AcDbVisualStyle
  2
Conceptual
 70
     9
177
     2
291
     0
 71
     3
176
     1
 72
     2
176
     1
 73
     0
176
     1
 90
        0
176
     1
 40
-0.6
176
     1
 41
-30.0
176
     1
 62
     5
 63
     7
421
 16777215
176
     1
 74
     2
176
     1
 91
        2
176
     1
 64
     7
176
     1
 65
   257
176
     1
 75
     1
176
     1
175
     1
176
     1
 42
40.0
176
     1
 92
        8
176
     1
 66
     7
176
     1
 43
1.0
176
     1
 76
     1
176
     1
 77
     6
176
     1
 78
     2
176
     1
 67
     7
176
     1
 79
     3
176
     1
170
     0
176
     1
171
     0
176
     1
290
     0
176
     1
 93
        1
176
     1
 44
0.0
176
     1
173
     0
176
     1
  0
VISUALSTYLE
  5
35
102
{ACAD_REACTORS
330
2A
102
}
330
2A
100
AcDbVisualStyle
  2
Dim
 70
    11
177
     2
291
     1
 71
     2
176
     1
 72
     2
176
     1
 73
     0
176
     1
 90
        0
176
     1
 40
-0.6
176
     1
 41
-30.0
176
     1
 62
     5
 63
     7
421
 16777215
176
     1
 74
     1
176
     1
 91
        4
176
     1
 64
     7
176
     1
 65
   257
176
     1
 75
     1
176
     1
175
     1
176
     1
 42
1.0
176
     1
 92
        8
176
     1
 66
     7
176
     1
 43
1.0
176
     1
 76
     1
176
     1
 77
     6
176
     1
 78
     2
176
     1
 67
     7
176
     1
 79
     5
176
     1
170
     0
176
     1
171
     0
176
     1
290
     0
176
     1
 93
        1
176
     1
 44
-50.0
176
     1
173
     0
176
     1
  0
VISUALSTYLE
  5
39
102
{ACAD_REACTORS
330
2A
102
}
330
2A
100
AcDbVisualStyle
  2
Facepattern
 70
    15
177
     2
291
     1
 71
     2
176
     1
 72
     2
176
     1
 73
     0
176
     1
 90
        0
176
     1
 40
-0.6
176
     1
 41
-30.0
176
     1
 62
     5
 63
     7
421
 16777215
176
     1
 74
     1
176
     1
 91
        4
176
     1
 64
     7
176
     1
 65
   257
176
     1
 75
     1
176
     1
175
     1
176
     1
 42
1.0
176
     1
 92
        8
176
     1
 66
     7
176
     1
 43
1.0
176
     1
 76
     1
176
     1
 77
     6
176
     1
 78
     2
176
     1
 67
     7
176
     1
 79
     5
176
     1
170
     0
176
     1
171
     0
176
     1
290
     0
176
     1
 93
        1
176
     1
 44
0.0
176
     1
173
     0
176
     1
  0
VISUALSTYLE
  5
2B
102
{ACAD_REACTORS
330
2A
102
}
330
2A
100
AcDbVisualStyle
  2
Flat
 70
     0
177
     2
291
     1
 71
     2
176
     1
 72
     1
176
     1
 73
     1
176
     1
 90
        2
176
     1
 40
-0.6
176
     1
 41
30.0
176
     1
 62
     5
 63
     7
421
 16777215
176
     1
 74
     0
176
     1
 91
        4
176
     1
 64
     7
176
     1
 65
   257
176
     1
 75
     1
176
     1
175
     1
176
     1
 42
1.0
176
     1
 92
        8
176
     1
 66
     7
176
     1
 43
1.0
176
     1
 76
     1
176
     1
 77
     6
176
     1
 78
     2
176
     1
 67
     7
176
     1
 79
     5
176
     1
170
     0
176
     1
171
     0
176
     1
290
     0
176
     1
 93
       13
176
     1
 44
0.0
176
     1
173
     0
176
     1
  0
VISUALSTYLE
  5
2C
102
{ACAD_REACTORS
330
2A
102
}
330
2A
100
AcDbVisualStyle
  2
FlatWithEdges
 70
     1
177
     2
291
     1
 71
     2
176
     1
 72
     1
176
     1
 73
     1
176
     1
 90
        2
176
     1
 40
-0.6
176
     1
 41
30.0
176
     1
 62
     5
 63
     7
421
 16777215
176
     1
 74
     1
176
     1
 91
        4
176
     1
 64
     7
176
     1
 65
   257
176
     1
 75
     1
176
     1
175
     1
176
     1
 42
1.0
176
     1
 92
        0
176
     1
 66
   257
176
     1
 43
1.0
176
     1
 76
     1
176
     1
 77
     6
176
     1
 78
     2
176
     1
 67
     7
176
     1
 79
     5
176
     1
170
     0
176
     1
171
     0
176
     1
290
     0
176
     1
 93
       13
176
     1
 44
0.0
176
     1
173
     0
176
     1
  0
VISUALSTYLE
  5
2D
102
{ACAD_REACTORS
330
2A
102
}
330
2A
100
AcDbVisualStyle
  2
Gouraud
 70
     2
177
     2
291
     1
 71
     2
176
     1
 72
     2
176
     1
 73
     1
176
     1
 90
        2
176
     1
 40
-0.6
176
     1
 41
30.0
176
     1
 62
     5
 63
     7
421
 16777215
176
     1
 74
     0
176
     1
 91
        4
176
     1
 64
     7
176
     1
 65
   257
176
     1
 75
     1
176
     1
175
     1
176
     1
 42
1.0
176
     1
 92
        0
176
     1
 66
     7
176
     1
 43
1.0
176
     1
 76
     1
176
     1
 77
     6
176
     1
 78
     2
176
     1
 67
     7
176
     1
 79
     5
176
     1
170
     0
176
     1
171
     0
176
     1
290
     0
176
     1
 93
       13
176
     1
 44
0.0
176
     1
173
     0
176
     1
  0
VISUALSTYLE
  5
2E
102
{ACAD_REACTORS
330
2A
102
}
330
2A
100
AcDbVisualStyle
  2
GouraudWithEdges
 70
     3
177
     2
291
     1
 71
     2
176
     1
 72
     2
176
     1
 73
     1
176
     1
 90
        2
176
     1
 40
-0.6
176
     1
 41
30.0
176
     1
 62
     5
 63
     7
421
 16777215
176
     1
 74
     1
176
     1
 91
        4
176
     1
 64
     7
176
     1
 65
   257
176
     1
 75
     1
176
     1
175
     1
176
     1
 42
1.0
176
     1
 92
        0
176
     1
 66
   257
176
     1
 43
1.0
176
     1
 76
     1
176
     1
 77
     6
176
     1
 78
     2
176
     1
 67
     7
176
     1
 79
     5
176
     1
170
     0
176
     1
171
     0
176
     1
290
     0
176
     1
 93
       13
176
     1
 44
0.0
176
     1
173
     0
176
     1
  0
VISUALSTYLE
  5
38
102
{ACAD_REACTORS
330
2A
102
}
330
2A
100
AcDbVisualStyle
  2
Linepattern
 70
    14
177
     2
291
     1
 71
     2
176
     1
 72
     2
176
     1
 73
     0
176
     1
 90
        0
176
     1
 40
-0.6
176
     1
 41
-30.0
176
     1
 62
     5
 63
     7
421
 16777215
176
     1
 74
     1
176
     1
 91
        4
176
     1
 64
     7
176
     1
 65
   257
176
     1
 75
     7
176
     1
175
     7
176
     1
 42
1.0
176
     1
 92
        8
176
     1
 66
     7
176
     1
 43
1.0
176
     1
 76
     1
176
     1
 77
     6
176
     1
 78
     2
176
     1
 67
     7
176
     1
 79
     5
176
     1
170
     0
176
     1
171
     0
176
     1
290
     0
176
     1
 93
        1
176
     1
 44
0.0
176
     1
173
     0
176
     1
  0
VISUALSTYLE
  5
33
102
{ACAD_REACTORS
330
2A
102
}
330
2A
100
AcDbVisualStyle
  2
Realistic
 70
     8
177
     2
291
     0
 71
     2
176
     1
 72
     2
176
     1
 73
     0
176
     1
 90
        0
176
     1
 40
-0.6
176
     1
 41
-30.0
176
     1
 62
     5
 63
     7
421
 16777215
176
     1
 74
     1
176
     1
 91
        0
176
     1
 64
     7
176
     1
 65
   257
176
     1
 75
     1
176
     1
175
     1
176
     1
 42
1.0
176
     1
 92
        8
176
     1
 66
     8
424
  7895160
176
     1
 43
1.0
176
     1
 76
     1
176
     1
 77
     6
176
     1
 78
     2
176
     1
 67
     7
176
     1
 79
     5
176
     1
170
     0
176
     1
171
     0
176
     1
290
     0
176
     1
 93
       13
176
     1
 44
0.0
176
     1
173
     0
176
     1
  0
VISUALSTYLE
  5
37
102
{ACAD_REACTORS
330
2A
102
}
330
2A
100
AcDbVisualStyle
  2
Thicken
 70
    13
177
     2
291
     1
 71
     2
176
     1
 72
     2
176
     1
 73
     0
176
     1
 90
        0
176
     1
 40
-0.6
176
     1
 41
-30.0
176
     1
 62
     5
 63
     7
421
 16777215
176
     1
 74
     1
176
     1
 91
        4
176
     1
 64
     7
176
     1
 65
   257
176
     1
 75
     1
176
     1
175
     1
176
     1
 42
1.0
176
     1
 92
       12
176
     1
 66
     7
176
     1
 43
1.0
176
     1
 76
     1
176
     1
 77
     6
176
     1
 78
     2
176
     1
 67
     7
176
     1
 79
     5
176
     1
170
     0
176
     1
171
     0
176
     1
290
     0
176
     1
 93
        1
176
     1
 44
0.0
176
     1
173
     0
176
     1
  0
ENDSEC
  0
EOF
