  0
SECTION
  2
HEADER
  9
$ACADVER
  1
AC1024
  9
$ACADMAINTVER
 70
     6
  9
$DWGCODEPAGE
  3
UNDEFINED
  9
$INSBASE
 10
0.0
 20
0.0
 30
0.0
  9
$EXTMIN
 10
1.000000000000000E+20
 20
1.000000000000000E+20
 30
1.000000000000000E+20
  9
$EXTMAX
 10
-1.000000000000000E+20
 20
-1.000000000000000E+20
 30
-1.000000000000000E+20
  9
$LIMMIN
 10
0.0
 20
0.0
  9
$LIMMAX
 10
12.0
 20
9.0
  9
$ORTHOMODE
 70
     0
  9
$REGENMODE
 70
     1
  9
$FILLMODE
 70
     1
  9
$QTEXTMODE
 70
     0
  9
$MIRRTEXT
 70
     1
  9
$LTSCALE
 40
1.0
  9
$ATTMODE
 70
     1
  9
$TEXTSIZE
 40
0.2
  9
$TRACEWID
 40
0.05
  9
$TEXTSTYLE
  7
Standard
  9
$CLAYER
  8
0
  9
$CELTYPE
  6
ByLayer
  9
$CECOLOR
 62
   256
  9
$CELTSCALE
 40
1.0
  9
$DISPSILH
 70
     0
  9
$DIMSCALE
 40
1.0
  9
$DIMASZ
 40
0.18
  9
$DIMEXO
 40
0.0625
  9
$DIMDLI
 40
0.38
  9
$DIMRND
 40
0.0
  9
$DIMDLE
 40
0.0
  9
$DIMEXE
 40
0.18
  9
$DIMTP
 40
0.0
  9
$DIMTM
 40
0.0
  9
$DIMTXT
 40
0.18
  9
$DIMCEN
 40
0.09
  9
$DIMTSZ
 40
0.0
  9
$DIMTOL
 70
     0
  9
$DIMLIM
 70
     0
  9
$DIMTIH
 70
     1
  9
$DIMTOH
 70
     1
  9
$DIMSE1
 70
     0
  9
$DIMSE2
 70
     0
  9
$DIMTAD
 70
     0
  9
$DIMZIN
 70
     0
  9
$DIMBLK
  1

  9
$DIMASO
 70
     1
  9
$DIMSHO
 70
     1
  9
$DIMPOST
  1

  9
$DIMAPOST
  1

  9
$DIMALT
 70
     0
  9
$DIMALTD
 70
     2
  9
$DIMALTF
 40
25.4
  9
$DIMLFAC
 40
1.0
  9
$DIMTOFL
 70
     0
  9
$DIMTVP
 40
0.0
  9
$DIMTIX
 70
     0
  9
$DIMSOXD
 70
     0
  9
$DIMSAH
 70
     0
  9
$DIMBLK1
  1

  9
$DIMBLK2
  1

  9
$DIMSTYLE
  2
Standard
  9
$DIMCLRD
 70
     0
  9
$DIMCLRE
 70
     0
  9
$DIMCLRT
 70
     0
  9
$DIMTFAC
 40
1.0
  9
$DIMGAP
 40
0.09
  9
$DIMJUST
 70
     0
  9
$DIMSD1
 70
     0
  9
$DIMSD2
 70
     0
  9
$DIMTOLJ
 70
     1
  9
$DIMTZIN
 70
     0
  9
$DIMALTZ
 70
     0
  9
$DIMALTTZ
 70
     0
  9
$DIMUPT
 70
     0
  9
$DIMDEC
 70
     4
  9
$DIMTDEC
 70
     4
  9
$DIMALTU
 70
     2
  9
$DIMALTTD
 70
     2
  9
$DIMTXSTY
  7
Standard
  9
$DIMAUNIT
 70
     0
  9
$DIMADEC
 70
     0
  9
$DIMALTRND
 40
0.0
  9
$DIMAZIN
 70
     0
  9
$DIMDSEP
 70
    46
  9
$DIMATFIT
 70
     3
  9
$DIMFRAC
 70
     0
  9
$DIMLDRBLK
  1

  9
$DIMLUNIT
 70
     2
  9
$DIMLWD
 70
    -2
  9
$DIMLWE
 70
    -2
  9
$DIMTMOVE
 70
     0
  9
$DIMFXL
 40
1.0
  9
$DIMFXLON
 70
     0
  9
$DIMJOGANG
 40
0.7853981633974483
  9
$DIMTFILL
 70
     0
  9
$DIMTFILLCLR
 70
     0
  9
$DIMARCSYM
 70
     0
  9
$DIMLTYPE
  6

  9
$DIMLTEX1
  6

  9
$DIMLTEX2
  6

  9
$DIMTXTDIRECTION
 70
     0
  9
$LUNITS
 70
     2
  9
$LUPREC
 70
     4
  9
$SKETCHINC
 40
0.1
  9
$FILLETRAD
 40
0.5
  9
$AUNITS
 70
     0
  9
$AUPREC
 70
     0
  9
$MENU
  1
.
  9
$ELEVATION
 40
0.0
  9
$PELEVATION
 40
0.0
  9
$THICKNESS
 40
0.0
  9
$LIMCHECK
 70
     0
  9
$CHAMFERA
 40
0.5
  9
$CHAMFERB
 40
0.5
  9
$CHAMFERC
 40
1.0
  9
$CHAMFERD
 40
0.0
  9
$SKPOLY
 70
     0
  9
$TDCREATE
 40
2457917.594652778
  9
$TDUCREATE
 40
2457917.219652778
  9
$TDUPDATE
 40
2457917.594652778
  9
$TDUUPDATE
 40
2457917.219652778
  9
$TDINDWG
 40
0.0000000116
  9
$TDUSRTIMER
 40
0.0000000116
  9
$USRTIMER
 70
     1
  9
$ANGBASE
 50
0.0
  9
$ANGDIR
 70
     0
  9
$PDMODE
 70
     0
  9
$PDSIZE
 40
0.0
  9
$PLINEWID
 40
0.0
  9
$SPLFRAME
 70
     0
  9
$SPLINETYPE
 70
     6
  9
$SPLINESEGS
 70
     8
  9
$HANDSEED
  5
107
  9
$SURFTAB1
 70
     6
  9
$SURFTAB2
 70
     6
  9
$SURFTYPE
 70
     6
  9
$SURFU
 70
     6
  9
$SURFV
 70
     6
  9
$UCSBASE
  2

  9
$UCSNAME
  2

  9
$UCSORG
 10
0.0
 20
0.0
 30
0.0
  9
$UCSXDIR
 10
1.0
 20
0.0
 30
0.0
  9
$UCSYDIR
 10
0.0
 20
1.0
 30
0.0
  9
$UCSORTHOREF
  2

  9
$UCSORTHOVIEW
 70
     0
  9
$UCSORGTOP
 10
0.0
 20
0.0
 30
0.0
  9
$UCSORGBOTTOM
 10
0.0
 20
0.0
 30
0.0
  9
$UCSORGLEFT
 10
0.0
 20
0.0
 30
0.0
  9
$UCSORGRIGHT
 10
0.0
 20
0.0
 30
0.0
  9
$UCSORGFRONT
 10
0.0
 20
0.0
 30
0.0
  9
$UCSORGBACK
 10
0.0
 20
0.0
 30
0.0
  9
$PUCSBASE
  2

  9
$PUCSNAME
  2

  9
$PUCSORG
 10
0.0
 20
0.0
 30
0.0
  9
$PUCSXDIR
 10
1.0
 20
0.0
 30
0.0
  9
$PUCSYDIR
 10
0.0
 20
1.0
 30
0.0
  9
$PUCSORTHOREF
  2

  9
$PUCSORTHOVIEW
 70
     0
  9
$PUCSORGTOP
 10
0.0
 20
0.0
 30
0.0
  9
$PUCSORGBOTTOM
 10
0.0
 20
0.0
 30
0.0
  9
$PUCSORGLEFT
 10
0.0
 20
0.0
 30
0.0
  9
$PUCSORGRIGHT
 10
0.0
 20
0.0
 30
0.0
  9
$PUCSORGFRONT
 10
0.0
 20
0.0
 30
0.0
  9
$PUCSORGBACK
 10
0.0
 20
0.0
 30
0.0
  9
$USERI1
 70
     0
  9
$USERI2
 70
     0
  9
$USERI3
 70
     0
  9
$USERI4
 70
     0
  9
$USERI5
 70
     0
  9
$USERR1
 40
0.0
  9
$USERR2
 40
0.0
  9
$USERR3
 40
0.0
  9
$USERR4
 40
0.0
  9
$USERR5
 40
0.0
  9
$WORLDVIEW
 70
     1
  9
$SHADEDGE
 70
     3
  9
$SHADEDIF
 70
    70
  9
$TILEMODE
 70
     1
  9
$MAXACTVP
 70
    64
  9
$PINSBASE
 10
0.0
 20
0.0
 30
0.0
  9
$PLIMCHECK
 70
     0
  9
$PEXTMIN
 10
1.000000000000000E+20
 20
1.000000000000000E+20
 30
1.000000000000000E+20
  9
$PEXTMAX
 10
-1.000000000000000E+20
 20
-1.000000000000000E+20
 30
-1.000000000000000E+20
  9
$PLIMMIN
 10
0.0
 20
0.0
  9
$PLIMMAX
 10
12.0
 20
9.0
  9
$UNITMODE
 70
     0
  9
$VISRETAIN
 70
     1
  9
$PLINEGEN
 70
     0
  9
$PSLTSCALE
 70
     1
  9
$TREEDEPTH
 70
  3020
  9
$CMLSTYLE
  2
Standard
  9
$CMLJUST
 70
     0
  9
$CMLSCALE
 40
1.0
  9
$PROXYGRAPHICS
 70
     1
  9
$MEASUREMENT
 70
     0
  9
$CELWEIGHT
370
    -1
  9
$ENDCAPS
280
     0
  9
$JOINSTYLE
280
     0
  9
$LWDISPLAY
290
     1
  9
$INSUNITS
 70
     1
  9
$HYPERLINKBASE
  1

  9
$STYLESHEET
  1

  9
$XEDIT
290
     1
  9
$CEPSNTYPE
380
     0
  9
$PSTYLEMODE
290
     1
  9
$FINGERPRINTGUID
  2
{923C150F-0627-44B1-9890-D7E2557D624F}
  9
$VERSIONGUID
  2
{FAEB1C32-E019-11D5-929B-00C0DF256EC4}
  9
$EXTNAMES
290
     1
  9
$PSVPSCALE
 40
0.0
  9
$OLESTARTUP
290
     0
  9
$SORTENTS
280
   127
  9
$INDEXCTL
280
     0
  9
$HIDETEXT
280
     1
  9
$XCLIPFRAME
280
     2
  9
$HALOGAP
280
     0
  9
$OBSCOLOR
 70
   257
  9
$OBSLTYPE
280
     0
  9
$INTERSECTIONDISPLAY
280
     0
  9
$INTERSECTIONCOLOR
 70
   257
  9
$DIMASSOC
280
     2
  9
$PROJECTNAME
  1

  9
$CAMERADISPLAY
290
     0
  9
$LENSLENGTH
 40
50.0
  9
$CAMERAHEIGHT
 40
0.0
  9
$STEPSPERSEC
 40
2.0
  9
$STEPSIZE
 40
6.0
  9
$3DDWFPREC
 40
2.0
  9
$PSOLWIDTH
 40
0.25
  9
$PSOLHEIGHT
 40
4.0
  9
$LOFTANG1
 40
1.570796326794897
  9
$LOFTANG2
 40
1.570796326794897
  9
$LOFTMAG1
 40
0.0
  9
$LOFTMAG2
 40
0.0
  9
$LOFTPARAM
 70
     7
  9
$LOFTNORMALS
280
     1
  9
$LATITUDE
 40
37.795
  9
$LONGITUDE
 40
-122.394
  9
$NORTHDIRECTION
 40
0.0
  9
$TIMEZONE
 70
 -8000
  9
$LIGHTGLYPHDISPLAY
280
     1
  9
$TILEMODELIGHTSYNCH
280
     1
  9
$CMATERIAL
347
3C
  9
$SOLIDHIST
280
     1
  9
$SHOWHIST
280
     1
  9
$DWFFRAME
280
     2
  9
$DGNFRAME
280
     2
  9
$REALWORLDSCALE
290
     1
  9
$INTERFERECOLOR
 62
   256
  9
$CSHADOW
280
     0
  9
$SHADOWPLANELOCATION
 40
0.0
  0
ENDSEC
  0
SECTION
  2
CLASSES
  0
CLASS
  1
ACDBDICTIONARYWDFLT
  2
AcDbDictionaryWithDefault
  3
ObjectDBX Classes
 90
        0
 91
        4
280
     0
281
     0
  0
CLASS
  1
VISUALSTYLE
  2
AcDbVisualStyle
  3
ObjectDBX Classes
 90
     4095
 91
        4
280
     0
281
     0
  0
CLASS
  1
MATERIAL
  2
AcDbMaterial
  3
ObjectDBX Classes
 90
     1153
 91
        4
280
     0
281
     0
  0
CLASS
  1
SUN
  2
AcDbSun
  3
SCENEOE
 90
     1024
 91
        4
280
     0
281
     0
  0
ENDSEC
  0
SECTION
  2
TABLES
  0
TABLE
  2
VPORT
  5
8
330
0
100
AcDbSymbolTable
 70
     1
  0
VPORT
  5
29
330
8
100
AcDbSymbolTableRecord
100
AcDbViewportTableRecord
  2
*Active
 70
     0
 10
0.0
 20
0.0
 11
1.0
 21
1.0
 12
0.0
 22
0.0
 13
0.0
 23
0.0
 14
0.5
 24
0.5
 15
0.5
 25
0.5
 16
0.0
 26
0.0
 36
1.0
 17
91.00082462281999
 27
-128.4993055234307
 37
0.0
 40
256.9986110468615
 41
0.7081814508812795
 42
50.0
 43
0.0
 44
0.0
 50
0.0
 51
0.0
 71
     0
 72
   100
 73
     1
 74
     3
 75
     0
 76
     0
 77
     0
 78
     0
281
     0
 65
     1
110
0.0
120
0.0
130
0.0
111
1.0
121
0.0
131
0.0
112
0.0
122
1.0
132
0.0
 79
     0
146
0.0
 60
     3
 61
     5
292
     1
282
     1
141
0.0
142
0.0
 63
   250
361
3F
  0
ENDTAB
  0
TABLE
  2
LTYPE
  5
5
330
0
100
AcDbSymbolTable
 70
     1
  0
LTYPE
  5
14
330
5
100
AcDbSymbolTableRecord
100
AcDbLinetypeTableRecord
  2
ByBlock
 70
     0
  3

 72
    65
 73
     0
 40
0.0
  0
LTYPE
  5
15
330
5
100
AcDbSymbolTableRecord
100
AcDbLinetypeTableRecord
  2
ByLayer
 70
     0
  3

 72
    65
 73
     0
 40
0.0
  0
LTYPE
  5
16
330
5
100
AcDbSymbolTableRecord
100
AcDbLinetypeTableRecord
  2
Continuous
 70
     0
  3
Solid line
 72
    65
 73
     0
 40
0.0
  0
ENDTAB
  0
TABLE
  2
LAYER
  5
2
330
0
100
AcDbSymbolTable
 70
     2
  0
LAYER
  5
10
330
2
100
AcDbSymbolTableRecord
100
AcDbLayerTableRecord
  2
0
 70
     0
 62
     7
  6
Continuous
370
    -3
390
F
347
3E
  0
LAYER
  5
40
330
2
100
AcDbSymbolTableRecord
100
AcDbLayerTableRecord
  2
_U+30EC_U+30A4_U+30E4_U+30FC 1
 70
     0
 62
     7
  6
Continuous
370
    -3
390
F
347
3E
  0
ENDTAB
  0
TABLE
  2
STYLE
  5
3
330
0
100
AcDbSymbolTable
 70
     1
  0
STYLE
  5
11
330
3
100
AcDbSymbolTableRecord
100
AcDbTextStyleTableRecord
  2
Standard
 70
     0
 40
0.0
 41
1.0
 50
0.0
 71
     0
 42
0.2
  3
txt
  4

  0
ENDTAB
  0
TABLE
  2
VIEW
  5
6
330
0
100
AcDbSymbolTable
 70
     0
  0
ENDTAB
  0
TABLE
  2
UCS
  5
7
330
0
100
AcDbSymbolTable
 70
     0
  0
ENDTAB
  0
TABLE
  2
APPID
  5
9
330
0
100
AcDbSymbolTable
 70
     1
  0
APPID
  5
12
330
9
100
AcDbSymbolTableRecord
100
AcDbRegAppTableRecord
  2
ACAD
 70
     0
  0
ENDTAB
  0
TABLE
  2
DIMSTYLE
  5
A
330
0
100
AcDbSymbolTable
 70
     1
100
AcDbDimStyleTable
  0
DIMSTYLE
105
27
330
A
100
AcDbSymbolTableRecord
100
AcDbDimStyleTableRecord
  2
Standard
 70
     0
178
     0
340
11
  0
ENDTAB
  0
TABLE
  2
BLOCK_RECORD
  5
1
330
0
100
AcDbSymbolTable
 70
     7
  0
BLOCK_RECORD
  5
1F
330
1
100
AcDbSymbolTableRecord
100
AcDbBlockTableRecord
  2
*Model_Space
340
22
 70
     0
280
     1
281
     0
  0
BLOCK_RECORD
  5
1B
330
1
100
AcDbSymbolTableRecord
100
AcDbBlockTableRecord
  2
*Paper_Space
340
1E
 70
     0
280
     1
281
     0
  0
BLOCK_RECORD
  5
23
330
1
100
AcDbSymbolTableRecord
100
AcDbBlockTableRecord
  2
*Paper_Space0
340
26
 70
     0
280
     1
281
     0
  0
BLOCK_RECORD
  5
94
330
1
100
AcDbSymbolTableRecord
100
AcDbBlockTableRecord
  2
block 2
340
0
102
{BLKREFS
331
95
102
}
 70
     0
280
     1
281
     0
  0
BLOCK_RECORD
  5
B1
330
1
100
AcDbSymbolTableRecord
100
AcDbBlockTableRecord
  2
block 3
340
0
102
{BLKREFS
331
B2
102
}
 70
     0
280
     1
281
     0
  0
BLOCK_RECORD
  5
C5
330
1
100
AcDbSymbolTableRecord
100
AcDbBlockTableRecord
  2
block 4
340
0
102
{BLKREFS
331
C6
102
}
 70
     0
280
     1
281
     0
  0
BLOCK_RECORD
  5
D9
330
1
100
AcDbSymbolTableRecord
100
AcDbBlockTableRecord
  2
block 5
340
0
102
{BLKREFS
331
DA
102
}
 70
     0
280
     1
281
     0
  0
BLOCK_RECORD
  5
EB
330
1
100
AcDbSymbolTableRecord
100
AcDbBlockTableRecord
  2
block 6
340
0
102
{BLKREFS
331
EC
102
}
 70
     0
280
     1
281
     0
  0
BLOCK_RECORD
  5
FD
330
1
100
AcDbSymbolTableRecord
100
AcDbBlockTableRecord
  2
block 7
340
0
102
{BLKREFS
331
FE
102
}
 70
     0
280
     1
281
     0
  0
ENDTAB
  0
ENDSEC
  0
SECTION
  2
BLOCKS
  0
BLOCK
  5
20
330
1F
100
AcDbEntity
  8
0
100
AcDbBlockBegin
  2
*Model_Space
 70
     0
 10
0.0
 20
0.0
 30
0.0
  3
*Model_Space
  1

  0
ENDBLK
  5
21
330
1F
100
AcDbEntity
  8
0
100
AcDbBlockEnd
  0
BLOCK
  5
1C
330
1B
100
AcDbEntity
 67
     1
  8
0
100
AcDbBlockBegin
  2
*Paper_Space
 70
     0
 10
0.0
 20
0.0
 30
0.0
  3
*Paper_Space
  1

  0
ENDBLK
  5
1D
330
1B
100
AcDbEntity
 67
     1
  8
0
100
AcDbBlockEnd
  0
BLOCK
  5
24
330
23
100
AcDbEntity
  8
0
100
AcDbBlockBegin
  2
*Paper_Space0
 70
     0
 10
0.0
 20
0.0
 30
0.0
  3
*Paper_Space0
  1

  0
ENDBLK
  5
25
330
23
100
AcDbEntity
  8
0
100
AcDbBlockEnd
  0
BLOCK
  5
96
330
94
100
AcDbEntity
  8
0
100
AcDbBlockBegin
  2
block 2
 70
     0
 10
0.0
 20
0.0
 30
0.0
  3
block 2
  1

  0
SPLINE
  5
98
330
94
100
AcDbEntity
  8
_U+30EC_U+30A4_U+30E4_U+30FC 1
370
     0
100
AcDbSpline
210
0.0
220
0.0
230
1.0
 70
    11
 71
     3
 72
    29
 73
    25
 74
     0
 42
0.0000000001
 43
0.0000000001
 12
1.0
 22
0.0
 32
0.0
 13
1.0
 23
0.0
 33
0.0
 40
0.0
 40
0.0
 40
0.0
 40
0.0
 40
1.0
 40
1.0
 40
1.0
 40
2.0
 40
2.0
 40
2.0
 40
3.0
 40
3.0
 40
3.0
 40
4.0
 40
4.0
 40
4.0
 40
5.0
 40
5.0
 40
5.0
 40
6.0
 40
6.0
 40
6.0
 40
7.0
 40
7.0
 40
7.0
 40
8.0
 40
8.0
 40
8.0
 40
8.0
 10
105.7733886454317
 20
-136.714824727106
 30
0.0
 10
105.9828504509348
 20
-136.8302354258619
 30
0.0
 10
106.0021429856522
 20
-137.0155815629683
 30
0.0
 10
106.0021429856522
 20
-137.1399495099859
 30
0.0
 10
106.0021429856522
 20
-137.3115152651513
 30
0.0
 10
105.9552896870529
 20
-137.4630994665023
 30
0.0
 10
105.7733886454317
 20
-137.5647297833171
 30
0.0
 10
105.5790852600636
 20
-137.6756618579422
 30
0.0
 10
105.3420626906784
 20
-137.6959879213052
 30
0.0
 10
105.1794541837746
 20
-137.6959879213052
 30
0.0
 10
105.0354491924911
 20
-137.6959879213052
 30
0.0
 10
104.7832682029709
 20
-137.6780734247819
 30
0.0
 10
104.5848307030205
 20
-137.5647297833171
 30
0.0
 10
104.3815700693907
 20
-137.4496635941098
 30
0.0
 10
104.358143420091
 20
-137.2777533293958
 30
0.0
 10
104.358143420091
 20
-137.1399495099859
 30
0.0
 10
104.358143420091
 20
-136.970106302563
 30
0.0
 10
104.4029296613993
 20
-136.8164550439209
 30
0.0
 10
104.5848307030205
 20
-136.714824727106
 30
0.0
 10
104.7770670310974
 20
-136.6083712766118
 30
0.0
 10
105.005821371318
 20
-136.583566589118
 30
0.0
 10
105.1794541837746
 20
-136.583566589118
 30
0.0
 10
105.350330919843
 20
-136.583566589118
 30
0.0
 10
105.5811523173547
 20
-136.6063042193207
 30
0.0
 10
105.7733886454317
 20
-136.714824727106
 30
0.0
  0
SPLINE
  5
99
330
94
100
AcDbEntity
  8
_U+30EC_U+30A4_U+30E4_U+30FC 1
370
     0
100
AcDbSpline
210
0.0
220
0.0
230
1.0
 70
    11
 71
     3
 72
    17
 73
    13
 74
     0
 42
0.0000000001
 43
0.0000000001
 12
1.0
 22
0.0
 32
0.0
 13
1.0
 23
0.0
 33
0.0
 40
0.0
 40
0.0
 40
0.0
 40
0.0
 40
1.0
 40
1.0
 40
1.0
 40
2.0
 40
2.0
 40
2.0
 40
3.0
 40
3.0
 40
3.0
 40
4.0
 40
4.0
 40
4.0
 40
4.0
 10
104.551068767265
 20
-137.1399495099859
 30
0.0
 10
104.551068767265
 20
-137.4065999005442
 30
0.0
 10
104.8342556161525
 20
-137.4562092755318
 30
0.0
 10
105.1794541837746
 20
-137.4562092755318
 30
0.0
 10
105.4984700257087
 20
-137.4562092755318
 30
0.0
 10
105.8071505811871
 20
-137.4179687156455
 30
0.0
 10
105.8071505811871
 20
-137.1399495099859
 30
0.0
 10
105.8071505811871
 20
-136.8753661767187
 30
0.0
 10
105.5260307895907
 20
-136.8233452348914
 30
0.0
 10
105.1794541837746
 20
-136.8233452348914
 30
0.0
 10
104.8597493227434
 20
-136.8233452348914
 30
0.0
 10
104.551068767265
 20
-136.8639973616174
 30
0.0
 10
104.551068767265
 20
-137.1399495099859
 30
0.0
  0
HATCH
  5
9A
330
94
100
AcDbEntity
  8
_U+30EC_U+30A4_U+30E4_U+30FC 1
 62
   179
420
  2234388
100
AcDbHatch
 10
0.0
 20
0.0
 30
0.0
210
0.0
220
0.0
230
1.0
  2
SOLID
 70
     1
 71
     0
 91
        2
 92
        1
 93
        1
 72
     4
 94
        3
 73
     0
 74
     1
 95
       29
 96
       25
 40
0.0
 40
0.0
 40
0.0
 40
0.0
 40
1.0
 40
1.0
 40
1.0
 40
2.0
 40
2.0
 40
2.0
 40
3.0
 40
3.0
 40
3.0
 40
4.0
 40
4.0
 40
4.0
 40
5.0
 40
5.0
 40
5.0
 40
6.0
 40
6.0
 40
6.0
 40
7.0
 40
7.0
 40
7.0
 40
8.0
 40
8.0
 40
8.0
 40
8.0
 10
105.7733886454317
 20
-136.714824727106
 10
105.9828504509348
 20
-136.8302354258619
 10
106.0021429856522
 20
-137.0155815629683
 10
106.0021429856522
 20
-137.1399495099859
 10
106.0021429856522
 20
-137.3115152651513
 10
105.9552896870529
 20
-137.4630994665023
 10
105.7733886454317
 20
-137.5647297833171
 10
105.5790852600636
 20
-137.6756618579422
 10
105.3420626906784
 20
-137.6959879213052
 10
105.1794541837746
 20
-137.6959879213052
 10
105.0354491924911
 20
-137.6959879213052
 10
104.7832682029709
 20
-137.6780734247819
 10
104.5848307030205
 20
-137.5647297833171
 10
104.3815700693907
 20
-137.4496635941098
 10
104.358143420091
 20
-137.2777533293958
 10
104.358143420091
 20
-137.1399495099859
 10
104.358143420091
 20
-136.970106302563
 10
104.4029296613993
 20
-136.8164550439209
 10
104.5848307030205
 20
-136.714824727106
 10
104.7770670310974
 20
-136.6083712766118
 10
105.005821371318
 20
-136.583566589118
 10
105.1794541837746
 20
-136.583566589118
 10
105.350330919843
 20
-136.583566589118
 10
105.5811523173547
 20
-136.6063042193207
 10
105.7733886454317
 20
-136.714824727106
 97
        0
 97
        0
 92
        1
 93
        1
 72
     4
 94
        3
 73
     0
 74
     1
 95
       17
 96
       13
 40
0.0
 40
0.0
 40
0.0
 40
0.0
 40
1.0
 40
1.0
 40
1.0
 40
2.0
 40
2.0
 40
2.0
 40
3.0
 40
3.0
 40
3.0
 40
4.0
 40
4.0
 40
4.0
 40
4.0
 10
104.551068767265
 20
-137.1399495099859
 10
104.551068767265
 20
-137.4065999005442
 10
104.8342556161525
 20
-137.4562092755318
 10
105.1794541837746
 20
-137.4562092755318
 10
105.4984700257087
 20
-137.4562092755318
 10
105.8071505811871
 20
-137.4179687156455
 10
105.8071505811871
 20
-137.1399495099859
 10
105.8071505811871
 20
-136.8753661767187
 10
105.5260307895907
 20
-136.8233452348914
 10
105.1794541837746
 20
-136.8233452348914
 10
104.8597493227434
 20
-136.8233452348914
 10
104.551068767265
 20
-136.8639973616174
 10
104.551068767265
 20
-137.1399495099859
 97
        0
 97
        0
 75
     2
 76
     1
 98
        0
  0
POLYLINE
  5
9B
330
94
100
AcDbEntity
  8
_U+30EC_U+30A4_U+30E4_U+30FC 1
370
     0
100
AcDb2dPolyline
 66
     1
 10
0.0
 20
0.0
 30
0.0
  0
VERTEX
  5
9C
330
9B
100
AcDbEntity
  8
_U+30EC_U+30A4_U+30E4_U+30FC 1
370
     0
100
AcDbVertex
100
AcDb2dVertex
 10
105.9511555724706
 20
-136.3524006820577
 30
0.0
  0
VERTEX
  5
9D
330
9B
100
AcDbEntity
  8
_U+30EC_U+30A4_U+30E4_U+30FC 1
370
     0
100
AcDbVertex
100
AcDb2dVertex
 10
105.6996636020473
 20
-136.3524006820577
 30
0.0
  0
VERTEX
  5
9E
330
9B
100
AcDbEntity
  8
_U+30EC_U+30A4_U+30E4_U+30FC 1
370
     0
100
AcDbVertex
100
AcDb2dVertex
 10
105.6996636020473
 20
-136.0833387246597
 30
0.0
  0
VERTEX
  5
9F
330
9B
100
AcDbEntity
  8
_U+30EC_U+30A4_U+30E4_U+30FC 1
370
     0
100
AcDbVertex
100
AcDb2dVertex
 10
105.9511555724706
 20
-136.0833387246597
 30
0.0
  0
VERTEX
  5
A0
330
9B
100
AcDbEntity
  8
_U+30EC_U+30A4_U+30E4_U+30FC 1
370
     0
100
AcDbVertex
100
AcDb2dVertex
 10
105.9511555724706
 20
-136.3524006820577
 30
0.0
  0
SEQEND
  5
A1
330
9B
100
AcDbEntity
  8
_U+30EC_U+30A4_U+30E4_U+30FC 1
370
     0
  0
HATCH
  5
A2
330
94
100
AcDbEntity
  8
_U+30EC_U+30A4_U+30E4_U+30FC 1
 62
   179
420
  2234388
100
AcDbHatch
 10
0.0
 20
0.0
 30
0.0
210
0.0
220
0.0
230
1.0
  2
SOLID
 70
     1
 71
     0
 91
        1
 92
        1
 93
        4
 72
     1
 10
105.9511555724706
 20
-136.3524006820577
 11
105.6996636020473
 21
-136.3524006820577
 72
     1
 10
105.6996636020473
 20
-136.3524006820577
 11
105.6996636020473
 21
-136.0833387246597
 72
     1
 10
105.6996636020473
 20
-136.0833387246597
 11
105.9511555724706
 21
-136.0833387246597
 72
     1
 10
105.9511555724706
 20
-136.0833387246597
 11
105.9511555724706
 21
-136.3524006820577
 97
        0
 75
     2
 76
     1
 98
        0
  0
SPLINE
  5
A3
330
94
100
AcDbEntity
  8
_U+30EC_U+30A4_U+30E4_U+30FC 1
370
     0
100
AcDbSpline
210
0.0
220
0.0
230
1.0
 70
    11
 71
     3
 72
    26
 73
    22
 74
     0
 42
0.0000000001
 43
0.0000000001
 12
1.0
 22
0.0
 32
0.0
 13
1.0
 23
0.0
 33
0.0
 40
0.0
 40
0.0
 40
0.0
 40
0.0
 40
1.0
 40
1.0
 40
1.0
 40
2.0
 40
2.0
 40
2.0
 40
3.0
 40
3.0
 40
3.0
 40
4.0
 40
4.0
 40
4.0
 40
5.0
 40
5.0
 40
5.0
 40
6.0
 40
6.0
 40
6.0
 40
7.0
 40
7.0
 40
7.0
 40
7.0
 10
105.9511555724706
 20
-135.3908745321245
 30
0.0
 10
105.9511555724706
 20
-135.3908745321245
 30
0.0
 10
105.9511555724706
 20
-135.6440890502904
 30
0.0
 10
105.9511555724706
 20
-135.6440890502904
 30
0.0
 10
105.6424750169922
 20
-135.6172173055054
 30
0.0
 10
105.1243326560106
 20
-135.4112005954875
 30
0.0
 10
104.6185926387759
 20
-134.977118564346
 30
0.0
 10
104.6185926387759
 20
-134.977118564346
 30
0.0
 10
104.6185926387759
 20
-135.8724988809624
 30
0.0
 10
104.6185926387759
 20
-135.8724988809624
 30
0.0
 10
104.6185926387759
 20
-135.8724988809624
 30
0.0
 10
104.4070637759816
 20
-135.8724988809624
 30
0.0
 10
104.4070637759816
 20
-135.8724988809624
 30
0.0
 10
104.4070637759816
 20
-135.8724988809624
 30
0.0
 10
104.4070637759816
 20
-134.7239040461801
 30
0.0
 10
104.4070637759816
 20
-134.7239040461801
 30
0.0
 10
104.4070637759816
 20
-134.7239040461801
 30
0.0
 10
104.6185926387759
 20
-134.7239040461801
 30
0.0
 10
104.6185926387759
 20
-134.7239040461801
 30
0.0
 10
104.9086696786339
 20
-135.0697916328992
 30
0.0
 10
105.5005370829999
 20
-135.3547010295294
 30
0.0
 10
105.9511555724706
 20
-135.3908745321245
 30
0.0
  0
HATCH
  5
A4
330
94
100
AcDbEntity
  8
_U+30EC_U+30A4_U+30E4_U+30FC 1
 62
   179
420
  2234388
100
AcDbHatch
 10
0.0
 20
0.0
 30
0.0
210
0.0
220
0.0
230
1.0
  2
SOLID
 70
     1
 71
     0
 91
        1
 92
        1
 93
        1
 72
     4
 94
        3
 73
     0
 74
     1
 95
       26
 96
       22
 40
0.0
 40
0.0
 40
0.0
 40
0.0
 40
1.0
 40
1.0
 40
1.0
 40
2.0
 40
2.0
 40
2.0
 40
3.0
 40
3.0
 40
3.0
 40
4.0
 40
4.0
 40
4.0
 40
5.0
 40
5.0
 40
5.0
 40
6.0
 40
6.0
 40
6.0
 40
7.0
 40
7.0
 40
7.0
 40
7.0
 10
105.9511555724706
 20
-135.3908745321245
 10
105.9511555724706
 20
-135.3908745321245
 10
105.9511555724706
 20
-135.6440890502904
 10
105.9511555724706
 20
-135.6440890502904
 10
105.6424750169922
 20
-135.6172173055054
 10
105.1243326560106
 20
-135.4112005954875
 10
104.6185926387759
 20
-134.977118564346
 10
104.6185926387759
 20
-134.977118564346
 10
104.6185926387759
 20
-135.8724988809624
 10
104.6185926387759
 20
-135.8724988809624
 10
104.6185926387759
 20
-135.8724988809624
 10
104.4070637759816
 20
-135.8724988809624
 10
104.4070637759816
 20
-135.8724988809624
 10
104.4070637759816
 20
-135.8724988809624
 10
104.4070637759816
 20
-134.7239040461801
 10
104.4070637759816
 20
-134.7239040461801
 10
104.4070637759816
 20
-134.7239040461801
 10
104.6185926387759
 20
-134.7239040461801
 10
104.6185926387759
 20
-134.7239040461801
 10
104.9086696786339
 20
-135.0697916328992
 10
105.5005370829999
 20
-135.3547010295294
 10
105.9511555724706
 20
-135.3908745321245
 97
        0
 97
        0
 75
     2
 76
     1
 98
        0
  0
ENDBLK
  5
97
330
94
100
AcDbEntity
  8
0
100
AcDbBlockEnd
  0
BLOCK
  5
B3
330
B1
100
AcDbEntity
  8
0
100
AcDbBlockBegin
  2
block 3
 70
     0
 10
0.0
 20
0.0
 30
0.0
  3
block 3
  1

  0
SPLINE
  5
B5
330
B1
100
AcDbEntity
  8
_U+30EC_U+30A4_U+30E4_U+30FC 1
370
     0
100
AcDbSpline
210
0.0
220
0.0
230
1.0
 70
    11
 71
     3
 72
    44
 73
    40
 74
     0
 42
0.0000000001
 43
0.0000000001
 12
1.0
 22
0.0
 32
0.0
 13
1.0
 23
0.0
 33
0.0
 40
0.0
 40
0.0
 40
0.0
 40
0.0
 40
1.0
 40
1.0
 40
1.0
 40
2.0
 40
2.0
 40
2.0
 40
3.0
 40
3.0
 40
3.0
 40
4.0
 40
4.0
 40
4.0
 40
5.0
 40
5.0
 40
5.0
 40
6.0
 40
6.0
 40
6.0
 40
7.0
 40
7.0
 40
7.0
 40
8.0
 40
8.0
 40
8.0
 40
9.0
 40
9.0
 40
9.0
 40
10.0
 40
10.0
 40
10.0
 40
11.0
 40
11.0
 40
11.0
 40
12.0
 40
12.0
 40
12.0
 40
13.0
 40
13.0
 40
13.0
 40
13.0
 10
91.75736217324122
 20
-139.5084526560951
 30
0.0
 10
91.52447371843833
 20
-139.6672715579651
 30
0.0
 10
91.42525496846314
 20
-139.741341110898
 30
0.0
 10
91.37288951708734
 20
-139.8850015926329
 30
0.0
 10
91.37288951708734
 20
-139.8850015926329
 30
0.0
 10
92.2052245863237
 20
-139.8850015926329
 30
0.0
 10
92.2052245863237
 20
-139.8850015926329
 30
0.0
 10
92.2052245863237
 20
-139.8850015926329
 30
0.0
 10
92.2052245863237
 20
-140.0903292835538
 30
0.0
 10
92.2052245863237
 20
-140.0903292835538
 30
0.0
 10
92.2052245863237
 20
-140.0903292835538
 30
0.0
 10
91.10641138130326
 20
-140.0903292835538
 30
0.0
 10
91.10641138130326
 20
-140.0903292835538
 30
0.0
 10
91.14051782660724
 20
-139.7327283721849
 30
0.0
 10
91.2104532649578
 20
-139.6545247046697
 30
0.0
 10
91.62162541112238
 20
-139.3561794356471
 30
0.0
 10
91.89516599265121
 20
-139.1573974261482
 30
0.0
 10
91.96544594055031
 20
-139.0895290450887
 30
0.0
 10
91.96544594055031
 20
-138.9520697352273
 30
0.0
 10
91.96544594055031
 20
-138.8335584505347
 30
0.0
 10
91.88896482077776
 20
-138.7026448220952
 30
0.0
 10
91.67812497708047
 20
-138.7026448220952
 30
0.0
 10
91.40045028096934
 20
-138.7026448220952
 30
0.0
 10
91.39149303270769
 20
-138.9331217100584
 30
0.0
 10
91.38666989902833
 20
-139.0495659374598
 30
0.0
 10
91.38666989902833
 20
-139.0495659374598
 30
0.0
 10
91.1470635080292
 20
-139.0495659374598
 30
0.0
 10
91.1470635080292
 20
-139.0495659374598
 30
0.0
 10
91.15602075629086
 20
-138.9224419140541
 30
0.0
 10
91.16738957139218
 20
-138.8104763107835
 30
0.0
 10
91.25351695852343
 20
-138.6919650260909
 30
0.0
 10
91.37082245979619
 20
-138.5310790669297
 30
0.0
 10
91.56994897884363
 20
-138.4973171311743
 30
0.0
 10
91.69397241631262
 20
-138.4973171311743
 30
0.0
 10
91.99025062804411
 20
-138.4973171311743
 30
0.0
 10
92.2121147772942
 20
-138.6812852300866
 30
0.0
 10
92.2121147772942
 20
-138.9541367925184
 30
0.0
 10
92.2121147772942
 20
-139.182891132739
 30
0.0
 10
92.08740232072816
 20
-139.2821098827142
 30
0.0
 10
91.75736217324122
 20
-139.5084526560951
 30
0.0
  0
HATCH
  5
B6
330
B1
100
AcDbEntity
  8
_U+30EC_U+30A4_U+30E4_U+30FC 1
 62
   179
420
  2234388
100
AcDbHatch
 10
0.0
 20
0.0
 30
0.0
210
0.0
220
0.0
230
1.0
  2
SOLID
 70
     1
 71
     0
 91
        1
 92
        1
 93
        1
 72
     4
 94
        3
 73
     0
 74
     1
 95
       44
 96
       40
 40
0.0
 40
0.0
 40
0.0
 40
0.0
 40
1.0
 40
1.0
 40
1.0
 40
2.0
 40
2.0
 40
2.0
 40
3.0
 40
3.0
 40
3.0
 40
4.0
 40
4.0
 40
4.0
 40
5.0
 40
5.0
 40
5.0
 40
6.0
 40
6.0
 40
6.0
 40
7.0
 40
7.0
 40
7.0
 40
8.0
 40
8.0
 40
8.0
 40
9.0
 40
9.0
 40
9.0
 40
10.0
 40
10.0
 40
10.0
 40
11.0
 40
11.0
 40
11.0
 40
12.0
 40
12.0
 40
12.0
 40
13.0
 40
13.0
 40
13.0
 40
13.0
 10
91.75736217324122
 20
-139.5084526560951
 10
91.52447371843833
 20
-139.6672715579651
 10
91.42525496846314
 20
-139.741341110898
 10
91.37288951708734
 20
-139.8850015926329
 10
91.37288951708734
 20
-139.8850015926329
 10
92.2052245863237
 20
-139.8850015926329
 10
92.2052245863237
 20
-139.8850015926329
 10
92.2052245863237
 20
-139.8850015926329
 10
92.2052245863237
 20
-140.0903292835538
 10
92.2052245863237
 20
-140.0903292835538
 10
92.2052245863237
 20
-140.0903292835538
 10
91.10641138130326
 20
-140.0903292835538
 10
91.10641138130326
 20
-140.0903292835538
 10
91.14051782660724
 20
-139.7327283721849
 10
91.2104532649578
 20
-139.6545247046697
 10
91.62162541112238
 20
-139.3561794356471
 10
91.89516599265121
 20
-139.1573974261482
 10
91.96544594055031
 20
-139.0895290450887
 10
91.96544594055031
 20
-138.9520697352273
 10
91.96544594055031
 20
-138.8335584505347
 10
91.88896482077776
 20
-138.7026448220952
 10
91.67812497708047
 20
-138.7026448220952
 10
91.40045028096934
 20
-138.7026448220952
 10
91.39149303270769
 20
-138.9331217100584
 10
91.38666989902833
 20
-139.0495659374598
 10
91.38666989902833
 20
-139.0495659374598
 10
91.1470635080292
 20
-139.0495659374598
 10
91.1470635080292
 20
-139.0495659374598
 10
91.15602075629086
 20
-138.9224419140541
 10
91.16738957139218
 20
-138.8104763107835
 10
91.25351695852343
 20
-138.6919650260909
 10
91.37082245979619
 20
-138.5310790669297
 10
91.56994897884363
 20
-138.4973171311743
 10
91.69397241631262
 20
-138.4973171311743
 10
91.99025062804411
 20
-138.4973171311743
 10
92.2121147772942
 20
-138.6812852300866
 10
92.2121147772942
 20
-138.9541367925184
 10
92.2121147772942
 20
-139.182891132739
 10
92.08740232072816
 20
-139.2821098827142
 10
91.75736217324122
 20
-139.5084526560951
 97
        0
 97
        0
 75
     2
 76
     1
 98
        0
  0
SPLINE
  5
B7
330
B1
100
AcDbEntity
  8
_U+30EC_U+30A4_U+30E4_U+30FC 1
370
     0
100
AcDbSpline
210
0.0
220
0.0
230
1.0
 70
    11
 71
     3
 72
    62
 73
    58
 74
     0
 42
0.0000000001
 43
0.0000000001
 12
1.0
 22
0.0
 32
0.0
 13
1.0
 23
0.0
 33
0.0
 40
0.0
 40
0.0
 40
0.0
 40
0.0
 40
1.0
 40
1.0
 40
1.0
 40
2.0
 40
2.0
 40
2.0
 40
3.0
 40
3.0
 40
3.0
 40
4.0
 40
4.0
 40
4.0
 40
5.0
 40
5.0
 40
5.0
 40
6.0
 40
6.0
 40
6.0
 40
7.0
 40
7.0
 40
7.0
 40
8.0
 40
8.0
 40
8.0
 40
9.0
 40
9.0
 40
9.0
 40
10.0
 40
10.0
 40
10.0
 40
11.0
 40
11.0
 40
11.0
 40
12.0
 40
12.0
 40
12.0
 40
13.0
 40
13.0
 40
13.0
 40
14.0
 40
14.0
 40
14.0
 40
15.0
 40
15.0
 40
15.0
 40
16.0
 40
16.0
 40
16.0
 40
17.0
 40
17.0
 40
17.0
 40
18.0
 40
18.0
 40
18.0
 40
19.0
 40
19.0
 40
19.0
 40
19.0
 10
92.90664602712056
 20
-140.140972187187
 30
0.0
 10
92.80536021985422
 20
-140.140972187187
 30
0.0
 10
92.57247176505133
 20
-140.119957104727
 30
0.0
 10
92.43880206022364
 20
-139.9339219485235
 30
0.0
 10
92.35956486406289
 20
-139.8216118357043
 30
0.0
 10
92.35543074948059
 20
-139.7223930857291
 30
0.0
 10
92.35060761580124
 20
-139.637643736792
 30
0.0
 10
92.35060761580124
 20
-139.637643736792
 30
0.0
 10
92.58556312789528
 20
-139.637643736792
 30
0.0
 10
92.58556312789528
 20
-139.637643736792
 30
0.0
 10
92.58831920428348
 20
-139.7117132897249
 30
0.0
 10
92.59934350983627
 20
-139.9463242922704
 30
0.0
 10
92.90251191253826
 20
-139.9463242922704
 30
0.0
 10
93.0492729802099
 20
-139.9463242922704
 30
0.0
 10
93.2118814871137
 20
-139.8767333634683
 30
0.0
 10
93.2118814871137
 20
-139.6483235327963
 30
0.0
 10
93.2118814871137
 20
-139.5318793053948
 30
0.0
 10
93.17122936038776
 20
-139.4833034590528
 30
0.0
 10
93.1374674246323
 20
-139.4516085805885
 30
0.0
 10
93.05823022847156
 20
-139.3775390276556
 30
0.0
 10
92.93420679100257
 20
-139.3647921743602
 30
0.0
 10
92.87495114865627
 20
-139.3647921743602
 30
0.0
 10
92.85496959484182
 20
-139.3647921743602
 30
0.0
 10
92.81638452540702
 20
-139.3668592316513
 30
0.0
 10
92.78675670423387
 20
-139.3709933462337
 30
0.0
 10
92.78675670423387
 20
-139.3709933462337
 30
0.0
 10
92.78675670423387
 20
-139.176345451317
 30
0.0
 10
92.78675670423387
 20
-139.176345451317
 30
0.0
 10
92.82740883095983
 20
-139.182891132739
 30
0.0
 10
92.87288409136512
 20
-139.1849581900302
 30
0.0
 10
92.87977428233562
 20
-139.1849581900302
 30
0.0
 10
92.95005423023471
 20
-139.1849581900302
 30
0.0
 10
93.1622721121261
 20
-139.1635985980216
 30
0.0
 10
93.1622721121261
 20
-138.9269205381849
 30
0.0
 10
93.1622721121261
 20
-138.7491536111461
 30
0.0
 10
93.02240123542497
 20
-138.694032083382
 30
0.0
 10
92.90457896982942
 20
-138.694032083382
 30
0.0
 10
92.62208114003893
 20
-138.694032083382
 30
0.0
 10
92.61312389177728
 20
-138.9269205381849
 30
0.0
 10
92.60830075809793
 20
-138.9985785242781
 30
0.0
 10
92.60830075809793
 20
-138.9985785242781
 30
0.0
 10
92.39125974252718
 20
-138.9985785242781
 30
0.0
 10
92.39125974252718
 20
-138.9985785242781
 30
0.0
 10
92.40021699078883
 20
-138.8738660677121
 30
0.0
 10
92.42984481196198
 20
-138.4973171311743
 30
0.0
 10
92.91835935177042
 20
-138.4973171311743
 30
0.0
 10
93.1581379975438
 20
-138.4973171311743
 30
0.0
 10
93.41583113984049
 20
-138.62444115458
 30
0.0
 10
93.41583113984049
 20
-138.920374856763
 30
0.0
 10
93.41583113984049
 20
-139.106754522515
 30
0.0
 10
93.31385631347709
 20
-139.1890923046124
 30
0.0
 10
93.2077473725314
 20
-139.2504150042499
 30
0.0
 10
93.27320418675114
 20
-139.2779757681319
 30
0.0
 10
93.46750757211923
 20
-139.3582464929382
 30
0.0
 10
93.46750757211923
 20
-139.6355766795008
 30
0.0
 10
93.46750757211923
 20
-139.9738850561524
 30
0.0
 10
93.20292423885205
 20
-140.140972187187
 30
0.0
 10
92.90664602712056
 20
-140.140972187187
 30
0.0
  0
HATCH
  5
B8
330
B1
100
AcDbEntity
  8
_U+30EC_U+30A4_U+30E4_U+30FC 1
 62
   179
420
  2234388
100
AcDbHatch
 10
0.0
 20
0.0
 30
0.0
210
0.0
220
0.0
230
1.0
  2
SOLID
 70
     1
 71
     0
 91
        1
 92
        1
 93
        1
 72
     4
 94
        3
 73
     0
 74
     1
 95
       62
 96
       58
 40
0.0
 40
0.0
 40
0.0
 40
0.0
 40
1.0
 40
1.0
 40
1.0
 40
2.0
 40
2.0
 40
2.0
 40
3.0
 40
3.0
 40
3.0
 40
4.0
 40
4.0
 40
4.0
 40
5.0
 40
5.0
 40
5.0
 40
6.0
 40
6.0
 40
6.0
 40
7.0
 40
7.0
 40
7.0
 40
8.0
 40
8.0
 40
8.0
 40
9.0
 40
9.0
 40
9.0
 40
10.0
 40
10.0
 40
10.0
 40
11.0
 40
11.0
 40
11.0
 40
12.0
 40
12.0
 40
12.0
 40
13.0
 40
13.0
 40
13.0
 40
14.0
 40
14.0
 40
14.0
 40
15.0
 40
15.0
 40
15.0
 40
16.0
 40
16.0
 40
16.0
 40
17.0
 40
17.0
 40
17.0
 40
18.0
 40
18.0
 40
18.0
 40
19.0
 40
19.0
 40
19.0
 40
19.0
 10
92.90664602712056
 20
-140.140972187187
 10
92.80536021985422
 20
-140.140972187187
 10
92.57247176505133
 20
-140.119957104727
 10
92.43880206022364
 20
-139.9339219485235
 10
92.35956486406289
 20
-139.8216118357043
 10
92.35543074948059
 20
-139.7223930857291
 10
92.35060761580124
 20
-139.637643736792
 10
92.35060761580124
 20
-139.637643736792
 10
92.58556312789528
 20
-139.637643736792
 10
92.58556312789528
 20
-139.637643736792
 10
92.58831920428348
 20
-139.7117132897249
 10
92.59934350983627
 20
-139.9463242922704
 10
92.90251191253826
 20
-139.9463242922704
 10
93.0492729802099
 20
-139.9463242922704
 10
93.2118814871137
 20
-139.8767333634683
 10
93.2118814871137
 20
-139.6483235327963
 10
93.2118814871137
 20
-139.5318793053948
 10
93.17122936038776
 20
-139.4833034590528
 10
93.1374674246323
 20
-139.4516085805885
 10
93.05823022847156
 20
-139.3775390276556
 10
92.93420679100257
 20
-139.3647921743602
 10
92.87495114865627
 20
-139.3647921743602
 10
92.85496959484182
 20
-139.3647921743602
 10
92.81638452540702
 20
-139.3668592316513
 10
92.78675670423387
 20
-139.3709933462337
 10
92.78675670423387
 20
-139.3709933462337
 10
92.78675670423387
 20
-139.176345451317
 10
92.78675670423387
 20
-139.176345451317
 10
92.82740883095983
 20
-139.182891132739
 10
92.87288409136512
 20
-139.1849581900302
 10
92.87977428233562
 20
-139.1849581900302
 10
92.95005423023471
 20
-139.1849581900302
 10
93.1622721121261
 20
-139.1635985980216
 10
93.1622721121261
 20
-138.9269205381849
 10
93.1622721121261
 20
-138.7491536111461
 10
93.02240123542497
 20
-138.694032083382
 10
92.90457896982942
 20
-138.694032083382
 10
92.62208114003893
 20
-138.694032083382
 10
92.61312389177728
 20
-138.9269205381849
 10
92.60830075809793
 20
-138.9985785242781
 10
92.60830075809793
 20
-138.9985785242781
 10
92.39125974252718
 20
-138.9985785242781
 10
92.39125974252718
 20
-138.9985785242781
 10
92.40021699078883
 20
-138.8738660677121
 10
92.42984481196198
 20
-138.4973171311743
 10
92.91835935177042
 20
-138.4973171311743
 10
93.1581379975438
 20
-138.4973171311743
 10
93.41583113984049
 20
-138.62444115458
 10
93.41583113984049
 20
-138.920374856763
 10
93.41583113984049
 20
-139.106754522515
 10
93.31385631347709
 20
-139.1890923046124
 10
93.2077473725314
 20
-139.2504150042499
 10
93.27320418675114
 20
-139.2779757681319
 10
93.46750757211923
 20
-139.3582464929382
 10
93.46750757211923
 20
-139.6355766795008
 10
93.46750757211923
 20
-139.9738850561524
 10
93.20292423885205
 20
-140.140972187187
 10
92.90664602712056
 20
-140.140972187187
 97
        0
 97
        0
 75
     2
 76
     1
 98
        0
  0
ENDBLK
  5
B4
330
B1
100
AcDbEntity
  8
0
100
AcDbBlockEnd
  0
BLOCK
  5
C7
330
C5
100
AcDbEntity
  8
0
100
AcDbBlockBegin
  2
block 4
 70
     0
 10
0.0
 20
0.0
 30
0.0
  3
block 4
  1

  0
SPLINE
  5
C9
330
C5
100
AcDbEntity
  8
_U+30EC_U+30A4_U+30E4_U+30FC 1
370
     0
100
AcDbSpline
210
0.0
220
0.0
230
1.0
 70
    11
 71
     3
 72
    26
 73
    22
 74
     0
 42
0.0000000001
 43
0.0000000001
 12
1.0
 22
0.0
 32
0.0
 13
1.0
 23
0.0
 33
0.0
 40
0.0
 40
0.0
 40
0.0
 40
0.0
 40
1.0
 40
1.0
 40
1.0
 40
2.0
 40
2.0
 40
2.0
 40
3.0
 40
3.0
 40
3.0
 40
4.0
 40
4.0
 40
4.0
 40
5.0
 40
5.0
 40
5.0
 40
6.0
 40
6.0
 40
6.0
 40
7.0
 40
7.0
 40
7.0
 40
7.0
 10
86.10619979401164
 20
-117.0903550597031
 30
0.0
 10
86.10619979401164
 20
-117.0903550597031
 30
0.0
 10
86.10619979401164
 20
-115.9860297019063
 30
0.0
 10
86.10619979401164
 20
-115.9860297019063
 30
0.0
 10
86.10619979401164
 20
-115.9860297019063
 30
0.0
 10
85.75376652587059
 20
-115.9860297019063
 30
0.0
 10
85.75376652587059
 20
-115.9860297019063
 30
0.0
 10
85.75376652587059
 20
-115.9860297019063
 30
0.0
 10
85.75376652587059
 20
-115.8378905960405
 30
0.0
 10
85.75376652587059
 20
-115.8378905960405
 30
0.0
 10
86.10861136085133
 20
-115.8232489402282
 30
0.0
 10
86.15822073583892
 20
-115.6602959237759
 30
0.0
 10
86.18991561430322
 20
-115.5460910084399
 30
0.0
 10
86.18991561430322
 20
-115.5460910084399
 30
0.0
 10
86.34597843978504
 20
-115.5460910084399
 30
0.0
 10
86.34597843978504
 20
-115.5460910084399
 30
0.0
 10
86.34597843978504
 20
-115.5460910084399
 30
0.0
 10
86.34597843978504
 20
-117.0903550597031
 30
0.0
 10
86.34597843978504
 20
-117.0903550597031
 30
0.0
 10
86.34597843978504
 20
-117.0903550597031
 30
0.0
 10
86.10619979401164
 20
-117.0903550597031
 30
0.0
 10
86.10619979401164
 20
-117.0903550597031
 30
0.0
  0
HATCH
  5
CA
330
C5
100
AcDbEntity
  8
_U+30EC_U+30A4_U+30E4_U+30FC 1
 62
   179
420
  2234388
100
AcDbHatch
 10
0.0
 20
0.0
 30
0.0
210
0.0
220
0.0
230
1.0
  2
SOLID
 70
     1
 71
     0
 91
        1
 92
        1
 93
        1
 72
     4
 94
        3
 73
     0
 74
     1
 95
       26
 96
       22
 40
0.0
 40
0.0
 40
0.0
 40
0.0
 40
1.0
 40
1.0
 40
1.0
 40
2.0
 40
2.0
 40
2.0
 40
3.0
 40
3.0
 40
3.0
 40
4.0
 40
4.0
 40
4.0
 40
5.0
 40
5.0
 40
5.0
 40
6.0
 40
6.0
 40
6.0
 40
7.0
 40
7.0
 40
7.0
 40
7.0
 10
86.10619979401164
 20
-117.0903550597031
 10
86.10619979401164
 20
-117.0903550597031
 10
86.10619979401164
 20
-115.9860297019063
 10
86.10619979401164
 20
-115.9860297019063
 10
86.10619979401164
 20
-115.9860297019063
 10
85.75376652587059
 20
-115.9860297019063
 10
85.75376652587059
 20
-115.9860297019063
 10
85.75376652587059
 20
-115.9860297019063
 10
85.75376652587059
 20
-115.8378905960405
 10
85.75376652587059
 20
-115.8378905960405
 10
86.10861136085133
 20
-115.8232489402282
 10
86.15822073583892
 20
-115.6602959237759
 10
86.18991561430322
 20
-115.5460910084399
 10
86.18991561430322
 20
-115.5460910084399
 10
86.34597843978504
 20
-115.5460910084399
 10
86.34597843978504
 20
-115.5460910084399
 10
86.34597843978504
 20
-115.5460910084399
 10
86.34597843978504
 20
-117.0903550597031
 10
86.34597843978504
 20
-117.0903550597031
 10
86.34597843978504
 20
-117.0903550597031
 10
86.10619979401164
 20
-117.0903550597031
 10
86.10619979401164
 20
-117.0903550597031
 97
        0
 97
        0
 75
     2
 76
     1
 98
        0
  0
SPLINE
  5
CB
330
C5
100
AcDbEntity
  8
_U+30EC_U+30A4_U+30E4_U+30FC 1
370
     0
100
AcDbSpline
210
0.0
220
0.0
230
1.0
 70
    11
 71
     3
 72
    44
 73
    40
 74
     0
 42
0.0000000001
 43
0.0000000001
 12
1.0
 22
0.0
 32
0.0
 13
1.0
 23
0.0
 33
0.0
 40
0.0
 40
0.0
 40
0.0
 40
0.0
 40
1.0
 40
1.0
 40
1.0
 40
2.0
 40
2.0
 40
2.0
 40
3.0
 40
3.0
 40
3.0
 40
4.0
 40
4.0
 40
4.0
 40
5.0
 40
5.0
 40
5.0
 40
6.0
 40
6.0
 40
6.0
 40
7.0
 40
7.0
 40
7.0
 40
8.0
 40
8.0
 40
8.0
 40
9.0
 40
9.0
 40
9.0
 40
10.0
 40
10.0
 40
10.0
 40
11.0
 40
11.0
 40
11.0
 40
12.0
 40
12.0
 40
12.0
 40
13.0
 40
13.0
 40
13.0
 40
13.0
 10
87.51558835702735
 20
-116.5086506870187
 30
0.0
 10
87.28269990222446
 20
-116.6672973341144
 30
0.0
 10
87.18313664270075
 20
-116.7413668870473
 30
0.0
 10
87.131460210422
 20
-116.8851996235565
 30
0.0
 10
87.131460210422
 20
-116.8851996235565
 30
0.0
 10
87.9631062605613
 20
-116.8851996235565
 30
0.0
 10
87.9631062605613
 20
-116.8851996235565
 30
0.0
 10
87.9631062605613
 20
-116.8851996235565
 30
0.0
 10
87.9631062605613
 20
-117.0903550597031
 30
0.0
 10
87.9631062605613
 20
-117.0903550597031
 30
0.0
 10
87.9631062605613
 20
-117.0903550597031
 30
0.0
 10
86.86446531031514
 20
-117.0903550597031
 30
0.0
 10
86.86446531031514
 20
-117.0903550597031
 30
0.0
 10
86.89857175561912
 20
-116.7327541483342
 30
0.0
 10
86.96850719396969
 20
-116.654550480819
 30
0.0
 10
87.37985159490852
 20
-116.3562052117964
 30
0.0
 10
87.65339217643735
 20
-116.1574232022975
 30
0.0
 10
87.72367212433645
 20
-116.0897270760123
 30
0.0
 10
87.72367212433645
 20
-115.9522677661508
 30
0.0
 10
87.72367212433645
 20
-115.8337564814582
 30
0.0
 10
87.64684649501538
 20
-115.7024983434702
 30
0.0
 10
87.43635116086661
 20
-115.7024983434702
 30
0.0
 10
87.15833195520695
 20
-115.7024983434702
 30
0.0
 10
87.1493747069453
 20
-115.9331474862077
 30
0.0
 10
87.14489608281447
 20
-116.0495917136091
 30
0.0
 10
87.14489608281447
 20
-116.0495917136091
 30
0.0
 10
86.90511743704108
 20
-116.0495917136091
 30
0.0
 10
86.90511743704108
 20
-116.0495917136091
 30
0.0
 10
86.91441919485126
 20
-115.9226399449777
 30
0.0
 10
86.92544350040406
 20
-115.8105020869328
 30
0.0
 10
87.0115708875353
 20
-115.6919908022402
 30
0.0
 10
87.12904864358232
 20
-115.5312770978533
 30
0.0
 10
87.32783065308124
 20
-115.4973429073236
 30
0.0
 10
87.45219860009875
 20
-115.4973429073236
 30
0.0
 10
87.74847681183024
 20
-115.4973429073236
 30
0.0
 10
87.96999645153181
 20
-115.6814832610102
 30
0.0
 10
87.96999645153181
 20
-115.954334823442
 30
0.0
 10
87.96999645153181
 20
-116.182744654114
 30
0.0
 10
87.8456285045143
 20
-116.2823079136378
 30
0.0
 10
87.51558835702735
 20
-116.5086506870187
 30
0.0
  0
HATCH
  5
CC
330
C5
100
AcDbEntity
  8
_U+30EC_U+30A4_U+30E4_U+30FC 1
 62
   179
420
  2234388
100
AcDbHatch
 10
0.0
 20
0.0
 30
0.0
210
0.0
220
0.0
230
1.0
  2
SOLID
 70
     1
 71
     0
 91
        1
 92
        1
 93
        1
 72
     4
 94
        3
 73
     0
 74
     1
 95
       44
 96
       40
 40
0.0
 40
0.0
 40
0.0
 40
0.0
 40
1.0
 40
1.0
 40
1.0
 40
2.0
 40
2.0
 40
2.0
 40
3.0
 40
3.0
 40
3.0
 40
4.0
 40
4.0
 40
4.0
 40
5.0
 40
5.0
 40
5.0
 40
6.0
 40
6.0
 40
6.0
 40
7.0
 40
7.0
 40
7.0
 40
8.0
 40
8.0
 40
8.0
 40
9.0
 40
9.0
 40
9.0
 40
10.0
 40
10.0
 40
10.0
 40
11.0
 40
11.0
 40
11.0
 40
12.0
 40
12.0
 40
12.0
 40
13.0
 40
13.0
 40
13.0
 40
13.0
 10
87.51558835702735
 20
-116.5086506870187
 10
87.28269990222446
 20
-116.6672973341144
 10
87.18313664270075
 20
-116.7413668870473
 10
87.131460210422
 20
-116.8851996235565
 10
87.131460210422
 20
-116.8851996235565
 10
87.9631062605613
 20
-116.8851996235565
 10
87.9631062605613
 20
-116.8851996235565
 10
87.9631062605613
 20
-116.8851996235565
 10
87.9631062605613
 20
-117.0903550597031
 10
87.9631062605613
 20
-117.0903550597031
 10
87.9631062605613
 20
-117.0903550597031
 10
86.86446531031514
 20
-117.0903550597031
 10
86.86446531031514
 20
-117.0903550597031
 10
86.89857175561912
 20
-116.7327541483342
 10
86.96850719396969
 20
-116.654550480819
 10
87.37985159490852
 20
-116.3562052117964
 10
87.65339217643735
 20
-116.1574232022975
 10
87.72367212433645
 20
-116.0897270760123
 10
87.72367212433645
 20
-115.9522677661508
 10
87.72367212433645
 20
-115.8337564814582
 10
87.64684649501538
 20
-115.7024983434702
 10
87.43635116086661
 20
-115.7024983434702
 10
87.15833195520695
 20
-115.7024983434702
 10
87.1493747069453
 20
-115.9331474862077
 10
87.14489608281447
 20
-116.0495917136091
 10
87.14489608281447
 20
-116.0495917136091
 10
86.90511743704108
 20
-116.0495917136091
 10
86.90511743704108
 20
-116.0495917136091
 10
86.91441919485126
 20
-115.9226399449777
 10
86.92544350040406
 20
-115.8105020869328
 10
87.0115708875353
 20
-115.6919908022402
 10
87.12904864358232
 20
-115.5312770978533
 10
87.32783065308124
 20
-115.4973429073236
 10
87.45219860009875
 20
-115.4973429073236
 10
87.74847681183024
 20
-115.4973429073236
 10
87.96999645153181
 20
-115.6814832610102
 10
87.96999645153181
 20
-115.954334823442
 10
87.96999645153181
 20
-116.182744654114
 10
87.8456285045143
 20
-116.2823079136378
 10
87.51558835702735
 20
-116.5086506870187
 97
        0
 97
        0
 75
     2
 76
     1
 98
        0
  0
ENDBLK
  5
C8
330
C5
100
AcDbEntity
  8
0
100
AcDbBlockEnd
  0
BLOCK
  5
DB
330
D9
100
AcDbEntity
  8
0
100
AcDbBlockBegin
  2
block 5
 70
     0
 10
0.0
 20
0.0
 30
0.0
  3
block 5
  1

  0
SPLINE
  5
DD
330
D9
100
AcDbEntity
  8
_U+30EC_U+30A4_U+30E4_U+30FC 1
370
     0
100
AcDbSpline
210
0.0
220
0.0
230
1.0
 70
    11
 71
     3
 72
    26
 73
    22
 74
     0
 42
0.0000000001
 43
0.0000000001
 12
1.0
 22
0.0
 32
0.0
 13
1.0
 23
0.0
 33
0.0
 40
0.0
 40
0.0
 40
0.0
 40
0.0
 40
1.0
 40
1.0
 40
1.0
 40
2.0
 40
2.0
 40
2.0
 40
3.0
 40
3.0
 40
3.0
 40
4.0
 40
4.0
 40
4.0
 40
5.0
 40
5.0
 40
5.0
 40
6.0
 40
6.0
 40
6.0
 40
7.0
 40
7.0
 40
7.0
 40
7.0
 10
76.18553057991195
 20
-139.6965548695898
 30
0.0
 10
76.18553057991195
 20
-139.6965548695898
 30
0.0
 10
75.08120522211512
 20
-139.6965548695898
 30
0.0
 10
75.08120522211512
 20
-139.6965548695898
 30
0.0
 10
75.08120522211512
 20
-139.6965548695898
 30
0.0
 10
75.08120522211512
 20
-140.0489881377308
 30
0.0
 10
75.08120522211512
 20
-140.0489881377308
 30
0.0
 10
75.08120522211512
 20
-140.0489881377308
 30
0.0
 10
74.93323837102363
 20
-140.0489881377308
 30
0.0
 10
74.93323837102363
 20
-140.0489881377308
 30
0.0
 10
74.91842446043707
 20
-139.6941433027501
 30
0.0
 10
74.75547144398475
 20
-139.6445339277625
 30
0.0
 10
74.64126652864871
 20
-139.6128390492982
 30
0.0
 10
74.64126652864871
 20
-139.6128390492982
 30
0.0
 10
74.64126652864871
 20
-139.4567762238164
 30
0.0
 10
74.64126652864871
 20
-139.4567762238164
 30
0.0
 10
74.64126652864871
 20
-139.4567762238164
 30
0.0
 10
76.18553057991195
 20
-139.4567762238164
 30
0.0
 10
76.18553057991195
 20
-139.4567762238164
 30
0.0
 10
76.18553057991195
 20
-139.4567762238164
 30
0.0
 10
76.18553057991195
 20
-139.6965548695898
 30
0.0
 10
76.18553057991195
 20
-139.6965548695898
 30
0.0
  0
HATCH
  5
DE
330
D9
100
AcDbEntity
  8
_U+30EC_U+30A4_U+30E4_U+30FC 1
 62
   179
420
  2234388
100
AcDbHatch
 10
0.0
 20
0.0
 30
0.0
210
0.0
220
0.0
230
1.0
  2
SOLID
 70
     1
 71
     0
 91
        1
 92
        1
 93
        1
 72
     4
 94
        3
 73
     0
 74
     1
 95
       26
 96
       22
 40
0.0
 40
0.0
 40
0.0
 40
0.0
 40
1.0
 40
1.0
 40
1.0
 40
2.0
 40
2.0
 40
2.0
 40
3.0
 40
3.0
 40
3.0
 40
4.0
 40
4.0
 40
4.0
 40
5.0
 40
5.0
 40
5.0
 40
6.0
 40
6.0
 40
6.0
 40
7.0
 40
7.0
 40
7.0
 40
7.0
 10
76.18553057991195
 20
-139.6965548695898
 10
76.18553057991195
 20
-139.6965548695898
 10
75.08120522211512
 20
-139.6965548695898
 10
75.08120522211512
 20
-139.6965548695898
 10
75.08120522211512
 20
-139.6965548695898
 10
75.08120522211512
 20
-140.0489881377308
 10
75.08120522211512
 20
-140.0489881377308
 10
75.08120522211512
 20
-140.0489881377308
 10
74.93323837102363
 20
-140.0489881377308
 10
74.93323837102363
 20
-140.0489881377308
 10
74.91842446043707
 20
-139.6941433027501
 10
74.75547144398475
 20
-139.6445339277625
 10
74.64126652864871
 20
-139.6128390492982
 10
74.64126652864871
 20
-139.6128390492982
 10
74.64126652864871
 20
-139.4567762238164
 10
74.64126652864871
 20
-139.4567762238164
 10
74.64126652864871
 20
-139.4567762238164
 10
76.18553057991195
 20
-139.4567762238164
 10
76.18553057991195
 20
-139.4567762238164
 10
76.18553057991195
 20
-139.4567762238164
 10
76.18553057991195
 20
-139.6965548695898
 10
76.18553057991195
 20
-139.6965548695898
 97
        0
 97
        0
 75
     2
 76
     1
 98
        0
  0
ENDBLK
  5
DC
330
D9
100
AcDbEntity
  8
0
100
AcDbBlockEnd
  0
BLOCK
  5
ED
330
EB
100
AcDbEntity
  8
0
100
AcDbBlockBegin
  2
block 6
 70
     0
 10
0.0
 20
0.0
 30
0.0
  3
block 6
  1

  0
SPLINE
  5
EF
330
EB
100
AcDbEntity
  8
_U+30EC_U+30A4_U+30E4_U+30FC 1
370
     0
100
AcDbSpline
210
0.0
220
0.0
230
1.0
 70
    11
 71
     3
 72
    26
 73
    22
 74
     0
 42
0.0000000001
 43
0.0000000001
 12
1.0
 22
0.0
 32
0.0
 13
1.0
 23
0.0
 33
0.0
 40
0.0
 40
0.0
 40
0.0
 40
0.0
 40
1.0
 40
1.0
 40
1.0
 40
2.0
 40
2.0
 40
2.0
 40
3.0
 40
3.0
 40
3.0
 40
4.0
 40
4.0
 40
4.0
 40
5.0
 40
5.0
 40
5.0
 40
6.0
 40
6.0
 40
6.0
 40
7.0
 40
7.0
 40
7.0
 40
7.0
 10
100.2298855001161
 20
-131.3907741642009
 30
0.0
 10
100.2298855001161
 20
-131.3907741642009
 30
0.0
 10
99.97667098195028
 20
-131.3907741642009
 30
0.0
 10
99.97667098195028
 20
-131.3907741642009
 30
0.0
 10
100.0035427267352
 20
-131.081749099174
 30
0.0
 10
100.2095594367532
 20
-130.5636067381924
 30
0.0
 10
100.6436414678947
 20
-130.0578667209577
 30
0.0
 10
100.6436414678947
 20
-130.0578667209577
 30
0.0
 10
99.74826115127821
 20
-130.0578667209577
 30
0.0
 10
99.74826115127821
 20
-130.0578667209577
 30
0.0
 10
99.74826115127821
 20
-130.0578667209577
 30
0.0
 10
99.74826115127821
 20
-129.8463378581634
 30
0.0
 10
99.74826115127821
 20
-129.8463378581634
 30
0.0
 10
99.74826115127821
 20
-129.8463378581634
 30
0.0
 10
100.8968559860605
 20
-129.8463378581634
 30
0.0
 10
100.8968559860605
 20
-129.8463378581634
 30
0.0
 10
100.8968559860605
 20
-129.8463378581634
 30
0.0
 10
100.8968559860605
 20
-130.0578667209577
 30
0.0
 10
100.8968559860605
 20
-130.0578667209577
 30
0.0
 10
100.5509683993414
 20
-130.3479437608158
 30
0.0
 10
100.2660590027113
 20
-130.9401556747302
 30
0.0
 10
100.2298855001161
 20
-131.3907741642009
 30
0.0
  0
HATCH
  5
F0
330
EB
100
AcDbEntity
  8
_U+30EC_U+30A4_U+30E4_U+30FC 1
 62
   179
420
  2234388
100
AcDbHatch
 10
0.0
 20
0.0
 30
0.0
210
0.0
220
0.0
230
1.0
  2
SOLID
 70
     1
 71
     0
 91
        1
 92
        1
 93
        1
 72
     4
 94
        3
 73
     0
 74
     1
 95
       26
 96
       22
 40
0.0
 40
0.0
 40
0.0
 40
0.0
 40
1.0
 40
1.0
 40
1.0
 40
2.0
 40
2.0
 40
2.0
 40
3.0
 40
3.0
 40
3.0
 40
4.0
 40
4.0
 40
4.0
 40
5.0
 40
5.0
 40
5.0
 40
6.0
 40
6.0
 40
6.0
 40
7.0
 40
7.0
 40
7.0
 40
7.0
 10
100.2298855001161
 20
-131.3907741642009
 10
100.2298855001161
 20
-131.3907741642009
 10
99.97667098195028
 20
-131.3907741642009
 10
99.97667098195028
 20
-131.3907741642009
 10
100.0035427267352
 20
-131.081749099174
 10
100.2095594367532
 20
-130.5636067381924
 10
100.6436414678947
 20
-130.0578667209577
 10
100.6436414678947
 20
-130.0578667209577
 10
99.74826115127821
 20
-130.0578667209577
 10
99.74826115127821
 20
-130.0578667209577
 10
99.74826115127821
 20
-130.0578667209577
 10
99.74826115127821
 20
-129.8463378581634
 10
99.74826115127821
 20
-129.8463378581634
 10
99.74826115127821
 20
-129.8463378581634
 10
100.8968559860605
 20
-129.8463378581634
 10
100.8968559860605
 20
-129.8463378581634
 10
100.8968559860605
 20
-129.8463378581634
 10
100.8968559860605
 20
-130.0578667209577
 10
100.8968559860605
 20
-130.0578667209577
 10
100.5509683993414
 20
-130.3479437608158
 10
100.2660590027113
 20
-130.9401556747302
 10
100.2298855001161
 20
-131.3907741642009
 97
        0
 97
        0
 75
     2
 76
     1
 98
        0
  0
ENDBLK
  5
EE
330
EB
100
AcDbEntity
  8
0
100
AcDbBlockEnd
  0
BLOCK
  5
FF
330
FD
100
AcDbEntity
  8
0
100
AcDbBlockBegin
  2
block 7
 70
     0
 10
0.0
 20
0.0
 30
0.0
  3
block 7
  1

  0
SPLINE
  5
101
330
FD
100
AcDbEntity
  8
_U+30EC_U+30A4_U+30E4_U+30FC 1
370
     0
100
AcDbSpline
210
0.0
220
0.0
230
1.0
 70
    11
 71
     3
 72
    26
 73
    22
 74
     0
 42
0.0000000001
 43
0.0000000001
 12
1.0
 22
0.0
 32
0.0
 13
1.0
 23
0.0
 33
0.0
 40
0.0
 40
0.0
 40
0.0
 40
0.0
 40
1.0
 40
1.0
 40
1.0
 40
2.0
 40
2.0
 40
2.0
 40
3.0
 40
3.0
 40
3.0
 40
4.0
 40
4.0
 40
4.0
 40
5.0
 40
5.0
 40
5.0
 40
6.0
 40
6.0
 40
6.0
 40
7.0
 40
7.0
 40
7.0
 40
7.0
 10
76.18553057991195
 20
-129.8625298069441
 30
0.0
 10
76.18553057991195
 20
-129.8625298069441
 30
0.0
 10
75.08120522211512
 20
-129.8625298069441
 30
0.0
 10
75.08120522211512
 20
-129.8625298069441
 30
0.0
 10
75.08120522211512
 20
-129.8625298069441
 30
0.0
 10
75.08120522211512
 20
-130.2149630750852
 30
0.0
 10
75.08120522211512
 20
-130.2149630750852
 30
0.0
 10
75.08120522211512
 20
-130.2149630750852
 30
0.0
 10
74.93306611624938
 20
-130.2149630750852
 30
0.0
 10
74.93306611624938
 20
-130.2149630750852
 30
0.0
 10
74.91842446043707
 20
-129.8601182401044
 30
0.0
 10
74.75547144398475
 20
-129.8105088651168
 30
0.0
 10
74.64126652864871
 20
-129.7788139866525
 30
0.0
 10
74.64126652864871
 20
-129.7788139866525
 30
0.0
 10
74.64126652864871
 20
-129.6227511611707
 30
0.0
 10
74.64126652864871
 20
-129.6227511611707
 30
0.0
 10
74.64126652864871
 20
-129.6227511611707
 30
0.0
 10
76.18553057991195
 20
-129.6227511611707
 30
0.0
 10
76.18553057991195
 20
-129.6227511611707
 30
0.0
 10
76.18553057991195
 20
-129.6227511611707
 30
0.0
 10
76.18553057991195
 20
-129.8625298069441
 30
0.0
 10
76.18553057991195
 20
-129.8625298069441
 30
0.0
  0
HATCH
  5
102
330
FD
100
AcDbEntity
  8
_U+30EC_U+30A4_U+30E4_U+30FC 1
 62
   179
420
  2234388
100
AcDbHatch
 10
0.0
 20
0.0
 30
0.0
210
0.0
220
0.0
230
1.0
  2
SOLID
 70
     1
 71
     0
 91
        1
 92
        1
 93
        1
 72
     4
 94
        3
 73
     0
 74
     1
 95
       26
 96
       22
 40
0.0
 40
0.0
 40
0.0
 40
0.0
 40
1.0
 40
1.0
 40
1.0
 40
2.0
 40
2.0
 40
2.0
 40
3.0
 40
3.0
 40
3.0
 40
4.0
 40
4.0
 40
4.0
 40
5.0
 40
5.0
 40
5.0
 40
6.0
 40
6.0
 40
6.0
 40
7.0
 40
7.0
 40
7.0
 40
7.0
 10
76.18553057991195
 20
-129.8625298069441
 10
76.18553057991195
 20
-129.8625298069441
 10
75.08120522211512
 20
-129.8625298069441
 10
75.08120522211512
 20
-129.8625298069441
 10
75.08120522211512
 20
-129.8625298069441
 10
75.08120522211512
 20
-130.2149630750852
 10
75.08120522211512
 20
-130.2149630750852
 10
75.08120522211512
 20
-130.2149630750852
 10
74.93306611624938
 20
-130.2149630750852
 10
74.93306611624938
 20
-130.2149630750852
 10
74.91842446043707
 20
-129.8601182401044
 10
74.75547144398475
 20
-129.8105088651168
 10
74.64126652864871
 20
-129.7788139866525
 10
74.64126652864871
 20
-129.7788139866525
 10
74.64126652864871
 20
-129.6227511611707
 10
74.64126652864871
 20
-129.6227511611707
 10
74.64126652864871
 20
-129.6227511611707
 10
76.18553057991195
 20
-129.6227511611707
 10
76.18553057991195
 20
-129.6227511611707
 10
76.18553057991195
 20
-129.6227511611707
 10
76.18553057991195
 20
-129.8625298069441
 10
76.18553057991195
 20
-129.8625298069441
 97
        0
 97
        0
 75
     2
 76
     1
 98
        0
  0
SPLINE
  5
103
330
FD
100
AcDbEntity
  8
_U+30EC_U+30A4_U+30E4_U+30FC 1
370
     0
100
AcDbSpline
210
0.0
220
0.0
230
1.0
 70
    11
 71
     3
 72
    62
 73
    58
 74
     0
 42
0.0000000001
 43
0.0000000001
 12
1.0
 22
0.0
 32
0.0
 13
1.0
 23
0.0
 33
0.0
 40
0.0
 40
0.0
 40
0.0
 40
0.0
 40
1.0
 40
1.0
 40
1.0
 40
2.0
 40
2.0
 40
2.0
 40
3.0
 40
3.0
 40
3.0
 40
4.0
 40
4.0
 40
4.0
 40
5.0
 40
5.0
 40
5.0
 40
6.0
 40
6.0
 40
6.0
 40
7.0
 40
7.0
 40
7.0
 40
8.0
 40
8.0
 40
8.0
 40
9.0
 40
9.0
 40
9.0
 40
10.0
 40
10.0
 40
10.0
 40
11.0
 40
11.0
 40
11.0
 40
12.0
 40
12.0
 40
12.0
 40
13.0
 40
13.0
 40
13.0
 40
14.0
 40
14.0
 40
14.0
 40
15.0
 40
15.0
 40
15.0
 40
16.0
 40
16.0
 40
16.0
 40
17.0
 40
17.0
 40
17.0
 40
18.0
 40
18.0
 40
18.0
 40
19.0
 40
19.0
 40
19.0
 40
19.0
 10
76.23634573831939
 20
-128.5616617517138
 30
0.0
 10
76.23634573831939
 20
-128.6632920685286
 30
0.0
 10
76.2151584010851
 20
-128.8961805233315
 30
0.0
 10
76.02895099010735
 20
-129.0295057186107
 30
0.0
 10
75.91681313206247
 20
-129.1087429147714
 30
0.0
 10
75.81742212731301
 20
-129.1132215389023
 30
0.0
 10
75.73284503315013
 20
-129.1177001630331
 30
0.0
 10
75.73284503315013
 20
-129.1177001630331
 30
0.0
 10
75.73284503315013
 20
-128.882744650939
 30
0.0
 10
75.73284503315013
 20
-128.882744650939
 30
0.0
 10
75.806914586083
 20
-128.8803330840994
 30
0.0
 10
76.04169784340277
 20
-128.868964268998
 30
0.0
 10
76.04169784340277
 20
-128.5661403758446
 30
0.0
 10
76.04169784340277
 20
-128.4190347986244
 30
0.0
 10
75.97193465982646
 20
-128.2564262917206
 30
0.0
 10
75.74335257438014
 20
-128.2564262917206
 30
0.0
 10
75.62708060175295
 20
-128.2564262917206
 30
0.0
 10
75.57833250063668
 20
-128.2970784184466
 30
0.0
 10
75.54663762217237
 20
-128.3311848637505
 30
0.0
 10
75.4725680692395
 20
-128.4100775503628
 30
0.0
 10
75.45999347071835
 20
-128.5344454973803
 30
0.0
 10
75.45999347071835
 20
-128.5933566301781
 30
0.0
 10
75.45999347071835
 20
-128.613682693541
 30
0.0
 10
75.46206052800949
 20
-128.6519232534273
 30
0.0
 10
75.46619464259179
 20
-128.6815510746005
 30
0.0
 10
75.46619464259179
 20
-128.6815510746005
 30
0.0
 10
75.27171900244943
 20
-128.6815510746005
 30
0.0
 10
75.27171900244943
 20
-128.6815510746005
 30
0.0
 10
75.27792017432289
 20
-128.6408989478745
 30
0.0
 10
75.2801594863883
 20
-128.5954236874692
 30
0.0
 10
75.2801594863883
 20
-128.5888780060472
 30
0.0
 10
75.2801594863883
 20
-128.5185980581481
 30
0.0
 10
75.258972149154
 20
-128.3060356667082
 30
0.0
 10
75.02194957976882
 20
-128.3060356667082
 30
0.0
 10
74.8443549075042
 20
-128.3060356667082
 30
0.0
 10
74.7892333797402
 20
-128.4462510529579
 30
0.0
 10
74.7892333797402
 20
-128.5637288090049
 30
0.0
 10
74.7892333797402
 20
-128.8465711483439
 30
0.0
 10
75.02194957976882
 20
-128.8555283966056
 30
0.0
 10
75.09395207541054
 20
-128.8600070207364
 30
0.0
 10
75.09395207541054
 20
-128.8600070207364
 30
0.0
 10
75.09395207541054
 20
-129.0770480363071
 30
0.0
 10
75.09395207541054
 20
-129.0770480363071
 30
0.0
 10
74.96906736407024
 20
-129.0680907880455
 30
0.0
 10
74.59251842753243
 20
-129.0388074764209
 30
0.0
 10
74.59251842753243
 20
-128.5502929366124
 30
0.0
 10
74.59251842753243
 20
-128.3105142908391
 30
0.0
 10
74.71947019616388
 20
-128.0528211485424
 30
0.0
 10
75.0155761531211
 20
-128.0528211485424
 30
0.0
 10
75.20178356409886
 20
-128.0528211485424
 30
0.0
 10
75.2842936009706
 20
-128.1547959749057
 30
0.0
 10
75.34561630060804
 20
-128.2609049158515
 30
0.0
 10
75.37317706449004
 20
-128.1954481016317
 30
0.0
 10
75.45362004407063
 20
-128.0008002067151
 30
0.0
 10
75.73077797585897
 20
-128.0008002067151
 30
0.0
 10
76.06925860728477
 20
-128.0008002067151
 30
0.0
 10
76.23634573831939
 20
-128.2653835399823
 30
0.0
 10
76.23634573831939
 20
-128.5616617517138
 30
0.0
  0
HATCH
  5
104
330
FD
100
AcDbEntity
  8
_U+30EC_U+30A4_U+30E4_U+30FC 1
 62
   179
420
  2234388
100
AcDbHatch
 10
0.0
 20
0.0
 30
0.0
210
0.0
220
0.0
230
1.0
  2
SOLID
 70
     1
 71
     0
 91
        1
 92
        1
 93
        1
 72
     4
 94
        3
 73
     0
 74
     1
 95
       62
 96
       58
 40
0.0
 40
0.0
 40
0.0
 40
0.0
 40
1.0
 40
1.0
 40
1.0
 40
2.0
 40
2.0
 40
2.0
 40
3.0
 40
3.0
 40
3.0
 40
4.0
 40
4.0
 40
4.0
 40
5.0
 40
5.0
 40
5.0
 40
6.0
 40
6.0
 40
6.0
 40
7.0
 40
7.0
 40
7.0
 40
8.0
 40
8.0
 40
8.0
 40
9.0
 40
9.0
 40
9.0
 40
10.0
 40
10.0
 40
10.0
 40
11.0
 40
11.0
 40
11.0
 40
12.0
 40
12.0
 40
12.0
 40
13.0
 40
13.0
 40
13.0
 40
14.0
 40
14.0
 40
14.0
 40
15.0
 40
15.0
 40
15.0
 40
16.0
 40
16.0
 40
16.0
 40
17.0
 40
17.0
 40
17.0
 40
18.0
 40
18.0
 40
18.0
 40
19.0
 40
19.0
 40
19.0
 40
19.0
 10
76.23634573831939
 20
-128.5616617517138
 10
76.23634573831939
 20
-128.6632920685286
 10
76.2151584010851
 20
-128.8961805233315
 10
76.02895099010735
 20
-129.0295057186107
 10
75.91681313206247
 20
-129.1087429147714
 10
75.81742212731301
 20
-129.1132215389023
 10
75.73284503315013
 20
-129.1177001630331
 10
75.73284503315013
 20
-129.1177001630331
 10
75.73284503315013
 20
-128.882744650939
 10
75.73284503315013
 20
-128.882744650939
 10
75.806914586083
 20
-128.8803330840994
 10
76.04169784340277
 20
-128.868964268998
 10
76.04169784340277
 20
-128.5661403758446
 10
76.04169784340277
 20
-128.4190347986244
 10
75.97193465982646
 20
-128.2564262917206
 10
75.74335257438014
 20
-128.2564262917206
 10
75.62708060175295
 20
-128.2564262917206
 10
75.57833250063668
 20
-128.2970784184466
 10
75.54663762217237
 20
-128.3311848637505
 10
75.4725680692395
 20
-128.4100775503628
 10
75.45999347071835
 20
-128.5344454973803
 10
75.45999347071835
 20
-128.5933566301781
 10
75.45999347071835
 20
-128.613682693541
 10
75.46206052800949
 20
-128.6519232534273
 10
75.46619464259179
 20
-128.6815510746005
 10
75.46619464259179
 20
-128.6815510746005
 10
75.27171900244943
 20
-128.6815510746005
 10
75.27171900244943
 20
-128.6815510746005
 10
75.27792017432289
 20
-128.6408989478745
 10
75.2801594863883
 20
-128.5954236874692
 10
75.2801594863883
 20
-128.5888780060472
 10
75.2801594863883
 20
-128.5185980581481
 10
75.258972149154
 20
-128.3060356667082
 10
75.02194957976882
 20
-128.3060356667082
 10
74.8443549075042
 20
-128.3060356667082
 10
74.7892333797402
 20
-128.4462510529579
 10
74.7892333797402
 20
-128.5637288090049
 10
74.7892333797402
 20
-128.8465711483439
 10
75.02194957976882
 20
-128.8555283966056
 10
75.09395207541054
 20
-128.8600070207364
 10
75.09395207541054
 20
-128.8600070207364
 10
75.09395207541054
 20
-129.0770480363071
 10
75.09395207541054
 20
-129.0770480363071
 10
74.96906736407024
 20
-129.0680907880455
 10
74.59251842753243
 20
-129.0388074764209
 10
74.59251842753243
 20
-128.5502929366124
 10
74.59251842753243
 20
-128.3105142908391
 10
74.71947019616388
 20
-128.0528211485424
 10
75.0155761531211
 20
-128.0528211485424
 10
75.20178356409886
 20
-128.0528211485424
 10
75.2842936009706
 20
-128.1547959749057
 10
75.34561630060804
 20
-128.2609049158515
 10
75.37317706449004
 20
-128.1954481016317
 10
75.45362004407063
 20
-128.0008002067151
 10
75.73077797585897
 20
-128.0008002067151
 10
76.06925860728477
 20
-128.0008002067151
 10
76.23634573831939
 20
-128.2653835399823
 10
76.23634573831939
 20
-128.5616617517138
 97
        0
 97
        0
 75
     2
 76
     1
 98
        0
  0
ENDBLK
  5
100
330
FD
100
AcDbEntity
  8
0
100
AcDbBlockEnd
  0
ENDSEC
  0
SECTION
  2
ENTITIES
  0
POLYLINE
  5
41
330
1F
100
AcDbEntity
  8
_U+30EC_U+30A4_U+30E4_U+30FC 1
 62
   179
420
  2234388
370
    25
100
AcDb2dPolyline
 66
     1
 10
0.0
 20
0.0
 30
0.0
  0
VERTEX
  5
42
330
41
100
AcDbEntity
  8
_U+30EC_U+30A4_U+30E4_U+30FC 1
 62
   179
420
  2234388
370
    25
100
AcDbVertex
100
AcDb2dVertex
 10
81.14611876312337
 20
-135.6867999660782
 30
0.0
  0
VERTEX
  5
43
330
41
100
AcDbEntity
  8
_U+30EC_U+30A4_U+30E4_U+30FC 1
 62
   179
420
  2234388
370
    25
100
AcDbVertex
100
AcDb2dVertex
 10
86.28224557653431
 20
-135.6867999660782
 30
0.0
  0
SEQEND
  5
44
330
41
100
AcDbEntity
  8
_U+30EC_U+30A4_U+30E4_U+30FC 1
 62
   179
420
  2234388
370
    25
  0
POLYLINE
  5
45
330
1F
100
AcDbEntity
  8
_U+30EC_U+30A4_U+30E4_U+30FC 1
 62
   179
420
  2234388
370
    25
100
AcDb2dPolyline
 66
     1
 10
0.0
 20
0.0
 30
0.0
  0
VERTEX
  5
46
330
45
100
AcDbEntity
  8
_U+30EC_U+30A4_U+30E4_U+30FC 1
 62
   179
420
  2234388
370
    25
100
AcDbVertex
100
AcDb2dVertex
 10
80.78215793907546
 20
-122.6870799693283
 30
0.0
  0
VERTEX
  5
47
330
45
100
AcDbEntity
  8
_U+30EC_U+30A4_U+30E4_U+30FC 1
 62
   179
420
  2234388
370
    25
100
AcDbVertex
100
AcDb2dVertex
 10
86.28224557653431
 20
-122.6870799693283
 30
0.0
  0
SEQEND
  5
48
330
45
100
AcDbEntity
  8
_U+30EC_U+30A4_U+30E4_U+30FC 1
 62
   179
420
  2234388
370
    25
  0
POLYLINE
  5
49
330
1F
100
AcDbEntity
  8
_U+30EC_U+30A4_U+30E4_U+30FC 1
 62
   179
420
  2234388
370
    25
100
AcDb2dPolyline
 66
     1
 10
0.0
 20
0.0
 30
0.0
  0
VERTEX
  5
4A
330
49
100
AcDbEntity
  8
_U+30EC_U+30A4_U+30E4_U+30FC 1
 62
   179
420
  2234388
370
    25
100
AcDbVertex
100
AcDb2dVertex
 10
81.14611876312337
 20
-121.6869902473562
 30
0.0
  0
VERTEX
  5
4B
330
49
100
AcDbEntity
  8
_U+30EC_U+30A4_U+30E4_U+30FC 1
 62
   179
420
  2234388
370
    25
100
AcDbVertex
100
AcDb2dVertex
 10
92.41814458666114
 20
-121.6869902473562
 30
0.0
  0
SEQEND
  5
4C
330
49
100
AcDbEntity
  8
_U+30EC_U+30A4_U+30E4_U+30FC 1
 62
   179
420
  2234388
370
    25
  0
POLYLINE
  5
4D
330
1F
100
AcDbEntity
  8
_U+30EC_U+30A4_U+30E4_U+30FC 1
 62
   179
420
  2234388
370
    25
100
AcDb2dPolyline
 66
     1
 10
0.0
 20
0.0
 30
0.0
  0
VERTEX
  5
4E
330
4D
100
AcDbEntity
  8
_U+30EC_U+30A4_U+30E4_U+30FC 1
 62
   179
420
  2234388
370
    25
100
AcDbVertex
100
AcDb2dVertex
 10
80.78215793907546
 20
-136.6869249658285
 30
0.0
  0
VERTEX
  5
4F
330
4D
100
AcDbEntity
  8
_U+30EC_U+30A4_U+30E4_U+30FC 1
 62
   179
420
  2234388
370
    25
100
AcDbVertex
100
AcDb2dVertex
 10
103.7821042967424
 20
-136.6869249658285
 30
0.0
  0
SEQEND
  5
50
330
4D
100
AcDbEntity
  8
_U+30EC_U+30A4_U+30E4_U+30FC 1
 62
   179
420
  2234388
370
    25
  0
POLYLINE
  5
51
330
1F
100
AcDbEntity
  8
_U+30EC_U+30A4_U+30E4_U+30FC 1
 62
   179
420
  2234388
370
    25
100
AcDb2dPolyline
 66
     1
 10
0.0
 20
0.0
 30
0.0
  0
VERTEX
  5
52
330
51
100
AcDbEntity
  8
_U+30EC_U+30A4_U+30E4_U+30FC 1
 62
   179
420
  2234388
370
    25
100
AcDbVertex
100
AcDb2dVertex
 10
97.08211363434005
 20
-135.9868727437809
 30
0.0
  0
VERTEX
  5
53
330
51
100
AcDbEntity
  8
_U+30EC_U+30A4_U+30E4_U+30FC 1
 62
   179
420
  2234388
370
    25
100
AcDbVertex
100
AcDb2dVertex
 10
103.5278573587843
 20
-135.9868727437809
 30
0.0
  0
SEQEND
  5
54
330
51
100
AcDbEntity
  8
_U+30EC_U+30A4_U+30E4_U+30FC 1
 62
   179
420
  2234388
370
    25
  0
POLYLINE
  5
55
330
1F
100
AcDbEntity
  8
_U+30EC_U+30A4_U+30E4_U+30FC 1
 62
   179
420
  2234388
370
    25
100
AcDb2dPolyline
 66
     1
 10
0.0
 20
0.0
 30
0.0
  0
VERTEX
  5
56
330
55
100
AcDbEntity
  8
_U+30EC_U+30A4_U+30E4_U+30FC 1
 62
   179
420
  2234388
370
    25
100
AcDbVertex
100
AcDb2dVertex
 10
92.41814458666114
 20
-121.6869902473562
 30
0.0
  0
VERTEX
  5
57
330
55
100
AcDbEntity
  8
_U+30EC_U+30A4_U+30E4_U+30FC 1
 62
   179
420
  2234388
370
    25
100
AcDbVertex
100
AcDb2dVertex
 10
92.78192902182468
 20
-122.6870799693283
 30
0.0
  0
SEQEND
  5
58
330
55
100
AcDbEntity
  8
_U+30EC_U+30A4_U+30E4_U+30FC 1
 62
   179
420
  2234388
370
    25
  0
POLYLINE
  5
59
330
1F
100
AcDbEntity
  8
_U+30EC_U+30A4_U+30E4_U+30FC 1
 62
   179
420
  2234388
370
    25
100
AcDb2dPolyline
 66
     1
 10
0.0
 20
0.0
 30
0.0
  0
VERTEX
  5
5A
330
59
100
AcDbEntity
  8
_U+30EC_U+30A4_U+30E4_U+30FC 1
 62
   179
420
  2234388
370
    25
100
AcDbVertex
100
AcDb2dVertex
 10
103.5278573587843
 20
-135.9868727437809
 30
0.0
  0
VERTEX
  5
5B
330
59
100
AcDbEntity
  8
_U+30EC_U+30A4_U+30E4_U+30FC 1
 62
   179
420
  2234388
370
    25
100
AcDbVertex
100
AcDb2dVertex
 10
103.7821042967424
 20
-136.6869249658285
 30
0.0
  0
SEQEND
  5
5C
330
59
100
AcDbEntity
  8
_U+30EC_U+30A4_U+30E4_U+30FC 1
 62
   179
420
  2234388
370
    25
  0
POLYLINE
  5
5D
330
1F
100
AcDbEntity
  8
_U+30EC_U+30A4_U+30E4_U+30FC 1
 62
   179
420
  2234388
370
    25
100
AcDb2dPolyline
 66
     1
 10
0.0
 20
0.0
 30
0.0
  0
VERTEX
  5
5E
330
5D
100
AcDbEntity
  8
_U+30EC_U+30A4_U+30E4_U+30FC 1
 62
   179
420
  2234388
370
    25
100
AcDbVertex
100
AcDb2dVertex
 10
96.78239364198654
 20
-135.6867999660782
 30
0.0
  0
VERTEX
  5
5F
330
5D
100
AcDbEntity
  8
_U+30EC_U+30A4_U+30E4_U+30FC 1
 62
   179
420
  2234388
370
    25
100
AcDbVertex
100
AcDb2dVertex
 10
97.08211363434005
 20
-135.9868727437809
 30
0.0
  0
SEQEND
  5
60
330
5D
100
AcDbEntity
  8
_U+30EC_U+30A4_U+30E4_U+30FC 1
 62
   179
420
  2234388
370
    25
  0
POLYLINE
  5
61
330
1F
100
AcDbEntity
  8
_U+30EC_U+30A4_U+30E4_U+30FC 1
 62
   179
420
  2234388
370
    25
100
AcDb2dPolyline
 66
     1
 10
0.0
 20
0.0
 30
0.0
  0
VERTEX
  5
62
330
61
100
AcDbEntity
  8
_U+30EC_U+30A4_U+30E4_U+30FC 1
 62
   179
420
  2234388
370
    25
100
AcDbVertex
100
AcDb2dVertex
 10
80.78215793907546
 20
-122.6870799693283
 30
0.0
  0
VERTEX
  5
63
330
61
100
AcDbEntity
  8
_U+30EC_U+30A4_U+30E4_U+30FC 1
 62
   179
420
  2234388
370
    25
100
AcDbVertex
100
AcDb2dVertex
 10
81.14611876312337
 20
-121.6869902473562
 30
0.0
  0
SEQEND
  5
64
330
61
100
AcDbEntity
  8
_U+30EC_U+30A4_U+30E4_U+30FC 1
 62
   179
420
  2234388
370
    25
  0
POLYLINE
  5
65
330
1F
100
AcDbEntity
  8
_U+30EC_U+30A4_U+30E4_U+30FC 1
 62
   179
420
  2234388
370
    25
100
AcDb2dPolyline
 66
     1
 10
0.0
 20
0.0
 30
0.0
  0
VERTEX
  5
66
330
65
100
AcDbEntity
  8
_U+30EC_U+30A4_U+30E4_U+30FC 1
 62
   179
420
  2234388
370
    25
100
AcDbVertex
100
AcDb2dVertex
 10
80.78215793907546
 20
-136.6869249658285
 30
0.0
  0
VERTEX
  5
67
330
65
100
AcDbEntity
  8
_U+30EC_U+30A4_U+30E4_U+30FC 1
 62
   179
420
  2234388
370
    25
100
AcDbVertex
100
AcDb2dVertex
 10
81.14611876312337
 20
-135.6867999660782
 30
0.0
  0
SEQEND
  5
68
330
65
100
AcDbEntity
  8
_U+30EC_U+30A4_U+30E4_U+30FC 1
 62
   179
420
  2234388
370
    25
  0
POLYLINE
  5
69
330
1F
100
AcDbEntity
  8
_U+30EC_U+30A4_U+30E4_U+30FC 1
 62
   179
420
  2234388
370
    25
100
AcDb2dPolyline
 66
     1
 10
0.0
 20
0.0
 30
0.0
  0
VERTEX
  5
6A
330
69
100
AcDbEntity
  8
_U+30EC_U+30A4_U+30E4_U+30FC 1
 62
   179
420
  2234388
370
    25
100
AcDbVertex
100
AcDb2dVertex
 10
86.28224557653431
 20
-122.6870799693283
 30
0.0
  0
VERTEX
  5
6B
330
69
100
AcDbEntity
  8
_U+30EC_U+30A4_U+30E4_U+30FC 1
 62
   179
420
  2234388
370
    25
100
AcDbVertex
100
AcDb2dVertex
 10
86.28224557653431
 20
-135.6867999660782
 30
0.0
  0
SEQEND
  5
6C
330
69
100
AcDbEntity
  8
_U+30EC_U+30A4_U+30E4_U+30FC 1
 62
   179
420
  2234388
370
    25
  0
POLYLINE
  5
6D
330
1F
100
AcDbEntity
  8
_U+30EC_U+30A4_U+30E4_U+30FC 1
 62
   179
420
  2234388
370
    25
100
AcDb2dPolyline
 66
     1
 10
0.0
 20
0.0
 30
0.0
  0
VERTEX
  5
6E
330
6D
100
AcDbEntity
  8
_U+30EC_U+30A4_U+30E4_U+30FC 1
 62
   179
420
  2234388
370
    25
100
AcDbVertex
100
AcDb2dVertex
 10
87.28201777325022
 20
-122.6870799693283
 30
0.0
  0
VERTEX
  5
6F
330
6D
100
AcDbEntity
  8
_U+30EC_U+30A4_U+30E4_U+30FC 1
 62
   179
420
  2234388
370
    25
100
AcDbVertex
100
AcDb2dVertex
 10
87.28201777325022
 20
-135.6867999660782
 30
0.0
  0
SEQEND
  5
70
330
6D
100
AcDbEntity
  8
_U+30EC_U+30A4_U+30E4_U+30FC 1
 62
   179
420
  2234388
370
    25
  0
POLYLINE
  5
71
330
1F
100
AcDbEntity
  8
_U+30EC_U+30A4_U+30E4_U+30FC 1
 62
   179
420
  2234388
370
    25
100
AcDb2dPolyline
 66
     1
 10
0.0
 20
0.0
 30
0.0
  0
VERTEX
  5
72
330
71
100
AcDbEntity
  8
_U+30EC_U+30A4_U+30E4_U+30FC 1
 62
   179
420
  2234388
370
    25
100
AcDbVertex
100
AcDb2dVertex
 10
87.28201777325022
 20
-122.6870799693283
 30
0.0
  0
VERTEX
  5
73
330
71
100
AcDbEntity
  8
_U+30EC_U+30A4_U+30E4_U+30FC 1
 62
   179
420
  2234388
370
    25
100
AcDbVertex
100
AcDb2dVertex
 10
92.78192902182468
 20
-122.6870799693283
 30
0.0
  0
SEQEND
  5
74
330
71
100
AcDbEntity
  8
_U+30EC_U+30A4_U+30E4_U+30FC 1
 62
   179
420
  2234388
370
    25
  0
POLYLINE
  5
75
330
1F
100
AcDbEntity
  8
_U+30EC_U+30A4_U+30E4_U+30FC 1
 62
   179
420
  2234388
370
    25
100
AcDb2dPolyline
 66
     1
 10
0.0
 20
0.0
 30
0.0
  0
VERTEX
  5
76
330
75
100
AcDbEntity
  8
_U+30EC_U+30A4_U+30E4_U+30FC 1
 62
   179
420
  2234388
370
    25
100
AcDbVertex
100
AcDb2dVertex
 10
87.28201777325022
 20
-135.6867999660782
 30
0.0
  0
VERTEX
  5
77
330
75
100
AcDbEntity
  8
_U+30EC_U+30A4_U+30E4_U+30FC 1
 62
   179
420
  2234388
370
    25
100
AcDbVertex
100
AcDb2dVertex
 10
96.78239364198654
 20
-135.6867999660782
 30
0.0
  0
SEQEND
  5
78
330
75
100
AcDbEntity
  8
_U+30EC_U+30A4_U+30E4_U+30FC 1
 62
   179
420
  2234388
370
    25
  0
SPLINE
  5
79
330
1F
100
AcDbEntity
  8
_U+30EC_U+30A4_U+30E4_U+30FC 1
 62
   179
420
  2234388
370
     9
100
AcDbSpline
210
0.0
220
0.0
230
1.0
 70
    11
 71
     3
 72
    17
 73
    13
 74
     0
 42
0.0000000001
 43
0.0000000001
 12
1.0
 22
0.0
 32
0.0
 13
1.0
 23
0.0
 33
0.0
 40
0.0
 40
0.0
 40
0.0
 40
0.0
 40
1.0
 40
1.0
 40
1.0
 40
2.0
 40
2.0
 40
2.0
 40
3.0
 40
3.0
 40
3.0
 40
4.0
 40
4.0
 40
4.0
 40
4.0
 10
107.8817700254845
 20
-135.9868727437809
 30
0.0
 10
107.8817700254845
 20
-135.931768854906
 30
0.0
 10
107.8376728043873
 20
-135.8869660771393
 30
0.0
 10
107.7818633613667
 20
-135.8869660771393
 30
0.0
 10
107.7274297516443
 20
-135.8869660771393
 30
0.0
 10
107.6826622527864
 20
-135.931768854906
 30
0.0
 10
107.6826622527864
 20
-135.9868727437809
 30
0.0
 10
107.6826622527864
 20
-136.0423294104336
 30
0.0
 10
107.7274297516443
 20
-136.0871321882003
 30
0.0
 10
107.7818633613667
 20
-136.0871321882003
 30
0.0
 10
107.8376728043873
 20
-136.0871321882003
 30
0.0
 10
107.8817700254845
 20
-136.0423294104336
 30
0.0
 10
107.8817700254845
 20
-135.9868727437809
 30
0.0
  0
SPLINE
  5
7A
330
1F
100
AcDbEntity
  8
_U+30EC_U+30A4_U+30E4_U+30FC 1
 62
   179
420
  2234388
370
     9
100
AcDbSpline
210
0.0
220
0.0
230
1.0
 70
    11
 71
     3
 72
    17
 73
    13
 74
     0
 42
0.0000000001
 43
0.0000000001
 12
1.0
 22
0.0
 32
0.0
 13
1.0
 23
0.0
 33
0.0
 40
0.0
 40
0.0
 40
0.0
 40
0.0
 40
1.0
 40
1.0
 40
1.0
 40
2.0
 40
2.0
 40
2.0
 40
3.0
 40
3.0
 40
3.0
 40
4.0
 40
4.0
 40
4.0
 40
4.0
 10
107.8817700254845
 20
-136.6869249658285
 30
0.0
 10
107.8817700254845
 20
-136.6317857991754
 30
0.0
 10
107.8376728043873
 20
-136.5870182991869
 30
0.0
 10
107.7818633613667
 20
-136.5870182991869
 30
0.0
 10
107.7274297516443
 20
-136.5870182991869
 30
0.0
 10
107.6826622527864
 20
-136.6317857991754
 30
0.0
 10
107.6826622527864
 20
-136.6869249658285
 30
0.0
 10
107.6826622527864
 20
-136.7420288547034
 30
0.0
 10
107.7274297516443
 20
-136.7868316324702
 30
0.0
 10
107.7818633613667
 20
-136.7868316324702
 30
0.0
 10
107.8376728043873
 20
-136.7868316324702
 30
0.0
 10
107.8817700254845
 20
-136.7420288547034
 30
0.0
 10
107.8817700254845
 20
-136.6869249658285
 30
0.0
  0
SPLINE
  5
7B
330
1F
100
AcDbEntity
  8
_U+30EC_U+30A4_U+30E4_U+30FC 1
 62
   179
420
  2234388
370
     9
100
AcDbSpline
210
0.0
220
0.0
230
1.0
 70
    11
 71
     3
 72
    17
 73
    13
 74
     0
 42
0.0000000001
 43
0.0000000001
 12
1.0
 22
0.0
 32
0.0
 13
1.0
 23
0.0
 33
0.0
 40
0.0
 40
0.0
 40
0.0
 40
0.0
 40
1.0
 40
1.0
 40
1.0
 40
2.0
 40
2.0
 40
2.0
 40
3.0
 40
3.0
 40
3.0
 40
4.0
 40
4.0
 40
4.0
 40
4.0
 10
103.8820462386371
 20
-140.6870369092725
 30
0.0
 10
103.8820462386371
 20
-140.6318977426201
 30
0.0
 10
103.8379490175399
 20
-140.5870949648534
 30
0.0
 10
103.7821042967424
 20
-140.5870949648534
 30
0.0
 10
103.7262948537218
 20
-140.5870949648534
 30
0.0
 10
103.6821976326246
 20
-140.6318977426201
 30
0.0
 10
103.6821976326246
 20
-140.6870369092725
 30
0.0
 10
103.6821976326246
 20
-140.7421407981481
 30
0.0
 10
103.7262948537218
 20
-140.7869435759142
 30
0.0
 10
103.7821042967424
 20
-140.7869435759142
 30
0.0
 10
103.8379490175399
 20
-140.7869435759142
 30
0.0
 10
103.8820462386371
 20
-140.7421407981481
 30
0.0
 10
103.8820462386371
 20
-140.6870369092725
 30
0.0
  0
SPLINE
  5
7C
330
1F
100
AcDbEntity
  8
_U+30EC_U+30A4_U+30E4_U+30FC 1
 62
   179
420
  2234388
370
     9
100
AcDbSpline
210
0.0
220
0.0
230
1.0
 70
    11
 71
     3
 72
    17
 73
    13
 74
     0
 42
0.0000000001
 43
0.0000000001
 12
1.0
 22
0.0
 32
0.0
 13
1.0
 23
0.0
 33
0.0
 40
0.0
 40
0.0
 40
0.0
 40
0.0
 40
1.0
 40
1.0
 40
1.0
 40
2.0
 40
2.0
 40
2.0
 40
3.0
 40
3.0
 40
3.0
 40
4.0
 40
4.0
 40
4.0
 40
4.0
 10
76.88212914968459
 20
-122.6870799693283
 30
0.0
 10
76.88212914968459
 20
-122.6319760804531
 30
0.0
 10
76.83732637304982
 20
-122.5871733026867
 30
0.0
 10
76.78204609668236
 20
-122.5871733026867
 30
0.0
 10
76.7269422091993
 20
-122.5871733026867
 30
0.0
 10
76.68213943256453
 20
-122.6319760804531
 30
0.0
 10
76.68213943256453
 20
-122.6870799693283
 30
0.0
 10
76.68213943256453
 20
-122.7422191359811
 30
0.0
 10
76.7269422091993
 20
-122.78698663597
 30
0.0
 10
76.78204609668236
 20
-122.78698663597
 30
0.0
 10
76.83732637304982
 20
-122.78698663597
 30
0.0
 10
76.88212914968459
 20
-122.7422191359811
 30
0.0
 10
76.88212914968459
 20
-122.6870799693283
 30
0.0
  0
SPLINE
  5
7D
330
1F
100
AcDbEntity
  8
_U+30EC_U+30A4_U+30E4_U+30FC 1
 62
   179
420
  2234388
370
     9
100
AcDbSpline
210
0.0
220
0.0
230
1.0
 70
    11
 71
     3
 72
    17
 73
    13
 74
     0
 42
0.0000000001
 43
0.0000000001
 12
1.0
 22
0.0
 32
0.0
 13
1.0
 23
0.0
 33
0.0
 40
0.0
 40
0.0
 40
0.0
 40
0.0
 40
1.0
 40
1.0
 40
1.0
 40
2.0
 40
2.0
 40
2.0
 40
3.0
 40
3.0
 40
3.0
 40
4.0
 40
4.0
 40
4.0
 40
4.0
 10
76.88212914968459
 20
-135.6867999660782
 30
0.0
 10
76.88212914968459
 20
-135.6316960772033
 30
0.0
 10
76.83732637304982
 20
-135.5868932994366
 30
0.0
 10
76.78204609668236
 20
-135.5868932994366
 30
0.0
 10
76.7269422091993
 20
-135.5868932994366
 30
0.0
 10
76.68213943256453
 20
-135.6316960772033
 30
0.0
 10
76.68213943256453
 20
-135.6867999660782
 30
0.0
 10
76.68213943256453
 20
-135.7422919105091
 30
0.0
 10
76.7269422091993
 20
-135.7870594104976
 30
0.0
 10
76.78204609668236
 20
-135.7870594104976
 30
0.0
 10
76.83732637304982
 20
-135.7870594104976
 30
0.0
 10
76.88212914968459
 20
-135.7422919105091
 30
0.0
 10
76.88212914968459
 20
-135.6867999660782
 30
0.0
  0
SPLINE
  5
7E
330
1F
100
AcDbEntity
  8
_U+30EC_U+30A4_U+30E4_U+30FC 1
 62
   179
420
  2234388
370
     9
100
AcDbSpline
210
0.0
220
0.0
230
1.0
 70
    11
 71
     3
 72
    17
 73
    13
 74
     0
 42
0.0000000001
 43
0.0000000001
 12
1.0
 22
0.0
 32
0.0
 13
1.0
 23
0.0
 33
0.0
 40
0.0
 40
0.0
 40
0.0
 40
0.0
 40
1.0
 40
1.0
 40
1.0
 40
2.0
 40
2.0
 40
2.0
 40
3.0
 40
3.0
 40
3.0
 40
4.0
 40
4.0
 40
4.0
 40
4.0
 10
76.88212914968459
 20
-136.6869249658285
 30
0.0
 10
76.88212914968459
 20
-136.6317857991754
 30
0.0
 10
76.83732637304982
 20
-136.5870182991869
 30
0.0
 10
76.78204609668236
 20
-136.5870182991869
 30
0.0
 10
76.7269422091993
 20
-136.5870182991869
 30
0.0
 10
76.68213943256453
 20
-136.6317857991754
 30
0.0
 10
76.68213943256453
 20
-136.6869249658285
 30
0.0
 10
76.68213943256453
 20
-136.7420288547034
 30
0.0
 10
76.7269422091993
 20
-136.7868316324702
 30
0.0
 10
76.78204609668236
 20
-136.7868316324702
 30
0.0
 10
76.83732637304982
 20
-136.7868316324702
 30
0.0
 10
76.88212914968459
 20
-136.7420288547034
 30
0.0
 10
76.88212914968459
 20
-136.6869249658285
 30
0.0
  0
SPLINE
  5
7F
330
1F
100
AcDbEntity
  8
_U+30EC_U+30A4_U+30E4_U+30FC 1
 62
   179
420
  2234388
370
     9
100
AcDbSpline
210
0.0
220
0.0
230
1.0
 70
    11
 71
     3
 72
    17
 73
    13
 74
     0
 42
0.0000000001
 43
0.0000000001
 12
1.0
 22
0.0
 32
0.0
 13
1.0
 23
0.0
 33
0.0
 40
0.0
 40
0.0
 40
0.0
 40
0.0
 40
1.0
 40
1.0
 40
1.0
 40
2.0
 40
2.0
 40
2.0
 40
3.0
 40
3.0
 40
3.0
 40
4.0
 40
4.0
 40
4.0
 40
4.0
 10
80.88206664644613
 20
-140.6870369092725
 30
0.0
 10
80.88206664644613
 20
-140.6318977426201
 30
0.0
 10
80.83726386867973
 20
-140.5870949648534
 30
0.0
 10
80.78215793907546
 20
-140.5870949648534
 30
0.0
 10
80.72684442426285
 20
-140.5870949648534
 30
0.0
 10
80.68207488607322
 20
-140.6318977426201
 30
0.0
 10
80.68207488607322
 20
-140.6870369092725
 30
0.0
 10
80.68207488607322
 20
-140.7421407981481
 30
0.0
 10
80.72684442426285
 20
-140.7869435759142
 30
0.0
 10
80.78215793907546
 20
-140.7869435759142
 30
0.0
 10
80.83726386867973
 20
-140.7869435759142
 30
0.0
 10
80.88206664644613
 20
-140.7421407981481
 30
0.0
 10
80.88206664644613
 20
-140.6870369092725
 30
0.0
  0
SPLINE
  5
80
330
1F
100
AcDbEntity
  8
_U+30EC_U+30A4_U+30E4_U+30FC 1
 62
   179
420
  2234388
370
     9
100
AcDbSpline
210
0.0
220
0.0
230
1.0
 70
    11
 71
     3
 72
    17
 73
    13
 74
     0
 42
0.0000000001
 43
0.0000000001
 12
1.0
 22
0.0
 32
0.0
 13
1.0
 23
0.0
 33
0.0
 40
0.0
 40
0.0
 40
0.0
 40
0.0
 40
1.0
 40
1.0
 40
1.0
 40
2.0
 40
2.0
 40
2.0
 40
3.0
 40
3.0
 40
3.0
 40
4.0
 40
4.0
 40
4.0
 40
4.0
 10
92.88183568594252
 20
-117.6872310816893
 30
0.0
 10
92.88183568594252
 20
-117.6317391372588
 30
0.0
 10
92.83706818708463
 20
-117.5869716372699
 30
0.0
 10
92.78192902182468
 20
-117.5869716372699
 30
0.0
 10
92.72682513434161
 20
-117.5869716372699
 30
0.0
 10
92.68202235770684
 20
-117.6317391372588
 30
0.0
 10
92.68202235770684
 20
-117.6872310816893
 30
0.0
 10
92.68202235770684
 20
-117.7423349705645
 30
0.0
 10
92.72682513434161
 20
-117.7871377483309
 30
0.0
 10
92.78192902182468
 20
-117.7871377483309
 30
0.0
 10
92.83706818708463
 20
-117.7871377483309
 30
0.0
 10
92.88183568594252
 20
-117.7423349705645
 30
0.0
 10
92.88183568594252
 20
-117.6872310816893
 30
0.0
  0
SPLINE
  5
81
330
1F
100
AcDbEntity
  8
_U+30EC_U+30A4_U+30E4_U+30FC 1
 62
   179
420
  2234388
370
     9
100
AcDbSpline
210
0.0
220
0.0
230
1.0
 70
    11
 71
     3
 72
    17
 73
    13
 74
     0
 42
0.0000000001
 43
0.0000000001
 12
1.0
 22
0.0
 32
0.0
 13
1.0
 23
0.0
 33
0.0
 40
0.0
 40
0.0
 40
0.0
 40
0.0
 40
1.0
 40
1.0
 40
1.0
 40
2.0
 40
2.0
 40
2.0
 40
3.0
 40
3.0
 40
3.0
 40
4.0
 40
4.0
 40
4.0
 40
4.0
 10
80.88206664644613
 20
-117.6872310816893
 30
0.0
 10
80.88206664644613
 20
-117.6317391372588
 30
0.0
 10
80.83726386867973
 20
-117.5869716372699
 30
0.0
 10
80.78215793907546
 20
-117.5869716372699
 30
0.0
 10
80.72684442426285
 20
-117.5869716372699
 30
0.0
 10
80.68207488607322
 20
-117.6317391372588
 30
0.0
 10
80.68207488607322
 20
-117.6872310816893
 30
0.0
 10
80.68207488607322
 20
-117.7423349705645
 30
0.0
 10
80.72684442426285
 20
-117.7871377483309
 30
0.0
 10
80.78215793907546
 20
-117.7871377483309
 30
0.0
 10
80.83726386867973
 20
-117.7871377483309
 30
0.0
 10
80.88206664644613
 20
-117.7423349705645
 30
0.0
 10
80.88206664644613
 20
-117.6872310816893
 30
0.0
  0
SPLINE
  5
82
330
1F
100
AcDbEntity
  8
_U+30EC_U+30A4_U+30E4_U+30FC 1
 62
   179
420
  2234388
370
     9
100
AcDbSpline
210
0.0
220
0.0
230
1.0
 70
    11
 71
     3
 72
    17
 73
    13
 74
     0
 42
0.0000000001
 43
0.0000000001
 12
1.0
 22
0.0
 32
0.0
 13
1.0
 23
0.0
 33
0.0
 40
0.0
 40
0.0
 40
0.0
 40
0.0
 40
1.0
 40
1.0
 40
1.0
 40
2.0
 40
2.0
 40
2.0
 40
3.0
 40
3.0
 40
3.0
 40
4.0
 40
4.0
 40
4.0
 40
4.0
 10
103.8820462386371
 20
-131.9867608003369
 30
0.0
 10
103.8820462386371
 20
-131.9316569114613
 30
0.0
 10
103.8379490175399
 20
-131.8868541336953
 30
0.0
 10
103.7821042967424
 20
-131.8868541336953
 30
0.0
 10
103.7262948537218
 20
-131.8868541336953
 30
0.0
 10
103.6821976326246
 20
-131.9316569114613
 30
0.0
 10
103.6821976326246
 20
-131.9867608003369
 30
0.0
 10
103.6821976326246
 20
-132.0422527447671
 30
0.0
 10
103.7262948537218
 20
-132.0870202447563
 30
0.0
 10
103.7821042967424
 20
-132.0870202447563
 30
0.0
 10
103.8379490175399
 20
-132.0870202447563
 30
0.0
 10
103.8820462386371
 20
-132.0422527447671
 30
0.0
 10
103.8820462386371
 20
-131.9867608003369
 30
0.0
  0
SPLINE
  5
83
330
1F
100
AcDbEntity
  8
_U+30EC_U+30A4_U+30E4_U+30FC 1
 62
   179
420
  2234388
370
     9
100
AcDbSpline
210
0.0
220
0.0
230
1.0
 70
    11
 71
     3
 72
    17
 73
    13
 74
     0
 42
0.0000000001
 43
0.0000000001
 12
1.0
 22
0.0
 32
0.0
 13
1.0
 23
0.0
 33
0.0
 40
0.0
 40
0.0
 40
0.0
 40
0.0
 40
1.0
 40
1.0
 40
1.0
 40
2.0
 40
2.0
 40
2.0
 40
3.0
 40
3.0
 40
3.0
 40
4.0
 40
4.0
 40
4.0
 40
4.0
 10
96.88230275355735
 20
-131.9867608003369
 30
0.0
 10
96.88230275355735
 20
-131.9316569114613
 30
0.0
 10
96.83749997579064
 20
-131.8868541336953
 30
0.0
 10
96.78239364198654
 20
-131.8868541336953
 30
0.0
 10
96.72654892118904
 20
-131.8868541336953
 30
0.0
 10
96.68178142233116
 20
-131.9316569114613
 30
0.0
 10
96.68178142233116
 20
-131.9867608003369
 30
0.0
 10
96.68178142233116
 20
-132.0422527447671
 30
0.0
 10
96.72654892118904
 20
-132.0870202447563
 30
0.0
 10
96.78239364198654
 20
-132.0870202447563
 30
0.0
 10
96.83749997579064
 20
-132.0870202447563
 30
0.0
 10
96.88230275355735
 20
-132.0422527447671
 30
0.0
 10
96.88230275355735
 20
-131.9867608003369
 30
0.0
  0
POLYLINE
  5
84
330
1F
100
AcDbEntity
  8
_U+30EC_U+30A4_U+30E4_U+30FC 1
 62
   179
420
  2234388
370
     9
100
AcDb2dPolyline
 66
     1
 10
0.0
 20
0.0
 30
0.0
  0
VERTEX
  5
85
330
84
100
AcDbEntity
  8
_U+30EC_U+30A4_U+30E4_U+30FC 1
 62
   179
420
  2234388
370
     9
100
AcDbVertex
100
AcDb2dVertex
 10
107.7818633613667
 20
-136.6869249658285
 30
0.0
  0
VERTEX
  5
86
330
84
100
AcDbEntity
  8
_U+30EC_U+30A4_U+30E4_U+30FC 1
 62
   179
420
  2234388
370
     9
100
AcDbVertex
100
AcDb2dVertex
 10
107.7818633613667
 20
-141.9448307978475
 30
0.0
  0
SEQEND
  5
87
330
84
100
AcDbEntity
  8
_U+30EC_U+30A4_U+30E4_U+30FC 1
 62
   179
420
  2234388
370
     9
  0
POLYLINE
  5
88
330
1F
100
AcDbEntity
  8
_U+30EC_U+30A4_U+30E4_U+30FC 1
 62
   179
420
  2234388
370
     9
100
AcDb2dPolyline
 66
     1
 10
0.0
 20
0.0
 30
0.0
  0
VERTEX
  5
89
330
88
100
AcDbEntity
  8
_U+30EC_U+30A4_U+30E4_U+30FC 1
 62
   179
420
  2234388
370
     9
100
AcDbVertex
100
AcDb2dVertex
 10
107.7818633613667
 20
-136.6869249658285
 30
0.0
  0
VERTEX
  5
8A
330
88
100
AcDbEntity
  8
_U+30EC_U+30A4_U+30E4_U+30FC 1
 62
   179
420
  2234388
370
     9
100
AcDbVertex
100
AcDb2dVertex
 10
107.7818633613667
 20
-134.987100521809
 30
0.0
  0
SEQEND
  5
8B
330
88
100
AcDbEntity
  8
_U+30EC_U+30A4_U+30E4_U+30FC 1
 62
   179
420
  2234388
370
     9
  0
POLYLINE
  5
8C
330
1F
100
AcDbEntity
  8
_U+30EC_U+30A4_U+30E4_U+30FC 1
 62
   179
420
  2234388
370
     9
100
AcDb2dPolyline
 66
     1
 10
0.0
 20
0.0
 30
0.0
  0
VERTEX
  5
8D
330
8C
100
AcDbEntity
  8
_U+30EC_U+30A4_U+30E4_U+30FC 1
 62
   179
420
  2234388
370
     9
100
AcDbVertex
100
AcDb2dVertex
 10
106.3225275652641
 20
-136.6869249658285
 30
0.0
  0
VERTEX
  5
8E
330
8C
100
AcDbEntity
  8
_U+30EC_U+30A4_U+30E4_U+30FC 1
 62
   179
420
  2234388
370
     9
100
AcDbVertex
100
AcDb2dVertex
 10
108.7816355580826
 20
-136.6869249658285
 30
0.0
  0
SEQEND
  5
8F
330
8C
100
AcDbEntity
  8
_U+30EC_U+30A4_U+30E4_U+30FC 1
 62
   179
420
  2234388
370
     9
  0
POLYLINE
  5
90
330
1F
100
AcDbEntity
  8
_U+30EC_U+30A4_U+30E4_U+30FC 1
 62
   179
420
  2234388
370
     9
100
AcDb2dPolyline
 66
     1
 10
0.0
 20
0.0
 30
0.0
  0
VERTEX
  5
91
330
90
100
AcDbEntity
  8
_U+30EC_U+30A4_U+30E4_U+30FC 1
 62
   179
420
  2234388
370
     9
100
AcDbVertex
100
AcDb2dVertex
 10
106.0676103495454
 20
-135.9868727437809
 30
0.0
  0
VERTEX
  5
92
330
90
100
AcDbEntity
  8
_U+30EC_U+30A4_U+30E4_U+30FC 1
 62
   179
420
  2234388
370
     9
100
AcDbVertex
100
AcDb2dVertex
 10
108.7816355580826
 20
-135.9868727437809
 30
0.0
  0
SEQEND
  5
93
330
90
100
AcDbEntity
  8
_U+30EC_U+30A4_U+30E4_U+30FC 1
 62
   179
420
  2234388
370
     9
  0
INSERT
  5
95
330
1F
100
AcDbEntity
  8
_U+30EC_U+30A4_U+30E4_U+30FC 1
100
AcDbBlockReference
  2
block 2
 10
0.0
 20
0.0
 30
0.0
  0
POLYLINE
  5
A5
330
1F
100
AcDbEntity
  8
_U+30EC_U+30A4_U+30E4_U+30FC 1
 62
   179
420
  2234388
370
     9
100
AcDb2dPolyline
 66
     1
 10
0.0
 20
0.0
 30
0.0
  0
VERTEX
  5
A6
330
A5
100
AcDbEntity
  8
_U+30EC_U+30A4_U+30E4_U+30FC 1
 62
   179
420
  2234388
370
     9
100
AcDbVertex
100
AcDb2dVertex
 10
80.78215793907546
 20
-140.6870369092725
 30
0.0
  0
VERTEX
  5
A7
330
A5
100
AcDbEntity
  8
_U+30EC_U+30A4_U+30E4_U+30FC 1
 62
   179
420
  2234388
370
     9
100
AcDbVertex
100
AcDb2dVertex
 10
103.7821042967424
 20
-140.6870369092725
 30
0.0
  0
SEQEND
  5
A8
330
A5
100
AcDbEntity
  8
_U+30EC_U+30A4_U+30E4_U+30FC 1
 62
   179
420
  2234388
370
     9
  0
POLYLINE
  5
A9
330
1F
100
AcDbEntity
  8
_U+30EC_U+30A4_U+30E4_U+30FC 1
 62
   179
420
  2234388
370
     9
100
AcDb2dPolyline
 66
     1
 10
0.0
 20
0.0
 30
0.0
  0
VERTEX
  5
AA
330
A9
100
AcDbEntity
  8
_U+30EC_U+30A4_U+30E4_U+30FC 1
 62
   179
420
  2234388
370
     9
100
AcDbVertex
100
AcDb2dVertex
 10
80.78215793907546
 20
-139.2269955207488
 30
0.0
  0
VERTEX
  5
AB
330
A9
100
AcDbEntity
  8
_U+30EC_U+30A4_U+30E4_U+30FC 1
 62
   179
420
  2234388
370
     9
100
AcDbVertex
100
AcDb2dVertex
 10
80.78215793907546
 20
-141.6871266312447
 30
0.0
  0
SEQEND
  5
AC
330
A9
100
AcDbEntity
  8
_U+30EC_U+30A4_U+30E4_U+30FC 1
 62
   179
420
  2234388
370
     9
  0
POLYLINE
  5
AD
330
1F
100
AcDbEntity
  8
_U+30EC_U+30A4_U+30E4_U+30FC 1
 62
   179
420
  2234388
370
     9
100
AcDb2dPolyline
 66
     1
 10
0.0
 20
0.0
 30
0.0
  0
VERTEX
  5
AE
330
AD
100
AcDbEntity
  8
_U+30EC_U+30A4_U+30E4_U+30FC 1
 62
   179
420
  2234388
370
     9
100
AcDbVertex
100
AcDb2dVertex
 10
103.7821042967424
 20
-139.2269955207488
 30
0.0
  0
VERTEX
  5
AF
330
AD
100
AcDbEntity
  8
_U+30EC_U+30A4_U+30E4_U+30FC 1
 62
   179
420
  2234388
370
     9
100
AcDbVertex
100
AcDb2dVertex
 10
103.7821042967424
 20
-141.6871266312447
 30
0.0
  0
SEQEND
  5
B0
330
AD
100
AcDbEntity
  8
_U+30EC_U+30A4_U+30E4_U+30FC 1
 62
   179
420
  2234388
370
     9
  0
INSERT
  5
B2
330
1F
100
AcDbEntity
  8
_U+30EC_U+30A4_U+30E4_U+30FC 1
100
AcDbBlockReference
  2
block 3
 10
0.0
 20
0.0
 30
0.0
  0
POLYLINE
  5
B9
330
1F
100
AcDbEntity
  8
_U+30EC_U+30A4_U+30E4_U+30FC 1
 62
   179
420
  2234388
370
     9
100
AcDb2dPolyline
 66
     1
 10
0.0
 20
0.0
 30
0.0
  0
VERTEX
  5
BA
330
B9
100
AcDbEntity
  8
_U+30EC_U+30A4_U+30E4_U+30FC 1
 62
   179
420
  2234388
370
     9
100
AcDbVertex
100
AcDb2dVertex
 10
92.78192902182468
 20
-117.6872310816893
 30
0.0
  0
VERTEX
  5
BB
330
B9
100
AcDbEntity
  8
_U+30EC_U+30A4_U+30E4_U+30FC 1
 62
   179
420
  2234388
370
     9
100
AcDbVertex
100
AcDb2dVertex
 10
80.78215793907546
 20
-117.6872310816893
 30
0.0
  0
SEQEND
  5
BC
330
B9
100
AcDbEntity
  8
_U+30EC_U+30A4_U+30E4_U+30FC 1
 62
   179
420
  2234388
370
     9
  0
POLYLINE
  5
BD
330
1F
100
AcDbEntity
  8
_U+30EC_U+30A4_U+30E4_U+30FC 1
 62
   179
420
  2234388
370
     9
100
AcDb2dPolyline
 66
     1
 10
0.0
 20
0.0
 30
0.0
  0
VERTEX
  5
BE
330
BD
100
AcDbEntity
  8
_U+30EC_U+30A4_U+30E4_U+30FC 1
 62
   179
420
  2234388
370
     9
100
AcDbVertex
100
AcDb2dVertex
 10
92.78192902182468
 20
-120.1470094144077
 30
0.0
  0
VERTEX
  5
BF
330
BD
100
AcDbEntity
  8
_U+30EC_U+30A4_U+30E4_U+30FC 1
 62
   179
420
  2234388
370
     9
100
AcDbVertex
100
AcDb2dVertex
 10
92.78192902182468
 20
-116.6867533041616
 30
0.0
  0
SEQEND
  5
C0
330
BD
100
AcDbEntity
  8
_U+30EC_U+30A4_U+30E4_U+30FC 1
 62
   179
420
  2234388
370
     9
  0
POLYLINE
  5
C1
330
1F
100
AcDbEntity
  8
_U+30EC_U+30A4_U+30E4_U+30FC 1
 62
   179
420
  2234388
370
     9
100
AcDb2dPolyline
 66
     1
 10
0.0
 20
0.0
 30
0.0
  0
VERTEX
  5
C2
330
C1
100
AcDbEntity
  8
_U+30EC_U+30A4_U+30E4_U+30FC 1
 62
   179
420
  2234388
370
     9
100
AcDbVertex
100
AcDb2dVertex
 10
80.78215793907546
 20
-120.1470094144077
 30
0.0
  0
VERTEX
  5
C3
330
C1
100
AcDbEntity
  8
_U+30EC_U+30A4_U+30E4_U+30FC 1
 62
   179
420
  2234388
370
     9
100
AcDbVertex
100
AcDb2dVertex
 10
80.78215793907546
 20
-116.6867533041616
 30
0.0
  0
SEQEND
  5
C4
330
C1
100
AcDbEntity
  8
_U+30EC_U+30A4_U+30E4_U+30FC 1
 62
   179
420
  2234388
370
     9
  0
INSERT
  5
C6
330
1F
100
AcDbEntity
  8
_U+30EC_U+30A4_U+30E4_U+30FC 1
100
AcDbBlockReference
  2
block 4
 10
0.0
 20
0.0
 30
0.0
  0
POLYLINE
  5
CD
330
1F
100
AcDbEntity
  8
_U+30EC_U+30A4_U+30E4_U+30FC 1
 62
   179
420
  2234388
370
     9
100
AcDb2dPolyline
 66
     1
 10
0.0
 20
0.0
 30
0.0
  0
VERTEX
  5
CE
330
CD
100
AcDbEntity
  8
_U+30EC_U+30A4_U+30E4_U+30FC 1
 62
   179
420
  2234388
370
     9
100
AcDbVertex
100
AcDb2dVertex
 10
76.78204609668236
 20
-136.6869249658285
 30
0.0
  0
VERTEX
  5
CF
330
CD
100
AcDbEntity
  8
_U+30EC_U+30A4_U+30E4_U+30FC 1
 62
   179
420
  2234388
370
     9
100
AcDbVertex
100
AcDb2dVertex
 10
76.78204609668236
 20
-140.457237464886
 30
0.0
  0
SEQEND
  5
D0
330
CD
100
AcDbEntity
  8
_U+30EC_U+30A4_U+30E4_U+30FC 1
 62
   179
420
  2234388
370
     9
  0
POLYLINE
  5
D1
330
1F
100
AcDbEntity
  8
_U+30EC_U+30A4_U+30E4_U+30FC 1
 62
   179
420
  2234388
370
     9
100
AcDb2dPolyline
 66
     1
 10
0.0
 20
0.0
 30
0.0
  0
VERTEX
  5
D2
330
D1
100
AcDbEntity
  8
_U+30EC_U+30A4_U+30E4_U+30FC 1
 62
   179
420
  2234388
370
     9
100
AcDbVertex
100
AcDb2dVertex
 10
76.78204609668236
 20
-135.6867999660782
 30
0.0
  0
VERTEX
  5
D3
330
D1
100
AcDbEntity
  8
_U+30EC_U+30A4_U+30E4_U+30FC 1
 62
   179
420
  2234388
370
     9
100
AcDbVertex
100
AcDb2dVertex
 10
76.78204609668236
 20
-136.6869249658285
 30
0.0
  0
SEQEND
  5
D4
330
D1
100
AcDbEntity
  8
_U+30EC_U+30A4_U+30E4_U+30FC 1
 62
   179
420
  2234388
370
     9
  0
POLYLINE
  5
D5
330
1F
100
AcDbEntity
  8
_U+30EC_U+30A4_U+30E4_U+30FC 1
 62
   179
420
  2234388
370
     9
100
AcDb2dPolyline
 66
     1
 10
0.0
 20
0.0
 30
0.0
  0
VERTEX
  5
D6
330
D5
100
AcDbEntity
  8
_U+30EC_U+30A4_U+30E4_U+30FC 1
 62
   179
420
  2234388
370
     9
100
AcDbVertex
100
AcDb2dVertex
 10
78.2420874483225
 20
-136.6869249658285
 30
0.0
  0
VERTEX
  5
D7
330
D5
100
AcDbEntity
  8
_U+30EC_U+30A4_U+30E4_U+30FC 1
 62
   179
420
  2234388
370
     9
100
AcDbVertex
100
AcDb2dVertex
 10
75.78209751108207
 20
-136.6869249658285
 30
0.0
  0
SEQEND
  5
D8
330
D5
100
AcDbEntity
  8
_U+30EC_U+30A4_U+30E4_U+30FC 1
 62
   179
420
  2234388
370
     9
  0
INSERT
  5
DA
330
1F
100
AcDbEntity
  8
_U+30EC_U+30A4_U+30E4_U+30FC 1
100
AcDbBlockReference
  2
block 5
 10
0.0
 20
0.0
 30
0.0
  0
POLYLINE
  5
DF
330
1F
100
AcDbEntity
  8
_U+30EC_U+30A4_U+30E4_U+30FC 1
 62
   179
420
  2234388
370
     9
100
AcDb2dPolyline
 66
     1
 10
0.0
 20
0.0
 30
0.0
  0
VERTEX
  5
E0
330
DF
100
AcDbEntity
  8
_U+30EC_U+30A4_U+30E4_U+30FC 1
 62
   179
420
  2234388
370
     9
100
AcDbVertex
100
AcDb2dVertex
 10
96.78239364198654
 20
-131.9867608003369
 30
0.0
  0
VERTEX
  5
E1
330
DF
100
AcDbEntity
  8
_U+30EC_U+30A4_U+30E4_U+30FC 1
 62
   179
420
  2234388
370
     9
100
AcDbVertex
100
AcDb2dVertex
 10
103.7821042967424
 20
-131.9867608003369
 30
0.0
  0
SEQEND
  5
E2
330
DF
100
AcDbEntity
  8
_U+30EC_U+30A4_U+30E4_U+30FC 1
 62
   179
420
  2234388
370
     9
  0
POLYLINE
  5
E3
330
1F
100
AcDbEntity
  8
_U+30EC_U+30A4_U+30E4_U+30FC 1
 62
   179
420
  2234388
370
     9
100
AcDb2dPolyline
 66
     1
 10
0.0
 20
0.0
 30
0.0
  0
VERTEX
  5
E4
330
E3
100
AcDbEntity
  8
_U+30EC_U+30A4_U+30E4_U+30FC 1
 62
   179
420
  2234388
370
     9
100
AcDbVertex
100
AcDb2dVertex
 10
96.78239364198654
 20
-133.1470821889357
 30
0.0
  0
VERTEX
  5
E5
330
E3
100
AcDbEntity
  8
_U+30EC_U+30A4_U+30E4_U+30FC 1
 62
   179
420
  2234388
370
     9
100
AcDbVertex
100
AcDb2dVertex
 10
96.78239364198654
 20
-130.9870238561419
 30
0.0
  0
SEQEND
  5
E6
330
E3
100
AcDbEntity
  8
_U+30EC_U+30A4_U+30E4_U+30FC 1
 62
   179
420
  2234388
370
     9
  0
POLYLINE
  5
E7
330
1F
100
AcDbEntity
  8
_U+30EC_U+30A4_U+30E4_U+30FC 1
 62
   179
420
  2234388
370
     9
100
AcDb2dPolyline
 66
     1
 10
0.0
 20
0.0
 30
0.0
  0
VERTEX
  5
E8
330
E7
100
AcDbEntity
  8
_U+30EC_U+30A4_U+30E4_U+30FC 1
 62
   179
420
  2234388
370
     9
100
AcDbVertex
100
AcDb2dVertex
 10
103.7821042967424
 20
-134.1468544109076
 30
0.0
  0
VERTEX
  5
E9
330
E7
100
AcDbEntity
  8
_U+30EC_U+30A4_U+30E4_U+30FC 1
 62
   179
420
  2234388
370
     9
100
AcDbVertex
100
AcDb2dVertex
 10
103.7821042967424
 20
-130.9870238561419
 30
0.0
  0
SEQEND
  5
EA
330
E7
100
AcDbEntity
  8
_U+30EC_U+30A4_U+30E4_U+30FC 1
 62
   179
420
  2234388
370
     9
  0
INSERT
  5
EC
330
1F
100
AcDbEntity
  8
_U+30EC_U+30A4_U+30E4_U+30FC 1
100
AcDbBlockReference
  2
block 6
 10
0.0
 20
0.0
 30
0.0
  0
POLYLINE
  5
F1
330
1F
100
AcDbEntity
  8
_U+30EC_U+30A4_U+30E4_U+30FC 1
 62
   179
420
  2234388
370
     9
100
AcDb2dPolyline
 66
     1
 10
0.0
 20
0.0
 30
0.0
  0
VERTEX
  5
F2
330
F1
100
AcDbEntity
  8
_U+30EC_U+30A4_U+30E4_U+30FC 1
 62
   179
420
  2234388
370
     9
100
AcDbVertex
100
AcDb2dVertex
 10
76.78204609668236
 20
-122.6870799693283
 30
0.0
  0
VERTEX
  5
F3
330
F1
100
AcDbEntity
  8
_U+30EC_U+30A4_U+30E4_U+30FC 1
 62
   179
420
  2234388
370
     9
100
AcDbVertex
100
AcDb2dVertex
 10
76.78204609668236
 20
-135.6867999660782
 30
0.0
  0
SEQEND
  5
F4
330
F1
100
AcDbEntity
  8
_U+30EC_U+30A4_U+30E4_U+30FC 1
 62
   179
420
  2234388
370
     9
  0
POLYLINE
  5
F5
330
1F
100
AcDbEntity
  8
_U+30EC_U+30A4_U+30E4_U+30FC 1
 62
   179
420
  2234388
370
     9
100
AcDb2dPolyline
 66
     1
 10
0.0
 20
0.0
 30
0.0
  0
VERTEX
  5
F6
330
F5
100
AcDbEntity
  8
_U+30EC_U+30A4_U+30E4_U+30FC 1
 62
   179
420
  2234388
370
     9
100
AcDbVertex
100
AcDb2dVertex
 10
78.2420874483225
 20
-122.6870799693283
 30
0.0
  0
VERTEX
  5
F7
330
F5
100
AcDbEntity
  8
_U+30EC_U+30A4_U+30E4_U+30FC 1
 62
   179
420
  2234388
370
     9
100
AcDbVertex
100
AcDb2dVertex
 10
75.78209751108207
 20
-122.6870799693283
 30
0.0
  0
SEQEND
  5
F8
330
F5
100
AcDbEntity
  8
_U+30EC_U+30A4_U+30E4_U+30FC 1
 62
   179
420
  2234388
370
     9
  0
POLYLINE
  5
F9
330
1F
100
AcDbEntity
  8
_U+30EC_U+30A4_U+30E4_U+30FC 1
 62
   179
420
  2234388
370
     9
100
AcDb2dPolyline
 66
     1
 10
0.0
 20
0.0
 30
0.0
  0
VERTEX
  5
FA
330
F9
100
AcDbEntity
  8
_U+30EC_U+30A4_U+30E4_U+30FC 1
 62
   179
420
  2234388
370
     9
100
AcDbVertex
100
AcDb2dVertex
 10
78.60604827237042
 20
-135.6867999660782
 30
0.0
  0
VERTEX
  5
FB
330
F9
100
AcDbEntity
  8
_U+30EC_U+30A4_U+30E4_U+30FC 1
 62
   179
420
  2234388
370
     9
100
AcDbVertex
100
AcDb2dVertex
 10
75.78209751108207
 20
-135.6867999660782
 30
0.0
  0
SEQEND
  5
FC
330
F9
100
AcDbEntity
  8
_U+30EC_U+30A4_U+30E4_U+30FC 1
 62
   179
420
  2234388
370
     9
  0
INSERT
  5
FE
330
1F
100
AcDbEntity
  8
_U+30EC_U+30A4_U+30E4_U+30FC 1
100
AcDbBlockReference
  2
block 7
 10
0.0
 20
0.0
 30
0.0
  0
ENDSEC
  0
SECTION
  2
OBJECTS
  0
DICTIONARY
  5
C
330
0
100
AcDbDictionary
281
     1
  3
ACAD_GROUP
350
D
  3
ACAD_LAYOUT
350
1A
  3
ACAD_MATERIAL
350
3B
  3
ACAD_MLEADERSTYLE
350
106
  3
ACAD_MLINESTYLE
350
17
  3
ACAD_PLOTSETTINGS
350
19
  3
ACAD_PLOTSTYLENAME
350
E
  3
ACAD_TABLESTYLE
350
105
  3
ACAD_VISUALSTYLE
350
2A
  0
SUN
  5
3F
330
29
100
AcDbSun
 90
        1
290
     0
 63
     7
421
 16777215
 40
1.0
291
     1
 91
  2455826
 92
 54000000
292
     0
 70
     2
 71
   256
280
     1
  0
DICTIONARY
  5
D
102
{ACAD_REACTORS
330
C
102
}
330
C
100
AcDbDictionary
281
     1
  0
DICTIONARY
  5
1A
102
{ACAD_REACTORS
330
C
102
}
330
C
100
AcDbDictionary
281
     1
  3
Layout1
350
1E
  3
Layout2
350
26
  3
Model
350
22
  0
DICTIONARY
  5
3B
102
{ACAD_REACTORS
330
C
102
}
330
C
100
AcDbDictionary
281
     1
  3
ByBlock
350
3D
  3
ByLayer
350
3C
  3
Global
350
3E
  0
DICTIONARY
  5
106
102
{ACAD_REACTORS
330
C
102
}
330
C
100
AcDbDictionary
281
     1
  0
DICTIONARY
  5
17
102
{ACAD_REACTORS
330
C
102
}
330
C
100
AcDbDictionary
281
     1
  3
Standard
350
18
  0
DICTIONARY
  5
19
102
{ACAD_REACTORS
330
C
102
}
330
C
100
AcDbDictionary
281
     1
  0
ACDBDICTIONARYWDFLT
  5
E
102
{ACAD_REACTORS
330
C
102
}
330
C
100
AcDbDictionary
281
     1
  3
Normal
350
F
100
AcDbDictionaryWithDefault
340
F
  0
DICTIONARY
  5
105
102
{ACAD_REACTORS
330
C
102
}
330
C
100
AcDbDictionary
281
     1
  0
DICTIONARY
  5
2A
102
{ACAD_REACTORS
330
C
102
}
330
C
100
AcDbDictionary
281
     1
  3
2dWireframe
350
2F
  3
3D Hidden
350
31
  3
3dWireframe
350
30
  3
Basic
350
32
  3
Brighten
350
36
  3
ColorChange
350
3A
  3
Conceptual
350
34
  3
Dim
350
35
  3
Facepattern
350
39
  3
Flat
350
2B
  3
FlatWithEdges
350
2C
  3
Gouraud
350
2D
  3
GouraudWithEdges
350
2E
  3
Linepattern
350
38
  3
Realistic
350
33
  3
Thicken
350
37
  0
LAYOUT
  5
1E
102
{ACAD_REACTORS
330
1A
102
}
330
1A
100
AcDbPlotSettings
  1

  2
none_device
  4

  6

 40
0.0
 41
0.0
 42
0.0
 43
0.0
 44
0.0
 45
0.0
 46
0.0
 47
0.0
 48
0.0
 49
0.0
140
0.0
141
0.0
142
1.0
143
1.0
 70
   688
 72
     0
 73
     0
 74
     5
  7

 75
    16
 76
     0
 77
     2
 78
   300
147
1.0
148
0.0
149
0.0
100
AcDbLayout
  1
Layout1
 70
     1
 71
     1
 10
0.0
 20
0.0
 11
12.0
 21
9.0
 12
0.0
 22
0.0
 32
0.0
 14
1.000000000000000E+20
 24
1.000000000000000E+20
 34
1.000000000000000E+20
 15
-1.000000000000000E+20
 25
-1.000000000000000E+20
 35
-1.000000000000000E+20
146
0.0
 13
0.0
 23
0.0
 33
0.0
 16
1.0
 26
0.0
 36
0.0
 17
0.0
 27
1.0
 37
0.0
 76
     0
330
1B
  0
LAYOUT
  5
26
102
{ACAD_REACTORS
330
1A
102
}
330
1A
100
AcDbPlotSettings
  1

  2
none_device
  4

  6

 40
0.0
 41
0.0
 42
0.0
 43
0.0
 44
0.0
 45
0.0
 46
0.0
 47
0.0
 48
0.0
 49
0.0
140
0.0
141
0.0
142
1.0
143
1.0
 70
   688
 72
     0
 73
     0
 74
     5
  7

 75
    16
 76
     0
 77
     2
 78
   300
147
1.0
148
0.0
149
0.0
100
AcDbLayout
  1
Layout2
 70
     1
 71
     2
 10
0.0
 20
0.0
 11
0.0
 21
0.0
 12
0.0
 22
0.0
 32
0.0
 14
0.0
 24
0.0
 34
0.0
 15
0.0
 25
0.0
 35
0.0
146
0.0
 13
0.0
 23
0.0
 33
0.0
 16
1.0
 26
0.0
 36
0.0
 17
0.0
 27
1.0
 37
0.0
 76
     0
330
23
  0
LAYOUT
  5
22
102
{ACAD_REACTORS
330
1A
102
}
330
1A
100
AcDbPlotSettings
  1

  2
none_device
  4

  6

 40
0.0
 41
0.0
 42
0.0
 43
0.0
 44
0.0
 45
0.0
 46
0.0
 47
0.0
 48
0.0
 49
0.0
140
0.0
141
0.0
142
1.0
143
1.0
 70
  1712
 72
     0
 73
     0
 74
     0
  7

 75
     0
 76
     0
 77
     2
 78
   300
147
1.0
148
0.0
149
0.0
100
AcDbLayout
  1
Model
 70
     1
 71
     0
 10
0.0
 20
0.0
 11
12.0
 21
9.0
 12
0.0
 22
0.0
 32
0.0
 14
1.000000000000000E+20
 24
1.000000000000000E+20
 34
1.000000000000000E+20
 15
-1.000000000000000E+20
 25
-1.000000000000000E+20
 35
-1.000000000000000E+20
146
0.0
 13
0.0
 23
0.0
 33
0.0
 16
1.0
 26
0.0
 36
0.0
 17
0.0
 27
1.0
 37
0.0
 76
     0
330
1F
331
29
  0
MATERIAL
  5
3D
102
{ACAD_REACTORS
330
3B
102
}
330
3B
100
AcDbMaterial
  1
ByBlock
 72
     1
 94
      127
  0
MATERIAL
  5
3C
102
{ACAD_REACTORS
330
3B
102
}
330
3B
100
AcDbMaterial
  1
ByLayer
 72
     1
 94
      127
  0
MATERIAL
  5
3E
102
{ACAD_REACTORS
330
3B
102
}
330
3B
100
AcDbMaterial
  1
Global
 72
     1
 94
      127
  0
MLINESTYLE
  5
18
102
{ACAD_REACTORS
330
17
102
}
330
17
100
AcDbMlineStyle
  2
Standard
 70
     0
  3

 62
   256
 51
90.0
 52
90.0
 71
     2
 49
0.5
 62
   256
  6
BYLAYER
 49
-0.5
 62
   256
  6
BYLAYER
  0
ACDBPLACEHOLDER
  5
F
102
{ACAD_REACTORS
330
E
102
}
330
E
  0
VISUALSTYLE
  5
2F
102
{ACAD_REACTORS
330
2A
102
}
330
2A
100
AcDbVisualStyle
  2
2dWireframe
 70
     4
177
     2
291
     0
 71
     0
176
     1
 72
     2
176
     1
 73
     0
176
     1
 90
        0
176
     1
 40
-0.6
176
     1
 41
-30.0
176
     1
 62
     5
 63
     7
421
 16777215
176
     1
 74
     1
176
     1
 91
        4
176
     1
 64
     7
176
     1
 65
   257
176
     1
 75
     1
176
     1
175
     1
176
     1
 42
1.0
176
     1
 92
        0
176
     1
 66
   257
176
     1
 43
1.0
176
     1
 76
     1
176
     1
 77
     6
176
     1
 78
     2
176
     1
 67
     7
176
     1
 79
     5
176
     1
170
     0
176
     1
171
     0
176
     1
290
     0
176
     1
 93
        1
176
     1
 44
0.0
176
     1
173
     0
176
     1
  0
VISUALSTYLE
  5
31
102
{ACAD_REACTORS
330
2A
102
}
330
2A
100
AcDbVisualStyle
  2
3D Hidden
 70
     6
177
     2
291
     0
 71
     1
176
     1
 72
     2
176
     1
 73
     2
176
     1
 90
        0
176
     1
 40
-0.6
176
     1
 41
-30.0
176
     1
 62
     5
 63
     7
421
 16777215
176
     1
 74
     2
176
     1
 91
        2
176
     1
 64
     7
176
     1
 65
   257
176
     1
 75
     2
176
     1
175
     1
176
     1
 42
40.0
176
     1
 92
        0
176
     1
 66
   257
176
     1
 43
1.0
176
     1
 76
     1
176
     1
 77
     6
176
     1
 78
     2
176
     1
 67
     7
176
     1
 79
     3
176
     1
170
     0
176
     1
171
     0
176
     1
290
     0
176
     1
 93
        1
176
     1
 44
0.0
176
     1
173
     0
176
     1
  0
VISUALSTYLE
  5
30
102
{ACAD_REACTORS
330
2A
102
}
330
2A
100
AcDbVisualStyle
  2
3dWireframe
 70
     5
177
     2
291
     0
 71
     0
176
     1
 72
     2
176
     1
 73
     0
176
     1
 90
        0
176
     1
 40
-0.6
176
     1
 41
-30.0
176
     1
 62
     5
 63
     7
421
 16777215
176
     1
 74
     1
176
     1
 91
        4
176
     1
 64
     7
176
     1
 65
   257
176
     1
 75
     1
176
     1
175
     1
176
     1
 42
1.0
176
     1
 92
        0
176
     1
 66
   257
176
     1
 43
1.0
176
     1
 76
     1
176
     1
 77
     6
176
     1
 78
     2
176
     1
 67
     7
176
     1
 79
     5
176
     1
170
     0
176
     1
171
     0
176
     1
290
     0
176
     1
 93
        1
176
     1
 44
0.0
176
     1
173
     0
176
     1
  0
VISUALSTYLE
  5
32
102
{ACAD_REACTORS
330
2A
102
}
330
2A
100
AcDbVisualStyle
  2
Basic
 70
     7
177
     2
291
     1
 71
     1
176
     1
 72
     0
176
     1
 73
     1
176
     1
 90
        0
176
     1
 40
-0.6
176
     1
 41
-30.0
176
     1
 62
     5
 63
     7
421
 16777215
176
     1
 74
     0
176
     1
 91
        4
176
     1
 64
     7
176
     1
 65
   257
176
     1
 75
     1
176
     1
175
     1
176
     1
 42
1.0
176
     1
 92
        8
176
     1
 66
     7
176
     1
 43
1.0
176
     1
 76
     1
176
     1
 77
     6
176
     1
 78
     2
176
     1
 67
     7
176
     1
 79
     5
176
     1
170
     0
176
     1
171
     0
176
     1
290
     0
176
     1
 93
        1
176
     1
 44
0.0
176
     1
173
     0
176
     1
  0
VISUALSTYLE
  5
36
102
{ACAD_REACTORS
330
2A
102
}
330
2A
100
AcDbVisualStyle
  2
Brighten
 70
    12
177
     2
291
     1
 71
     2
176
     1
 72
     2
176
     1
 73
     0
176
     1
 90
        0
176
     1
 40
-0.6
176
     1
 41
-30.0
176
     1
 62
     5
 63
     7
421
 16777215
176
     1
 74
     1
176
     1
 91
        4
176
     1
 64
     7
176
     1
 65
   257
176
     1
 75
     1
176
     1
175
     1
176
     1
 42
1.0
176
     1
 92
        8
176
     1
 66
     7
176
     1
 43
1.0
176
     1
 76
     1
176
     1
 77
     6
176
     1
 78
     2
176
     1
 67
     7
176
     1
 79
     5
176
     1
170
     0
176
     1
171
     0
176
     1
290
     0
176
     1
 93
        1
176
     1
 44
50.0
176
     1
173
     0
176
     1
  0
VISUALSTYLE
  5
3A
102
{ACAD_REACTORS
330
2A
102
}
330
2A
100
AcDbVisualStyle
  2
ColorChange
 70
    16
177
     2
291
     1
 71
     2
176
     1
 72
     2
176
     1
 73
     3
176
     1
 90
        0
176
     1
 40
-0.6
176
     1
 41
-30.0
176
     1
 62
     5
 63
     8
421
  8421504
176
     1
 74
     1
176
     1
 91
        4
176
     1
 64
     7
176
     1
 65
   257
176
     1
 75
     1
176
     1
175
     1
176
     1
 42
1.0
176
     1
 92
        8
176
     1
 66
     8
424
  8421504
176
     1
 43
1.0
176
     1
 76
     1
176
     1
 77
     6
176
     1
 78
     2
176
     1
 67
     7
176
     1
 79
     5
176
     1
170
     0
176
     1
171
     0
176
     1
290
     0
176
     1
 93
        1
176
     1
 44
0.0
176
     1
173
     0
176
     1
  0
VISUALSTYLE
  5
34
102
{ACAD_REACTORS
330
2A
102
}
330
2A
100
AcDbVisualStyle
  2
Conceptual
 70
     9
177
     2
291
     0
 71
     3
176
     1
 72
     2
176
     1
 73
     0
176
     1
 90
        0
176
     1
 40
-0.6
176
     1
 41
-30.0
176
     1
 62
     5
 63
     7
421
 16777215
176
     1
 74
     2
176
     1
 91
        2
176
     1
 64
     7
176
     1
 65
   257
176
     1
 75
     1
176
     1
175
     1
176
     1
 42
40.0
176
     1
 92
        8
176
     1
 66
     7
176
     1
 43
1.0
176
     1
 76
     1
176
     1
 77
     6
176
     1
 78
     2
176
     1
 67
     7
176
     1
 79
     3
176
     1
170
     0
176
     1
171
     0
176
     1
290
     0
176
     1
 93
        1
176
     1
 44
0.0
176
     1
173
     0
176
     1
  0
VISUALSTYLE
  5
35
102
{ACAD_REACTORS
330
2A
102
}
330
2A
100
AcDbVisualStyle
  2
Dim
 70
    11
177
     2
291
     1
 71
     2
176
     1
 72
     2
176
     1
 73
     0
176
     1
 90
        0
176
     1
 40
-0.6
176
     1
 41
-30.0
176
     1
 62
     5
 63
     7
421
 16777215
176
     1
 74
     1
176
     1
 91
        4
176
     1
 64
     7
176
     1
 65
   257
176
     1
 75
     1
176
     1
175
     1
176
     1
 42
1.0
176
     1
 92
        8
176
     1
 66
     7
176
     1
 43
1.0
176
     1
 76
     1
176
     1
 77
     6
176
     1
 78
     2
176
     1
 67
     7
176
     1
 79
     5
176
     1
170
     0
176
     1
171
     0
176
     1
290
     0
176
     1
 93
        1
176
     1
 44
-50.0
176
     1
173
     0
176
     1
  0
VISUALSTYLE
  5
39
102
{ACAD_REACTORS
330
2A
102
}
330
2A
100
AcDbVisualStyle
  2
Facepattern
 70
    15
177
     2
291
     1
 71
     2
176
     1
 72
     2
176
     1
 73
     0
176
     1
 90
        0
176
     1
 40
-0.6
176
     1
 41
-30.0
176
     1
 62
     5
 63
     7
421
 16777215
176
     1
 74
     1
176
     1
 91
        4
176
     1
 64
     7
176
     1
 65
   257
176
     1
 75
     1
176
     1
175
     1
176
     1
 42
1.0
176
     1
 92
        8
176
     1
 66
     7
176
     1
 43
1.0
176
     1
 76
     1
176
     1
 77
     6
176
     1
 78
     2
176
     1
 67
     7
176
     1
 79
     5
176
     1
170
     0
176
     1
171
     0
176
     1
290
     0
176
     1
 93
        1
176
     1
 44
0.0
176
     1
173
     0
176
     1
  0
VISUALSTYLE
  5
2B
102
{ACAD_REACTORS
330
2A
102
}
330
2A
100
AcDbVisualStyle
  2
Flat
 70
     0
177
     2
291
     1
 71
     2
176
     1
 72
     1
176
     1
 73
     1
176
     1
 90
        2
176
     1
 40
-0.6
176
     1
 41
30.0
176
     1
 62
     5
 63
     7
421
 16777215
176
     1
 74
     0
176
     1
 91
        4
176
     1
 64
     7
176
     1
 65
   257
176
     1
 75
     1
176
     1
175
     1
176
     1
 42
1.0
176
     1
 92
        8
176
     1
 66
     7
176
     1
 43
1.0
176
     1
 76
     1
176
     1
 77
     6
176
     1
 78
     2
176
     1
 67
     7
176
     1
 79
     5
176
     1
170
     0
176
     1
171
     0
176
     1
290
     0
176
     1
 93
       13
176
     1
 44
0.0
176
     1
173
     0
176
     1
  0
VISUALSTYLE
  5
2C
102
{ACAD_REACTORS
330
2A
102
}
330
2A
100
AcDbVisualStyle
  2
FlatWithEdges
 70
     1
177
     2
291
     1
 71
     2
176
     1
 72
     1
176
     1
 73
     1
176
     1
 90
        2
176
     1
 40
-0.6
176
     1
 41
30.0
176
     1
 62
     5
 63
     7
421
 16777215
176
     1
 74
     1
176
     1
 91
        4
176
     1
 64
     7
176
     1
 65
   257
176
     1
 75
     1
176
     1
175
     1
176
     1
 42
1.0
176
     1
 92
        0
176
     1
 66
   257
176
     1
 43
1.0
176
     1
 76
     1
176
     1
 77
     6
176
     1
 78
     2
176
     1
 67
     7
176
     1
 79
     5
176
     1
170
     0
176
     1
171
     0
176
     1
290
     0
176
     1
 93
       13
176
     1
 44
0.0
176
     1
173
     0
176
     1
  0
VISUALSTYLE
  5
2D
102
{ACAD_REACTORS
330
2A
102
}
330
2A
100
AcDbVisualStyle
  2
Gouraud
 70
     2
177
     2
291
     1
 71
     2
176
     1
 72
     2
176
     1
 73
     1
176
     1
 90
        2
176
     1
 40
-0.6
176
     1
 41
30.0
176
     1
 62
     5
 63
     7
421
 16777215
176
     1
 74
     0
176
     1
 91
        4
176
     1
 64
     7
176
     1
 65
   257
176
     1
 75
     1
176
     1
175
     1
176
     1
 42
1.0
176
     1
 92
        0
176
     1
 66
     7
176
     1
 43
1.0
176
     1
 76
     1
176
     1
 77
     6
176
     1
 78
     2
176
     1
 67
     7
176
     1
 79
     5
176
     1
170
     0
176
     1
171
     0
176
     1
290
     0
176
     1
 93
       13
176
     1
 44
0.0
176
     1
173
     0
176
     1
  0
VISUALSTYLE
  5
2E
102
{ACAD_REACTORS
330
2A
102
}
330
2A
100
AcDbVisualStyle
  2
GouraudWithEdges
 70
     3
177
     2
291
     1
 71
     2
176
     1
 72
     2
176
     1
 73
     1
176
     1
 90
        2
176
     1
 40
-0.6
176
     1
 41
30.0
176
     1
 62
     5
 63
     7
421
 16777215
176
     1
 74
     1
176
     1
 91
        4
176
     1
 64
     7
176
     1
 65
   257
176
     1
 75
     1
176
     1
175
     1
176
     1
 42
1.0
176
     1
 92
        0
176
     1
 66
   257
176
     1
 43
1.0
176
     1
 76
     1
176
     1
 77
     6
176
     1
 78
     2
176
     1
 67
     7
176
     1
 79
     5
176
     1
170
     0
176
     1
171
     0
176
     1
290
     0
176
     1
 93
       13
176
     1
 44
0.0
176
     1
173
     0
176
     1
  0
VISUALSTYLE
  5
38
102
{ACAD_REACTORS
330
2A
102
}
330
2A
100
AcDbVisualStyle
  2
Linepattern
 70
    14
177
     2
291
     1
 71
     2
176
     1
 72
     2
176
     1
 73
     0
176
     1
 90
        0
176
     1
 40
-0.6
176
     1
 41
-30.0
176
     1
 62
     5
 63
     7
421
 16777215
176
     1
 74
     1
176
     1
 91
        4
176
     1
 64
     7
176
     1
 65
   257
176
     1
 75
     7
176
     1
175
     7
176
     1
 42
1.0
176
     1
 92
        8
176
     1
 66
     7
176
     1
 43
1.0
176
     1
 76
     1
176
     1
 77
     6
176
     1
 78
     2
176
     1
 67
     7
176
     1
 79
     5
176
     1
170
     0
176
     1
171
     0
176
     1
290
     0
176
     1
 93
        1
176
     1
 44
0.0
176
     1
173
     0
176
     1
  0
VISUALSTYLE
  5
33
102
{ACAD_REACTORS
330
2A
102
}
330
2A
100
AcDbVisualStyle
  2
Realistic
 70
     8
177
     2
291
     0
 71
     2
176
     1
 72
     2
176
     1
 73
     0
176
     1
 90
        0
176
     1
 40
-0.6
176
     1
 41
-30.0
176
     1
 62
     5
 63
     7
421
 16777215
176
     1
 74
     1
176
     1
 91
        0
176
     1
 64
     7
176
     1
 65
   257
176
     1
 75
     1
176
     1
175
     1
176
     1
 42
1.0
176
     1
 92
        8
176
     1
 66
     8
424
  7895160
176
     1
 43
1.0
176
     1
 76
     1
176
     1
 77
     6
176
     1
 78
     2
176
     1
 67
     7
176
     1
 79
     5
176
     1
170
     0
176
     1
171
     0
176
     1
290
     0
176
     1
 93
       13
176
     1
 44
0.0
176
     1
173
     0
176
     1
  0
VISUALSTYLE
  5
37
102
{ACAD_REACTORS
330
2A
102
}
330
2A
100
AcDbVisualStyle
  2
Thicken
 70
    13
177
     2
291
     1
 71
     2
176
     1
 72
     2
176
     1
 73
     0
176
     1
 90
        0
176
     1
 40
-0.6
176
     1
 41
-30.0
176
     1
 62
     5
 63
     7
421
 16777215
176
     1
 74
     1
176
     1
 91
        4
176
     1
 64
     7
176
     1
 65
   257
176
     1
 75
     1
176
     1
175
     1
176
     1
 42
1.0
176
     1
 92
       12
176
     1
 66
     7
176
     1
 43
1.0
176
     1
 76
     1
176
     1
 77
     6
176
     1
 78
     2
176
     1
 67
     7
176
     1
 79
     5
176
     1
170
     0
176
     1
171
     0
176
     1
290
     0
176
     1
 93
        1
176
     1
 44
0.0
176
     1
173
     0
176
     1
  0
ENDSEC
  0
EOF
