  0
SECTION
  2
HEADER
  9
$ACADVER
  1
AC1024
  9
$ACADMAINTVER
 70
     6
  9
$DWGCODEPAGE
  3
UNDEFINED
  9
$INSBASE
 10
0.0
 20
0.0
 30
0.0
  9
$EXTMIN
 10
1.000000000000000E+20
 20
1.000000000000000E+20
 30
1.000000000000000E+20
  9
$EXTMAX
 10
-1.000000000000000E+20
 20
-1.000000000000000E+20
 30
-1.000000000000000E+20
  9
$LIMMIN
 10
0.0
 20
0.0
  9
$LIMMAX
 10
12.0
 20
9.0
  9
$ORTHOMODE
 70
     0
  9
$REGENMODE
 70
     1
  9
$FILLMODE
 70
     1
  9
$QTEXTMODE
 70
     0
  9
$MIRRTEXT
 70
     1
  9
$LTSCALE
 40
1.0
  9
$ATTMODE
 70
     1
  9
$TEXTSIZE
 40
0.2
  9
$TRACEWID
 40
0.05
  9
$TEXTSTYLE
  7
Standard
  9
$CLAYER
  8
0
  9
$CELTYPE
  6
ByLayer
  9
$CECOLOR
 62
   256
  9
$CELTSCALE
 40
1.0
  9
$DISPSILH
 70
     0
  9
$DIMSCALE
 40
1.0
  9
$DIMASZ
 40
0.18
  9
$DIMEXO
 40
0.0625
  9
$DIMDLI
 40
0.38
  9
$DIMRND
 40
0.0
  9
$DIMDLE
 40
0.0
  9
$DIMEXE
 40
0.18
  9
$DIMTP
 40
0.0
  9
$DIMTM
 40
0.0
  9
$DIMTXT
 40
0.18
  9
$DIMCEN
 40
0.09
  9
$DIMTSZ
 40
0.0
  9
$DIMTOL
 70
     0
  9
$DIMLIM
 70
     0
  9
$DIMTIH
 70
     1
  9
$DIMTOH
 70
     1
  9
$DIMSE1
 70
     0
  9
$DIMSE2
 70
     0
  9
$DIMTAD
 70
     0
  9
$DIMZIN
 70
     0
  9
$DIMBLK
  1

  9
$DIMASO
 70
     1
  9
$DIMSHO
 70
     1
  9
$DIMPOST
  1

  9
$DIMAPOST
  1

  9
$DIMALT
 70
     0
  9
$DIMALTD
 70
     2
  9
$DIMALTF
 40
25.4
  9
$DIMLFAC
 40
1.0
  9
$DIMTOFL
 70
     0
  9
$DIMTVP
 40
0.0
  9
$DIMTIX
 70
     0
  9
$DIMSOXD
 70
     0
  9
$DIMSAH
 70
     0
  9
$DIMBLK1
  1

  9
$DIMBLK2
  1

  9
$DIMSTYLE
  2
Standard
  9
$DIMCLRD
 70
     0
  9
$DIMCLRE
 70
     0
  9
$DIMCLRT
 70
     0
  9
$DIMTFAC
 40
1.0
  9
$DIMGAP
 40
0.09
  9
$DIMJUST
 70
     0
  9
$DIMSD1
 70
     0
  9
$DIMSD2
 70
     0
  9
$DIMTOLJ
 70
     1
  9
$DIMTZIN
 70
     0
  9
$DIMALTZ
 70
     0
  9
$DIMALTTZ
 70
     0
  9
$DIMUPT
 70
     0
  9
$DIMDEC
 70
     4
  9
$DIMTDEC
 70
     4
  9
$DIMALTU
 70
     2
  9
$DIMALTTD
 70
     2
  9
$DIMTXSTY
  7
Standard
  9
$DIMAUNIT
 70
     0
  9
$DIMADEC
 70
     0
  9
$DIMALTRND
 40
0.0
  9
$DIMAZIN
 70
     0
  9
$DIMDSEP
 70
    46
  9
$DIMATFIT
 70
     3
  9
$DIMFRAC
 70
     0
  9
$DIMLDRBLK
  1

  9
$DIMLUNIT
 70
     2
  9
$DIMLWD
 70
    -2
  9
$DIMLWE
 70
    -2
  9
$DIMTMOVE
 70
     0
  9
$DIMFXL
 40
1.0
  9
$DIMFXLON
 70
     0
  9
$DIMJOGANG
 40
0.7853981633974483
  9
$DIMTFILL
 70
     0
  9
$DIMTFILLCLR
 70
     0
  9
$DIMARCSYM
 70
     0
  9
$DIMLTYPE
  6

  9
$DIMLTEX1
  6

  9
$DIMLTEX2
  6

  9
$DIMTXTDIRECTION
 70
     0
  9
$LUNITS
 70
     2
  9
$LUPREC
 70
     4
  9
$SKETCHINC
 40
0.1
  9
$FILLETRAD
 40
0.5
  9
$AUNITS
 70
     0
  9
$AUPREC
 70
     0
  9
$MENU
  1
.
  9
$ELEVATION
 40
0.0
  9
$PELEVATION
 40
0.0
  9
$THICKNESS
 40
0.0
  9
$LIMCHECK
 70
     0
  9
$CHAMFERA
 40
0.5
  9
$CHAMFERB
 40
0.5
  9
$CHAMFERC
 40
1.0
  9
$CHAMFERD
 40
0.0
  9
$SKPOLY
 70
     0
  9
$TDCREATE
 40
2457917.594548599
  9
$TDUCREATE
 40
2457917.219548611
  9
$TDUPDATE
 40
2457917.594548599
  9
$TDUUPDATE
 40
2457917.219548611
  9
$TDINDWG
 40
0.0000000116
  9
$TDUSRTIMER
 40
0.0000000116
  9
$USRTIMER
 70
     1
  9
$ANGBASE
 50
0.0
  9
$ANGDIR
 70
     0
  9
$PDMODE
 70
     0
  9
$PDSIZE
 40
0.0
  9
$PLINEWID
 40
0.0
  9
$SPLFRAME
 70
     0
  9
$SPLINETYPE
 70
     6
  9
$SPLINESEGS
 70
     8
  9
$HANDSEED
  5
122
  9
$SURFTAB1
 70
     6
  9
$SURFTAB2
 70
     6
  9
$SURFTYPE
 70
     6
  9
$SURFU
 70
     6
  9
$SURFV
 70
     6
  9
$UCSBASE
  2

  9
$UCSNAME
  2

  9
$UCSORG
 10
0.0
 20
0.0
 30
0.0
  9
$UCSXDIR
 10
1.0
 20
0.0
 30
0.0
  9
$UCSYDIR
 10
0.0
 20
1.0
 30
0.0
  9
$UCSORTHOREF
  2

  9
$UCSORTHOVIEW
 70
     0
  9
$UCSORGTOP
 10
0.0
 20
0.0
 30
0.0
  9
$UCSORGBOTTOM
 10
0.0
 20
0.0
 30
0.0
  9
$UCSORGLEFT
 10
0.0
 20
0.0
 30
0.0
  9
$UCSORGRIGHT
 10
0.0
 20
0.0
 30
0.0
  9
$UCSORGFRONT
 10
0.0
 20
0.0
 30
0.0
  9
$UCSORGBACK
 10
0.0
 20
0.0
 30
0.0
  9
$PUCSBASE
  2

  9
$PUCSNAME
  2

  9
$PUCSORG
 10
0.0
 20
0.0
 30
0.0
  9
$PUCSXDIR
 10
1.0
 20
0.0
 30
0.0
  9
$PUCSYDIR
 10
0.0
 20
1.0
 30
0.0
  9
$PUCSORTHOREF
  2

  9
$PUCSORTHOVIEW
 70
     0
  9
$PUCSORGTOP
 10
0.0
 20
0.0
 30
0.0
  9
$PUCSORGBOTTOM
 10
0.0
 20
0.0
 30
0.0
  9
$PUCSORGLEFT
 10
0.0
 20
0.0
 30
0.0
  9
$PUCSORGRIGHT
 10
0.0
 20
0.0
 30
0.0
  9
$PUCSORGFRONT
 10
0.0
 20
0.0
 30
0.0
  9
$PUCSORGBACK
 10
0.0
 20
0.0
 30
0.0
  9
$USERI1
 70
     0
  9
$USERI2
 70
     0
  9
$USERI3
 70
     0
  9
$USERI4
 70
     0
  9
$USERI5
 70
     0
  9
$USERR1
 40
0.0
  9
$USERR2
 40
0.0
  9
$USERR3
 40
0.0
  9
$USERR4
 40
0.0
  9
$USERR5
 40
0.0
  9
$WORLDVIEW
 70
     1
  9
$SHADEDGE
 70
     3
  9
$SHADEDIF
 70
    70
  9
$TILEMODE
 70
     1
  9
$MAXACTVP
 70
    64
  9
$PINSBASE
 10
0.0
 20
0.0
 30
0.0
  9
$PLIMCHECK
 70
     0
  9
$PEXTMIN
 10
1.000000000000000E+20
 20
1.000000000000000E+20
 30
1.000000000000000E+20
  9
$PEXTMAX
 10
-1.000000000000000E+20
 20
-1.000000000000000E+20
 30
-1.000000000000000E+20
  9
$PLIMMIN
 10
0.0
 20
0.0
  9
$PLIMMAX
 10
12.0
 20
9.0
  9
$UNITMODE
 70
     0
  9
$VISRETAIN
 70
     1
  9
$PLINEGEN
 70
     0
  9
$PSLTSCALE
 70
     1
  9
$TREEDEPTH
 70
  3020
  9
$CMLSTYLE
  2
Standard
  9
$CMLJUST
 70
     0
  9
$CMLSCALE
 40
1.0
  9
$PROXYGRAPHICS
 70
     1
  9
$MEASUREMENT
 70
     0
  9
$CELWEIGHT
370
    -1
  9
$ENDCAPS
280
     0
  9
$JOINSTYLE
280
     0
  9
$LWDISPLAY
290
     1
  9
$INSUNITS
 70
     1
  9
$HYPERLINKBASE
  1

  9
$STYLESHEET
  1

  9
$XEDIT
290
     1
  9
$CEPSNTYPE
380
     0
  9
$PSTYLEMODE
290
     1
  9
$FINGERPRINTGUID
  2
{B5878BAB-DF74-30C1-2F30-E087F83DECBA}
  9
$VERSIONGUID
  2
{FAEB1C32-E019-11D5-929B-00C0DF256EC4}
  9
$EXTNAMES
290
     1
  9
$PSVPSCALE
 40
0.0
  9
$OLESTARTUP
290
     0
  9
$SORTENTS
280
   127
  9
$INDEXCTL
280
     0
  9
$HIDETEXT
280
     1
  9
$XCLIPFRAME
280
     2
  9
$HALOGAP
280
     0
  9
$OBSCOLOR
 70
   257
  9
$OBSLTYPE
280
     0
  9
$INTERSECTIONDISPLAY
280
     0
  9
$INTERSECTIONCOLOR
 70
   257
  9
$DIMASSOC
280
     2
  9
$PROJECTNAME
  1

  9
$CAMERADISPLAY
290
     0
  9
$LENSLENGTH
 40
50.0
  9
$CAMERAHEIGHT
 40
0.0
  9
$STEPSPERSEC
 40
2.0
  9
$STEPSIZE
 40
6.0
  9
$3DDWFPREC
 40
2.0
  9
$PSOLWIDTH
 40
0.25
  9
$PSOLHEIGHT
 40
4.0
  9
$LOFTANG1
 40
1.570796326794897
  9
$LOFTANG2
 40
1.570796326794897
  9
$LOFTMAG1
 40
0.0
  9
$LOFTMAG2
 40
0.0
  9
$LOFTPARAM
 70
     7
  9
$LOFTNORMALS
280
     1
  9
$LATITUDE
 40
37.795
  9
$LONGITUDE
 40
-122.394
  9
$NORTHDIRECTION
 40
0.0
  9
$TIMEZONE
 70
 -8000
  9
$LIGHTGLYPHDISPLAY
280
     1
  9
$TILEMODELIGHTSYNCH
280
     1
  9
$CMATERIAL
347
3C
  9
$SOLIDHIST
280
     1
  9
$SHOWHIST
280
     1
  9
$DWFFRAME
280
     2
  9
$DGNFRAME
280
     2
  9
$REALWORLDSCALE
290
     1
  9
$INTERFERECOLOR
 62
   256
  9
$CSHADOW
280
     0
  9
$SHADOWPLANELOCATION
 40
0.0
  0
ENDSEC
  0
SECTION
  2
CLASSES
  0
CLASS
  1
ACDBDICTIONARYWDFLT
  2
AcDbDictionaryWithDefault
  3
ObjectDBX Classes
 90
        0
 91
        4
280
     0
281
     0
  0
CLASS
  1
VISUALSTYLE
  2
AcDbVisualStyle
  3
ObjectDBX Classes
 90
     4095
 91
        4
280
     0
281
     0
  0
CLASS
  1
MATERIAL
  2
AcDbMaterial
  3
ObjectDBX Classes
 90
     1153
 91
        4
280
     0
281
     0
  0
CLASS
  1
SUN
  2
AcDbSun
  3
SCENEOE
 90
     1024
 91
        4
280
     0
281
     0
  0
ENDSEC
  0
SECTION
  2
TABLES
  0
TABLE
  2
VPORT
  5
8
330
0
100
AcDbSymbolTable
 70
     1
  0
VPORT
  5
29
330
8
100
AcDbSymbolTableRecord
100
AcDbViewportTableRecord
  2
*Active
 70
     0
 10
0.0
 20
0.0
 11
1.0
 21
1.0
 12
0.0
 22
0.0
 13
0.0
 23
0.0
 14
0.5
 24
0.5
 15
0.5
 25
0.5
 16
0.0
 26
0.0
 36
1.0
 17
91.00082462281999
 27
-128.4993055234307
 37
0.0
 40
256.9986110468615
 41
0.7081814508812795
 42
50.0
 43
0.0
 44
0.0
 50
0.0
 51
0.0
 71
     0
 72
   100
 73
     1
 74
     3
 75
     0
 76
     0
 77
     0
 78
     0
281
     0
 65
     1
110
0.0
120
0.0
130
0.0
111
1.0
121
0.0
131
0.0
112
0.0
122
1.0
132
0.0
 79
     0
146
0.0
 60
     3
 61
     5
292
     1
282
     1
141
0.0
142
0.0
 63
   250
361
3F
  0
ENDTAB
  0
TABLE
  2
LTYPE
  5
5
330
0
100
AcDbSymbolTable
 70
     1
  0
LTYPE
  5
14
330
5
100
AcDbSymbolTableRecord
100
AcDbLinetypeTableRecord
  2
ByBlock
 70
     0
  3

 72
    65
 73
     0
 40
0.0
  0
LTYPE
  5
15
330
5
100
AcDbSymbolTableRecord
100
AcDbLinetypeTableRecord
  2
ByLayer
 70
     0
  3

 72
    65
 73
     0
 40
0.0
  0
LTYPE
  5
16
330
5
100
AcDbSymbolTableRecord
100
AcDbLinetypeTableRecord
  2
Continuous
 70
     0
  3
Solid line
 72
    65
 73
     0
 40
0.0
  0
ENDTAB
  0
TABLE
  2
LAYER
  5
2
330
0
100
AcDbSymbolTable
 70
     2
  0
LAYER
  5
10
330
2
100
AcDbSymbolTableRecord
100
AcDbLayerTableRecord
  2
0
 70
     0
 62
     7
  6
Continuous
370
    -3
390
F
347
3E
  0
LAYER
  5
40
330
2
100
AcDbSymbolTableRecord
100
AcDbLayerTableRecord
  2
_U+30EC_U+30A4_U+30E4_U+30FC 1
 70
     0
 62
     7
  6
Continuous
370
    -3
390
F
347
3E
  0
ENDTAB
  0
TABLE
  2
STYLE
  5
3
330
0
100
AcDbSymbolTable
 70
     1
  0
STYLE
  5
11
330
3
100
AcDbSymbolTableRecord
100
AcDbTextStyleTableRecord
  2
Standard
 70
     0
 40
0.0
 41
1.0
 50
0.0
 71
     0
 42
0.2
  3
txt
  4

  0
ENDTAB
  0
TABLE
  2
VIEW
  5
6
330
0
100
AcDbSymbolTable
 70
     0
  0
ENDTAB
  0
TABLE
  2
UCS
  5
7
330
0
100
AcDbSymbolTable
 70
     0
  0
ENDTAB
  0
TABLE
  2
APPID
  5
9
330
0
100
AcDbSymbolTable
 70
     1
  0
APPID
  5
12
330
9
100
AcDbSymbolTableRecord
100
AcDbRegAppTableRecord
  2
ACAD
 70
     0
  0
ENDTAB
  0
TABLE
  2
DIMSTYLE
  5
A
330
0
100
AcDbSymbolTable
 70
     1
100
AcDbDimStyleTable
  0
DIMSTYLE
105
27
330
A
100
AcDbSymbolTableRecord
100
AcDbDimStyleTableRecord
  2
Standard
 70
     0
178
     0
340
11
  0
ENDTAB
  0
TABLE
  2
BLOCK_RECORD
  5
1
330
0
100
AcDbSymbolTable
 70
     7
  0
BLOCK_RECORD
  5
1F
330
1
100
AcDbSymbolTableRecord
100
AcDbBlockTableRecord
  2
*Model_Space
340
22
 70
     0
280
     1
281
     0
  0
BLOCK_RECORD
  5
1B
330
1
100
AcDbSymbolTableRecord
100
AcDbBlockTableRecord
  2
*Paper_Space
340
1E
 70
     0
280
     1
281
     0
  0
BLOCK_RECORD
  5
23
330
1
100
AcDbSymbolTableRecord
100
AcDbBlockTableRecord
  2
*Paper_Space0
340
26
 70
     0
280
     1
281
     0
  0
BLOCK_RECORD
  5
94
330
1
100
AcDbSymbolTableRecord
100
AcDbBlockTableRecord
  2
block 2
340
0
102
{BLKREFS
331
95
102
}
 70
     0
280
     1
281
     0
  0
BLOCK_RECORD
  5
B1
330
1
100
AcDbSymbolTableRecord
100
AcDbBlockTableRecord
  2
block 3
340
0
102
{BLKREFS
331
B2
102
}
 70
     0
280
     1
281
     0
  0
BLOCK_RECORD
  5
C5
330
1
100
AcDbSymbolTableRecord
100
AcDbBlockTableRecord
  2
block 4
340
0
102
{BLKREFS
331
C6
102
}
 70
     0
280
     1
281
     0
  0
BLOCK_RECORD
  5
D9
330
1
100
AcDbSymbolTableRecord
100
AcDbBlockTableRecord
  2
block 5
340
0
102
{BLKREFS
331
DA
102
}
 70
     0
280
     1
281
     0
  0
BLOCK_RECORD
  5
108
330
1
100
AcDbSymbolTableRecord
100
AcDbBlockTableRecord
  2
block 6
340
0
102
{BLKREFS
331
109
102
}
 70
     0
280
     1
281
     0
  0
BLOCK_RECORD
  5
11A
330
1
100
AcDbSymbolTableRecord
100
AcDbBlockTableRecord
  2
block 7
340
0
102
{BLKREFS
331
11B
102
}
 70
     0
280
     1
281
     0
  0
ENDTAB
  0
ENDSEC
  0
SECTION
  2
BLOCKS
  0
BLOCK
  5
20
330
1F
100
AcDbEntity
  8
0
100
AcDbBlockBegin
  2
*Model_Space
 70
     0
 10
0.0
 20
0.0
 30
0.0
  3
*Model_Space
  1

  0
ENDBLK
  5
21
330
1F
100
AcDbEntity
  8
0
100
AcDbBlockEnd
  0
BLOCK
  5
1C
330
1B
100
AcDbEntity
 67
     1
  8
0
100
AcDbBlockBegin
  2
*Paper_Space
 70
     0
 10
0.0
 20
0.0
 30
0.0
  3
*Paper_Space
  1

  0
ENDBLK
  5
1D
330
1B
100
AcDbEntity
 67
     1
  8
0
100
AcDbBlockEnd
  0
BLOCK
  5
24
330
23
100
AcDbEntity
  8
0
100
AcDbBlockBegin
  2
*Paper_Space0
 70
     0
 10
0.0
 20
0.0
 30
0.0
  3
*Paper_Space0
  1

  0
ENDBLK
  5
25
330
23
100
AcDbEntity
  8
0
100
AcDbBlockEnd
  0
BLOCK
  5
96
330
94
100
AcDbEntity
  8
0
100
AcDbBlockBegin
  2
block 2
 70
     0
 10
0.0
 20
0.0
 30
0.0
  3
block 2
  1

  0
SPLINE
  5
98
330
94
100
AcDbEntity
  8
_U+30EC_U+30A4_U+30E4_U+30FC 1
370
     0
100
AcDbSpline
210
0.0
220
0.0
230
1.0
 70
    11
 71
     3
 72
    29
 73
    25
 74
     0
 42
0.0000000001
 43
0.0000000001
 12
1.0
 22
0.0
 32
0.0
 13
1.0
 23
0.0
 33
0.0
 40
0.0
 40
0.0
 40
0.0
 40
0.0
 40
1.0
 40
1.0
 40
1.0
 40
2.0
 40
2.0
 40
2.0
 40
3.0
 40
3.0
 40
3.0
 40
4.0
 40
4.0
 40
4.0
 40
5.0
 40
5.0
 40
5.0
 40
6.0
 40
6.0
 40
6.0
 40
7.0
 40
7.0
 40
7.0
 40
8.0
 40
8.0
 40
8.0
 40
8.0
 10
105.7482394483893
 20
-132.9200520501033
 30
0.0
 10
105.9577012538925
 20
-133.0354627488592
 30
0.0
 10
105.9766492790614
 20
-133.2208088859656
 30
0.0
 10
105.9766492790614
 20
-133.3451768329832
 30
0.0
 10
105.9766492790614
 20
-133.5167425881486
 30
0.0
 10
105.9301404900105
 20
-133.6683267894996
 30
0.0
 10
105.7482394483893
 20
-133.7699571063145
 30
0.0
 10
105.5535915534727
 20
-133.8808891809395
 30
0.0
 10
105.3169134936361
 20
-133.9012152443025
 30
0.0
 10
105.1539604771837
 20
-133.9012152443025
 30
0.0
 10
105.0099554859003
 20
-133.9012152443025
 30
0.0
 10
104.7581190059285
 20
-133.8833007477792
 30
0.0
 10
104.5593369964296
 20
-133.7699571063145
 30
0.0
 10
104.3564208723484
 20
-133.6548909171071
 30
0.0
 10
104.3329942230487
 20
-133.4829806523931
 30
0.0
 10
104.3329942230487
 20
-133.3451768329832
 30
0.0
 10
104.3329942230487
 20
-133.1753336255603
 30
0.0
 10
104.3774359548084
 20
-133.0216823669182
 30
0.0
 10
104.5593369964296
 20
-132.9200520501033
 30
0.0
 10
104.7519178340551
 20
-132.8135985996091
 30
0.0
 10
104.9803276647271
 20
-132.7887939121153
 30
0.0
 10
105.1539604771837
 20
-132.7887939121153
 30
0.0
 10
105.3251817228007
 20
-132.7887939121153
 30
0.0
 10
105.5556586107639
 20
-132.811531542318
 30
0.0
 10
105.7482394483893
 20
-132.9200520501033
 30
0.0
  0
SPLINE
  5
99
330
94
100
AcDbEntity
  8
_U+30EC_U+30A4_U+30E4_U+30FC 1
370
     0
100
AcDbSpline
210
0.0
220
0.0
230
1.0
 70
    11
 71
     3
 72
    17
 73
    13
 74
     0
 42
0.0000000001
 43
0.0000000001
 12
1.0
 22
0.0
 32
0.0
 13
1.0
 23
0.0
 33
0.0
 40
0.0
 40
0.0
 40
0.0
 40
0.0
 40
1.0
 40
1.0
 40
1.0
 40
2.0
 40
2.0
 40
2.0
 40
3.0
 40
3.0
 40
3.0
 40
4.0
 40
4.0
 40
4.0
 40
4.0
 10
104.5255750606742
 20
-133.3451768329832
 30
0.0
 10
104.5255750606742
 20
-133.6118272235415
 30
0.0
 10
104.8091064191102
 20
-133.6614365985291
 30
0.0
 10
105.1539604771837
 20
-133.6614365985291
 30
0.0
 10
105.4733208286664
 20
-133.6614365985291
 30
0.0
 10
105.7820013841448
 20
-133.6231960386428
 30
0.0
 10
105.7820013841448
 20
-133.3451768329832
 30
0.0
 10
105.7820013841448
 20
-133.080593499716
 30
0.0
 10
105.5008815925484
 20
-133.0285725578887
 30
0.0
 10
105.1539604771837
 20
-133.0285725578887
 30
0.0
 10
104.8342556161525
 20
-133.0285725578887
 30
0.0
 10
104.5255750606742
 20
-133.0692246846147
 30
0.0
 10
104.5255750606742
 20
-133.3451768329832
 30
0.0
  0
HATCH
  5
9A
330
94
100
AcDbEntity
  8
_U+30EC_U+30A4_U+30E4_U+30FC 1
 62
   179
420
  2234388
100
AcDbHatch
 10
0.0
 20
0.0
 30
0.0
210
0.0
220
0.0
230
1.0
  2
SOLID
 70
     1
 71
     0
 91
        2
 92
        1
 93
        1
 72
     4
 94
        3
 73
     0
 74
     1
 95
       29
 96
       25
 40
0.0
 40
0.0
 40
0.0
 40
0.0
 40
1.0
 40
1.0
 40
1.0
 40
2.0
 40
2.0
 40
2.0
 40
3.0
 40
3.0
 40
3.0
 40
4.0
 40
4.0
 40
4.0
 40
5.0
 40
5.0
 40
5.0
 40
6.0
 40
6.0
 40
6.0
 40
7.0
 40
7.0
 40
7.0
 40
8.0
 40
8.0
 40
8.0
 40
8.0
 10
105.7482394483893
 20
-132.9200520501033
 10
105.9577012538925
 20
-133.0354627488592
 10
105.9766492790614
 20
-133.2208088859656
 10
105.9766492790614
 20
-133.3451768329832
 10
105.9766492790614
 20
-133.5167425881486
 10
105.9301404900105
 20
-133.6683267894996
 10
105.7482394483893
 20
-133.7699571063145
 10
105.5535915534727
 20
-133.8808891809395
 10
105.3169134936361
 20
-133.9012152443025
 10
105.1539604771837
 20
-133.9012152443025
 10
105.0099554859003
 20
-133.9012152443025
 10
104.7581190059285
 20
-133.8833007477792
 10
104.5593369964296
 20
-133.7699571063145
 10
104.3564208723484
 20
-133.6548909171071
 10
104.3329942230487
 20
-133.4829806523931
 10
104.3329942230487
 20
-133.3451768329832
 10
104.3329942230487
 20
-133.1753336255603
 10
104.3774359548084
 20
-133.0216823669182
 10
104.5593369964296
 20
-132.9200520501033
 10
104.7519178340551
 20
-132.8135985996091
 10
104.9803276647271
 20
-132.7887939121153
 10
105.1539604771837
 20
-132.7887939121153
 10
105.3251817228007
 20
-132.7887939121153
 10
105.5556586107639
 20
-132.811531542318
 10
105.7482394483893
 20
-132.9200520501033
 97
        0
 97
        0
 92
        1
 93
        1
 72
     4
 94
        3
 73
     0
 74
     1
 95
       17
 96
       13
 40
0.0
 40
0.0
 40
0.0
 40
0.0
 40
1.0
 40
1.0
 40
1.0
 40
2.0
 40
2.0
 40
2.0
 40
3.0
 40
3.0
 40
3.0
 40
4.0
 40
4.0
 40
4.0
 40
4.0
 10
104.5255750606742
 20
-133.3451768329832
 10
104.5255750606742
 20
-133.6118272235415
 10
104.8091064191102
 20
-133.6614365985291
 10
105.1539604771837
 20
-133.6614365985291
 10
105.4733208286664
 20
-133.6614365985291
 10
105.7820013841448
 20
-133.6231960386428
 10
105.7820013841448
 20
-133.3451768329832
 10
105.7820013841448
 20
-133.080593499716
 10
105.5008815925484
 20
-133.0285725578887
 10
105.1539604771837
 20
-133.0285725578887
 10
104.8342556161525
 20
-133.0285725578887
 10
104.5255750606742
 20
-133.0692246846147
 10
104.5255750606742
 20
-133.3451768329832
 97
        0
 97
        0
 75
     2
 76
     1
 98
        0
  0
POLYLINE
  5
9B
330
94
100
AcDbEntity
  8
_U+30EC_U+30A4_U+30E4_U+30FC 1
370
     0
100
AcDb2dPolyline
 66
     1
 10
0.0
 20
0.0
 30
0.0
  0
VERTEX
  5
9C
330
9B
100
AcDbEntity
  8
_U+30EC_U+30A4_U+30E4_U+30FC 1
370
     0
100
AcDbVertex
100
AcDb2dVertex
 10
105.9260063754282
 20
-132.5576280050551
 30
0.0
  0
VERTEX
  5
9D
330
9B
100
AcDbEntity
  8
_U+30EC_U+30A4_U+30E4_U+30FC 1
370
     0
100
AcDbVertex
100
AcDb2dVertex
 10
105.6741698954565
 20
-132.5576280050551
 30
0.0
  0
VERTEX
  5
9E
330
9B
100
AcDbEntity
  8
_U+30EC_U+30A4_U+30E4_U+30FC 1
370
     0
100
AcDbVertex
100
AcDb2dVertex
 10
105.6741698954565
 20
-132.288566047657
 30
0.0
  0
VERTEX
  5
9F
330
9B
100
AcDbEntity
  8
_U+30EC_U+30A4_U+30E4_U+30FC 1
370
     0
100
AcDbVertex
100
AcDb2dVertex
 10
105.9260063754282
 20
-132.288566047657
 30
0.0
  0
VERTEX
  5
A0
330
9B
100
AcDbEntity
  8
_U+30EC_U+30A4_U+30E4_U+30FC 1
370
     0
100
AcDbVertex
100
AcDb2dVertex
 10
105.9260063754282
 20
-132.5576280050551
 30
0.0
  0
SEQEND
  5
A1
330
9B
100
AcDbEntity
  8
_U+30EC_U+30A4_U+30E4_U+30FC 1
370
     0
  0
HATCH
  5
A2
330
94
100
AcDbEntity
  8
_U+30EC_U+30A4_U+30E4_U+30FC 1
 62
   179
420
  2234388
100
AcDbHatch
 10
0.0
 20
0.0
 30
0.0
210
0.0
220
0.0
230
1.0
  2
SOLID
 70
     1
 71
     0
 91
        1
 92
        1
 93
        4
 72
     1
 10
105.9260063754282
 20
-132.5576280050551
 11
105.6741698954565
 21
-132.5576280050551
 72
     1
 10
105.6741698954565
 20
-132.5576280050551
 11
105.6741698954565
 21
-132.288566047657
 72
     1
 10
105.6741698954565
 20
-132.288566047657
 11
105.9260063754282
 21
-132.288566047657
 72
     1
 10
105.9260063754282
 20
-132.288566047657
 11
105.9260063754282
 21
-132.5576280050551
 97
        0
 75
     2
 76
     1
 98
        0
  0
SPLINE
  5
A3
330
94
100
AcDbEntity
  8
_U+30EC_U+30A4_U+30E4_U+30FC 1
370
     0
100
AcDbSpline
210
0.0
220
0.0
230
1.0
 70
    11
 71
     3
 72
    26
 73
    22
 74
     0
 42
0.0000000001
 43
0.0000000001
 12
1.0
 22
0.0
 32
0.0
 13
1.0
 23
0.0
 33
0.0
 40
0.0
 40
0.0
 40
0.0
 40
0.0
 40
1.0
 40
1.0
 40
1.0
 40
2.0
 40
2.0
 40
2.0
 40
3.0
 40
3.0
 40
3.0
 40
4.0
 40
4.0
 40
4.0
 40
5.0
 40
5.0
 40
5.0
 40
6.0
 40
6.0
 40
6.0
 40
7.0
 40
7.0
 40
7.0
 40
7.0
 10
105.9260063754282
 20
-131.5961018551218
 30
0.0
 10
105.9260063754282
 20
-131.5961018551218
 30
0.0
 10
105.9260063754282
 20
-131.8493163732877
 30
0.0
 10
105.9260063754282
 20
-131.8493163732877
 30
0.0
 10
105.6169813104013
 20
-131.8224446285027
 30
0.0
 10
105.0988389494197
 20
-131.6164279184848
 30
0.0
 10
104.5930989321851
 20
-131.1823458873433
 30
0.0
 10
104.5930989321851
 20
-131.1823458873433
 30
0.0
 10
104.5930989321851
 20
-132.0777262039597
 30
0.0
 10
104.5930989321851
 20
-132.0777262039597
 30
0.0
 10
104.5930989321851
 20
-132.0777262039597
 30
0.0
 10
104.3815700693907
 20
-132.0777262039597
 30
0.0
 10
104.3815700693907
 20
-132.0777262039597
 30
0.0
 10
104.3815700693907
 20
-132.0777262039597
 30
0.0
 10
104.3815700693907
 20
-130.9291313691774
 30
0.0
 10
104.3815700693907
 20
-130.9291313691774
 30
0.0
 10
104.3815700693907
 20
-130.9291313691774
 30
0.0
 10
104.5930989321851
 20
-130.9291313691774
 30
0.0
 10
104.5930989321851
 20
-130.9291313691774
 30
0.0
 10
104.8831759720431
 20
-131.2750189558965
 30
0.0
 10
105.4753878859575
 20
-131.5599283525267
 30
0.0
 10
105.9260063754282
 20
-131.5961018551218
 30
0.0
  0
HATCH
  5
A4
330
94
100
AcDbEntity
  8
_U+30EC_U+30A4_U+30E4_U+30FC 1
 62
   179
420
  2234388
100
AcDbHatch
 10
0.0
 20
0.0
 30
0.0
210
0.0
220
0.0
230
1.0
  2
SOLID
 70
     1
 71
     0
 91
        1
 92
        1
 93
        1
 72
     4
 94
        3
 73
     0
 74
     1
 95
       26
 96
       22
 40
0.0
 40
0.0
 40
0.0
 40
0.0
 40
1.0
 40
1.0
 40
1.0
 40
2.0
 40
2.0
 40
2.0
 40
3.0
 40
3.0
 40
3.0
 40
4.0
 40
4.0
 40
4.0
 40
5.0
 40
5.0
 40
5.0
 40
6.0
 40
6.0
 40
6.0
 40
7.0
 40
7.0
 40
7.0
 40
7.0
 10
105.9260063754282
 20
-131.5961018551218
 10
105.9260063754282
 20
-131.5961018551218
 10
105.9260063754282
 20
-131.8493163732877
 10
105.9260063754282
 20
-131.8493163732877
 10
105.6169813104013
 20
-131.8224446285027
 10
105.0988389494197
 20
-131.6164279184848
 10
104.5930989321851
 20
-131.1823458873433
 10
104.5930989321851
 20
-131.1823458873433
 10
104.5930989321851
 20
-132.0777262039597
 10
104.5930989321851
 20
-132.0777262039597
 10
104.5930989321851
 20
-132.0777262039597
 10
104.3815700693907
 20
-132.0777262039597
 10
104.3815700693907
 20
-132.0777262039597
 10
104.3815700693907
 20
-132.0777262039597
 10
104.3815700693907
 20
-130.9291313691774
 10
104.3815700693907
 20
-130.9291313691774
 10
104.3815700693907
 20
-130.9291313691774
 10
104.5930989321851
 20
-130.9291313691774
 10
104.5930989321851
 20
-130.9291313691774
 10
104.8831759720431
 20
-131.2750189558965
 10
105.4753878859575
 20
-131.5599283525267
 10
105.9260063754282
 20
-131.5961018551218
 97
        0
 97
        0
 75
     2
 76
     1
 98
        0
  0
ENDBLK
  5
97
330
94
100
AcDbEntity
  8
0
100
AcDbBlockEnd
  0
BLOCK
  5
B3
330
B1
100
AcDbEntity
  8
0
100
AcDbBlockBegin
  2
block 3
 70
     0
 10
0.0
 20
0.0
 30
0.0
  3
block 3
  1

  0
SPLINE
  5
B5
330
B1
100
AcDbEntity
  8
_U+30EC_U+30A4_U+30E4_U+30FC 1
370
     0
100
AcDbSpline
210
0.0
220
0.0
230
1.0
 70
    11
 71
     3
 72
    44
 73
    40
 74
     0
 42
0.0000000001
 43
0.0000000001
 12
1.0
 22
0.0
 32
0.0
 13
1.0
 23
0.0
 33
0.0
 40
0.0
 40
0.0
 40
0.0
 40
0.0
 40
1.0
 40
1.0
 40
1.0
 40
2.0
 40
2.0
 40
2.0
 40
3.0
 40
3.0
 40
3.0
 40
4.0
 40
4.0
 40
4.0
 40
5.0
 40
5.0
 40
5.0
 40
6.0
 40
6.0
 40
6.0
 40
7.0
 40
7.0
 40
7.0
 40
8.0
 40
8.0
 40
8.0
 40
9.0
 40
9.0
 40
9.0
 40
10.0
 40
10.0
 40
10.0
 40
11.0
 40
11.0
 40
11.0
 40
12.0
 40
12.0
 40
12.0
 40
13.0
 40
13.0
 40
13.0
 40
13.0
 10
91.85003524179444
 20
-135.2141411337312
 30
0.0
 10
91.61714678699155
 20
-135.3729600356012
 30
0.0
 10
91.51758352746783
 20
-135.4470295885341
 30
0.0
 10
91.46556258564055
 20
-135.590690070269
 30
0.0
 10
91.46556258564055
 20
-135.590690070269
 30
0.0
 10
92.29789765487692
 20
-135.590690070269
 30
0.0
 10
92.29789765487692
 20
-135.590690070269
 30
0.0
 10
92.29789765487692
 20
-135.590690070269
 30
0.0
 10
92.29789765487692
 20
-135.7960177611899
 30
0.0
 10
92.29789765487692
 20
-135.7960177611899
 30
0.0
 10
92.29789765487692
 20
-135.7960177611899
 30
0.0
 10
91.19873994030796
 20
-135.7960177611899
 30
0.0
 10
91.19873994030796
 20
-135.7960177611899
 30
0.0
 10
91.23284638561194
 20
-135.438416849821
 30
0.0
 10
91.3027818239625
 20
-135.3602131823058
 30
0.0
 10
91.71429847967559
 20
-135.0618679132832
 30
0.0
 10
91.98783906120444
 20
-134.8630859037842
 30
0.0
 10
92.05811900910354
 20
-134.7952175227248
 30
0.0
 10
92.05811900910354
 20
-134.6577582128633
 30
0.0
 10
92.05811900910354
 20
-134.5392469281707
 30
0.0
 10
91.98129337978246
 20
-134.4083332997313
 30
0.0
 10
91.7707980456337
 20
-134.4083332997313
 30
0.0
 10
91.49277883997404
 20
-134.4083332997313
 30
0.0
 10
91.48382159171238
 20
-134.6388101876945
 30
0.0
 10
91.47934296758156
 20
-134.7552544150959
 30
0.0
 10
91.47934296758156
 20
-134.7552544150959
 30
0.0
 10
91.2393920670339
 20
-134.7552544150959
 30
0.0
 10
91.2393920670339
 20
-134.7552544150959
 30
0.0
 10
91.24834931529556
 20
-134.6281303916902
 30
0.0
 10
91.25971813039688
 20
-134.5161647884196
 30
0.0
 10
91.34584551752813
 20
-134.397653503727
 30
0.0
 10
91.46349552834941
 20
-134.2367675445658
 30
0.0
 10
91.66227753784833
 20
-134.2030056088104
 30
0.0
 10
91.78664548486584
 20
-134.2030056088104
 30
0.0
 10
92.08292369659733
 20
-134.2030056088104
 30
0.0
 10
92.30444333629889
 20
-134.3869737077227
 30
0.0
 10
92.30444333629889
 20
-134.6598252701545
 30
0.0
 10
92.30444333629889
 20
-134.8885796103751
 30
0.0
 10
92.18007538928137
 20
-134.9877983603503
 30
0.0
 10
91.85003524179444
 20
-135.2141411337312
 30
0.0
  0
HATCH
  5
B6
330
B1
100
AcDbEntity
  8
_U+30EC_U+30A4_U+30E4_U+30FC 1
 62
   179
420
  2234388
100
AcDbHatch
 10
0.0
 20
0.0
 30
0.0
210
0.0
220
0.0
230
1.0
  2
SOLID
 70
     1
 71
     0
 91
        1
 92
        1
 93
        1
 72
     4
 94
        3
 73
     0
 74
     1
 95
       44
 96
       40
 40
0.0
 40
0.0
 40
0.0
 40
0.0
 40
1.0
 40
1.0
 40
1.0
 40
2.0
 40
2.0
 40
2.0
 40
3.0
 40
3.0
 40
3.0
 40
4.0
 40
4.0
 40
4.0
 40
5.0
 40
5.0
 40
5.0
 40
6.0
 40
6.0
 40
6.0
 40
7.0
 40
7.0
 40
7.0
 40
8.0
 40
8.0
 40
8.0
 40
9.0
 40
9.0
 40
9.0
 40
10.0
 40
10.0
 40
10.0
 40
11.0
 40
11.0
 40
11.0
 40
12.0
 40
12.0
 40
12.0
 40
13.0
 40
13.0
 40
13.0
 40
13.0
 10
91.85003524179444
 20
-135.2141411337312
 10
91.61714678699155
 20
-135.3729600356012
 10
91.51758352746783
 20
-135.4470295885341
 10
91.46556258564055
 20
-135.590690070269
 10
91.46556258564055
 20
-135.590690070269
 10
92.29789765487692
 20
-135.590690070269
 10
92.29789765487692
 20
-135.590690070269
 10
92.29789765487692
 20
-135.590690070269
 10
92.29789765487692
 20
-135.7960177611899
 10
92.29789765487692
 20
-135.7960177611899
 10
92.29789765487692
 20
-135.7960177611899
 10
91.19873994030796
 20
-135.7960177611899
 10
91.19873994030796
 20
-135.7960177611899
 10
91.23284638561194
 20
-135.438416849821
 10
91.3027818239625
 20
-135.3602131823058
 10
91.71429847967559
 20
-135.0618679132832
 10
91.98783906120444
 20
-134.8630859037842
 10
92.05811900910354
 20
-134.7952175227248
 10
92.05811900910354
 20
-134.6577582128633
 10
92.05811900910354
 20
-134.5392469281707
 10
91.98129337978246
 20
-134.4083332997313
 10
91.7707980456337
 20
-134.4083332997313
 10
91.49277883997404
 20
-134.4083332997313
 10
91.48382159171238
 20
-134.6388101876945
 10
91.47934296758156
 20
-134.7552544150959
 10
91.47934296758156
 20
-134.7552544150959
 10
91.2393920670339
 20
-134.7552544150959
 10
91.2393920670339
 20
-134.7552544150959
 10
91.24834931529556
 20
-134.6281303916902
 10
91.25971813039688
 20
-134.5161647884196
 10
91.34584551752813
 20
-134.397653503727
 10
91.46349552834941
 20
-134.2367675445658
 10
91.66227753784833
 20
-134.2030056088104
 10
91.78664548486584
 20
-134.2030056088104
 10
92.08292369659733
 20
-134.2030056088104
 10
92.30444333629889
 20
-134.3869737077227
 10
92.30444333629889
 20
-134.6598252701545
 10
92.30444333629889
 20
-134.8885796103751
 10
92.18007538928137
 20
-134.9877983603503
 10
91.85003524179444
 20
-135.2141411337312
 97
        0
 97
        0
 75
     2
 76
     1
 98
        0
  0
SPLINE
  5
B7
330
B1
100
AcDbEntity
  8
_U+30EC_U+30A4_U+30E4_U+30FC 1
370
     0
100
AcDbSpline
210
0.0
220
0.0
230
1.0
 70
    11
 71
     3
 72
    62
 73
    58
 74
     0
 42
0.0000000001
 43
0.0000000001
 12
1.0
 22
0.0
 32
0.0
 13
1.0
 23
0.0
 33
0.0
 40
0.0
 40
0.0
 40
0.0
 40
0.0
 40
1.0
 40
1.0
 40
1.0
 40
2.0
 40
2.0
 40
2.0
 40
3.0
 40
3.0
 40
3.0
 40
4.0
 40
4.0
 40
4.0
 40
5.0
 40
5.0
 40
5.0
 40
6.0
 40
6.0
 40
6.0
 40
7.0
 40
7.0
 40
7.0
 40
8.0
 40
8.0
 40
8.0
 40
9.0
 40
9.0
 40
9.0
 40
10.0
 40
10.0
 40
10.0
 40
11.0
 40
11.0
 40
11.0
 40
12.0
 40
12.0
 40
12.0
 40
13.0
 40
13.0
 40
13.0
 40
14.0
 40
14.0
 40
14.0
 40
15.0
 40
15.0
 40
15.0
 40
16.0
 40
16.0
 40
16.0
 40
17.0
 40
17.0
 40
17.0
 40
18.0
 40
18.0
 40
18.0
 40
19.0
 40
19.0
 40
19.0
 40
19.0
 10
92.99931909567378
 20
-135.8466606648231
 30
0.0
 10
92.89768877885892
 20
-135.8466606648231
 30
0.0
 10
92.66480032405603
 20
-135.8256455823631
 30
0.0
 10
92.53147512877686
 20
-135.6396104261595
 30
0.0
 10
92.45223793261611
 20
-135.5273003133404
 30
0.0
 10
92.44775930848529
 20
-135.4280815633652
 30
0.0
 10
92.44328068435446
 20
-135.3433322144281
 30
0.0
 10
92.44328068435446
 20
-135.3433322144281
 30
0.0
 10
92.6782361964485
 20
-135.3433322144281
 30
0.0
 10
92.6782361964485
 20
-135.3433322144281
 30
0.0
 10
92.68064776328818
 20
-135.4174017673609
 30
0.0
 10
92.6920165783895
 20
-135.6520127699064
 30
0.0
 10
92.99484047154296
 20
-135.6520127699064
 30
0.0
 10
93.14194604876313
 20
-135.6520127699064
 30
0.0
 10
93.30455455566693
 20
-135.5824218411044
 30
0.0
 10
93.30455455566693
 20
-135.3540120104323
 30
0.0
 10
93.30455455566693
 20
-135.2375677830309
 30
0.0
 10
93.26390242894097
 20
-135.1889919366889
 30
0.0
 10
93.23014049318553
 20
-135.1572970582246
 30
0.0
 10
93.15090329702478
 20
-135.0832275052917
 30
0.0
 10
93.02653535000726
 20
-135.0704806519963
 30
0.0
 10
92.96762421720949
 20
-135.0704806519963
 30
0.0
 10
92.94729815384652
 20
-135.0704806519963
 30
0.0
 10
92.90905759396024
 20
-135.0725477092874
 30
0.0
 10
92.87942977278709
 20
-135.0766818238697
 30
0.0
 10
92.87942977278709
 20
-135.0766818238697
 30
0.0
 10
92.87942977278709
 20
-134.8820339289531
 30
0.0
 10
92.87942977278709
 20
-134.8820339289531
 30
0.0
 10
92.92008189951304
 20
-134.8885796103751
 30
0.0
 10
92.96555715991833
 20
-134.8906466676662
 30
0.0
 10
92.97210284134032
 20
-134.8906466676662
 30
0.0
 10
93.04238278923941
 20
-134.8906466676662
 30
0.0
 10
93.25494518067933
 20
-134.8692870756577
 30
0.0
 10
93.25494518067933
 20
-134.632609015821
 30
0.0
 10
93.25494518067933
 20
-134.4548420887821
 30
0.0
 10
93.11472979442965
 20
-134.3997205610181
 30
0.0
 10
92.99725203838264
 20
-134.3997205610181
 30
0.0
 10
92.71440969904363
 20
-134.3997205610181
 30
0.0
 10
92.70545245078198
 20
-134.632609015821
 30
0.0
 10
92.70097382665115
 20
-134.7042670019142
 30
0.0
 10
92.70097382665115
 20
-134.7042670019142
 30
0.0
 10
92.48393281108041
 20
-134.7042670019142
 30
0.0
 10
92.48393281108041
 20
-134.7042670019142
 30
0.0
 10
92.49289005934206
 20
-134.5795545453482
 30
0.0
 10
92.52217337096668
 20
-134.2030056088104
 30
0.0
 10
93.0106879107751
 20
-134.2030056088104
 30
0.0
 10
93.2504665565485
 20
-134.2030056088104
 30
0.0
 10
93.50815969884519
 20
-134.3301296322161
 30
0.0
 10
93.50815969884519
 20
-134.626063334399
 30
0.0
 10
93.50815969884519
 20
-134.8124430001511
 30
0.0
 10
93.40618487248179
 20
-134.8947807822485
 30
0.0
 10
93.3000759315361
 20
-134.956103481886
 30
0.0
 10
93.36553274575584
 20
-134.983664245768
 30
0.0
 10
93.56018064067246
 20
-135.0639349705743
 30
0.0
 10
93.56018064067246
 20
-135.3412651571369
 30
0.0
 10
93.56018064067246
 20
-135.6795735337884
 30
0.0
 10
93.29559730740527
 20
-135.8466606648231
 30
0.0
 10
92.99931909567378
 20
-135.8466606648231
 30
0.0
  0
HATCH
  5
B8
330
B1
100
AcDbEntity
  8
_U+30EC_U+30A4_U+30E4_U+30FC 1
 62
   179
420
  2234388
100
AcDbHatch
 10
0.0
 20
0.0
 30
0.0
210
0.0
220
0.0
230
1.0
  2
SOLID
 70
     1
 71
     0
 91
        1
 92
        1
 93
        1
 72
     4
 94
        3
 73
     0
 74
     1
 95
       62
 96
       58
 40
0.0
 40
0.0
 40
0.0
 40
0.0
 40
1.0
 40
1.0
 40
1.0
 40
2.0
 40
2.0
 40
2.0
 40
3.0
 40
3.0
 40
3.0
 40
4.0
 40
4.0
 40
4.0
 40
5.0
 40
5.0
 40
5.0
 40
6.0
 40
6.0
 40
6.0
 40
7.0
 40
7.0
 40
7.0
 40
8.0
 40
8.0
 40
8.0
 40
9.0
 40
9.0
 40
9.0
 40
10.0
 40
10.0
 40
10.0
 40
11.0
 40
11.0
 40
11.0
 40
12.0
 40
12.0
 40
12.0
 40
13.0
 40
13.0
 40
13.0
 40
14.0
 40
14.0
 40
14.0
 40
15.0
 40
15.0
 40
15.0
 40
16.0
 40
16.0
 40
16.0
 40
17.0
 40
17.0
 40
17.0
 40
18.0
 40
18.0
 40
18.0
 40
19.0
 40
19.0
 40
19.0
 40
19.0
 10
92.99931909567378
 20
-135.8466606648231
 10
92.89768877885892
 20
-135.8466606648231
 10
92.66480032405603
 20
-135.8256455823631
 10
92.53147512877686
 20
-135.6396104261595
 10
92.45223793261611
 20
-135.5273003133404
 10
92.44775930848529
 20
-135.4280815633652
 10
92.44328068435446
 20
-135.3433322144281
 10
92.44328068435446
 20
-135.3433322144281
 10
92.6782361964485
 20
-135.3433322144281
 10
92.6782361964485
 20
-135.3433322144281
 10
92.68064776328818
 20
-135.4174017673609
 10
92.6920165783895
 20
-135.6520127699064
 10
92.99484047154296
 20
-135.6520127699064
 10
93.14194604876313
 20
-135.6520127699064
 10
93.30455455566693
 20
-135.5824218411044
 10
93.30455455566693
 20
-135.3540120104323
 10
93.30455455566693
 20
-135.2375677830309
 10
93.26390242894097
 20
-135.1889919366889
 10
93.23014049318553
 20
-135.1572970582246
 10
93.15090329702478
 20
-135.0832275052917
 10
93.02653535000726
 20
-135.0704806519963
 10
92.96762421720949
 20
-135.0704806519963
 10
92.94729815384652
 20
-135.0704806519963
 10
92.90905759396024
 20
-135.0725477092874
 10
92.87942977278709
 20
-135.0766818238697
 10
92.87942977278709
 20
-135.0766818238697
 10
92.87942977278709
 20
-134.8820339289531
 10
92.87942977278709
 20
-134.8820339289531
 10
92.92008189951304
 20
-134.8885796103751
 10
92.96555715991833
 20
-134.8906466676662
 10
92.97210284134032
 20
-134.8906466676662
 10
93.04238278923941
 20
-134.8906466676662
 10
93.25494518067933
 20
-134.8692870756577
 10
93.25494518067933
 20
-134.632609015821
 10
93.25494518067933
 20
-134.4548420887821
 10
93.11472979442965
 20
-134.3997205610181
 10
92.99725203838264
 20
-134.3997205610181
 10
92.71440969904363
 20
-134.3997205610181
 10
92.70545245078198
 20
-134.632609015821
 10
92.70097382665115
 20
-134.7042670019142
 10
92.70097382665115
 20
-134.7042670019142
 10
92.48393281108041
 20
-134.7042670019142
 10
92.48393281108041
 20
-134.7042670019142
 10
92.49289005934206
 20
-134.5795545453482
 10
92.52217337096668
 20
-134.2030056088104
 10
93.0106879107751
 20
-134.2030056088104
 10
93.2504665565485
 20
-134.2030056088104
 10
93.50815969884519
 20
-134.3301296322161
 10
93.50815969884519
 20
-134.626063334399
 10
93.50815969884519
 20
-134.8124430001511
 10
93.40618487248179
 20
-134.8947807822485
 10
93.3000759315361
 20
-134.956103481886
 10
93.36553274575584
 20
-134.983664245768
 10
93.56018064067246
 20
-135.0639349705743
 10
93.56018064067246
 20
-135.3412651571369
 10
93.56018064067246
 20
-135.6795735337884
 10
93.29559730740527
 20
-135.8466606648231
 10
92.99931909567378
 20
-135.8466606648231
 97
        0
 97
        0
 75
     2
 76
     1
 98
        0
  0
ENDBLK
  5
B4
330
B1
100
AcDbEntity
  8
0
100
AcDbBlockEnd
  0
BLOCK
  5
C7
330
C5
100
AcDbEntity
  8
0
100
AcDbBlockBegin
  2
block 4
 70
     0
 10
0.0
 20
0.0
 30
0.0
  3
block 4
  1

  0
SPLINE
  5
C9
330
C5
100
AcDbEntity
  8
_U+30EC_U+30A4_U+30E4_U+30FC 1
370
     0
100
AcDbSpline
210
0.0
220
0.0
230
1.0
 70
    11
 71
     3
 72
    26
 73
    22
 74
     0
 42
0.0000000001
 43
0.0000000001
 12
1.0
 22
0.0
 32
0.0
 13
1.0
 23
0.0
 33
0.0
 40
0.0
 40
0.0
 40
0.0
 40
0.0
 40
1.0
 40
1.0
 40
1.0
 40
2.0
 40
2.0
 40
2.0
 40
3.0
 40
3.0
 40
3.0
 40
4.0
 40
4.0
 40
4.0
 40
5.0
 40
5.0
 40
5.0
 40
6.0
 40
6.0
 40
6.0
 40
7.0
 40
7.0
 40
7.0
 40
7.0
 10
86.19852835301634
 20
-121.2959553733218
 30
0.0
 10
86.19852835301634
 20
-121.2959553733218
 30
0.0
 10
86.19852835301634
 20
-120.1918022702993
 30
0.0
 10
86.19852835301634
 20
-120.1918022702993
 30
0.0
 10
86.19852835301634
 20
-120.1918022702993
 30
0.0
 10
85.84609508487529
 20
-120.1918022702993
 30
0.0
 10
85.84609508487529
 20
-120.1918022702993
 30
0.0
 10
85.84609508487529
 20
-120.1918022702993
 30
0.0
 10
85.84609508487529
 20
-120.0436631644335
 30
0.0
 10
85.84609508487529
 20
-120.0436631644335
 30
0.0
 10
86.20093991985603
 20
-120.028849253847
 30
0.0
 10
86.25054929484362
 20
-119.8658962373946
 30
0.0
 10
86.28224417330792
 20
-119.7515190672843
 30
0.0
 10
86.28224417330792
 20
-119.7515190672843
 30
0.0
 10
86.43830699878973
 20
-119.7515190672843
 30
0.0
 10
86.43830699878973
 20
-119.7515190672843
 30
0.0
 10
86.43830699878973
 20
-119.7515190672843
 30
0.0
 10
86.43830699878973
 20
-121.2959553733218
 30
0.0
 10
86.43830699878973
 20
-121.2959553733218
 30
0.0
 10
86.43830699878973
 20
-121.2959553733218
 30
0.0
 10
86.19852835301634
 20
-121.2959553733218
 30
0.0
 10
86.19852835301634
 20
-121.2959553733218
 30
0.0
  0
HATCH
  5
CA
330
C5
100
AcDbEntity
  8
_U+30EC_U+30A4_U+30E4_U+30FC 1
 62
   179
420
  2234388
100
AcDbHatch
 10
0.0
 20
0.0
 30
0.0
210
0.0
220
0.0
230
1.0
  2
SOLID
 70
     1
 71
     0
 91
        1
 92
        1
 93
        1
 72
     4
 94
        3
 73
     0
 74
     1
 95
       26
 96
       22
 40
0.0
 40
0.0
 40
0.0
 40
0.0
 40
1.0
 40
1.0
 40
1.0
 40
2.0
 40
2.0
 40
2.0
 40
3.0
 40
3.0
 40
3.0
 40
4.0
 40
4.0
 40
4.0
 40
5.0
 40
5.0
 40
5.0
 40
6.0
 40
6.0
 40
6.0
 40
7.0
 40
7.0
 40
7.0
 40
7.0
 10
86.19852835301634
 20
-121.2959553733218
 10
86.19852835301634
 20
-121.2959553733218
 10
86.19852835301634
 20
-120.1918022702993
 10
86.19852835301634
 20
-120.1918022702993
 10
86.19852835301634
 20
-120.1918022702993
 10
85.84609508487529
 20
-120.1918022702993
 10
85.84609508487529
 20
-120.1918022702993
 10
85.84609508487529
 20
-120.1918022702993
 10
85.84609508487529
 20
-120.0436631644335
 10
85.84609508487529
 20
-120.0436631644335
 10
86.20093991985603
 20
-120.028849253847
 10
86.25054929484362
 20
-119.8658962373946
 10
86.28224417330792
 20
-119.7515190672843
 10
86.28224417330792
 20
-119.7515190672843
 10
86.43830699878973
 20
-119.7515190672843
 10
86.43830699878973
 20
-119.7515190672843
 10
86.43830699878973
 20
-119.7515190672843
 10
86.43830699878973
 20
-121.2959553733218
 10
86.43830699878973
 20
-121.2959553733218
 10
86.43830699878973
 20
-121.2959553733218
 10
86.19852835301634
 20
-121.2959553733218
 10
86.19852835301634
 20
-121.2959553733218
 97
        0
 97
        0
 75
     2
 76
     1
 98
        0
  0
SPLINE
  5
CB
330
C5
100
AcDbEntity
  8
_U+30EC_U+30A4_U+30E4_U+30FC 1
370
     0
100
AcDbSpline
210
0.0
220
0.0
230
1.0
 70
    11
 71
     3
 72
    44
 73
    40
 74
     0
 42
0.0000000001
 43
0.0000000001
 12
1.0
 22
0.0
 32
0.0
 13
1.0
 23
0.0
 33
0.0
 40
0.0
 40
0.0
 40
0.0
 40
0.0
 40
1.0
 40
1.0
 40
1.0
 40
2.0
 40
2.0
 40
2.0
 40
3.0
 40
3.0
 40
3.0
 40
4.0
 40
4.0
 40
4.0
 40
5.0
 40
5.0
 40
5.0
 40
6.0
 40
6.0
 40
6.0
 40
7.0
 40
7.0
 40
7.0
 40
8.0
 40
8.0
 40
8.0
 40
9.0
 40
9.0
 40
9.0
 40
10.0
 40
10.0
 40
10.0
 40
11.0
 40
11.0
 40
11.0
 40
12.0
 40
12.0
 40
12.0
 40
13.0
 40
13.0
 40
13.0
 40
13.0
 10
87.60791691603205
 20
-120.7140787458631
 30
0.0
 10
87.37502846122916
 20
-120.8728976477332
 30
0.0
 10
87.27546520170544
 20
-120.946967200666
 30
0.0
 10
87.22378876942669
 20
-121.090627682401
 30
0.0
 10
87.22378876942669
 20
-121.090627682401
 30
0.0
 10
88.055434819566
 20
-121.090627682401
 30
0.0
 10
88.055434819566
 20
-121.090627682401
 30
0.0
 10
88.055434819566
 20
-121.090627682401
 30
0.0
 10
88.055434819566
 20
-121.2959553733218
 30
0.0
 10
88.055434819566
 20
-121.2959553733218
 30
0.0
 10
88.055434819566
 20
-121.2959553733218
 30
0.0
 10
86.95679386931984
 20
-121.2959553733218
 30
0.0
 10
86.95679386931984
 20
-121.2959553733218
 30
0.0
 10
86.9909003146238
 20
-120.9383544619529
 30
0.0
 10
87.06083575297438
 20
-120.8601507944377
 30
0.0
 10
87.47218015391321
 20
-120.5618055254151
 30
0.0
 10
87.74572073544205
 20
-120.3630235159162
 30
0.0
 10
87.81600068334114
 20
-120.2951551348568
 30
0.0
 10
87.81600068334114
 20
-120.1576958249953
 30
0.0
 10
87.81600068334114
 20
-120.0391845403027
 30
0.0
 10
87.73917505402007
 20
-119.9082709118632
 30
0.0
 10
87.5286797198713
 20
-119.9082709118632
 30
0.0
 10
87.25066051421165
 20
-119.9082709118632
 30
0.0
 10
87.24170326595
 20
-120.1387477998264
 30
0.0
 10
87.23722464181917
 20
-120.2551920272279
 30
0.0
 10
87.23722464181917
 20
-120.2551920272279
 30
0.0
 10
86.99744599604578
 20
-120.2551920272279
 30
0.0
 10
86.99744599604578
 20
-120.2551920272279
 30
0.0
 10
87.00674775385596
 20
-120.1280680038222
 30
0.0
 10
87.01777205940876
 20
-120.0161024005515
 30
0.0
 10
87.10389944654
 20
-119.8975911158589
 30
0.0
 10
87.22137720258702
 20
-119.7367051566978
 30
0.0
 10
87.42015921208593
 20
-119.7029432209423
 30
0.0
 10
87.54452715910345
 20
-119.7029432209423
 30
0.0
 10
87.84080537083494
 20
-119.7029432209423
 30
0.0
 10
88.06232501053651
 20
-119.8869113198547
 30
0.0
 10
88.06232501053651
 20
-120.1597628822865
 30
0.0
 10
88.06232501053651
 20
-120.388517222507
 30
0.0
 10
87.937957063519
 20
-120.4877359724822
 30
0.0
 10
87.60791691603205
 20
-120.7140787458631
 30
0.0
  0
HATCH
  5
CC
330
C5
100
AcDbEntity
  8
_U+30EC_U+30A4_U+30E4_U+30FC 1
 62
   179
420
  2234388
100
AcDbHatch
 10
0.0
 20
0.0
 30
0.0
210
0.0
220
0.0
230
1.0
  2
SOLID
 70
     1
 71
     0
 91
        1
 92
        1
 93
        1
 72
     4
 94
        3
 73
     0
 74
     1
 95
       44
 96
       40
 40
0.0
 40
0.0
 40
0.0
 40
0.0
 40
1.0
 40
1.0
 40
1.0
 40
2.0
 40
2.0
 40
2.0
 40
3.0
 40
3.0
 40
3.0
 40
4.0
 40
4.0
 40
4.0
 40
5.0
 40
5.0
 40
5.0
 40
6.0
 40
6.0
 40
6.0
 40
7.0
 40
7.0
 40
7.0
 40
8.0
 40
8.0
 40
8.0
 40
9.0
 40
9.0
 40
9.0
 40
10.0
 40
10.0
 40
10.0
 40
11.0
 40
11.0
 40
11.0
 40
12.0
 40
12.0
 40
12.0
 40
13.0
 40
13.0
 40
13.0
 40
13.0
 10
87.60791691603205
 20
-120.7140787458631
 10
87.37502846122916
 20
-120.8728976477332
 10
87.27546520170544
 20
-120.946967200666
 10
87.22378876942669
 20
-121.090627682401
 10
87.22378876942669
 20
-121.090627682401
 10
88.055434819566
 20
-121.090627682401
 10
88.055434819566
 20
-121.090627682401
 10
88.055434819566
 20
-121.090627682401
 10
88.055434819566
 20
-121.2959553733218
 10
88.055434819566
 20
-121.2959553733218
 10
88.055434819566
 20
-121.2959553733218
 10
86.95679386931984
 20
-121.2959553733218
 10
86.95679386931984
 20
-121.2959553733218
 10
86.9909003146238
 20
-120.9383544619529
 10
87.06083575297438
 20
-120.8601507944377
 10
87.47218015391321
 20
-120.5618055254151
 10
87.74572073544205
 20
-120.3630235159162
 10
87.81600068334114
 20
-120.2951551348568
 10
87.81600068334114
 20
-120.1576958249953
 10
87.81600068334114
 20
-120.0391845403027
 10
87.73917505402007
 20
-119.9082709118632
 10
87.5286797198713
 20
-119.9082709118632
 10
87.25066051421165
 20
-119.9082709118632
 10
87.24170326595
 20
-120.1387477998264
 10
87.23722464181917
 20
-120.2551920272279
 10
87.23722464181917
 20
-120.2551920272279
 10
86.99744599604578
 20
-120.2551920272279
 10
86.99744599604578
 20
-120.2551920272279
 10
87.00674775385596
 20
-120.1280680038222
 10
87.01777205940876
 20
-120.0161024005515
 10
87.10389944654
 20
-119.8975911158589
 10
87.22137720258702
 20
-119.7367051566978
 10
87.42015921208593
 20
-119.7029432209423
 10
87.54452715910345
 20
-119.7029432209423
 10
87.84080537083494
 20
-119.7029432209423
 10
88.06232501053651
 20
-119.8869113198547
 10
88.06232501053651
 20
-120.1597628822865
 10
88.06232501053651
 20
-120.388517222507
 10
87.937957063519
 20
-120.4877359724822
 10
87.60791691603205
 20
-120.7140787458631
 97
        0
 97
        0
 75
     2
 76
     1
 98
        0
  0
ENDBLK
  5
C8
330
C5
100
AcDbEntity
  8
0
100
AcDbBlockEnd
  0
BLOCK
  5
DB
330
D9
100
AcDbEntity
  8
0
100
AcDbBlockBegin
  2
block 5
 70
     0
 10
0.0
 20
0.0
 30
0.0
  3
block 5
  1

  0
POLYLINE
  5
DD
330
D9
100
AcDbEntity
  8
_U+30EC_U+30A4_U+30E4_U+30FC 1
370
     0
100
AcDb2dPolyline
 66
     1
 10
0.0
 20
0.0
 30
0.0
  0
VERTEX
  5
DE
330
DD
100
AcDbEntity
  8
_U+30EC_U+30A4_U+30E4_U+30FC 1
370
     0
100
AcDbVertex
100
AcDb2dVertex
 10
75.93093802355199
 20
-129.7795030057496
 30
0.0
  0
VERTEX
  5
DF
330
DD
100
AcDbEntity
  8
_U+30EC_U+30A4_U+30E4_U+30FC 1
370
     0
100
AcDbVertex
100
AcDb2dVertex
 10
76.27785913891665
 20
-129.7795030057496
 30
0.0
  0
VERTEX
  5
E0
330
DD
100
AcDbEntity
  8
_U+30EC_U+30A4_U+30E4_U+30FC 1
370
     0
100
AcDbVertex
100
AcDb2dVertex
 10
76.27785913891665
 20
-130.0123914605525
 30
0.0
  0
VERTEX
  5
E1
330
DD
100
AcDbEntity
  8
_U+30EC_U+30A4_U+30E4_U+30FC 1
370
     0
100
AcDbVertex
100
AcDb2dVertex
 10
75.93093802355199
 20
-130.0123914605525
 30
0.0
  0
VERTEX
  5
E2
330
DD
100
AcDbEntity
  8
_U+30EC_U+30A4_U+30E4_U+30FC 1
370
     0
100
AcDbVertex
100
AcDb2dVertex
 10
75.93093802355199
 20
-130.7134683918008
 30
0.0
  0
VERTEX
  5
E3
330
DD
100
AcDbEntity
  8
_U+30EC_U+30A4_U+30E4_U+30FC 1
370
     0
100
AcDbVertex
100
AcDb2dVertex
 10
75.70666230746222
 20
-130.7134683918008
 30
0.0
  0
VERTEX
  5
E4
330
DD
100
AcDbEntity
  8
_U+30EC_U+30A4_U+30E4_U+30FC 1
370
     0
100
AcDbVertex
100
AcDb2dVertex
 10
74.73359508765341
 20
-129.9875867730587
 30
0.0
  0
VERTEX
  5
E5
330
DD
100
AcDbEntity
  8
_U+30EC_U+30A4_U+30E4_U+30FC 1
370
     0
100
AcDbVertex
100
AcDb2dVertex
 10
74.73359508765341
 20
-129.7795030057496
 30
0.0
  0
VERTEX
  5
E6
330
DD
100
AcDbEntity
  8
_U+30EC_U+30A4_U+30E4_U+30FC 1
370
     0
100
AcDbVertex
100
AcDb2dVertex
 10
75.73198375927882
 20
-129.7795030057496
 30
0.0
  0
VERTEX
  5
E7
330
DD
100
AcDbEntity
  8
_U+30EC_U+30A4_U+30E4_U+30FC 1
370
     0
100
AcDbVertex
100
AcDb2dVertex
 10
75.73198375927882
 20
-129.557983366048
 30
0.0
  0
VERTEX
  5
E8
330
DD
100
AcDbEntity
  8
_U+30EC_U+30A4_U+30E4_U+30FC 1
370
     0
100
AcDbVertex
100
AcDb2dVertex
 10
75.93093802355199
 20
-129.557983366048
 30
0.0
  0
VERTEX
  5
E9
330
DD
100
AcDbEntity
  8
_U+30EC_U+30A4_U+30E4_U+30FC 1
370
     0
100
AcDbVertex
100
AcDb2dVertex
 10
75.93093802355199
 20
-129.7795030057496
 30
0.0
  0
SEQEND
  5
EA
330
DD
100
AcDbEntity
  8
_U+30EC_U+30A4_U+30E4_U+30FC 1
370
     0
  0
POLYLINE
  5
EB
330
D9
100
AcDbEntity
  8
_U+30EC_U+30A4_U+30E4_U+30FC 1
370
     0
100
AcDb2dPolyline
 66
     1
 10
0.0
 20
0.0
 30
0.0
  0
VERTEX
  5
EC
330
EB
100
AcDbEntity
  8
_U+30EC_U+30A4_U+30E4_U+30FC 1
370
     0
100
AcDbVertex
100
AcDb2dVertex
 10
75.07620983366151
 20
-130.0123914605525
 30
0.0
  0
VERTEX
  5
ED
330
EB
100
AcDbEntity
  8
_U+30EC_U+30A4_U+30E4_U+30FC 1
370
     0
100
AcDbVertex
100
AcDb2dVertex
 10
75.73198375927882
 20
-130.5009060003609
 30
0.0
  0
VERTEX
  5
EE
330
EB
100
AcDbEntity
  8
_U+30EC_U+30A4_U+30E4_U+30FC 1
370
     0
100
AcDbVertex
100
AcDb2dVertex
 10
75.73198375927882
 20
-130.0123914605525
 30
0.0
  0
VERTEX
  5
EF
330
EB
100
AcDbEntity
  8
_U+30EC_U+30A4_U+30E4_U+30FC 1
370
     0
100
AcDbVertex
100
AcDb2dVertex
 10
75.07620983366151
 20
-130.0123914605525
 30
0.0
  0
SEQEND
  5
F0
330
EB
100
AcDbEntity
  8
_U+30EC_U+30A4_U+30E4_U+30FC 1
370
     0
  0
HATCH
  5
F1
330
D9
100
AcDbEntity
  8
_U+30EC_U+30A4_U+30E4_U+30FC 1
 62
   179
420
  2234388
100
AcDbHatch
 10
0.0
 20
0.0
 30
0.0
210
0.0
220
0.0
230
1.0
  2
SOLID
 70
     1
 71
     0
 91
        2
 92
        1
 93
       11
 72
     1
 10
75.93093802355199
 20
-129.7795030057496
 11
76.27785913891665
 21
-129.7795030057496
 72
     1
 10
76.27785913891665
 20
-129.7795030057496
 11
76.27785913891665
 21
-130.0123914605525
 72
     1
 10
76.27785913891665
 20
-130.0123914605525
 11
75.93093802355199
 21
-130.0123914605525
 72
     1
 10
75.93093802355199
 20
-130.0123914605525
 11
75.93093802355199
 21
-130.7134683918008
 72
     1
 10
75.93093802355199
 20
-130.7134683918008
 11
75.70666230746222
 21
-130.7134683918008
 72
     1
 10
75.70666230746222
 20
-130.7134683918008
 11
74.73359508765341
 21
-129.9875867730587
 72
     1
 10
74.73359508765341
 20
-129.9875867730587
 11
74.73359508765341
 21
-129.7795030057496
 72
     1
 10
74.73359508765341
 20
-129.7795030057496
 11
75.73198375927882
 21
-129.7795030057496
 72
     1
 10
75.73198375927882
 20
-129.7795030057496
 11
75.73198375927882
 21
-129.557983366048
 72
     1
 10
75.73198375927882
 20
-129.557983366048
 11
75.93093802355199
 21
-129.557983366048
 72
     1
 10
75.93093802355199
 20
-129.557983366048
 11
75.93093802355199
 21
-129.7795030057496
 97
        0
 92
        1
 93
        3
 72
     1
 10
75.07620983366151
 20
-130.0123914605525
 11
75.73198375927882
 21
-130.5009060003609
 72
     1
 10
75.73198375927882
 20
-130.5009060003609
 11
75.73198375927882
 21
-130.0123914605525
 72
     1
 10
75.73198375927882
 20
-130.0123914605525
 11
75.07620983366151
 21
-130.0123914605525
 97
        0
 75
     2
 76
     1
 98
        0
  0
POLYLINE
  5
F2
330
D9
100
AcDbEntity
  8
_U+30EC_U+30A4_U+30E4_U+30FC 1
370
     0
100
AcDb2dPolyline
 66
     1
 10
0.0
 20
0.0
 30
0.0
  0
VERTEX
  5
F3
330
F2
100
AcDbEntity
  8
_U+30EC_U+30A4_U+30E4_U+30FC 1
370
     0
100
AcDbVertex
100
AcDb2dVertex
 10
76.27785913891665
 20
-129.3471435223507
 30
0.0
  0
VERTEX
  5
F4
330
F2
100
AcDbEntity
  8
_U+30EC_U+30A4_U+30E4_U+30FC 1
370
     0
100
AcDbVertex
100
AcDb2dVertex
 10
76.02619491371915
 20
-129.3471435223507
 30
0.0
  0
VERTEX
  5
F5
330
F2
100
AcDbEntity
  8
_U+30EC_U+30A4_U+30E4_U+30FC 1
370
     0
100
AcDbVertex
100
AcDb2dVertex
 10
76.02619491371915
 20
-129.0780815649527
 30
0.0
  0
VERTEX
  5
F6
330
F2
100
AcDbEntity
  8
_U+30EC_U+30A4_U+30E4_U+30FC 1
370
     0
100
AcDbVertex
100
AcDb2dVertex
 10
76.27785913891665
 20
-129.0780815649527
 30
0.0
  0
VERTEX
  5
F7
330
F2
100
AcDbEntity
  8
_U+30EC_U+30A4_U+30E4_U+30FC 1
370
     0
100
AcDbVertex
100
AcDb2dVertex
 10
76.27785913891665
 20
-129.3471435223507
 30
0.0
  0
SEQEND
  5
F8
330
F2
100
AcDbEntity
  8
_U+30EC_U+30A4_U+30E4_U+30FC 1
370
     0
  0
HATCH
  5
F9
330
D9
100
AcDbEntity
  8
_U+30EC_U+30A4_U+30E4_U+30FC 1
 62
   179
420
  2234388
100
AcDbHatch
 10
0.0
 20
0.0
 30
0.0
210
0.0
220
0.0
230
1.0
  2
SOLID
 70
     1
 71
     0
 91
        1
 92
        1
 93
        4
 72
     1
 10
76.27785913891665
 20
-129.3471435223507
 11
76.02619491371915
 21
-129.3471435223507
 72
     1
 10
76.02619491371915
 20
-129.3471435223507
 11
76.02619491371915
 21
-129.0780815649527
 72
     1
 10
76.02619491371915
 20
-129.0780815649527
 11
76.27785913891665
 21
-129.0780815649527
 72
     1
 10
76.27785913891665
 20
-129.0780815649527
 11
76.27785913891665
 21
-129.3471435223507
 97
        0
 75
     2
 76
     1
 98
        0
  0
SPLINE
  5
FA
330
D9
100
AcDbEntity
  8
_U+30EC_U+30A4_U+30E4_U+30FC 1
370
     0
100
AcDbSpline
210
0.0
220
0.0
230
1.0
 70
    11
 71
     3
 72
    53
 73
    49
 74
     0
 42
0.0000000001
 43
0.0000000001
 12
1.0
 22
0.0
 32
0.0
 13
1.0
 23
0.0
 33
0.0
 40
0.0
 40
0.0
 40
0.0
 40
0.0
 40
1.0
 40
1.0
 40
1.0
 40
2.0
 40
2.0
 40
2.0
 40
3.0
 40
3.0
 40
3.0
 40
4.0
 40
4.0
 40
4.0
 40
5.0
 40
5.0
 40
5.0
 40
6.0
 40
6.0
 40
6.0
 40
7.0
 40
7.0
 40
7.0
 40
8.0
 40
8.0
 40
8.0
 40
9.0
 40
9.0
 40
9.0
 40
10.0
 40
10.0
 40
10.0
 40
11.0
 40
11.0
 40
11.0
 40
12.0
 40
12.0
 40
12.0
 40
13.0
 40
13.0
 40
13.0
 40
14.0
 40
14.0
 40
14.0
 40
15.0
 40
15.0
 40
15.0
 40
16.0
 40
16.0
 40
16.0
 40
16.0
 10
76.32867429732408
 20
-128.3112033099361
 30
0.0
 10
76.32867429732408
 20
-128.3949191302277
 30
0.0
 10
76.31179332944636
 20
-128.5030951284645
 30
0.0
 10
76.2482313177435
 20
-128.6119601457984
 30
0.0
 10
76.13816051698977
 20
-128.7973062829049
 30
0.0
 10
76.00707463377601
 20
-128.819699403559
 30
0.0
 10
75.8992431450877
 20
-128.840025466922
 30
0.0
 10
75.8992431450877
 20
-128.840025466922
 30
0.0
 10
75.8992431450877
 20
-128.6026583879882
 30
0.0
 10
75.8992431450877
 20
-128.6026583879882
 30
0.0
 10
76.09802515458661
 20
-128.544091764739
 30
0.0
 10
76.12765297575976
 20
-128.4083550026201
 30
0.0
 10
76.12765297575976
 20
-128.3087917430964
 30
0.0
 10
76.12765297575976
 20
-128.1596191085851
 30
0.0
 10
76.0282619710103
 20
-127.9966660921328
 30
0.0
 10
75.79554577098168
 20
-127.9966660921328
 30
0.0
 10
75.5395751764276
 20
-127.9966660921328
 30
0.0
 10
75.4698119928513
 20
-128.1889024202097
 30
0.0
 10
75.4698119928513
 20
-128.3177489913581
 30
0.0
 10
75.4698119928513
 20
-128.351855436662
 30
0.0
 10
75.4698119928513
 20
-128.5030951284645
 30
0.0
 10
75.5988308187739
 20
-128.5981797638574
 30
0.0
 10
75.5988308187739
 20
-128.5981797638574
 30
0.0
 10
75.57971053883077
 20
-128.7859374678035
 30
0.0
 10
75.57971053883077
 20
-128.7859374678035
 30
0.0
 10
75.57971053883077
 20
-128.7859374678035
 30
0.0
 10
74.73359508765341
 20
-128.6570908966552
 30
0.0
 10
74.73359508765341
 20
-128.6570908966552
 30
0.0
 10
74.73359508765341
 20
-128.6570908966552
 30
0.0
 10
74.73359508765341
 20
-127.8251003369673
 30
0.0
 10
74.73359508765341
 20
-127.8251003369673
 30
0.0
 10
74.73359508765341
 20
-127.8251003369673
 30
0.0
 10
74.92824298257003
 20
-127.8251003369673
 30
0.0
 10
74.92824298257003
 20
-127.8251003369673
 30
0.0
 10
74.92824298257003
 20
-127.8251003369673
 30
0.0
 10
74.92824298257003
 20
-128.4827690651015
 30
0.0
 10
74.92824298257003
 20
-128.4827690651015
 30
0.0
 10
74.92824298257003
 20
-128.4827690651015
 30
0.0
 10
75.3513007081587
 20
-128.5530490130006
 30
0.0
 10
75.3513007081587
 20
-128.5530490130006
 30
0.0
 10
75.317366517629
 20
-128.4875921987809
 30
0.0
 10
75.27723115522583
 20
-128.3993977543585
 30
0.0
 10
75.27723115522583
 20
-128.2726182405013
 30
0.0
 10
75.27723115522583
 20
-128.0014892258121
 30
0.0
 10
75.46343856620359
 20
-127.7482747076463
 30
0.0
 10
75.77642549103854
 20
-127.7482747076463
 30
0.0
 10
76.09389104000431
 20
-127.7482747076463
 30
0.0
 10
76.32867429732408
 20
-127.9877088438711
 30
0.0
 10
76.32867429732408
 20
-128.3112033099361
 30
0.0
  0
HATCH
  5
FB
330
D9
100
AcDbEntity
  8
_U+30EC_U+30A4_U+30E4_U+30FC 1
 62
   179
420
  2234388
100
AcDbHatch
 10
0.0
 20
0.0
 30
0.0
210
0.0
220
0.0
230
1.0
  2
SOLID
 70
     1
 71
     0
 91
        1
 92
        1
 93
        1
 72
     4
 94
        3
 73
     0
 74
     1
 95
       53
 96
       49
 40
0.0
 40
0.0
 40
0.0
 40
0.0
 40
1.0
 40
1.0
 40
1.0
 40
2.0
 40
2.0
 40
2.0
 40
3.0
 40
3.0
 40
3.0
 40
4.0
 40
4.0
 40
4.0
 40
5.0
 40
5.0
 40
5.0
 40
6.0
 40
6.0
 40
6.0
 40
7.0
 40
7.0
 40
7.0
 40
8.0
 40
8.0
 40
8.0
 40
9.0
 40
9.0
 40
9.0
 40
10.0
 40
10.0
 40
10.0
 40
11.0
 40
11.0
 40
11.0
 40
12.0
 40
12.0
 40
12.0
 40
13.0
 40
13.0
 40
13.0
 40
14.0
 40
14.0
 40
14.0
 40
15.0
 40
15.0
 40
15.0
 40
16.0
 40
16.0
 40
16.0
 40
16.0
 10
76.32867429732408
 20
-128.3112033099361
 10
76.32867429732408
 20
-128.3949191302277
 10
76.31179332944636
 20
-128.5030951284645
 10
76.2482313177435
 20
-128.6119601457984
 10
76.13816051698977
 20
-128.7973062829049
 10
76.00707463377601
 20
-128.819699403559
 10
75.8992431450877
 20
-128.840025466922
 10
75.8992431450877
 20
-128.840025466922
 10
75.8992431450877
 20
-128.6026583879882
 10
75.8992431450877
 20
-128.6026583879882
 10
76.09802515458661
 20
-128.544091764739
 10
76.12765297575976
 20
-128.4083550026201
 10
76.12765297575976
 20
-128.3087917430964
 10
76.12765297575976
 20
-128.1596191085851
 10
76.0282619710103
 20
-127.9966660921328
 10
75.79554577098168
 20
-127.9966660921328
 10
75.5395751764276
 20
-127.9966660921328
 10
75.4698119928513
 20
-128.1889024202097
 10
75.4698119928513
 20
-128.3177489913581
 10
75.4698119928513
 20
-128.351855436662
 10
75.4698119928513
 20
-128.5030951284645
 10
75.5988308187739
 20
-128.5981797638574
 10
75.5988308187739
 20
-128.5981797638574
 10
75.57971053883077
 20
-128.7859374678035
 10
75.57971053883077
 20
-128.7859374678035
 10
75.57971053883077
 20
-128.7859374678035
 10
74.73359508765341
 20
-128.6570908966552
 10
74.73359508765341
 20
-128.6570908966552
 10
74.73359508765341
 20
-128.6570908966552
 10
74.73359508765341
 20
-127.8251003369673
 10
74.73359508765341
 20
-127.8251003369673
 10
74.73359508765341
 20
-127.8251003369673
 10
74.92824298257003
 20
-127.8251003369673
 10
74.92824298257003
 20
-127.8251003369673
 10
74.92824298257003
 20
-127.8251003369673
 10
74.92824298257003
 20
-128.4827690651015
 10
74.92824298257003
 20
-128.4827690651015
 10
74.92824298257003
 20
-128.4827690651015
 10
75.3513007081587
 20
-128.5530490130006
 10
75.3513007081587
 20
-128.5530490130006
 10
75.317366517629
 20
-128.4875921987809
 10
75.27723115522583
 20
-128.3993977543585
 10
75.27723115522583
 20
-128.2726182405013
 10
75.27723115522583
 20
-128.0014892258121
 10
75.46343856620359
 20
-127.7482747076463
 10
75.77642549103854
 20
-127.7482747076463
 10
76.09389104000431
 20
-127.7482747076463
 10
76.32867429732408
 20
-127.9877088438711
 10
76.32867429732408
 20
-128.3112033099361
 97
        0
 97
        0
 75
     2
 76
     1
 98
        0
  0
ENDBLK
  5
DC
330
D9
100
AcDbEntity
  8
0
100
AcDbBlockEnd
  0
BLOCK
  5
10A
330
108
100
AcDbEntity
  8
0
100
AcDbBlockBegin
  2
block 6
 70
     0
 10
0.0
 20
0.0
 30
0.0
  3
block 6
  1

  0
SPLINE
  5
10C
330
108
100
AcDbEntity
  8
_U+30EC_U+30A4_U+30E4_U+30FC 1
370
     0
100
AcDbSpline
210
0.0
220
0.0
230
1.0
 70
    11
 71
     3
 72
    26
 73
    22
 74
     0
 42
0.0000000001
 43
0.0000000001
 12
1.0
 22
0.0
 32
0.0
 13
1.0
 23
0.0
 33
0.0
 40
0.0
 40
0.0
 40
0.0
 40
0.0
 40
1.0
 40
1.0
 40
1.0
 40
2.0
 40
2.0
 40
2.0
 40
3.0
 40
3.0
 40
3.0
 40
4.0
 40
4.0
 40
4.0
 40
5.0
 40
5.0
 40
5.0
 40
6.0
 40
6.0
 40
6.0
 40
7.0
 40
7.0
 40
7.0
 40
7.0
 10
76.27768688414238
 20
-135.4022433472258
 30
0.0
 10
76.27768688414238
 20
-135.4022433472258
 30
0.0
 10
75.17336152634556
 20
-135.4022433472258
 30
0.0
 10
75.17336152634556
 20
-135.4022433472258
 30
0.0
 10
75.17336152634556
 20
-135.4022433472258
 30
0.0
 10
75.17336152634556
 20
-135.7546766153669
 30
0.0
 10
75.17336152634556
 20
-135.7546766153669
 30
0.0
 10
75.17336152634556
 20
-135.7546766153669
 30
0.0
 10
75.0252224204798
 20
-135.7546766153669
 30
0.0
 10
75.0252224204798
 20
-135.7546766153669
 30
0.0
 10
75.0105807646675
 20
-135.3998317803862
 30
0.0
 10
74.84762774821517
 20
-135.3502224053986
 30
0.0
 10
74.73342283287914
 20
-135.3185275269343
 30
0.0
 10
74.73342283287914
 20
-135.3185275269343
 30
0.0
 10
74.73342283287914
 20
-135.1624647014524
 30
0.0
 10
74.73342283287914
 20
-135.1624647014524
 30
0.0
 10
74.73342283287914
 20
-135.1624647014524
 30
0.0
 10
76.27768688414238
 20
-135.1624647014524
 30
0.0
 10
76.27768688414238
 20
-135.1624647014524
 30
0.0
 10
76.27768688414238
 20
-135.1624647014524
 30
0.0
 10
76.27768688414238
 20
-135.4022433472258
 30
0.0
 10
76.27768688414238
 20
-135.4022433472258
 30
0.0
  0
HATCH
  5
10D
330
108
100
AcDbEntity
  8
_U+30EC_U+30A4_U+30E4_U+30FC 1
 62
   179
420
  2234388
100
AcDbHatch
 10
0.0
 20
0.0
 30
0.0
210
0.0
220
0.0
230
1.0
  2
SOLID
 70
     1
 71
     0
 91
        1
 92
        1
 93
        1
 72
     4
 94
        3
 73
     0
 74
     1
 95
       26
 96
       22
 40
0.0
 40
0.0
 40
0.0
 40
0.0
 40
1.0
 40
1.0
 40
1.0
 40
2.0
 40
2.0
 40
2.0
 40
3.0
 40
3.0
 40
3.0
 40
4.0
 40
4.0
 40
4.0
 40
5.0
 40
5.0
 40
5.0
 40
6.0
 40
6.0
 40
6.0
 40
7.0
 40
7.0
 40
7.0
 40
7.0
 10
76.27768688414238
 20
-135.4022433472258
 10
76.27768688414238
 20
-135.4022433472258
 10
75.17336152634556
 20
-135.4022433472258
 10
75.17336152634556
 20
-135.4022433472258
 10
75.17336152634556
 20
-135.4022433472258
 10
75.17336152634556
 20
-135.7546766153669
 10
75.17336152634556
 20
-135.7546766153669
 10
75.17336152634556
 20
-135.7546766153669
 10
75.0252224204798
 20
-135.7546766153669
 10
75.0252224204798
 20
-135.7546766153669
 10
75.0105807646675
 20
-135.3998317803862
 10
74.84762774821517
 20
-135.3502224053986
 10
74.73342283287914
 20
-135.3185275269343
 10
74.73342283287914
 20
-135.3185275269343
 10
74.73342283287914
 20
-135.1624647014524
 10
74.73342283287914
 20
-135.1624647014524
 10
74.73342283287914
 20
-135.1624647014524
 10
76.27768688414238
 20
-135.1624647014524
 10
76.27768688414238
 20
-135.1624647014524
 10
76.27768688414238
 20
-135.1624647014524
 10
76.27768688414238
 20
-135.4022433472258
 10
76.27768688414238
 20
-135.4022433472258
 97
        0
 97
        0
 75
     2
 76
     1
 98
        0
  0
ENDBLK
  5
10B
330
108
100
AcDbEntity
  8
0
100
AcDbBlockEnd
  0
BLOCK
  5
11C
330
11A
100
AcDbEntity
  8
0
100
AcDbBlockBegin
  2
block 7
 70
     0
 10
0.0
 20
0.0
 30
0.0
  3
block 7
  1

  0
SPLINE
  5
11E
330
11A
100
AcDbEntity
  8
_U+30EC_U+30A4_U+30E4_U+30FC 1
370
     0
100
AcDbSpline
210
0.0
220
0.0
230
1.0
 70
    11
 71
     3
 72
    26
 73
    22
 74
     0
 42
0.0000000001
 43
0.0000000001
 12
1.0
 22
0.0
 32
0.0
 13
1.0
 23
0.0
 33
0.0
 40
0.0
 40
0.0
 40
0.0
 40
0.0
 40
1.0
 40
1.0
 40
1.0
 40
2.0
 40
2.0
 40
2.0
 40
3.0
 40
3.0
 40
3.0
 40
4.0
 40
4.0
 40
4.0
 40
5.0
 40
5.0
 40
5.0
 40
6.0
 40
6.0
 40
6.0
 40
7.0
 40
7.0
 40
7.0
 40
7.0
 10
100.3222140591208
 20
-127.0962903870627
 30
0.0
 10
100.3222140591208
 20
-127.0962903870627
 30
0.0
 10
100.068999540955
 20
-127.0962903870627
 30
0.0
 10
100.068999540955
 20
-127.0962903870627
 30
0.0
 10
100.0958712857399
 20
-126.7874375768101
 30
0.0
 10
100.3018879957579
 20
-126.2691229610543
 30
0.0
 10
100.7359700268994
 20
-125.7635551985938
 30
0.0
 10
100.7359700268994
 20
-125.7635551985938
 30
0.0
 10
99.84058971028291
 20
-125.7635551985938
 30
0.0
 10
99.84058971028291
 20
-125.7635551985938
 30
0.0
 10
99.84058971028291
 20
-125.7635551985938
 30
0.0
 10
99.84058971028291
 20
-125.5520263357995
 30
0.0
 10
99.84058971028291
 20
-125.5520263357995
 30
0.0
 10
99.84058971028291
 20
-125.5520263357995
 30
0.0
 10
100.9891845450652
 20
-125.5520263357995
 30
0.0
 10
100.9891845450652
 20
-125.5520263357995
 30
0.0
 10
100.9891845450652
 20
-125.5520263357995
 30
0.0
 10
100.9891845450652
 20
-125.7635551985938
 30
0.0
 10
100.9891845450652
 20
-125.7635551985938
 30
0.0
 10
100.6432969583461
 20
-126.0532877289034
 30
0.0
 10
100.358387561716
 20
-126.6456718975921
 30
0.0
 10
100.3222140591208
 20
-127.0962903870627
 30
0.0
  0
HATCH
  5
11F
330
11A
100
AcDbEntity
  8
_U+30EC_U+30A4_U+30E4_U+30FC 1
 62
   179
420
  2234388
100
AcDbHatch
 10
0.0
 20
0.0
 30
0.0
210
0.0
220
0.0
230
1.0
  2
SOLID
 70
     1
 71
     0
 91
        1
 92
        1
 93
        1
 72
     4
 94
        3
 73
     0
 74
     1
 95
       26
 96
       22
 40
0.0
 40
0.0
 40
0.0
 40
0.0
 40
1.0
 40
1.0
 40
1.0
 40
2.0
 40
2.0
 40
2.0
 40
3.0
 40
3.0
 40
3.0
 40
4.0
 40
4.0
 40
4.0
 40
5.0
 40
5.0
 40
5.0
 40
6.0
 40
6.0
 40
6.0
 40
7.0
 40
7.0
 40
7.0
 40
7.0
 10
100.3222140591208
 20
-127.0962903870627
 10
100.3222140591208
 20
-127.0962903870627
 10
100.068999540955
 20
-127.0962903870627
 10
100.068999540955
 20
-127.0962903870627
 10
100.0958712857399
 20
-126.7874375768101
 10
100.3018879957579
 20
-126.2691229610543
 10
100.7359700268994
 20
-125.7635551985938
 10
100.7359700268994
 20
-125.7635551985938
 10
99.84058971028291
 20
-125.7635551985938
 10
99.84058971028291
 20
-125.7635551985938
 10
99.84058971028291
 20
-125.7635551985938
 10
99.84058971028291
 20
-125.5520263357995
 10
99.84058971028291
 20
-125.5520263357995
 10
99.84058971028291
 20
-125.5520263357995
 10
100.9891845450652
 20
-125.5520263357995
 10
100.9891845450652
 20
-125.5520263357995
 10
100.9891845450652
 20
-125.5520263357995
 10
100.9891845450652
 20
-125.7635551985938
 10
100.9891845450652
 20
-125.7635551985938
 10
100.6432969583461
 20
-126.0532877289034
 10
100.358387561716
 20
-126.6456718975921
 10
100.3222140591208
 20
-127.0962903870627
 97
        0
 97
        0
 75
     2
 76
     1
 98
        0
  0
ENDBLK
  5
11D
330
11A
100
AcDbEntity
  8
0
100
AcDbBlockEnd
  0
ENDSEC
  0
SECTION
  2
ENTITIES
  0
POLYLINE
  5
41
330
1F
100
AcDbEntity
  8
_U+30EC_U+30A4_U+30E4_U+30FC 1
 62
   179
420
  2234388
370
    25
100
AcDb2dPolyline
 66
     1
 10
0.0
 20
0.0
 30
0.0
  0
VERTEX
  5
42
330
41
100
AcDbEntity
  8
_U+30EC_U+30A4_U+30E4_U+30FC 1
 62
   179
420
  2234388
370
    25
100
AcDbVertex
100
AcDb2dVertex
 10
81.2382643163281
 20
-131.3925066338184
 30
0.0
  0
VERTEX
  5
43
330
41
100
AcDbEntity
  8
_U+30EC_U+30A4_U+30E4_U+30FC 1
 62
   179
420
  2234388
370
    25
100
AcDbVertex
100
AcDb2dVertex
 10
86.37421474085464
 20
-131.3925066338184
 30
0.0
  0
SEQEND
  5
44
330
41
100
AcDbEntity
  8
_U+30EC_U+30A4_U+30E4_U+30FC 1
 62
   179
420
  2234388
370
    25
  0
POLYLINE
  5
45
330
1F
100
AcDbEntity
  8
_U+30EC_U+30A4_U+30E4_U+30FC 1
 62
   179
420
  2234388
370
    25
100
AcDb2dPolyline
 66
     1
 10
0.0
 20
0.0
 30
0.0
  0
VERTEX
  5
46
330
45
100
AcDbEntity
  8
_U+30EC_U+30A4_U+30E4_U+30FC 1
 62
   179
420
  2234388
370
    25
100
AcDbVertex
100
AcDb2dVertex
 10
80.87483265893334
 20
-126.8923321904992
 30
0.0
  0
VERTEX
  5
47
330
45
100
AcDbEntity
  8
_U+30EC_U+30A4_U+30E4_U+30FC 1
 62
   179
420
  2234388
370
    25
100
AcDbVertex
100
AcDb2dVertex
 10
86.37421474085464
 20
-126.8923321904992
 30
0.0
  0
SEQEND
  5
48
330
45
100
AcDbEntity
  8
_U+30EC_U+30A4_U+30E4_U+30FC 1
 62
   179
420
  2234388
370
    25
  0
POLYLINE
  5
49
330
1F
100
AcDbEntity
  8
_U+30EC_U+30A4_U+30E4_U+30FC 1
 62
   179
420
  2234388
370
    25
100
AcDb2dPolyline
 66
     1
 10
0.0
 20
0.0
 30
0.0
  0
VERTEX
  5
4A
330
49
100
AcDbEntity
  8
_U+30EC_U+30A4_U+30E4_U+30FC 1
 62
   179
420
  2234388
370
    25
100
AcDbVertex
100
AcDb2dVertex
 10
81.2382643163281
 20
-125.892559968527
 30
0.0
  0
VERTEX
  5
4B
330
49
100
AcDbEntity
  8
_U+30EC_U+30A4_U+30E4_U+30FC 1
 62
   179
420
  2234388
370
    25
100
AcDbVertex
100
AcDb2dVertex
 10
92.5097609732127
 20
-125.892559968527
 30
0.0
  0
SEQEND
  5
4C
330
49
100
AcDbEntity
  8
_U+30EC_U+30A4_U+30E4_U+30FC 1
 62
   179
420
  2234388
370
    25
  0
POLYLINE
  5
4D
330
1F
100
AcDbEntity
  8
_U+30EC_U+30A4_U+30E4_U+30FC 1
 62
   179
420
  2234388
370
    25
100
AcDb2dPolyline
 66
     1
 10
0.0
 20
0.0
 30
0.0
  0
VERTEX
  5
4E
330
4D
100
AcDbEntity
  8
_U+30EC_U+30A4_U+30E4_U+30FC 1
 62
   179
420
  2234388
370
    25
100
AcDbVertex
100
AcDb2dVertex
 10
80.87483265893334
 20
-132.3922788557909
 30
0.0
  0
VERTEX
  5
4F
330
4D
100
AcDbEntity
  8
_U+30EC_U+30A4_U+30E4_U+30FC 1
 62
   179
420
  2234388
370
    25
100
AcDbVertex
100
AcDb2dVertex
 10
103.8737559610708
 20
-132.3922788557909
 30
0.0
  0
SEQEND
  5
50
330
4D
100
AcDbEntity
  8
_U+30EC_U+30A4_U+30E4_U+30FC 1
 62
   179
420
  2234388
370
    25
  0
POLYLINE
  5
51
330
1F
100
AcDbEntity
  8
_U+30EC_U+30A4_U+30E4_U+30FC 1
 62
   179
420
  2234388
370
    25
100
AcDb2dPolyline
 66
     1
 10
0.0
 20
0.0
 30
0.0
  0
VERTEX
  5
52
330
51
100
AcDbEntity
  8
_U+30EC_U+30A4_U+30E4_U+30FC 1
 62
   179
420
  2234388
370
    25
100
AcDbVertex
100
AcDb2dVertex
 10
97.17373002089161
 20
-131.6922266337439
 30
0.0
  0
VERTEX
  5
53
330
51
100
AcDbEntity
  8
_U+30EC_U+30A4_U+30E4_U+30FC 1
 62
   179
420
  2234388
370
    25
100
AcDbVertex
100
AcDb2dVertex
 10
103.6202145786503
 20
-131.6922266337439
 30
0.0
  0
SEQEND
  5
54
330
51
100
AcDbEntity
  8
_U+30EC_U+30A4_U+30E4_U+30FC 1
 62
   179
420
  2234388
370
    25
  0
POLYLINE
  5
55
330
1F
100
AcDbEntity
  8
_U+30EC_U+30A4_U+30E4_U+30FC 1
 62
   179
420
  2234388
370
    25
100
AcDb2dPolyline
 66
     1
 10
0.0
 20
0.0
 30
0.0
  0
VERTEX
  5
56
330
55
100
AcDbEntity
  8
_U+30EC_U+30A4_U+30E4_U+30FC 1
 62
   179
420
  2234388
370
    25
100
AcDbVertex
100
AcDb2dVertex
 10
92.5097609732127
 20
-125.892559968527
 30
0.0
  0
VERTEX
  5
57
330
55
100
AcDbEntity
  8
_U+30EC_U+30A4_U+30E4_U+30FC 1
 62
   179
420
  2234388
370
    25
100
AcDbVertex
100
AcDb2dVertex
 10
92.8742509639138
 20
-126.8923321904992
 30
0.0
  0
SEQEND
  5
58
330
55
100
AcDbEntity
  8
_U+30EC_U+30A4_U+30E4_U+30FC 1
 62
   179
420
  2234388
370
    25
  0
POLYLINE
  5
59
330
1F
100
AcDbEntity
  8
_U+30EC_U+30A4_U+30E4_U+30FC 1
 62
   179
420
  2234388
370
    25
100
AcDb2dPolyline
 66
     1
 10
0.0
 20
0.0
 30
0.0
  0
VERTEX
  5
5A
330
59
100
AcDbEntity
  8
_U+30EC_U+30A4_U+30E4_U+30FC 1
 62
   179
420
  2234388
370
    25
100
AcDbVertex
100
AcDb2dVertex
 10
103.6202145786503
 20
-131.6922266337439
 30
0.0
  0
VERTEX
  5
5B
330
59
100
AcDbEntity
  8
_U+30EC_U+30A4_U+30E4_U+30FC 1
 62
   179
420
  2234388
370
    25
100
AcDbVertex
100
AcDb2dVertex
 10
103.8737559610708
 20
-132.3922788557909
 30
0.0
  0
SEQEND
  5
5C
330
59
100
AcDbEntity
  8
_U+30EC_U+30A4_U+30E4_U+30FC 1
 62
   179
420
  2234388
370
    25
  0
POLYLINE
  5
5D
330
1F
100
AcDbEntity
  8
_U+30EC_U+30A4_U+30E4_U+30FC 1
 62
   179
420
  2234388
370
    25
100
AcDb2dPolyline
 66
     1
 10
0.0
 20
0.0
 30
0.0
  0
VERTEX
  5
5E
330
5D
100
AcDbEntity
  8
_U+30EC_U+30A4_U+30E4_U+30FC 1
 62
   179
420
  2234388
370
    25
100
AcDbVertex
100
AcDb2dVertex
 10
96.87401002853811
 20
-131.3925066338184
 30
0.0
  0
VERTEX
  5
5F
330
5D
100
AcDbEntity
  8
_U+30EC_U+30A4_U+30E4_U+30FC 1
 62
   179
420
  2234388
370
    25
100
AcDbVertex
100
AcDb2dVertex
 10
97.17373002089161
 20
-131.6922266337439
 30
0.0
  0
SEQEND
  5
60
330
5D
100
AcDbEntity
  8
_U+30EC_U+30A4_U+30E4_U+30FC 1
 62
   179
420
  2234388
370
    25
  0
POLYLINE
  5
61
330
1F
100
AcDbEntity
  8
_U+30EC_U+30A4_U+30E4_U+30FC 1
 62
   179
420
  2234388
370
    25
100
AcDb2dPolyline
 66
     1
 10
0.0
 20
0.0
 30
0.0
  0
VERTEX
  5
62
330
61
100
AcDbEntity
  8
_U+30EC_U+30A4_U+30E4_U+30FC 1
 62
   179
420
  2234388
370
    25
100
AcDbVertex
100
AcDb2dVertex
 10
80.87483265893334
 20
-126.8923321904992
 30
0.0
  0
VERTEX
  5
63
330
61
100
AcDbEntity
  8
_U+30EC_U+30A4_U+30E4_U+30FC 1
 62
   179
420
  2234388
370
    25
100
AcDbVertex
100
AcDb2dVertex
 10
81.2382643163281
 20
-125.892559968527
 30
0.0
  0
SEQEND
  5
64
330
61
100
AcDbEntity
  8
_U+30EC_U+30A4_U+30E4_U+30FC 1
 62
   179
420
  2234388
370
    25
  0
POLYLINE
  5
65
330
1F
100
AcDbEntity
  8
_U+30EC_U+30A4_U+30E4_U+30FC 1
 62
   179
420
  2234388
370
    25
100
AcDb2dPolyline
 66
     1
 10
0.0
 20
0.0
 30
0.0
  0
VERTEX
  5
66
330
65
100
AcDbEntity
  8
_U+30EC_U+30A4_U+30E4_U+30FC 1
 62
   179
420
  2234388
370
    25
100
AcDbVertex
100
AcDb2dVertex
 10
80.87483265893334
 20
-132.3922788557909
 30
0.0
  0
VERTEX
  5
67
330
65
100
AcDbEntity
  8
_U+30EC_U+30A4_U+30E4_U+30FC 1
 62
   179
420
  2234388
370
    25
100
AcDbVertex
100
AcDb2dVertex
 10
81.2382643163281
 20
-131.3925066338184
 30
0.0
  0
SEQEND
  5
68
330
65
100
AcDbEntity
  8
_U+30EC_U+30A4_U+30E4_U+30FC 1
 62
   179
420
  2234388
370
    25
  0
POLYLINE
  5
69
330
1F
100
AcDbEntity
  8
_U+30EC_U+30A4_U+30E4_U+30FC 1
 62
   179
420
  2234388
370
    25
100
AcDb2dPolyline
 66
     1
 10
0.0
 20
0.0
 30
0.0
  0
VERTEX
  5
6A
330
69
100
AcDbEntity
  8
_U+30EC_U+30A4_U+30E4_U+30FC 1
 62
   179
420
  2234388
370
    25
100
AcDbVertex
100
AcDb2dVertex
 10
86.37421474085464
 20
-126.8923321904992
 30
0.0
  0
VERTEX
  5
6B
330
69
100
AcDbEntity
  8
_U+30EC_U+30A4_U+30E4_U+30FC 1
 62
   179
420
  2234388
370
    25
100
AcDbVertex
100
AcDb2dVertex
 10
86.37421474085464
 20
-131.3925066338184
 30
0.0
  0
SEQEND
  5
6C
330
69
100
AcDbEntity
  8
_U+30EC_U+30A4_U+30E4_U+30FC 1
 62
   179
420
  2234388
370
    25
  0
POLYLINE
  5
6D
330
1F
100
AcDbEntity
  8
_U+30EC_U+30A4_U+30E4_U+30FC 1
 62
   179
420
  2234388
370
    25
100
AcDb2dPolyline
 66
     1
 10
0.0
 20
0.0
 30
0.0
  0
VERTEX
  5
6E
330
6D
100
AcDbEntity
  8
_U+30EC_U+30A4_U+30E4_U+30FC 1
 62
   179
420
  2234388
370
    25
100
AcDbVertex
100
AcDb2dVertex
 10
87.37398693757055
 20
-126.8923321904992
 30
0.0
  0
VERTEX
  5
6F
330
6D
100
AcDbEntity
  8
_U+30EC_U+30A4_U+30E4_U+30FC 1
 62
   179
420
  2234388
370
    25
100
AcDbVertex
100
AcDb2dVertex
 10
87.37398693757055
 20
-131.3925066338184
 30
0.0
  0
SEQEND
  5
70
330
6D
100
AcDbEntity
  8
_U+30EC_U+30A4_U+30E4_U+30FC 1
 62
   179
420
  2234388
370
    25
  0
POLYLINE
  5
71
330
1F
100
AcDbEntity
  8
_U+30EC_U+30A4_U+30E4_U+30FC 1
 62
   179
420
  2234388
370
    25
100
AcDb2dPolyline
 66
     1
 10
0.0
 20
0.0
 30
0.0
  0
VERTEX
  5
72
330
71
100
AcDbEntity
  8
_U+30EC_U+30A4_U+30E4_U+30FC 1
 62
   179
420
  2234388
370
    25
100
AcDbVertex
100
AcDb2dVertex
 10
87.37398693757055
 20
-126.8923321904992
 30
0.0
  0
VERTEX
  5
73
330
71
100
AcDbEntity
  8
_U+30EC_U+30A4_U+30E4_U+30FC 1
 62
   179
420
  2234388
370
    25
100
AcDbVertex
100
AcDb2dVertex
 10
92.8742509639138
 20
-126.8923321904992
 30
0.0
  0
SEQEND
  5
74
330
71
100
AcDbEntity
  8
_U+30EC_U+30A4_U+30E4_U+30FC 1
 62
   179
420
  2234388
370
    25
  0
POLYLINE
  5
75
330
1F
100
AcDbEntity
  8
_U+30EC_U+30A4_U+30E4_U+30FC 1
 62
   179
420
  2234388
370
    25
100
AcDb2dPolyline
 66
     1
 10
0.0
 20
0.0
 30
0.0
  0
VERTEX
  5
76
330
75
100
AcDbEntity
  8
_U+30EC_U+30A4_U+30E4_U+30FC 1
 62
   179
420
  2234388
370
    25
100
AcDbVertex
100
AcDb2dVertex
 10
87.37398693757055
 20
-131.3925066338184
 30
0.0
  0
VERTEX
  5
77
330
75
100
AcDbEntity
  8
_U+30EC_U+30A4_U+30E4_U+30FC 1
 62
   179
420
  2234388
370
    25
100
AcDbVertex
100
AcDb2dVertex
 10
96.87401002853811
 20
-131.3925066338184
 30
0.0
  0
SEQEND
  5
78
330
75
100
AcDbEntity
  8
_U+30EC_U+30A4_U+30E4_U+30FC 1
 62
   179
420
  2234388
370
    25
  0
SPLINE
  5
79
330
1F
100
AcDbEntity
  8
_U+30EC_U+30A4_U+30E4_U+30FC 1
 62
   179
420
  2234388
370
     9
100
AcDbSpline
210
0.0
220
0.0
230
1.0
 70
    11
 71
     3
 72
    17
 73
    13
 74
     0
 42
0.0000000001
 43
0.0000000001
 12
1.0
 22
0.0
 32
0.0
 13
1.0
 23
0.0
 33
0.0
 40
0.0
 40
0.0
 40
0.0
 40
0.0
 40
1.0
 40
1.0
 40
1.0
 40
2.0
 40
2.0
 40
2.0
 40
3.0
 40
3.0
 40
3.0
 40
4.0
 40
4.0
 40
4.0
 40
4.0
 10
107.9747975231112
 20
-131.6922266337439
 30
0.0
 10
107.9747975231112
 20
-131.6370874670909
 30
0.0
 10
107.9300300242533
 20
-131.5923199671016
 30
0.0
 10
107.8742205812327
 20
-131.5923199671016
 30
0.0
 10
107.8197869715103
 20
-131.5923199671016
 30
0.0
 10
107.7743166397232
 20
-131.6370874670909
 30
0.0
 10
107.7743166397232
 20
-131.6922266337439
 30
0.0
 10
107.7743166397232
 20
-131.7480360781744
 30
0.0
 10
107.8197869715103
 20
-131.7928035781629
 30
0.0
 10
107.8742205812327
 20
-131.7928035781629
 30
0.0
 10
107.9300300242533
 20
-131.7928035781629
 30
0.0
 10
107.9747975231112
 20
-131.7480360781744
 30
0.0
 10
107.9747975231112
 20
-131.6922266337439
 30
0.0
  0
SPLINE
  5
7A
330
1F
100
AcDbEntity
  8
_U+30EC_U+30A4_U+30E4_U+30FC 1
 62
   179
420
  2234388
370
     9
100
AcDbSpline
210
0.0
220
0.0
230
1.0
 70
    11
 71
     3
 72
    17
 73
    13
 74
     0
 42
0.0000000001
 43
0.0000000001
 12
1.0
 22
0.0
 32
0.0
 13
1.0
 23
0.0
 33
0.0
 40
0.0
 40
0.0
 40
0.0
 40
0.0
 40
1.0
 40
1.0
 40
1.0
 40
2.0
 40
2.0
 40
2.0
 40
3.0
 40
3.0
 40
3.0
 40
4.0
 40
4.0
 40
4.0
 40
4.0
 10
107.9747975231112
 20
-132.3922788557909
 30
0.0
 10
107.9747975231112
 20
-132.3371396891378
 30
0.0
 10
107.9300300242533
 20
-132.2923721891493
 30
0.0
 10
107.8742205812327
 20
-132.2923721891493
 30
0.0
 10
107.8197869715103
 20
-132.2923721891493
 30
0.0
 10
107.7743166397232
 20
-132.3371396891378
 30
0.0
 10
107.7743166397232
 20
-132.3922788557909
 30
0.0
 10
107.7743166397232
 20
-132.4473827446658
 30
0.0
 10
107.8197869715103
 20
-132.4921855224325
 30
0.0
 10
107.8742205812327
 20
-132.4921855224325
 30
0.0
 10
107.9300300242533
 20
-132.4921855224325
 30
0.0
 10
107.9747975231112
 20
-132.4473827446658
 30
0.0
 10
107.9747975231112
 20
-132.3922788557909
 30
0.0
  0
SPLINE
  5
7B
330
1F
100
AcDbEntity
  8
_U+30EC_U+30A4_U+30E4_U+30FC 1
 62
   179
420
  2234388
370
     9
100
AcDbSpline
210
0.0
220
0.0
230
1.0
 70
    11
 71
     3
 72
    17
 73
    13
 74
     0
 42
0.0000000001
 43
0.0000000001
 12
1.0
 22
0.0
 32
0.0
 13
1.0
 23
0.0
 33
0.0
 40
0.0
 40
0.0
 40
0.0
 40
0.0
 40
1.0
 40
1.0
 40
1.0
 40
2.0
 40
2.0
 40
2.0
 40
3.0
 40
3.0
 40
3.0
 40
4.0
 40
4.0
 40
4.0
 40
4.0
 10
103.9750384584869
 20
-136.3927082992352
 30
0.0
 10
103.9750384584869
 20
-136.3376044103603
 30
0.0
 10
103.9295654040914
 20
-136.2928016325935
 30
0.0
 10
103.8737559610708
 20
-136.2928016325935
 30
0.0
 10
103.8193249740449
 20
-136.2928016325935
 30
0.0
 10
103.7745548524905
 20
-136.3376044103603
 30
0.0
 10
103.7745548524905
 20
-136.3927082992352
 30
0.0
 10
103.7745548524905
 20
-136.4478474658882
 30
0.0
 10
103.8193249740449
 20
-136.4926149658768
 30
0.0
 10
103.8737559610708
 20
-136.4926149658768
 30
0.0
 10
103.9295654040914
 20
-136.4926149658768
 30
0.0
 10
103.9750384584869
 20
-136.4478474658882
 30
0.0
 10
103.9750384584869
 20
-136.3927082992352
 30
0.0
  0
SPLINE
  5
7C
330
1F
100
AcDbEntity
  8
_U+30EC_U+30A4_U+30E4_U+30FC 1
 62
   179
420
  2234388
370
     9
100
AcDbSpline
210
0.0
220
0.0
230
1.0
 70
    11
 71
     3
 72
    17
 73
    13
 74
     0
 42
0.0000000001
 43
0.0000000001
 12
1.0
 22
0.0
 32
0.0
 13
1.0
 23
0.0
 33
0.0
 40
0.0
 40
0.0
 40
0.0
 40
0.0
 40
1.0
 40
1.0
 40
1.0
 40
2.0
 40
2.0
 40
2.0
 40
3.0
 40
3.0
 40
3.0
 40
4.0
 40
4.0
 40
4.0
 40
4.0
 10
76.97427470288932
 20
-126.8923321904992
 30
0.0
 10
76.97427470288932
 20
-126.837228301624
 30
0.0
 10
76.92950720403142
 20
-126.7924255238576
 30
0.0
 10
76.8740152610027
 20
-126.7924255238576
 30
0.0
 10
76.81926415128841
 20
-126.7924255238576
 30
0.0
 10
76.77410859688487
 20
-126.837228301624
 30
0.0
 10
76.77410859688487
 20
-126.8923321904992
 30
0.0
 10
76.77410859688487
 20
-126.947471357152
 30
0.0
 10
76.81926415128841
 20
-126.9922388571409
 30
0.0
 10
76.8740152610027
 20
-126.9922388571409
 30
0.0
 10
76.92950720403142
 20
-126.9922388571409
 30
0.0
 10
76.97427470288932
 20
-126.947471357152
 30
0.0
 10
76.97427470288932
 20
-126.8923321904992
 30
0.0
  0
SPLINE
  5
7D
330
1F
100
AcDbEntity
  8
_U+30EC_U+30A4_U+30E4_U+30FC 1
 62
   179
420
  2234388
370
     9
100
AcDbSpline
210
0.0
220
0.0
230
1.0
 70
    11
 71
     3
 72
    17
 73
    13
 74
     0
 42
0.0000000001
 43
0.0000000001
 12
1.0
 22
0.0
 32
0.0
 13
1.0
 23
0.0
 33
0.0
 40
0.0
 40
0.0
 40
0.0
 40
0.0
 40
1.0
 40
1.0
 40
1.0
 40
2.0
 40
2.0
 40
2.0
 40
3.0
 40
3.0
 40
3.0
 40
4.0
 40
4.0
 40
4.0
 40
4.0
 10
76.97427470288932
 20
-131.3925066338184
 30
0.0
 10
76.97427470288932
 20
-131.3373674671659
 30
0.0
 10
76.92950720403142
 20
-131.2925999671767
 30
0.0
 10
76.8740152610027
 20
-131.2925999671767
 30
0.0
 10
76.81926415128841
 20
-131.2925999671767
 30
0.0
 10
76.77410859688487
 20
-131.3373674671659
 30
0.0
 10
76.77410859688487
 20
-131.3925066338184
 30
0.0
 10
76.77410859688487
 20
-131.4476105226939
 30
0.0
 10
76.81926415128841
 20
-131.49241330046
 30
0.0
 10
76.8740152610027
 20
-131.49241330046
 30
0.0
 10
76.92950720403142
 20
-131.49241330046
 30
0.0
 10
76.97427470288932
 20
-131.4476105226939
 30
0.0
 10
76.97427470288932
 20
-131.3925066338184
 30
0.0
  0
SPLINE
  5
7E
330
1F
100
AcDbEntity
  8
_U+30EC_U+30A4_U+30E4_U+30FC 1
 62
   179
420
  2234388
370
     9
100
AcDbSpline
210
0.0
220
0.0
230
1.0
 70
    11
 71
     3
 72
    17
 73
    13
 74
     0
 42
0.0000000001
 43
0.0000000001
 12
1.0
 22
0.0
 32
0.0
 13
1.0
 23
0.0
 33
0.0
 40
0.0
 40
0.0
 40
0.0
 40
0.0
 40
1.0
 40
1.0
 40
1.0
 40
2.0
 40
2.0
 40
2.0
 40
3.0
 40
3.0
 40
3.0
 40
4.0
 40
4.0
 40
4.0
 40
4.0
 10
76.97427470288932
 20
-132.3922788557909
 30
0.0
 10
76.97427470288932
 20
-132.3371396891378
 30
0.0
 10
76.92950720403142
 20
-132.2923721891493
 30
0.0
 10
76.8740152610027
 20
-132.2923721891493
 30
0.0
 10
76.81926415128841
 20
-132.2923721891493
 30
0.0
 10
76.77410859688487
 20
-132.3371396891378
 30
0.0
 10
76.77410859688487
 20
-132.3922788557909
 30
0.0
 10
76.77410859688487
 20
-132.4473827446658
 30
0.0
 10
76.81926415128841
 20
-132.4921855224325
 30
0.0
 10
76.8740152610027
 20
-132.4921855224325
 30
0.0
 10
76.92950720403142
 20
-132.4921855224325
 30
0.0
 10
76.97427470288932
 20
-132.4473827446658
 30
0.0
 10
76.97427470288932
 20
-132.3922788557909
 30
0.0
  0
SPLINE
  5
7F
330
1F
100
AcDbEntity
  8
_U+30EC_U+30A4_U+30E4_U+30FC 1
 62
   179
420
  2234388
370
     9
100
AcDbSpline
210
0.0
220
0.0
230
1.0
 70
    11
 71
     3
 72
    17
 73
    13
 74
     0
 42
0.0000000001
 43
0.0000000001
 12
1.0
 22
0.0
 32
0.0
 13
1.0
 23
0.0
 33
0.0
 40
0.0
 40
0.0
 40
0.0
 40
0.0
 40
1.0
 40
1.0
 40
1.0
 40
2.0
 40
2.0
 40
2.0
 40
3.0
 40
3.0
 40
3.0
 40
4.0
 40
4.0
 40
4.0
 40
4.0
 10
80.97473932305118
 20
-136.3927082992352
 30
0.0
 10
80.97473932305118
 20
-136.3376044103603
 30
0.0
 10
80.92958376864765
 20
-136.2928016325935
 30
0.0
 10
80.87483265893334
 20
-136.2928016325935
 30
0.0
 10
80.81934071590462
 20
-136.2928016325935
 30
0.0
 10
80.77422043927795
 20
-136.3376044103603
 30
0.0
 10
80.77422043927795
 20
-136.3927082992352
 30
0.0
 10
80.77422043927795
 20
-136.4478474658882
 30
0.0
 10
80.81934071590462
 20
-136.4926149658768
 30
0.0
 10
80.87483265893334
 20
-136.4926149658768
 30
0.0
 10
80.92958376864765
 20
-136.4926149658768
 30
0.0
 10
80.97473932305118
 20
-136.4478474658882
 30
0.0
 10
80.97473932305118
 20
-136.3927082992352
 30
0.0
  0
SPLINE
  5
80
330
1F
100
AcDbEntity
  8
_U+30EC_U+30A4_U+30E4_U+30FC 1
 62
   179
420
  2234388
370
     9
100
AcDbSpline
210
0.0
220
0.0
230
1.0
 70
    11
 71
     3
 72
    17
 73
    13
 74
     0
 42
0.0000000001
 43
0.0000000001
 12
1.0
 22
0.0
 32
0.0
 13
1.0
 23
0.0
 33
0.0
 40
0.0
 40
0.0
 40
0.0
 40
0.0
 40
1.0
 40
1.0
 40
1.0
 40
2.0
 40
2.0
 40
2.0
 40
3.0
 40
3.0
 40
3.0
 40
4.0
 40
4.0
 40
4.0
 40
4.0
 10
92.97415762803163
 20
-121.8924833028602
 30
0.0
 10
92.97415762803163
 20
-121.8369913584297
 30
0.0
 10
92.93006040693442
 20
-121.7925766362186
 30
0.0
 10
92.8742509639138
 20
-121.7925766362186
 30
0.0
 10
92.81844152089316
 20
-121.7925766362186
 30
0.0
 10
92.77434429979596
 20
-121.8369913584297
 30
0.0
 10
92.77434429979596
 20
-121.8924833028602
 30
0.0
 10
92.77434429979596
 20
-121.9479399695132
 30
0.0
 10
92.81844152089316
 20
-121.9927427472796
 30
0.0
 10
92.8742509639138
 20
-121.9927427472796
 30
0.0
 10
92.93006040693442
 20
-121.9927427472796
 30
0.0
 10
92.97415762803163
 20
-121.9479399695132
 30
0.0
 10
92.97415762803163
 20
-121.8924833028602
 30
0.0
  0
SPLINE
  5
81
330
1F
100
AcDbEntity
  8
_U+30EC_U+30A4_U+30E4_U+30FC 1
 62
   179
420
  2234388
370
     9
100
AcDbSpline
210
0.0
220
0.0
230
1.0
 70
    11
 71
     3
 72
    17
 73
    13
 74
     0
 42
0.0000000001
 43
0.0000000001
 12
1.0
 22
0.0
 32
0.0
 13
1.0
 23
0.0
 33
0.0
 40
0.0
 40
0.0
 40
0.0
 40
0.0
 40
1.0
 40
1.0
 40
1.0
 40
2.0
 40
2.0
 40
2.0
 40
3.0
 40
3.0
 40
3.0
 40
4.0
 40
4.0
 40
4.0
 40
4.0
 10
80.97473932305118
 20
-121.8924833028602
 30
0.0
 10
80.97473932305118
 20
-121.8369913584297
 30
0.0
 10
80.92958376864765
 20
-121.7925766362186
 30
0.0
 10
80.87483265893334
 20
-121.7925766362186
 30
0.0
 10
80.81934071590462
 20
-121.7925766362186
 30
0.0
 10
80.77422043927795
 20
-121.8369913584297
 30
0.0
 10
80.77422043927795
 20
-121.8924833028602
 30
0.0
 10
80.77422043927795
 20
-121.9479399695132
 30
0.0
 10
80.81934071590462
 20
-121.9927427472796
 30
0.0
 10
80.87483265893334
 20
-121.9927427472796
 30
0.0
 10
80.92958376864765
 20
-121.9927427472796
 30
0.0
 10
80.97473932305118
 20
-121.9479399695132
 30
0.0
 10
80.97473932305118
 20
-121.8924833028602
 30
0.0
  0
SPLINE
  5
82
330
1F
100
AcDbEntity
  8
_U+30EC_U+30A4_U+30E4_U+30FC 1
 62
   179
420
  2234388
370
     9
100
AcDbSpline
210
0.0
220
0.0
230
1.0
 70
    11
 71
     3
 72
    17
 73
    13
 74
     0
 42
0.0000000001
 43
0.0000000001
 12
1.0
 22
0.0
 32
0.0
 13
1.0
 23
0.0
 33
0.0
 40
0.0
 40
0.0
 40
0.0
 40
0.0
 40
1.0
 40
1.0
 40
1.0
 40
2.0
 40
2.0
 40
2.0
 40
3.0
 40
3.0
 40
3.0
 40
4.0
 40
4.0
 40
4.0
 40
4.0
 10
103.9750384584869
 20
-127.6922910791882
 30
0.0
 10
103.9750384584869
 20
-127.6371871903129
 30
0.0
 10
103.9295654040914
 20
-127.5923844125465
 30
0.0
 10
103.8737559610708
 20
-127.5923844125465
 30
0.0
 10
103.8193249740449
 20
-127.5923844125465
 30
0.0
 10
103.7745548524905
 20
-127.6371871903129
 30
0.0
 10
103.7745548524905
 20
-127.6922910791882
 30
0.0
 10
103.7745548524905
 20
-127.7477477458408
 30
0.0
 10
103.8193249740449
 20
-127.7925505236076
 30
0.0
 10
103.8737559610708
 20
-127.7925505236076
 30
0.0
 10
103.9295654040914
 20
-127.7925505236076
 30
0.0
 10
103.9750384584869
 20
-127.7477477458408
 30
0.0
 10
103.9750384584869
 20
-127.6922910791882
 30
0.0
  0
SPLINE
  5
83
330
1F
100
AcDbEntity
  8
_U+30EC_U+30A4_U+30E4_U+30FC 1
 62
   179
420
  2234388
370
     9
100
AcDbSpline
210
0.0
220
0.0
230
1.0
 70
    11
 71
     3
 72
    17
 73
    13
 74
     0
 42
0.0000000001
 43
0.0000000001
 12
1.0
 22
0.0
 32
0.0
 13
1.0
 23
0.0
 33
0.0
 40
0.0
 40
0.0
 40
0.0
 40
0.0
 40
1.0
 40
1.0
 40
1.0
 40
2.0
 40
2.0
 40
2.0
 40
3.0
 40
3.0
 40
3.0
 40
4.0
 40
4.0
 40
4.0
 40
4.0
 10
96.97391669265593
 20
-127.6922910791882
 30
0.0
 10
96.97391669265593
 20
-127.6371871903129
 30
0.0
 10
96.92981947155873
 20
-127.5923844125465
 30
0.0
 10
96.87401002853811
 20
-127.5923844125465
 30
0.0
 10
96.81957641881571
 20
-127.5923844125465
 30
0.0
 10
96.77410336442027
 20
-127.6371871903129
 30
0.0
 10
96.77410336442027
 20
-127.6922910791882
 30
0.0
 10
96.77410336442027
 20
-127.7477477458408
 30
0.0
 10
96.81957641881571
 20
-127.7925505236076
 30
0.0
 10
96.87401002853811
 20
-127.7925505236076
 30
0.0
 10
96.92981947155873
 20
-127.7925505236076
 30
0.0
 10
96.97391669265593
 20
-127.7477477458408
 30
0.0
 10
96.97391669265593
 20
-127.6922910791882
 30
0.0
  0
POLYLINE
  5
84
330
1F
100
AcDbEntity
  8
_U+30EC_U+30A4_U+30E4_U+30FC 1
 62
   179
420
  2234388
370
     9
100
AcDb2dPolyline
 66
     1
 10
0.0
 20
0.0
 30
0.0
  0
VERTEX
  5
85
330
84
100
AcDbEntity
  8
_U+30EC_U+30A4_U+30E4_U+30FC 1
 62
   179
420
  2234388
370
     9
100
AcDbVertex
100
AcDb2dVertex
 10
107.8742205812327
 20
-132.3922788557909
 30
0.0
  0
VERTEX
  5
86
330
84
100
AcDbEntity
  8
_U+30EC_U+30A4_U+30E4_U+30FC 1
 62
   179
420
  2234388
370
     9
100
AcDbVertex
100
AcDb2dVertex
 10
107.8742205812327
 20
-137.6501846878098
 30
0.0
  0
SEQEND
  5
87
330
84
100
AcDbEntity
  8
_U+30EC_U+30A4_U+30E4_U+30FC 1
 62
   179
420
  2234388
370
     9
  0
POLYLINE
  5
88
330
1F
100
AcDbEntity
  8
_U+30EC_U+30A4_U+30E4_U+30FC 1
 62
   179
420
  2234388
370
     9
100
AcDb2dPolyline
 66
     1
 10
0.0
 20
0.0
 30
0.0
  0
VERTEX
  5
89
330
88
100
AcDbEntity
  8
_U+30EC_U+30A4_U+30E4_U+30FC 1
 62
   179
420
  2234388
370
     9
100
AcDbVertex
100
AcDb2dVertex
 10
107.8742205812327
 20
-132.3922788557909
 30
0.0
  0
VERTEX
  5
8A
330
88
100
AcDbEntity
  8
_U+30EC_U+30A4_U+30E4_U+30FC 1
 62
   179
420
  2234388
370
     9
100
AcDbVertex
100
AcDb2dVertex
 10
107.8742205812327
 20
-130.6924544117714
 30
0.0
  0
SEQEND
  5
8B
330
88
100
AcDbEntity
  8
_U+30EC_U+30A4_U+30E4_U+30FC 1
 62
   179
420
  2234388
370
     9
  0
POLYLINE
  5
8C
330
1F
100
AcDbEntity
  8
_U+30EC_U+30A4_U+30E4_U+30FC 1
 62
   179
420
  2234388
370
     9
100
AcDb2dPolyline
 66
     1
 10
0.0
 20
0.0
 30
0.0
  0
VERTEX
  5
8D
330
8C
100
AcDbEntity
  8
_U+30EC_U+30A4_U+30E4_U+30FC 1
 62
   179
420
  2234388
370
     9
100
AcDbVertex
100
AcDb2dVertex
 10
106.4148495073532
 20
-132.3922788557909
 30
0.0
  0
VERTEX
  5
8E
330
8C
100
AcDbEntity
  8
_U+30EC_U+30A4_U+30E4_U+30FC 1
 62
   179
420
  2234388
370
     9
100
AcDbVertex
100
AcDb2dVertex
 10
108.8739575001717
 20
-132.3922788557909
 30
0.0
  0
SEQEND
  5
8F
330
8C
100
AcDbEntity
  8
_U+30EC_U+30A4_U+30E4_U+30FC 1
 62
   179
420
  2234388
370
     9
  0
POLYLINE
  5
90
330
1F
100
AcDbEntity
  8
_U+30EC_U+30A4_U+30E4_U+30FC 1
 62
   179
420
  2234388
370
     9
100
AcDb2dPolyline
 66
     1
 10
0.0
 20
0.0
 30
0.0
  0
VERTEX
  5
91
330
90
100
AcDbEntity
  8
_U+30EC_U+30A4_U+30E4_U+30FC 1
 62
   179
420
  2234388
370
     9
100
AcDbVertex
100
AcDb2dVertex
 10
106.1592267360969
 20
-131.6922266337439
 30
0.0
  0
VERTEX
  5
92
330
90
100
AcDbEntity
  8
_U+30EC_U+30A4_U+30E4_U+30FC 1
 62
   179
420
  2234388
370
     9
100
AcDbVertex
100
AcDb2dVertex
 10
108.8739575001717
 20
-131.6922266337439
 30
0.0
  0
SEQEND
  5
93
330
90
100
AcDbEntity
  8
_U+30EC_U+30A4_U+30E4_U+30FC 1
 62
   179
420
  2234388
370
     9
  0
INSERT
  5
95
330
1F
100
AcDbEntity
  8
_U+30EC_U+30A4_U+30E4_U+30FC 1
100
AcDbBlockReference
  2
block 2
 10
0.0
 20
0.0
 30
0.0
  0
POLYLINE
  5
A5
330
1F
100
AcDbEntity
  8
_U+30EC_U+30A4_U+30E4_U+30FC 1
 62
   179
420
  2234388
370
     9
100
AcDb2dPolyline
 66
     1
 10
0.0
 20
0.0
 30
0.0
  0
VERTEX
  5
A6
330
A5
100
AcDbEntity
  8
_U+30EC_U+30A4_U+30E4_U+30FC 1
 62
   179
420
  2234388
370
     9
100
AcDbVertex
100
AcDb2dVertex
 10
80.87483265893334
 20
-136.3927082992352
 30
0.0
  0
VERTEX
  5
A7
330
A5
100
AcDbEntity
  8
_U+30EC_U+30A4_U+30E4_U+30FC 1
 62
   179
420
  2234388
370
     9
100
AcDbVertex
100
AcDb2dVertex
 10
103.8737559610708
 20
-136.3927082992352
 30
0.0
  0
SEQEND
  5
A8
330
A5
100
AcDbEntity
  8
_U+30EC_U+30A4_U+30E4_U+30FC 1
 62
   179
420
  2234388
370
     9
  0
POLYLINE
  5
A9
330
1F
100
AcDbEntity
  8
_U+30EC_U+30A4_U+30E4_U+30FC 1
 62
   179
420
  2234388
370
     9
100
AcDb2dPolyline
 66
     1
 10
0.0
 20
0.0
 30
0.0
  0
VERTEX
  5
AA
330
A9
100
AcDbEntity
  8
_U+30EC_U+30A4_U+30E4_U+30FC 1
 62
   179
420
  2234388
370
     9
100
AcDbVertex
100
AcDb2dVertex
 10
80.87483265893334
 20
-134.9326669107114
 30
0.0
  0
VERTEX
  5
AB
330
A9
100
AcDbEntity
  8
_U+30EC_U+30A4_U+30E4_U+30FC 1
 62
   179
420
  2234388
370
     9
100
AcDbVertex
100
AcDb2dVertex
 10
80.87483265893334
 20
-137.3924805212077
 30
0.0
  0
SEQEND
  5
AC
330
A9
100
AcDbEntity
  8
_U+30EC_U+30A4_U+30E4_U+30FC 1
 62
   179
420
  2234388
370
     9
  0
POLYLINE
  5
AD
330
1F
100
AcDbEntity
  8
_U+30EC_U+30A4_U+30E4_U+30FC 1
 62
   179
420
  2234388
370
     9
100
AcDb2dPolyline
 66
     1
 10
0.0
 20
0.0
 30
0.0
  0
VERTEX
  5
AE
330
AD
100
AcDbEntity
  8
_U+30EC_U+30A4_U+30E4_U+30FC 1
 62
   179
420
  2234388
370
     9
100
AcDbVertex
100
AcDb2dVertex
 10
103.8737559610708
 20
-134.9326669107114
 30
0.0
  0
VERTEX
  5
AF
330
AD
100
AcDbEntity
  8
_U+30EC_U+30A4_U+30E4_U+30FC 1
 62
   179
420
  2234388
370
     9
100
AcDbVertex
100
AcDb2dVertex
 10
103.8737559610708
 20
-137.3924805212077
 30
0.0
  0
SEQEND
  5
B0
330
AD
100
AcDbEntity
  8
_U+30EC_U+30A4_U+30E4_U+30FC 1
 62
   179
420
  2234388
370
     9
  0
INSERT
  5
B2
330
1F
100
AcDbEntity
  8
_U+30EC_U+30A4_U+30E4_U+30FC 1
100
AcDbBlockReference
  2
block 3
 10
0.0
 20
0.0
 30
0.0
  0
POLYLINE
  5
B9
330
1F
100
AcDbEntity
  8
_U+30EC_U+30A4_U+30E4_U+30FC 1
 62
   179
420
  2234388
370
     9
100
AcDb2dPolyline
 66
     1
 10
0.0
 20
0.0
 30
0.0
  0
VERTEX
  5
BA
330
B9
100
AcDbEntity
  8
_U+30EC_U+30A4_U+30E4_U+30FC 1
 62
   179
420
  2234388
370
     9
100
AcDbVertex
100
AcDb2dVertex
 10
92.8742509639138
 20
-121.8924833028602
 30
0.0
  0
VERTEX
  5
BB
330
B9
100
AcDbEntity
  8
_U+30EC_U+30A4_U+30E4_U+30FC 1
 62
   179
420
  2234388
370
     9
100
AcDbVertex
100
AcDb2dVertex
 10
80.87483265893334
 20
-121.8924833028602
 30
0.0
  0
SEQEND
  5
BC
330
B9
100
AcDbEntity
  8
_U+30EC_U+30A4_U+30E4_U+30FC 1
 62
   179
420
  2234388
370
     9
  0
POLYLINE
  5
BD
330
1F
100
AcDbEntity
  8
_U+30EC_U+30A4_U+30E4_U+30FC 1
 62
   179
420
  2234388
370
     9
100
AcDb2dPolyline
 66
     1
 10
0.0
 20
0.0
 30
0.0
  0
VERTEX
  5
BE
330
BD
100
AcDbEntity
  8
_U+30EC_U+30A4_U+30E4_U+30FC 1
 62
   179
420
  2234388
370
     9
100
AcDbVertex
100
AcDb2dVertex
 10
92.8742509639138
 20
-124.3526144133564
 30
0.0
  0
VERTEX
  5
BF
330
BD
100
AcDbEntity
  8
_U+30EC_U+30A4_U+30E4_U+30FC 1
 62
   179
420
  2234388
370
     9
100
AcDbVertex
100
AcDb2dVertex
 10
92.8742509639138
 20
-120.8923583031102
 30
0.0
  0
SEQEND
  5
C0
330
BD
100
AcDbEntity
  8
_U+30EC_U+30A4_U+30E4_U+30FC 1
 62
   179
420
  2234388
370
     9
  0
POLYLINE
  5
C1
330
1F
100
AcDbEntity
  8
_U+30EC_U+30A4_U+30E4_U+30FC 1
 62
   179
420
  2234388
370
     9
100
AcDb2dPolyline
 66
     1
 10
0.0
 20
0.0
 30
0.0
  0
VERTEX
  5
C2
330
C1
100
AcDbEntity
  8
_U+30EC_U+30A4_U+30E4_U+30FC 1
 62
   179
420
  2234388
370
     9
100
AcDbVertex
100
AcDb2dVertex
 10
80.87483265893334
 20
-124.3526144133564
 30
0.0
  0
VERTEX
  5
C3
330
C1
100
AcDbEntity
  8
_U+30EC_U+30A4_U+30E4_U+30FC 1
 62
   179
420
  2234388
370
     9
100
AcDbVertex
100
AcDb2dVertex
 10
80.87483265893334
 20
-120.8923583031102
 30
0.0
  0
SEQEND
  5
C4
330
C1
100
AcDbEntity
  8
_U+30EC_U+30A4_U+30E4_U+30FC 1
 62
   179
420
  2234388
370
     9
  0
INSERT
  5
C6
330
1F
100
AcDbEntity
  8
_U+30EC_U+30A4_U+30E4_U+30FC 1
100
AcDbBlockReference
  2
block 4
 10
0.0
 20
0.0
 30
0.0
  0
POLYLINE
  5
CD
330
1F
100
AcDbEntity
  8
_U+30EC_U+30A4_U+30E4_U+30FC 1
 62
   179
420
  2234388
370
     9
100
AcDb2dPolyline
 66
     1
 10
0.0
 20
0.0
 30
0.0
  0
VERTEX
  5
CE
330
CD
100
AcDbEntity
  8
_U+30EC_U+30A4_U+30E4_U+30FC 1
 62
   179
420
  2234388
370
     9
100
AcDbVertex
100
AcDb2dVertex
 10
76.8740152610027
 20
-126.8923321904992
 30
0.0
  0
VERTEX
  5
CF
330
CD
100
AcDbEntity
  8
_U+30EC_U+30A4_U+30E4_U+30FC 1
 62
   179
420
  2234388
370
     9
100
AcDbVertex
100
AcDb2dVertex
 10
76.8740152610027
 20
-131.3925066338184
 30
0.0
  0
SEQEND
  5
D0
330
CD
100
AcDbEntity
  8
_U+30EC_U+30A4_U+30E4_U+30FC 1
 62
   179
420
  2234388
370
     9
  0
POLYLINE
  5
D1
330
1F
100
AcDbEntity
  8
_U+30EC_U+30A4_U+30E4_U+30FC 1
 62
   179
420
  2234388
370
     9
100
AcDb2dPolyline
 66
     1
 10
0.0
 20
0.0
 30
0.0
  0
VERTEX
  5
D2
330
D1
100
AcDbEntity
  8
_U+30EC_U+30A4_U+30E4_U+30FC 1
 62
   179
420
  2234388
370
     9
100
AcDbVertex
100
AcDb2dVertex
 10
78.33405661264284
 20
-126.8923321904992
 30
0.0
  0
VERTEX
  5
D3
330
D1
100
AcDbEntity
  8
_U+30EC_U+30A4_U+30E4_U+30FC 1
 62
   179
420
  2234388
370
     9
100
AcDbVertex
100
AcDb2dVertex
 10
75.87459584205557
 20
-126.8923321904992
 30
0.0
  0
SEQEND
  5
D4
330
D1
100
AcDbEntity
  8
_U+30EC_U+30A4_U+30E4_U+30FC 1
 62
   179
420
  2234388
370
     9
  0
POLYLINE
  5
D5
330
1F
100
AcDbEntity
  8
_U+30EC_U+30A4_U+30E4_U+30FC 1
 62
   179
420
  2234388
370
     9
100
AcDb2dPolyline
 66
     1
 10
0.0
 20
0.0
 30
0.0
  0
VERTEX
  5
D6
330
D5
100
AcDbEntity
  8
_U+30EC_U+30A4_U+30E4_U+30FC 1
 62
   179
420
  2234388
370
     9
100
AcDbVertex
100
AcDb2dVertex
 10
78.69819382557515
 20
-131.3925066338184
 30
0.0
  0
VERTEX
  5
D7
330
D5
100
AcDbEntity
  8
_U+30EC_U+30A4_U+30E4_U+30FC 1
 62
   179
420
  2234388
370
     9
100
AcDbVertex
100
AcDb2dVertex
 10
75.87459584205557
 20
-131.3925066338184
 30
0.0
  0
SEQEND
  5
D8
330
D5
100
AcDbEntity
  8
_U+30EC_U+30A4_U+30E4_U+30FC 1
 62
   179
420
  2234388
370
     9
  0
INSERT
  5
DA
330
1F
100
AcDbEntity
  8
_U+30EC_U+30A4_U+30E4_U+30FC 1
100
AcDbBlockReference
  2
block 5
 10
0.0
 20
0.0
 30
0.0
  0
POLYLINE
  5
FC
330
1F
100
AcDbEntity
  8
_U+30EC_U+30A4_U+30E4_U+30FC 1
 62
   179
420
  2234388
370
     9
100
AcDb2dPolyline
 66
     1
 10
0.0
 20
0.0
 30
0.0
  0
VERTEX
  5
FD
330
FC
100
AcDbEntity
  8
_U+30EC_U+30A4_U+30E4_U+30FC 1
 62
   179
420
  2234388
370
     9
100
AcDbVertex
100
AcDb2dVertex
 10
76.8740152610027
 20
-132.3922788557909
 30
0.0
  0
VERTEX
  5
FE
330
FC
100
AcDbEntity
  8
_U+30EC_U+30A4_U+30E4_U+30FC 1
 62
   179
420
  2234388
370
     9
100
AcDbVertex
100
AcDb2dVertex
 10
76.8740152610027
 20
-136.1625913548483
 30
0.0
  0
SEQEND
  5
FF
330
FC
100
AcDbEntity
  8
_U+30EC_U+30A4_U+30E4_U+30FC 1
 62
   179
420
  2234388
370
     9
  0
POLYLINE
  5
100
330
1F
100
AcDbEntity
  8
_U+30EC_U+30A4_U+30E4_U+30FC 1
 62
   179
420
  2234388
370
     9
100
AcDb2dPolyline
 66
     1
 10
0.0
 20
0.0
 30
0.0
  0
VERTEX
  5
101
330
100
100
AcDbEntity
  8
_U+30EC_U+30A4_U+30E4_U+30FC 1
 62
   179
420
  2234388
370
     9
100
AcDbVertex
100
AcDb2dVertex
 10
76.8740152610027
 20
-131.3925066338184
 30
0.0
  0
VERTEX
  5
102
330
100
100
AcDbEntity
  8
_U+30EC_U+30A4_U+30E4_U+30FC 1
 62
   179
420
  2234388
370
     9
100
AcDbVertex
100
AcDb2dVertex
 10
76.8740152610027
 20
-132.3922788557909
 30
0.0
  0
SEQEND
  5
103
330
100
100
AcDbEntity
  8
_U+30EC_U+30A4_U+30E4_U+30FC 1
 62
   179
420
  2234388
370
     9
  0
POLYLINE
  5
104
330
1F
100
AcDbEntity
  8
_U+30EC_U+30A4_U+30E4_U+30FC 1
 62
   179
420
  2234388
370
     9
100
AcDb2dPolyline
 66
     1
 10
0.0
 20
0.0
 30
0.0
  0
VERTEX
  5
105
330
104
100
AcDbEntity
  8
_U+30EC_U+30A4_U+30E4_U+30FC 1
 62
   179
420
  2234388
370
     9
100
AcDbVertex
100
AcDb2dVertex
 10
78.33405661264284
 20
-132.3922788557909
 30
0.0
  0
VERTEX
  5
106
330
104
100
AcDbEntity
  8
_U+30EC_U+30A4_U+30E4_U+30FC 1
 62
   179
420
  2234388
370
     9
100
AcDbVertex
100
AcDb2dVertex
 10
75.87459584205557
 20
-132.3922788557909
 30
0.0
  0
SEQEND
  5
107
330
104
100
AcDbEntity
  8
_U+30EC_U+30A4_U+30E4_U+30FC 1
 62
   179
420
  2234388
370
     9
  0
INSERT
  5
109
330
1F
100
AcDbEntity
  8
_U+30EC_U+30A4_U+30E4_U+30FC 1
100
AcDbBlockReference
  2
block 6
 10
0.0
 20
0.0
 30
0.0
  0
POLYLINE
  5
10E
330
1F
100
AcDbEntity
  8
_U+30EC_U+30A4_U+30E4_U+30FC 1
 62
   179
420
  2234388
370
     9
100
AcDb2dPolyline
 66
     1
 10
0.0
 20
0.0
 30
0.0
  0
VERTEX
  5
10F
330
10E
100
AcDbEntity
  8
_U+30EC_U+30A4_U+30E4_U+30FC 1
 62
   179
420
  2234388
370
     9
100
AcDbVertex
100
AcDb2dVertex
 10
96.87401002853811
 20
-127.6922910791882
 30
0.0
  0
VERTEX
  5
110
330
10E
100
AcDbEntity
  8
_U+30EC_U+30A4_U+30E4_U+30FC 1
 62
   179
420
  2234388
370
     9
100
AcDbVertex
100
AcDb2dVertex
 10
103.8737559610708
 20
-127.6922910791882
 30
0.0
  0
SEQEND
  5
111
330
10E
100
AcDbEntity
  8
_U+30EC_U+30A4_U+30E4_U+30FC 1
 62
   179
420
  2234388
370
     9
  0
POLYLINE
  5
112
330
1F
100
AcDbEntity
  8
_U+30EC_U+30A4_U+30E4_U+30FC 1
 62
   179
420
  2234388
370
     9
100
AcDb2dPolyline
 66
     1
 10
0.0
 20
0.0
 30
0.0
  0
VERTEX
  5
113
330
112
100
AcDbEntity
  8
_U+30EC_U+30A4_U+30E4_U+30FC 1
 62
   179
420
  2234388
370
     9
100
AcDbVertex
100
AcDb2dVertex
 10
96.87401002853811
 20
-128.8527888566758
 30
0.0
  0
VERTEX
  5
114
330
112
100
AcDbEntity
  8
_U+30EC_U+30A4_U+30E4_U+30FC 1
 62
   179
420
  2234388
370
     9
100
AcDbVertex
100
AcDb2dVertex
 10
96.87401002853811
 20
-126.6925188572156
 30
0.0
  0
SEQEND
  5
115
330
112
100
AcDbEntity
  8
_U+30EC_U+30A4_U+30E4_U+30FC 1
 62
   179
420
  2234388
370
     9
  0
POLYLINE
  5
116
330
1F
100
AcDbEntity
  8
_U+30EC_U+30A4_U+30E4_U+30FC 1
 62
   179
420
  2234388
370
     9
100
AcDb2dPolyline
 66
     1
 10
0.0
 20
0.0
 30
0.0
  0
VERTEX
  5
117
330
116
100
AcDbEntity
  8
_U+30EC_U+30A4_U+30E4_U+30FC 1
 62
   179
420
  2234388
370
     9
100
AcDbVertex
100
AcDb2dVertex
 10
103.8737559610708
 20
-129.8525258008702
 30
0.0
  0
VERTEX
  5
118
330
116
100
AcDbEntity
  8
_U+30EC_U+30A4_U+30E4_U+30FC 1
 62
   179
420
  2234388
370
     9
100
AcDbVertex
100
AcDb2dVertex
 10
103.8737559610708
 20
-126.6925188572156
 30
0.0
  0
SEQEND
  5
119
330
116
100
AcDbEntity
  8
_U+30EC_U+30A4_U+30E4_U+30FC 1
 62
   179
420
  2234388
370
     9
  0
INSERT
  5
11B
330
1F
100
AcDbEntity
  8
_U+30EC_U+30A4_U+30E4_U+30FC 1
100
AcDbBlockReference
  2
block 7
 10
0.0
 20
0.0
 30
0.0
  0
ENDSEC
  0
SECTION
  2
OBJECTS
  0
DICTIONARY
  5
C
330
0
100
AcDbDictionary
281
     1
  3
ACAD_GROUP
350
D
  3
ACAD_LAYOUT
350
1A
  3
ACAD_MATERIAL
350
3B
  3
ACAD_MLEADERSTYLE
350
121
  3
ACAD_MLINESTYLE
350
17
  3
ACAD_PLOTSETTINGS
350
19
  3
ACAD_PLOTSTYLENAME
350
E
  3
ACAD_TABLESTYLE
350
120
  3
ACAD_VISUALSTYLE
350
2A
  0
SUN
  5
3F
330
29
100
AcDbSun
 90
        1
290
     0
 63
     7
421
 16777215
 40
1.0
291
     1
 91
  2455826
 92
 54000000
292
     0
 70
     2
 71
   256
280
     1
  0
DICTIONARY
  5
D
102
{ACAD_REACTORS
330
C
102
}
330
C
100
AcDbDictionary
281
     1
  0
DICTIONARY
  5
1A
102
{ACAD_REACTORS
330
C
102
}
330
C
100
AcDbDictionary
281
     1
  3
Layout1
350
1E
  3
Layout2
350
26
  3
Model
350
22
  0
DICTIONARY
  5
3B
102
{ACAD_REACTORS
330
C
102
}
330
C
100
AcDbDictionary
281
     1
  3
ByBlock
350
3D
  3
ByLayer
350
3C
  3
Global
350
3E
  0
DICTIONARY
  5
121
102
{ACAD_REACTORS
330
C
102
}
330
C
100
AcDbDictionary
281
     1
  0
DICTIONARY
  5
17
102
{ACAD_REACTORS
330
C
102
}
330
C
100
AcDbDictionary
281
     1
  3
Standard
350
18
  0
DICTIONARY
  5
19
102
{ACAD_REACTORS
330
C
102
}
330
C
100
AcDbDictionary
281
     1
  0
ACDBDICTIONARYWDFLT
  5
E
102
{ACAD_REACTORS
330
C
102
}
330
C
100
AcDbDictionary
281
     1
  3
Normal
350
F
100
AcDbDictionaryWithDefault
340
F
  0
DICTIONARY
  5
120
102
{ACAD_REACTORS
330
C
102
}
330
C
100
AcDbDictionary
281
     1
  0
DICTIONARY
  5
2A
102
{ACAD_REACTORS
330
C
102
}
330
C
100
AcDbDictionary
281
     1
  3
2dWireframe
350
2F
  3
3D Hidden
350
31
  3
3dWireframe
350
30
  3
Basic
350
32
  3
Brighten
350
36
  3
ColorChange
350
3A
  3
Conceptual
350
34
  3
Dim
350
35
  3
Facepattern
350
39
  3
Flat
350
2B
  3
FlatWithEdges
350
2C
  3
Gouraud
350
2D
  3
GouraudWithEdges
350
2E
  3
Linepattern
350
38
  3
Realistic
350
33
  3
Thicken
350
37
  0
LAYOUT
  5
1E
102
{ACAD_REACTORS
330
1A
102
}
330
1A
100
AcDbPlotSettings
  1

  2
none_device
  4

  6

 40
0.0
 41
0.0
 42
0.0
 43
0.0
 44
0.0
 45
0.0
 46
0.0
 47
0.0
 48
0.0
 49
0.0
140
0.0
141
0.0
142
1.0
143
1.0
 70
   688
 72
     0
 73
     0
 74
     5
  7

 75
    16
 76
     0
 77
     2
 78
   300
147
1.0
148
0.0
149
0.0
100
AcDbLayout
  1
Layout1
 70
     1
 71
     1
 10
0.0
 20
0.0
 11
12.0
 21
9.0
 12
0.0
 22
0.0
 32
0.0
 14
1.000000000000000E+20
 24
1.000000000000000E+20
 34
1.000000000000000E+20
 15
-1.000000000000000E+20
 25
-1.000000000000000E+20
 35
-1.000000000000000E+20
146
0.0
 13
0.0
 23
0.0
 33
0.0
 16
1.0
 26
0.0
 36
0.0
 17
0.0
 27
1.0
 37
0.0
 76
     0
330
1B
  0
LAYOUT
  5
26
102
{ACAD_REACTORS
330
1A
102
}
330
1A
100
AcDbPlotSettings
  1

  2
none_device
  4

  6

 40
0.0
 41
0.0
 42
0.0
 43
0.0
 44
0.0
 45
0.0
 46
0.0
 47
0.0
 48
0.0
 49
0.0
140
0.0
141
0.0
142
1.0
143
1.0
 70
   688
 72
     0
 73
     0
 74
     5
  7

 75
    16
 76
     0
 77
     2
 78
   300
147
1.0
148
0.0
149
0.0
100
AcDbLayout
  1
Layout2
 70
     1
 71
     2
 10
0.0
 20
0.0
 11
0.0
 21
0.0
 12
0.0
 22
0.0
 32
0.0
 14
0.0
 24
0.0
 34
0.0
 15
0.0
 25
0.0
 35
0.0
146
0.0
 13
0.0
 23
0.0
 33
0.0
 16
1.0
 26
0.0
 36
0.0
 17
0.0
 27
1.0
 37
0.0
 76
     0
330
23
  0
LAYOUT
  5
22
102
{ACAD_REACTORS
330
1A
102
}
330
1A
100
AcDbPlotSettings
  1

  2
none_device
  4

  6

 40
0.0
 41
0.0
 42
0.0
 43
0.0
 44
0.0
 45
0.0
 46
0.0
 47
0.0
 48
0.0
 49
0.0
140
0.0
141
0.0
142
1.0
143
1.0
 70
  1712
 72
     0
 73
     0
 74
     0
  7

 75
     0
 76
     0
 77
     2
 78
   300
147
1.0
148
0.0
149
0.0
100
AcDbLayout
  1
Model
 70
     1
 71
     0
 10
0.0
 20
0.0
 11
12.0
 21
9.0
 12
0.0
 22
0.0
 32
0.0
 14
1.000000000000000E+20
 24
1.000000000000000E+20
 34
1.000000000000000E+20
 15
-1.000000000000000E+20
 25
-1.000000000000000E+20
 35
-1.000000000000000E+20
146
0.0
 13
0.0
 23
0.0
 33
0.0
 16
1.0
 26
0.0
 36
0.0
 17
0.0
 27
1.0
 37
0.0
 76
     0
330
1F
331
29
  0
MATERIAL
  5
3D
102
{ACAD_REACTORS
330
3B
102
}
330
3B
100
AcDbMaterial
  1
ByBlock
 72
     1
 94
      127
  0
MATERIAL
  5
3C
102
{ACAD_REACTORS
330
3B
102
}
330
3B
100
AcDbMaterial
  1
ByLayer
 72
     1
 94
      127
  0
MATERIAL
  5
3E
102
{ACAD_REACTORS
330
3B
102
}
330
3B
100
AcDbMaterial
  1
Global
 72
     1
 94
      127
  0
MLINESTYLE
  5
18
102
{ACAD_REACTORS
330
17
102
}
330
17
100
AcDbMlineStyle
  2
Standard
 70
     0
  3

 62
   256
 51
90.0
 52
90.0
 71
     2
 49
0.5
 62
   256
  6
BYLAYER
 49
-0.5
 62
   256
  6
BYLAYER
  0
ACDBPLACEHOLDER
  5
F
102
{ACAD_REACTORS
330
E
102
}
330
E
  0
VISUALSTYLE
  5
2F
102
{ACAD_REACTORS
330
2A
102
}
330
2A
100
AcDbVisualStyle
  2
2dWireframe
 70
     4
177
     2
291
     0
 71
     0
176
     1
 72
     2
176
     1
 73
     0
176
     1
 90
        0
176
     1
 40
-0.6
176
     1
 41
-30.0
176
     1
 62
     5
 63
     7
421
 16777215
176
     1
 74
     1
176
     1
 91
        4
176
     1
 64
     7
176
     1
 65
   257
176
     1
 75
     1
176
     1
175
     1
176
     1
 42
1.0
176
     1
 92
        0
176
     1
 66
   257
176
     1
 43
1.0
176
     1
 76
     1
176
     1
 77
     6
176
     1
 78
     2
176
     1
 67
     7
176
     1
 79
     5
176
     1
170
     0
176
     1
171
     0
176
     1
290
     0
176
     1
 93
        1
176
     1
 44
0.0
176
     1
173
     0
176
     1
  0
VISUALSTYLE
  5
31
102
{ACAD_REACTORS
330
2A
102
}
330
2A
100
AcDbVisualStyle
  2
3D Hidden
 70
     6
177
     2
291
     0
 71
     1
176
     1
 72
     2
176
     1
 73
     2
176
     1
 90
        0
176
     1
 40
-0.6
176
     1
 41
-30.0
176
     1
 62
     5
 63
     7
421
 16777215
176
     1
 74
     2
176
     1
 91
        2
176
     1
 64
     7
176
     1
 65
   257
176
     1
 75
     2
176
     1
175
     1
176
     1
 42
40.0
176
     1
 92
        0
176
     1
 66
   257
176
     1
 43
1.0
176
     1
 76
     1
176
     1
 77
     6
176
     1
 78
     2
176
     1
 67
     7
176
     1
 79
     3
176
     1
170
     0
176
     1
171
     0
176
     1
290
     0
176
     1
 93
        1
176
     1
 44
0.0
176
     1
173
     0
176
     1
  0
VISUALSTYLE
  5
30
102
{ACAD_REACTORS
330
2A
102
}
330
2A
100
AcDbVisualStyle
  2
3dWireframe
 70
     5
177
     2
291
     0
 71
     0
176
     1
 72
     2
176
     1
 73
     0
176
     1
 90
        0
176
     1
 40
-0.6
176
     1
 41
-30.0
176
     1
 62
     5
 63
     7
421
 16777215
176
     1
 74
     1
176
     1
 91
        4
176
     1
 64
     7
176
     1
 65
   257
176
     1
 75
     1
176
     1
175
     1
176
     1
 42
1.0
176
     1
 92
        0
176
     1
 66
   257
176
     1
 43
1.0
176
     1
 76
     1
176
     1
 77
     6
176
     1
 78
     2
176
     1
 67
     7
176
     1
 79
     5
176
     1
170
     0
176
     1
171
     0
176
     1
290
     0
176
     1
 93
        1
176
     1
 44
0.0
176
     1
173
     0
176
     1
  0
VISUALSTYLE
  5
32
102
{ACAD_REACTORS
330
2A
102
}
330
2A
100
AcDbVisualStyle
  2
Basic
 70
     7
177
     2
291
     1
 71
     1
176
     1
 72
     0
176
     1
 73
     1
176
     1
 90
        0
176
     1
 40
-0.6
176
     1
 41
-30.0
176
     1
 62
     5
 63
     7
421
 16777215
176
     1
 74
     0
176
     1
 91
        4
176
     1
 64
     7
176
     1
 65
   257
176
     1
 75
     1
176
     1
175
     1
176
     1
 42
1.0
176
     1
 92
        8
176
     1
 66
     7
176
     1
 43
1.0
176
     1
 76
     1
176
     1
 77
     6
176
     1
 78
     2
176
     1
 67
     7
176
     1
 79
     5
176
     1
170
     0
176
     1
171
     0
176
     1
290
     0
176
     1
 93
        1
176
     1
 44
0.0
176
     1
173
     0
176
     1
  0
VISUALSTYLE
  5
36
102
{ACAD_REACTORS
330
2A
102
}
330
2A
100
AcDbVisualStyle
  2
Brighten
 70
    12
177
     2
291
     1
 71
     2
176
     1
 72
     2
176
     1
 73
     0
176
     1
 90
        0
176
     1
 40
-0.6
176
     1
 41
-30.0
176
     1
 62
     5
 63
     7
421
 16777215
176
     1
 74
     1
176
     1
 91
        4
176
     1
 64
     7
176
     1
 65
   257
176
     1
 75
     1
176
     1
175
     1
176
     1
 42
1.0
176
     1
 92
        8
176
     1
 66
     7
176
     1
 43
1.0
176
     1
 76
     1
176
     1
 77
     6
176
     1
 78
     2
176
     1
 67
     7
176
     1
 79
     5
176
     1
170
     0
176
     1
171
     0
176
     1
290
     0
176
     1
 93
        1
176
     1
 44
50.0
176
     1
173
     0
176
     1
  0
VISUALSTYLE
  5
3A
102
{ACAD_REACTORS
330
2A
102
}
330
2A
100
AcDbVisualStyle
  2
ColorChange
 70
    16
177
     2
291
     1
 71
     2
176
     1
 72
     2
176
     1
 73
     3
176
     1
 90
        0
176
     1
 40
-0.6
176
     1
 41
-30.0
176
     1
 62
     5
 63
     8
421
  8421504
176
     1
 74
     1
176
     1
 91
        4
176
     1
 64
     7
176
     1
 65
   257
176
     1
 75
     1
176
     1
175
     1
176
     1
 42
1.0
176
     1
 92
        8
176
     1
 66
     8
424
  8421504
176
     1
 43
1.0
176
     1
 76
     1
176
     1
 77
     6
176
     1
 78
     2
176
     1
 67
     7
176
     1
 79
     5
176
     1
170
     0
176
     1
171
     0
176
     1
290
     0
176
     1
 93
        1
176
     1
 44
0.0
176
     1
173
     0
176
     1
  0
VISUALSTYLE
  5
34
102
{ACAD_REACTORS
330
2A
102
}
330
2A
100
AcDbVisualStyle
  2
Conceptual
 70
     9
177
     2
291
     0
 71
     3
176
     1
 72
     2
176
     1
 73
     0
176
     1
 90
        0
176
     1
 40
-0.6
176
     1
 41
-30.0
176
     1
 62
     5
 63
     7
421
 16777215
176
     1
 74
     2
176
     1
 91
        2
176
     1
 64
     7
176
     1
 65
   257
176
     1
 75
     1
176
     1
175
     1
176
     1
 42
40.0
176
     1
 92
        8
176
     1
 66
     7
176
     1
 43
1.0
176
     1
 76
     1
176
     1
 77
     6
176
     1
 78
     2
176
     1
 67
     7
176
     1
 79
     3
176
     1
170
     0
176
     1
171
     0
176
     1
290
     0
176
     1
 93
        1
176
     1
 44
0.0
176
     1
173
     0
176
     1
  0
VISUALSTYLE
  5
35
102
{ACAD_REACTORS
330
2A
102
}
330
2A
100
AcDbVisualStyle
  2
Dim
 70
    11
177
     2
291
     1
 71
     2
176
     1
 72
     2
176
     1
 73
     0
176
     1
 90
        0
176
     1
 40
-0.6
176
     1
 41
-30.0
176
     1
 62
     5
 63
     7
421
 16777215
176
     1
 74
     1
176
     1
 91
        4
176
     1
 64
     7
176
     1
 65
   257
176
     1
 75
     1
176
     1
175
     1
176
     1
 42
1.0
176
     1
 92
        8
176
     1
 66
     7
176
     1
 43
1.0
176
     1
 76
     1
176
     1
 77
     6
176
     1
 78
     2
176
     1
 67
     7
176
     1
 79
     5
176
     1
170
     0
176
     1
171
     0
176
     1
290
     0
176
     1
 93
        1
176
     1
 44
-50.0
176
     1
173
     0
176
     1
  0
VISUALSTYLE
  5
39
102
{ACAD_REACTORS
330
2A
102
}
330
2A
100
AcDbVisualStyle
  2
Facepattern
 70
    15
177
     2
291
     1
 71
     2
176
     1
 72
     2
176
     1
 73
     0
176
     1
 90
        0
176
     1
 40
-0.6
176
     1
 41
-30.0
176
     1
 62
     5
 63
     7
421
 16777215
176
     1
 74
     1
176
     1
 91
        4
176
     1
 64
     7
176
     1
 65
   257
176
     1
 75
     1
176
     1
175
     1
176
     1
 42
1.0
176
     1
 92
        8
176
     1
 66
     7
176
     1
 43
1.0
176
     1
 76
     1
176
     1
 77
     6
176
     1
 78
     2
176
     1
 67
     7
176
     1
 79
     5
176
     1
170
     0
176
     1
171
     0
176
     1
290
     0
176
     1
 93
        1
176
     1
 44
0.0
176
     1
173
     0
176
     1
  0
VISUALSTYLE
  5
2B
102
{ACAD_REACTORS
330
2A
102
}
330
2A
100
AcDbVisualStyle
  2
Flat
 70
     0
177
     2
291
     1
 71
     2
176
     1
 72
     1
176
     1
 73
     1
176
     1
 90
        2
176
     1
 40
-0.6
176
     1
 41
30.0
176
     1
 62
     5
 63
     7
421
 16777215
176
     1
 74
     0
176
     1
 91
        4
176
     1
 64
     7
176
     1
 65
   257
176
     1
 75
     1
176
     1
175
     1
176
     1
 42
1.0
176
     1
 92
        8
176
     1
 66
     7
176
     1
 43
1.0
176
     1
 76
     1
176
     1
 77
     6
176
     1
 78
     2
176
     1
 67
     7
176
     1
 79
     5
176
     1
170
     0
176
     1
171
     0
176
     1
290
     0
176
     1
 93
       13
176
     1
 44
0.0
176
     1
173
     0
176
     1
  0
VISUALSTYLE
  5
2C
102
{ACAD_REACTORS
330
2A
102
}
330
2A
100
AcDbVisualStyle
  2
FlatWithEdges
 70
     1
177
     2
291
     1
 71
     2
176
     1
 72
     1
176
     1
 73
     1
176
     1
 90
        2
176
     1
 40
-0.6
176
     1
 41
30.0
176
     1
 62
     5
 63
     7
421
 16777215
176
     1
 74
     1
176
     1
 91
        4
176
     1
 64
     7
176
     1
 65
   257
176
     1
 75
     1
176
     1
175
     1
176
     1
 42
1.0
176
     1
 92
        0
176
     1
 66
   257
176
     1
 43
1.0
176
     1
 76
     1
176
     1
 77
     6
176
     1
 78
     2
176
     1
 67
     7
176
     1
 79
     5
176
     1
170
     0
176
     1
171
     0
176
     1
290
     0
176
     1
 93
       13
176
     1
 44
0.0
176
     1
173
     0
176
     1
  0
VISUALSTYLE
  5
2D
102
{ACAD_REACTORS
330
2A
102
}
330
2A
100
AcDbVisualStyle
  2
Gouraud
 70
     2
177
     2
291
     1
 71
     2
176
     1
 72
     2
176
     1
 73
     1
176
     1
 90
        2
176
     1
 40
-0.6
176
     1
 41
30.0
176
     1
 62
     5
 63
     7
421
 16777215
176
     1
 74
     0
176
     1
 91
        4
176
     1
 64
     7
176
     1
 65
   257
176
     1
 75
     1
176
     1
175
     1
176
     1
 42
1.0
176
     1
 92
        0
176
     1
 66
     7
176
     1
 43
1.0
176
     1
 76
     1
176
     1
 77
     6
176
     1
 78
     2
176
     1
 67
     7
176
     1
 79
     5
176
     1
170
     0
176
     1
171
     0
176
     1
290
     0
176
     1
 93
       13
176
     1
 44
0.0
176
     1
173
     0
176
     1
  0
VISUALSTYLE
  5
2E
102
{ACAD_REACTORS
330
2A
102
}
330
2A
100
AcDbVisualStyle
  2
GouraudWithEdges
 70
     3
177
     2
291
     1
 71
     2
176
     1
 72
     2
176
     1
 73
     1
176
     1
 90
        2
176
     1
 40
-0.6
176
     1
 41
30.0
176
     1
 62
     5
 63
     7
421
 16777215
176
     1
 74
     1
176
     1
 91
        4
176
     1
 64
     7
176
     1
 65
   257
176
     1
 75
     1
176
     1
175
     1
176
     1
 42
1.0
176
     1
 92
        0
176
     1
 66
   257
176
     1
 43
1.0
176
     1
 76
     1
176
     1
 77
     6
176
     1
 78
     2
176
     1
 67
     7
176
     1
 79
     5
176
     1
170
     0
176
     1
171
     0
176
     1
290
     0
176
     1
 93
       13
176
     1
 44
0.0
176
     1
173
     0
176
     1
  0
VISUALSTYLE
  5
38
102
{ACAD_REACTORS
330
2A
102
}
330
2A
100
AcDbVisualStyle
  2
Linepattern
 70
    14
177
     2
291
     1
 71
     2
176
     1
 72
     2
176
     1
 73
     0
176
     1
 90
        0
176
     1
 40
-0.6
176
     1
 41
-30.0
176
     1
 62
     5
 63
     7
421
 16777215
176
     1
 74
     1
176
     1
 91
        4
176
     1
 64
     7
176
     1
 65
   257
176
     1
 75
     7
176
     1
175
     7
176
     1
 42
1.0
176
     1
 92
        8
176
     1
 66
     7
176
     1
 43
1.0
176
     1
 76
     1
176
     1
 77
     6
176
     1
 78
     2
176
     1
 67
     7
176
     1
 79
     5
176
     1
170
     0
176
     1
171
     0
176
     1
290
     0
176
     1
 93
        1
176
     1
 44
0.0
176
     1
173
     0
176
     1
  0
VISUALSTYLE
  5
33
102
{ACAD_REACTORS
330
2A
102
}
330
2A
100
AcDbVisualStyle
  2
Realistic
 70
     8
177
     2
291
     0
 71
     2
176
     1
 72
     2
176
     1
 73
     0
176
     1
 90
        0
176
     1
 40
-0.6
176
     1
 41
-30.0
176
     1
 62
     5
 63
     7
421
 16777215
176
     1
 74
     1
176
     1
 91
        0
176
     1
 64
     7
176
     1
 65
   257
176
     1
 75
     1
176
     1
175
     1
176
     1
 42
1.0
176
     1
 92
        8
176
     1
 66
     8
424
  7895160
176
     1
 43
1.0
176
     1
 76
     1
176
     1
 77
     6
176
     1
 78
     2
176
     1
 67
     7
176
     1
 79
     5
176
     1
170
     0
176
     1
171
     0
176
     1
290
     0
176
     1
 93
       13
176
     1
 44
0.0
176
     1
173
     0
176
     1
  0
VISUALSTYLE
  5
37
102
{ACAD_REACTORS
330
2A
102
}
330
2A
100
AcDbVisualStyle
  2
Thicken
 70
    13
177
     2
291
     1
 71
     2
176
     1
 72
     2
176
     1
 73
     0
176
     1
 90
        0
176
     1
 40
-0.6
176
     1
 41
-30.0
176
     1
 62
     5
 63
     7
421
 16777215
176
     1
 74
     1
176
     1
 91
        4
176
     1
 64
     7
176
     1
 65
   257
176
     1
 75
     1
176
     1
175
     1
176
     1
 42
1.0
176
     1
 92
       12
176
     1
 66
     7
176
     1
 43
1.0
176
     1
 76
     1
176
     1
 77
     6
176
     1
 78
     2
176
     1
 67
     7
176
     1
 79
     5
176
     1
170
     0
176
     1
171
     0
176
     1
290
     0
176
     1
 93
        1
176
     1
 44
0.0
176
     1
173
     0
176
     1
  0
ENDSEC
  0
EOF
