  0
SECTION
  2
HEADER
  9
$ACADVER
  1
AC1024
  9
$ACADMAINTVER
 70
     6
  9
$DWGCODEPAGE
  3
UNDEFINED
  9
$INSBASE
 10
0.0
 20
0.0
 30
0.0
  9
$EXTMIN
 10
1.000000000000000E+20
 20
1.000000000000000E+20
 30
1.000000000000000E+20
  9
$EXTMAX
 10
-1.000000000000000E+20
 20
-1.000000000000000E+20
 30
-1.000000000000000E+20
  9
$LIMMIN
 10
0.0
 20
0.0
  9
$LIMMAX
 10
12.0
 20
9.0
  9
$ORTHOMODE
 70
     0
  9
$REGENMODE
 70
     1
  9
$FILLMODE
 70
     1
  9
$QTEXTMODE
 70
     0
  9
$MIRRTEXT
 70
     1
  9
$LTSCALE
 40
1.0
  9
$ATTMODE
 70
     1
  9
$TEXTSIZE
 40
0.2
  9
$TRACEWID
 40
0.05
  9
$TEXTSTYLE
  7
Standard
  9
$CLAYER
  8
0
  9
$CELTYPE
  6
ByLayer
  9
$CECOLOR
 62
   256
  9
$CELTSCALE
 40
1.0
  9
$DISPSILH
 70
     0
  9
$DIMSCALE
 40
1.0
  9
$DIMASZ
 40
0.18
  9
$DIMEXO
 40
0.0625
  9
$DIMDLI
 40
0.38
  9
$DIMRND
 40
0.0
  9
$DIMDLE
 40
0.0
  9
$DIMEXE
 40
0.18
  9
$DIMTP
 40
0.0
  9
$DIMTM
 40
0.0
  9
$DIMTXT
 40
0.18
  9
$DIMCEN
 40
0.09
  9
$DIMTSZ
 40
0.0
  9
$DIMTOL
 70
     0
  9
$DIMLIM
 70
     0
  9
$DIMTIH
 70
     1
  9
$DIMTOH
 70
     1
  9
$DIMSE1
 70
     0
  9
$DIMSE2
 70
     0
  9
$DIMTAD
 70
     0
  9
$DIMZIN
 70
     0
  9
$DIMBLK
  1

  9
$DIMASO
 70
     1
  9
$DIMSHO
 70
     1
  9
$DIMPOST
  1

  9
$DIMAPOST
  1

  9
$DIMALT
 70
     0
  9
$DIMALTD
 70
     2
  9
$DIMALTF
 40
25.4
  9
$DIMLFAC
 40
1.0
  9
$DIMTOFL
 70
     0
  9
$DIMTVP
 40
0.0
  9
$DIMTIX
 70
     0
  9
$DIMSOXD
 70
     0
  9
$DIMSAH
 70
     0
  9
$DIMBLK1
  1

  9
$DIMBLK2
  1

  9
$DIMSTYLE
  2
Standard
  9
$DIMCLRD
 70
     0
  9
$DIMCLRE
 70
     0
  9
$DIMCLRT
 70
     0
  9
$DIMTFAC
 40
1.0
  9
$DIMGAP
 40
0.09
  9
$DIMJUST
 70
     0
  9
$DIMSD1
 70
     0
  9
$DIMSD2
 70
     0
  9
$DIMTOLJ
 70
     1
  9
$DIMTZIN
 70
     0
  9
$DIMALTZ
 70
     0
  9
$DIMALTTZ
 70
     0
  9
$DIMUPT
 70
     0
  9
$DIMDEC
 70
     4
  9
$DIMTDEC
 70
     4
  9
$DIMALTU
 70
     2
  9
$DIMALTTD
 70
     2
  9
$DIMTXSTY
  7
Standard
  9
$DIMAUNIT
 70
     0
  9
$DIMADEC
 70
     0
  9
$DIMALTRND
 40
0.0
  9
$DIMAZIN
 70
     0
  9
$DIMDSEP
 70
    46
  9
$DIMATFIT
 70
     3
  9
$DIMFRAC
 70
     0
  9
$DIMLDRBLK
  1

  9
$DIMLUNIT
 70
     2
  9
$DIMLWD
 70
    -2
  9
$DIMLWE
 70
    -2
  9
$DIMTMOVE
 70
     0
  9
$DIMFXL
 40
1.0
  9
$DIMFXLON
 70
     0
  9
$DIMJOGANG
 40
0.7853981633974483
  9
$DIMTFILL
 70
     0
  9
$DIMTFILLCLR
 70
     0
  9
$DIMARCSYM
 70
     0
  9
$DIMLTYPE
  6

  9
$DIMLTEX1
  6

  9
$DIMLTEX2
  6

  9
$DIMTXTDIRECTION
 70
     0
  9
$LUNITS
 70
     2
  9
$LUPREC
 70
     4
  9
$SKETCHINC
 40
0.1
  9
$FILLETRAD
 40
0.5
  9
$AUNITS
 70
     0
  9
$AUPREC
 70
     0
  9
$MENU
  1
.
  9
$ELEVATION
 40
0.0
  9
$PELEVATION
 40
0.0
  9
$THICKNESS
 40
0.0
  9
$LIMCHECK
 70
     0
  9
$CHAMFERA
 40
0.5
  9
$CHAMFERB
 40
0.5
  9
$CHAMFERC
 40
1.0
  9
$CHAMFERD
 40
0.0
  9
$SKPOLY
 70
     0
  9
$TDCREATE
 40
2457917.594525451
  9
$TDUCREATE
 40
2457917.219525463
  9
$TDUPDATE
 40
2457917.594525451
  9
$TDUUPDATE
 40
2457917.219525463
  9
$TDINDWG
 40
0.0000000116
  9
$TDUSRTIMER
 40
0.0000000116
  9
$USRTIMER
 70
     1
  9
$ANGBASE
 50
0.0
  9
$ANGDIR
 70
     0
  9
$PDMODE
 70
     0
  9
$PDSIZE
 40
0.0
  9
$PLINEWID
 40
0.0
  9
$SPLFRAME
 70
     0
  9
$SPLINETYPE
 70
     6
  9
$SPLINESEGS
 70
     8
  9
$HANDSEED
  5
10F
  9
$SURFTAB1
 70
     6
  9
$SURFTAB2
 70
     6
  9
$SURFTYPE
 70
     6
  9
$SURFU
 70
     6
  9
$SURFV
 70
     6
  9
$UCSBASE
  2

  9
$UCSNAME
  2

  9
$UCSORG
 10
0.0
 20
0.0
 30
0.0
  9
$UCSXDIR
 10
1.0
 20
0.0
 30
0.0
  9
$UCSYDIR
 10
0.0
 20
1.0
 30
0.0
  9
$UCSORTHOREF
  2

  9
$UCSORTHOVIEW
 70
     0
  9
$UCSORGTOP
 10
0.0
 20
0.0
 30
0.0
  9
$UCSORGBOTTOM
 10
0.0
 20
0.0
 30
0.0
  9
$UCSORGLEFT
 10
0.0
 20
0.0
 30
0.0
  9
$UCSORGRIGHT
 10
0.0
 20
0.0
 30
0.0
  9
$UCSORGFRONT
 10
0.0
 20
0.0
 30
0.0
  9
$UCSORGBACK
 10
0.0
 20
0.0
 30
0.0
  9
$PUCSBASE
  2

  9
$PUCSNAME
  2

  9
$PUCSORG
 10
0.0
 20
0.0
 30
0.0
  9
$PUCSXDIR
 10
1.0
 20
0.0
 30
0.0
  9
$PUCSYDIR
 10
0.0
 20
1.0
 30
0.0
  9
$PUCSORTHOREF
  2

  9
$PUCSORTHOVIEW
 70
     0
  9
$PUCSORGTOP
 10
0.0
 20
0.0
 30
0.0
  9
$PUCSORGBOTTOM
 10
0.0
 20
0.0
 30
0.0
  9
$PUCSORGLEFT
 10
0.0
 20
0.0
 30
0.0
  9
$PUCSORGRIGHT
 10
0.0
 20
0.0
 30
0.0
  9
$PUCSORGFRONT
 10
0.0
 20
0.0
 30
0.0
  9
$PUCSORGBACK
 10
0.0
 20
0.0
 30
0.0
  9
$USERI1
 70
     0
  9
$USERI2
 70
     0
  9
$USERI3
 70
     0
  9
$USERI4
 70
     0
  9
$USERI5
 70
     0
  9
$USERR1
 40
0.0
  9
$USERR2
 40
0.0
  9
$USERR3
 40
0.0
  9
$USERR4
 40
0.0
  9
$USERR5
 40
0.0
  9
$WORLDVIEW
 70
     1
  9
$SHADEDGE
 70
     3
  9
$SHADEDIF
 70
    70
  9
$TILEMODE
 70
     1
  9
$MAXACTVP
 70
    64
  9
$PINSBASE
 10
0.0
 20
0.0
 30
0.0
  9
$PLIMCHECK
 70
     0
  9
$PEXTMIN
 10
1.000000000000000E+20
 20
1.000000000000000E+20
 30
1.000000000000000E+20
  9
$PEXTMAX
 10
-1.000000000000000E+20
 20
-1.000000000000000E+20
 30
-1.000000000000000E+20
  9
$PLIMMIN
 10
0.0
 20
0.0
  9
$PLIMMAX
 10
12.0
 20
9.0
  9
$UNITMODE
 70
     0
  9
$VISRETAIN
 70
     1
  9
$PLINEGEN
 70
     0
  9
$PSLTSCALE
 70
     1
  9
$TREEDEPTH
 70
  3020
  9
$CMLSTYLE
  2
Standard
  9
$CMLJUST
 70
     0
  9
$CMLSCALE
 40
1.0
  9
$PROXYGRAPHICS
 70
     1
  9
$MEASUREMENT
 70
     0
  9
$CELWEIGHT
370
    -1
  9
$ENDCAPS
280
     0
  9
$JOINSTYLE
280
     0
  9
$LWDISPLAY
290
     1
  9
$INSUNITS
 70
     1
  9
$HYPERLINKBASE
  1

  9
$STYLESHEET
  1

  9
$XEDIT
290
     1
  9
$CEPSNTYPE
380
     0
  9
$PSTYLEMODE
290
     1
  9
$FINGERPRINTGUID
  2
{AF20DD76-50C9-4722-EC5D-E1845B6E520A}
  9
$VERSIONGUID
  2
{FAEB1C32-E019-11D5-929B-00C0DF256EC4}
  9
$EXTNAMES
290
     1
  9
$PSVPSCALE
 40
0.0
  9
$OLESTARTUP
290
     0
  9
$SORTENTS
280
   127
  9
$INDEXCTL
280
     0
  9
$HIDETEXT
280
     1
  9
$XCLIPFRAME
280
     2
  9
$HALOGAP
280
     0
  9
$OBSCOLOR
 70
   257
  9
$OBSLTYPE
280
     0
  9
$INTERSECTIONDISPLAY
280
     0
  9
$INTERSECTIONCOLOR
 70
   257
  9
$DIMASSOC
280
     2
  9
$PROJECTNAME
  1

  9
$CAMERADISPLAY
290
     0
  9
$LENSLENGTH
 40
50.0
  9
$CAMERAHEIGHT
 40
0.0
  9
$STEPSPERSEC
 40
2.0
  9
$STEPSIZE
 40
6.0
  9
$3DDWFPREC
 40
2.0
  9
$PSOLWIDTH
 40
0.25
  9
$PSOLHEIGHT
 40
4.0
  9
$LOFTANG1
 40
1.570796326794897
  9
$LOFTANG2
 40
1.570796326794897
  9
$LOFTMAG1
 40
0.0
  9
$LOFTMAG2
 40
0.0
  9
$LOFTPARAM
 70
     7
  9
$LOFTNORMALS
280
     1
  9
$LATITUDE
 40
37.795
  9
$LONGITUDE
 40
-122.394
  9
$NORTHDIRECTION
 40
0.0
  9
$TIMEZONE
 70
 -8000
  9
$LIGHTGLYPHDISPLAY
280
     1
  9
$TILEMODELIGHTSYNCH
280
     1
  9
$CMATERIAL
347
3C
  9
$SOLIDHIST
280
     1
  9
$SHOWHIST
280
     1
  9
$DWFFRAME
280
     2
  9
$DGNFRAME
280
     2
  9
$REALWORLDSCALE
290
     1
  9
$INTERFERECOLOR
 62
   256
  9
$CSHADOW
280
     0
  9
$SHADOWPLANELOCATION
 40
0.0
  0
ENDSEC
  0
SECTION
  2
CLASSES
  0
CLASS
  1
ACDBDICTIONARYWDFLT
  2
AcDbDictionaryWithDefault
  3
ObjectDBX Classes
 90
        0
 91
        4
280
     0
281
     0
  0
CLASS
  1
VISUALSTYLE
  2
AcDbVisualStyle
  3
ObjectDBX Classes
 90
     4095
 91
        4
280
     0
281
     0
  0
CLASS
  1
MATERIAL
  2
AcDbMaterial
  3
ObjectDBX Classes
 90
     1153
 91
        4
280
     0
281
     0
  0
CLASS
  1
SUN
  2
AcDbSun
  3
SCENEOE
 90
     1024
 91
        4
280
     0
281
     0
  0
ENDSEC
  0
SECTION
  2
TABLES
  0
TABLE
  2
VPORT
  5
8
330
0
100
AcDbSymbolTable
 70
     1
  0
VPORT
  5
29
330
8
100
AcDbSymbolTableRecord
100
AcDbViewportTableRecord
  2
*Active
 70
     0
 10
0.0
 20
0.0
 11
1.0
 21
1.0
 12
0.0
 22
0.0
 13
0.0
 23
0.0
 14
0.5
 24
0.5
 15
0.5
 25
0.5
 16
0.0
 26
0.0
 36
1.0
 17
91.00082462281999
 27
-128.4993055234307
 37
0.0
 40
256.9986110468615
 41
0.7081814508812795
 42
50.0
 43
0.0
 44
0.0
 50
0.0
 51
0.0
 71
     0
 72
   100
 73
     1
 74
     3
 75
     0
 76
     0
 77
     0
 78
     0
281
     0
 65
     1
110
0.0
120
0.0
130
0.0
111
1.0
121
0.0
131
0.0
112
0.0
122
1.0
132
0.0
 79
     0
146
0.0
 60
     3
 61
     5
292
     1
282
     1
141
0.0
142
0.0
 63
   250
361
3F
  0
ENDTAB
  0
TABLE
  2
LTYPE
  5
5
330
0
100
AcDbSymbolTable
 70
     1
  0
LTYPE
  5
14
330
5
100
AcDbSymbolTableRecord
100
AcDbLinetypeTableRecord
  2
ByBlock
 70
     0
  3

 72
    65
 73
     0
 40
0.0
  0
LTYPE
  5
15
330
5
100
AcDbSymbolTableRecord
100
AcDbLinetypeTableRecord
  2
ByLayer
 70
     0
  3

 72
    65
 73
     0
 40
0.0
  0
LTYPE
  5
16
330
5
100
AcDbSymbolTableRecord
100
AcDbLinetypeTableRecord
  2
Continuous
 70
     0
  3
Solid line
 72
    65
 73
     0
 40
0.0
  0
ENDTAB
  0
TABLE
  2
LAYER
  5
2
330
0
100
AcDbSymbolTable
 70
     2
  0
LAYER
  5
10
330
2
100
AcDbSymbolTableRecord
100
AcDbLayerTableRecord
  2
0
 70
     0
 62
     7
  6
Continuous
370
    -3
390
F
347
3E
  0
LAYER
  5
40
330
2
100
AcDbSymbolTableRecord
100
AcDbLayerTableRecord
  2
_U+30EC_U+30A4_U+30E4_U+30FC 1
 70
     0
 62
     7
  6
Continuous
370
    -3
390
F
347
3E
  0
ENDTAB
  0
TABLE
  2
STYLE
  5
3
330
0
100
AcDbSymbolTable
 70
     1
  0
STYLE
  5
11
330
3
100
AcDbSymbolTableRecord
100
AcDbTextStyleTableRecord
  2
Standard
 70
     0
 40
0.0
 41
1.0
 50
0.0
 71
     0
 42
0.2
  3
txt
  4

  0
ENDTAB
  0
TABLE
  2
VIEW
  5
6
330
0
100
AcDbSymbolTable
 70
     0
  0
ENDTAB
  0
TABLE
  2
UCS
  5
7
330
0
100
AcDbSymbolTable
 70
     0
  0
ENDTAB
  0
TABLE
  2
APPID
  5
9
330
0
100
AcDbSymbolTable
 70
     1
  0
APPID
  5
12
330
9
100
AcDbSymbolTableRecord
100
AcDbRegAppTableRecord
  2
ACAD
 70
     0
  0
ENDTAB
  0
TABLE
  2
DIMSTYLE
  5
A
330
0
100
AcDbSymbolTable
 70
     1
100
AcDbDimStyleTable
  0
DIMSTYLE
105
27
330
A
100
AcDbSymbolTableRecord
100
AcDbDimStyleTableRecord
  2
Standard
 70
     0
178
     0
340
11
  0
ENDTAB
  0
TABLE
  2
BLOCK_RECORD
  5
1
330
0
100
AcDbSymbolTable
 70
     7
  0
BLOCK_RECORD
  5
1F
330
1
100
AcDbSymbolTableRecord
100
AcDbBlockTableRecord
  2
*Model_Space
340
22
 70
     0
280
     1
281
     0
  0
BLOCK_RECORD
  5
1B
330
1
100
AcDbSymbolTableRecord
100
AcDbBlockTableRecord
  2
*Paper_Space
340
1E
 70
     0
280
     1
281
     0
  0
BLOCK_RECORD
  5
23
330
1
100
AcDbSymbolTableRecord
100
AcDbBlockTableRecord
  2
*Paper_Space0
340
26
 70
     0
280
     1
281
     0
  0
BLOCK_RECORD
  5
94
330
1
100
AcDbSymbolTableRecord
100
AcDbBlockTableRecord
  2
block 2
340
0
102
{BLKREFS
331
95
102
}
 70
     0
280
     1
281
     0
  0
BLOCK_RECORD
  5
B1
330
1
100
AcDbSymbolTableRecord
100
AcDbBlockTableRecord
  2
block 3
340
0
102
{BLKREFS
331
B2
102
}
 70
     0
280
     1
281
     0
  0
BLOCK_RECORD
  5
C5
330
1
100
AcDbSymbolTableRecord
100
AcDbBlockTableRecord
  2
block 4
340
0
102
{BLKREFS
331
C6
102
}
 70
     0
280
     1
281
     0
  0
BLOCK_RECORD
  5
D9
330
1
100
AcDbSymbolTableRecord
100
AcDbBlockTableRecord
  2
block 5
340
0
102
{BLKREFS
331
DA
102
}
 70
     0
280
     1
281
     0
  0
BLOCK_RECORD
  5
F5
330
1
100
AcDbSymbolTableRecord
100
AcDbBlockTableRecord
  2
block 6
340
0
102
{BLKREFS
331
F6
102
}
 70
     0
280
     1
281
     0
  0
BLOCK_RECORD
  5
107
330
1
100
AcDbSymbolTableRecord
100
AcDbBlockTableRecord
  2
block 7
340
0
102
{BLKREFS
331
108
102
}
 70
     0
280
     1
281
     0
  0
ENDTAB
  0
ENDSEC
  0
SECTION
  2
BLOCKS
  0
BLOCK
  5
20
330
1F
100
AcDbEntity
  8
0
100
AcDbBlockBegin
  2
*Model_Space
 70
     0
 10
0.0
 20
0.0
 30
0.0
  3
*Model_Space
  1

  0
ENDBLK
  5
21
330
1F
100
AcDbEntity
  8
0
100
AcDbBlockEnd
  0
BLOCK
  5
1C
330
1B
100
AcDbEntity
 67
     1
  8
0
100
AcDbBlockBegin
  2
*Paper_Space
 70
     0
 10
0.0
 20
0.0
 30
0.0
  3
*Paper_Space
  1

  0
ENDBLK
  5
1D
330
1B
100
AcDbEntity
 67
     1
  8
0
100
AcDbBlockEnd
  0
BLOCK
  5
24
330
23
100
AcDbEntity
  8
0
100
AcDbBlockBegin
  2
*Paper_Space0
 70
     0
 10
0.0
 20
0.0
 30
0.0
  3
*Paper_Space0
  1

  0
ENDBLK
  5
25
330
23
100
AcDbEntity
  8
0
100
AcDbBlockEnd
  0
BLOCK
  5
96
330
94
100
AcDbEntity
  8
0
100
AcDbBlockBegin
  2
block 2
 70
     0
 10
0.0
 20
0.0
 30
0.0
  3
block 2
  1

  0
SPLINE
  5
98
330
94
100
AcDbEntity
  8
_U+30EC_U+30A4_U+30E4_U+30FC 1
370
     0
100
AcDbSpline
210
0.0
220
0.0
230
1.0
 70
    11
 71
     3
 72
    29
 73
    25
 74
     0
 42
0.0000000001
 43
0.0000000001
 12
1.0
 22
0.0
 32
0.0
 13
1.0
 23
0.0
 33
0.0
 40
0.0
 40
0.0
 40
0.0
 40
0.0
 40
1.0
 40
1.0
 40
1.0
 40
2.0
 40
2.0
 40
2.0
 40
3.0
 40
3.0
 40
3.0
 40
4.0
 40
4.0
 40
4.0
 40
5.0
 40
5.0
 40
5.0
 40
6.0
 40
6.0
 40
6.0
 40
7.0
 40
7.0
 40
7.0
 40
8.0
 40
8.0
 40
8.0
 40
8.0
 10
105.6559108893846
 20
-132.337141893999
 30
0.0
 10
105.8653726948878
 20
-132.4525525927549
 30
0.0
 10
105.8843207200567
 20
-132.6378987298614
 30
0.0
 10
105.8843207200567
 20
-132.7622666768789
 30
0.0
 10
105.8843207200567
 20
-132.9338324320443
 30
0.0
 10
105.8378119310058
 20
-133.0854166333953
 30
0.0
 10
105.6559108893846
 20
-133.1870469502102
 30
0.0
 10
105.461262994468
 20
-133.2979790248352
 30
0.0
 10
105.2245849346314
 20
-133.3183050881982
 30
0.0
 10
105.061631918179
 20
-133.3183050881982
 30
0.0
 10
104.9176269268956
 20
-133.3183050881982
 30
0.0
 10
104.6657904469238
 20
-133.3003905916749
 30
0.0
 10
104.4670084374249
 20
-133.1870469502102
 30
0.0
 10
104.2640923133437
 20
-133.0719807610028
 30
0.0
 10
104.240665664044
 20
-132.9000704962889
 30
0.0
 10
104.240665664044
 20
-132.7622666768789
 30
0.0
 10
104.240665664044
 20
-132.5924234694561
 30
0.0
 10
104.2851073958037
 20
-132.4387722108139
 30
0.0
 10
104.4670084374249
 20
-132.337141893999
 30
0.0
 10
104.6595892750504
 20
-132.2306884435048
 30
0.0
 10
104.8879991057224
 20
-132.205883756011
 30
0.0
 10
105.061631918179
 20
-132.205883756011
 30
0.0
 10
105.232853163796
 20
-132.205883756011
 30
0.0
 10
105.4633300517592
 20
-132.2286213862137
 30
0.0
 10
105.6559108893846
 20
-132.337141893999
 30
0.0
  0
SPLINE
  5
99
330
94
100
AcDbEntity
  8
_U+30EC_U+30A4_U+30E4_U+30FC 1
370
     0
100
AcDbSpline
210
0.0
220
0.0
230
1.0
 70
    11
 71
     3
 72
    17
 73
    13
 74
     0
 42
0.0000000001
 43
0.0000000001
 12
1.0
 22
0.0
 32
0.0
 13
1.0
 23
0.0
 33
0.0
 40
0.0
 40
0.0
 40
0.0
 40
0.0
 40
1.0
 40
1.0
 40
1.0
 40
2.0
 40
2.0
 40
2.0
 40
3.0
 40
3.0
 40
3.0
 40
4.0
 40
4.0
 40
4.0
 40
4.0
 10
104.4332465016695
 20
-132.7622666768789
 30
0.0
 10
104.4332465016695
 20
-133.0289170674372
 30
0.0
 10
104.7167778601055
 20
-133.0785264424248
 30
0.0
 10
105.061631918179
 20
-133.0785264424248
 30
0.0
 10
105.3809922696617
 20
-133.0785264424248
 30
0.0
 10
105.6896728251401
 20
-133.0402858825385
 30
0.0
 10
105.6896728251401
 20
-132.7622666768789
 30
0.0
 10
105.6896728251401
 20
-132.4976833436117
 30
0.0
 10
105.4085530335437
 20
-132.4456624017844
 30
0.0
 10
105.061631918179
 20
-132.4456624017844
 30
0.0
 10
104.7419270571479
 20
-132.4456624017844
 30
0.0
 10
104.4332465016695
 20
-132.4863145285104
 30
0.0
 10
104.4332465016695
 20
-132.7622666768789
 30
0.0
  0
HATCH
  5
9A
330
94
100
AcDbEntity
  8
_U+30EC_U+30A4_U+30E4_U+30FC 1
 62
   179
420
  2234388
100
AcDbHatch
 10
0.0
 20
0.0
 30
0.0
210
0.0
220
0.0
230
1.0
  2
SOLID
 70
     1
 71
     0
 91
        2
 92
        1
 93
        1
 72
     4
 94
        3
 73
     0
 74
     1
 95
       29
 96
       25
 40
0.0
 40
0.0
 40
0.0
 40
0.0
 40
1.0
 40
1.0
 40
1.0
 40
2.0
 40
2.0
 40
2.0
 40
3.0
 40
3.0
 40
3.0
 40
4.0
 40
4.0
 40
4.0
 40
5.0
 40
5.0
 40
5.0
 40
6.0
 40
6.0
 40
6.0
 40
7.0
 40
7.0
 40
7.0
 40
8.0
 40
8.0
 40
8.0
 40
8.0
 10
105.6559108893846
 20
-132.337141893999
 10
105.8653726948878
 20
-132.4525525927549
 10
105.8843207200567
 20
-132.6378987298614
 10
105.8843207200567
 20
-132.7622666768789
 10
105.8843207200567
 20
-132.9338324320443
 10
105.8378119310058
 20
-133.0854166333953
 10
105.6559108893846
 20
-133.1870469502102
 10
105.461262994468
 20
-133.2979790248352
 10
105.2245849346314
 20
-133.3183050881982
 10
105.061631918179
 20
-133.3183050881982
 10
104.9176269268956
 20
-133.3183050881982
 10
104.6657904469238
 20
-133.3003905916749
 10
104.4670084374249
 20
-133.1870469502102
 10
104.2640923133437
 20
-133.0719807610028
 10
104.240665664044
 20
-132.9000704962889
 10
104.240665664044
 20
-132.7622666768789
 10
104.240665664044
 20
-132.5924234694561
 10
104.2851073958037
 20
-132.4387722108139
 10
104.4670084374249
 20
-132.337141893999
 10
104.6595892750504
 20
-132.2306884435048
 10
104.8879991057224
 20
-132.205883756011
 10
105.061631918179
 20
-132.205883756011
 10
105.232853163796
 20
-132.205883756011
 10
105.4633300517592
 20
-132.2286213862137
 10
105.6559108893846
 20
-132.337141893999
 97
        0
 97
        0
 92
        1
 93
        1
 72
     4
 94
        3
 73
     0
 74
     1
 95
       17
 96
       13
 40
0.0
 40
0.0
 40
0.0
 40
0.0
 40
1.0
 40
1.0
 40
1.0
 40
2.0
 40
2.0
 40
2.0
 40
3.0
 40
3.0
 40
3.0
 40
4.0
 40
4.0
 40
4.0
 40
4.0
 10
104.4332465016695
 20
-132.7622666768789
 10
104.4332465016695
 20
-133.0289170674372
 10
104.7167778601055
 20
-133.0785264424248
 10
105.061631918179
 20
-133.0785264424248
 10
105.3809922696617
 20
-133.0785264424248
 10
105.6896728251401
 20
-133.0402858825385
 10
105.6896728251401
 20
-132.7622666768789
 10
105.6896728251401
 20
-132.4976833436117
 10
105.4085530335437
 20
-132.4456624017844
 10
105.061631918179
 20
-132.4456624017844
 10
104.7419270571479
 20
-132.4456624017844
 10
104.4332465016695
 20
-132.4863145285104
 10
104.4332465016695
 20
-132.7622666768789
 97
        0
 97
        0
 75
     2
 76
     1
 98
        0
  0
POLYLINE
  5
9B
330
94
100
AcDbEntity
  8
_U+30EC_U+30A4_U+30E4_U+30FC 1
370
     0
100
AcDb2dPolyline
 66
     1
 10
0.0
 20
0.0
 30
0.0
  0
VERTEX
  5
9C
330
9B
100
AcDbEntity
  8
_U+30EC_U+30A4_U+30E4_U+30FC 1
370
     0
100
AcDbVertex
100
AcDb2dVertex
 10
105.8336778164235
 20
-131.9747178489508
 30
0.0
  0
VERTEX
  5
9D
330
9B
100
AcDbEntity
  8
_U+30EC_U+30A4_U+30E4_U+30FC 1
370
     0
100
AcDbVertex
100
AcDb2dVertex
 10
105.5818413364518
 20
-131.9747178489508
 30
0.0
  0
VERTEX
  5
9E
330
9B
100
AcDbEntity
  8
_U+30EC_U+30A4_U+30E4_U+30FC 1
370
     0
100
AcDbVertex
100
AcDb2dVertex
 10
105.5818413364518
 20
-131.7056558915528
 30
0.0
  0
VERTEX
  5
9F
330
9B
100
AcDbEntity
  8
_U+30EC_U+30A4_U+30E4_U+30FC 1
370
     0
100
AcDbVertex
100
AcDb2dVertex
 10
105.8336778164235
 20
-131.7056558915528
 30
0.0
  0
VERTEX
  5
A0
330
9B
100
AcDbEntity
  8
_U+30EC_U+30A4_U+30E4_U+30FC 1
370
     0
100
AcDbVertex
100
AcDb2dVertex
 10
105.8336778164235
 20
-131.9747178489508
 30
0.0
  0
SEQEND
  5
A1
330
9B
100
AcDbEntity
  8
_U+30EC_U+30A4_U+30E4_U+30FC 1
370
     0
  0
HATCH
  5
A2
330
94
100
AcDbEntity
  8
_U+30EC_U+30A4_U+30E4_U+30FC 1
 62
   179
420
  2234388
100
AcDbHatch
 10
0.0
 20
0.0
 30
0.0
210
0.0
220
0.0
230
1.0
  2
SOLID
 70
     1
 71
     0
 91
        1
 92
        1
 93
        4
 72
     1
 10
105.8336778164235
 20
-131.9747178489508
 11
105.5818413364518
 21
-131.9747178489508
 72
     1
 10
105.5818413364518
 20
-131.9747178489508
 11
105.5818413364518
 21
-131.7056558915528
 72
     1
 10
105.5818413364518
 20
-131.7056558915528
 11
105.8336778164235
 21
-131.7056558915528
 72
     1
 10
105.8336778164235
 20
-131.7056558915528
 11
105.8336778164235
 21
-131.9747178489508
 97
        0
 75
     2
 76
     1
 98
        0
  0
SPLINE
  5
A3
330
94
100
AcDbEntity
  8
_U+30EC_U+30A4_U+30E4_U+30FC 1
370
     0
100
AcDbSpline
210
0.0
220
0.0
230
1.0
 70
    11
 71
     3
 72
    26
 73
    22
 74
     0
 42
0.0000000001
 43
0.0000000001
 12
1.0
 22
0.0
 32
0.0
 13
1.0
 23
0.0
 33
0.0
 40
0.0
 40
0.0
 40
0.0
 40
0.0
 40
1.0
 40
1.0
 40
1.0
 40
2.0
 40
2.0
 40
2.0
 40
3.0
 40
3.0
 40
3.0
 40
4.0
 40
4.0
 40
4.0
 40
5.0
 40
5.0
 40
5.0
 40
6.0
 40
6.0
 40
6.0
 40
7.0
 40
7.0
 40
7.0
 40
7.0
 10
105.8336778164235
 20
-131.0131916990175
 30
0.0
 10
105.8336778164235
 20
-131.0131916990175
 30
0.0
 10
105.8336778164235
 20
-131.2664062171834
 30
0.0
 10
105.8336778164235
 20
-131.2664062171834
 30
0.0
 10
105.5246527513966
 20
-131.2395344723984
 30
0.0
 10
105.006510390415
 20
-131.0335177623805
 30
0.0
 10
104.5007703731804
 20
-130.599435731239
 30
0.0
 10
104.5007703731804
 20
-130.599435731239
 30
0.0
 10
104.5007703731804
 20
-131.4948160478555
 30
0.0
 10
104.5007703731804
 20
-131.4948160478555
 30
0.0
 10
104.5007703731804
 20
-131.4948160478555
 30
0.0
 10
104.289241510386
 20
-131.4948160478555
 30
0.0
 10
104.289241510386
 20
-131.4948160478555
 30
0.0
 10
104.289241510386
 20
-131.4948160478555
 30
0.0
 10
104.289241510386
 20
-130.3462212130732
 30
0.0
 10
104.289241510386
 20
-130.3462212130732
 30
0.0
 10
104.289241510386
 20
-130.3462212130732
 30
0.0
 10
104.5007703731804
 20
-130.3462212130732
 30
0.0
 10
104.5007703731804
 20
-130.3462212130732
 30
0.0
 10
104.7908474130384
 20
-130.6921087997923
 30
0.0
 10
105.3830593269528
 20
-130.9770181964224
 30
0.0
 10
105.8336778164235
 20
-131.0131916990175
 30
0.0
  0
HATCH
  5
A4
330
94
100
AcDbEntity
  8
_U+30EC_U+30A4_U+30E4_U+30FC 1
 62
   179
420
  2234388
100
AcDbHatch
 10
0.0
 20
0.0
 30
0.0
210
0.0
220
0.0
230
1.0
  2
SOLID
 70
     1
 71
     0
 91
        1
 92
        1
 93
        1
 72
     4
 94
        3
 73
     0
 74
     1
 95
       26
 96
       22
 40
0.0
 40
0.0
 40
0.0
 40
0.0
 40
1.0
 40
1.0
 40
1.0
 40
2.0
 40
2.0
 40
2.0
 40
3.0
 40
3.0
 40
3.0
 40
4.0
 40
4.0
 40
4.0
 40
5.0
 40
5.0
 40
5.0
 40
6.0
 40
6.0
 40
6.0
 40
7.0
 40
7.0
 40
7.0
 40
7.0
 10
105.8336778164235
 20
-131.0131916990175
 10
105.8336778164235
 20
-131.0131916990175
 10
105.8336778164235
 20
-131.2664062171834
 10
105.8336778164235
 20
-131.2664062171834
 10
105.5246527513966
 20
-131.2395344723984
 10
105.006510390415
 20
-131.0335177623805
 10
104.5007703731804
 20
-130.599435731239
 10
104.5007703731804
 20
-130.599435731239
 10
104.5007703731804
 20
-131.4948160478555
 10
104.5007703731804
 20
-131.4948160478555
 10
104.5007703731804
 20
-131.4948160478555
 10
104.289241510386
 20
-131.4948160478555
 10
104.289241510386
 20
-131.4948160478555
 10
104.289241510386
 20
-131.4948160478555
 10
104.289241510386
 20
-130.3462212130732
 10
104.289241510386
 20
-130.3462212130732
 10
104.289241510386
 20
-130.3462212130732
 10
104.5007703731804
 20
-130.3462212130732
 10
104.5007703731804
 20
-130.3462212130732
 10
104.7908474130384
 20
-130.6921087997923
 10
105.3830593269528
 20
-130.9770181964224
 10
105.8336778164235
 20
-131.0131916990175
 97
        0
 97
        0
 75
     2
 76
     1
 98
        0
  0
ENDBLK
  5
97
330
94
100
AcDbEntity
  8
0
100
AcDbBlockEnd
  0
BLOCK
  5
B3
330
B1
100
AcDbEntity
  8
0
100
AcDbBlockBegin
  2
block 3
 70
     0
 10
0.0
 20
0.0
 30
0.0
  3
block 3
  1

  0
SPLINE
  5
B5
330
B1
100
AcDbEntity
  8
_U+30EC_U+30A4_U+30E4_U+30FC 1
370
     0
100
AcDbSpline
210
0.0
220
0.0
230
1.0
 70
    11
 71
     3
 72
    44
 73
    40
 74
     0
 42
0.0000000001
 43
0.0000000001
 12
1.0
 22
0.0
 32
0.0
 13
1.0
 23
0.0
 33
0.0
 40
0.0
 40
0.0
 40
0.0
 40
0.0
 40
1.0
 40
1.0
 40
1.0
 40
2.0
 40
2.0
 40
2.0
 40
3.0
 40
3.0
 40
3.0
 40
4.0
 40
4.0
 40
4.0
 40
5.0
 40
5.0
 40
5.0
 40
6.0
 40
6.0
 40
6.0
 40
7.0
 40
7.0
 40
7.0
 40
8.0
 40
8.0
 40
8.0
 40
9.0
 40
9.0
 40
9.0
 40
10.0
 40
10.0
 40
10.0
 40
11.0
 40
11.0
 40
11.0
 40
12.0
 40
12.0
 40
12.0
 40
13.0
 40
13.0
 40
13.0
 40
13.0
 10
91.75736217324122
 20
-134.6308864680784
 30
0.0
 10
91.52447371843833
 20
-134.7897053699484
 30
0.0
 10
91.42525496846314
 20
-134.8637749228813
 30
0.0
 10
91.37288951708734
 20
-135.0074354046162
 30
0.0
 10
91.37288951708734
 20
-135.0074354046162
 30
0.0
 10
92.2052245863237
 20
-135.0074354046162
 30
0.0
 10
92.2052245863237
 20
-135.0074354046162
 30
0.0
 10
92.2052245863237
 20
-135.0074354046162
 30
0.0
 10
92.2052245863237
 20
-135.2127630955371
 30
0.0
 10
92.2052245863237
 20
-135.2127630955371
 30
0.0
 10
92.2052245863237
 20
-135.2127630955371
 30
0.0
 10
91.10641138130326
 20
-135.2127630955371
 30
0.0
 10
91.10641138130326
 20
-135.2127630955371
 30
0.0
 10
91.14051782660724
 20
-134.8551621841682
 30
0.0
 10
91.2104532649578
 20
-134.776958516653
 30
0.0
 10
91.62162541112238
 20
-134.4786132476304
 30
0.0
 10
91.89516599265121
 20
-134.2798312381314
 30
0.0
 10
91.96544594055031
 20
-134.211962857072
 30
0.0
 10
91.96544594055031
 20
-134.0745035472106
 30
0.0
 10
91.96544594055031
 20
-133.955992262518
 30
0.0
 10
91.88896482077776
 20
-133.8250786340785
 30
0.0
 10
91.67812497708047
 20
-133.8250786340785
 30
0.0
 10
91.40045028096934
 20
-133.8250786340785
 30
0.0
 10
91.39149303270769
 20
-134.0555555220417
 30
0.0
 10
91.38666989902833
 20
-134.1719997494431
 30
0.0
 10
91.38666989902833
 20
-134.1719997494431
 30
0.0
 10
91.1470635080292
 20
-134.1719997494431
 30
0.0
 10
91.1470635080292
 20
-134.1719997494431
 30
0.0
 10
91.15602075629086
 20
-134.0448757260374
 30
0.0
 10
91.16738957139218
 20
-133.9329101227668
 30
0.0
 10
91.25351695852343
 20
-133.8143988380742
 30
0.0
 10
91.37082245979619
 20
-133.653512878913
 30
0.0
 10
91.56994897884363
 20
-133.6197509431576
 30
0.0
 10
91.69397241631262
 20
-133.6197509431576
 30
0.0
 10
91.99025062804411
 20
-133.6197509431576
 30
0.0
 10
92.2121147772942
 20
-133.8037190420699
 30
0.0
 10
92.2121147772942
 20
-134.0765706045017
 30
0.0
 10
92.2121147772942
 20
-134.3053249447223
 30
0.0
 10
92.08740232072816
 20
-134.4045436946975
 30
0.0
 10
91.75736217324122
 20
-134.6308864680784
 30
0.0
  0
HATCH
  5
B6
330
B1
100
AcDbEntity
  8
_U+30EC_U+30A4_U+30E4_U+30FC 1
 62
   179
420
  2234388
100
AcDbHatch
 10
0.0
 20
0.0
 30
0.0
210
0.0
220
0.0
230
1.0
  2
SOLID
 70
     1
 71
     0
 91
        1
 92
        1
 93
        1
 72
     4
 94
        3
 73
     0
 74
     1
 95
       44
 96
       40
 40
0.0
 40
0.0
 40
0.0
 40
0.0
 40
1.0
 40
1.0
 40
1.0
 40
2.0
 40
2.0
 40
2.0
 40
3.0
 40
3.0
 40
3.0
 40
4.0
 40
4.0
 40
4.0
 40
5.0
 40
5.0
 40
5.0
 40
6.0
 40
6.0
 40
6.0
 40
7.0
 40
7.0
 40
7.0
 40
8.0
 40
8.0
 40
8.0
 40
9.0
 40
9.0
 40
9.0
 40
10.0
 40
10.0
 40
10.0
 40
11.0
 40
11.0
 40
11.0
 40
12.0
 40
12.0
 40
12.0
 40
13.0
 40
13.0
 40
13.0
 40
13.0
 10
91.75736217324122
 20
-134.6308864680784
 10
91.52447371843833
 20
-134.7897053699484
 10
91.42525496846314
 20
-134.8637749228813
 10
91.37288951708734
 20
-135.0074354046162
 10
91.37288951708734
 20
-135.0074354046162
 10
92.2052245863237
 20
-135.0074354046162
 10
92.2052245863237
 20
-135.0074354046162
 10
92.2052245863237
 20
-135.0074354046162
 10
92.2052245863237
 20
-135.2127630955371
 10
92.2052245863237
 20
-135.2127630955371
 10
92.2052245863237
 20
-135.2127630955371
 10
91.10641138130326
 20
-135.2127630955371
 10
91.10641138130326
 20
-135.2127630955371
 10
91.14051782660724
 20
-134.8551621841682
 10
91.2104532649578
 20
-134.776958516653
 10
91.62162541112238
 20
-134.4786132476304
 10
91.89516599265121
 20
-134.2798312381314
 10
91.96544594055031
 20
-134.211962857072
 10
91.96544594055031
 20
-134.0745035472106
 10
91.96544594055031
 20
-133.955992262518
 10
91.88896482077776
 20
-133.8250786340785
 10
91.67812497708047
 20
-133.8250786340785
 10
91.40045028096934
 20
-133.8250786340785
 10
91.39149303270769
 20
-134.0555555220417
 10
91.38666989902833
 20
-134.1719997494431
 10
91.38666989902833
 20
-134.1719997494431
 10
91.1470635080292
 20
-134.1719997494431
 10
91.1470635080292
 20
-134.1719997494431
 10
91.15602075629086
 20
-134.0448757260374
 10
91.16738957139218
 20
-133.9329101227668
 10
91.25351695852343
 20
-133.8143988380742
 10
91.37082245979619
 20
-133.653512878913
 10
91.56994897884363
 20
-133.6197509431576
 10
91.69397241631262
 20
-133.6197509431576
 10
91.99025062804411
 20
-133.6197509431576
 10
92.2121147772942
 20
-133.8037190420699
 10
92.2121147772942
 20
-134.0765706045017
 10
92.2121147772942
 20
-134.3053249447223
 10
92.08740232072816
 20
-134.4045436946975
 10
91.75736217324122
 20
-134.6308864680784
 97
        0
 97
        0
 75
     2
 76
     1
 98
        0
  0
SPLINE
  5
B7
330
B1
100
AcDbEntity
  8
_U+30EC_U+30A4_U+30E4_U+30FC 1
370
     0
100
AcDbSpline
210
0.0
220
0.0
230
1.0
 70
    11
 71
     3
 72
    62
 73
    58
 74
     0
 42
0.0000000001
 43
0.0000000001
 12
1.0
 22
0.0
 32
0.0
 13
1.0
 23
0.0
 33
0.0
 40
0.0
 40
0.0
 40
0.0
 40
0.0
 40
1.0
 40
1.0
 40
1.0
 40
2.0
 40
2.0
 40
2.0
 40
3.0
 40
3.0
 40
3.0
 40
4.0
 40
4.0
 40
4.0
 40
5.0
 40
5.0
 40
5.0
 40
6.0
 40
6.0
 40
6.0
 40
7.0
 40
7.0
 40
7.0
 40
8.0
 40
8.0
 40
8.0
 40
9.0
 40
9.0
 40
9.0
 40
10.0
 40
10.0
 40
10.0
 40
11.0
 40
11.0
 40
11.0
 40
12.0
 40
12.0
 40
12.0
 40
13.0
 40
13.0
 40
13.0
 40
14.0
 40
14.0
 40
14.0
 40
15.0
 40
15.0
 40
15.0
 40
16.0
 40
16.0
 40
16.0
 40
17.0
 40
17.0
 40
17.0
 40
18.0
 40
18.0
 40
18.0
 40
19.0
 40
19.0
 40
19.0
 40
19.0
 10
92.90664602712056
 20
-135.2634059991703
 30
0.0
 10
92.80536021985422
 20
-135.2634059991703
 30
0.0
 10
92.57247176505133
 20
-135.2423909167102
 30
0.0
 10
92.43880206022364
 20
-135.0563557605068
 30
0.0
 10
92.35956486406289
 20
-134.9440456476876
 30
0.0
 10
92.35543074948059
 20
-134.8448268977124
 30
0.0
 10
92.35060761580124
 20
-134.7600775487753
 30
0.0
 10
92.35060761580124
 20
-134.7600775487753
 30
0.0
 10
92.58556312789528
 20
-134.7600775487753
 30
0.0
 10
92.58556312789528
 20
-134.7600775487753
 30
0.0
 10
92.58831920428348
 20
-134.8341471017081
 30
0.0
 10
92.59934350983627
 20
-135.0687581042536
 30
0.0
 10
92.90251191253826
 20
-135.0687581042536
 30
0.0
 10
93.0492729802099
 20
-135.0687581042536
 30
0.0
 10
93.2118814871137
 20
-134.9991671754516
 30
0.0
 10
93.2118814871137
 20
-134.7707573447795
 30
0.0
 10
93.2118814871137
 20
-134.6543131173781
 30
0.0
 10
93.17122936038776
 20
-134.6057372710361
 30
0.0
 10
93.1374674246323
 20
-134.5740423925718
 30
0.0
 10
93.05823022847156
 20
-134.4999728396389
 30
0.0
 10
92.93420679100257
 20
-134.4872259863435
 30
0.0
 10
92.87495114865627
 20
-134.4872259863435
 30
0.0
 10
92.85496959484182
 20
-134.4872259863435
 30
0.0
 10
92.81638452540702
 20
-134.4892930436346
 30
0.0
 10
92.78675670423387
 20
-134.4934271582169
 30
0.0
 10
92.78675670423387
 20
-134.4934271582169
 30
0.0
 10
92.78675670423387
 20
-134.2987792633003
 30
0.0
 10
92.78675670423387
 20
-134.2987792633003
 30
0.0
 10
92.82740883095983
 20
-134.3053249447223
 30
0.0
 10
92.87288409136512
 20
-134.3073920020134
 30
0.0
 10
92.87977428233562
 20
-134.3073920020134
 30
0.0
 10
92.95005423023471
 20
-134.3073920020134
 30
0.0
 10
93.1622721121261
 20
-134.2860324100049
 30
0.0
 10
93.1622721121261
 20
-134.0493543501682
 30
0.0
 10
93.1622721121261
 20
-133.8715874231293
 30
0.0
 10
93.02240123542497
 20
-133.8164658953653
 30
0.0
 10
92.90457896982942
 20
-133.8164658953653
 30
0.0
 10
92.62208114003893
 20
-133.8164658953653
 30
0.0
 10
92.61312389177728
 20
-134.0493543501682
 30
0.0
 10
92.60830075809793
 20
-134.1210123362614
 30
0.0
 10
92.60830075809793
 20
-134.1210123362614
 30
0.0
 10
92.39125974252718
 20
-134.1210123362614
 30
0.0
 10
92.39125974252718
 20
-134.1210123362614
 30
0.0
 10
92.40021699078883
 20
-133.9962998796954
 30
0.0
 10
92.42984481196198
 20
-133.6197509431576
 30
0.0
 10
92.91835935177042
 20
-133.6197509431576
 30
0.0
 10
93.1581379975438
 20
-133.6197509431576
 30
0.0
 10
93.41583113984049
 20
-133.7468749665633
 30
0.0
 10
93.41583113984049
 20
-134.0428086687463
 30
0.0
 10
93.41583113984049
 20
-134.2291883344983
 30
0.0
 10
93.31385631347709
 20
-134.3115261165957
 30
0.0
 10
93.2077473725314
 20
-134.3728488162332
 30
0.0
 10
93.27320418675114
 20
-134.4004095801152
 30
0.0
 10
93.46750757211923
 20
-134.4806803049215
 30
0.0
 10
93.46750757211923
 20
-134.7580104914841
 30
0.0
 10
93.46750757211923
 20
-135.0963188681357
 30
0.0
 10
93.20292423885205
 20
-135.2634059991703
 30
0.0
 10
92.90664602712056
 20
-135.2634059991703
 30
0.0
  0
HATCH
  5
B8
330
B1
100
AcDbEntity
  8
_U+30EC_U+30A4_U+30E4_U+30FC 1
 62
   179
420
  2234388
100
AcDbHatch
 10
0.0
 20
0.0
 30
0.0
210
0.0
220
0.0
230
1.0
  2
SOLID
 70
     1
 71
     0
 91
        1
 92
        1
 93
        1
 72
     4
 94
        3
 73
     0
 74
     1
 95
       62
 96
       58
 40
0.0
 40
0.0
 40
0.0
 40
0.0
 40
1.0
 40
1.0
 40
1.0
 40
2.0
 40
2.0
 40
2.0
 40
3.0
 40
3.0
 40
3.0
 40
4.0
 40
4.0
 40
4.0
 40
5.0
 40
5.0
 40
5.0
 40
6.0
 40
6.0
 40
6.0
 40
7.0
 40
7.0
 40
7.0
 40
8.0
 40
8.0
 40
8.0
 40
9.0
 40
9.0
 40
9.0
 40
10.0
 40
10.0
 40
10.0
 40
11.0
 40
11.0
 40
11.0
 40
12.0
 40
12.0
 40
12.0
 40
13.0
 40
13.0
 40
13.0
 40
14.0
 40
14.0
 40
14.0
 40
15.0
 40
15.0
 40
15.0
 40
16.0
 40
16.0
 40
16.0
 40
17.0
 40
17.0
 40
17.0
 40
18.0
 40
18.0
 40
18.0
 40
19.0
 40
19.0
 40
19.0
 40
19.0
 10
92.90664602712056
 20
-135.2634059991703
 10
92.80536021985422
 20
-135.2634059991703
 10
92.57247176505133
 20
-135.2423909167102
 10
92.43880206022364
 20
-135.0563557605068
 10
92.35956486406289
 20
-134.9440456476876
 10
92.35543074948059
 20
-134.8448268977124
 10
92.35060761580124
 20
-134.7600775487753
 10
92.35060761580124
 20
-134.7600775487753
 10
92.58556312789528
 20
-134.7600775487753
 10
92.58556312789528
 20
-134.7600775487753
 10
92.58831920428348
 20
-134.8341471017081
 10
92.59934350983627
 20
-135.0687581042536
 10
92.90251191253826
 20
-135.0687581042536
 10
93.0492729802099
 20
-135.0687581042536
 10
93.2118814871137
 20
-134.9991671754516
 10
93.2118814871137
 20
-134.7707573447795
 10
93.2118814871137
 20
-134.6543131173781
 10
93.17122936038776
 20
-134.6057372710361
 10
93.1374674246323
 20
-134.5740423925718
 10
93.05823022847156
 20
-134.4999728396389
 10
92.93420679100257
 20
-134.4872259863435
 10
92.87495114865627
 20
-134.4872259863435
 10
92.85496959484182
 20
-134.4872259863435
 10
92.81638452540702
 20
-134.4892930436346
 10
92.78675670423387
 20
-134.4934271582169
 10
92.78675670423387
 20
-134.4934271582169
 10
92.78675670423387
 20
-134.2987792633003
 10
92.78675670423387
 20
-134.2987792633003
 10
92.82740883095983
 20
-134.3053249447223
 10
92.87288409136512
 20
-134.3073920020134
 10
92.87977428233562
 20
-134.3073920020134
 10
92.95005423023471
 20
-134.3073920020134
 10
93.1622721121261
 20
-134.2860324100049
 10
93.1622721121261
 20
-134.0493543501682
 10
93.1622721121261
 20
-133.8715874231293
 10
93.02240123542497
 20
-133.8164658953653
 10
92.90457896982942
 20
-133.8164658953653
 10
92.62208114003893
 20
-133.8164658953653
 10
92.61312389177728
 20
-134.0493543501682
 10
92.60830075809793
 20
-134.1210123362614
 10
92.60830075809793
 20
-134.1210123362614
 10
92.39125974252718
 20
-134.1210123362614
 10
92.39125974252718
 20
-134.1210123362614
 10
92.40021699078883
 20
-133.9962998796954
 10
92.42984481196198
 20
-133.6197509431576
 10
92.91835935177042
 20
-133.6197509431576
 10
93.1581379975438
 20
-133.6197509431576
 10
93.41583113984049
 20
-133.7468749665633
 10
93.41583113984049
 20
-134.0428086687463
 10
93.41583113984049
 20
-134.2291883344983
 10
93.31385631347709
 20
-134.3115261165957
 10
93.2077473725314
 20
-134.3728488162332
 10
93.27320418675114
 20
-134.4004095801152
 10
93.46750757211923
 20
-134.4806803049215
 10
93.46750757211923
 20
-134.7580104914841
 10
93.46750757211923
 20
-135.0963188681357
 10
93.20292423885205
 20
-135.2634059991703
 10
92.90664602712056
 20
-135.2634059991703
 97
        0
 97
        0
 75
     2
 76
     1
 98
        0
  0
ENDBLK
  5
B4
330
B1
100
AcDbEntity
  8
0
100
AcDbBlockEnd
  0
BLOCK
  5
C7
330
C5
100
AcDbEntity
  8
0
100
AcDbBlockBegin
  2
block 4
 70
     0
 10
0.0
 20
0.0
 30
0.0
  3
block 4
  1

  0
SPLINE
  5
C9
330
C5
100
AcDbEntity
  8
_U+30EC_U+30A4_U+30E4_U+30FC 1
370
     0
100
AcDbSpline
210
0.0
220
0.0
230
1.0
 70
    11
 71
     3
 72
    26
 73
    22
 74
     0
 42
0.0000000001
 43
0.0000000001
 12
1.0
 22
0.0
 32
0.0
 13
1.0
 23
0.0
 33
0.0
 40
0.0
 40
0.0
 40
0.0
 40
0.0
 40
1.0
 40
1.0
 40
1.0
 40
2.0
 40
2.0
 40
2.0
 40
3.0
 40
3.0
 40
3.0
 40
4.0
 40
4.0
 40
4.0
 40
5.0
 40
5.0
 40
5.0
 40
6.0
 40
6.0
 40
6.0
 40
7.0
 40
7.0
 40
7.0
 40
7.0
 10
86.10619979401164
 20
-121.6387423741042
 30
0.0
 10
86.10619979401164
 20
-121.6387423741042
 30
0.0
 10
86.10619979401164
 20
-120.5345892710816
 30
0.0
 10
86.10619979401164
 20
-120.5345892710816
 30
0.0
 10
86.10619979401164
 20
-120.5345892710816
 30
0.0
 10
85.75376652587059
 20
-120.5345892710816
 30
0.0
 10
85.75376652587059
 20
-120.5345892710816
 30
0.0
 10
85.75376652587059
 20
-120.5345892710816
 30
0.0
 10
85.75376652587059
 20
-120.3864501652159
 30
0.0
 10
85.75376652587059
 20
-120.3864501652159
 30
0.0
 10
86.10861136085133
 20
-120.3716362546293
 30
0.0
 10
86.15822073583892
 20
-120.208683238177
 30
0.0
 10
86.18991561430322
 20
-120.0943060680667
 30
0.0
 10
86.18991561430322
 20
-120.0943060680667
 30
0.0
 10
86.34597843978504
 20
-120.0943060680667
 30
0.0
 10
86.34597843978504
 20
-120.0943060680667
 30
0.0
 10
86.34597843978504
 20
-120.0943060680667
 30
0.0
 10
86.34597843978504
 20
-121.6387423741042
 30
0.0
 10
86.34597843978504
 20
-121.6387423741042
 30
0.0
 10
86.34597843978504
 20
-121.6387423741042
 30
0.0
 10
86.10619979401164
 20
-121.6387423741042
 30
0.0
 10
86.10619979401164
 20
-121.6387423741042
 30
0.0
  0
HATCH
  5
CA
330
C5
100
AcDbEntity
  8
_U+30EC_U+30A4_U+30E4_U+30FC 1
 62
   179
420
  2234388
100
AcDbHatch
 10
0.0
 20
0.0
 30
0.0
210
0.0
220
0.0
230
1.0
  2
SOLID
 70
     1
 71
     0
 91
        1
 92
        1
 93
        1
 72
     4
 94
        3
 73
     0
 74
     1
 95
       26
 96
       22
 40
0.0
 40
0.0
 40
0.0
 40
0.0
 40
1.0
 40
1.0
 40
1.0
 40
2.0
 40
2.0
 40
2.0
 40
3.0
 40
3.0
 40
3.0
 40
4.0
 40
4.0
 40
4.0
 40
5.0
 40
5.0
 40
5.0
 40
6.0
 40
6.0
 40
6.0
 40
7.0
 40
7.0
 40
7.0
 40
7.0
 10
86.10619979401164
 20
-121.6387423741042
 10
86.10619979401164
 20
-121.6387423741042
 10
86.10619979401164
 20
-120.5345892710816
 10
86.10619979401164
 20
-120.5345892710816
 10
86.10619979401164
 20
-120.5345892710816
 10
85.75376652587059
 20
-120.5345892710816
 10
85.75376652587059
 20
-120.5345892710816
 10
85.75376652587059
 20
-120.5345892710816
 10
85.75376652587059
 20
-120.3864501652159
 10
85.75376652587059
 20
-120.3864501652159
 10
86.10861136085133
 20
-120.3716362546293
 10
86.15822073583892
 20
-120.208683238177
 10
86.18991561430322
 20
-120.0943060680667
 10
86.18991561430322
 20
-120.0943060680667
 10
86.34597843978504
 20
-120.0943060680667
 10
86.34597843978504
 20
-120.0943060680667
 10
86.34597843978504
 20
-120.0943060680667
 10
86.34597843978504
 20
-121.6387423741042
 10
86.34597843978504
 20
-121.6387423741042
 10
86.34597843978504
 20
-121.6387423741042
 10
86.10619979401164
 20
-121.6387423741042
 10
86.10619979401164
 20
-121.6387423741042
 97
        0
 97
        0
 75
     2
 76
     1
 98
        0
  0
SPLINE
  5
CB
330
C5
100
AcDbEntity
  8
_U+30EC_U+30A4_U+30E4_U+30FC 1
370
     0
100
AcDbSpline
210
0.0
220
0.0
230
1.0
 70
    11
 71
     3
 72
    44
 73
    40
 74
     0
 42
0.0000000001
 43
0.0000000001
 12
1.0
 22
0.0
 32
0.0
 13
1.0
 23
0.0
 33
0.0
 40
0.0
 40
0.0
 40
0.0
 40
0.0
 40
1.0
 40
1.0
 40
1.0
 40
2.0
 40
2.0
 40
2.0
 40
3.0
 40
3.0
 40
3.0
 40
4.0
 40
4.0
 40
4.0
 40
5.0
 40
5.0
 40
5.0
 40
6.0
 40
6.0
 40
6.0
 40
7.0
 40
7.0
 40
7.0
 40
8.0
 40
8.0
 40
8.0
 40
9.0
 40
9.0
 40
9.0
 40
10.0
 40
10.0
 40
10.0
 40
11.0
 40
11.0
 40
11.0
 40
12.0
 40
12.0
 40
12.0
 40
13.0
 40
13.0
 40
13.0
 40
13.0
 10
87.51558835702735
 20
-121.0568657466455
 30
0.0
 10
87.28269990222446
 20
-121.2156846485155
 30
0.0
 10
87.18313664270075
 20
-121.2897542014484
 30
0.0
 10
87.131460210422
 20
-121.4334146831833
 30
0.0
 10
87.131460210422
 20
-121.4334146831833
 30
0.0
 10
87.9631062605613
 20
-121.4334146831833
 30
0.0
 10
87.9631062605613
 20
-121.4334146831833
 30
0.0
 10
87.9631062605613
 20
-121.4334146831833
 30
0.0
 10
87.9631062605613
 20
-121.6387423741042
 30
0.0
 10
87.9631062605613
 20
-121.6387423741042
 30
0.0
 10
87.9631062605613
 20
-121.6387423741042
 30
0.0
 10
86.86446531031514
 20
-121.6387423741042
 30
0.0
 10
86.86446531031514
 20
-121.6387423741042
 30
0.0
 10
86.89857175561912
 20
-121.2811414627353
 30
0.0
 10
86.96850719396969
 20
-121.2029377952201
 30
0.0
 10
87.37985159490852
 20
-120.9045925261975
 30
0.0
 10
87.65339217643735
 20
-120.7058105166985
 30
0.0
 10
87.72367212433645
 20
-120.6379421356391
 30
0.0
 10
87.72367212433645
 20
-120.5004828257777
 30
0.0
 10
87.72367212433645
 20
-120.3819715410851
 30
0.0
 10
87.64684649501538
 20
-120.2510579126456
 30
0.0
 10
87.43635116086661
 20
-120.2510579126456
 30
0.0
 10
87.15833195520695
 20
-120.2510579126456
 30
0.0
 10
87.1493747069453
 20
-120.4815348006088
 30
0.0
 10
87.14489608281447
 20
-120.5979790280102
 30
0.0
 10
87.14489608281447
 20
-120.5979790280102
 30
0.0
 10
86.90511743704108
 20
-120.5979790280102
 30
0.0
 10
86.90511743704108
 20
-120.5979790280102
 30
0.0
 10
86.91441919485126
 20
-120.4708550046045
 30
0.0
 10
86.92544350040406
 20
-120.3588894013339
 30
0.0
 10
87.0115708875353
 20
-120.2403781166413
 30
0.0
 10
87.12904864358232
 20
-120.0794921574801
 30
0.0
 10
87.32783065308124
 20
-120.0457302217247
 30
0.0
 10
87.45219860009875
 20
-120.0457302217247
 30
0.0
 10
87.74847681183024
 20
-120.0457302217247
 30
0.0
 10
87.96999645153181
 20
-120.229698320637
 30
0.0
 10
87.96999645153181
 20
-120.5025498830688
 30
0.0
 10
87.96999645153181
 20
-120.7313042232894
 30
0.0
 10
87.8456285045143
 20
-120.8305229732646
 30
0.0
 10
87.51558835702735
 20
-121.0568657466455
 30
0.0
  0
HATCH
  5
CC
330
C5
100
AcDbEntity
  8
_U+30EC_U+30A4_U+30E4_U+30FC 1
 62
   179
420
  2234388
100
AcDbHatch
 10
0.0
 20
0.0
 30
0.0
210
0.0
220
0.0
230
1.0
  2
SOLID
 70
     1
 71
     0
 91
        1
 92
        1
 93
        1
 72
     4
 94
        3
 73
     0
 74
     1
 95
       44
 96
       40
 40
0.0
 40
0.0
 40
0.0
 40
0.0
 40
1.0
 40
1.0
 40
1.0
 40
2.0
 40
2.0
 40
2.0
 40
3.0
 40
3.0
 40
3.0
 40
4.0
 40
4.0
 40
4.0
 40
5.0
 40
5.0
 40
5.0
 40
6.0
 40
6.0
 40
6.0
 40
7.0
 40
7.0
 40
7.0
 40
8.0
 40
8.0
 40
8.0
 40
9.0
 40
9.0
 40
9.0
 40
10.0
 40
10.0
 40
10.0
 40
11.0
 40
11.0
 40
11.0
 40
12.0
 40
12.0
 40
12.0
 40
13.0
 40
13.0
 40
13.0
 40
13.0
 10
87.51558835702735
 20
-121.0568657466455
 10
87.28269990222446
 20
-121.2156846485155
 10
87.18313664270075
 20
-121.2897542014484
 10
87.131460210422
 20
-121.4334146831833
 10
87.131460210422
 20
-121.4334146831833
 10
87.9631062605613
 20
-121.4334146831833
 10
87.9631062605613
 20
-121.4334146831833
 10
87.9631062605613
 20
-121.4334146831833
 10
87.9631062605613
 20
-121.6387423741042
 10
87.9631062605613
 20
-121.6387423741042
 10
87.9631062605613
 20
-121.6387423741042
 10
86.86446531031514
 20
-121.6387423741042
 10
86.86446531031514
 20
-121.6387423741042
 10
86.89857175561912
 20
-121.2811414627353
 10
86.96850719396969
 20
-121.2029377952201
 10
87.37985159490852
 20
-120.9045925261975
 10
87.65339217643735
 20
-120.7058105166985
 10
87.72367212433645
 20
-120.6379421356391
 10
87.72367212433645
 20
-120.5004828257777
 10
87.72367212433645
 20
-120.3819715410851
 10
87.64684649501538
 20
-120.2510579126456
 10
87.43635116086661
 20
-120.2510579126456
 10
87.15833195520695
 20
-120.2510579126456
 10
87.1493747069453
 20
-120.4815348006088
 10
87.14489608281447
 20
-120.5979790280102
 10
87.14489608281447
 20
-120.5979790280102
 10
86.90511743704108
 20
-120.5979790280102
 10
86.90511743704108
 20
-120.5979790280102
 10
86.91441919485126
 20
-120.4708550046045
 10
86.92544350040406
 20
-120.3588894013339
 10
87.0115708875353
 20
-120.2403781166413
 10
87.12904864358232
 20
-120.0794921574801
 10
87.32783065308124
 20
-120.0457302217247
 10
87.45219860009875
 20
-120.0457302217247
 10
87.74847681183024
 20
-120.0457302217247
 10
87.96999645153181
 20
-120.229698320637
 10
87.96999645153181
 20
-120.5025498830688
 10
87.96999645153181
 20
-120.7313042232894
 10
87.8456285045143
 20
-120.8305229732646
 10
87.51558835702735
 20
-121.0568657466455
 97
        0
 97
        0
 75
     2
 76
     1
 98
        0
  0
ENDBLK
  5
C8
330
C5
100
AcDbEntity
  8
0
100
AcDbBlockEnd
  0
BLOCK
  5
DB
330
D9
100
AcDbEntity
  8
0
100
AcDbBlockBegin
  2
block 5
 70
     0
 10
0.0
 20
0.0
 30
0.0
  3
block 5
  1

  0
SPLINE
  5
DD
330
D9
100
AcDbEntity
  8
_U+30EC_U+30A4_U+30E4_U+30FC 1
370
     0
100
AcDbSpline
210
0.0
220
0.0
230
1.0
 70
    11
 71
     3
 72
    62
 73
    58
 74
     0
 42
0.0000000001
 43
0.0000000001
 12
1.0
 22
0.0
 32
0.0
 13
1.0
 23
0.0
 33
0.0
 40
0.0
 40
0.0
 40
0.0
 40
0.0
 40
1.0
 40
1.0
 40
1.0
 40
2.0
 40
2.0
 40
2.0
 40
3.0
 40
3.0
 40
3.0
 40
4.0
 40
4.0
 40
4.0
 40
5.0
 40
5.0
 40
5.0
 40
6.0
 40
6.0
 40
6.0
 40
7.0
 40
7.0
 40
7.0
 40
8.0
 40
8.0
 40
8.0
 40
9.0
 40
9.0
 40
9.0
 40
10.0
 40
10.0
 40
10.0
 40
11.0
 40
11.0
 40
11.0
 40
12.0
 40
12.0
 40
12.0
 40
13.0
 40
13.0
 40
13.0
 40
14.0
 40
14.0
 40
14.0
 40
15.0
 40
15.0
 40
15.0
 40
16.0
 40
16.0
 40
16.0
 40
17.0
 40
17.0
 40
17.0
 40
18.0
 40
18.0
 40
18.0
 40
19.0
 40
19.0
 40
19.0
 40
19.0
 10
76.23634573831939
 20
-129.9910318685439
 30
0.0
 10
76.23634573831939
 20
-130.0926621853588
 30
0.0
 10
76.2151584010851
 20
-130.3255506401617
 30
0.0
 10
76.02895099010735
 20
-130.4588758354408
 30
0.0
 10
75.91681313206247
 20
-130.5381130316016
 30
0.0
 10
75.81742212731301
 20
-130.5425916557324
 30
0.0
 10
75.73284503315013
 20
-130.5470702798632
 30
0.0
 10
75.73284503315013
 20
-130.5470702798632
 30
0.0
 10
75.73284503315013
 20
-130.3121147677692
 30
0.0
 10
75.73284503315013
 20
-130.3121147677692
 30
0.0
 10
75.806914586083
 20
-130.3097032009295
 30
0.0
 10
76.04169784340277
 20
-130.2983343858282
 30
0.0
 10
76.04169784340277
 20
-129.9955104926747
 30
0.0
 10
76.04169784340277
 20
-129.8484049154546
 30
0.0
 10
75.97193465982646
 20
-129.6857964085508
 30
0.0
 10
75.74335257438014
 20
-129.6857964085508
 30
0.0
 10
75.62708060175295
 20
-129.6857964085508
 30
0.0
 10
75.57833250063668
 20
-129.7264485352767
 30
0.0
 10
75.54663762217237
 20
-129.7602104710322
 30
0.0
 10
75.4725680692395
 20
-129.8394476671929
 30
0.0
 10
75.45999347071835
 20
-129.9638156142104
 30
0.0
 10
75.45999347071835
 20
-130.0227267470082
 30
0.0
 10
75.45999347071835
 20
-130.0430528103712
 30
0.0
 10
75.46206052800949
 20
-130.0812933702575
 30
0.0
 10
75.46619464259179
 20
-130.1109211914306
 30
0.0
 10
75.46619464259179
 20
-130.1109211914306
 30
0.0
 10
75.27171900244943
 20
-130.1109211914306
 30
0.0
 10
75.27171900244943
 20
-130.1109211914306
 30
0.0
 10
75.27792017432289
 20
-130.0702690647047
 30
0.0
 10
75.2801594863883
 20
-130.0247938042993
 30
0.0
 10
75.2801594863883
 20
-130.0182481228774
 30
0.0
 10
75.2801594863883
 20
-129.9479681749783
 30
0.0
 10
75.258972149154
 20
-129.7354057835384
 30
0.0
 10
75.02194957976882
 20
-129.7354057835384
 30
0.0
 10
74.8443549075042
 20
-129.7354057835384
 30
0.0
 10
74.7892333797402
 20
-129.875621169788
 30
0.0
 10
74.7892333797402
 20
-129.9930989258351
 30
0.0
 10
74.7892333797402
 20
-130.2759412651741
 30
0.0
 10
75.02194957976882
 20
-130.2848985134357
 30
0.0
 10
75.09395207541054
 20
-130.2893771375666
 30
0.0
 10
75.09395207541054
 20
-130.2893771375666
 30
0.0
 10
75.09395207541054
 20
-130.5064181531373
 30
0.0
 10
75.09395207541054
 20
-130.5064181531373
 30
0.0
 10
74.96906736407024
 20
-130.4974609048757
 30
0.0
 10
74.59251842753243
 20
-130.468177593251
 30
0.0
 10
74.59251842753243
 20
-129.9796630534426
 30
0.0
 10
74.59251842753243
 20
-129.7398844076692
 30
0.0
 10
74.71947019616388
 20
-129.4821912653725
 30
0.0
 10
75.0155761531211
 20
-129.4821912653725
 30
0.0
 10
75.20178356409886
 20
-129.4821912653725
 30
0.0
 10
75.2842936009706
 20
-129.5841660917359
 30
0.0
 10
75.34561630060804
 20
-129.6902750326816
 30
0.0
 10
75.37317706449004
 20
-129.6248182184619
 30
0.0
 10
75.45362004407063
 20
-129.4301703235452
 30
0.0
 10
75.73077797585897
 20
-129.4301703235452
 30
0.0
 10
76.06925860728477
 20
-129.4301703235452
 30
0.0
 10
76.23634573831939
 20
-129.6947536568124
 30
0.0
 10
76.23634573831939
 20
-129.9910318685439
 30
0.0
  0
HATCH
  5
DE
330
D9
100
AcDbEntity
  8
_U+30EC_U+30A4_U+30E4_U+30FC 1
 62
   179
420
  2234388
100
AcDbHatch
 10
0.0
 20
0.0
 30
0.0
210
0.0
220
0.0
230
1.0
  2
SOLID
 70
     1
 71
     0
 91
        1
 92
        1
 93
        1
 72
     4
 94
        3
 73
     0
 74
     1
 95
       62
 96
       58
 40
0.0
 40
0.0
 40
0.0
 40
0.0
 40
1.0
 40
1.0
 40
1.0
 40
2.0
 40
2.0
 40
2.0
 40
3.0
 40
3.0
 40
3.0
 40
4.0
 40
4.0
 40
4.0
 40
5.0
 40
5.0
 40
5.0
 40
6.0
 40
6.0
 40
6.0
 40
7.0
 40
7.0
 40
7.0
 40
8.0
 40
8.0
 40
8.0
 40
9.0
 40
9.0
 40
9.0
 40
10.0
 40
10.0
 40
10.0
 40
11.0
 40
11.0
 40
11.0
 40
12.0
 40
12.0
 40
12.0
 40
13.0
 40
13.0
 40
13.0
 40
14.0
 40
14.0
 40
14.0
 40
15.0
 40
15.0
 40
15.0
 40
16.0
 40
16.0
 40
16.0
 40
17.0
 40
17.0
 40
17.0
 40
18.0
 40
18.0
 40
18.0
 40
19.0
 40
19.0
 40
19.0
 40
19.0
 10
76.23634573831939
 20
-129.9910318685439
 10
76.23634573831939
 20
-130.0926621853588
 10
76.2151584010851
 20
-130.3255506401617
 10
76.02895099010735
 20
-130.4588758354408
 10
75.91681313206247
 20
-130.5381130316016
 10
75.81742212731301
 20
-130.5425916557324
 10
75.73284503315013
 20
-130.5470702798632
 10
75.73284503315013
 20
-130.5470702798632
 10
75.73284503315013
 20
-130.3121147677692
 10
75.73284503315013
 20
-130.3121147677692
 10
75.806914586083
 20
-130.3097032009295
 10
76.04169784340277
 20
-130.2983343858282
 10
76.04169784340277
 20
-129.9955104926747
 10
76.04169784340277
 20
-129.8484049154546
 10
75.97193465982646
 20
-129.6857964085508
 10
75.74335257438014
 20
-129.6857964085508
 10
75.62708060175295
 20
-129.6857964085508
 10
75.57833250063668
 20
-129.7264485352767
 10
75.54663762217237
 20
-129.7602104710322
 10
75.4725680692395
 20
-129.8394476671929
 10
75.45999347071835
 20
-129.9638156142104
 10
75.45999347071835
 20
-130.0227267470082
 10
75.45999347071835
 20
-130.0430528103712
 10
75.46206052800949
 20
-130.0812933702575
 10
75.46619464259179
 20
-130.1109211914306
 10
75.46619464259179
 20
-130.1109211914306
 10
75.27171900244943
 20
-130.1109211914306
 10
75.27171900244943
 20
-130.1109211914306
 10
75.27792017432289
 20
-130.0702690647047
 10
75.2801594863883
 20
-130.0247938042993
 10
75.2801594863883
 20
-130.0182481228774
 10
75.2801594863883
 20
-129.9479681749783
 10
75.258972149154
 20
-129.7354057835384
 10
75.02194957976882
 20
-129.7354057835384
 10
74.8443549075042
 20
-129.7354057835384
 10
74.7892333797402
 20
-129.875621169788
 10
74.7892333797402
 20
-129.9930989258351
 10
74.7892333797402
 20
-130.2759412651741
 10
75.02194957976882
 20
-130.2848985134357
 10
75.09395207541054
 20
-130.2893771375666
 10
75.09395207541054
 20
-130.2893771375666
 10
75.09395207541054
 20
-130.5064181531373
 10
75.09395207541054
 20
-130.5064181531373
 10
74.96906736407024
 20
-130.4974609048757
 10
74.59251842753243
 20
-130.468177593251
 10
74.59251842753243
 20
-129.9796630534426
 10
74.59251842753243
 20
-129.7398844076692
 10
74.71947019616388
 20
-129.4821912653725
 10
75.0155761531211
 20
-129.4821912653725
 10
75.20178356409886
 20
-129.4821912653725
 10
75.2842936009706
 20
-129.5841660917359
 10
75.34561630060804
 20
-129.6902750326816
 10
75.37317706449004
 20
-129.6248182184619
 10
75.45362004407063
 20
-129.4301703235452
 10
75.73077797585897
 20
-129.4301703235452
 10
76.06925860728477
 20
-129.4301703235452
 10
76.23634573831939
 20
-129.6947536568124
 10
76.23634573831939
 20
-129.9910318685439
 97
        0
 97
        0
 75
     2
 76
     1
 98
        0
  0
POLYLINE
  5
DF
330
D9
100
AcDbEntity
  8
_U+30EC_U+30A4_U+30E4_U+30FC 1
370
     0
100
AcDb2dPolyline
 66
     1
 10
0.0
 20
0.0
 30
0.0
  0
VERTEX
  5
E0
330
DF
100
AcDbEntity
  8
_U+30EC_U+30A4_U+30E4_U+30FC 1
370
     0
100
AcDbVertex
100
AcDb2dVertex
 10
76.18553057991195
 20
-129.1945257923541
 30
0.0
  0
VERTEX
  5
E1
330
DF
100
AcDbEntity
  8
_U+30EC_U+30A4_U+30E4_U+30FC 1
370
     0
100
AcDbVertex
100
AcDb2dVertex
 10
75.93386635471445
 20
-129.1945257923541
 30
0.0
  0
VERTEX
  5
E2
330
DF
100
AcDbEntity
  8
_U+30EC_U+30A4_U+30E4_U+30FC 1
370
     0
100
AcDbVertex
100
AcDb2dVertex
 10
75.93386635471445
 20
-128.9254638349561
 30
0.0
  0
VERTEX
  5
E3
330
DF
100
AcDbEntity
  8
_U+30EC_U+30A4_U+30E4_U+30FC 1
370
     0
100
AcDbVertex
100
AcDb2dVertex
 10
76.18553057991195
 20
-128.9254638349561
 30
0.0
  0
VERTEX
  5
E4
330
DF
100
AcDbEntity
  8
_U+30EC_U+30A4_U+30E4_U+30FC 1
370
     0
100
AcDbVertex
100
AcDb2dVertex
 10
76.18553057991195
 20
-129.1945257923541
 30
0.0
  0
SEQEND
  5
E5
330
DF
100
AcDbEntity
  8
_U+30EC_U+30A4_U+30E4_U+30FC 1
370
     0
  0
HATCH
  5
E6
330
D9
100
AcDbEntity
  8
_U+30EC_U+30A4_U+30E4_U+30FC 1
 62
   179
420
  2234388
100
AcDbHatch
 10
0.0
 20
0.0
 30
0.0
210
0.0
220
0.0
230
1.0
  2
SOLID
 70
     1
 71
     0
 91
        1
 92
        1
 93
        4
 72
     1
 10
76.18553057991195
 20
-129.1945257923541
 11
75.93386635471445
 21
-129.1945257923541
 72
     1
 10
75.93386635471445
 20
-129.1945257923541
 11
75.93386635471445
 21
-128.9254638349561
 72
     1
 10
75.93386635471445
 20
-128.9254638349561
 11
76.18553057991195
 21
-128.9254638349561
 72
     1
 10
76.18553057991195
 20
-128.9254638349561
 11
76.18553057991195
 21
-129.1945257923541
 97
        0
 75
     2
 76
     1
 98
        0
  0
SPLINE
  5
E7
330
D9
100
AcDbEntity
  8
_U+30EC_U+30A4_U+30E4_U+30FC 1
370
     0
100
AcDbSpline
210
0.0
220
0.0
230
1.0
 70
    11
 71
     3
 72
    53
 73
    49
 74
     0
 42
0.0000000001
 43
0.0000000001
 12
1.0
 22
0.0
 32
0.0
 13
1.0
 23
0.0
 33
0.0
 40
0.0
 40
0.0
 40
0.0
 40
0.0
 40
1.0
 40
1.0
 40
1.0
 40
2.0
 40
2.0
 40
2.0
 40
3.0
 40
3.0
 40
3.0
 40
4.0
 40
4.0
 40
4.0
 40
5.0
 40
5.0
 40
5.0
 40
6.0
 40
6.0
 40
6.0
 40
7.0
 40
7.0
 40
7.0
 40
8.0
 40
8.0
 40
8.0
 40
9.0
 40
9.0
 40
9.0
 40
10.0
 40
10.0
 40
10.0
 40
11.0
 40
11.0
 40
11.0
 40
12.0
 40
12.0
 40
12.0
 40
13.0
 40
13.0
 40
13.0
 40
14.0
 40
14.0
 40
14.0
 40
15.0
 40
15.0
 40
15.0
 40
16.0
 40
16.0
 40
16.0
 40
16.0
 10
76.23634573831939
 20
-128.1585855799395
 30
0.0
 10
76.23634573831939
 20
-128.2423014002311
 30
0.0
 10
76.21946477044166
 20
-128.3504773984679
 30
0.0
 10
76.1559027587388
 20
-128.4593424158018
 30
0.0
 10
76.04583195798507
 20
-128.6446885529083
 30
0.0
 10
75.91474607477132
 20
-128.6670816735624
 30
0.0
 10
75.806914586083
 20
-128.6874077369254
 30
0.0
 10
75.806914586083
 20
-128.6874077369254
 30
0.0
 10
75.806914586083
 20
-128.4500406579917
 30
0.0
 10
75.806914586083
 20
-128.4500406579917
 30
0.0
 10
76.00569659558191
 20
-128.3914740347424
 30
0.0
 10
76.03532441675506
 20
-128.2557372726236
 30
0.0
 10
76.03532441675506
 20
-128.1561740130998
 30
0.0
 10
76.03532441675506
 20
-128.0070013785885
 30
0.0
 10
75.93593341200561
 20
-127.8440483621362
 30
0.0
 10
75.70321721197698
 20
-127.8440483621362
 30
0.0
 10
75.44724661742292
 20
-127.8440483621362
 30
0.0
 10
75.3774834338466
 20
-128.0362846902132
 30
0.0
 10
75.3774834338466
 20
-128.1651312613615
 30
0.0
 10
75.3774834338466
 20
-128.1992377066655
 30
0.0
 10
75.3774834338466
 20
-128.3504773984679
 30
0.0
 10
75.5065022597692
 20
-128.4455620338608
 30
0.0
 10
75.5065022597692
 20
-128.4455620338608
 30
0.0
 10
75.48738197982607
 20
-128.6333197378069
 30
0.0
 10
75.48738197982607
 20
-128.6333197378069
 30
0.0
 10
75.48738197982607
 20
-128.6333197378069
 30
0.0
 10
74.64126652864871
 20
-128.5044731666586
 30
0.0
 10
74.64126652864871
 20
-128.5044731666586
 30
0.0
 10
74.64126652864871
 20
-128.5044731666586
 30
0.0
 10
74.64126652864871
 20
-127.6724826069708
 30
0.0
 10
74.64126652864871
 20
-127.6724826069708
 30
0.0
 10
74.64126652864871
 20
-127.6724826069708
 30
0.0
 10
74.83591442356533
 20
-127.6724826069708
 30
0.0
 10
74.83591442356533
 20
-127.6724826069708
 30
0.0
 10
74.83591442356533
 20
-127.6724826069708
 30
0.0
 10
74.83591442356533
 20
-128.330151335105
 30
0.0
 10
74.83591442356533
 20
-128.330151335105
 30
0.0
 10
74.83591442356533
 20
-128.330151335105
 30
0.0
 10
75.258972149154
 20
-128.4004312830041
 30
0.0
 10
75.258972149154
 20
-128.4004312830041
 30
0.0
 10
75.2250379586243
 20
-128.3349744687843
 30
0.0
 10
75.18490259622114
 20
-128.2467800243619
 30
0.0
 10
75.18490259622114
 20
-128.1200005105047
 30
0.0
 10
75.18490259622114
 20
-127.8488714958156
 30
0.0
 10
75.3711100071989
 20
-127.5956569776497
 30
0.0
 10
75.68409693203384
 20
-127.5956569776497
 30
0.0
 10
76.00156248099961
 20
-127.5956569776497
 30
0.0
 10
76.23634573831939
 20
-127.8350911138746
 30
0.0
 10
76.23634573831939
 20
-128.1585855799395
 30
0.0
  0
HATCH
  5
E8
330
D9
100
AcDbEntity
  8
_U+30EC_U+30A4_U+30E4_U+30FC 1
 62
   179
420
  2234388
100
AcDbHatch
 10
0.0
 20
0.0
 30
0.0
210
0.0
220
0.0
230
1.0
  2
SOLID
 70
     1
 71
     0
 91
        1
 92
        1
 93
        1
 72
     4
 94
        3
 73
     0
 74
     1
 95
       53
 96
       49
 40
0.0
 40
0.0
 40
0.0
 40
0.0
 40
1.0
 40
1.0
 40
1.0
 40
2.0
 40
2.0
 40
2.0
 40
3.0
 40
3.0
 40
3.0
 40
4.0
 40
4.0
 40
4.0
 40
5.0
 40
5.0
 40
5.0
 40
6.0
 40
6.0
 40
6.0
 40
7.0
 40
7.0
 40
7.0
 40
8.0
 40
8.0
 40
8.0
 40
9.0
 40
9.0
 40
9.0
 40
10.0
 40
10.0
 40
10.0
 40
11.0
 40
11.0
 40
11.0
 40
12.0
 40
12.0
 40
12.0
 40
13.0
 40
13.0
 40
13.0
 40
14.0
 40
14.0
 40
14.0
 40
15.0
 40
15.0
 40
15.0
 40
16.0
 40
16.0
 40
16.0
 40
16.0
 10
76.23634573831939
 20
-128.1585855799395
 10
76.23634573831939
 20
-128.2423014002311
 10
76.21946477044166
 20
-128.3504773984679
 10
76.1559027587388
 20
-128.4593424158018
 10
76.04583195798507
 20
-128.6446885529083
 10
75.91474607477132
 20
-128.6670816735624
 10
75.806914586083
 20
-128.6874077369254
 10
75.806914586083
 20
-128.6874077369254
 10
75.806914586083
 20
-128.4500406579917
 10
75.806914586083
 20
-128.4500406579917
 10
76.00569659558191
 20
-128.3914740347424
 10
76.03532441675506
 20
-128.2557372726236
 10
76.03532441675506
 20
-128.1561740130998
 10
76.03532441675506
 20
-128.0070013785885
 10
75.93593341200561
 20
-127.8440483621362
 10
75.70321721197698
 20
-127.8440483621362
 10
75.44724661742292
 20
-127.8440483621362
 10
75.3774834338466
 20
-128.0362846902132
 10
75.3774834338466
 20
-128.1651312613615
 10
75.3774834338466
 20
-128.1992377066655
 10
75.3774834338466
 20
-128.3504773984679
 10
75.5065022597692
 20
-128.4455620338608
 10
75.5065022597692
 20
-128.4455620338608
 10
75.48738197982607
 20
-128.6333197378069
 10
75.48738197982607
 20
-128.6333197378069
 10
75.48738197982607
 20
-128.6333197378069
 10
74.64126652864871
 20
-128.5044731666586
 10
74.64126652864871
 20
-128.5044731666586
 10
74.64126652864871
 20
-128.5044731666586
 10
74.64126652864871
 20
-127.6724826069708
 10
74.64126652864871
 20
-127.6724826069708
 10
74.64126652864871
 20
-127.6724826069708
 10
74.83591442356533
 20
-127.6724826069708
 10
74.83591442356533
 20
-127.6724826069708
 10
74.83591442356533
 20
-127.6724826069708
 10
74.83591442356533
 20
-128.330151335105
 10
74.83591442356533
 20
-128.330151335105
 10
74.83591442356533
 20
-128.330151335105
 10
75.258972149154
 20
-128.4004312830041
 10
75.258972149154
 20
-128.4004312830041
 10
75.2250379586243
 20
-128.3349744687843
 10
75.18490259622114
 20
-128.2467800243619
 10
75.18490259622114
 20
-128.1200005105047
 10
75.18490259622114
 20
-127.8488714958156
 10
75.3711100071989
 20
-127.5956569776497
 10
75.68409693203384
 20
-127.5956569776497
 10
76.00156248099961
 20
-127.5956569776497
 10
76.23634573831939
 20
-127.8350911138746
 10
76.23634573831939
 20
-128.1585855799395
 97
        0
 97
        0
 75
     2
 76
     1
 98
        0
  0
ENDBLK
  5
DC
330
D9
100
AcDbEntity
  8
0
100
AcDbBlockEnd
  0
BLOCK
  5
F7
330
F5
100
AcDbEntity
  8
0
100
AcDbBlockBegin
  2
block 6
 70
     0
 10
0.0
 20
0.0
 30
0.0
  3
block 6
  1

  0
SPLINE
  5
F9
330
F5
100
AcDbEntity
  8
_U+30EC_U+30A4_U+30E4_U+30FC 1
370
     0
100
AcDbSpline
210
0.0
220
0.0
230
1.0
 70
    11
 71
     3
 72
    26
 73
    22
 74
     0
 42
0.0000000001
 43
0.0000000001
 12
1.0
 22
0.0
 32
0.0
 13
1.0
 23
0.0
 33
0.0
 40
0.0
 40
0.0
 40
0.0
 40
0.0
 40
1.0
 40
1.0
 40
1.0
 40
2.0
 40
2.0
 40
2.0
 40
3.0
 40
3.0
 40
3.0
 40
4.0
 40
4.0
 40
4.0
 40
5.0
 40
5.0
 40
5.0
 40
6.0
 40
6.0
 40
6.0
 40
7.0
 40
7.0
 40
7.0
 40
7.0
 10
76.18570283468621
 20
-134.8193331911216
 30
0.0
 10
76.18570283468621
 20
-134.8193331911216
 30
0.0
 10
75.08137747688939
 20
-134.8193331911216
 30
0.0
 10
75.08137747688939
 20
-134.8193331911216
 30
0.0
 10
75.08137747688939
 20
-134.8193331911216
 30
0.0
 10
75.08137747688939
 20
-135.1717664592626
 30
0.0
 10
75.08137747688939
 20
-135.1717664592626
 30
0.0
 10
75.08137747688939
 20
-135.1717664592626
 30
0.0
 10
74.93323837102363
 20
-135.1717664592626
 30
0.0
 10
74.93323837102363
 20
-135.1717664592626
 30
0.0
 10
74.91859671521132
 20
-134.8169216242819
 30
0.0
 10
74.75564369875902
 20
-134.7673122492943
 30
0.0
 10
74.64143878342297
 20
-134.73561737083
 30
0.0
 10
74.64143878342297
 20
-134.73561737083
 30
0.0
 10
74.64143878342297
 20
-134.5795545453482
 30
0.0
 10
74.64143878342297
 20
-134.5795545453482
 30
0.0
 10
74.64143878342297
 20
-134.5795545453482
 30
0.0
 10
76.18570283468621
 20
-134.5795545453482
 30
0.0
 10
76.18570283468621
 20
-134.5795545453482
 30
0.0
 10
76.18570283468621
 20
-134.5795545453482
 30
0.0
 10
76.18570283468621
 20
-134.8193331911216
 30
0.0
 10
76.18570283468621
 20
-134.8193331911216
 30
0.0
  0
HATCH
  5
FA
330
F5
100
AcDbEntity
  8
_U+30EC_U+30A4_U+30E4_U+30FC 1
 62
   179
420
  2234388
100
AcDbHatch
 10
0.0
 20
0.0
 30
0.0
210
0.0
220
0.0
230
1.0
  2
SOLID
 70
     1
 71
     0
 91
        1
 92
        1
 93
        1
 72
     4
 94
        3
 73
     0
 74
     1
 95
       26
 96
       22
 40
0.0
 40
0.0
 40
0.0
 40
0.0
 40
1.0
 40
1.0
 40
1.0
 40
2.0
 40
2.0
 40
2.0
 40
3.0
 40
3.0
 40
3.0
 40
4.0
 40
4.0
 40
4.0
 40
5.0
 40
5.0
 40
5.0
 40
6.0
 40
6.0
 40
6.0
 40
7.0
 40
7.0
 40
7.0
 40
7.0
 10
76.18570283468621
 20
-134.8193331911216
 10
76.18570283468621
 20
-134.8193331911216
 10
75.08137747688939
 20
-134.8193331911216
 10
75.08137747688939
 20
-134.8193331911216
 10
75.08137747688939
 20
-134.8193331911216
 10
75.08137747688939
 20
-135.1717664592626
 10
75.08137747688939
 20
-135.1717664592626
 10
75.08137747688939
 20
-135.1717664592626
 10
74.93323837102363
 20
-135.1717664592626
 10
74.93323837102363
 20
-135.1717664592626
 10
74.91859671521132
 20
-134.8169216242819
 10
74.75564369875902
 20
-134.7673122492943
 10
74.64143878342297
 20
-134.73561737083
 10
74.64143878342297
 20
-134.73561737083
 10
74.64143878342297
 20
-134.5795545453482
 10
74.64143878342297
 20
-134.5795545453482
 10
74.64143878342297
 20
-134.5795545453482
 10
76.18570283468621
 20
-134.5795545453482
 10
76.18570283468621
 20
-134.5795545453482
 10
76.18570283468621
 20
-134.5795545453482
 10
76.18570283468621
 20
-134.8193331911216
 10
76.18570283468621
 20
-134.8193331911216
 97
        0
 97
        0
 75
     2
 76
     1
 98
        0
  0
ENDBLK
  5
F8
330
F5
100
AcDbEntity
  8
0
100
AcDbBlockEnd
  0
BLOCK
  5
109
330
107
100
AcDbEntity
  8
0
100
AcDbBlockBegin
  2
block 7
 70
     0
 10
0.0
 20
0.0
 30
0.0
  3
block 7
  1

  0
SPLINE
  5
10B
330
107
100
AcDbEntity
  8
_U+30EC_U+30A4_U+30E4_U+30FC 1
370
     0
100
AcDbSpline
210
0.0
220
0.0
230
1.0
 70
    11
 71
     3
 72
    26
 73
    22
 74
     0
 42
0.0000000001
 43
0.0000000001
 12
1.0
 22
0.0
 32
0.0
 13
1.0
 23
0.0
 33
0.0
 40
0.0
 40
0.0
 40
0.0
 40
0.0
 40
1.0
 40
1.0
 40
1.0
 40
2.0
 40
2.0
 40
2.0
 40
3.0
 40
3.0
 40
3.0
 40
4.0
 40
4.0
 40
4.0
 40
5.0
 40
5.0
 40
5.0
 40
6.0
 40
6.0
 40
6.0
 40
7.0
 40
7.0
 40
7.0
 40
7.0
 10
100.2298855001161
 20
-126.5133802309585
 30
0.0
 10
100.2298855001161
 20
-126.5133802309585
 30
0.0
 10
99.97667098195028
 20
-126.5133802309585
 30
0.0
 10
99.97667098195028
 20
-126.5133802309585
 30
0.0
 10
100.0035427267352
 20
-126.2045274207058
 30
0.0
 10
100.2095594367532
 20
-125.68621280495
 30
0.0
 10
100.6436414678947
 20
-125.1806450424896
 30
0.0
 10
100.6436414678947
 20
-125.1806450424896
 30
0.0
 10
99.74826115127821
 20
-125.1806450424896
 30
0.0
 10
99.74826115127821
 20
-125.1806450424896
 30
0.0
 10
99.74826115127821
 20
-125.1806450424896
 30
0.0
 10
99.74826115127821
 20
-124.9691161796952
 30
0.0
 10
99.74826115127821
 20
-124.9691161796952
 30
0.0
 10
99.74826115127821
 20
-124.9691161796952
 30
0.0
 10
100.8968559860605
 20
-124.9691161796952
 30
0.0
 10
100.8968559860605
 20
-124.9691161796952
 30
0.0
 10
100.8968559860605
 20
-124.9691161796952
 30
0.0
 10
100.8968559860605
 20
-125.1806450424896
 30
0.0
 10
100.8968559860605
 20
-125.1806450424896
 30
0.0
 10
100.5509683993414
 20
-125.4703775727991
 30
0.0
 10
100.2660590027113
 20
-126.0627617414878
 30
0.0
 10
100.2298855001161
 20
-126.5133802309585
 30
0.0
  0
HATCH
  5
10C
330
107
100
AcDbEntity
  8
_U+30EC_U+30A4_U+30E4_U+30FC 1
 62
   179
420
  2234388
100
AcDbHatch
 10
0.0
 20
0.0
 30
0.0
210
0.0
220
0.0
230
1.0
  2
SOLID
 70
     1
 71
     0
 91
        1
 92
        1
 93
        1
 72
     4
 94
        3
 73
     0
 74
     1
 95
       26
 96
       22
 40
0.0
 40
0.0
 40
0.0
 40
0.0
 40
1.0
 40
1.0
 40
1.0
 40
2.0
 40
2.0
 40
2.0
 40
3.0
 40
3.0
 40
3.0
 40
4.0
 40
4.0
 40
4.0
 40
5.0
 40
5.0
 40
5.0
 40
6.0
 40
6.0
 40
6.0
 40
7.0
 40
7.0
 40
7.0
 40
7.0
 10
100.2298855001161
 20
-126.5133802309585
 10
100.2298855001161
 20
-126.5133802309585
 10
99.97667098195028
 20
-126.5133802309585
 10
99.97667098195028
 20
-126.5133802309585
 10
100.0035427267352
 20
-126.2045274207058
 10
100.2095594367532
 20
-125.68621280495
 10
100.6436414678947
 20
-125.1806450424896
 10
100.6436414678947
 20
-125.1806450424896
 10
99.74826115127821
 20
-125.1806450424896
 10
99.74826115127821
 20
-125.1806450424896
 10
99.74826115127821
 20
-125.1806450424896
 10
99.74826115127821
 20
-124.9691161796952
 10
99.74826115127821
 20
-124.9691161796952
 10
99.74826115127821
 20
-124.9691161796952
 10
100.8968559860605
 20
-124.9691161796952
 10
100.8968559860605
 20
-124.9691161796952
 10
100.8968559860605
 20
-124.9691161796952
 10
100.8968559860605
 20
-125.1806450424896
 10
100.8968559860605
 20
-125.1806450424896
 10
100.5509683993414
 20
-125.4703775727991
 10
100.2660590027113
 20
-126.0627617414878
 10
100.2298855001161
 20
-126.5133802309585
 97
        0
 97
        0
 75
     2
 76
     1
 98
        0
  0
ENDBLK
  5
10A
330
107
100
AcDbEntity
  8
0
100
AcDbBlockEnd
  0
ENDSEC
  0
SECTION
  2
ENTITIES
  0
POLYLINE
  5
41
330
1F
100
AcDbEntity
  8
_U+30EC_U+30A4_U+30E4_U+30FC 1
 62
   179
420
  2234388
370
    25
100
AcDb2dPolyline
 66
     1
 10
0.0
 20
0.0
 30
0.0
  0
VERTEX
  5
42
330
41
100
AcDbEntity
  8
_U+30EC_U+30A4_U+30E4_U+30FC 1
 62
   179
420
  2234388
370
    25
100
AcDbVertex
100
AcDb2dVertex
 10
81.14629720193555
 20
-130.8095766339644
 30
0.0
  0
VERTEX
  5
43
330
41
100
AcDbEntity
  8
_U+30EC_U+30A4_U+30E4_U+30FC 1
 62
   179
420
  2234388
370
    25
100
AcDbVertex
100
AcDb2dVertex
 10
86.28224557653431
 20
-130.8095766339644
 30
0.0
  0
SEQEND
  5
44
330
41
100
AcDbEntity
  8
_U+30EC_U+30A4_U+30E4_U+30FC 1
 62
   179
420
  2234388
370
    25
  0
POLYLINE
  5
45
330
1F
100
AcDbEntity
  8
_U+30EC_U+30A4_U+30E4_U+30FC 1
 62
   179
420
  2234388
370
    25
100
AcDb2dPolyline
 66
     1
 10
0.0
 20
0.0
 30
0.0
  0
VERTEX
  5
46
330
45
100
AcDbEntity
  8
_U+30EC_U+30A4_U+30E4_U+30FC 1
 62
   179
420
  2234388
370
    25
100
AcDbVertex
100
AcDb2dVertex
 10
80.78215793907546
 20
-127.2354791348577
 30
0.0
  0
VERTEX
  5
47
330
45
100
AcDbEntity
  8
_U+30EC_U+30A4_U+30E4_U+30FC 1
 62
   179
420
  2234388
370
    25
100
AcDbVertex
100
AcDb2dVertex
 10
86.28224557653431
 20
-127.2354791348577
 30
0.0
  0
SEQEND
  5
48
330
45
100
AcDbEntity
  8
_U+30EC_U+30A4_U+30E4_U+30FC 1
 62
   179
420
  2234388
370
    25
  0
POLYLINE
  5
49
330
1F
100
AcDbEntity
  8
_U+30EC_U+30A4_U+30E4_U+30FC 1
 62
   179
420
  2234388
370
    25
100
AcDb2dPolyline
 66
     1
 10
0.0
 20
0.0
 30
0.0
  0
VERTEX
  5
4A
330
49
100
AcDbEntity
  8
_U+30EC_U+30A4_U+30E4_U+30FC 1
 62
   179
420
  2234388
370
    25
100
AcDbVertex
100
AcDb2dVertex
 10
81.14629720193555
 20
-126.2357069128854
 30
0.0
  0
VERTEX
  5
4B
330
49
100
AcDbEntity
  8
_U+30EC_U+30A4_U+30E4_U+30FC 1
 62
   179
420
  2234388
370
    25
100
AcDbVertex
100
AcDb2dVertex
 10
92.41814458666114
 20
-126.2357069128854
 30
0.0
  0
SEQEND
  5
4C
330
49
100
AcDbEntity
  8
_U+30EC_U+30A4_U+30E4_U+30FC 1
 62
   179
420
  2234388
370
    25
  0
POLYLINE
  5
4D
330
1F
100
AcDbEntity
  8
_U+30EC_U+30A4_U+30E4_U+30FC 1
 62
   179
420
  2234388
370
    25
100
AcDb2dPolyline
 66
     1
 10
0.0
 20
0.0
 30
0.0
  0
VERTEX
  5
4E
330
4D
100
AcDbEntity
  8
_U+30EC_U+30A4_U+30E4_U+30FC 1
 62
   179
420
  2234388
370
    25
100
AcDbVertex
100
AcDb2dVertex
 10
80.78215793907546
 20
-131.8093488559363
 30
0.0
  0
VERTEX
  5
4F
330
4D
100
AcDbEntity
  8
_U+30EC_U+30A4_U+30E4_U+30FC 1
 62
   179
420
  2234388
370
    25
100
AcDbVertex
100
AcDb2dVertex
 10
103.7821042967424
 20
-131.8093488559363
 30
0.0
  0
SEQEND
  5
50
330
4D
100
AcDbEntity
  8
_U+30EC_U+30A4_U+30E4_U+30FC 1
 62
   179
420
  2234388
370
    25
  0
POLYLINE
  5
51
330
1F
100
AcDbEntity
  8
_U+30EC_U+30A4_U+30E4_U+30FC 1
 62
   179
420
  2234388
370
    25
100
AcDb2dPolyline
 66
     1
 10
0.0
 20
0.0
 30
0.0
  0
VERTEX
  5
52
330
51
100
AcDbEntity
  8
_U+30EC_U+30A4_U+30E4_U+30FC 1
 62
   179
420
  2234388
370
    25
100
AcDbVertex
100
AcDb2dVertex
 10
97.08211363434005
 20
-131.1092966338894
 30
0.0
  0
VERTEX
  5
53
330
51
100
AcDbEntity
  8
_U+30EC_U+30A4_U+30E4_U+30FC 1
 62
   179
420
  2234388
370
    25
100
AcDbVertex
100
AcDb2dVertex
 10
103.5271870810236
 20
-131.1092966338894
 30
0.0
  0
SEQEND
  5
54
330
51
100
AcDbEntity
  8
_U+30EC_U+30A4_U+30E4_U+30FC 1
 62
   179
420
  2234388
370
    25
  0
POLYLINE
  5
55
330
1F
100
AcDbEntity
  8
_U+30EC_U+30A4_U+30E4_U+30FC 1
 62
   179
420
  2234388
370
    25
100
AcDb2dPolyline
 66
     1
 10
0.0
 20
0.0
 30
0.0
  0
VERTEX
  5
56
330
55
100
AcDbEntity
  8
_U+30EC_U+30A4_U+30E4_U+30FC 1
 62
   179
420
  2234388
370
    25
100
AcDbVertex
100
AcDb2dVertex
 10
92.41814458666114
 20
-126.2357069128854
 30
0.0
  0
VERTEX
  5
57
330
55
100
AcDbEntity
  8
_U+30EC_U+30A4_U+30E4_U+30FC 1
 62
   179
420
  2234388
370
    25
100
AcDbVertex
100
AcDb2dVertex
 10
92.78192902182468
 20
-127.2354791348577
 30
0.0
  0
SEQEND
  5
58
330
55
100
AcDbEntity
  8
_U+30EC_U+30A4_U+30E4_U+30FC 1
 62
   179
420
  2234388
370
    25
  0
POLYLINE
  5
59
330
1F
100
AcDbEntity
  8
_U+30EC_U+30A4_U+30E4_U+30FC 1
 62
   179
420
  2234388
370
    25
100
AcDb2dPolyline
 66
     1
 10
0.0
 20
0.0
 30
0.0
  0
VERTEX
  5
5A
330
59
100
AcDbEntity
  8
_U+30EC_U+30A4_U+30E4_U+30FC 1
 62
   179
420
  2234388
370
    25
100
AcDbVertex
100
AcDb2dVertex
 10
103.5271870810236
 20
-131.1092966338894
 30
0.0
  0
VERTEX
  5
5B
330
59
100
AcDbEntity
  8
_U+30EC_U+30A4_U+30E4_U+30FC 1
 62
   179
420
  2234388
370
    25
100
AcDbVertex
100
AcDb2dVertex
 10
103.7821042967424
 20
-131.8093488559363
 30
0.0
  0
SEQEND
  5
5C
330
59
100
AcDbEntity
  8
_U+30EC_U+30A4_U+30E4_U+30FC 1
 62
   179
420
  2234388
370
    25
  0
POLYLINE
  5
5D
330
1F
100
AcDbEntity
  8
_U+30EC_U+30A4_U+30E4_U+30FC 1
 62
   179
420
  2234388
370
    25
100
AcDb2dPolyline
 66
     1
 10
0.0
 20
0.0
 30
0.0
  0
VERTEX
  5
5E
330
5D
100
AcDbEntity
  8
_U+30EC_U+30A4_U+30E4_U+30FC 1
 62
   179
420
  2234388
370
    25
100
AcDbVertex
100
AcDb2dVertex
 10
96.78239364198654
 20
-130.8095766339644
 30
0.0
  0
VERTEX
  5
5F
330
5D
100
AcDbEntity
  8
_U+30EC_U+30A4_U+30E4_U+30FC 1
 62
   179
420
  2234388
370
    25
100
AcDbVertex
100
AcDb2dVertex
 10
97.08211363434005
 20
-131.1092966338894
 30
0.0
  0
SEQEND
  5
60
330
5D
100
AcDbEntity
  8
_U+30EC_U+30A4_U+30E4_U+30FC 1
 62
   179
420
  2234388
370
    25
  0
POLYLINE
  5
61
330
1F
100
AcDbEntity
  8
_U+30EC_U+30A4_U+30E4_U+30FC 1
 62
   179
420
  2234388
370
    25
100
AcDb2dPolyline
 66
     1
 10
0.0
 20
0.0
 30
0.0
  0
VERTEX
  5
62
330
61
100
AcDbEntity
  8
_U+30EC_U+30A4_U+30E4_U+30FC 1
 62
   179
420
  2234388
370
    25
100
AcDbVertex
100
AcDb2dVertex
 10
80.78215793907546
 20
-127.2354791348577
 30
0.0
  0
VERTEX
  5
63
330
61
100
AcDbEntity
  8
_U+30EC_U+30A4_U+30E4_U+30FC 1
 62
   179
420
  2234388
370
    25
100
AcDbVertex
100
AcDb2dVertex
 10
81.14629720193555
 20
-126.2357069128854
 30
0.0
  0
SEQEND
  5
64
330
61
100
AcDbEntity
  8
_U+30EC_U+30A4_U+30E4_U+30FC 1
 62
   179
420
  2234388
370
    25
  0
POLYLINE
  5
65
330
1F
100
AcDbEntity
  8
_U+30EC_U+30A4_U+30E4_U+30FC 1
 62
   179
420
  2234388
370
    25
100
AcDb2dPolyline
 66
     1
 10
0.0
 20
0.0
 30
0.0
  0
VERTEX
  5
66
330
65
100
AcDbEntity
  8
_U+30EC_U+30A4_U+30E4_U+30FC 1
 62
   179
420
  2234388
370
    25
100
AcDbVertex
100
AcDb2dVertex
 10
80.78215793907546
 20
-131.8093488559363
 30
0.0
  0
VERTEX
  5
67
330
65
100
AcDbEntity
  8
_U+30EC_U+30A4_U+30E4_U+30FC 1
 62
   179
420
  2234388
370
    25
100
AcDbVertex
100
AcDb2dVertex
 10
81.14629720193555
 20
-130.8095766339644
 30
0.0
  0
SEQEND
  5
68
330
65
100
AcDbEntity
  8
_U+30EC_U+30A4_U+30E4_U+30FC 1
 62
   179
420
  2234388
370
    25
  0
POLYLINE
  5
69
330
1F
100
AcDbEntity
  8
_U+30EC_U+30A4_U+30E4_U+30FC 1
 62
   179
420
  2234388
370
    25
100
AcDb2dPolyline
 66
     1
 10
0.0
 20
0.0
 30
0.0
  0
VERTEX
  5
6A
330
69
100
AcDbEntity
  8
_U+30EC_U+30A4_U+30E4_U+30FC 1
 62
   179
420
  2234388
370
    25
100
AcDbVertex
100
AcDb2dVertex
 10
86.28224557653431
 20
-127.309209690395
 30
0.0
  0
VERTEX
  5
6B
330
69
100
AcDbEntity
  8
_U+30EC_U+30A4_U+30E4_U+30FC 1
 62
   179
420
  2234388
370
    25
100
AcDbVertex
100
AcDb2dVertex
 10
86.28224557653431
 20
-130.8095766339644
 30
0.0
  0
SEQEND
  5
6C
330
69
100
AcDbEntity
  8
_U+30EC_U+30A4_U+30E4_U+30FC 1
 62
   179
420
  2234388
370
    25
  0
POLYLINE
  5
6D
330
1F
100
AcDbEntity
  8
_U+30EC_U+30A4_U+30E4_U+30FC 1
 62
   179
420
  2234388
370
    25
100
AcDb2dPolyline
 66
     1
 10
0.0
 20
0.0
 30
0.0
  0
VERTEX
  5
6E
330
6D
100
AcDbEntity
  8
_U+30EC_U+30A4_U+30E4_U+30FC 1
 62
   179
420
  2234388
370
    25
100
AcDbVertex
100
AcDb2dVertex
 10
87.28201777325022
 20
-127.309209690395
 30
0.0
  0
VERTEX
  5
6F
330
6D
100
AcDbEntity
  8
_U+30EC_U+30A4_U+30E4_U+30FC 1
 62
   179
420
  2234388
370
    25
100
AcDbVertex
100
AcDb2dVertex
 10
87.28201777325022
 20
-130.8095766339644
 30
0.0
  0
SEQEND
  5
70
330
6D
100
AcDbEntity
  8
_U+30EC_U+30A4_U+30E4_U+30FC 1
 62
   179
420
  2234388
370
    25
  0
POLYLINE
  5
71
330
1F
100
AcDbEntity
  8
_U+30EC_U+30A4_U+30E4_U+30FC 1
 62
   179
420
  2234388
370
    25
100
AcDb2dPolyline
 66
     1
 10
0.0
 20
0.0
 30
0.0
  0
VERTEX
  5
72
330
71
100
AcDbEntity
  8
_U+30EC_U+30A4_U+30E4_U+30FC 1
 62
   179
420
  2234388
370
    25
100
AcDbVertex
100
AcDb2dVertex
 10
87.28201777325022
 20
-127.2354791348577
 30
0.0
  0
VERTEX
  5
73
330
71
100
AcDbEntity
  8
_U+30EC_U+30A4_U+30E4_U+30FC 1
 62
   179
420
  2234388
370
    25
100
AcDbVertex
100
AcDb2dVertex
 10
92.78192902182468
 20
-127.2354791348577
 30
0.0
  0
SEQEND
  5
74
330
71
100
AcDbEntity
  8
_U+30EC_U+30A4_U+30E4_U+30FC 1
 62
   179
420
  2234388
370
    25
  0
POLYLINE
  5
75
330
1F
100
AcDbEntity
  8
_U+30EC_U+30A4_U+30E4_U+30FC 1
 62
   179
420
  2234388
370
    25
100
AcDb2dPolyline
 66
     1
 10
0.0
 20
0.0
 30
0.0
  0
VERTEX
  5
76
330
75
100
AcDbEntity
  8
_U+30EC_U+30A4_U+30E4_U+30FC 1
 62
   179
420
  2234388
370
    25
100
AcDbVertex
100
AcDb2dVertex
 10
87.28201777325022
 20
-130.8095766339644
 30
0.0
  0
VERTEX
  5
77
330
75
100
AcDbEntity
  8
_U+30EC_U+30A4_U+30E4_U+30FC 1
 62
   179
420
  2234388
370
    25
100
AcDbVertex
100
AcDb2dVertex
 10
96.78239364198654
 20
-130.8095766339644
 30
0.0
  0
SEQEND
  5
78
330
75
100
AcDbEntity
  8
_U+30EC_U+30A4_U+30E4_U+30FC 1
 62
   179
420
  2234388
370
    25
  0
SPLINE
  5
79
330
1F
100
AcDbEntity
  8
_U+30EC_U+30A4_U+30E4_U+30FC 1
 62
   179
420
  2234388
370
     9
100
AcDbSpline
210
0.0
220
0.0
230
1.0
 70
    11
 71
     3
 72
    17
 73
    13
 74
     0
 42
0.0000000001
 43
0.0000000001
 12
1.0
 22
0.0
 32
0.0
 13
1.0
 23
0.0
 33
0.0
 40
0.0
 40
0.0
 40
0.0
 40
0.0
 40
1.0
 40
1.0
 40
1.0
 40
2.0
 40
2.0
 40
2.0
 40
3.0
 40
3.0
 40
3.0
 40
4.0
 40
4.0
 40
4.0
 40
4.0
 10
107.8817700254845
 20
-131.1092966338894
 30
0.0
 10
107.8817700254845
 20
-131.0541927450144
 30
0.0
 10
107.8370025266266
 20
-131.0093899672477
 30
0.0
 10
107.7818633613667
 20
-131.0093899672477
 30
0.0
 10
107.7267594738836
 20
-131.0093899672477
 30
0.0
 10
107.6819566972489
 20
-131.0541927450144
 30
0.0
 10
107.6819566972489
 20
-131.1092966338894
 30
0.0
 10
107.6819566972489
 20
-131.1651060783198
 30
0.0
 10
107.7267594738836
 20
-131.2099088560865
 30
0.0
 10
107.7818633613667
 20
-131.2099088560865
 30
0.0
 10
107.8370025266266
 20
-131.2099088560865
 30
0.0
 10
107.8817700254845
 20
-131.1651060783198
 30
0.0
 10
107.8817700254845
 20
-131.1092966338894
 30
0.0
  0
SPLINE
  5
7A
330
1F
100
AcDbEntity
  8
_U+30EC_U+30A4_U+30E4_U+30FC 1
 62
   179
420
  2234388
370
     9
100
AcDbSpline
210
0.0
220
0.0
230
1.0
 70
    11
 71
     3
 72
    17
 73
    13
 74
     0
 42
0.0000000001
 43
0.0000000001
 12
1.0
 22
0.0
 32
0.0
 13
1.0
 23
0.0
 33
0.0
 40
0.0
 40
0.0
 40
0.0
 40
0.0
 40
1.0
 40
1.0
 40
1.0
 40
2.0
 40
2.0
 40
2.0
 40
3.0
 40
3.0
 40
3.0
 40
4.0
 40
4.0
 40
4.0
 40
4.0
 10
107.8817700254845
 20
-131.8093488559363
 30
0.0
 10
107.8817700254845
 20
-131.7542449670614
 30
0.0
 10
107.8370025266266
 20
-131.7094421892947
 30
0.0
 10
107.7818633613667
 20
-131.7094421892947
 30
0.0
 10
107.7267594738836
 20
-131.7094421892947
 30
0.0
 10
107.6819566972489
 20
-131.7542449670614
 30
0.0
 10
107.6819566972489
 20
-131.8093488559363
 30
0.0
 10
107.6819566972489
 20
-131.8644880225894
 30
0.0
 10
107.7267594738836
 20
-131.909255522578
 30
0.0
 10
107.7818633613667
 20
-131.909255522578
 30
0.0
 10
107.8370025266266
 20
-131.909255522578
 30
0.0
 10
107.8817700254845
 20
-131.8644880225894
 30
0.0
 10
107.8817700254845
 20
-131.8093488559363
 30
0.0
  0
SPLINE
  5
7B
330
1F
100
AcDbEntity
  8
_U+30EC_U+30A4_U+30E4_U+30FC 1
 62
   179
420
  2234388
370
     9
100
AcDbSpline
210
0.0
220
0.0
230
1.0
 70
    11
 71
     3
 72
    17
 73
    13
 74
     0
 42
0.0000000001
 43
0.0000000001
 12
1.0
 22
0.0
 32
0.0
 13
1.0
 23
0.0
 33
0.0
 40
0.0
 40
0.0
 40
0.0
 40
0.0
 40
1.0
 40
1.0
 40
1.0
 40
2.0
 40
2.0
 40
2.0
 40
3.0
 40
3.0
 40
3.0
 40
4.0
 40
4.0
 40
4.0
 40
4.0
 10
103.8820462386371
 20
-135.8098135771588
 30
0.0
 10
103.8820462386371
 20
-135.7546744105057
 30
0.0
 10
103.8372434620023
 20
-135.7099069105171
 30
0.0
 10
103.7821042967424
 20
-135.7099069105171
 30
0.0
 10
103.7270004092593
 20
-135.7099069105171
 30
0.0
 10
103.6821976326246
 20
-135.7546744105057
 30
0.0
 10
103.6821976326246
 20
-135.8098135771588
 30
0.0
 10
103.6821976326246
 20
-135.8649174660337
 30
0.0
 10
103.7270004092593
 20
-135.9097202438004
 30
0.0
 10
103.7821042967424
 20
-135.9097202438004
 30
0.0
 10
103.8372434620023
 20
-135.9097202438004
 30
0.0
 10
103.8820462386371
 20
-135.8649174660337
 30
0.0
 10
103.8820462386371
 20
-135.8098135771588
 30
0.0
  0
SPLINE
  5
7C
330
1F
100
AcDbEntity
  8
_U+30EC_U+30A4_U+30E4_U+30FC 1
 62
   179
420
  2234388
370
     9
100
AcDbSpline
210
0.0
220
0.0
230
1.0
 70
    11
 71
     3
 72
    17
 73
    13
 74
     0
 42
0.0000000001
 43
0.0000000001
 12
1.0
 22
0.0
 32
0.0
 13
1.0
 23
0.0
 33
0.0
 40
0.0
 40
0.0
 40
0.0
 40
0.0
 40
1.0
 40
1.0
 40
1.0
 40
2.0
 40
2.0
 40
2.0
 40
3.0
 40
3.0
 40
3.0
 40
4.0
 40
4.0
 40
4.0
 40
4.0
 10
76.8819527608002
 20
-127.1913819126464
 30
0.0
 10
76.8819527608002
 20
-127.1362427459937
 30
0.0
 10
76.83718526194231
 20
-127.0914752460048
 30
0.0
 10
76.78204609668236
 20
-127.0914752460048
 30
0.0
 10
76.7269422091993
 20
-127.0914752460048
 30
0.0
 10
76.68213943256453
 20
-127.1362427459937
 30
0.0
 10
76.68213943256453
 20
-127.1913819126464
 30
0.0
 10
76.68213943256453
 20
-127.2464858015217
 30
0.0
 10
76.7269422091993
 20
-127.2912885792884
 30
0.0
 10
76.78204609668236
 20
-127.2912885792884
 30
0.0
 10
76.83718526194231
 20
-127.2912885792884
 30
0.0
 10
76.8819527608002
 20
-127.2464858015217
 30
0.0
 10
76.8819527608002
 20
-127.1913819126464
 30
0.0
  0
SPLINE
  5
7D
330
1F
100
AcDbEntity
  8
_U+30EC_U+30A4_U+30E4_U+30FC 1
 62
   179
420
  2234388
370
     9
100
AcDbSpline
210
0.0
220
0.0
230
1.0
 70
    11
 71
     3
 72
    17
 73
    13
 74
     0
 42
0.0000000001
 43
0.0000000001
 12
1.0
 22
0.0
 32
0.0
 13
1.0
 23
0.0
 33
0.0
 40
0.0
 40
0.0
 40
0.0
 40
0.0
 40
1.0
 40
1.0
 40
1.0
 40
2.0
 40
2.0
 40
2.0
 40
3.0
 40
3.0
 40
3.0
 40
4.0
 40
4.0
 40
4.0
 40
4.0
 10
76.8819527608002
 20
-130.8095766339644
 30
0.0
 10
76.8819527608002
 20
-130.7544727450889
 30
0.0
 10
76.83718526194231
 20
-130.7096699673228
 30
0.0
 10
76.78204609668236
 20
-130.7096699673228
 30
0.0
 10
76.7269422091993
 20
-130.7096699673228
 30
0.0
 10
76.68213943256453
 20
-130.7544727450889
 30
0.0
 10
76.68213943256453
 20
-130.8095766339644
 30
0.0
 10
76.68213943256453
 20
-130.8647158006169
 30
0.0
 10
76.7269422091993
 20
-130.9094833006061
 30
0.0
 10
76.78204609668236
 20
-130.9094833006061
 30
0.0
 10
76.83718526194231
 20
-130.9094833006061
 30
0.0
 10
76.8819527608002
 20
-130.8647158006169
 30
0.0
 10
76.8819527608002
 20
-130.8095766339644
 30
0.0
  0
SPLINE
  5
7E
330
1F
100
AcDbEntity
  8
_U+30EC_U+30A4_U+30E4_U+30FC 1
 62
   179
420
  2234388
370
     9
100
AcDbSpline
210
0.0
220
0.0
230
1.0
 70
    11
 71
     3
 72
    17
 73
    13
 74
     0
 42
0.0000000001
 43
0.0000000001
 12
1.0
 22
0.0
 32
0.0
 13
1.0
 23
0.0
 33
0.0
 40
0.0
 40
0.0
 40
0.0
 40
0.0
 40
1.0
 40
1.0
 40
1.0
 40
2.0
 40
2.0
 40
2.0
 40
3.0
 40
3.0
 40
3.0
 40
4.0
 40
4.0
 40
4.0
 40
4.0
 10
76.8819527608002
 20
-131.8093488559363
 30
0.0
 10
76.8819527608002
 20
-131.7542449670614
 30
0.0
 10
76.83718526194231
 20
-131.7094421892947
 30
0.0
 10
76.78204609668236
 20
-131.7094421892947
 30
0.0
 10
76.7269422091993
 20
-131.7094421892947
 30
0.0
 10
76.68213943256453
 20
-131.7542449670614
 30
0.0
 10
76.68213943256453
 20
-131.8093488559363
 30
0.0
 10
76.68213943256453
 20
-131.8644880225894
 30
0.0
 10
76.7269422091993
 20
-131.909255522578
 30
0.0
 10
76.78204609668236
 20
-131.909255522578
 30
0.0
 10
76.83718526194231
 20
-131.909255522578
 30
0.0
 10
76.8819527608002
 20
-131.8644880225894
 30
0.0
 10
76.8819527608002
 20
-131.8093488559363
 30
0.0
  0
SPLINE
  5
7F
330
1F
100
AcDbEntity
  8
_U+30EC_U+30A4_U+30E4_U+30FC 1
 62
   179
420
  2234388
370
     9
100
AcDbSpline
210
0.0
220
0.0
230
1.0
 70
    11
 71
     3
 72
    17
 73
    13
 74
     0
 42
0.0000000001
 43
0.0000000001
 12
1.0
 22
0.0
 32
0.0
 13
1.0
 23
0.0
 33
0.0
 40
0.0
 40
0.0
 40
0.0
 40
0.0
 40
1.0
 40
1.0
 40
1.0
 40
2.0
 40
2.0
 40
2.0
 40
3.0
 40
3.0
 40
3.0
 40
4.0
 40
4.0
 40
4.0
 40
4.0
 10
80.88206664644613
 20
-135.8098135771588
 30
0.0
 10
80.88206664644613
 20
-135.7546744105057
 30
0.0
 10
80.83726386867973
 20
-135.7099069105171
 30
0.0
 10
80.78215793907546
 20
-135.7099069105171
 30
0.0
 10
80.72666599604673
 20
-135.7099069105171
 30
0.0
 10
80.68189849718884
 20
-135.7546744105057
 30
0.0
 10
80.68189849718884
 20
-135.8098135771588
 30
0.0
 10
80.68189849718884
 20
-135.8649174660337
 30
0.0
 10
80.72666599604673
 20
-135.9097202438004
 30
0.0
 10
80.78215793907546
 20
-135.9097202438004
 30
0.0
 10
80.83726386867973
 20
-135.9097202438004
 30
0.0
 10
80.88206664644613
 20
-135.8649174660337
 30
0.0
 10
80.88206664644613
 20
-135.8098135771588
 30
0.0
  0
SPLINE
  5
80
330
1F
100
AcDbEntity
  8
_U+30EC_U+30A4_U+30E4_U+30FC 1
 62
   179
420
  2234388
370
     9
100
AcDbSpline
210
0.0
220
0.0
230
1.0
 70
    11
 71
     3
 72
    17
 73
    13
 74
     0
 42
0.0000000001
 43
0.0000000001
 12
1.0
 22
0.0
 32
0.0
 13
1.0
 23
0.0
 33
0.0
 40
0.0
 40
0.0
 40
0.0
 40
0.0
 40
1.0
 40
1.0
 40
1.0
 40
2.0
 40
2.0
 40
2.0
 40
3.0
 40
3.0
 40
3.0
 40
4.0
 40
4.0
 40
4.0
 40
4.0
 10
92.88183568594252
 20
-122.2352774694412
 30
0.0
 10
92.88183568594252
 20
-122.1801383027884
 30
0.0
 10
92.83706818708463
 20
-122.1353355250217
 30
0.0
 10
92.78192902182468
 20
-122.1353355250217
 30
0.0
 10
92.72682513434161
 20
-122.1353355250217
 30
0.0
 10
92.68202235770684
 20
-122.1801383027884
 30
0.0
 10
92.68202235770684
 20
-122.2352774694412
 30
0.0
 10
92.68202235770684
 20
-122.2910869138716
 30
0.0
 10
92.72682513434161
 20
-122.3358544138605
 30
0.0
 10
92.78192902182468
 20
-122.3358544138605
 30
0.0
 10
92.83706818708463
 20
-122.3358544138605
 30
0.0
 10
92.88183568594252
 20
-122.2910869138716
 30
0.0
 10
92.88183568594252
 20
-122.2352774694412
 30
0.0
  0
SPLINE
  5
81
330
1F
100
AcDbEntity
  8
_U+30EC_U+30A4_U+30E4_U+30FC 1
 62
   179
420
  2234388
370
     9
100
AcDbSpline
210
0.0
220
0.0
230
1.0
 70
    11
 71
     3
 72
    17
 73
    13
 74
     0
 42
0.0000000001
 43
0.0000000001
 12
1.0
 22
0.0
 32
0.0
 13
1.0
 23
0.0
 33
0.0
 40
0.0
 40
0.0
 40
0.0
 40
0.0
 40
1.0
 40
1.0
 40
1.0
 40
2.0
 40
2.0
 40
2.0
 40
3.0
 40
3.0
 40
3.0
 40
4.0
 40
4.0
 40
4.0
 40
4.0
 10
80.88206664644613
 20
-122.2352774694412
 30
0.0
 10
80.88206664644613
 20
-122.1801383027884
 30
0.0
 10
80.83726386867973
 20
-122.1353355250217
 30
0.0
 10
80.78215793907546
 20
-122.1353355250217
 30
0.0
 10
80.72666599604673
 20
-122.1353355250217
 30
0.0
 10
80.68189849718884
 20
-122.1801383027884
 30
0.0
 10
80.68189849718884
 20
-122.2352774694412
 30
0.0
 10
80.68189849718884
 20
-122.2910869138716
 30
0.0
 10
80.72666599604673
 20
-122.3358544138605
 30
0.0
 10
80.78215793907546
 20
-122.3358544138605
 30
0.0
 10
80.83726386867973
 20
-122.3358544138605
 30
0.0
 10
80.88206664644613
 20
-122.2910869138716
 30
0.0
 10
80.88206664644613
 20
-122.2352774694412
 30
0.0
  0
SPLINE
  5
82
330
1F
100
AcDbEntity
  8
_U+30EC_U+30A4_U+30E4_U+30FC 1
 62
   179
420
  2234388
370
     9
100
AcDbSpline
210
0.0
220
0.0
230
1.0
 70
    11
 71
     3
 72
    17
 73
    13
 74
     0
 42
0.0000000001
 43
0.0000000001
 12
1.0
 22
0.0
 32
0.0
 13
1.0
 23
0.0
 33
0.0
 40
0.0
 40
0.0
 40
0.0
 40
0.0
 40
1.0
 40
1.0
 40
1.0
 40
2.0
 40
2.0
 40
2.0
 40
3.0
 40
3.0
 40
3.0
 40
4.0
 40
4.0
 40
4.0
 40
4.0
 10
103.8820462386371
 20
-127.1093963571114
 30
0.0
 10
103.8820462386371
 20
-127.0542571904587
 30
0.0
 10
103.8372434620023
 20
-127.0094896904698
 30
0.0
 10
103.7821042967424
 20
-127.0094896904698
 30
0.0
 10
103.7270004092593
 20
-127.0094896904698
 30
0.0
 10
103.6821976326246
 20
-127.0542571904587
 30
0.0
 10
103.6821976326246
 20
-127.1093963571114
 30
0.0
 10
103.6821976326246
 20
-127.1645002459867
 30
0.0
 10
103.7270004092593
 20
-127.2093030237534
 30
0.0
 10
103.7821042967424
 20
-127.2093030237534
 30
0.0
 10
103.8372434620023
 20
-127.2093030237534
 30
0.0
 10
103.8820462386371
 20
-127.1645002459867
 30
0.0
 10
103.8820462386371
 20
-127.1093963571114
 30
0.0
  0
SPLINE
  5
83
330
1F
100
AcDbEntity
  8
_U+30EC_U+30A4_U+30E4_U+30FC 1
 62
   179
420
  2234388
370
     9
100
AcDbSpline
210
0.0
220
0.0
230
1.0
 70
    11
 71
     3
 72
    17
 73
    13
 74
     0
 42
0.0000000001
 43
0.0000000001
 12
1.0
 22
0.0
 32
0.0
 13
1.0
 23
0.0
 33
0.0
 40
0.0
 40
0.0
 40
0.0
 40
0.0
 40
1.0
 40
1.0
 40
1.0
 40
2.0
 40
2.0
 40
2.0
 40
3.0
 40
3.0
 40
3.0
 40
4.0
 40
4.0
 40
4.0
 40
4.0
 10
96.88230275355735
 20
-127.1093963571114
 30
0.0
 10
96.88230275355735
 20
-127.0542571904587
 30
0.0
 10
96.83749997579064
 20
-127.0094896904698
 30
0.0
 10
96.78239364198654
 20
-127.0094896904698
 30
0.0
 10
96.72654892118904
 20
-127.0094896904698
 30
0.0
 10
96.68178142233116
 20
-127.0542571904587
 30
0.0
 10
96.68178142233116
 20
-127.1093963571114
 30
0.0
 10
96.68178142233116
 20
-127.1645002459867
 30
0.0
 10
96.72654892118904
 20
-127.2093030237534
 30
0.0
 10
96.78239364198654
 20
-127.2093030237534
 30
0.0
 10
96.83749997579064
 20
-127.2093030237534
 30
0.0
 10
96.88230275355735
 20
-127.1645002459867
 30
0.0
 10
96.88230275355735
 20
-127.1093963571114
 30
0.0
  0
POLYLINE
  5
84
330
1F
100
AcDbEntity
  8
_U+30EC_U+30A4_U+30E4_U+30FC 1
 62
   179
420
  2234388
370
     9
100
AcDb2dPolyline
 66
     1
 10
0.0
 20
0.0
 30
0.0
  0
VERTEX
  5
85
330
84
100
AcDbEntity
  8
_U+30EC_U+30A4_U+30E4_U+30FC 1
 62
   179
420
  2234388
370
     9
100
AcDbVertex
100
AcDb2dVertex
 10
107.7818633613667
 20
-131.8093488559363
 30
0.0
  0
VERTEX
  5
86
330
84
100
AcDbEntity
  8
_U+30EC_U+30A4_U+30E4_U+30FC 1
 62
   179
420
  2234388
370
     9
100
AcDbVertex
100
AcDb2dVertex
 10
107.7818633613667
 20
-137.0672546879553
 30
0.0
  0
SEQEND
  5
87
330
84
100
AcDbEntity
  8
_U+30EC_U+30A4_U+30E4_U+30FC 1
 62
   179
420
  2234388
370
     9
  0
POLYLINE
  5
88
330
1F
100
AcDbEntity
  8
_U+30EC_U+30A4_U+30E4_U+30FC 1
 62
   179
420
  2234388
370
     9
100
AcDb2dPolyline
 66
     1
 10
0.0
 20
0.0
 30
0.0
  0
VERTEX
  5
89
330
88
100
AcDbEntity
  8
_U+30EC_U+30A4_U+30E4_U+30FC 1
 62
   179
420
  2234388
370
     9
100
AcDbVertex
100
AcDb2dVertex
 10
107.7818633613667
 20
-131.8093488559363
 30
0.0
  0
VERTEX
  5
8A
330
88
100
AcDbEntity
  8
_U+30EC_U+30A4_U+30E4_U+30FC 1
 62
   179
420
  2234388
370
     9
100
AcDbVertex
100
AcDb2dVertex
 10
107.7818633613667
 20
-130.109559689695
 30
0.0
  0
SEQEND
  5
8B
330
88
100
AcDbEntity
  8
_U+30EC_U+30A4_U+30E4_U+30FC 1
 62
   179
420
  2234388
370
     9
  0
POLYLINE
  5
8C
330
1F
100
AcDbEntity
  8
_U+30EC_U+30A4_U+30E4_U+30FC 1
 62
   179
420
  2234388
370
     9
100
AcDb2dPolyline
 66
     1
 10
0.0
 20
0.0
 30
0.0
  0
VERTEX
  5
8D
330
8C
100
AcDbEntity
  8
_U+30EC_U+30A4_U+30E4_U+30FC 1
 62
   179
420
  2234388
370
     9
100
AcDbVertex
100
AcDb2dVertex
 10
106.3218572875034
 20
-131.8093488559363
 30
0.0
  0
VERTEX
  5
8E
330
8C
100
AcDbEntity
  8
_U+30EC_U+30A4_U+30E4_U+30FC 1
 62
   179
420
  2234388
370
     9
100
AcDbVertex
100
AcDb2dVertex
 10
108.7823411136202
 20
-131.8093488559363
 30
0.0
  0
SEQEND
  5
8F
330
8C
100
AcDbEntity
  8
_U+30EC_U+30A4_U+30E4_U+30FC 1
 62
   179
420
  2234388
370
     9
  0
POLYLINE
  5
90
330
1F
100
AcDbEntity
  8
_U+30EC_U+30A4_U+30E4_U+30FC 1
 62
   179
420
  2234388
370
     9
100
AcDb2dPolyline
 66
     1
 10
0.0
 20
0.0
 30
0.0
  0
VERTEX
  5
91
330
90
100
AcDbEntity
  8
_U+30EC_U+30A4_U+30E4_U+30FC 1
 62
   179
420
  2234388
370
     9
100
AcDbVertex
100
AcDb2dVertex
 10
106.0676103495454
 20
-131.1092966338894
 30
0.0
  0
VERTEX
  5
92
330
90
100
AcDbEntity
  8
_U+30EC_U+30A4_U+30E4_U+30FC 1
 62
   179
420
  2234388
370
     9
100
AcDbVertex
100
AcDb2dVertex
 10
108.7823411136202
 20
-131.1092966338894
 30
0.0
  0
SEQEND
  5
93
330
90
100
AcDbEntity
  8
_U+30EC_U+30A4_U+30E4_U+30FC 1
 62
   179
420
  2234388
370
     9
  0
INSERT
  5
95
330
1F
100
AcDbEntity
  8
_U+30EC_U+30A4_U+30E4_U+30FC 1
100
AcDbBlockReference
  2
block 2
 10
0.0
 20
0.0
 30
0.0
  0
POLYLINE
  5
A5
330
1F
100
AcDbEntity
  8
_U+30EC_U+30A4_U+30E4_U+30FC 1
 62
   179
420
  2234388
370
     9
100
AcDb2dPolyline
 66
     1
 10
0.0
 20
0.0
 30
0.0
  0
VERTEX
  5
A6
330
A5
100
AcDbEntity
  8
_U+30EC_U+30A4_U+30E4_U+30FC 1
 62
   179
420
  2234388
370
     9
100
AcDbVertex
100
AcDb2dVertex
 10
80.78215793907546
 20
-135.8098135771588
 30
0.0
  0
VERTEX
  5
A7
330
A5
100
AcDbEntity
  8
_U+30EC_U+30A4_U+30E4_U+30FC 1
 62
   179
420
  2234388
370
     9
100
AcDbVertex
100
AcDb2dVertex
 10
103.7821042967424
 20
-135.8098135771588
 30
0.0
  0
SEQEND
  5
A8
330
A5
100
AcDbEntity
  8
_U+30EC_U+30A4_U+30E4_U+30FC 1
 62
   179
420
  2234388
370
     9
  0
POLYLINE
  5
A9
330
1F
100
AcDbEntity
  8
_U+30EC_U+30A4_U+30E4_U+30FC 1
 62
   179
420
  2234388
370
     9
100
AcDb2dPolyline
 66
     1
 10
0.0
 20
0.0
 30
0.0
  0
VERTEX
  5
AA
330
A9
100
AcDbEntity
  8
_U+30EC_U+30A4_U+30E4_U+30FC 1
 62
   179
420
  2234388
370
     9
100
AcDbVertex
100
AcDb2dVertex
 10
80.78215793907546
 20
-134.3497721886351
 30
0.0
  0
VERTEX
  5
AB
330
A9
100
AcDbEntity
  8
_U+30EC_U+30A4_U+30E4_U+30FC 1
 62
   179
420
  2234388
370
     9
100
AcDbVertex
100
AcDb2dVertex
 10
80.78215793907546
 20
-136.8095505213531
 30
0.0
  0
SEQEND
  5
AC
330
A9
100
AcDbEntity
  8
_U+30EC_U+30A4_U+30E4_U+30FC 1
 62
   179
420
  2234388
370
     9
  0
POLYLINE
  5
AD
330
1F
100
AcDbEntity
  8
_U+30EC_U+30A4_U+30E4_U+30FC 1
 62
   179
420
  2234388
370
     9
100
AcDb2dPolyline
 66
     1
 10
0.0
 20
0.0
 30
0.0
  0
VERTEX
  5
AE
330
AD
100
AcDbEntity
  8
_U+30EC_U+30A4_U+30E4_U+30FC 1
 62
   179
420
  2234388
370
     9
100
AcDbVertex
100
AcDb2dVertex
 10
103.7821042967424
 20
-134.3497721886351
 30
0.0
  0
VERTEX
  5
AF
330
AD
100
AcDbEntity
  8
_U+30EC_U+30A4_U+30E4_U+30FC 1
 62
   179
420
  2234388
370
     9
100
AcDbVertex
100
AcDb2dVertex
 10
103.7821042967424
 20
-136.8095505213531
 30
0.0
  0
SEQEND
  5
B0
330
AD
100
AcDbEntity
  8
_U+30EC_U+30A4_U+30E4_U+30FC 1
 62
   179
420
  2234388
370
     9
  0
INSERT
  5
B2
330
1F
100
AcDbEntity
  8
_U+30EC_U+30A4_U+30E4_U+30FC 1
100
AcDbBlockReference
  2
block 3
 10
0.0
 20
0.0
 30
0.0
  0
POLYLINE
  5
B9
330
1F
100
AcDbEntity
  8
_U+30EC_U+30A4_U+30E4_U+30FC 1
 62
   179
420
  2234388
370
     9
100
AcDb2dPolyline
 66
     1
 10
0.0
 20
0.0
 30
0.0
  0
VERTEX
  5
BA
330
B9
100
AcDbEntity
  8
_U+30EC_U+30A4_U+30E4_U+30FC 1
 62
   179
420
  2234388
370
     9
100
AcDbVertex
100
AcDb2dVertex
 10
92.78192902182468
 20
-122.2352774694412
 30
0.0
  0
VERTEX
  5
BB
330
B9
100
AcDbEntity
  8
_U+30EC_U+30A4_U+30E4_U+30FC 1
 62
   179
420
  2234388
370
     9
100
AcDbVertex
100
AcDb2dVertex
 10
80.78215793907546
 20
-122.2352774694412
 30
0.0
  0
SEQEND
  5
BC
330
B9
100
AcDbEntity
  8
_U+30EC_U+30A4_U+30E4_U+30FC 1
 62
   179
420
  2234388
370
     9
  0
POLYLINE
  5
BD
330
1F
100
AcDbEntity
  8
_U+30EC_U+30A4_U+30E4_U+30FC 1
 62
   179
420
  2234388
370
     9
100
AcDb2dPolyline
 66
     1
 10
0.0
 20
0.0
 30
0.0
  0
VERTEX
  5
BE
330
BD
100
AcDbEntity
  8
_U+30EC_U+30A4_U+30E4_U+30FC 1
 62
   179
420
  2234388
370
     9
100
AcDbVertex
100
AcDb2dVertex
 10
92.78192902182468
 20
-124.6957613577151
 30
0.0
  0
VERTEX
  5
BF
330
BD
100
AcDbEntity
  8
_U+30EC_U+30A4_U+30E4_U+30FC 1
 62
   179
420
  2234388
370
     9
100
AcDbVertex
100
AcDb2dVertex
 10
92.78192902182468
 20
-121.235505247469
 30
0.0
  0
SEQEND
  5
C0
330
BD
100
AcDbEntity
  8
_U+30EC_U+30A4_U+30E4_U+30FC 1
 62
   179
420
  2234388
370
     9
  0
POLYLINE
  5
C1
330
1F
100
AcDbEntity
  8
_U+30EC_U+30A4_U+30E4_U+30FC 1
 62
   179
420
  2234388
370
     9
100
AcDb2dPolyline
 66
     1
 10
0.0
 20
0.0
 30
0.0
  0
VERTEX
  5
C2
330
C1
100
AcDbEntity
  8
_U+30EC_U+30A4_U+30E4_U+30FC 1
 62
   179
420
  2234388
370
     9
100
AcDbVertex
100
AcDb2dVertex
 10
80.78215793907546
 20
-124.6957613577151
 30
0.0
  0
VERTEX
  5
C3
330
C1
100
AcDbEntity
  8
_U+30EC_U+30A4_U+30E4_U+30FC 1
 62
   179
420
  2234388
370
     9
100
AcDbVertex
100
AcDb2dVertex
 10
80.78215793907546
 20
-121.235505247469
 30
0.0
  0
SEQEND
  5
C4
330
C1
100
AcDbEntity
  8
_U+30EC_U+30A4_U+30E4_U+30FC 1
 62
   179
420
  2234388
370
     9
  0
INSERT
  5
C6
330
1F
100
AcDbEntity
  8
_U+30EC_U+30A4_U+30E4_U+30FC 1
100
AcDbBlockReference
  2
block 4
 10
0.0
 20
0.0
 30
0.0
  0
POLYLINE
  5
CD
330
1F
100
AcDbEntity
  8
_U+30EC_U+30A4_U+30E4_U+30FC 1
 62
   179
420
  2234388
370
     9
100
AcDb2dPolyline
 66
     1
 10
0.0
 20
0.0
 30
0.0
  0
VERTEX
  5
CE
330
CD
100
AcDbEntity
  8
_U+30EC_U+30A4_U+30E4_U+30FC 1
 62
   179
420
  2234388
370
     9
100
AcDbVertex
100
AcDb2dVertex
 10
76.78204609668236
 20
-127.309209690395
 30
0.0
  0
VERTEX
  5
CF
330
CD
100
AcDbEntity
  8
_U+30EC_U+30A4_U+30E4_U+30FC 1
 62
   179
420
  2234388
370
     9
100
AcDbVertex
100
AcDb2dVertex
 10
76.78204609668236
 20
-130.8095766339644
 30
0.0
  0
SEQEND
  5
D0
330
CD
100
AcDbEntity
  8
_U+30EC_U+30A4_U+30E4_U+30FC 1
 62
   179
420
  2234388
370
     9
  0
POLYLINE
  5
D1
330
1F
100
AcDbEntity
  8
_U+30EC_U+30A4_U+30E4_U+30FC 1
 62
   179
420
  2234388
370
     9
100
AcDb2dPolyline
 66
     1
 10
0.0
 20
0.0
 30
0.0
  0
VERTEX
  5
D2
330
D1
100
AcDbEntity
  8
_U+30EC_U+30A4_U+30E4_U+30FC 1
 62
   179
420
  2234388
370
     9
100
AcDbVertex
100
AcDb2dVertex
 10
78.2420874483225
 20
-127.1913819126464
 30
0.0
  0
VERTEX
  5
D3
330
D1
100
AcDbEntity
  8
_U+30EC_U+30A4_U+30E4_U+30FC 1
 62
   179
420
  2234388
370
     9
100
AcDbVertex
100
AcDb2dVertex
 10
75.78227389996646
 20
-127.1913819126464
 30
0.0
  0
SEQEND
  5
D4
330
D1
100
AcDbEntity
  8
_U+30EC_U+30A4_U+30E4_U+30FC 1
 62
   179
420
  2234388
370
     9
  0
POLYLINE
  5
D5
330
1F
100
AcDbEntity
  8
_U+30EC_U+30A4_U+30E4_U+30FC 1
 62
   179
420
  2234388
370
     9
100
AcDb2dPolyline
 66
     1
 10
0.0
 20
0.0
 30
0.0
  0
VERTEX
  5
D6
330
D5
100
AcDbEntity
  8
_U+30EC_U+30A4_U+30E4_U+30FC 1
 62
   179
420
  2234388
370
     9
100
AcDbVertex
100
AcDb2dVertex
 10
78.60587188348603
 20
-130.8095766339644
 30
0.0
  0
VERTEX
  5
D7
330
D5
100
AcDbEntity
  8
_U+30EC_U+30A4_U+30E4_U+30FC 1
 62
   179
420
  2234388
370
     9
100
AcDbVertex
100
AcDb2dVertex
 10
75.78227389996646
 20
-130.8095766339644
 30
0.0
  0
SEQEND
  5
D8
330
D5
100
AcDbEntity
  8
_U+30EC_U+30A4_U+30E4_U+30FC 1
 62
   179
420
  2234388
370
     9
  0
INSERT
  5
DA
330
1F
100
AcDbEntity
  8
_U+30EC_U+30A4_U+30E4_U+30FC 1
100
AcDbBlockReference
  2
block 5
 10
0.0
 20
0.0
 30
0.0
  0
POLYLINE
  5
E9
330
1F
100
AcDbEntity
  8
_U+30EC_U+30A4_U+30E4_U+30FC 1
 62
   179
420
  2234388
370
     9
100
AcDb2dPolyline
 66
     1
 10
0.0
 20
0.0
 30
0.0
  0
VERTEX
  5
EA
330
E9
100
AcDbEntity
  8
_U+30EC_U+30A4_U+30E4_U+30FC 1
 62
   179
420
  2234388
370
     9
100
AcDbVertex
100
AcDb2dVertex
 10
76.78204609668236
 20
-131.8093488559363
 30
0.0
  0
VERTEX
  5
EB
330
E9
100
AcDbEntity
  8
_U+30EC_U+30A4_U+30E4_U+30FC 1
 62
   179
420
  2234388
370
     9
100
AcDbVertex
100
AcDb2dVertex
 10
76.78204609668236
 20
-135.5796613549938
 30
0.0
  0
SEQEND
  5
EC
330
E9
100
AcDbEntity
  8
_U+30EC_U+30A4_U+30E4_U+30FC 1
 62
   179
420
  2234388
370
     9
  0
POLYLINE
  5
ED
330
1F
100
AcDbEntity
  8
_U+30EC_U+30A4_U+30E4_U+30FC 1
 62
   179
420
  2234388
370
     9
100
AcDb2dPolyline
 66
     1
 10
0.0
 20
0.0
 30
0.0
  0
VERTEX
  5
EE
330
ED
100
AcDbEntity
  8
_U+30EC_U+30A4_U+30E4_U+30FC 1
 62
   179
420
  2234388
370
     9
100
AcDbVertex
100
AcDb2dVertex
 10
76.78204609668236
 20
-130.8095766339644
 30
0.0
  0
VERTEX
  5
EF
330
ED
100
AcDbEntity
  8
_U+30EC_U+30A4_U+30E4_U+30FC 1
 62
   179
420
  2234388
370
     9
100
AcDbVertex
100
AcDb2dVertex
 10
76.78204609668236
 20
-131.8093488559363
 30
0.0
  0
SEQEND
  5
F0
330
ED
100
AcDbEntity
  8
_U+30EC_U+30A4_U+30E4_U+30FC 1
 62
   179
420
  2234388
370
     9
  0
POLYLINE
  5
F1
330
1F
100
AcDbEntity
  8
_U+30EC_U+30A4_U+30E4_U+30FC 1
 62
   179
420
  2234388
370
     9
100
AcDb2dPolyline
 66
     1
 10
0.0
 20
0.0
 30
0.0
  0
VERTEX
  5
F2
330
F1
100
AcDbEntity
  8
_U+30EC_U+30A4_U+30E4_U+30FC 1
 62
   179
420
  2234388
370
     9
100
AcDbVertex
100
AcDb2dVertex
 10
78.2420874483225
 20
-131.8093488559363
 30
0.0
  0
VERTEX
  5
F3
330
F1
100
AcDbEntity
  8
_U+30EC_U+30A4_U+30E4_U+30FC 1
 62
   179
420
  2234388
370
     9
100
AcDbVertex
100
AcDb2dVertex
 10
75.78227389996646
 20
-131.8093488559363
 30
0.0
  0
SEQEND
  5
F4
330
F1
100
AcDbEntity
  8
_U+30EC_U+30A4_U+30E4_U+30FC 1
 62
   179
420
  2234388
370
     9
  0
INSERT
  5
F6
330
1F
100
AcDbEntity
  8
_U+30EC_U+30A4_U+30E4_U+30FC 1
100
AcDbBlockReference
  2
block 6
 10
0.0
 20
0.0
 30
0.0
  0
POLYLINE
  5
FB
330
1F
100
AcDbEntity
  8
_U+30EC_U+30A4_U+30E4_U+30FC 1
 62
   179
420
  2234388
370
     9
100
AcDb2dPolyline
 66
     1
 10
0.0
 20
0.0
 30
0.0
  0
VERTEX
  5
FC
330
FB
100
AcDbEntity
  8
_U+30EC_U+30A4_U+30E4_U+30FC 1
 62
   179
420
  2234388
370
     9
100
AcDbVertex
100
AcDb2dVertex
 10
96.78239364198654
 20
-127.1093963571114
 30
0.0
  0
VERTEX
  5
FD
330
FB
100
AcDbEntity
  8
_U+30EC_U+30A4_U+30E4_U+30FC 1
 62
   179
420
  2234388
370
     9
100
AcDbVertex
100
AcDb2dVertex
 10
103.7821042967424
 20
-127.1093963571114
 30
0.0
  0
SEQEND
  5
FE
330
FB
100
AcDbEntity
  8
_U+30EC_U+30A4_U+30E4_U+30FC 1
 62
   179
420
  2234388
370
     9
  0
POLYLINE
  5
FF
330
1F
100
AcDbEntity
  8
_U+30EC_U+30A4_U+30E4_U+30FC 1
 62
   179
420
  2234388
370
     9
100
AcDb2dPolyline
 66
     1
 10
0.0
 20
0.0
 30
0.0
  0
VERTEX
  5
100
330
FF
100
AcDbEntity
  8
_U+30EC_U+30A4_U+30E4_U+30FC 1
 62
   179
420
  2234388
370
     9
100
AcDbVertex
100
AcDb2dVertex
 10
96.78239364198654
 20
-128.2696824679327
 30
0.0
  0
VERTEX
  5
101
330
FF
100
AcDbEntity
  8
_U+30EC_U+30A4_U+30E4_U+30FC 1
 62
   179
420
  2234388
370
     9
100
AcDbVertex
100
AcDb2dVertex
 10
96.78239364198654
 20
-126.1096241351392
 30
0.0
  0
SEQEND
  5
102
330
FF
100
AcDbEntity
  8
_U+30EC_U+30A4_U+30E4_U+30FC 1
 62
   179
420
  2234388
370
     9
  0
POLYLINE
  5
103
330
1F
100
AcDbEntity
  8
_U+30EC_U+30A4_U+30E4_U+30FC 1
 62
   179
420
  2234388
370
     9
100
AcDb2dPolyline
 66
     1
 10
0.0
 20
0.0
 30
0.0
  0
VERTEX
  5
104
330
103
100
AcDbEntity
  8
_U+30EC_U+30A4_U+30E4_U+30FC 1
 62
   179
420
  2234388
370
     9
100
AcDbVertex
100
AcDb2dVertex
 10
103.7821042967424
 20
-129.2696310787938
 30
0.0
  0
VERTEX
  5
105
330
103
100
AcDbEntity
  8
_U+30EC_U+30A4_U+30E4_U+30FC 1
 62
   179
420
  2234388
370
     9
100
AcDbVertex
100
AcDb2dVertex
 10
103.7821042967424
 20
-126.1096241351392
 30
0.0
  0
SEQEND
  5
106
330
103
100
AcDbEntity
  8
_U+30EC_U+30A4_U+30E4_U+30FC 1
 62
   179
420
  2234388
370
     9
  0
INSERT
  5
108
330
1F
100
AcDbEntity
  8
_U+30EC_U+30A4_U+30E4_U+30FC 1
100
AcDbBlockReference
  2
block 7
 10
0.0
 20
0.0
 30
0.0
  0
ENDSEC
  0
SECTION
  2
OBJECTS
  0
DICTIONARY
  5
C
330
0
100
AcDbDictionary
281
     1
  3
ACAD_GROUP
350
D
  3
ACAD_LAYOUT
350
1A
  3
ACAD_MATERIAL
350
3B
  3
ACAD_MLEADERSTYLE
350
10E
  3
ACAD_MLINESTYLE
350
17
  3
ACAD_PLOTSETTINGS
350
19
  3
ACAD_PLOTSTYLENAME
350
E
  3
ACAD_TABLESTYLE
350
10D
  3
ACAD_VISUALSTYLE
350
2A
  0
SUN
  5
3F
330
29
100
AcDbSun
 90
        1
290
     0
 63
     7
421
 16777215
 40
1.0
291
     1
 91
  2455826
 92
 54000000
292
     0
 70
     2
 71
   256
280
     1
  0
DICTIONARY
  5
D
102
{ACAD_REACTORS
330
C
102
}
330
C
100
AcDbDictionary
281
     1
  0
DICTIONARY
  5
1A
102
{ACAD_REACTORS
330
C
102
}
330
C
100
AcDbDictionary
281
     1
  3
Layout1
350
1E
  3
Layout2
350
26
  3
Model
350
22
  0
DICTIONARY
  5
3B
102
{ACAD_REACTORS
330
C
102
}
330
C
100
AcDbDictionary
281
     1
  3
ByBlock
350
3D
  3
ByLayer
350
3C
  3
Global
350
3E
  0
DICTIONARY
  5
10E
102
{ACAD_REACTORS
330
C
102
}
330
C
100
AcDbDictionary
281
     1
  0
DICTIONARY
  5
17
102
{ACAD_REACTORS
330
C
102
}
330
C
100
AcDbDictionary
281
     1
  3
Standard
350
18
  0
DICTIONARY
  5
19
102
{ACAD_REACTORS
330
C
102
}
330
C
100
AcDbDictionary
281
     1
  0
ACDBDICTIONARYWDFLT
  5
E
102
{ACAD_REACTORS
330
C
102
}
330
C
100
AcDbDictionary
281
     1
  3
Normal
350
F
100
AcDbDictionaryWithDefault
340
F
  0
DICTIONARY
  5
10D
102
{ACAD_REACTORS
330
C
102
}
330
C
100
AcDbDictionary
281
     1
  0
DICTIONARY
  5
2A
102
{ACAD_REACTORS
330
C
102
}
330
C
100
AcDbDictionary
281
     1
  3
2dWireframe
350
2F
  3
3D Hidden
350
31
  3
3dWireframe
350
30
  3
Basic
350
32
  3
Brighten
350
36
  3
ColorChange
350
3A
  3
Conceptual
350
34
  3
Dim
350
35
  3
Facepattern
350
39
  3
Flat
350
2B
  3
FlatWithEdges
350
2C
  3
Gouraud
350
2D
  3
GouraudWithEdges
350
2E
  3
Linepattern
350
38
  3
Realistic
350
33
  3
Thicken
350
37
  0
LAYOUT
  5
1E
102
{ACAD_REACTORS
330
1A
102
}
330
1A
100
AcDbPlotSettings
  1

  2
none_device
  4

  6

 40
0.0
 41
0.0
 42
0.0
 43
0.0
 44
0.0
 45
0.0
 46
0.0
 47
0.0
 48
0.0
 49
0.0
140
0.0
141
0.0
142
1.0
143
1.0
 70
   688
 72
     0
 73
     0
 74
     5
  7

 75
    16
 76
     0
 77
     2
 78
   300
147
1.0
148
0.0
149
0.0
100
AcDbLayout
  1
Layout1
 70
     1
 71
     1
 10
0.0
 20
0.0
 11
12.0
 21
9.0
 12
0.0
 22
0.0
 32
0.0
 14
1.000000000000000E+20
 24
1.000000000000000E+20
 34
1.000000000000000E+20
 15
-1.000000000000000E+20
 25
-1.000000000000000E+20
 35
-1.000000000000000E+20
146
0.0
 13
0.0
 23
0.0
 33
0.0
 16
1.0
 26
0.0
 36
0.0
 17
0.0
 27
1.0
 37
0.0
 76
     0
330
1B
  0
LAYOUT
  5
26
102
{ACAD_REACTORS
330
1A
102
}
330
1A
100
AcDbPlotSettings
  1

  2
none_device
  4

  6

 40
0.0
 41
0.0
 42
0.0
 43
0.0
 44
0.0
 45
0.0
 46
0.0
 47
0.0
 48
0.0
 49
0.0
140
0.0
141
0.0
142
1.0
143
1.0
 70
   688
 72
     0
 73
     0
 74
     5
  7

 75
    16
 76
     0
 77
     2
 78
   300
147
1.0
148
0.0
149
0.0
100
AcDbLayout
  1
Layout2
 70
     1
 71
     2
 10
0.0
 20
0.0
 11
0.0
 21
0.0
 12
0.0
 22
0.0
 32
0.0
 14
0.0
 24
0.0
 34
0.0
 15
0.0
 25
0.0
 35
0.0
146
0.0
 13
0.0
 23
0.0
 33
0.0
 16
1.0
 26
0.0
 36
0.0
 17
0.0
 27
1.0
 37
0.0
 76
     0
330
23
  0
LAYOUT
  5
22
102
{ACAD_REACTORS
330
1A
102
}
330
1A
100
AcDbPlotSettings
  1

  2
none_device
  4

  6

 40
0.0
 41
0.0
 42
0.0
 43
0.0
 44
0.0
 45
0.0
 46
0.0
 47
0.0
 48
0.0
 49
0.0
140
0.0
141
0.0
142
1.0
143
1.0
 70
  1712
 72
     0
 73
     0
 74
     0
  7

 75
     0
 76
     0
 77
     2
 78
   300
147
1.0
148
0.0
149
0.0
100
AcDbLayout
  1
Model
 70
     1
 71
     0
 10
0.0
 20
0.0
 11
12.0
 21
9.0
 12
0.0
 22
0.0
 32
0.0
 14
1.000000000000000E+20
 24
1.000000000000000E+20
 34
1.000000000000000E+20
 15
-1.000000000000000E+20
 25
-1.000000000000000E+20
 35
-1.000000000000000E+20
146
0.0
 13
0.0
 23
0.0
 33
0.0
 16
1.0
 26
0.0
 36
0.0
 17
0.0
 27
1.0
 37
0.0
 76
     0
330
1F
331
29
  0
MATERIAL
  5
3D
102
{ACAD_REACTORS
330
3B
102
}
330
3B
100
AcDbMaterial
  1
ByBlock
 72
     1
 94
      127
  0
MATERIAL
  5
3C
102
{ACAD_REACTORS
330
3B
102
}
330
3B
100
AcDbMaterial
  1
ByLayer
 72
     1
 94
      127
  0
MATERIAL
  5
3E
102
{ACAD_REACTORS
330
3B
102
}
330
3B
100
AcDbMaterial
  1
Global
 72
     1
 94
      127
  0
MLINESTYLE
  5
18
102
{ACAD_REACTORS
330
17
102
}
330
17
100
AcDbMlineStyle
  2
Standard
 70
     0
  3

 62
   256
 51
90.0
 52
90.0
 71
     2
 49
0.5
 62
   256
  6
BYLAYER
 49
-0.5
 62
   256
  6
BYLAYER
  0
ACDBPLACEHOLDER
  5
F
102
{ACAD_REACTORS
330
E
102
}
330
E
  0
VISUALSTYLE
  5
2F
102
{ACAD_REACTORS
330
2A
102
}
330
2A
100
AcDbVisualStyle
  2
2dWireframe
 70
     4
177
     2
291
     0
 71
     0
176
     1
 72
     2
176
     1
 73
     0
176
     1
 90
        0
176
     1
 40
-0.6
176
     1
 41
-30.0
176
     1
 62
     5
 63
     7
421
 16777215
176
     1
 74
     1
176
     1
 91
        4
176
     1
 64
     7
176
     1
 65
   257
176
     1
 75
     1
176
     1
175
     1
176
     1
 42
1.0
176
     1
 92
        0
176
     1
 66
   257
176
     1
 43
1.0
176
     1
 76
     1
176
     1
 77
     6
176
     1
 78
     2
176
     1
 67
     7
176
     1
 79
     5
176
     1
170
     0
176
     1
171
     0
176
     1
290
     0
176
     1
 93
        1
176
     1
 44
0.0
176
     1
173
     0
176
     1
  0
VISUALSTYLE
  5
31
102
{ACAD_REACTORS
330
2A
102
}
330
2A
100
AcDbVisualStyle
  2
3D Hidden
 70
     6
177
     2
291
     0
 71
     1
176
     1
 72
     2
176
     1
 73
     2
176
     1
 90
        0
176
     1
 40
-0.6
176
     1
 41
-30.0
176
     1
 62
     5
 63
     7
421
 16777215
176
     1
 74
     2
176
     1
 91
        2
176
     1
 64
     7
176
     1
 65
   257
176
     1
 75
     2
176
     1
175
     1
176
     1
 42
40.0
176
     1
 92
        0
176
     1
 66
   257
176
     1
 43
1.0
176
     1
 76
     1
176
     1
 77
     6
176
     1
 78
     2
176
     1
 67
     7
176
     1
 79
     3
176
     1
170
     0
176
     1
171
     0
176
     1
290
     0
176
     1
 93
        1
176
     1
 44
0.0
176
     1
173
     0
176
     1
  0
VISUALSTYLE
  5
30
102
{ACAD_REACTORS
330
2A
102
}
330
2A
100
AcDbVisualStyle
  2
3dWireframe
 70
     5
177
     2
291
     0
 71
     0
176
     1
 72
     2
176
     1
 73
     0
176
     1
 90
        0
176
     1
 40
-0.6
176
     1
 41
-30.0
176
     1
 62
     5
 63
     7
421
 16777215
176
     1
 74
     1
176
     1
 91
        4
176
     1
 64
     7
176
     1
 65
   257
176
     1
 75
     1
176
     1
175
     1
176
     1
 42
1.0
176
     1
 92
        0
176
     1
 66
   257
176
     1
 43
1.0
176
     1
 76
     1
176
     1
 77
     6
176
     1
 78
     2
176
     1
 67
     7
176
     1
 79
     5
176
     1
170
     0
176
     1
171
     0
176
     1
290
     0
176
     1
 93
        1
176
     1
 44
0.0
176
     1
173
     0
176
     1
  0
VISUALSTYLE
  5
32
102
{ACAD_REACTORS
330
2A
102
}
330
2A
100
AcDbVisualStyle
  2
Basic
 70
     7
177
     2
291
     1
 71
     1
176
     1
 72
     0
176
     1
 73
     1
176
     1
 90
        0
176
     1
 40
-0.6
176
     1
 41
-30.0
176
     1
 62
     5
 63
     7
421
 16777215
176
     1
 74
     0
176
     1
 91
        4
176
     1
 64
     7
176
     1
 65
   257
176
     1
 75
     1
176
     1
175
     1
176
     1
 42
1.0
176
     1
 92
        8
176
     1
 66
     7
176
     1
 43
1.0
176
     1
 76
     1
176
     1
 77
     6
176
     1
 78
     2
176
     1
 67
     7
176
     1
 79
     5
176
     1
170
     0
176
     1
171
     0
176
     1
290
     0
176
     1
 93
        1
176
     1
 44
0.0
176
     1
173
     0
176
     1
  0
VISUALSTYLE
  5
36
102
{ACAD_REACTORS
330
2A
102
}
330
2A
100
AcDbVisualStyle
  2
Brighten
 70
    12
177
     2
291
     1
 71
     2
176
     1
 72
     2
176
     1
 73
     0
176
     1
 90
        0
176
     1
 40
-0.6
176
     1
 41
-30.0
176
     1
 62
     5
 63
     7
421
 16777215
176
     1
 74
     1
176
     1
 91
        4
176
     1
 64
     7
176
     1
 65
   257
176
     1
 75
     1
176
     1
175
     1
176
     1
 42
1.0
176
     1
 92
        8
176
     1
 66
     7
176
     1
 43
1.0
176
     1
 76
     1
176
     1
 77
     6
176
     1
 78
     2
176
     1
 67
     7
176
     1
 79
     5
176
     1
170
     0
176
     1
171
     0
176
     1
290
     0
176
     1
 93
        1
176
     1
 44
50.0
176
     1
173
     0
176
     1
  0
VISUALSTYLE
  5
3A
102
{ACAD_REACTORS
330
2A
102
}
330
2A
100
AcDbVisualStyle
  2
ColorChange
 70
    16
177
     2
291
     1
 71
     2
176
     1
 72
     2
176
     1
 73
     3
176
     1
 90
        0
176
     1
 40
-0.6
176
     1
 41
-30.0
176
     1
 62
     5
 63
     8
421
  8421504
176
     1
 74
     1
176
     1
 91
        4
176
     1
 64
     7
176
     1
 65
   257
176
     1
 75
     1
176
     1
175
     1
176
     1
 42
1.0
176
     1
 92
        8
176
     1
 66
     8
424
  8421504
176
     1
 43
1.0
176
     1
 76
     1
176
     1
 77
     6
176
     1
 78
     2
176
     1
 67
     7
176
     1
 79
     5
176
     1
170
     0
176
     1
171
     0
176
     1
290
     0
176
     1
 93
        1
176
     1
 44
0.0
176
     1
173
     0
176
     1
  0
VISUALSTYLE
  5
34
102
{ACAD_REACTORS
330
2A
102
}
330
2A
100
AcDbVisualStyle
  2
Conceptual
 70
     9
177
     2
291
     0
 71
     3
176
     1
 72
     2
176
     1
 73
     0
176
     1
 90
        0
176
     1
 40
-0.6
176
     1
 41
-30.0
176
     1
 62
     5
 63
     7
421
 16777215
176
     1
 74
     2
176
     1
 91
        2
176
     1
 64
     7
176
     1
 65
   257
176
     1
 75
     1
176
     1
175
     1
176
     1
 42
40.0
176
     1
 92
        8
176
     1
 66
     7
176
     1
 43
1.0
176
     1
 76
     1
176
     1
 77
     6
176
     1
 78
     2
176
     1
 67
     7
176
     1
 79
     3
176
     1
170
     0
176
     1
171
     0
176
     1
290
     0
176
     1
 93
        1
176
     1
 44
0.0
176
     1
173
     0
176
     1
  0
VISUALSTYLE
  5
35
102
{ACAD_REACTORS
330
2A
102
}
330
2A
100
AcDbVisualStyle
  2
Dim
 70
    11
177
     2
291
     1
 71
     2
176
     1
 72
     2
176
     1
 73
     0
176
     1
 90
        0
176
     1
 40
-0.6
176
     1
 41
-30.0
176
     1
 62
     5
 63
     7
421
 16777215
176
     1
 74
     1
176
     1
 91
        4
176
     1
 64
     7
176
     1
 65
   257
176
     1
 75
     1
176
     1
175
     1
176
     1
 42
1.0
176
     1
 92
        8
176
     1
 66
     7
176
     1
 43
1.0
176
     1
 76
     1
176
     1
 77
     6
176
     1
 78
     2
176
     1
 67
     7
176
     1
 79
     5
176
     1
170
     0
176
     1
171
     0
176
     1
290
     0
176
     1
 93
        1
176
     1
 44
-50.0
176
     1
173
     0
176
     1
  0
VISUALSTYLE
  5
39
102
{ACAD_REACTORS
330
2A
102
}
330
2A
100
AcDbVisualStyle
  2
Facepattern
 70
    15
177
     2
291
     1
 71
     2
176
     1
 72
     2
176
     1
 73
     0
176
     1
 90
        0
176
     1
 40
-0.6
176
     1
 41
-30.0
176
     1
 62
     5
 63
     7
421
 16777215
176
     1
 74
     1
176
     1
 91
        4
176
     1
 64
     7
176
     1
 65
   257
176
     1
 75
     1
176
     1
175
     1
176
     1
 42
1.0
176
     1
 92
        8
176
     1
 66
     7
176
     1
 43
1.0
176
     1
 76
     1
176
     1
 77
     6
176
     1
 78
     2
176
     1
 67
     7
176
     1
 79
     5
176
     1
170
     0
176
     1
171
     0
176
     1
290
     0
176
     1
 93
        1
176
     1
 44
0.0
176
     1
173
     0
176
     1
  0
VISUALSTYLE
  5
2B
102
{ACAD_REACTORS
330
2A
102
}
330
2A
100
AcDbVisualStyle
  2
Flat
 70
     0
177
     2
291
     1
 71
     2
176
     1
 72
     1
176
     1
 73
     1
176
     1
 90
        2
176
     1
 40
-0.6
176
     1
 41
30.0
176
     1
 62
     5
 63
     7
421
 16777215
176
     1
 74
     0
176
     1
 91
        4
176
     1
 64
     7
176
     1
 65
   257
176
     1
 75
     1
176
     1
175
     1
176
     1
 42
1.0
176
     1
 92
        8
176
     1
 66
     7
176
     1
 43
1.0
176
     1
 76
     1
176
     1
 77
     6
176
     1
 78
     2
176
     1
 67
     7
176
     1
 79
     5
176
     1
170
     0
176
     1
171
     0
176
     1
290
     0
176
     1
 93
       13
176
     1
 44
0.0
176
     1
173
     0
176
     1
  0
VISUALSTYLE
  5
2C
102
{ACAD_REACTORS
330
2A
102
}
330
2A
100
AcDbVisualStyle
  2
FlatWithEdges
 70
     1
177
     2
291
     1
 71
     2
176
     1
 72
     1
176
     1
 73
     1
176
     1
 90
        2
176
     1
 40
-0.6
176
     1
 41
30.0
176
     1
 62
     5
 63
     7
421
 16777215
176
     1
 74
     1
176
     1
 91
        4
176
     1
 64
     7
176
     1
 65
   257
176
     1
 75
     1
176
     1
175
     1
176
     1
 42
1.0
176
     1
 92
        0
176
     1
 66
   257
176
     1
 43
1.0
176
     1
 76
     1
176
     1
 77
     6
176
     1
 78
     2
176
     1
 67
     7
176
     1
 79
     5
176
     1
170
     0
176
     1
171
     0
176
     1
290
     0
176
     1
 93
       13
176
     1
 44
0.0
176
     1
173
     0
176
     1
  0
VISUALSTYLE
  5
2D
102
{ACAD_REACTORS
330
2A
102
}
330
2A
100
AcDbVisualStyle
  2
Gouraud
 70
     2
177
     2
291
     1
 71
     2
176
     1
 72
     2
176
     1
 73
     1
176
     1
 90
        2
176
     1
 40
-0.6
176
     1
 41
30.0
176
     1
 62
     5
 63
     7
421
 16777215
176
     1
 74
     0
176
     1
 91
        4
176
     1
 64
     7
176
     1
 65
   257
176
     1
 75
     1
176
     1
175
     1
176
     1
 42
1.0
176
     1
 92
        0
176
     1
 66
     7
176
     1
 43
1.0
176
     1
 76
     1
176
     1
 77
     6
176
     1
 78
     2
176
     1
 67
     7
176
     1
 79
     5
176
     1
170
     0
176
     1
171
     0
176
     1
290
     0
176
     1
 93
       13
176
     1
 44
0.0
176
     1
173
     0
176
     1
  0
VISUALSTYLE
  5
2E
102
{ACAD_REACTORS
330
2A
102
}
330
2A
100
AcDbVisualStyle
  2
GouraudWithEdges
 70
     3
177
     2
291
     1
 71
     2
176
     1
 72
     2
176
     1
 73
     1
176
     1
 90
        2
176
     1
 40
-0.6
176
     1
 41
30.0
176
     1
 62
     5
 63
     7
421
 16777215
176
     1
 74
     1
176
     1
 91
        4
176
     1
 64
     7
176
     1
 65
   257
176
     1
 75
     1
176
     1
175
     1
176
     1
 42
1.0
176
     1
 92
        0
176
     1
 66
   257
176
     1
 43
1.0
176
     1
 76
     1
176
     1
 77
     6
176
     1
 78
     2
176
     1
 67
     7
176
     1
 79
     5
176
     1
170
     0
176
     1
171
     0
176
     1
290
     0
176
     1
 93
       13
176
     1
 44
0.0
176
     1
173
     0
176
     1
  0
VISUALSTYLE
  5
38
102
{ACAD_REACTORS
330
2A
102
}
330
2A
100
AcDbVisualStyle
  2
Linepattern
 70
    14
177
     2
291
     1
 71
     2
176
     1
 72
     2
176
     1
 73
     0
176
     1
 90
        0
176
     1
 40
-0.6
176
     1
 41
-30.0
176
     1
 62
     5
 63
     7
421
 16777215
176
     1
 74
     1
176
     1
 91
        4
176
     1
 64
     7
176
     1
 65
   257
176
     1
 75
     7
176
     1
175
     7
176
     1
 42
1.0
176
     1
 92
        8
176
     1
 66
     7
176
     1
 43
1.0
176
     1
 76
     1
176
     1
 77
     6
176
     1
 78
     2
176
     1
 67
     7
176
     1
 79
     5
176
     1
170
     0
176
     1
171
     0
176
     1
290
     0
176
     1
 93
        1
176
     1
 44
0.0
176
     1
173
     0
176
     1
  0
VISUALSTYLE
  5
33
102
{ACAD_REACTORS
330
2A
102
}
330
2A
100
AcDbVisualStyle
  2
Realistic
 70
     8
177
     2
291
     0
 71
     2
176
     1
 72
     2
176
     1
 73
     0
176
     1
 90
        0
176
     1
 40
-0.6
176
     1
 41
-30.0
176
     1
 62
     5
 63
     7
421
 16777215
176
     1
 74
     1
176
     1
 91
        0
176
     1
 64
     7
176
     1
 65
   257
176
     1
 75
     1
176
     1
175
     1
176
     1
 42
1.0
176
     1
 92
        8
176
     1
 66
     8
424
  7895160
176
     1
 43
1.0
176
     1
 76
     1
176
     1
 77
     6
176
     1
 78
     2
176
     1
 67
     7
176
     1
 79
     5
176
     1
170
     0
176
     1
171
     0
176
     1
290
     0
176
     1
 93
       13
176
     1
 44
0.0
176
     1
173
     0
176
     1
  0
VISUALSTYLE
  5
37
102
{ACAD_REACTORS
330
2A
102
}
330
2A
100
AcDbVisualStyle
  2
Thicken
 70
    13
177
     2
291
     1
 71
     2
176
     1
 72
     2
176
     1
 73
     0
176
     1
 90
        0
176
     1
 40
-0.6
176
     1
 41
-30.0
176
     1
 62
     5
 63
     7
421
 16777215
176
     1
 74
     1
176
     1
 91
        4
176
     1
 64
     7
176
     1
 65
   257
176
     1
 75
     1
176
     1
175
     1
176
     1
 42
1.0
176
     1
 92
       12
176
     1
 66
     7
176
     1
 43
1.0
176
     1
 76
     1
176
     1
 77
     6
176
     1
 78
     2
176
     1
 67
     7
176
     1
 79
     5
176
     1
170
     0
176
     1
171
     0
176
     1
290
     0
176
     1
 93
        1
176
     1
 44
0.0
176
     1
173
     0
176
     1
  0
ENDSEC
  0
EOF
