  0
SECTION
  2
HEADER
  9
$ACADVER
  1
AC1024
  9
$ACADMAINTVER
 70
     6
  9
$DWGCODEPAGE
  3
UNDEFINED
  9
$INSBASE
 10
0.0
 20
0.0
 30
0.0
  9
$EXTMIN
 10
1.000000000000000E+20
 20
1.000000000000000E+20
 30
1.000000000000000E+20
  9
$EXTMAX
 10
-1.000000000000000E+20
 20
-1.000000000000000E+20
 30
-1.000000000000000E+20
  9
$LIMMIN
 10
0.0
 20
0.0
  9
$LIMMAX
 10
12.0
 20
9.0
  9
$ORTHOMODE
 70
     0
  9
$REGENMODE
 70
     1
  9
$FILLMODE
 70
     1
  9
$QTEXTMODE
 70
     0
  9
$MIRRTEXT
 70
     1
  9
$LTSCALE
 40
1.0
  9
$ATTMODE
 70
     1
  9
$TEXTSIZE
 40
0.2
  9
$TRACEWID
 40
0.05
  9
$TEXTSTYLE
  7
Standard
  9
$CLAYER
  8
0
  9
$CELTYPE
  6
ByLayer
  9
$CECOLOR
 62
   256
  9
$CELTSCALE
 40
1.0
  9
$DISPSILH
 70
     0
  9
$DIMSCALE
 40
1.0
  9
$DIMASZ
 40
0.18
  9
$DIMEXO
 40
0.0625
  9
$DIMDLI
 40
0.38
  9
$DIMRND
 40
0.0
  9
$DIMDLE
 40
0.0
  9
$DIMEXE
 40
0.18
  9
$DIMTP
 40
0.0
  9
$DIMTM
 40
0.0
  9
$DIMTXT
 40
0.18
  9
$DIMCEN
 40
0.09
  9
$DIMTSZ
 40
0.0
  9
$DIMTOL
 70
     0
  9
$DIMLIM
 70
     0
  9
$DIMTIH
 70
     1
  9
$DIMTOH
 70
     1
  9
$DIMSE1
 70
     0
  9
$DIMSE2
 70
     0
  9
$DIMTAD
 70
     0
  9
$DIMZIN
 70
     0
  9
$DIMBLK
  1

  9
$DIMASO
 70
     1
  9
$DIMSHO
 70
     1
  9
$DIMPOST
  1

  9
$DIMAPOST
  1

  9
$DIMALT
 70
     0
  9
$DIMALTD
 70
     2
  9
$DIMALTF
 40
25.4
  9
$DIMLFAC
 40
1.0
  9
$DIMTOFL
 70
     0
  9
$DIMTVP
 40
0.0
  9
$DIMTIX
 70
     0
  9
$DIMSOXD
 70
     0
  9
$DIMSAH
 70
     0
  9
$DIMBLK1
  1

  9
$DIMBLK2
  1

  9
$DIMSTYLE
  2
Standard
  9
$DIMCLRD
 70
     0
  9
$DIMCLRE
 70
     0
  9
$DIMCLRT
 70
     0
  9
$DIMTFAC
 40
1.0
  9
$DIMGAP
 40
0.09
  9
$DIMJUST
 70
     0
  9
$DIMSD1
 70
     0
  9
$DIMSD2
 70
     0
  9
$DIMTOLJ
 70
     1
  9
$DIMTZIN
 70
     0
  9
$DIMALTZ
 70
     0
  9
$DIMALTTZ
 70
     0
  9
$DIMUPT
 70
     0
  9
$DIMDEC
 70
     4
  9
$DIMTDEC
 70
     4
  9
$DIMALTU
 70
     2
  9
$DIMALTTD
 70
     2
  9
$DIMTXSTY
  7
Standard
  9
$DIMAUNIT
 70
     0
  9
$DIMADEC
 70
     0
  9
$DIMALTRND
 40
0.0
  9
$DIMAZIN
 70
     0
  9
$DIMDSEP
 70
    46
  9
$DIMATFIT
 70
     3
  9
$DIMFRAC
 70
     0
  9
$DIMLDRBLK
  1

  9
$DIMLUNIT
 70
     2
  9
$DIMLWD
 70
    -2
  9
$DIMLWE
 70
    -2
  9
$DIMTMOVE
 70
     0
  9
$DIMFXL
 40
1.0
  9
$DIMFXLON
 70
     0
  9
$DIMJOGANG
 40
0.7853981633974483
  9
$DIMTFILL
 70
     0
  9
$DIMTFILLCLR
 70
     0
  9
$DIMARCSYM
 70
     0
  9
$DIMLTYPE
  6

  9
$DIMLTEX1
  6

  9
$DIMLTEX2
  6

  9
$DIMTXTDIRECTION
 70
     0
  9
$LUNITS
 70
     2
  9
$LUPREC
 70
     4
  9
$SKETCHINC
 40
0.1
  9
$FILLETRAD
 40
0.5
  9
$AUNITS
 70
     0
  9
$AUPREC
 70
     0
  9
$MENU
  1
.
  9
$ELEVATION
 40
0.0
  9
$PELEVATION
 40
0.0
  9
$THICKNESS
 40
0.0
  9
$LIMCHECK
 70
     0
  9
$CHAMFERA
 40
0.5
  9
$CHAMFERB
 40
0.5
  9
$CHAMFERC
 40
1.0
  9
$CHAMFERD
 40
0.0
  9
$SKPOLY
 70
     0
  9
$TDCREATE
 40
2457917.594409722
  9
$TDUCREATE
 40
2457917.219409722
  9
$TDUPDATE
 40
2457917.594409722
  9
$TDUUPDATE
 40
2457917.219409722
  9
$TDINDWG
 40
0.0000000116
  9
$TDUSRTIMER
 40
0.0000000116
  9
$USRTIMER
 70
     1
  9
$ANGBASE
 50
0.0
  9
$ANGDIR
 70
     0
  9
$PDMODE
 70
     0
  9
$PDSIZE
 40
0.0
  9
$PLINEWID
 40
0.0
  9
$SPLFRAME
 70
     0
  9
$SPLINETYPE
 70
     6
  9
$SPLINESEGS
 70
     8
  9
$HANDSEED
  5
F1
  9
$SURFTAB1
 70
     6
  9
$SURFTAB2
 70
     6
  9
$SURFTYPE
 70
     6
  9
$SURFU
 70
     6
  9
$SURFV
 70
     6
  9
$UCSBASE
  2

  9
$UCSNAME
  2

  9
$UCSORG
 10
0.0
 20
0.0
 30
0.0
  9
$UCSXDIR
 10
1.0
 20
0.0
 30
0.0
  9
$UCSYDIR
 10
0.0
 20
1.0
 30
0.0
  9
$UCSORTHOREF
  2

  9
$UCSORTHOVIEW
 70
     0
  9
$UCSORGTOP
 10
0.0
 20
0.0
 30
0.0
  9
$UCSORGBOTTOM
 10
0.0
 20
0.0
 30
0.0
  9
$UCSORGLEFT
 10
0.0
 20
0.0
 30
0.0
  9
$UCSORGRIGHT
 10
0.0
 20
0.0
 30
0.0
  9
$UCSORGFRONT
 10
0.0
 20
0.0
 30
0.0
  9
$UCSORGBACK
 10
0.0
 20
0.0
 30
0.0
  9
$PUCSBASE
  2

  9
$PUCSNAME
  2

  9
$PUCSORG
 10
0.0
 20
0.0
 30
0.0
  9
$PUCSXDIR
 10
1.0
 20
0.0
 30
0.0
  9
$PUCSYDIR
 10
0.0
 20
1.0
 30
0.0
  9
$PUCSORTHOREF
  2

  9
$PUCSORTHOVIEW
 70
     0
  9
$PUCSORGTOP
 10
0.0
 20
0.0
 30
0.0
  9
$PUCSORGBOTTOM
 10
0.0
 20
0.0
 30
0.0
  9
$PUCSORGLEFT
 10
0.0
 20
0.0
 30
0.0
  9
$PUCSORGRIGHT
 10
0.0
 20
0.0
 30
0.0
  9
$PUCSORGFRONT
 10
0.0
 20
0.0
 30
0.0
  9
$PUCSORGBACK
 10
0.0
 20
0.0
 30
0.0
  9
$USERI1
 70
     0
  9
$USERI2
 70
     0
  9
$USERI3
 70
     0
  9
$USERI4
 70
     0
  9
$USERI5
 70
     0
  9
$USERR1
 40
0.0
  9
$USERR2
 40
0.0
  9
$USERR3
 40
0.0
  9
$USERR4
 40
0.0
  9
$USERR5
 40
0.0
  9
$WORLDVIEW
 70
     1
  9
$SHADEDGE
 70
     3
  9
$SHADEDIF
 70
    70
  9
$TILEMODE
 70
     1
  9
$MAXACTVP
 70
    64
  9
$PINSBASE
 10
0.0
 20
0.0
 30
0.0
  9
$PLIMCHECK
 70
     0
  9
$PEXTMIN
 10
1.000000000000000E+20
 20
1.000000000000000E+20
 30
1.000000000000000E+20
  9
$PEXTMAX
 10
-1.000000000000000E+20
 20
-1.000000000000000E+20
 30
-1.000000000000000E+20
  9
$PLIMMIN
 10
0.0
 20
0.0
  9
$PLIMMAX
 10
12.0
 20
9.0
  9
$UNITMODE
 70
     0
  9
$VISRETAIN
 70
     1
  9
$PLINEGEN
 70
     0
  9
$PSLTSCALE
 70
     1
  9
$TREEDEPTH
 70
  3020
  9
$CMLSTYLE
  2
Standard
  9
$CMLJUST
 70
     0
  9
$CMLSCALE
 40
1.0
  9
$PROXYGRAPHICS
 70
     1
  9
$MEASUREMENT
 70
     0
  9
$CELWEIGHT
370
    -1
  9
$ENDCAPS
280
     0
  9
$JOINSTYLE
280
     0
  9
$LWDISPLAY
290
     1
  9
$INSUNITS
 70
     1
  9
$HYPERLINKBASE
  1

  9
$STYLESHEET
  1

  9
$XEDIT
290
     1
  9
$CEPSNTYPE
380
     0
  9
$PSTYLEMODE
290
     1
  9
$FINGERPRINTGUID
  2
{019706D6-0390-0D86-0738-AD3A4CBB66F8}
  9
$VERSIONGUID
  2
{FAEB1C32-E019-11D5-929B-00C0DF256EC4}
  9
$EXTNAMES
290
     1
  9
$PSVPSCALE
 40
0.0
  9
$OLESTARTUP
290
     0
  9
$SORTENTS
280
   127
  9
$INDEXCTL
280
     0
  9
$HIDETEXT
280
     1
  9
$XCLIPFRAME
280
     2
  9
$HALOGAP
280
     0
  9
$OBSCOLOR
 70
   257
  9
$OBSLTYPE
280
     0
  9
$INTERSECTIONDISPLAY
280
     0
  9
$INTERSECTIONCOLOR
 70
   257
  9
$DIMASSOC
280
     2
  9
$PROJECTNAME
  1

  9
$CAMERADISPLAY
290
     0
  9
$LENSLENGTH
 40
50.0
  9
$CAMERAHEIGHT
 40
0.0
  9
$STEPSPERSEC
 40
2.0
  9
$STEPSIZE
 40
6.0
  9
$3DDWFPREC
 40
2.0
  9
$PSOLWIDTH
 40
0.25
  9
$PSOLHEIGHT
 40
4.0
  9
$LOFTANG1
 40
1.570796326794897
  9
$LOFTANG2
 40
1.570796326794897
  9
$LOFTMAG1
 40
0.0
  9
$LOFTMAG2
 40
0.0
  9
$LOFTPARAM
 70
     7
  9
$LOFTNORMALS
280
     1
  9
$LATITUDE
 40
37.795
  9
$LONGITUDE
 40
-122.394
  9
$NORTHDIRECTION
 40
0.0
  9
$TIMEZONE
 70
 -8000
  9
$LIGHTGLYPHDISPLAY
280
     1
  9
$TILEMODELIGHTSYNCH
280
     1
  9
$CMATERIAL
347
3C
  9
$SOLIDHIST
280
     1
  9
$SHOWHIST
280
     1
  9
$DWFFRAME
280
     2
  9
$DGNFRAME
280
     2
  9
$REALWORLDSCALE
290
     1
  9
$INTERFERECOLOR
 62
   256
  9
$CSHADOW
280
     0
  9
$SHADOWPLANELOCATION
 40
0.0
  0
ENDSEC
  0
SECTION
  2
CLASSES
  0
CLASS
  1
ACDBDICTIONARYWDFLT
  2
AcDbDictionaryWithDefault
  3
ObjectDBX Classes
 90
        0
 91
        4
280
     0
281
     0
  0
CLASS
  1
VISUALSTYLE
  2
AcDbVisualStyle
  3
ObjectDBX Classes
 90
     4095
 91
        4
280
     0
281
     0
  0
CLASS
  1
MATERIAL
  2
AcDbMaterial
  3
ObjectDBX Classes
 90
     1153
 91
        4
280
     0
281
     0
  0
CLASS
  1
SUN
  2
AcDbSun
  3
SCENEOE
 90
     1024
 91
        4
280
     0
281
     0
  0
ENDSEC
  0
SECTION
  2
TABLES
  0
TABLE
  2
VPORT
  5
8
330
0
100
AcDbSymbolTable
 70
     1
  0
VPORT
  5
29
330
8
100
AcDbSymbolTableRecord
100
AcDbViewportTableRecord
  2
*Active
 70
     0
 10
0.0
 20
0.0
 11
1.0
 21
1.0
 12
0.0
 22
0.0
 13
0.0
 23
0.0
 14
0.5
 24
0.5
 15
0.5
 25
0.5
 16
0.0
 26
0.0
 36
1.0
 17
91.00082462281999
 27
-128.4993055234307
 37
0.0
 40
256.9986110468615
 41
0.7081814508812795
 42
50.0
 43
0.0
 44
0.0
 50
0.0
 51
0.0
 71
     0
 72
   100
 73
     1
 74
     3
 75
     0
 76
     0
 77
     0
 78
     0
281
     0
 65
     1
110
0.0
120
0.0
130
0.0
111
1.0
121
0.0
131
0.0
112
0.0
122
1.0
132
0.0
 79
     0
146
0.0
 60
     3
 61
     5
292
     1
282
     1
141
0.0
142
0.0
 63
   250
361
3F
  0
ENDTAB
  0
TABLE
  2
LTYPE
  5
5
330
0
100
AcDbSymbolTable
 70
     1
  0
LTYPE
  5
14
330
5
100
AcDbSymbolTableRecord
100
AcDbLinetypeTableRecord
  2
ByBlock
 70
     0
  3

 72
    65
 73
     0
 40
0.0
  0
LTYPE
  5
15
330
5
100
AcDbSymbolTableRecord
100
AcDbLinetypeTableRecord
  2
ByLayer
 70
     0
  3

 72
    65
 73
     0
 40
0.0
  0
LTYPE
  5
16
330
5
100
AcDbSymbolTableRecord
100
AcDbLinetypeTableRecord
  2
Continuous
 70
     0
  3
Solid line
 72
    65
 73
     0
 40
0.0
  0
ENDTAB
  0
TABLE
  2
LAYER
  5
2
330
0
100
AcDbSymbolTable
 70
     2
  0
LAYER
  5
10
330
2
100
AcDbSymbolTableRecord
100
AcDbLayerTableRecord
  2
0
 70
     0
 62
     7
  6
Continuous
370
    -3
390
F
347
3E
  0
LAYER
  5
40
330
2
100
AcDbSymbolTableRecord
100
AcDbLayerTableRecord
  2
_U+30EC_U+30A4_U+30E4_U+30FC 1
 70
     0
 62
     7
  6
Continuous
370
    -3
390
F
347
3E
  0
ENDTAB
  0
TABLE
  2
STYLE
  5
3
330
0
100
AcDbSymbolTable
 70
     1
  0
STYLE
  5
11
330
3
100
AcDbSymbolTableRecord
100
AcDbTextStyleTableRecord
  2
Standard
 70
     0
 40
0.0
 41
1.0
 50
0.0
 71
     0
 42
0.2
  3
txt
  4

  0
ENDTAB
  0
TABLE
  2
VIEW
  5
6
330
0
100
AcDbSymbolTable
 70
     0
  0
ENDTAB
  0
TABLE
  2
UCS
  5
7
330
0
100
AcDbSymbolTable
 70
     0
  0
ENDTAB
  0
TABLE
  2
APPID
  5
9
330
0
100
AcDbSymbolTable
 70
     1
  0
APPID
  5
12
330
9
100
AcDbSymbolTableRecord
100
AcDbRegAppTableRecord
  2
ACAD
 70
     0
  0
ENDTAB
  0
TABLE
  2
DIMSTYLE
  5
A
330
0
100
AcDbSymbolTable
 70
     1
100
AcDbDimStyleTable
  0
DIMSTYLE
105
27
330
A
100
AcDbSymbolTableRecord
100
AcDbDimStyleTableRecord
  2
Standard
 70
     0
178
     0
340
11
  0
ENDTAB
  0
TABLE
  2
BLOCK_RECORD
  5
1
330
0
100
AcDbSymbolTable
 70
     7
  0
BLOCK_RECORD
  5
1F
330
1
100
AcDbSymbolTableRecord
100
AcDbBlockTableRecord
  2
*Model_Space
340
22
 70
     0
280
     1
281
     0
  0
BLOCK_RECORD
  5
1B
330
1
100
AcDbSymbolTableRecord
100
AcDbBlockTableRecord
  2
*Paper_Space
340
1E
 70
     0
280
     1
281
     0
  0
BLOCK_RECORD
  5
23
330
1
100
AcDbSymbolTableRecord
100
AcDbBlockTableRecord
  2
*Paper_Space0
340
26
 70
     0
280
     1
281
     0
  0
BLOCK_RECORD
  5
85
330
1
100
AcDbSymbolTableRecord
100
AcDbBlockTableRecord
  2
block 2
340
0
102
{BLKREFS
331
86
102
}
 70
     0
280
     1
281
     0
  0
BLOCK_RECORD
  5
9A
330
1
100
AcDbSymbolTableRecord
100
AcDbBlockTableRecord
  2
block 3
340
0
102
{BLKREFS
331
9B
102
}
 70
     0
280
     1
281
     0
  0
BLOCK_RECORD
  5
AA
330
1
100
AcDbSymbolTableRecord
100
AcDbBlockTableRecord
  2
block 4
340
0
102
{BLKREFS
331
AB
102
}
 70
     0
280
     1
281
     0
  0
BLOCK_RECORD
  5
BC
330
1
100
AcDbSymbolTableRecord
100
AcDbBlockTableRecord
  2
block 5
340
0
102
{BLKREFS
331
BD
102
}
 70
     0
280
     1
281
     0
  0
BLOCK_RECORD
  5
D1
330
1
100
AcDbSymbolTableRecord
100
AcDbBlockTableRecord
  2
block 6
340
0
102
{BLKREFS
331
D2
102
}
 70
     0
280
     1
281
     0
  0
BLOCK_RECORD
  5
E6
330
1
100
AcDbSymbolTableRecord
100
AcDbBlockTableRecord
  2
block 7
340
0
102
{BLKREFS
331
E7
102
}
 70
     0
280
     1
281
     0
  0
ENDTAB
  0
ENDSEC
  0
SECTION
  2
BLOCKS
  0
BLOCK
  5
20
330
1F
100
AcDbEntity
  8
0
100
AcDbBlockBegin
  2
*Model_Space
 70
     0
 10
0.0
 20
0.0
 30
0.0
  3
*Model_Space
  1

  0
ENDBLK
  5
21
330
1F
100
AcDbEntity
  8
0
100
AcDbBlockEnd
  0
BLOCK
  5
1C
330
1B
100
AcDbEntity
 67
     1
  8
0
100
AcDbBlockBegin
  2
*Paper_Space
 70
     0
 10
0.0
 20
0.0
 30
0.0
  3
*Paper_Space
  1

  0
ENDBLK
  5
1D
330
1B
100
AcDbEntity
 67
     1
  8
0
100
AcDbBlockEnd
  0
BLOCK
  5
24
330
23
100
AcDbEntity
  8
0
100
AcDbBlockBegin
  2
*Paper_Space0
 70
     0
 10
0.0
 20
0.0
 30
0.0
  3
*Paper_Space0
  1

  0
ENDBLK
  5
25
330
23
100
AcDbEntity
  8
0
100
AcDbBlockEnd
  0
BLOCK
  5
87
330
85
100
AcDbEntity
  8
0
100
AcDbBlockBegin
  2
block 2
 70
     0
 10
0.0
 20
0.0
 30
0.0
  3
block 2
  1

  0
SPLINE
  5
89
330
85
100
AcDbEntity
  8
_U+30EC_U+30A4_U+30E4_U+30FC 1
370
     0
100
AcDbSpline
210
0.0
220
0.0
230
1.0
 70
    11
 71
     3
 72
    26
 73
    22
 74
     0
 42
0.0000000001
 43
0.0000000001
 12
1.0
 22
0.0
 32
0.0
 13
1.0
 23
0.0
 33
0.0
 40
0.0
 40
0.0
 40
0.0
 40
0.0
 40
1.0
 40
1.0
 40
1.0
 40
2.0
 40
2.0
 40
2.0
 40
3.0
 40
3.0
 40
3.0
 40
4.0
 40
4.0
 40
4.0
 40
5.0
 40
5.0
 40
5.0
 40
6.0
 40
6.0
 40
6.0
 40
7.0
 40
7.0
 40
7.0
 40
7.0
 10
76.5205661158525
 20
-140.5233777860497
 30
0.0
 10
76.5205661158525
 20
-140.5233777860497
 30
0.0
 10
76.5205661158525
 20
-139.4192246830272
 30
0.0
 10
76.5205661158525
 20
-139.4192246830272
 30
0.0
 10
76.5205661158525
 20
-139.4192246830272
 30
0.0
 10
76.16778833816292
 20
-139.4192246830272
 30
0.0
 10
76.16778833816292
 20
-139.4192246830272
 30
0.0
 10
76.16778833816292
 20
-139.4192246830272
 30
0.0
 10
76.16778833816292
 20
-139.2710855771614
 30
0.0
 10
76.16778833816292
 20
-139.2710855771614
 30
0.0
 10
76.52280542791792
 20
-139.2562716665748
 30
0.0
 10
76.57258705767977
 20
-139.0933186501225
 30
0.0
 10
76.6041096813698
 20
-138.9789414800122
 30
0.0
 10
76.6041096813698
 20
-138.9789414800122
 30
0.0
 10
76.76017250685163
 20
-138.9789414800122
 30
0.0
 10
76.76017250685163
 20
-138.9789414800122
 30
0.0
 10
76.76017250685163
 20
-138.9789414800122
 30
0.0
 10
76.76017250685163
 20
-140.5233777860497
 30
0.0
 10
76.76017250685163
 20
-140.5233777860497
 30
0.0
 10
76.76017250685163
 20
-140.5233777860497
 30
0.0
 10
76.5205661158525
 20
-140.5233777860497
 30
0.0
 10
76.5205661158525
 20
-140.5233777860497
 30
0.0
  0
HATCH
  5
8A
330
85
100
AcDbEntity
  8
_U+30EC_U+30A4_U+30E4_U+30FC 1
 62
     7
420
 16777215
100
AcDbHatch
 10
0.0
 20
0.0
 30
0.0
210
0.0
220
0.0
230
1.0
  2
SOLID
 70
     1
 71
     0
 91
        1
 92
        1
 93
        1
 72
     4
 94
        3
 73
     0
 74
     1
 95
       26
 96
       22
 40
0.0
 40
0.0
 40
0.0
 40
0.0
 40
1.0
 40
1.0
 40
1.0
 40
2.0
 40
2.0
 40
2.0
 40
3.0
 40
3.0
 40
3.0
 40
4.0
 40
4.0
 40
4.0
 40
5.0
 40
5.0
 40
5.0
 40
6.0
 40
6.0
 40
6.0
 40
7.0
 40
7.0
 40
7.0
 40
7.0
 10
76.5205661158525
 20
-140.5233777860497
 10
76.5205661158525
 20
-140.5233777860497
 10
76.5205661158525
 20
-139.4192246830272
 10
76.5205661158525
 20
-139.4192246830272
 10
76.5205661158525
 20
-139.4192246830272
 10
76.16778833816292
 20
-139.4192246830272
 10
76.16778833816292
 20
-139.4192246830272
 10
76.16778833816292
 20
-139.4192246830272
 10
76.16778833816292
 20
-139.2710855771614
 10
76.16778833816292
 20
-139.2710855771614
 10
76.52280542791792
 20
-139.2562716665748
 10
76.57258705767977
 20
-139.0933186501225
 10
76.6041096813698
 20
-138.9789414800122
 10
76.6041096813698
 20
-138.9789414800122
 10
76.76017250685163
 20
-138.9789414800122
 10
76.76017250685163
 20
-138.9789414800122
 10
76.76017250685163
 20
-138.9789414800122
 10
76.76017250685163
 20
-140.5233777860497
 10
76.76017250685163
 20
-140.5233777860497
 10
76.76017250685163
 20
-140.5233777860497
 10
76.5205661158525
 20
-140.5233777860497
 10
76.5205661158525
 20
-140.5233777860497
 97
        0
 97
        0
 75
     2
 76
     1
 98
        0
  0
SPLINE
  5
8B
330
85
100
AcDbEntity
  8
_U+30EC_U+30A4_U+30E4_U+30FC 1
370
     0
100
AcDbSpline
210
0.0
220
0.0
230
1.0
 70
    11
 71
     3
 72
    44
 73
    40
 74
     0
 42
0.0000000001
 43
0.0000000001
 12
1.0
 22
0.0
 32
0.0
 13
1.0
 23
0.0
 33
0.0
 40
0.0
 40
0.0
 40
0.0
 40
0.0
 40
1.0
 40
1.0
 40
1.0
 40
2.0
 40
2.0
 40
2.0
 40
3.0
 40
3.0
 40
3.0
 40
4.0
 40
4.0
 40
4.0
 40
5.0
 40
5.0
 40
5.0
 40
6.0
 40
6.0
 40
6.0
 40
7.0
 40
7.0
 40
7.0
 40
8.0
 40
8.0
 40
8.0
 40
9.0
 40
9.0
 40
9.0
 40
10.0
 40
10.0
 40
10.0
 40
11.0
 40
11.0
 40
11.0
 40
12.0
 40
12.0
 40
12.0
 40
13.0
 40
13.0
 40
13.0
 40
13.0
 10
78.37971189446758
 20
-140.5233777860497
 30
0.0
 10
78.35490720697378
 20
-140.47893605429
 30
0.0
 10
78.33216957677112
 20
-140.4262260933657
 30
0.0
 10
78.32993026470571
 20
-140.1954046958539
 30
0.0
 10
78.3254516405749
 20
-139.9521809545953
 30
0.0
 10
78.26223413842055
 20
-139.8822455162447
 30
0.0
 10
78.07223712240902
 20
-139.8822455162447
 30
0.0
 10
78.07223712240902
 20
-139.8822455162447
 30
0.0
 10
77.63591577920214
 20
-139.8822455162447
 30
0.0
 10
77.63591577920214
 20
-139.8822455162447
 30
0.0
 10
77.63591577920214
 20
-139.8822455162447
 30
0.0
 10
77.63591577920214
 20
-140.5233777860497
 30
0.0
 10
77.63591577920214
 20
-140.5233777860497
 30
0.0
 10
77.63591577920214
 20
-140.5233777860497
 30
0.0
 10
77.38494057310169
 20
-140.5233777860497
 30
0.0
 10
77.38494057310169
 20
-140.5233777860497
 30
0.0
 10
77.38494057310169
 20
-140.5233777860497
 30
0.0
 10
77.38494057310169
 20
-138.9789414800122
 30
0.0
 10
77.38494057310169
 20
-138.9789414800122
 30
0.0
 10
77.38494057310169
 20
-138.9789414800122
 30
0.0
 10
78.10617131293874
 20
-138.9789414800122
 30
0.0
 10
78.10617131293874
 20
-138.9789414800122
 30
0.0
 10
78.43397214836025
 20
-138.9789414800122
 30
0.0
 10
78.61260034927047
 20
-139.1505072351777
 30
0.0
 10
78.61260034927047
 20
-139.4064778297317
 30
0.0
 10
78.61260034927047
 20
-139.4571207333649
 30
0.0
 10
78.60364310100881
 20
-139.5398030250109
 30
0.0
 10
78.55610078331237
 20
-139.6200737498172
 30
0.0
 10
78.49271102638377
 20
-139.7237711239232
 30
0.0
 10
78.4227755880332
 20
-139.7427191490921
 30
0.0
 10
78.35714651903919
 20
-139.7596001169698
 30
0.0
 10
78.5040798414851
 20
-139.8019747914384
 30
0.0
 10
78.57642684667535
 20
-139.8505506377804
 30
0.0
 10
78.58090547080617
 20
-140.1657768746808
 30
0.0
 10
78.58538409493698
 20
-140.4365613798214
 30
0.0
 10
78.62396916437179
 20
-140.4682562582857
 30
0.0
 10
78.69631616956204
 20
-140.5233777860497
 30
0.0
 10
78.69631616956204
 20
-140.5233777860497
 30
0.0
 10
78.37971189446758
 20
-140.5233777860497
 30
0.0
 10
78.37971189446758
 20
-140.5233777860497
 30
0.0
  0
SPLINE
  5
8C
330
85
100
AcDbEntity
  8
_U+30EC_U+30A4_U+30E4_U+30FC 1
370
     0
100
AcDbSpline
210
0.0
220
0.0
230
1.0
 70
    11
 71
     3
 72
    20
 73
    16
 74
     0
 42
0.0000000001
 43
0.0000000001
 12
1.0
 22
0.0
 32
0.0
 13
1.0
 23
0.0
 33
0.0
 40
0.0
 40
0.0
 40
0.0
 40
0.0
 40
1.0
 40
1.0
 40
1.0
 40
2.0
 40
2.0
 40
2.0
 40
3.0
 40
3.0
 40
3.0
 40
4.0
 40
4.0
 40
4.0
 40
5.0
 40
5.0
 40
5.0
 40
5.0
 10
78.11064993706957
 20
-139.1904703428065
 30
0.0
 10
78.11064993706957
 20
-139.1904703428065
 30
0.0
 10
77.63591577920214
 20
-139.1904703428065
 30
0.0
 10
77.63591577920214
 20
-139.1904703428065
 30
0.0
 10
77.63591577920214
 20
-139.1904703428065
 30
0.0
 10
77.63591577920214
 20
-139.6707166534504
 30
0.0
 10
77.63591577920214
 20
-139.6707166534504
 30
0.0
 10
77.63591577920214
 20
-139.6707166534504
 30
0.0
 10
78.10841062500415
 20
-139.6707166534504
 30
0.0
 10
78.10841062500415
 20
-139.6707166534504
 30
0.0
 10
78.21469182072411
 20
-139.6707166534504
 30
0.0
 10
78.3593858311046
 20
-139.5945800432264
 30
0.0
 10
78.3593858311046
 20
-139.4233587976094
 30
0.0
 10
78.3593858311046
 20
-139.3451551300943
 30
0.0
 10
78.32321232850948
 20
-139.1904703428065
 30
0.0
 10
78.11064993706957
 20
-139.1904703428065
 30
0.0
  0
HATCH
  5
8D
330
85
100
AcDbEntity
  8
_U+30EC_U+30A4_U+30E4_U+30FC 1
 62
     7
420
 16777215
100
AcDbHatch
 10
0.0
 20
0.0
 30
0.0
210
0.0
220
0.0
230
1.0
  2
SOLID
 70
     1
 71
     0
 91
        2
 92
        1
 93
        1
 72
     4
 94
        3
 73
     0
 74
     1
 95
       44
 96
       40
 40
0.0
 40
0.0
 40
0.0
 40
0.0
 40
1.0
 40
1.0
 40
1.0
 40
2.0
 40
2.0
 40
2.0
 40
3.0
 40
3.0
 40
3.0
 40
4.0
 40
4.0
 40
4.0
 40
5.0
 40
5.0
 40
5.0
 40
6.0
 40
6.0
 40
6.0
 40
7.0
 40
7.0
 40
7.0
 40
8.0
 40
8.0
 40
8.0
 40
9.0
 40
9.0
 40
9.0
 40
10.0
 40
10.0
 40
10.0
 40
11.0
 40
11.0
 40
11.0
 40
12.0
 40
12.0
 40
12.0
 40
13.0
 40
13.0
 40
13.0
 40
13.0
 10
78.37971189446758
 20
-140.5233777860497
 10
78.35490720697378
 20
-140.47893605429
 10
78.33216957677112
 20
-140.4262260933657
 10
78.32993026470571
 20
-140.1954046958539
 10
78.3254516405749
 20
-139.9521809545953
 10
78.26223413842055
 20
-139.8822455162447
 10
78.07223712240902
 20
-139.8822455162447
 10
78.07223712240902
 20
-139.8822455162447
 10
77.63591577920214
 20
-139.8822455162447
 10
77.63591577920214
 20
-139.8822455162447
 10
77.63591577920214
 20
-139.8822455162447
 10
77.63591577920214
 20
-140.5233777860497
 10
77.63591577920214
 20
-140.5233777860497
 10
77.63591577920214
 20
-140.5233777860497
 10
77.38494057310169
 20
-140.5233777860497
 10
77.38494057310169
 20
-140.5233777860497
 10
77.38494057310169
 20
-140.5233777860497
 10
77.38494057310169
 20
-138.9789414800122
 10
77.38494057310169
 20
-138.9789414800122
 10
77.38494057310169
 20
-138.9789414800122
 10
78.10617131293874
 20
-138.9789414800122
 10
78.10617131293874
 20
-138.9789414800122
 10
78.43397214836025
 20
-138.9789414800122
 10
78.61260034927047
 20
-139.1505072351777
 10
78.61260034927047
 20
-139.4064778297317
 10
78.61260034927047
 20
-139.4571207333649
 10
78.60364310100881
 20
-139.5398030250109
 10
78.55610078331237
 20
-139.6200737498172
 10
78.49271102638377
 20
-139.7237711239232
 10
78.4227755880332
 20
-139.7427191490921
 10
78.35714651903919
 20
-139.7596001169698
 10
78.5040798414851
 20
-139.8019747914384
 10
78.57642684667535
 20
-139.8505506377804
 10
78.58090547080617
 20
-140.1657768746808
 10
78.58538409493698
 20
-140.4365613798214
 10
78.62396916437179
 20
-140.4682562582857
 10
78.69631616956204
 20
-140.5233777860497
 10
78.69631616956204
 20
-140.5233777860497
 10
78.37971189446758
 20
-140.5233777860497
 10
78.37971189446758
 20
-140.5233777860497
 97
        0
 97
        0
 92
        1
 93
        1
 72
     4
 94
        3
 73
     0
 74
     1
 95
       20
 96
       16
 40
0.0
 40
0.0
 40
0.0
 40
0.0
 40
1.0
 40
1.0
 40
1.0
 40
2.0
 40
2.0
 40
2.0
 40
3.0
 40
3.0
 40
3.0
 40
4.0
 40
4.0
 40
4.0
 40
5.0
 40
5.0
 40
5.0
 40
5.0
 10
78.11064993706957
 20
-139.1904703428065
 10
78.11064993706957
 20
-139.1904703428065
 10
77.63591577920214
 20
-139.1904703428065
 10
77.63591577920214
 20
-139.1904703428065
 10
77.63591577920214
 20
-139.1904703428065
 10
77.63591577920214
 20
-139.6707166534504
 10
77.63591577920214
 20
-139.6707166534504
 10
77.63591577920214
 20
-139.6707166534504
 10
78.10841062500415
 20
-139.6707166534504
 10
78.10841062500415
 20
-139.6707166534504
 10
78.21469182072411
 20
-139.6707166534504
 10
78.3593858311046
 20
-139.5945800432264
 10
78.3593858311046
 20
-139.4233587976094
 10
78.3593858311046
 20
-139.3451551300943
 10
78.32321232850948
 20
-139.1904703428065
 10
78.11064993706957
 20
-139.1904703428065
 97
        0
 97
        0
 75
     2
 76
     1
 98
        0
  0
ENDBLK
  5
88
330
85
100
AcDbEntity
  8
0
100
AcDbBlockEnd
  0
BLOCK
  5
9C
330
9A
100
AcDbEntity
  8
0
100
AcDbBlockBegin
  2
block 3
 70
     0
 10
0.0
 20
0.0
 30
0.0
  3
block 3
  1

  0
SPLINE
  5
9E
330
9A
100
AcDbEntity
  8
_U+30EC_U+30A4_U+30E4_U+30FC 1
370
     0
100
AcDbSpline
210
0.0
220
0.0
230
1.0
 70
    11
 71
     3
 72
    44
 73
    40
 74
     0
 42
0.0000000001
 43
0.0000000001
 12
1.0
 22
0.0
 32
0.0
 13
1.0
 23
0.0
 33
0.0
 40
0.0
 40
0.0
 40
0.0
 40
0.0
 40
1.0
 40
1.0
 40
1.0
 40
2.0
 40
2.0
 40
2.0
 40
3.0
 40
3.0
 40
3.0
 40
4.0
 40
4.0
 40
4.0
 40
5.0
 40
5.0
 40
5.0
 40
6.0
 40
6.0
 40
6.0
 40
7.0
 40
7.0
 40
7.0
 40
8.0
 40
8.0
 40
8.0
 40
9.0
 40
9.0
 40
9.0
 40
10.0
 40
10.0
 40
10.0
 40
11.0
 40
11.0
 40
11.0
 40
12.0
 40
12.0
 40
12.0
 40
13.0
 40
13.0
 40
13.0
 40
13.0
 10
94.9836940951777
 20
-115.840129908106
 30
0.0
 10
94.75080564037481
 20
-115.9987765552017
 30
0.0
 10
94.65124238085109
 20
-116.0728461081346
 30
0.0
 10
94.59956594857233
 20
-116.2165065898695
 30
0.0
 10
94.59956594857233
 20
-116.2165065898695
 30
0.0
 10
95.43121199871165
 20
-116.2165065898695
 30
0.0
 10
95.43121199871165
 20
-116.2165065898695
 30
0.0
 10
95.43121199871165
 20
-116.2165065898695
 30
0.0
 10
95.43121199871165
 20
-116.4218342807904
 30
0.0
 10
95.43121199871165
 20
-116.4218342807904
 30
0.0
 10
95.43121199871165
 20
-116.4218342807904
 30
0.0
 10
94.33257104846547
 20
-116.4218342807904
 30
0.0
 10
94.33257104846547
 20
-116.4218342807904
 30
0.0
 10
94.36667749376944
 20
-116.0642333694214
 30
0.0
 10
94.43661293212001
 20
-115.9860297019063
 30
0.0
 10
94.84795733305884
 20
-115.6876844328836
 30
0.0
 10
95.12149791458769
 20
-115.4889024233847
 30
0.0
 10
95.19177786248679
 20
-115.4212062970996
 30
0.0
 10
95.19177786248679
 20
-115.2837469872381
 30
0.0
 10
95.19177786248679
 20
-115.1652357025455
 30
0.0
 10
95.11495223316571
 20
-115.0341498193317
 30
0.0
 10
94.90445689901695
 20
-115.0341498193317
 30
0.0
 10
94.62643769335729
 20
-115.0341498193317
 30
0.0
 10
94.61748044509564
 20
-115.264626707295
 30
0.0
 10
94.61300182096481
 20
-115.3810709346964
 30
0.0
 10
94.61300182096481
 20
-115.3810709346964
 30
0.0
 10
94.37322317519143
 20
-115.3810709346964
 30
0.0
 10
94.37322317519143
 20
-115.3810709346964
 30
0.0
 10
94.38252493300159
 20
-115.254119166065
 30
0.0
 10
94.3935492385544
 20
-115.1419813080201
 30
0.0
 10
94.47967662568564
 20
-115.0234700233275
 30
0.0
 10
94.59715438173266
 20
-114.8627563189406
 30
0.0
 10
94.79593639123158
 20
-114.8288221284108
 30
0.0
 10
94.9203043382491
 20
-114.8288221284108
 30
0.0
 10
95.21658254998059
 20
-114.8288221284108
 30
0.0
 10
95.43810218968214
 20
-115.0129624820975
 30
0.0
 10
95.43810218968214
 20
-115.2858140445292
 30
0.0
 10
95.43810218968214
 20
-115.5142238752013
 30
0.0
 10
95.31373424266462
 20
-115.613787134725
 30
0.0
 10
94.9836940951777
 20
-115.840129908106
 30
0.0
  0
HATCH
  5
9F
330
9A
100
AcDbEntity
  8
_U+30EC_U+30A4_U+30E4_U+30FC 1
 62
     7
420
 16777215
100
AcDbHatch
 10
0.0
 20
0.0
 30
0.0
210
0.0
220
0.0
230
1.0
  2
SOLID
 70
     1
 71
     0
 91
        1
 92
        1
 93
        1
 72
     4
 94
        3
 73
     0
 74
     1
 95
       44
 96
       40
 40
0.0
 40
0.0
 40
0.0
 40
0.0
 40
1.0
 40
1.0
 40
1.0
 40
2.0
 40
2.0
 40
2.0
 40
3.0
 40
3.0
 40
3.0
 40
4.0
 40
4.0
 40
4.0
 40
5.0
 40
5.0
 40
5.0
 40
6.0
 40
6.0
 40
6.0
 40
7.0
 40
7.0
 40
7.0
 40
8.0
 40
8.0
 40
8.0
 40
9.0
 40
9.0
 40
9.0
 40
10.0
 40
10.0
 40
10.0
 40
11.0
 40
11.0
 40
11.0
 40
12.0
 40
12.0
 40
12.0
 40
13.0
 40
13.0
 40
13.0
 40
13.0
 10
94.9836940951777
 20
-115.840129908106
 10
94.75080564037481
 20
-115.9987765552017
 10
94.65124238085109
 20
-116.0728461081346
 10
94.59956594857233
 20
-116.2165065898695
 10
94.59956594857233
 20
-116.2165065898695
 10
95.43121199871165
 20
-116.2165065898695
 10
95.43121199871165
 20
-116.2165065898695
 10
95.43121199871165
 20
-116.2165065898695
 10
95.43121199871165
 20
-116.4218342807904
 10
95.43121199871165
 20
-116.4218342807904
 10
95.43121199871165
 20
-116.4218342807904
 10
94.33257104846547
 20
-116.4218342807904
 10
94.33257104846547
 20
-116.4218342807904
 10
94.36667749376944
 20
-116.0642333694214
 10
94.43661293212001
 20
-115.9860297019063
 10
94.84795733305884
 20
-115.6876844328836
 10
95.12149791458769
 20
-115.4889024233847
 10
95.19177786248679
 20
-115.4212062970996
 10
95.19177786248679
 20
-115.2837469872381
 10
95.19177786248679
 20
-115.1652357025455
 10
95.11495223316571
 20
-115.0341498193317
 10
94.90445689901695
 20
-115.0341498193317
 10
94.62643769335729
 20
-115.0341498193317
 10
94.61748044509564
 20
-115.264626707295
 10
94.61300182096481
 20
-115.3810709346964
 10
94.61300182096481
 20
-115.3810709346964
 10
94.37322317519143
 20
-115.3810709346964
 10
94.37322317519143
 20
-115.3810709346964
 10
94.38252493300159
 20
-115.254119166065
 10
94.3935492385544
 20
-115.1419813080201
 10
94.47967662568564
 20
-115.0234700233275
 10
94.59715438173266
 20
-114.8627563189406
 10
94.79593639123158
 20
-114.8288221284108
 10
94.9203043382491
 20
-114.8288221284108
 10
95.21658254998059
 20
-114.8288221284108
 10
95.43810218968214
 20
-115.0129624820975
 10
95.43810218968214
 20
-115.2858140445292
 10
95.43810218968214
 20
-115.5142238752013
 10
95.31373424266462
 20
-115.613787134725
 10
94.9836940951777
 20
-115.840129908106
 97
        0
 97
        0
 75
     2
 76
     1
 98
        0
  0
SPLINE
  5
A0
330
9A
100
AcDbEntity
  8
_U+30EC_U+30A4_U+30E4_U+30FC 1
370
     0
100
AcDbSpline
210
0.0
220
0.0
230
1.0
 70
    11
 71
     3
 72
    26
 73
    22
 74
     0
 42
0.0000000001
 43
0.0000000001
 12
1.0
 22
0.0
 32
0.0
 13
1.0
 23
0.0
 33
0.0
 40
0.0
 40
0.0
 40
0.0
 40
0.0
 40
1.0
 40
1.0
 40
1.0
 40
2.0
 40
2.0
 40
2.0
 40
3.0
 40
3.0
 40
3.0
 40
4.0
 40
4.0
 40
4.0
 40
5.0
 40
5.0
 40
5.0
 40
6.0
 40
6.0
 40
6.0
 40
7.0
 40
7.0
 40
7.0
 40
7.0
 10
96.08991425549141
 20
-116.4218342807904
 30
0.0
 10
96.08991425549141
 20
-116.4218342807904
 30
0.0
 10
96.08991425549141
 20
-115.3175089229935
 30
0.0
 10
96.08991425549141
 20
-115.3175089229935
 30
0.0
 10
96.08991425549141
 20
-115.3175089229935
 30
0.0
 10
95.73748098735035
 20
-115.3175089229935
 30
0.0
 10
95.73748098735035
 20
-115.3175089229935
 30
0.0
 10
95.73748098735035
 20
-115.3175089229935
 30
0.0
 10
95.73748098735035
 20
-115.1695420719021
 30
0.0
 10
95.73748098735035
 20
-115.1695420719021
 30
0.0
 10
96.09232582233109
 20
-115.1547281613155
 30
0.0
 10
96.14193519731869
 20
-114.9917751448632
 30
0.0
 10
96.17363007578298
 20
-114.8775702295271
 30
0.0
 10
96.17363007578298
 20
-114.8775702295271
 30
0.0
 10
96.3296929012648
 20
-114.8775702295271
 30
0.0
 10
96.3296929012648
 20
-114.8775702295271
 30
0.0
 10
96.3296929012648
 20
-114.8775702295271
 30
0.0
 10
96.3296929012648
 20
-116.4218342807904
 30
0.0
 10
96.3296929012648
 20
-116.4218342807904
 30
0.0
 10
96.3296929012648
 20
-116.4218342807904
 30
0.0
 10
96.08991425549141
 20
-116.4218342807904
 30
0.0
 10
96.08991425549141
 20
-116.4218342807904
 30
0.0
  0
HATCH
  5
A1
330
9A
100
AcDbEntity
  8
_U+30EC_U+30A4_U+30E4_U+30FC 1
 62
     7
420
 16777215
100
AcDbHatch
 10
0.0
 20
0.0
 30
0.0
210
0.0
220
0.0
230
1.0
  2
SOLID
 70
     1
 71
     0
 91
        1
 92
        1
 93
        1
 72
     4
 94
        3
 73
     0
 74
     1
 95
       26
 96
       22
 40
0.0
 40
0.0
 40
0.0
 40
0.0
 40
1.0
 40
1.0
 40
1.0
 40
2.0
 40
2.0
 40
2.0
 40
3.0
 40
3.0
 40
3.0
 40
4.0
 40
4.0
 40
4.0
 40
5.0
 40
5.0
 40
5.0
 40
6.0
 40
6.0
 40
6.0
 40
7.0
 40
7.0
 40
7.0
 40
7.0
 10
96.08991425549141
 20
-116.4218342807904
 10
96.08991425549141
 20
-116.4218342807904
 10
96.08991425549141
 20
-115.3175089229935
 10
96.08991425549141
 20
-115.3175089229935
 10
96.08991425549141
 20
-115.3175089229935
 10
95.73748098735035
 20
-115.3175089229935
 10
95.73748098735035
 20
-115.3175089229935
 10
95.73748098735035
 20
-115.3175089229935
 10
95.73748098735035
 20
-115.1695420719021
 10
95.73748098735035
 20
-115.1695420719021
 10
96.09232582233109
 20
-115.1547281613155
 10
96.14193519731869
 20
-114.9917751448632
 10
96.17363007578298
 20
-114.8775702295271
 10
96.17363007578298
 20
-114.8775702295271
 10
96.3296929012648
 20
-114.8775702295271
 10
96.3296929012648
 20
-114.8775702295271
 10
96.3296929012648
 20
-114.8775702295271
 10
96.3296929012648
 20
-116.4218342807904
 10
96.3296929012648
 20
-116.4218342807904
 10
96.3296929012648
 20
-116.4218342807904
 10
96.08991425549141
 20
-116.4218342807904
 10
96.08991425549141
 20
-116.4218342807904
 97
        0
 97
        0
 75
     2
 76
     1
 98
        0
  0
ENDBLK
  5
9D
330
9A
100
AcDbEntity
  8
0
100
AcDbBlockEnd
  0
BLOCK
  5
AC
330
AA
100
AcDbEntity
  8
0
100
AcDbBlockBegin
  2
block 4
 70
     0
 10
0.0
 20
0.0
 30
0.0
  3
block 4
  1

  0
SPLINE
  5
AE
330
AA
100
AcDbEntity
  8
_U+30EC_U+30A4_U+30E4_U+30FC 1
370
     0
100
AcDbSpline
210
0.0
220
0.0
230
1.0
 70
    11
 71
     3
 72
    26
 73
    22
 74
     0
 42
0.0000000001
 43
0.0000000001
 12
1.0
 22
0.0
 32
0.0
 13
1.0
 23
0.0
 33
0.0
 40
0.0
 40
0.0
 40
0.0
 40
0.0
 40
1.0
 40
1.0
 40
1.0
 40
2.0
 40
2.0
 40
2.0
 40
3.0
 40
3.0
 40
3.0
 40
4.0
 40
4.0
 40
4.0
 40
5.0
 40
5.0
 40
5.0
 40
6.0
 40
6.0
 40
6.0
 40
7.0
 40
7.0
 40
7.0
 40
7.0
 10
86.24021400838787
 20
-122.987152747031
 30
0.0
 10
86.24021400838787
 20
-122.987152747031
 30
0.0
 10
86.24021400838787
 20
-121.8828273892342
 30
0.0
 10
86.24021400838787
 20
-121.8828273892342
 30
0.0
 10
86.24021400838787
 20
-121.8828273892342
 30
0.0
 10
85.88743623069828
 20
-121.8828273892342
 30
0.0
 10
85.88743623069828
 20
-121.8828273892342
 30
0.0
 10
85.88743623069828
 20
-121.8828273892342
 30
0.0
 10
85.88743623069828
 20
-121.7348605381427
 30
0.0
 10
85.88743623069828
 20
-121.7348605381427
 30
0.0
 10
86.24245332045328
 20
-121.7200466275561
 30
0.0
 10
86.29223495021515
 20
-121.5570936111038
 30
0.0
 10
86.32375757390517
 20
-121.4428886957677
 30
0.0
 10
86.32375757390517
 20
-121.4428886957677
 30
0.0
 10
86.479820399387
 20
-121.4428886957677
 30
0.0
 10
86.479820399387
 20
-121.4428886957677
 30
0.0
 10
86.479820399387
 20
-121.4428886957677
 30
0.0
 10
86.479820399387
 20
-122.987152747031
 30
0.0
 10
86.479820399387
 20
-122.987152747031
 30
0.0
 10
86.479820399387
 20
-122.987152747031
 30
0.0
 10
86.24021400838787
 20
-122.987152747031
 30
0.0
 10
86.24021400838787
 20
-122.987152747031
 30
0.0
  0
HATCH
  5
AF
330
AA
100
AcDbEntity
  8
_U+30EC_U+30A4_U+30E4_U+30FC 1
 62
     7
420
 16777215
100
AcDbHatch
 10
0.0
 20
0.0
 30
0.0
210
0.0
220
0.0
230
1.0
  2
SOLID
 70
     1
 71
     0
 91
        1
 92
        1
 93
        1
 72
     4
 94
        3
 73
     0
 74
     1
 95
       26
 96
       22
 40
0.0
 40
0.0
 40
0.0
 40
0.0
 40
1.0
 40
1.0
 40
1.0
 40
2.0
 40
2.0
 40
2.0
 40
3.0
 40
3.0
 40
3.0
 40
4.0
 40
4.0
 40
4.0
 40
5.0
 40
5.0
 40
5.0
 40
6.0
 40
6.0
 40
6.0
 40
7.0
 40
7.0
 40
7.0
 40
7.0
 10
86.24021400838787
 20
-122.987152747031
 10
86.24021400838787
 20
-122.987152747031
 10
86.24021400838787
 20
-121.8828273892342
 10
86.24021400838787
 20
-121.8828273892342
 10
86.24021400838787
 20
-121.8828273892342
 10
85.88743623069828
 20
-121.8828273892342
 10
85.88743623069828
 20
-121.8828273892342
 10
85.88743623069828
 20
-121.8828273892342
 10
85.88743623069828
 20
-121.7348605381427
 10
85.88743623069828
 20
-121.7348605381427
 10
86.24245332045328
 20
-121.7200466275561
 10
86.29223495021515
 20
-121.5570936111038
 10
86.32375757390517
 20
-121.4428886957677
 10
86.32375757390517
 20
-121.4428886957677
 10
86.479820399387
 20
-121.4428886957677
 10
86.479820399387
 20
-121.4428886957677
 10
86.479820399387
 20
-121.4428886957677
 10
86.479820399387
 20
-122.987152747031
 10
86.479820399387
 20
-122.987152747031
 10
86.479820399387
 20
-122.987152747031
 10
86.24021400838787
 20
-122.987152747031
 10
86.24021400838787
 20
-122.987152747031
 97
        0
 97
        0
 75
     2
 76
     1
 98
        0
  0
ENDBLK
  5
AD
330
AA
100
AcDbEntity
  8
0
100
AcDbBlockEnd
  0
BLOCK
  5
BE
330
BC
100
AcDbEntity
  8
0
100
AcDbBlockBegin
  2
block 5
 70
     0
 10
0.0
 20
0.0
 30
0.0
  3
block 5
  1

  0
SPLINE
  5
C0
330
BC
100
AcDbEntity
  8
_U+30EC_U+30A4_U+30E4_U+30FC 1
370
     0
100
AcDbSpline
210
0.0
220
0.0
230
1.0
 70
    11
 71
     3
 72
    26
 73
    22
 74
     0
 42
0.0000000001
 43
0.0000000001
 12
1.0
 22
0.0
 32
0.0
 13
1.0
 23
0.0
 33
0.0
 40
0.0
 40
0.0
 40
0.0
 40
0.0
 40
1.0
 40
1.0
 40
1.0
 40
2.0
 40
2.0
 40
2.0
 40
3.0
 40
3.0
 40
3.0
 40
4.0
 40
4.0
 40
4.0
 40
5.0
 40
5.0
 40
5.0
 40
6.0
 40
6.0
 40
6.0
 40
7.0
 40
7.0
 40
7.0
 40
7.0
 10
79.4170301450763
 20
-130.351388856301
 30
0.0
 10
79.4170301450763
 20
-130.351388856301
 30
0.0
 10
78.31270478727947
 20
-130.351388856301
 30
0.0
 10
78.31270478727947
 20
-130.351388856301
 30
0.0
 10
78.31270478727947
 20
-130.351388856301
 30
0.0
 10
78.31270478727947
 20
-130.7038221244421
 30
0.0
 10
78.31270478727947
 20
-130.7038221244421
 30
0.0
 10
78.31270478727947
 20
-130.7038221244421
 30
0.0
 10
78.16456568141372
 20
-130.7038221244421
 30
0.0
 10
78.16456568141372
 20
-130.7038221244421
 30
0.0
 10
78.14992402560141
 20
-130.3489772894614
 30
0.0
 10
77.98697100914909
 20
-130.2993679144738
 30
0.0
 10
77.87276609381306
 20
-130.2676730360095
 30
0.0
 10
77.87276609381306
 20
-130.2676730360095
 30
0.0
 10
77.87276609381306
 20
-130.1116102105277
 30
0.0
 10
77.87276609381306
 20
-130.1116102105277
 30
0.0
 10
77.87276609381306
 20
-130.1116102105277
 30
0.0
 10
79.4170301450763
 20
-130.1116102105277
 30
0.0
 10
79.4170301450763
 20
-130.1116102105277
 30
0.0
 10
79.4170301450763
 20
-130.1116102105277
 30
0.0
 10
79.4170301450763
 20
-130.351388856301
 30
0.0
 10
79.4170301450763
 20
-130.351388856301
 30
0.0
  0
HATCH
  5
C1
330
BC
100
AcDbEntity
  8
_U+30EC_U+30A4_U+30E4_U+30FC 1
 62
     7
420
 16777215
100
AcDbHatch
 10
0.0
 20
0.0
 30
0.0
210
0.0
220
0.0
230
1.0
  2
SOLID
 70
     1
 71
     0
 91
        1
 92
        1
 93
        1
 72
     4
 94
        3
 73
     0
 74
     1
 95
       26
 96
       22
 40
0.0
 40
0.0
 40
0.0
 40
0.0
 40
1.0
 40
1.0
 40
1.0
 40
2.0
 40
2.0
 40
2.0
 40
3.0
 40
3.0
 40
3.0
 40
4.0
 40
4.0
 40
4.0
 40
5.0
 40
5.0
 40
5.0
 40
6.0
 40
6.0
 40
6.0
 40
7.0
 40
7.0
 40
7.0
 40
7.0
 10
79.4170301450763
 20
-130.351388856301
 10
79.4170301450763
 20
-130.351388856301
 10
78.31270478727947
 20
-130.351388856301
 10
78.31270478727947
 20
-130.351388856301
 10
78.31270478727947
 20
-130.351388856301
 10
78.31270478727947
 20
-130.7038221244421
 10
78.31270478727947
 20
-130.7038221244421
 10
78.31270478727947
 20
-130.7038221244421
 10
78.16456568141372
 20
-130.7038221244421
 10
78.16456568141372
 20
-130.7038221244421
 10
78.14992402560141
 20
-130.3489772894614
 10
77.98697100914909
 20
-130.2993679144738
 10
77.87276609381306
 20
-130.2676730360095
 10
77.87276609381306
 20
-130.2676730360095
 10
77.87276609381306
 20
-130.1116102105277
 10
77.87276609381306
 20
-130.1116102105277
 10
77.87276609381306
 20
-130.1116102105277
 10
79.4170301450763
 20
-130.1116102105277
 10
79.4170301450763
 20
-130.1116102105277
 10
79.4170301450763
 20
-130.1116102105277
 10
79.4170301450763
 20
-130.351388856301
 10
79.4170301450763
 20
-130.351388856301
 97
        0
 97
        0
 75
     2
 76
     1
 98
        0
  0
SPLINE
  5
C2
330
BC
100
AcDbEntity
  8
_U+30EC_U+30A4_U+30E4_U+30FC 1
370
     0
100
AcDbSpline
210
0.0
220
0.0
230
1.0
 70
    11
 71
     3
 72
    32
 73
    28
 74
     0
 42
0.0000000001
 43
0.0000000001
 12
1.0
 22
0.0
 32
0.0
 13
1.0
 23
0.0
 33
0.0
 40
0.0
 40
0.0
 40
0.0
 40
0.0
 40
1.0
 40
1.0
 40
1.0
 40
2.0
 40
2.0
 40
2.0
 40
3.0
 40
3.0
 40
3.0
 40
4.0
 40
4.0
 40
4.0
 40
5.0
 40
5.0
 40
5.0
 40
6.0
 40
6.0
 40
6.0
 40
7.0
 40
7.0
 40
7.0
 40
8.0
 40
8.0
 40
8.0
 40
9.0
 40
9.0
 40
9.0
 40
9.0
 10
79.46784530348374
 20
-129.0370849286782
 30
0.0
 10
79.46784530348374
 20
-129.5886447158667
 30
0.0
 10
78.91352943990704
 20
-129.5976019641284
 30
0.0
 10
78.69993351982154
 20
-129.5976019641284
 30
0.0
 10
78.46928437708407
 20
-129.5976019641284
 30
0.0
 10
77.82195093540562
 20
-129.5772759007654
 30
0.0
 10
77.82195093540562
 20
-128.9960882924038
 30
0.0
 10
77.82195093540562
 20
-128.8107421552973
 30
0.0
 10
77.89171411898194
 20
-128.5485703888698
 30
0.0
 10
78.22382132376002
 20
-128.5079182621438
 30
0.0
 10
78.22382132376002
 20
-128.5079182621438
 30
0.0
 10
78.22382132376002
 20
-128.7363280928159
 30
0.0
 10
78.22382132376002
 20
-128.7363280928159
 30
0.0
 10
78.16680499347913
 20
-128.7476969079173
 30
0.0
 10
78.0186658876134
 20
-128.7814588436727
 30
0.0
 10
78.0186658876134
 20
-128.9984998592434
 30
0.0
 10
78.0186658876134
 20
-129.3106255102071
 30
0.0
 10
78.34663897780918
 20
-129.3533446942242
 30
0.0
 10
78.5517944139558
 20
-129.3671250761652
 30
0.0
 10
78.47359074644064
 20
-129.2675618166415
 30
0.0
 10
78.41433510409433
 20
-129.1952148114512
 30
0.0
 10
78.41433510409433
 20
-129.0005669165346
 30
0.0
 10
78.41433510409433
 20
-128.8086750980062
 30
0.0
 10
78.52216659278265
 20
-128.4851806319412
 30
0.0
 10
78.9283433504936
 20
-128.4851806319412
 30
0.0
 10
79.24770370197628
 20
-128.4851806319412
 30
0.0
 10
79.46784530348374
 20
-128.6977430233811
 30
0.0
 10
79.46784530348374
 20
-129.0370849286782
 30
0.0
  0
SPLINE
  5
C3
330
BC
100
AcDbEntity
  8
_U+30EC_U+30A4_U+30E4_U+30FC 1
370
     0
100
AcDbSpline
210
0.0
220
0.0
230
1.0
 70
    11
 71
     3
 72
    17
 73
    13
 74
     0
 42
0.0000000001
 43
0.0000000001
 12
1.0
 22
0.0
 32
0.0
 13
1.0
 23
0.0
 33
0.0
 40
0.0
 40
0.0
 40
0.0
 40
0.0
 40
1.0
 40
1.0
 40
1.0
 40
2.0
 40
2.0
 40
2.0
 40
3.0
 40
3.0
 40
3.0
 40
4.0
 40
4.0
 40
4.0
 40
4.0
 10
78.60898299901095
 20
-129.0188259226064
 30
0.0
 10
78.60898299901095
 20
-129.2992566951058
 30
0.0
 10
78.82051186180529
 20
-129.3399088218317
 30
0.0
 10
78.93678383443248
 20
-129.3399088218317
 30
0.0
 10
79.11231144940595
 20
-129.3399088218317
 30
0.0
 10
79.27526446585827
 20
-129.2382785050168
 30
0.0
 10
79.27526446585827
 20
-129.0415635528091
 30
0.0
 10
79.27526446585827
 20
-128.9127169816607
 30
0.0
 10
79.21600882351197
 20
-128.7249592777146
 30
0.0
 10
78.93041040778476
 20
-128.7249592777146
 30
0.0
 10
78.706134691695
 20
-128.7249592777146
 30
0.0
 10
78.60898299901095
 20
-128.8741319122259
 30
0.0
 10
78.60898299901095
 20
-129.0188259226064
 30
0.0
  0
HATCH
  5
C4
330
BC
100
AcDbEntity
  8
_U+30EC_U+30A4_U+30E4_U+30FC 1
 62
     7
420
 16777215
100
AcDbHatch
 10
0.0
 20
0.0
 30
0.0
210
0.0
220
0.0
230
1.0
  2
SOLID
 70
     1
 71
     0
 91
        2
 92
        1
 93
        1
 72
     4
 94
        3
 73
     0
 74
     1
 95
       32
 96
       28
 40
0.0
 40
0.0
 40
0.0
 40
0.0
 40
1.0
 40
1.0
 40
1.0
 40
2.0
 40
2.0
 40
2.0
 40
3.0
 40
3.0
 40
3.0
 40
4.0
 40
4.0
 40
4.0
 40
5.0
 40
5.0
 40
5.0
 40
6.0
 40
6.0
 40
6.0
 40
7.0
 40
7.0
 40
7.0
 40
8.0
 40
8.0
 40
8.0
 40
9.0
 40
9.0
 40
9.0
 40
9.0
 10
79.46784530348374
 20
-129.0370849286782
 10
79.46784530348374
 20
-129.5886447158667
 10
78.91352943990704
 20
-129.5976019641284
 10
78.69993351982154
 20
-129.5976019641284
 10
78.46928437708407
 20
-129.5976019641284
 10
77.82195093540562
 20
-129.5772759007654
 10
77.82195093540562
 20
-128.9960882924038
 10
77.82195093540562
 20
-128.8107421552973
 10
77.89171411898194
 20
-128.5485703888698
 10
78.22382132376002
 20
-128.5079182621438
 10
78.22382132376002
 20
-128.5079182621438
 10
78.22382132376002
 20
-128.7363280928159
 10
78.22382132376002
 20
-128.7363280928159
 10
78.16680499347913
 20
-128.7476969079173
 10
78.0186658876134
 20
-128.7814588436727
 10
78.0186658876134
 20
-128.9984998592434
 10
78.0186658876134
 20
-129.3106255102071
 10
78.34663897780918
 20
-129.3533446942242
 10
78.5517944139558
 20
-129.3671250761652
 10
78.47359074644064
 20
-129.2675618166415
 10
78.41433510409433
 20
-129.1952148114512
 10
78.41433510409433
 20
-129.0005669165346
 10
78.41433510409433
 20
-128.8086750980062
 10
78.52216659278265
 20
-128.4851806319412
 10
78.9283433504936
 20
-128.4851806319412
 10
79.24770370197628
 20
-128.4851806319412
 10
79.46784530348374
 20
-128.6977430233811
 10
79.46784530348374
 20
-129.0370849286782
 97
        0
 97
        0
 92
        1
 93
        1
 72
     4
 94
        3
 73
     0
 74
     1
 95
       17
 96
       13
 40
0.0
 40
0.0
 40
0.0
 40
0.0
 40
1.0
 40
1.0
 40
1.0
 40
2.0
 40
2.0
 40
2.0
 40
3.0
 40
3.0
 40
3.0
 40
4.0
 40
4.0
 40
4.0
 40
4.0
 10
78.60898299901095
 20
-129.0188259226064
 10
78.60898299901095
 20
-129.2992566951058
 10
78.82051186180529
 20
-129.3399088218317
 10
78.93678383443248
 20
-129.3399088218317
 10
79.11231144940595
 20
-129.3399088218317
 10
79.27526446585827
 20
-129.2382785050168
 10
79.27526446585827
 20
-129.0415635528091
 10
79.27526446585827
 20
-128.9127169816607
 10
79.21600882351197
 20
-128.7249592777146
 10
78.93041040778476
 20
-128.7249592777146
 10
78.706134691695
 20
-128.7249592777146
 10
78.60898299901095
 20
-128.8741319122259
 10
78.60898299901095
 20
-129.0188259226064
 97
        0
 97
        0
 75
     2
 76
     1
 98
        0
  0
ENDBLK
  5
BF
330
BC
100
AcDbEntity
  8
0
100
AcDbBlockEnd
  0
BLOCK
  5
D3
330
D1
100
AcDbEntity
  8
0
100
AcDbBlockBegin
  2
block 6
 70
     0
 10
0.0
 20
0.0
 30
0.0
  3
block 6
  1

  0
SPLINE
  5
D5
330
D1
100
AcDbEntity
  8
_U+30EC_U+30A4_U+30E4_U+30FC 1
370
     0
100
AcDbSpline
210
0.0
220
0.0
230
1.0
 70
    11
 71
     3
 72
    26
 73
    22
 74
     0
 42
0.0000000001
 43
0.0000000001
 12
1.0
 22
0.0
 32
0.0
 13
1.0
 23
0.0
 33
0.0
 40
0.0
 40
0.0
 40
0.0
 40
0.0
 40
1.0
 40
1.0
 40
1.0
 40
2.0
 40
2.0
 40
2.0
 40
3.0
 40
3.0
 40
3.0
 40
4.0
 40
4.0
 40
4.0
 40
5.0
 40
5.0
 40
5.0
 40
6.0
 40
6.0
 40
6.0
 40
7.0
 40
7.0
 40
7.0
 40
7.0
 10
91.33223739036139
 20
-141.0735595350441
 30
0.0
 10
91.33223739036139
 20
-141.0735595350441
 30
0.0
 10
91.33223739036139
 20
-139.9694064320215
 30
0.0
 10
91.33223739036139
 20
-139.9694064320215
 30
0.0
 10
91.33223739036139
 20
-139.9694064320215
 30
0.0
 10
90.97980412222033
 20
-139.9694064320215
 30
0.0
 10
90.97980412222033
 20
-139.9694064320215
 30
0.0
 10
90.97980412222033
 20
-139.9694064320215
 30
0.0
 10
90.97980412222033
 20
-139.8212673261558
 30
0.0
 10
90.97980412222033
 20
-139.8212673261558
 30
0.0
 10
91.33464895720107
 20
-139.8064534155692
 30
0.0
 10
91.38425833218867
 20
-139.6435003991169
 30
0.0
 10
91.41595321065296
 20
-139.5291232290066
 30
0.0
 10
91.41595321065296
 20
-139.5291232290066
 30
0.0
 10
91.57201603613478
 20
-139.5291232290066
 30
0.0
 10
91.57201603613478
 20
-139.5291232290066
 30
0.0
 10
91.57201603613478
 20
-139.5291232290066
 30
0.0
 10
91.57201603613478
 20
-141.0735595350441
 30
0.0
 10
91.57201603613478
 20
-141.0735595350441
 30
0.0
 10
91.57201603613478
 20
-141.0735595350441
 30
0.0
 10
91.33223739036139
 20
-141.0735595350441
 30
0.0
 10
91.33223739036139
 20
-141.0735595350441
 30
0.0
  0
HATCH
  5
D6
330
D1
100
AcDbEntity
  8
_U+30EC_U+30A4_U+30E4_U+30FC 1
 62
     7
420
 16777215
100
AcDbHatch
 10
0.0
 20
0.0
 30
0.0
210
0.0
220
0.0
230
1.0
  2
SOLID
 70
     1
 71
     0
 91
        1
 92
        1
 93
        1
 72
     4
 94
        3
 73
     0
 74
     1
 95
       26
 96
       22
 40
0.0
 40
0.0
 40
0.0
 40
0.0
 40
1.0
 40
1.0
 40
1.0
 40
2.0
 40
2.0
 40
2.0
 40
3.0
 40
3.0
 40
3.0
 40
4.0
 40
4.0
 40
4.0
 40
5.0
 40
5.0
 40
5.0
 40
6.0
 40
6.0
 40
6.0
 40
7.0
 40
7.0
 40
7.0
 40
7.0
 10
91.33223739036139
 20
-141.0735595350441
 10
91.33223739036139
 20
-141.0735595350441
 10
91.33223739036139
 20
-139.9694064320215
 10
91.33223739036139
 20
-139.9694064320215
 10
91.33223739036139
 20
-139.9694064320215
 10
90.97980412222033
 20
-139.9694064320215
 10
90.97980412222033
 20
-139.9694064320215
 10
90.97980412222033
 20
-139.9694064320215
 10
90.97980412222033
 20
-139.8212673261558
 10
90.97980412222033
 20
-139.8212673261558
 10
91.33464895720107
 20
-139.8064534155692
 10
91.38425833218867
 20
-139.6435003991169
 10
91.41595321065296
 20
-139.5291232290066
 10
91.41595321065296
 20
-139.5291232290066
 10
91.57201603613478
 20
-139.5291232290066
 10
91.57201603613478
 20
-139.5291232290066
 10
91.57201603613478
 20
-139.5291232290066
 10
91.57201603613478
 20
-141.0735595350441
 10
91.57201603613478
 20
-141.0735595350441
 10
91.57201603613478
 20
-141.0735595350441
 10
91.33223739036139
 20
-141.0735595350441
 10
91.33223739036139
 20
-141.0735595350441
 97
        0
 97
        0
 75
     2
 76
     1
 98
        0
  0
SPLINE
  5
D7
330
D1
100
AcDbEntity
  8
_U+30EC_U+30A4_U+30E4_U+30FC 1
370
     0
100
AcDbSpline
210
0.0
220
0.0
230
1.0
 70
    11
 71
     3
 72
    32
 73
    28
 74
     0
 42
0.0000000001
 43
0.0000000001
 12
1.0
 22
0.0
 32
0.0
 13
1.0
 23
0.0
 33
0.0
 40
0.0
 40
0.0
 40
0.0
 40
0.0
 40
1.0
 40
1.0
 40
1.0
 40
2.0
 40
2.0
 40
2.0
 40
3.0
 40
3.0
 40
3.0
 40
4.0
 40
4.0
 40
4.0
 40
5.0
 40
5.0
 40
5.0
 40
6.0
 40
6.0
 40
6.0
 40
7.0
 40
7.0
 40
7.0
 40
8.0
 40
8.0
 40
8.0
 40
9.0
 40
9.0
 40
9.0
 40
9.0
 10
92.64688582753273
 20
-141.1242024386773
 30
0.0
 10
92.0949815307957
 20
-141.1242024386773
 30
0.0
 10
92.08602428253405
 20
-140.5702310846491
 30
0.0
 10
92.08602428253405
 20
-140.3562906550151
 30
0.0
 10
92.08602428253405
 20
-140.1258137670519
 30
0.0
 10
92.10635034589703
 20
-139.4784803253735
 30
0.0
 10
92.68753795425867
 20
-139.4784803253735
 30
0.0
 10
92.87288409136512
 20
-139.4784803253735
 30
0.0
 10
93.13505585779262
 20
-139.548415763724
 30
0.0
 10
93.17570798451858
 20
-139.8805229685021
 30
0.0
 10
93.17570798451858
 20
-139.8805229685021
 30
0.0
 10
92.94729815384652
 20
-139.8805229685021
 30
0.0
 10
92.94729815384652
 20
-139.8805229685021
 30
0.0
 10
92.93627384829371
 20
-139.823334383447
 30
0.0
 10
92.90216740298975
 20
-139.6751952775812
 30
0.0
 10
92.685126387419
 20
-139.6751952775812
 30
0.0
 10
92.37300073645537
 20
-139.6751952775812
 30
0.0
 10
92.33028155243827
 20
-140.003168367777
 30
0.0
 10
92.31650117049726
 20
-140.2081515491494
 30
0.0
 10
92.41606443002098
 20
-140.1299478816342
 30
0.0
 10
92.48841143521123
 20
-140.0706922392879
 30
0.0
 10
92.68271482057932
 20
-140.0706922392879
 30
0.0
 10
92.87495114865627
 20
-140.0706922392879
 30
0.0
 10
93.19844561472122
 20
-140.1788682375247
 30
0.0
 10
93.19844561472122
 20
-140.5850449952357
 30
0.0
 10
93.19844561472122
 20
-140.9044053467184
 30
0.0
 10
92.9858832232813
 20
-141.1242024386773
 30
0.0
 10
92.64688582753273
 20
-141.1242024386773
 30
0.0
  0
SPLINE
  5
D8
330
D1
100
AcDbEntity
  8
_U+30EC_U+30A4_U+30E4_U+30FC 1
370
     0
100
AcDbSpline
210
0.0
220
0.0
230
1.0
 70
    11
 71
     3
 72
    17
 73
    13
 74
     0
 42
0.0000000001
 43
0.0000000001
 12
1.0
 22
0.0
 32
0.0
 13
1.0
 23
0.0
 33
0.0
 40
0.0
 40
0.0
 40
0.0
 40
0.0
 40
1.0
 40
1.0
 40
1.0
 40
2.0
 40
2.0
 40
2.0
 40
3.0
 40
3.0
 40
3.0
 40
4.0
 40
4.0
 40
4.0
 40
4.0
 10
92.66480032405603
 20
-140.2653401342045
 30
0.0
 10
92.38436955155669
 20
-140.2653401342045
 30
0.0
 10
92.34371742483074
 20
-140.4768689969988
 30
0.0
 10
92.34371742483074
 20
-140.5933132244003
 30
0.0
 10
92.34371742483074
 20
-140.769013094148
 30
0.0
 10
92.4453477416456
 20
-140.9319661106003
 30
0.0
 10
92.64206269385338
 20
-140.9319661106003
 30
0.0
 10
92.77090926500172
 20
-140.9319661106003
 30
0.0
 10
92.95866696894784
 20
-140.872710468254
 30
0.0
 10
92.95866696894784
 20
-140.5871120525268
 30
0.0
 10
92.95866696894784
 20
-140.3628363364371
 30
0.0
 10
92.80949433443652
 20
-140.2653401342045
 30
0.0
 10
92.66480032405603
 20
-140.2653401342045
 30
0.0
  0
HATCH
  5
D9
330
D1
100
AcDbEntity
  8
_U+30EC_U+30A4_U+30E4_U+30FC 1
 62
     7
420
 16777215
100
AcDbHatch
 10
0.0
 20
0.0
 30
0.0
210
0.0
220
0.0
230
1.0
  2
SOLID
 70
     1
 71
     0
 91
        2
 92
        1
 93
        1
 72
     4
 94
        3
 73
     0
 74
     1
 95
       32
 96
       28
 40
0.0
 40
0.0
 40
0.0
 40
0.0
 40
1.0
 40
1.0
 40
1.0
 40
2.0
 40
2.0
 40
2.0
 40
3.0
 40
3.0
 40
3.0
 40
4.0
 40
4.0
 40
4.0
 40
5.0
 40
5.0
 40
5.0
 40
6.0
 40
6.0
 40
6.0
 40
7.0
 40
7.0
 40
7.0
 40
8.0
 40
8.0
 40
8.0
 40
9.0
 40
9.0
 40
9.0
 40
9.0
 10
92.64688582753273
 20
-141.1242024386773
 10
92.0949815307957
 20
-141.1242024386773
 10
92.08602428253405
 20
-140.5702310846491
 10
92.08602428253405
 20
-140.3562906550151
 10
92.08602428253405
 20
-140.1258137670519
 10
92.10635034589703
 20
-139.4784803253735
 10
92.68753795425867
 20
-139.4784803253735
 10
92.87288409136512
 20
-139.4784803253735
 10
93.13505585779262
 20
-139.548415763724
 10
93.17570798451858
 20
-139.8805229685021
 10
93.17570798451858
 20
-139.8805229685021
 10
92.94729815384652
 20
-139.8805229685021
 10
92.94729815384652
 20
-139.8805229685021
 10
92.93627384829371
 20
-139.823334383447
 10
92.90216740298975
 20
-139.6751952775812
 10
92.685126387419
 20
-139.6751952775812
 10
92.37300073645537
 20
-139.6751952775812
 10
92.33028155243827
 20
-140.003168367777
 10
92.31650117049726
 20
-140.2081515491494
 10
92.41606443002098
 20
-140.1299478816342
 10
92.48841143521123
 20
-140.0706922392879
 10
92.68271482057932
 20
-140.0706922392879
 10
92.87495114865627
 20
-140.0706922392879
 10
93.19844561472122
 20
-140.1788682375247
 10
93.19844561472122
 20
-140.5850449952357
 10
93.19844561472122
 20
-140.9044053467184
 10
92.9858832232813
 20
-141.1242024386773
 10
92.64688582753273
 20
-141.1242024386773
 97
        0
 97
        0
 92
        1
 93
        1
 72
     4
 94
        3
 73
     0
 74
     1
 95
       17
 96
       13
 40
0.0
 40
0.0
 40
0.0
 40
0.0
 40
1.0
 40
1.0
 40
1.0
 40
2.0
 40
2.0
 40
2.0
 40
3.0
 40
3.0
 40
3.0
 40
4.0
 40
4.0
 40
4.0
 40
4.0
 10
92.66480032405603
 20
-140.2653401342045
 10
92.38436955155669
 20
-140.2653401342045
 10
92.34371742483074
 20
-140.4768689969988
 10
92.34371742483074
 20
-140.5933132244003
 10
92.34371742483074
 20
-140.769013094148
 10
92.4453477416456
 20
-140.9319661106003
 10
92.64206269385338
 20
-140.9319661106003
 10
92.77090926500172
 20
-140.9319661106003
 10
92.95866696894784
 20
-140.872710468254
 10
92.95866696894784
 20
-140.5871120525268
 10
92.95866696894784
 20
-140.3628363364371
 10
92.80949433443652
 20
-140.2653401342045
 10
92.66480032405603
 20
-140.2653401342045
 97
        0
 97
        0
 75
     2
 76
     1
 98
        0
  0
ENDBLK
  5
D4
330
D1
100
AcDbEntity
  8
0
100
AcDbBlockEnd
  0
BLOCK
  5
E8
330
E6
100
AcDbEntity
  8
0
100
AcDbBlockBegin
  2
block 7
 70
     0
 10
0.0
 20
0.0
 30
0.0
  3
block 7
  1

  0
SPLINE
  5
EA
330
E6
100
AcDbEntity
  8
_U+30EC_U+30A4_U+30E4_U+30FC 1
370
     0
100
AcDbSpline
210
0.0
220
0.0
230
1.0
 70
    11
 71
     3
 72
    26
 73
    22
 74
     0
 42
0.0000000001
 43
0.0000000001
 12
1.0
 22
0.0
 32
0.0
 13
1.0
 23
0.0
 33
0.0
 40
0.0
 40
0.0
 40
0.0
 40
0.0
 40
1.0
 40
1.0
 40
1.0
 40
2.0
 40
2.0
 40
2.0
 40
3.0
 40
3.0
 40
3.0
 40
4.0
 40
4.0
 40
4.0
 40
5.0
 40
5.0
 40
5.0
 40
6.0
 40
6.0
 40
6.0
 40
7.0
 40
7.0
 40
7.0
 40
7.0
 10
103.4172878430693
 20
-132.3509222759401
 30
0.0
 10
103.4172878430693
 20
-132.3509222759401
 30
0.0
 10
102.3131347400467
 20
-132.3509222759401
 30
0.0
 10
102.3131347400467
 20
-132.3509222759401
 30
0.0
 10
102.3131347400467
 20
-132.3509222759401
 30
0.0
 10
102.3131347400467
 20
-132.7033555440811
 30
0.0
 10
102.3131347400467
 20
-132.7033555440811
 30
0.0
 10
102.3131347400467
 20
-132.7033555440811
 30
0.0
 10
102.164995634181
 20
-132.7033555440811
 30
0.0
 10
102.164995634181
 20
-132.7033555440811
 30
0.0
 10
102.1501817235944
 20
-132.3485107091004
 30
0.0
 10
101.9872287071421
 20
-132.2989013341128
 30
0.0
 10
101.8728515370318
 20
-132.2672064556485
 30
0.0
 10
101.8728515370318
 20
-132.2672064556485
 30
0.0
 10
101.8728515370318
 20
-132.1111436301667
 30
0.0
 10
101.8728515370318
 20
-132.1111436301667
 30
0.0
 10
101.8728515370318
 20
-132.1111436301667
 30
0.0
 10
103.4172878430693
 20
-132.1111436301667
 30
0.0
 10
103.4172878430693
 20
-132.1111436301667
 30
0.0
 10
103.4172878430693
 20
-132.1111436301667
 30
0.0
 10
103.4172878430693
 20
-132.3509222759401
 30
0.0
 10
103.4172878430693
 20
-132.3509222759401
 30
0.0
  0
HATCH
  5
EB
330
E6
100
AcDbEntity
  8
_U+30EC_U+30A4_U+30E4_U+30FC 1
 62
     7
420
 16777215
100
AcDbHatch
 10
0.0
 20
0.0
 30
0.0
210
0.0
220
0.0
230
1.0
  2
SOLID
 70
     1
 71
     0
 91
        1
 92
        1
 93
        1
 72
     4
 94
        3
 73
     0
 74
     1
 95
       26
 96
       22
 40
0.0
 40
0.0
 40
0.0
 40
0.0
 40
1.0
 40
1.0
 40
1.0
 40
2.0
 40
2.0
 40
2.0
 40
3.0
 40
3.0
 40
3.0
 40
4.0
 40
4.0
 40
4.0
 40
5.0
 40
5.0
 40
5.0
 40
6.0
 40
6.0
 40
6.0
 40
7.0
 40
7.0
 40
7.0
 40
7.0
 10
103.4172878430693
 20
-132.3509222759401
 10
103.4172878430693
 20
-132.3509222759401
 10
102.3131347400467
 20
-132.3509222759401
 10
102.3131347400467
 20
-132.3509222759401
 10
102.3131347400467
 20
-132.3509222759401
 10
102.3131347400467
 20
-132.7033555440811
 10
102.3131347400467
 20
-132.7033555440811
 10
102.3131347400467
 20
-132.7033555440811
 10
102.164995634181
 20
-132.7033555440811
 10
102.164995634181
 20
-132.7033555440811
 10
102.1501817235944
 20
-132.3485107091004
 10
101.9872287071421
 20
-132.2989013341128
 10
101.8728515370318
 20
-132.2672064556485
 10
101.8728515370318
 20
-132.2672064556485
 10
101.8728515370318
 20
-132.1111436301667
 10
101.8728515370318
 20
-132.1111436301667
 10
101.8728515370318
 20
-132.1111436301667
 10
103.4172878430693
 20
-132.1111436301667
 10
103.4172878430693
 20
-132.1111436301667
 10
103.4172878430693
 20
-132.1111436301667
 10
103.4172878430693
 20
-132.3509222759401
 10
103.4172878430693
 20
-132.3509222759401
 97
        0
 97
        0
 75
     2
 76
     1
 98
        0
  0
SPLINE
  5
EC
330
E6
100
AcDbEntity
  8
_U+30EC_U+30A4_U+30E4_U+30FC 1
370
     0
100
AcDbSpline
210
0.0
220
0.0
230
1.0
 70
    11
 71
     3
 72
    29
 73
    25
 74
     0
 42
0.0000000001
 43
0.0000000001
 12
1.0
 22
0.0
 32
0.0
 13
1.0
 23
0.0
 33
0.0
 40
0.0
 40
0.0
 40
0.0
 40
0.0
 40
1.0
 40
1.0
 40
1.0
 40
2.0
 40
2.0
 40
2.0
 40
3.0
 40
3.0
 40
3.0
 40
4.0
 40
4.0
 40
4.0
 40
5.0
 40
5.0
 40
5.0
 40
6.0
 40
6.0
 40
6.0
 40
7.0
 40
7.0
 40
7.0
 40
8.0
 40
8.0
 40
8.0
 40
8.0
 10
103.2395209160304
 20
-130.6159721895682
 30
0.0
 10
103.4489827215336
 20
-130.7313828883241
 30
0.0
 10
103.4679307467025
 20
-130.9167290254306
 30
0.0
 10
103.4679307467025
 20
-131.0410969724481
 30
0.0
 10
103.4679307467025
 20
-131.2126627276135
 30
0.0
 10
103.4214219576516
 20
-131.3642469289645
 30
0.0
 10
103.2395209160304
 20
-131.4658772457794
 30
0.0
 10
103.0448730211138
 20
-131.5768093204044
 30
0.0
 10
102.8078504517286
 20
-131.5971353837674
 30
0.0
 10
102.6452419448248
 20
-131.5971353837674
 30
0.0
 10
102.5012369535414
 20
-131.5971353837674
 30
0.0
 10
102.2494004735696
 20
-131.5788763776956
 30
0.0
 10
102.0506184640707
 20
-131.4658772457794
 30
0.0
 10
101.8477023399895
 20
-131.350811056572
 30
0.0
 10
101.8242756906898
 20
-131.1789007918581
 30
0.0
 10
101.8242756906898
 20
-131.0410969724481
 30
0.0
 10
101.8242756906898
 20
-130.8712537650252
 30
0.0
 10
101.8687174224495
 20
-130.7176025063831
 30
0.0
 10
102.0506184640707
 20
-130.6159721895682
 30
0.0
 10
102.2431993016962
 20
-130.509518739074
 30
0.0
 10
102.4716091323682
 20
-130.4847140515802
 30
0.0
 10
102.6452419448248
 20
-130.4847140515802
 30
0.0
 10
102.8164631904417
 20
-130.4847140515802
 30
0.0
 10
103.0469400784049
 20
-130.5074516817829
 30
0.0
 10
103.2395209160304
 20
-130.6159721895682
 30
0.0
  0
SPLINE
  5
ED
330
E6
100
AcDbEntity
  8
_U+30EC_U+30A4_U+30E4_U+30FC 1
370
     0
100
AcDbSpline
210
0.0
220
0.0
230
1.0
 70
    11
 71
     3
 72
    17
 73
    13
 74
     0
 42
0.0000000001
 43
0.0000000001
 12
1.0
 22
0.0
 32
0.0
 13
1.0
 23
0.0
 33
0.0
 40
0.0
 40
0.0
 40
0.0
 40
0.0
 40
1.0
 40
1.0
 40
1.0
 40
2.0
 40
2.0
 40
2.0
 40
3.0
 40
3.0
 40
3.0
 40
4.0
 40
4.0
 40
4.0
 40
4.0
 10
102.0168565283152
 20
-131.0410969724481
 30
0.0
 10
102.0168565283152
 20
-131.3077473630064
 30
0.0
 10
102.3003878867513
 20
-131.357356737994
 30
0.0
 10
102.6452419448248
 20
-131.357356737994
 30
0.0
 10
102.9646022963075
 20
-131.357356737994
 30
0.0
 10
103.2732828517859
 20
-131.3191161781077
 30
0.0
 10
103.2732828517859
 20
-131.0410969724481
 30
0.0
 10
103.2732828517859
 20
-130.7765136391809
 30
0.0
 10
102.9921630601895
 20
-130.7244926973536
 30
0.0
 10
102.6452419448248
 20
-130.7244926973536
 30
0.0
 10
102.3255370837936
 20
-130.7244926973536
 30
0.0
 10
102.0168565283152
 20
-130.7651448240796
 30
0.0
 10
102.0168565283152
 20
-131.0410969724481
 30
0.0
  0
HATCH
  5
EE
330
E6
100
AcDbEntity
  8
_U+30EC_U+30A4_U+30E4_U+30FC 1
 62
     7
420
 16777215
100
AcDbHatch
 10
0.0
 20
0.0
 30
0.0
210
0.0
220
0.0
230
1.0
  2
SOLID
 70
     1
 71
     0
 91
        2
 92
        1
 93
        1
 72
     4
 94
        3
 73
     0
 74
     1
 95
       29
 96
       25
 40
0.0
 40
0.0
 40
0.0
 40
0.0
 40
1.0
 40
1.0
 40
1.0
 40
2.0
 40
2.0
 40
2.0
 40
3.0
 40
3.0
 40
3.0
 40
4.0
 40
4.0
 40
4.0
 40
5.0
 40
5.0
 40
5.0
 40
6.0
 40
6.0
 40
6.0
 40
7.0
 40
7.0
 40
7.0
 40
8.0
 40
8.0
 40
8.0
 40
8.0
 10
103.2395209160304
 20
-130.6159721895682
 10
103.4489827215336
 20
-130.7313828883241
 10
103.4679307467025
 20
-130.9167290254306
 10
103.4679307467025
 20
-131.0410969724481
 10
103.4679307467025
 20
-131.2126627276135
 10
103.4214219576516
 20
-131.3642469289645
 10
103.2395209160304
 20
-131.4658772457794
 10
103.0448730211138
 20
-131.5768093204044
 10
102.8078504517286
 20
-131.5971353837674
 10
102.6452419448248
 20
-131.5971353837674
 10
102.5012369535414
 20
-131.5971353837674
 10
102.2494004735696
 20
-131.5788763776956
 10
102.0506184640707
 20
-131.4658772457794
 10
101.8477023399895
 20
-131.350811056572
 10
101.8242756906898
 20
-131.1789007918581
 10
101.8242756906898
 20
-131.0410969724481
 10
101.8242756906898
 20
-130.8712537650252
 10
101.8687174224495
 20
-130.7176025063831
 10
102.0506184640707
 20
-130.6159721895682
 10
102.2431993016962
 20
-130.509518739074
 10
102.4716091323682
 20
-130.4847140515802
 10
102.6452419448248
 20
-130.4847140515802
 10
102.8164631904417
 20
-130.4847140515802
 10
103.0469400784049
 20
-130.5074516817829
 10
103.2395209160304
 20
-130.6159721895682
 97
        0
 97
        0
 92
        1
 93
        1
 72
     4
 94
        3
 73
     0
 74
     1
 95
       17
 96
       13
 40
0.0
 40
0.0
 40
0.0
 40
0.0
 40
1.0
 40
1.0
 40
1.0
 40
2.0
 40
2.0
 40
2.0
 40
3.0
 40
3.0
 40
3.0
 40
4.0
 40
4.0
 40
4.0
 40
4.0
 10
102.0168565283152
 20
-131.0410969724481
 10
102.0168565283152
 20
-131.3077473630064
 10
102.3003878867513
 20
-131.357356737994
 10
102.6452419448248
 20
-131.357356737994
 10
102.9646022963075
 20
-131.357356737994
 10
103.2732828517859
 20
-131.3191161781077
 10
103.2732828517859
 20
-131.0410969724481
 10
103.2732828517859
 20
-130.7765136391809
 10
102.9921630601895
 20
-130.7244926973536
 10
102.6452419448248
 20
-130.7244926973536
 10
102.3255370837936
 20
-130.7244926973536
 10
102.0168565283152
 20
-130.7651448240796
 10
102.0168565283152
 20
-131.0410969724481
 97
        0
 97
        0
 75
     2
 76
     1
 98
        0
  0
ENDBLK
  5
E9
330
E6
100
AcDbEntity
  8
0
100
AcDbBlockEnd
  0
ENDSEC
  0
SECTION
  2
ENTITIES
  0
SPLINE
  5
41
330
1F
100
AcDbEntity
  8
_U+30EC_U+30A4_U+30E4_U+30FC 1
 62
    19
420
  5188122
370
     9
100
AcDbSpline
210
0.0
220
0.0
230
1.0
 70
    11
 71
     3
 72
    83
 73
    79
 74
     0
 42
0.0000000001
 43
0.0000000001
 12
1.0
 22
0.0
 32
0.0
 13
1.0
 23
0.0
 33
0.0
 40
0.0
 40
0.0
 40
0.0
 40
0.0
 40
1.0
 40
1.0
 40
1.0
 40
2.0
 40
2.0
 40
2.0
 40
3.0
 40
3.0
 40
3.0
 40
4.0
 40
4.0
 40
4.0
 40
5.0
 40
5.0
 40
5.0
 40
6.0
 40
6.0
 40
6.0
 40
7.0
 40
7.0
 40
7.0
 40
8.0
 40
8.0
 40
8.0
 40
9.0
 40
9.0
 40
9.0
 40
10.0
 40
10.0
 40
10.0
 40
11.0
 40
11.0
 40
11.0
 40
12.0
 40
12.0
 40
12.0
 40
13.0
 40
13.0
 40
13.0
 40
14.0
 40
14.0
 40
14.0
 40
15.0
 40
15.0
 40
15.0
 40
16.0
 40
16.0
 40
16.0
 40
17.0
 40
17.0
 40
17.0
 40
18.0
 40
18.0
 40
18.0
 40
19.0
 40
19.0
 40
19.0
 40
20.0
 40
20.0
 40
20.0
 40
21.0
 40
21.0
 40
21.0
 40
22.0
 40
22.0
 40
22.0
 40
23.0
 40
23.0
 40
23.0
 40
24.0
 40
24.0
 40
24.0
 40
25.0
 40
25.0
 40
25.0
 40
26.0
 40
26.0
 40
26.0
 40
26.0
 10
105.3137948132213
 20
-126.1511460795732
 30
0.0
 10
105.3137948132213
 20
-126.1511460795732
 30
0.0
 10
100.5334091018457
 20
-126.1511460795732
 30
0.0
 10
100.5334091018457
 20
-126.1511460795732
 30
0.0
 10
100.5306574352493
 20
-126.1511460795732
 30
0.0
 10
100.5282232686447
 20
-126.1525219129064
 30
0.0
 10
100.5251188242794
 20
-126.1528394129063
 30
0.0
 10
100.5161582689525
 20
-126.1531921906838
 30
0.0
 10
100.5075504913943
 20
-126.1555910795721
 30
0.0
 10
100.4989427138361
 20
-126.1580252462383
 30
0.0
 10
100.4906877140467
 20
-126.1604241351266
 30
0.0
 10
100.4823999748795
 20
-126.162505524015
 30
0.0
 10
100.4748127144518
 20
-126.1662802462362
 30
0.0
 10
100.4724138256241
 20
-126.1674796906802
 30
0.0
 10
100.4696621590276
 20
-126.1674796906802
 30
0.0
 10
100.4672632701999
 20
-126.1688555240134
 30
0.0
 10
100.4672632701999
 20
-126.1688555240134
 30
0.0
 10
99.97838383822781
 20
-126.4511835794984
 30
0.0
 10
99.97838383822781
 20
-126.4511835794984
 30
0.0
 10
99.97838383822781
 20
-126.4511835794984
 30
0.0
 10
85.01358616445606
 20
-126.4511835794984
 30
0.0
 10
85.01358616445606
 20
-126.4511835794984
 30
0.0
 10
84.94056116631909
 20
-126.4511835794984
 30
0.0
 10
84.88129450116443
 20
-126.5104502461501
 30
0.0
 10
84.88129450116443
 20
-126.583475246132
 30
0.0
 10
84.88129450116443
 20
-126.6058766350153
 30
0.0
 10
84.8881736676556
 20
-126.6260202461214
 30
0.0
 10
84.89819255628889
 20
-126.6446469127832
 30
0.0
 10
84.8881736676556
 20
-126.6632383016675
 30
0.0
 10
84.88129450116443
 20
-126.6833819127736
 30
0.0
 10
84.88129450116443
 20
-126.705783301657
 30
0.0
 10
84.88129450116443
 20
-126.705783301657
 30
0.0
 10
84.88129450116443
 20
-136.6697094102771
 30
0.0
 10
84.88129450116443
 20
-136.6697094102771
 30
0.0
 10
84.88129450116443
 20
-136.742734410259
 30
0.0
 10
84.94056116631909
 20
-136.8020010769107
 30
0.0
 10
85.01358616445606
 20
-136.8020010769107
 30
0.0
 10
85.01358616445606
 20
-136.8020010769107
 30
0.0
 10
99.8681407854848
 20
-136.8020010769107
 30
0.0
 10
99.8681407854848
 20
-136.8020010769107
 30
0.0
 10
99.80407634267478
 20
-137.2174674656958
 30
0.0
 10
99.44681829623363
 20
-137.5378602433934
 30
0.0
 10
99.01343330857986
 20
-137.5378602433934
 30
0.0
 10
99.01343330857986
 20
-137.5378602433934
 30
0.0
 10
85.14104477231542
 20
-137.5378602433934
 30
0.0
 10
85.14104477231542
 20
-137.5378602433934
 30
0.0
 10
85.11762032846859
 20
-137.5378602433934
 30
0.0
 10
85.09663005122633
 20
-137.5457977433911
 30
0.0
 10
85.07733310727419
 20
-137.5564516322777
 30
0.0
 10
85.05803616332204
 20
-137.5457977433911
 30
0.0
 10
85.0370106083029
 20
-137.5378602433934
 30
0.0
 10
85.01358616445606
 20
-137.5378602433934
 30
0.0
 10
84.53472775664417
 20
-137.5378602433934
 30
0.0
 10
84.1454353532711
 20
-137.1485699657126
 30
0.0
 10
84.1454353532711
 20
-136.6697094102771
 30
0.0
 10
84.1454353532711
 20
-136.6697094102771
 30
0.0
 10
84.1454353532711
 20
-122.177915802789
 30
0.0
 10
84.1454353532711
 20
-122.177915802789
 30
0.0
 10
84.1454353532711
 20
-122.1611941361264
 30
0.0
 10
84.1416253533683
 20
-122.145530802797
 30
0.0
 10
84.1357692424066
 20
-122.1307141361339
 30
0.0
 10
84.1416253533683
 20
-122.1158974694712
 30
0.0
 10
84.1454353532711
 20
-122.100198858364
 30
0.0
 10
84.1454353532711
 20
-122.0835124694792
 30
0.0
 10
84.1454353532711
 20
-121.6502660806985
 30
0.0
 10
84.4654753451062
 20
-121.29336080301
 30
0.0
 10
84.88129450116443
 20
-121.2291199696927
 30
0.0
 10
84.88129450116443
 20
-121.2291199696927
 30
0.0
 10
84.88129450116443
 20
-125.5833855241598
 30
0.0
 10
84.88129450116443
 20
-125.5833855241598
 30
0.0
 10
84.88129450116443
 20
-125.6564105241414
 30
0.0
 10
84.94056116631909
 20
-125.7156771907934
 30
0.0
 10
85.01358616445606
 20
-125.7156771907934
 30
0.0
 10
85.01358616445606
 20
-125.7156771907934
 30
0.0
 10
105.8643397991757
 20
-125.7156771907934
 30
0.0
 10
105.8643397991757
 20
-125.7156771907934
 30
0.0
 10
105.8044055291043
 20
-125.9647383018423
 30
0.0
 10
105.5811650841779
 20
-126.1511460795732
 30
0.0
 10
105.3137948132213
 20
-126.1511460795732
 30
0.0
  0
HATCH
  5
42
330
1F
100
AcDbEntity
  8
_U+30EC_U+30A4_U+30E4_U+30FC 1
 62
    19
420
  5188122
100
AcDbHatch
 10
0.0
 20
0.0
 30
0.0
210
0.0
220
0.0
230
1.0
  2
SOLID
 70
     1
 71
     0
 91
        1
 92
        1
 93
        1
 72
     4
 94
        3
 73
     0
 74
     1
 95
       83
 96
       79
 40
0.0
 40
0.0
 40
0.0
 40
0.0
 40
1.0
 40
1.0
 40
1.0
 40
2.0
 40
2.0
 40
2.0
 40
3.0
 40
3.0
 40
3.0
 40
4.0
 40
4.0
 40
4.0
 40
5.0
 40
5.0
 40
5.0
 40
6.0
 40
6.0
 40
6.0
 40
7.0
 40
7.0
 40
7.0
 40
8.0
 40
8.0
 40
8.0
 40
9.0
 40
9.0
 40
9.0
 40
10.0
 40
10.0
 40
10.0
 40
11.0
 40
11.0
 40
11.0
 40
12.0
 40
12.0
 40
12.0
 40
13.0
 40
13.0
 40
13.0
 40
14.0
 40
14.0
 40
14.0
 40
15.0
 40
15.0
 40
15.0
 40
16.0
 40
16.0
 40
16.0
 40
17.0
 40
17.0
 40
17.0
 40
18.0
 40
18.0
 40
18.0
 40
19.0
 40
19.0
 40
19.0
 40
20.0
 40
20.0
 40
20.0
 40
21.0
 40
21.0
 40
21.0
 40
22.0
 40
22.0
 40
22.0
 40
23.0
 40
23.0
 40
23.0
 40
24.0
 40
24.0
 40
24.0
 40
25.0
 40
25.0
 40
25.0
 40
26.0
 40
26.0
 40
26.0
 40
26.0
 10
105.3137948132213
 20
-126.1511460795732
 10
105.3137948132213
 20
-126.1511460795732
 10
100.5334091018457
 20
-126.1511460795732
 10
100.5334091018457
 20
-126.1511460795732
 10
100.5306574352493
 20
-126.1511460795732
 10
100.5282232686447
 20
-126.1525219129064
 10
100.5251188242794
 20
-126.1528394129063
 10
100.5161582689525
 20
-126.1531921906838
 10
100.5075504913943
 20
-126.1555910795721
 10
100.4989427138361
 20
-126.1580252462383
 10
100.4906877140467
 20
-126.1604241351266
 10
100.4823999748795
 20
-126.162505524015
 10
100.4748127144518
 20
-126.1662802462362
 10
100.4724138256241
 20
-126.1674796906802
 10
100.4696621590276
 20
-126.1674796906802
 10
100.4672632701999
 20
-126.1688555240134
 10
100.4672632701999
 20
-126.1688555240134
 10
99.97838383822781
 20
-126.4511835794984
 10
99.97838383822781
 20
-126.4511835794984
 10
99.97838383822781
 20
-126.4511835794984
 10
85.01358616445606
 20
-126.4511835794984
 10
85.01358616445606
 20
-126.4511835794984
 10
84.94056116631909
 20
-126.4511835794984
 10
84.88129450116443
 20
-126.5104502461501
 10
84.88129450116443
 20
-126.583475246132
 10
84.88129450116443
 20
-126.6058766350153
 10
84.8881736676556
 20
-126.6260202461214
 10
84.89819255628889
 20
-126.6446469127832
 10
84.8881736676556
 20
-126.6632383016675
 10
84.88129450116443
 20
-126.6833819127736
 10
84.88129450116443
 20
-126.705783301657
 10
84.88129450116443
 20
-126.705783301657
 10
84.88129450116443
 20
-136.6697094102771
 10
84.88129450116443
 20
-136.6697094102771
 10
84.88129450116443
 20
-136.742734410259
 10
84.94056116631909
 20
-136.8020010769107
 10
85.01358616445606
 20
-136.8020010769107
 10
85.01358616445606
 20
-136.8020010769107
 10
99.8681407854848
 20
-136.8020010769107
 10
99.8681407854848
 20
-136.8020010769107
 10
99.80407634267478
 20
-137.2174674656958
 10
99.44681829623363
 20
-137.5378602433934
 10
99.01343330857986
 20
-137.5378602433934
 10
99.01343330857986
 20
-137.5378602433934
 10
85.14104477231542
 20
-137.5378602433934
 10
85.14104477231542
 20
-137.5378602433934
 10
85.11762032846859
 20
-137.5378602433934
 10
85.09663005122633
 20
-137.5457977433911
 10
85.07733310727419
 20
-137.5564516322777
 10
85.05803616332204
 20
-137.5457977433911
 10
85.0370106083029
 20
-137.5378602433934
 10
85.01358616445606
 20
-137.5378602433934
 10
84.53472775664417
 20
-137.5378602433934
 10
84.1454353532711
 20
-137.1485699657126
 10
84.1454353532711
 20
-136.6697094102771
 10
84.1454353532711
 20
-136.6697094102771
 10
84.1454353532711
 20
-122.177915802789
 10
84.1454353532711
 20
-122.177915802789
 10
84.1454353532711
 20
-122.1611941361264
 10
84.1416253533683
 20
-122.145530802797
 10
84.1357692424066
 20
-122.1307141361339
 10
84.1416253533683
 20
-122.1158974694712
 10
84.1454353532711
 20
-122.100198858364
 10
84.1454353532711
 20
-122.0835124694792
 10
84.1454353532711
 20
-121.6502660806985
 10
84.4654753451062
 20
-121.29336080301
 10
84.88129450116443
 20
-121.2291199696927
 10
84.88129450116443
 20
-121.2291199696927
 10
84.88129450116443
 20
-125.5833855241598
 10
84.88129450116443
 20
-125.5833855241598
 10
84.88129450116443
 20
-125.6564105241414
 10
84.94056116631909
 20
-125.7156771907934
 10
85.01358616445606
 20
-125.7156771907934
 10
85.01358616445606
 20
-125.7156771907934
 10
105.8643397991757
 20
-125.7156771907934
 10
105.8643397991757
 20
-125.7156771907934
 10
105.8044055291043
 20
-125.9647383018423
 10
105.5811650841779
 20
-126.1511460795732
 10
105.3137948132213
 20
-126.1511460795732
 97
        0
 97
        0
 75
     2
 76
     1
 98
        0
  0
POLYLINE
  5
43
330
1F
100
AcDbEntity
  8
_U+30EC_U+30A4_U+30E4_U+30FC 1
 62
     7
420
 16777215
370
    25
100
AcDb2dPolyline
 66
     1
 10
0.0
 20
0.0
 30
0.0
  0
VERTEX
  5
44
330
43
100
AcDbEntity
  8
_U+30EC_U+30A4_U+30E4_U+30FC 1
 62
     7
420
 16777215
370
    25
100
AcDbVertex
100
AcDb2dVertex
 10
85.01358616445606
 20
-136.6697094102771
 30
0.0
  0
VERTEX
  5
45
330
43
100
AcDbEntity
  8
_U+30EC_U+30A4_U+30E4_U+30FC 1
 62
     7
420
 16777215
370
    25
100
AcDbVertex
100
AcDb2dVertex
 10
100.0138732817668
 20
-136.6697094102771
 30
0.0
  0
SEQEND
  5
46
330
43
100
AcDbEntity
  8
_U+30EC_U+30A4_U+30E4_U+30FC 1
 62
     7
420
 16777215
370
    25
  0
POLYLINE
  5
47
330
1F
100
AcDbEntity
  8
_U+30EC_U+30A4_U+30E4_U+30FC 1
 62
     7
420
 16777215
370
    25
100
AcDb2dPolyline
 66
     1
 10
0.0
 20
0.0
 30
0.0
  0
VERTEX
  5
48
330
47
100
AcDbEntity
  8
_U+30EC_U+30A4_U+30E4_U+30FC 1
 62
     7
420
 16777215
370
    25
100
AcDbVertex
100
AcDb2dVertex
 10
85.01358616445606
 20
-126.583475246132
 30
0.0
  0
VERTEX
  5
49
330
47
100
AcDbEntity
  8
_U+30EC_U+30A4_U+30E4_U+30FC 1
 62
     7
420
 16777215
370
    25
100
AcDbVertex
100
AcDb2dVertex
 10
100.0138732817668
 20
-126.583475246132
 30
0.0
  0
SEQEND
  5
4A
330
47
100
AcDbEntity
  8
_U+30EC_U+30A4_U+30E4_U+30FC 1
 62
     7
420
 16777215
370
    25
  0
POLYLINE
  5
4B
330
1F
100
AcDbEntity
  8
_U+30EC_U+30A4_U+30E4_U+30FC 1
 62
     7
420
 16777215
370
    25
100
AcDb2dPolyline
 66
     1
 10
0.0
 20
0.0
 30
0.0
  0
VERTEX
  5
4C
330
4B
100
AcDbEntity
  8
_U+30EC_U+30A4_U+30E4_U+30FC 1
 62
     7
420
 16777215
370
    25
100
AcDbVertex
100
AcDb2dVertex
 10
85.14104477231542
 20
-137.670151910027
 30
0.0
  0
VERTEX
  5
4D
330
4B
100
AcDbEntity
  8
_U+30EC_U+30A4_U+30E4_U+30FC 1
 62
     7
420
 16777215
370
    25
100
AcDbVertex
100
AcDb2dVertex
 10
99.01343330857986
 20
-137.670151910027
 30
0.0
  0
SEQEND
  5
4E
330
4B
100
AcDbEntity
  8
_U+30EC_U+30A4_U+30E4_U+30FC 1
 62
     7
420
 16777215
370
    25
  0
POLYLINE
  5
4F
330
1F
100
AcDbEntity
  8
_U+30EC_U+30A4_U+30E4_U+30FC 1
 62
     7
420
 16777215
370
    25
100
AcDb2dPolyline
 66
     1
 10
0.0
 20
0.0
 30
0.0
  0
VERTEX
  5
50
330
4F
100
AcDbEntity
  8
_U+30EC_U+30A4_U+30E4_U+30FC 1
 62
     7
420
 16777215
370
    25
100
AcDbVertex
100
AcDb2dVertex
 10
84.01314368997947
 20
-122.177915802789
 30
0.0
  0
VERTEX
  5
51
330
4F
100
AcDbEntity
  8
_U+30EC_U+30A4_U+30E4_U+30FC 1
 62
     7
420
 16777215
370
    25
100
AcDbVertex
100
AcDb2dVertex
 10
84.01314368997947
 20
-136.7213560769307
 30
0.0
  0
SEQEND
  5
52
330
4F
100
AcDbEntity
  8
_U+30EC_U+30A4_U+30E4_U+30FC 1
 62
     7
420
 16777215
370
    25
  0
POLYLINE
  5
53
330
1F
100
AcDbEntity
  8
_U+30EC_U+30A4_U+30E4_U+30FC 1
 62
     7
420
 16777215
370
    25
100
AcDb2dPolyline
 66
     1
 10
0.0
 20
0.0
 30
0.0
  0
VERTEX
  5
54
330
53
100
AcDbEntity
  8
_U+30EC_U+30A4_U+30E4_U+30FC 1
 62
     7
420
 16777215
370
    25
100
AcDbVertex
100
AcDb2dVertex
 10
85.01358616445606
 20
-121.0833874697292
 30
0.0
  0
VERTEX
  5
55
330
53
100
AcDbEntity
  8
_U+30EC_U+30A4_U+30E4_U+30FC 1
 62
     7
420
 16777215
370
    25
100
AcDbVertex
100
AcDb2dVertex
 10
85.01358616445606
 20
-125.5833855241598
 30
0.0
  0
SEQEND
  5
56
330
53
100
AcDbEntity
  8
_U+30EC_U+30A4_U+30E4_U+30FC 1
 62
     7
420
 16777215
370
    25
  0
POLYLINE
  5
57
330
1F
100
AcDbEntity
  8
_U+30EC_U+30A4_U+30E4_U+30FC 1
 62
     7
420
 16777215
370
    25
100
AcDb2dPolyline
 66
     1
 10
0.0
 20
0.0
 30
0.0
  0
VERTEX
  5
58
330
57
100
AcDbEntity
  8
_U+30EC_U+30A4_U+30E4_U+30FC 1
 62
     7
420
 16777215
370
    25
100
AcDbVertex
100
AcDb2dVertex
 10
85.01358616445606
 20
-125.5833855241598
 30
0.0
  0
VERTEX
  5
59
330
57
100
AcDbEntity
  8
_U+30EC_U+30A4_U+30E4_U+30FC 1
 62
     7
420
 16777215
370
    25
100
AcDbVertex
100
AcDb2dVertex
 10
106.0138470175837
 20
-125.5833855241598
 30
0.0
  0
SEQEND
  5
5A
330
57
100
AcDbEntity
  8
_U+30EC_U+30A4_U+30E4_U+30FC 1
 62
     7
420
 16777215
370
    25
  0
POLYLINE
  5
5B
330
1F
100
AcDbEntity
  8
_U+30EC_U+30A4_U+30E4_U+30FC 1
 62
     7
420
 16777215
370
    25
100
AcDb2dPolyline
 66
     1
 10
0.0
 20
0.0
 30
0.0
  0
VERTEX
  5
5C
330
5B
100
AcDbEntity
  8
_U+30EC_U+30A4_U+30E4_U+30FC 1
 62
     7
420
 16777215
370
    25
100
AcDbVertex
100
AcDb2dVertex
 10
85.01358616445606
 20
-126.705783301657
 30
0.0
  0
VERTEX
  5
5D
330
5B
100
AcDbEntity
  8
_U+30EC_U+30A4_U+30E4_U+30FC 1
 62
     7
420
 16777215
370
    25
100
AcDbVertex
100
AcDb2dVertex
 10
85.01358616445606
 20
-136.6697094102771
 30
0.0
  0
SEQEND
  5
5E
330
5B
100
AcDbEntity
  8
_U+30EC_U+30A4_U+30E4_U+30FC 1
 62
     7
420
 16777215
370
    25
  0
POLYLINE
  5
5F
330
1F
100
AcDbEntity
  8
_U+30EC_U+30A4_U+30E4_U+30FC 1
 62
     7
420
 16777215
370
    25
100
AcDb2dPolyline
 66
     1
 10
0.0
 20
0.0
 30
0.0
  0
VERTEX
  5
60
330
5F
100
AcDbEntity
  8
_U+30EC_U+30A4_U+30E4_U+30FC 1
 62
     7
420
 16777215
370
    25
100
AcDbVertex
100
AcDb2dVertex
 10
100.5334091018457
 20
-126.2834377462068
 30
0.0
  0
VERTEX
  5
61
330
5F
100
AcDbEntity
  8
_U+30EC_U+30A4_U+30E4_U+30FC 1
 62
     7
420
 16777215
370
    25
100
AcDbVertex
100
AcDb2dVertex
 10
105.3137948132213
 20
-126.2834377462068
 30
0.0
  0
SEQEND
  5
62
330
5F
100
AcDbEntity
  8
_U+30EC_U+30A4_U+30E4_U+30FC 1
 62
     7
420
 16777215
370
    25
  0
POLYLINE
  5
63
330
1F
100
AcDbEntity
  8
_U+30EC_U+30A4_U+30E4_U+30FC 1
 62
     7
420
 16777215
370
    25
100
AcDb2dPolyline
 66
     1
 10
0.0
 20
0.0
 30
0.0
  0
VERTEX
  5
64
330
63
100
AcDbEntity
  8
_U+30EC_U+30A4_U+30E4_U+30FC 1
 62
     7
420
 16777215
370
    25
100
AcDbVertex
100
AcDb2dVertex
 10
100.0138732817668
 20
-126.583475246132
 30
0.0
  0
VERTEX
  5
65
330
63
100
AcDbEntity
  8
_U+30EC_U+30A4_U+30E4_U+30FC 1
 62
     7
420
 16777215
370
    25
100
AcDbVertex
100
AcDb2dVertex
 10
100.5334091018457
 20
-126.2834377462068
 30
0.0
  0
SEQEND
  5
66
330
63
100
AcDbEntity
  8
_U+30EC_U+30A4_U+30E4_U+30FC 1
 62
     7
420
 16777215
370
    25
  0
POLYLINE
  5
67
330
1F
100
AcDbEntity
  8
_U+30EC_U+30A4_U+30E4_U+30FC 1
 62
     7
420
 16777215
370
     9
100
AcDb2dPolyline
 66
     1
 10
0.0
 20
0.0
 30
0.0
  0
VERTEX
  5
68
330
67
100
AcDbEntity
  8
_U+30EC_U+30A4_U+30E4_U+30FC 1
 62
     7
420
 16777215
370
     9
100
AcDbVertex
100
AcDb2dVertex
 10
84.30594923806494
 20
-137.3769582989894
 30
0.0
  0
VERTEX
  5
69
330
67
100
AcDbEntity
  8
_U+30EC_U+30A4_U+30E4_U+30FC 1
 62
     7
420
 16777215
370
     9
100
AcDbVertex
100
AcDb2dVertex
 10
80.01338462535516
 20
-141.6699110756939
 30
0.0
  0
SEQEND
  5
6A
330
67
100
AcDbEntity
  8
_U+30EC_U+30A4_U+30E4_U+30FC 1
 62
     7
420
 16777215
370
     9
  0
POLYLINE
  5
6B
330
1F
100
AcDbEntity
  8
_U+30EC_U+30A4_U+30E4_U+30FC 1
 62
     7
420
 16777215
370
     9
100
AcDb2dPolyline
 66
     1
 10
0.0
 20
0.0
 30
0.0
  0
VERTEX
  5
6C
330
6B
100
AcDbEntity
  8
_U+30EC_U+30A4_U+30E4_U+30FC 1
 62
     7
420
 16777215
370
     9
100
AcDbVertex
100
AcDb2dVertex
 10
75.8013944550342
 20
-141.6699110756939
 30
0.0
  0
VERTEX
  5
6D
330
6B
100
AcDbEntity
  8
_U+30EC_U+30A4_U+30E4_U+30FC 1
 62
     7
420
 16777215
370
     9
100
AcDbVertex
100
AcDb2dVertex
 10
80.01338462535516
 20
-141.6699110756939
 30
0.0
  0
SEQEND
  5
6E
330
6B
100
AcDbEntity
  8
_U+30EC_U+30A4_U+30E4_U+30FC 1
 62
     7
420
 16777215
370
     9
  0
POLYLINE
  5
6F
330
1F
100
AcDbEntity
  8
_U+30EC_U+30A4_U+30E4_U+30FC 1
 62
     7
420
 16777215
370
     9
100
AcDb2dPolyline
 66
     1
 10
0.0
 20
0.0
 30
0.0
  0
VERTEX
  5
70
330
6F
100
AcDbEntity
  8
_U+30EC_U+30A4_U+30E4_U+30FC 1
 62
     7
420
 16777215
370
     9
100
AcDbVertex
100
AcDb2dVertex
 10
84.30594923806494
 20
-137.3769582989894
 30
0.0
  0
VERTEX
  5
71
330
6F
100
AcDbEntity
  8
_U+30EC_U+30A4_U+30E4_U+30FC 1
 62
     7
420
 16777215
370
     9
100
AcDbVertex
100
AcDb2dVertex
 10
83.00716260453308
 20
-138.1269638543569
 30
0.0
  0
SEQEND
  5
72
330
6F
100
AcDbEntity
  8
_U+30EC_U+30A4_U+30E4_U+30FC 1
 62
     7
420
 16777215
370
     9
  0
POLYLINE
  5
73
330
1F
100
AcDbEntity
  8
_U+30EC_U+30A4_U+30E4_U+30FC 1
 62
     7
420
 16777215
370
     9
100
AcDb2dPolyline
 66
     1
 10
0.0
 20
0.0
 30
0.0
  0
VERTEX
  5
74
330
73
100
AcDbEntity
  8
_U+30EC_U+30A4_U+30E4_U+30FC 1
 62
     7
420
 16777215
370
     9
100
AcDbVertex
100
AcDb2dVertex
 10
84.30594923806494
 20
-137.3769582989894
 30
0.0
  0
VERTEX
  5
75
330
73
100
AcDbEntity
  8
_U+30EC_U+30A4_U+30E4_U+30FC 1
 62
     7
420
 16777215
370
     9
100
AcDbVertex
100
AcDb2dVertex
 10
83.5562964794124
 20
-138.6761330208866
 30
0.0
  0
SEQEND
  5
76
330
73
100
AcDbEntity
  8
_U+30EC_U+30A4_U+30E4_U+30FC 1
 62
     7
420
 16777215
370
     9
  0
SPLINE
  5
77
330
1F
100
AcDbEntity
  8
_U+30EC_U+30A4_U+30E4_U+30FC 1
 62
     7
420
 16777215
370
    25
100
AcDbSpline
210
0.0
220
0.0
230
1.0
 70
     8
 71
     3
 72
     8
 73
     4
 74
     0
 42
0.0000000001
 43
0.0000000001
 12
1.0
 22
0.0
 32
0.0
 13
1.0
 23
0.0
 33
0.0
 40
0.0
 40
0.0
 40
0.0
 40
0.0
 40
1.0
 40
1.0
 40
1.0
 40
1.0
 10
84.01314368997947
 20
-136.6697094102771
 30
0.0
 10
84.01314368997947
 20
-137.22230052125
 30
0.0
 10
84.4609972011071
 20
-137.670151910027
 30
0.0
 10
85.01358616445606
 20
-137.670151910027
 30
0.0
  0
SPLINE
  5
78
330
1F
100
AcDbEntity
  8
_U+30EC_U+30A4_U+30E4_U+30FC 1
 62
     7
420
 16777215
370
    25
100
AcDbSpline
210
0.0
220
0.0
230
1.0
 70
     8
 71
     3
 72
     8
 73
     4
 74
     0
 42
0.0000000001
 43
0.0000000001
 12
1.0
 22
0.0
 32
0.0
 13
1.0
 23
0.0
 33
0.0
 40
0.0
 40
0.0
 40
0.0
 40
0.0
 40
1.0
 40
1.0
 40
1.0
 40
1.0
 10
85.01358616445606
 20
-121.0833874697292
 30
0.0
 10
84.4609972011071
 20
-121.0833874697292
 30
0.0
 10
84.01314368997947
 20
-121.5312388585059
 30
0.0
 10
84.01314368997947
 20
-122.0835124694792
 30
0.0
  0
SPLINE
  5
79
330
1F
100
AcDbEntity
  8
_U+30EC_U+30A4_U+30E4_U+30FC 1
 62
     7
420
 16777215
370
    25
100
AcDbSpline
210
0.0
220
0.0
230
1.0
 70
     8
 71
     3
 72
     8
 73
     4
 74
     0
 42
0.0000000001
 43
0.0000000001
 12
1.0
 22
0.0
 32
0.0
 13
1.0
 23
0.0
 33
0.0
 40
0.0
 40
0.0
 40
0.0
 40
0.0
 40
1.0
 40
1.0
 40
1.0
 40
1.0
 10
99.01343330857986
 20
-137.670151910027
 30
0.0
 10
99.56602190430361
 20
-137.670151910027
 30
0.0
 10
100.0138732817668
 20
-137.22230052125
 30
0.0
 10
100.0138732817668
 20
-136.6697094102771
 30
0.0
  0
SPLINE
  5
7A
330
1F
100
AcDbEntity
  8
_U+30EC_U+30A4_U+30E4_U+30FC 1
 62
     7
420
 16777215
370
    25
100
AcDbSpline
210
0.0
220
0.0
230
1.0
 70
     8
 71
     3
 72
     8
 73
     4
 74
     0
 42
0.0000000001
 43
0.0000000001
 12
1.0
 22
0.0
 32
0.0
 13
1.0
 23
0.0
 33
0.0
 40
0.0
 40
0.0
 40
0.0
 40
0.0
 40
1.0
 40
1.0
 40
1.0
 40
1.0
 10
105.3137948132213
 20
-126.2834377462068
 30
0.0
 10
105.7003360846859
 20
-126.2834377462068
 30
0.0
 10
106.0138470175837
 20
-125.9699241351742
 30
0.0
 10
106.0138470175837
 20
-125.5833855241598
 30
0.0
  0
SPLINE
  5
7B
330
1F
100
AcDbEntity
  8
_U+30EC_U+30A4_U+30E4_U+30FC 1
 62
     7
420
 16777215
370
     9
100
AcDbSpline
210
0.0
220
0.0
230
1.0
 70
    11
 71
     3
 72
    17
 73
    13
 74
     0
 42
0.0000000001
 43
0.0000000001
 12
1.0
 22
0.0
 32
0.0
 13
1.0
 23
0.0
 33
0.0
 40
0.0
 40
0.0
 40
0.0
 40
0.0
 40
1.0
 40
1.0
 40
1.0
 40
2.0
 40
2.0
 40
2.0
 40
3.0
 40
3.0
 40
3.0
 40
4.0
 40
4.0
 40
4.0
 40
4.0
 10
106.1137536817015
 20
-117.0181880263011
 30
0.0
 10
106.1137536817015
 20
-116.9630488596483
 30
0.0
 10
106.0689888623715
 20
-116.9182813596594
 30
0.0
 10
106.0138470175837
 20
-116.9182813596594
 30
0.0
 10
105.9587431301006
 20
-116.9182813596594
 30
0.0
 10
105.9139403534658
 20
-116.9630488596483
 30
0.0
 10
105.9139403534658
 20
-117.0181880263011
 30
0.0
 10
105.9139403534658
 20
-117.0732919151763
 30
0.0
 10
105.9587431301006
 20
-117.1180946929427
 30
0.0
 10
106.0138470175837
 20
-117.1180946929427
 30
0.0
 10
106.0689888623715
 20
-117.1180946929427
 30
0.0
 10
106.1137536817015
 20
-117.0732919151763
 30
0.0
 10
106.1137536817015
 20
-117.0181880263011
 30
0.0
  0
SPLINE
  5
7C
330
1F
100
AcDbEntity
  8
_U+30EC_U+30A4_U+30E4_U+30FC 1
 62
     7
420
 16777215
370
     9
100
AcDbSpline
210
0.0
220
0.0
230
1.0
 70
    11
 71
     3
 72
    17
 73
    13
 74
     0
 42
0.0000000001
 43
0.0000000001
 12
1.0
 22
0.0
 32
0.0
 13
1.0
 23
0.0
 33
0.0
 40
0.0
 40
0.0
 40
0.0
 40
0.0
 40
1.0
 40
1.0
 40
1.0
 40
2.0
 40
2.0
 40
2.0
 40
3.0
 40
3.0
 40
3.0
 40
4.0
 40
4.0
 40
4.0
 40
4.0
 10
85.21339949269174
 20
-117.0181880263011
 30
0.0
 10
85.21339949269174
 20
-116.9630488596483
 30
0.0
 10
85.16863199383384
 20
-116.9182813596594
 30
0.0
 10
85.1134928285739
 20
-116.9182813596594
 30
0.0
 10
85.05838894109083
 20
-116.9182813596594
 30
0.0
 10
85.01358616445606
 20
-116.9630488596483
 30
0.0
 10
85.01358616445606
 20
-117.0181880263011
 30
0.0
 10
85.01358616445606
 20
-117.0732919151763
 30
0.0
 10
85.05838894109083
 20
-117.1180946929427
 30
0.0
 10
85.1134928285739
 20
-117.1180946929427
 30
0.0
 10
85.16863199383384
 20
-117.1180946929427
 30
0.0
 10
85.21339949269174
 20
-117.0732919151763
 30
0.0
 10
85.21339949269174
 20
-117.0181880263011
 30
0.0
  0
SPLINE
  5
7D
330
1F
100
AcDbEntity
  8
_U+30EC_U+30A4_U+30E4_U+30FC 1
 62
     7
420
 16777215
370
     9
100
AcDbSpline
210
0.0
220
0.0
230
1.0
 70
    11
 71
     3
 72
    17
 73
    13
 74
     0
 42
0.0000000001
 43
0.0000000001
 12
1.0
 22
0.0
 32
0.0
 13
1.0
 23
0.0
 33
0.0
 40
0.0
 40
0.0
 40
0.0
 40
0.0
 40
1.0
 40
1.0
 40
1.0
 40
2.0
 40
2.0
 40
2.0
 40
3.0
 40
3.0
 40
3.0
 40
4.0
 40
4.0
 40
4.0
 40
4.0
 10
84.11305035409731
 20
-123.5834883024376
 30
0.0
 10
84.11305035409731
 20
-123.5283844135624
 30
0.0
 10
84.06824757746254
 20
-123.4835816357957
 30
0.0
 10
84.01314368997947
 20
-123.4835816357957
 30
0.0
 10
83.95800452471953
 20
-123.4835816357957
 30
0.0
 10
83.91323702586163
 20
-123.5283844135624
 30
0.0
 10
83.91323702586163
 20
-123.5834883024376
 30
0.0
 10
83.91323702586163
 20
-123.6389802468681
 30
0.0
 10
83.95800452471953
 20
-123.6837477468567
 30
0.0
 10
84.01314368997947
 20
-123.6837477468567
 30
0.0
 10
84.06824757746254
 20
-123.6837477468567
 30
0.0
 10
84.11305035409731
 20
-123.6389802468681
 30
0.0
 10
84.11305035409731
 20
-123.5834883024376
 30
0.0
  0
SPLINE
  5
7E
330
1F
100
AcDbEntity
  8
_U+30EC_U+30A4_U+30E4_U+30FC 1
 62
     7
420
 16777215
370
     9
100
AcDbSpline
210
0.0
220
0.0
230
1.0
 70
    11
 71
     3
 72
    17
 73
    13
 74
     0
 42
0.0000000001
 43
0.0000000001
 12
1.0
 22
0.0
 32
0.0
 13
1.0
 23
0.0
 33
0.0
 40
0.0
 40
0.0
 40
0.0
 40
0.0
 40
1.0
 40
1.0
 40
1.0
 40
2.0
 40
2.0
 40
2.0
 40
3.0
 40
3.0
 40
3.0
 40
4.0
 40
4.0
 40
4.0
 40
4.0
 10
85.1134928285739
 20
-123.5834883024376
 30
0.0
 10
85.1134928285739
 20
-123.5283844135624
 30
0.0
 10
85.06869005193913
 20
-123.4835816357957
 30
0.0
 10
85.01358616445606
 20
-123.4835816357957
 30
0.0
 10
84.95777672143544
 20
-123.4835816357957
 30
0.0
 10
84.91297394480067
 20
-123.5283844135624
 30
0.0
 10
84.91297394480067
 20
-123.5834883024376
 30
0.0
 10
84.91297394480067
 20
-123.6389802468681
 30
0.0
 10
84.95777672143544
 20
-123.6837477468567
 30
0.0
 10
85.01358616445606
 20
-123.6837477468567
 30
0.0
 10
85.06869005193913
 20
-123.6837477468567
 30
0.0
 10
85.1134928285739
 20
-123.6389802468681
 30
0.0
 10
85.1134928285739
 20
-123.5834883024376
 30
0.0
  0
SPLINE
  5
7F
330
1F
100
AcDbEntity
  8
_U+30EC_U+30A4_U+30E4_U+30FC 1
 62
     7
420
 16777215
370
     9
100
AcDbSpline
210
0.0
220
0.0
230
1.0
 70
    11
 71
     3
 72
    17
 73
    13
 74
     0
 42
0.0000000001
 43
0.0000000001
 12
1.0
 22
0.0
 32
0.0
 13
1.0
 23
0.0
 33
0.0
 40
0.0
 40
0.0
 40
0.0
 40
0.0
 40
1.0
 40
1.0
 40
1.0
 40
2.0
 40
2.0
 40
2.0
 40
3.0
 40
3.0
 40
3.0
 40
4.0
 40
4.0
 40
4.0
 40
4.0
 10
80.113291289473
 20
-137.670151910027
 30
0.0
 10
80.113291289473
 20
-137.6146952433743
 30
0.0
 10
80.06848851283823
 20
-137.5698924656076
 30
0.0
 10
80.01338462535516
 20
-137.5698924656076
 30
0.0
 10
79.95824546009521
 20
-137.5698924656076
 30
0.0
 10
79.91347796123732
 20
-137.6146952433743
 30
0.0
 10
79.91347796123732
 20
-137.670151910027
 30
0.0
 10
79.91347796123732
 20
-137.7252557989019
 30
0.0
 10
79.95824546009521
 20
-137.7700585766686
 30
0.0
 10
80.01338462535516
 20
-137.7700585766686
 30
0.0
 10
80.06848851283823
 20
-137.7700585766686
 30
0.0
 10
80.113291289473
 20
-137.7252557989019
 30
0.0
 10
80.113291289473
 20
-137.670151910027
 30
0.0
  0
SPLINE
  5
80
330
1F
100
AcDbEntity
  8
_U+30EC_U+30A4_U+30E4_U+30FC 1
 62
     7
420
 16777215
370
     9
100
AcDbSpline
210
0.0
220
0.0
230
1.0
 70
    11
 71
     3
 72
    17
 73
    13
 74
     0
 42
0.0000000001
 43
0.0000000001
 12
1.0
 22
0.0
 32
0.0
 13
1.0
 23
0.0
 33
0.0
 40
0.0
 40
0.0
 40
0.0
 40
0.0
 40
1.0
 40
1.0
 40
1.0
 40
2.0
 40
2.0
 40
2.0
 40
3.0
 40
3.0
 40
3.0
 40
4.0
 40
4.0
 40
4.0
 40
4.0
 10
80.113291289473
 20
-121.6697394140269
 30
0.0
 10
80.113291289473
 20
-121.614635525152
 30
0.0
 10
80.06848851283823
 20
-121.5698327473853
 30
0.0
 10
80.01338462535516
 20
-121.5698327473853
 30
0.0
 10
79.95824546009521
 20
-121.5698327473853
 30
0.0
 10
79.91347796123732
 20
-121.614635525152
 30
0.0
 10
79.91347796123732
 20
-121.6697394140269
 30
0.0
 10
79.91347796123732
 20
-121.7255488584577
 30
0.0
 10
79.95824546009521
 20
-121.7703516362241
 30
0.0
 10
80.01338462535516
 20
-121.7703516362241
 30
0.0
 10
80.06848851283823
 20
-121.7703516362241
 30
0.0
 10
80.113291289473
 20
-121.7255488584577
 30
0.0
 10
80.113291289473
 20
-121.6697394140269
 30
0.0
  0
SPLINE
  5
81
330
1F
100
AcDbEntity
  8
_U+30EC_U+30A4_U+30E4_U+30FC 1
 62
     7
420
 16777215
370
     9
100
AcDbSpline
210
0.0
220
0.0
230
1.0
 70
    11
 71
     3
 72
    17
 73
    13
 74
     0
 42
0.0000000001
 43
0.0000000001
 12
1.0
 22
0.0
 32
0.0
 13
1.0
 23
0.0
 33
0.0
 40
0.0
 40
0.0
 40
0.0
 40
0.0
 40
1.0
 40
1.0
 40
1.0
 40
2.0
 40
2.0
 40
2.0
 40
3.0
 40
3.0
 40
3.0
 40
4.0
 40
4.0
 40
4.0
 40
4.0
 10
100.1137799458847
 20
-141.6699110756939
 30
0.0
 10
100.1137799458847
 20
-141.6147719090408
 30
0.0
 10
100.0690124470268
 20
-141.5700044090523
 30
0.0
 10
100.0138732817668
 20
-141.5700044090523
 30
0.0
 10
99.95876939428378
 20
-141.5700044090523
 30
0.0
 10
99.91396661764902
 20
-141.6147719090408
 30
0.0
 10
99.91396661764902
 20
-141.6699110756939
 30
0.0
 10
99.91396661764902
 20
-141.7250149645688
 30
0.0
 10
99.95876939428378
 20
-141.7698177423355
 30
0.0
 10
100.0138732817668
 20
-141.7698177423355
 30
0.0
 10
100.0690124470268
 20
-141.7698177423355
 30
0.0
 10
100.1137799458847
 20
-141.7250149645688
 30
0.0
 10
100.1137799458847
 20
-141.6699110756939
 30
0.0
  0
SPLINE
  5
82
330
1F
100
AcDbEntity
  8
_U+30EC_U+30A4_U+30E4_U+30FC 1
 62
     7
420
 16777215
370
     9
100
AcDbSpline
210
0.0
220
0.0
230
1.0
 70
    11
 71
     3
 72
    17
 73
    13
 74
     0
 42
0.0000000001
 43
0.0000000001
 12
1.0
 22
0.0
 32
0.0
 13
1.0
 23
0.0
 33
0.0
 40
0.0
 40
0.0
 40
0.0
 40
0.0
 40
1.0
 40
1.0
 40
1.0
 40
2.0
 40
2.0
 40
2.0
 40
3.0
 40
3.0
 40
3.0
 40
4.0
 40
4.0
 40
4.0
 40
4.0
 10
84.11305035409731
 20
-141.6699110756939
 30
0.0
 10
84.11305035409731
 20
-141.6147719090408
 30
0.0
 10
84.06824757746254
 20
-141.5700044090523
 30
0.0
 10
84.01314368997947
 20
-141.5700044090523
 30
0.0
 10
83.95800452471953
 20
-141.5700044090523
 30
0.0
 10
83.91323702586163
 20
-141.6147719090408
 30
0.0
 10
83.91323702586163
 20
-141.6699110756939
 30
0.0
 10
83.91323702586163
 20
-141.7250149645688
 30
0.0
 10
83.95800452471953
 20
-141.7698177423355
 30
0.0
 10
84.01314368997947
 20
-141.7698177423355
 30
0.0
 10
84.06824757746254
 20
-141.7698177423355
 30
0.0
 10
84.11305035409731
 20
-141.7250149645688
 30
0.0
 10
84.11305035409731
 20
-141.6699110756939
 30
0.0
  0
SPLINE
  5
83
330
1F
100
AcDbEntity
  8
_U+30EC_U+30A4_U+30E4_U+30FC 1
 62
     7
420
 16777215
370
     9
100
AcDbSpline
210
0.0
220
0.0
230
1.0
 70
    11
 71
     3
 72
    17
 73
    13
 74
     0
 42
0.0000000001
 43
0.0000000001
 12
1.0
 22
0.0
 32
0.0
 13
1.0
 23
0.0
 33
0.0
 40
0.0
 40
0.0
 40
0.0
 40
0.0
 40
1.0
 40
1.0
 40
1.0
 40
2.0
 40
2.0
 40
2.0
 40
3.0
 40
3.0
 40
3.0
 40
4.0
 40
4.0
 40
4.0
 40
4.0
 10
104.1135416406383
 20
-126.669270801666
 30
0.0
 10
104.1135416406383
 20
-126.6141669127908
 30
0.0
 10
104.0687388628716
 20
-126.5693641350244
 30
0.0
 10
104.0136323463912
 20
-126.5693641350244
 30
0.0
 10
103.9584931811312
 20
-126.5693641350244
 30
0.0
 10
103.9137256822733
 20
-126.6141669127908
 30
0.0
 10
103.9137256822733
 20
-126.669270801666
 30
0.0
 10
103.9137256822733
 20
-126.7250802460965
 30
0.0
 10
103.9584931811312
 20
-126.7698830238632
 30
0.0
 10
104.0136323463912
 20
-126.7698830238632
 30
0.0
 10
104.0687388628716
 20
-126.7698830238632
 30
0.0
 10
104.1135416406383
 20
-126.7250802460965
 30
0.0
 10
104.1135416406383
 20
-126.669270801666
 30
0.0
  0
SPLINE
  5
84
330
1F
100
AcDbEntity
  8
_U+30EC_U+30A4_U+30E4_U+30FC 1
 62
     7
420
 16777215
370
     9
100
AcDbSpline
210
0.0
220
0.0
230
1.0
 70
    11
 71
     3
 72
    17
 73
    13
 74
     0
 42
0.0000000001
 43
0.0000000001
 12
1.0
 22
0.0
 32
0.0
 13
1.0
 23
0.0
 33
0.0
 40
0.0
 40
0.0
 40
0.0
 40
0.0
 40
1.0
 40
1.0
 40
1.0
 40
2.0
 40
2.0
 40
2.0
 40
3.0
 40
3.0
 40
3.0
 40
4.0
 40
4.0
 40
4.0
 40
4.0
 10
104.1135416406383
 20
-136.6697094102771
 30
0.0
 10
104.1135416406383
 20
-136.614570243624
 30
0.0
 10
104.0687388628716
 20
-136.5698027436355
 30
0.0
 10
104.0136323463912
 20
-136.5698027436355
 30
0.0
 10
103.9584931811312
 20
-136.5698027436355
 30
0.0
 10
103.9137256822733
 20
-136.614570243624
 30
0.0
 10
103.9137256822733
 20
-136.6697094102771
 30
0.0
 10
103.9137256822733
 20
-136.7251660769298
 30
0.0
 10
103.9584931811312
 20
-136.7699335769184
 30
0.0
 10
104.0136323463912
 20
-136.7699335769184
 30
0.0
 10
104.0687388628716
 20
-136.7699335769184
 30
0.0
 10
104.1135416406383
 20
-136.7251660769298
 30
0.0
 10
104.1135416406383
 20
-136.6697094102771
 30
0.0
  0
INSERT
  5
86
330
1F
100
AcDbEntity
  8
_U+30EC_U+30A4_U+30E4_U+30FC 1
100
AcDbBlockReference
  2
block 2
 10
0.0
 20
0.0
 30
0.0
  0
POLYLINE
  5
8E
330
1F
100
AcDbEntity
  8
_U+30EC_U+30A4_U+30E4_U+30FC 1
 62
     7
420
 16777215
370
     9
100
AcDb2dPolyline
 66
     1
 10
0.0
 20
0.0
 30
0.0
  0
VERTEX
  5
8F
330
8E
100
AcDbEntity
  8
_U+30EC_U+30A4_U+30E4_U+30FC 1
 62
     7
420
 16777215
370
     9
100
AcDbVertex
100
AcDb2dVertex
 10
85.01358616445606
 20
-117.0181880263011
 30
0.0
  0
VERTEX
  5
90
330
8E
100
AcDbEntity
  8
_U+30EC_U+30A4_U+30E4_U+30FC 1
 62
     7
420
 16777215
370
     9
100
AcDbVertex
100
AcDb2dVertex
 10
106.0138470175837
 20
-117.0181880263011
 30
0.0
  0
SEQEND
  5
91
330
8E
100
AcDbEntity
  8
_U+30EC_U+30A4_U+30E4_U+30FC 1
 62
     7
420
 16777215
370
     9
  0
POLYLINE
  5
92
330
1F
100
AcDbEntity
  8
_U+30EC_U+30A4_U+30E4_U+30FC 1
 62
     7
420
 16777215
370
     9
100
AcDb2dPolyline
 66
     1
 10
0.0
 20
0.0
 30
0.0
  0
VERTEX
  5
93
330
92
100
AcDbEntity
  8
_U+30EC_U+30A4_U+30E4_U+30FC 1
 62
     7
420
 16777215
370
     9
100
AcDbVertex
100
AcDb2dVertex
 10
85.1134928285739
 20
-119.4779663590195
 30
0.0
  0
VERTEX
  5
94
330
92
100
AcDbEntity
  8
_U+30EC_U+30A4_U+30E4_U+30FC 1
 62
     7
420
 16777215
370
     9
100
AcDbVertex
100
AcDb2dVertex
 10
85.1134928285739
 20
-116.0177102487733
 30
0.0
  0
SEQEND
  5
95
330
92
100
AcDbEntity
  8
_U+30EC_U+30A4_U+30E4_U+30FC 1
 62
     7
420
 16777215
370
     9
  0
POLYLINE
  5
96
330
1F
100
AcDbEntity
  8
_U+30EC_U+30A4_U+30E4_U+30FC 1
 62
     7
420
 16777215
370
     9
100
AcDb2dPolyline
 66
     1
 10
0.0
 20
0.0
 30
0.0
  0
VERTEX
  5
97
330
96
100
AcDbEntity
  8
_U+30EC_U+30A4_U+30E4_U+30FC 1
 62
     7
420
 16777215
370
     9
100
AcDbVertex
100
AcDb2dVertex
 10
106.0138470175837
 20
-122.9781921914775
 30
0.0
  0
VERTEX
  5
98
330
96
100
AcDbEntity
  8
_U+30EC_U+30A4_U+30E4_U+30FC 1
 62
     7
420
 16777215
370
     9
100
AcDbVertex
100
AcDb2dVertex
 10
106.0138470175837
 20
-116.0177102487733
 30
0.0
  0
SEQEND
  5
99
330
96
100
AcDbEntity
  8
_U+30EC_U+30A4_U+30E4_U+30FC 1
 62
     7
420
 16777215
370
     9
  0
INSERT
  5
9B
330
1F
100
AcDbEntity
  8
_U+30EC_U+30A4_U+30E4_U+30FC 1
100
AcDbBlockReference
  2
block 3
 10
0.0
 20
0.0
 30
0.0
  0
POLYLINE
  5
A2
330
1F
100
AcDbEntity
  8
_U+30EC_U+30A4_U+30E4_U+30FC 1
 62
     7
420
 16777215
370
     9
100
AcDb2dPolyline
 66
     1
 10
0.0
 20
0.0
 30
0.0
  0
VERTEX
  5
A3
330
A2
100
AcDbEntity
  8
_U+30EC_U+30A4_U+30E4_U+30FC 1
 62
     7
420
 16777215
370
     9
100
AcDbVertex
100
AcDb2dVertex
 10
85.01358616445606
 20
-123.5834883024376
 30
0.0
  0
VERTEX
  5
A4
330
A2
100
AcDbEntity
  8
_U+30EC_U+30A4_U+30E4_U+30FC 1
 62
     7
420
 16777215
370
     9
100
AcDbVertex
100
AcDb2dVertex
 10
88.78425134603616
 20
-123.5834883024376
 30
0.0
  0
SEQEND
  5
A5
330
A2
100
AcDbEntity
  8
_U+30EC_U+30A4_U+30E4_U+30FC 1
 62
     7
420
 16777215
370
     9
  0
POLYLINE
  5
A6
330
1F
100
AcDbEntity
  8
_U+30EC_U+30A4_U+30E4_U+30FC 1
 62
     7
420
 16777215
370
     9
100
AcDb2dPolyline
 66
     1
 10
0.0
 20
0.0
 30
0.0
  0
VERTEX
  5
A7
330
A6
100
AcDbEntity
  8
_U+30EC_U+30A4_U+30E4_U+30FC 1
 62
     7
420
 16777215
370
     9
100
AcDbVertex
100
AcDb2dVertex
 10
83.01337149326356
 20
-123.5834883024376
 30
0.0
  0
VERTEX
  5
A8
330
A6
100
AcDbEntity
  8
_U+30EC_U+30A4_U+30E4_U+30FC 1
 62
     7
420
 16777215
370
     9
100
AcDbVertex
100
AcDb2dVertex
 10
85.01358616445606
 20
-123.5834883024376
 30
0.0
  0
SEQEND
  5
A9
330
A6
100
AcDbEntity
  8
_U+30EC_U+30A4_U+30E4_U+30FC 1
 62
     7
420
 16777215
370
     9
  0
INSERT
  5
AB
330
1F
100
AcDbEntity
  8
_U+30EC_U+30A4_U+30E4_U+30FC 1
100
AcDbBlockReference
  2
block 4
 10
0.0
 20
0.0
 30
0.0
  0
POLYLINE
  5
B0
330
1F
100
AcDbEntity
  8
_U+30EC_U+30A4_U+30E4_U+30FC 1
 62
     7
420
 16777215
370
     9
100
AcDb2dPolyline
 66
     1
 10
0.0
 20
0.0
 30
0.0
  0
VERTEX
  5
B1
330
B0
100
AcDbEntity
  8
_U+30EC_U+30A4_U+30E4_U+30FC 1
 62
     7
420
 16777215
370
     9
100
AcDbVertex
100
AcDb2dVertex
 10
80.01338462535516
 20
-137.670151910027
 30
0.0
  0
VERTEX
  5
B2
330
B0
100
AcDbEntity
  8
_U+30EC_U+30A4_U+30E4_U+30FC 1
 62
     7
420
 16777215
370
     9
100
AcDbVertex
100
AcDb2dVertex
 10
80.01338462535516
 20
-121.6700921918047
 30
0.0
  0
SEQEND
  5
B3
330
B0
100
AcDbEntity
  8
_U+30EC_U+30A4_U+30E4_U+30FC 1
 62
     7
420
 16777215
370
     9
  0
POLYLINE
  5
B4
330
1F
100
AcDbEntity
  8
_U+30EC_U+30A4_U+30E4_U+30FC 1
 62
     7
420
 16777215
370
     9
100
AcDb2dPolyline
 66
     1
 10
0.0
 20
0.0
 30
0.0
  0
VERTEX
  5
B5
330
B4
100
AcDbEntity
  8
_U+30EC_U+30A4_U+30E4_U+30FC 1
 62
     7
420
 16777215
370
     9
100
AcDbVertex
100
AcDb2dVertex
 10
82.47316289593432
 20
-137.670151910027
 30
0.0
  0
VERTEX
  5
B6
330
B4
100
AcDbEntity
  8
_U+30EC_U+30A4_U+30E4_U+30FC 1
 62
     7
420
 16777215
370
     9
100
AcDbVertex
100
AcDb2dVertex
 10
79.01361242863925
 20
-137.670151910027
 30
0.0
  0
SEQEND
  5
B7
330
B4
100
AcDbEntity
  8
_U+30EC_U+30A4_U+30E4_U+30FC 1
 62
     7
420
 16777215
370
     9
  0
POLYLINE
  5
B8
330
1F
100
AcDbEntity
  8
_U+30EC_U+30A4_U+30E4_U+30FC 1
 62
     7
420
 16777215
370
     9
100
AcDb2dPolyline
 66
     1
 10
0.0
 20
0.0
 30
0.0
  0
VERTEX
  5
B9
330
B8
100
AcDbEntity
  8
_U+30EC_U+30A4_U+30E4_U+30FC 1
 62
     7
420
 16777215
370
     9
100
AcDbVertex
100
AcDb2dVertex
 10
82.47316289593432
 20
-121.6697394140269
 30
0.0
  0
VERTEX
  5
BA
330
B8
100
AcDbEntity
  8
_U+30EC_U+30A4_U+30E4_U+30FC 1
 62
     7
420
 16777215
370
     9
100
AcDbVertex
100
AcDb2dVertex
 10
79.01361242863925
 20
-121.6697394140269
 30
0.0
  0
SEQEND
  5
BB
330
B8
100
AcDbEntity
  8
_U+30EC_U+30A4_U+30E4_U+30FC 1
 62
     7
420
 16777215
370
     9
  0
INSERT
  5
BD
330
1F
100
AcDbEntity
  8
_U+30EC_U+30A4_U+30E4_U+30FC 1
100
AcDbBlockReference
  2
block 5
 10
0.0
 20
0.0
 30
0.0
  0
POLYLINE
  5
C5
330
1F
100
AcDbEntity
  8
_U+30EC_U+30A4_U+30E4_U+30FC 1
 62
     7
420
 16777215
370
     9
100
AcDb2dPolyline
 66
     1
 10
0.0
 20
0.0
 30
0.0
  0
VERTEX
  5
C6
330
C5
100
AcDbEntity
  8
_U+30EC_U+30A4_U+30E4_U+30FC 1
 62
     7
420
 16777215
370
     9
100
AcDbVertex
100
AcDb2dVertex
 10
84.01314368997947
 20
-141.6699110756939
 30
0.0
  0
VERTEX
  5
C7
330
C5
100
AcDbEntity
  8
_U+30EC_U+30A4_U+30E4_U+30FC 1
 62
     7
420
 16777215
370
     9
100
AcDbVertex
100
AcDb2dVertex
 10
100.0138732817668
 20
-141.6699110756939
 30
0.0
  0
SEQEND
  5
C8
330
C5
100
AcDbEntity
  8
_U+30EC_U+30A4_U+30E4_U+30FC 1
 62
     7
420
 16777215
370
     9
  0
POLYLINE
  5
C9
330
1F
100
AcDbEntity
  8
_U+30EC_U+30A4_U+30E4_U+30FC 1
 62
     7
420
 16777215
370
     9
100
AcDb2dPolyline
 66
     1
 10
0.0
 20
0.0
 30
0.0
  0
VERTEX
  5
CA
330
C9
100
AcDbEntity
  8
_U+30EC_U+30A4_U+30E4_U+30FC 1
 62
     7
420
 16777215
370
     9
100
AcDbVertex
100
AcDb2dVertex
 10
84.01314368997947
 20
-139.2100974651977
 30
0.0
  0
VERTEX
  5
CB
330
C9
100
AcDbEntity
  8
_U+30EC_U+30A4_U+30E4_U+30FC 1
 62
     7
420
 16777215
370
     9
100
AcDbVertex
100
AcDb2dVertex
 10
84.01314368997947
 20
-142.670000797666
 30
0.0
  0
SEQEND
  5
CC
330
C9
100
AcDbEntity
  8
_U+30EC_U+30A4_U+30E4_U+30FC 1
 62
     7
420
 16777215
370
     9
  0
POLYLINE
  5
CD
330
1F
100
AcDbEntity
  8
_U+30EC_U+30A4_U+30E4_U+30FC 1
 62
     7
420
 16777215
370
     9
100
AcDb2dPolyline
 66
     1
 10
0.0
 20
0.0
 30
0.0
  0
VERTEX
  5
CE
330
CD
100
AcDbEntity
  8
_U+30EC_U+30A4_U+30E4_U+30FC 1
 62
     7
420
 16777215
370
     9
100
AcDbVertex
100
AcDb2dVertex
 10
100.0138732817668
 20
-139.2100974651977
 30
0.0
  0
VERTEX
  5
CF
330
CD
100
AcDbEntity
  8
_U+30EC_U+30A4_U+30E4_U+30FC 1
 62
     7
420
 16777215
370
     9
100
AcDbVertex
100
AcDb2dVertex
 10
100.0138732817668
 20
-142.670000797666
 30
0.0
  0
SEQEND
  5
D0
330
CD
100
AcDbEntity
  8
_U+30EC_U+30A4_U+30E4_U+30FC 1
 62
     7
420
 16777215
370
     9
  0
INSERT
  5
D2
330
1F
100
AcDbEntity
  8
_U+30EC_U+30A4_U+30E4_U+30FC 1
100
AcDbBlockReference
  2
block 6
 10
0.0
 20
0.0
 30
0.0
  0
POLYLINE
  5
DA
330
1F
100
AcDbEntity
  8
_U+30EC_U+30A4_U+30E4_U+30FC 1
 62
     7
420
 16777215
370
     9
100
AcDb2dPolyline
 66
     1
 10
0.0
 20
0.0
 30
0.0
  0
VERTEX
  5
DB
330
DA
100
AcDbEntity
  8
_U+30EC_U+30A4_U+30E4_U+30FC 1
 62
     7
420
 16777215
370
     9
100
AcDbVertex
100
AcDb2dVertex
 10
104.0136323463912
 20
-136.6697094102771
 30
0.0
  0
VERTEX
  5
DC
330
DA
100
AcDbEntity
  8
_U+30EC_U+30A4_U+30E4_U+30FC 1
 62
     7
420
 16777215
370
     9
100
AcDbVertex
100
AcDb2dVertex
 10
104.0136323463912
 20
-126.6696235794438
 30
0.0
  0
SEQEND
  5
DD
330
DA
100
AcDbEntity
  8
_U+30EC_U+30A4_U+30E4_U+30FC 1
 62
     7
420
 16777215
370
     9
  0
POLYLINE
  5
DE
330
1F
100
AcDbEntity
  8
_U+30EC_U+30A4_U+30E4_U+30FC 1
 62
     7
420
 16777215
370
     9
100
AcDb2dPolyline
 66
     1
 10
0.0
 20
0.0
 30
0.0
  0
VERTEX
  5
DF
330
DE
100
AcDbEntity
  8
_U+30EC_U+30A4_U+30E4_U+30FC 1
 62
     7
420
 16777215
370
     9
100
AcDbVertex
100
AcDb2dVertex
 10
102.553590994751
 20
-136.6697094102771
 30
0.0
  0
VERTEX
  5
E0
330
DE
100
AcDbEntity
  8
_U+30EC_U+30A4_U+30E4_U+30FC 1
 62
     7
420
 16777215
370
     9
100
AcDbVertex
100
AcDb2dVertex
 10
105.0134045431071
 20
-136.6697094102771
 30
0.0
  0
SEQEND
  5
E1
330
DE
100
AcDbEntity
  8
_U+30EC_U+30A4_U+30E4_U+30FC 1
 62
     7
420
 16777215
370
     9
  0
POLYLINE
  5
E2
330
1F
100
AcDbEntity
  8
_U+30EC_U+30A4_U+30E4_U+30FC 1
 62
     7
420
 16777215
370
     9
100
AcDb2dPolyline
 66
     1
 10
0.0
 20
0.0
 30
0.0
  0
VERTEX
  5
E3
330
E2
100
AcDbEntity
  8
_U+30EC_U+30A4_U+30E4_U+30FC 1
 62
     7
420
 16777215
370
     9
100
AcDbVertex
100
AcDb2dVertex
 10
102.553590994751
 20
-126.669270801666
 30
0.0
  0
VERTEX
  5
E4
330
E2
100
AcDbEntity
  8
_U+30EC_U+30A4_U+30E4_U+30FC 1
 62
     7
420
 16777215
370
     9
100
AcDbVertex
100
AcDb2dVertex
 10
105.0134045431071
 20
-126.669270801666
 30
0.0
  0
SEQEND
  5
E5
330
E2
100
AcDbEntity
  8
_U+30EC_U+30A4_U+30E4_U+30FC 1
 62
     7
420
 16777215
370
     9
  0
INSERT
  5
E7
330
1F
100
AcDbEntity
  8
_U+30EC_U+30A4_U+30E4_U+30FC 1
100
AcDbBlockReference
  2
block 7
 10
0.0
 20
0.0
 30
0.0
  0
ENDSEC
  0
SECTION
  2
OBJECTS
  0
DICTIONARY
  5
C
330
0
100
AcDbDictionary
281
     1
  3
ACAD_GROUP
350
D
  3
ACAD_LAYOUT
350
1A
  3
ACAD_MATERIAL
350
3B
  3
ACAD_MLEADERSTYLE
350
F0
  3
ACAD_MLINESTYLE
350
17
  3
ACAD_PLOTSETTINGS
350
19
  3
ACAD_PLOTSTYLENAME
350
E
  3
ACAD_TABLESTYLE
350
EF
  3
ACAD_VISUALSTYLE
350
2A
  0
SUN
  5
3F
330
29
100
AcDbSun
 90
        1
290
     0
 63
     7
421
 16777215
 40
1.0
291
     1
 91
  2455826
 92
 54000000
292
     0
 70
     2
 71
   256
280
     1
  0
DICTIONARY
  5
D
102
{ACAD_REACTORS
330
C
102
}
330
C
100
AcDbDictionary
281
     1
  0
DICTIONARY
  5
1A
102
{ACAD_REACTORS
330
C
102
}
330
C
100
AcDbDictionary
281
     1
  3
Layout1
350
1E
  3
Layout2
350
26
  3
Model
350
22
  0
DICTIONARY
  5
3B
102
{ACAD_REACTORS
330
C
102
}
330
C
100
AcDbDictionary
281
     1
  3
ByBlock
350
3D
  3
ByLayer
350
3C
  3
Global
350
3E
  0
DICTIONARY
  5
F0
102
{ACAD_REACTORS
330
C
102
}
330
C
100
AcDbDictionary
281
     1
  0
DICTIONARY
  5
17
102
{ACAD_REACTORS
330
C
102
}
330
C
100
AcDbDictionary
281
     1
  3
Standard
350
18
  0
DICTIONARY
  5
19
102
{ACAD_REACTORS
330
C
102
}
330
C
100
AcDbDictionary
281
     1
  0
ACDBDICTIONARYWDFLT
  5
E
102
{ACAD_REACTORS
330
C
102
}
330
C
100
AcDbDictionary
281
     1
  3
Normal
350
F
100
AcDbDictionaryWithDefault
340
F
  0
DICTIONARY
  5
EF
102
{ACAD_REACTORS
330
C
102
}
330
C
100
AcDbDictionary
281
     1
  0
DICTIONARY
  5
2A
102
{ACAD_REACTORS
330
C
102
}
330
C
100
AcDbDictionary
281
     1
  3
2dWireframe
350
2F
  3
3D Hidden
350
31
  3
3dWireframe
350
30
  3
Basic
350
32
  3
Brighten
350
36
  3
ColorChange
350
3A
  3
Conceptual
350
34
  3
Dim
350
35
  3
Facepattern
350
39
  3
Flat
350
2B
  3
FlatWithEdges
350
2C
  3
Gouraud
350
2D
  3
GouraudWithEdges
350
2E
  3
Linepattern
350
38
  3
Realistic
350
33
  3
Thicken
350
37
  0
LAYOUT
  5
1E
102
{ACAD_REACTORS
330
1A
102
}
330
1A
100
AcDbPlotSettings
  1

  2
none_device
  4

  6

 40
0.0
 41
0.0
 42
0.0
 43
0.0
 44
0.0
 45
0.0
 46
0.0
 47
0.0
 48
0.0
 49
0.0
140
0.0
141
0.0
142
1.0
143
1.0
 70
   688
 72
     0
 73
     0
 74
     5
  7

 75
    16
 76
     0
 77
     2
 78
   300
147
1.0
148
0.0
149
0.0
100
AcDbLayout
  1
Layout1
 70
     1
 71
     1
 10
0.0
 20
0.0
 11
12.0
 21
9.0
 12
0.0
 22
0.0
 32
0.0
 14
1.000000000000000E+20
 24
1.000000000000000E+20
 34
1.000000000000000E+20
 15
-1.000000000000000E+20
 25
-1.000000000000000E+20
 35
-1.000000000000000E+20
146
0.0
 13
0.0
 23
0.0
 33
0.0
 16
1.0
 26
0.0
 36
0.0
 17
0.0
 27
1.0
 37
0.0
 76
     0
330
1B
  0
LAYOUT
  5
26
102
{ACAD_REACTORS
330
1A
102
}
330
1A
100
AcDbPlotSettings
  1

  2
none_device
  4

  6

 40
0.0
 41
0.0
 42
0.0
 43
0.0
 44
0.0
 45
0.0
 46
0.0
 47
0.0
 48
0.0
 49
0.0
140
0.0
141
0.0
142
1.0
143
1.0
 70
   688
 72
     0
 73
     0
 74
     5
  7

 75
    16
 76
     0
 77
     2
 78
   300
147
1.0
148
0.0
149
0.0
100
AcDbLayout
  1
Layout2
 70
     1
 71
     2
 10
0.0
 20
0.0
 11
0.0
 21
0.0
 12
0.0
 22
0.0
 32
0.0
 14
0.0
 24
0.0
 34
0.0
 15
0.0
 25
0.0
 35
0.0
146
0.0
 13
0.0
 23
0.0
 33
0.0
 16
1.0
 26
0.0
 36
0.0
 17
0.0
 27
1.0
 37
0.0
 76
     0
330
23
  0
LAYOUT
  5
22
102
{ACAD_REACTORS
330
1A
102
}
330
1A
100
AcDbPlotSettings
  1

  2
none_device
  4

  6

 40
0.0
 41
0.0
 42
0.0
 43
0.0
 44
0.0
 45
0.0
 46
0.0
 47
0.0
 48
0.0
 49
0.0
140
0.0
141
0.0
142
1.0
143
1.0
 70
  1712
 72
     0
 73
     0
 74
     0
  7

 75
     0
 76
     0
 77
     2
 78
   300
147
1.0
148
0.0
149
0.0
100
AcDbLayout
  1
Model
 70
     1
 71
     0
 10
0.0
 20
0.0
 11
12.0
 21
9.0
 12
0.0
 22
0.0
 32
0.0
 14
1.000000000000000E+20
 24
1.000000000000000E+20
 34
1.000000000000000E+20
 15
-1.000000000000000E+20
 25
-1.000000000000000E+20
 35
-1.000000000000000E+20
146
0.0
 13
0.0
 23
0.0
 33
0.0
 16
1.0
 26
0.0
 36
0.0
 17
0.0
 27
1.0
 37
0.0
 76
     0
330
1F
331
29
  0
MATERIAL
  5
3D
102
{ACAD_REACTORS
330
3B
102
}
330
3B
100
AcDbMaterial
  1
ByBlock
 72
     1
 94
      127
  0
MATERIAL
  5
3C
102
{ACAD_REACTORS
330
3B
102
}
330
3B
100
AcDbMaterial
  1
ByLayer
 72
     1
 94
      127
  0
MATERIAL
  5
3E
102
{ACAD_REACTORS
330
3B
102
}
330
3B
100
AcDbMaterial
  1
Global
 72
     1
 94
      127
  0
MLINESTYLE
  5
18
102
{ACAD_REACTORS
330
17
102
}
330
17
100
AcDbMlineStyle
  2
Standard
 70
     0
  3

 62
   256
 51
90.0
 52
90.0
 71
     2
 49
0.5
 62
   256
  6
BYLAYER
 49
-0.5
 62
   256
  6
BYLAYER
  0
ACDBPLACEHOLDER
  5
F
102
{ACAD_REACTORS
330
E
102
}
330
E
  0
VISUALSTYLE
  5
2F
102
{ACAD_REACTORS
330
2A
102
}
330
2A
100
AcDbVisualStyle
  2
2dWireframe
 70
     4
177
     2
291
     0
 71
     0
176
     1
 72
     2
176
     1
 73
     0
176
     1
 90
        0
176
     1
 40
-0.6
176
     1
 41
-30.0
176
     1
 62
     5
 63
     7
421
 16777215
176
     1
 74
     1
176
     1
 91
        4
176
     1
 64
     7
176
     1
 65
   257
176
     1
 75
     1
176
     1
175
     1
176
     1
 42
1.0
176
     1
 92
        0
176
     1
 66
   257
176
     1
 43
1.0
176
     1
 76
     1
176
     1
 77
     6
176
     1
 78
     2
176
     1
 67
     7
176
     1
 79
     5
176
     1
170
     0
176
     1
171
     0
176
     1
290
     0
176
     1
 93
        1
176
     1
 44
0.0
176
     1
173
     0
176
     1
  0
VISUALSTYLE
  5
31
102
{ACAD_REACTORS
330
2A
102
}
330
2A
100
AcDbVisualStyle
  2
3D Hidden
 70
     6
177
     2
291
     0
 71
     1
176
     1
 72
     2
176
     1
 73
     2
176
     1
 90
        0
176
     1
 40
-0.6
176
     1
 41
-30.0
176
     1
 62
     5
 63
     7
421
 16777215
176
     1
 74
     2
176
     1
 91
        2
176
     1
 64
     7
176
     1
 65
   257
176
     1
 75
     2
176
     1
175
     1
176
     1
 42
40.0
176
     1
 92
        0
176
     1
 66
   257
176
     1
 43
1.0
176
     1
 76
     1
176
     1
 77
     6
176
     1
 78
     2
176
     1
 67
     7
176
     1
 79
     3
176
     1
170
     0
176
     1
171
     0
176
     1
290
     0
176
     1
 93
        1
176
     1
 44
0.0
176
     1
173
     0
176
     1
  0
VISUALSTYLE
  5
30
102
{ACAD_REACTORS
330
2A
102
}
330
2A
100
AcDbVisualStyle
  2
3dWireframe
 70
     5
177
     2
291
     0
 71
     0
176
     1
 72
     2
176
     1
 73
     0
176
     1
 90
        0
176
     1
 40
-0.6
176
     1
 41
-30.0
176
     1
 62
     5
 63
     7
421
 16777215
176
     1
 74
     1
176
     1
 91
        4
176
     1
 64
     7
176
     1
 65
   257
176
     1
 75
     1
176
     1
175
     1
176
     1
 42
1.0
176
     1
 92
        0
176
     1
 66
   257
176
     1
 43
1.0
176
     1
 76
     1
176
     1
 77
     6
176
     1
 78
     2
176
     1
 67
     7
176
     1
 79
     5
176
     1
170
     0
176
     1
171
     0
176
     1
290
     0
176
     1
 93
        1
176
     1
 44
0.0
176
     1
173
     0
176
     1
  0
VISUALSTYLE
  5
32
102
{ACAD_REACTORS
330
2A
102
}
330
2A
100
AcDbVisualStyle
  2
Basic
 70
     7
177
     2
291
     1
 71
     1
176
     1
 72
     0
176
     1
 73
     1
176
     1
 90
        0
176
     1
 40
-0.6
176
     1
 41
-30.0
176
     1
 62
     5
 63
     7
421
 16777215
176
     1
 74
     0
176
     1
 91
        4
176
     1
 64
     7
176
     1
 65
   257
176
     1
 75
     1
176
     1
175
     1
176
     1
 42
1.0
176
     1
 92
        8
176
     1
 66
     7
176
     1
 43
1.0
176
     1
 76
     1
176
     1
 77
     6
176
     1
 78
     2
176
     1
 67
     7
176
     1
 79
     5
176
     1
170
     0
176
     1
171
     0
176
     1
290
     0
176
     1
 93
        1
176
     1
 44
0.0
176
     1
173
     0
176
     1
  0
VISUALSTYLE
  5
36
102
{ACAD_REACTORS
330
2A
102
}
330
2A
100
AcDbVisualStyle
  2
Brighten
 70
    12
177
     2
291
     1
 71
     2
176
     1
 72
     2
176
     1
 73
     0
176
     1
 90
        0
176
     1
 40
-0.6
176
     1
 41
-30.0
176
     1
 62
     5
 63
     7
421
 16777215
176
     1
 74
     1
176
     1
 91
        4
176
     1
 64
     7
176
     1
 65
   257
176
     1
 75
     1
176
     1
175
     1
176
     1
 42
1.0
176
     1
 92
        8
176
     1
 66
     7
176
     1
 43
1.0
176
     1
 76
     1
176
     1
 77
     6
176
     1
 78
     2
176
     1
 67
     7
176
     1
 79
     5
176
     1
170
     0
176
     1
171
     0
176
     1
290
     0
176
     1
 93
        1
176
     1
 44
50.0
176
     1
173
     0
176
     1
  0
VISUALSTYLE
  5
3A
102
{ACAD_REACTORS
330
2A
102
}
330
2A
100
AcDbVisualStyle
  2
ColorChange
 70
    16
177
     2
291
     1
 71
     2
176
     1
 72
     2
176
     1
 73
     3
176
     1
 90
        0
176
     1
 40
-0.6
176
     1
 41
-30.0
176
     1
 62
     5
 63
     8
421
  8421504
176
     1
 74
     1
176
     1
 91
        4
176
     1
 64
     7
176
     1
 65
   257
176
     1
 75
     1
176
     1
175
     1
176
     1
 42
1.0
176
     1
 92
        8
176
     1
 66
     8
424
  8421504
176
     1
 43
1.0
176
     1
 76
     1
176
     1
 77
     6
176
     1
 78
     2
176
     1
 67
     7
176
     1
 79
     5
176
     1
170
     0
176
     1
171
     0
176
     1
290
     0
176
     1
 93
        1
176
     1
 44
0.0
176
     1
173
     0
176
     1
  0
VISUALSTYLE
  5
34
102
{ACAD_REACTORS
330
2A
102
}
330
2A
100
AcDbVisualStyle
  2
Conceptual
 70
     9
177
     2
291
     0
 71
     3
176
     1
 72
     2
176
     1
 73
     0
176
     1
 90
        0
176
     1
 40
-0.6
176
     1
 41
-30.0
176
     1
 62
     5
 63
     7
421
 16777215
176
     1
 74
     2
176
     1
 91
        2
176
     1
 64
     7
176
     1
 65
   257
176
     1
 75
     1
176
     1
175
     1
176
     1
 42
40.0
176
     1
 92
        8
176
     1
 66
     7
176
     1
 43
1.0
176
     1
 76
     1
176
     1
 77
     6
176
     1
 78
     2
176
     1
 67
     7
176
     1
 79
     3
176
     1
170
     0
176
     1
171
     0
176
     1
290
     0
176
     1
 93
        1
176
     1
 44
0.0
176
     1
173
     0
176
     1
  0
VISUALSTYLE
  5
35
102
{ACAD_REACTORS
330
2A
102
}
330
2A
100
AcDbVisualStyle
  2
Dim
 70
    11
177
     2
291
     1
 71
     2
176
     1
 72
     2
176
     1
 73
     0
176
     1
 90
        0
176
     1
 40
-0.6
176
     1
 41
-30.0
176
     1
 62
     5
 63
     7
421
 16777215
176
     1
 74
     1
176
     1
 91
        4
176
     1
 64
     7
176
     1
 65
   257
176
     1
 75
     1
176
     1
175
     1
176
     1
 42
1.0
176
     1
 92
        8
176
     1
 66
     7
176
     1
 43
1.0
176
     1
 76
     1
176
     1
 77
     6
176
     1
 78
     2
176
     1
 67
     7
176
     1
 79
     5
176
     1
170
     0
176
     1
171
     0
176
     1
290
     0
176
     1
 93
        1
176
     1
 44
-50.0
176
     1
173
     0
176
     1
  0
VISUALSTYLE
  5
39
102
{ACAD_REACTORS
330
2A
102
}
330
2A
100
AcDbVisualStyle
  2
Facepattern
 70
    15
177
     2
291
     1
 71
     2
176
     1
 72
     2
176
     1
 73
     0
176
     1
 90
        0
176
     1
 40
-0.6
176
     1
 41
-30.0
176
     1
 62
     5
 63
     7
421
 16777215
176
     1
 74
     1
176
     1
 91
        4
176
     1
 64
     7
176
     1
 65
   257
176
     1
 75
     1
176
     1
175
     1
176
     1
 42
1.0
176
     1
 92
        8
176
     1
 66
     7
176
     1
 43
1.0
176
     1
 76
     1
176
     1
 77
     6
176
     1
 78
     2
176
     1
 67
     7
176
     1
 79
     5
176
     1
170
     0
176
     1
171
     0
176
     1
290
     0
176
     1
 93
        1
176
     1
 44
0.0
176
     1
173
     0
176
     1
  0
VISUALSTYLE
  5
2B
102
{ACAD_REACTORS
330
2A
102
}
330
2A
100
AcDbVisualStyle
  2
Flat
 70
     0
177
     2
291
     1
 71
     2
176
     1
 72
     1
176
     1
 73
     1
176
     1
 90
        2
176
     1
 40
-0.6
176
     1
 41
30.0
176
     1
 62
     5
 63
     7
421
 16777215
176
     1
 74
     0
176
     1
 91
        4
176
     1
 64
     7
176
     1
 65
   257
176
     1
 75
     1
176
     1
175
     1
176
     1
 42
1.0
176
     1
 92
        8
176
     1
 66
     7
176
     1
 43
1.0
176
     1
 76
     1
176
     1
 77
     6
176
     1
 78
     2
176
     1
 67
     7
176
     1
 79
     5
176
     1
170
     0
176
     1
171
     0
176
     1
290
     0
176
     1
 93
       13
176
     1
 44
0.0
176
     1
173
     0
176
     1
  0
VISUALSTYLE
  5
2C
102
{ACAD_REACTORS
330
2A
102
}
330
2A
100
AcDbVisualStyle
  2
FlatWithEdges
 70
     1
177
     2
291
     1
 71
     2
176
     1
 72
     1
176
     1
 73
     1
176
     1
 90
        2
176
     1
 40
-0.6
176
     1
 41
30.0
176
     1
 62
     5
 63
     7
421
 16777215
176
     1
 74
     1
176
     1
 91
        4
176
     1
 64
     7
176
     1
 65
   257
176
     1
 75
     1
176
     1
175
     1
176
     1
 42
1.0
176
     1
 92
        0
176
     1
 66
   257
176
     1
 43
1.0
176
     1
 76
     1
176
     1
 77
     6
176
     1
 78
     2
176
     1
 67
     7
176
     1
 79
     5
176
     1
170
     0
176
     1
171
     0
176
     1
290
     0
176
     1
 93
       13
176
     1
 44
0.0
176
     1
173
     0
176
     1
  0
VISUALSTYLE
  5
2D
102
{ACAD_REACTORS
330
2A
102
}
330
2A
100
AcDbVisualStyle
  2
Gouraud
 70
     2
177
     2
291
     1
 71
     2
176
     1
 72
     2
176
     1
 73
     1
176
     1
 90
        2
176
     1
 40
-0.6
176
     1
 41
30.0
176
     1
 62
     5
 63
     7
421
 16777215
176
     1
 74
     0
176
     1
 91
        4
176
     1
 64
     7
176
     1
 65
   257
176
     1
 75
     1
176
     1
175
     1
176
     1
 42
1.0
176
     1
 92
        0
176
     1
 66
     7
176
     1
 43
1.0
176
     1
 76
     1
176
     1
 77
     6
176
     1
 78
     2
176
     1
 67
     7
176
     1
 79
     5
176
     1
170
     0
176
     1
171
     0
176
     1
290
     0
176
     1
 93
       13
176
     1
 44
0.0
176
     1
173
     0
176
     1
  0
VISUALSTYLE
  5
2E
102
{ACAD_REACTORS
330
2A
102
}
330
2A
100
AcDbVisualStyle
  2
GouraudWithEdges
 70
     3
177
     2
291
     1
 71
     2
176
     1
 72
     2
176
     1
 73
     1
176
     1
 90
        2
176
     1
 40
-0.6
176
     1
 41
30.0
176
     1
 62
     5
 63
     7
421
 16777215
176
     1
 74
     1
176
     1
 91
        4
176
     1
 64
     7
176
     1
 65
   257
176
     1
 75
     1
176
     1
175
     1
176
     1
 42
1.0
176
     1
 92
        0
176
     1
 66
   257
176
     1
 43
1.0
176
     1
 76
     1
176
     1
 77
     6
176
     1
 78
     2
176
     1
 67
     7
176
     1
 79
     5
176
     1
170
     0
176
     1
171
     0
176
     1
290
     0
176
     1
 93
       13
176
     1
 44
0.0
176
     1
173
     0
176
     1
  0
VISUALSTYLE
  5
38
102
{ACAD_REACTORS
330
2A
102
}
330
2A
100
AcDbVisualStyle
  2
Linepattern
 70
    14
177
     2
291
     1
 71
     2
176
     1
 72
     2
176
     1
 73
     0
176
     1
 90
        0
176
     1
 40
-0.6
176
     1
 41
-30.0
176
     1
 62
     5
 63
     7
421
 16777215
176
     1
 74
     1
176
     1
 91
        4
176
     1
 64
     7
176
     1
 65
   257
176
     1
 75
     7
176
     1
175
     7
176
     1
 42
1.0
176
     1
 92
        8
176
     1
 66
     7
176
     1
 43
1.0
176
     1
 76
     1
176
     1
 77
     6
176
     1
 78
     2
176
     1
 67
     7
176
     1
 79
     5
176
     1
170
     0
176
     1
171
     0
176
     1
290
     0
176
     1
 93
        1
176
     1
 44
0.0
176
     1
173
     0
176
     1
  0
VISUALSTYLE
  5
33
102
{ACAD_REACTORS
330
2A
102
}
330
2A
100
AcDbVisualStyle
  2
Realistic
 70
     8
177
     2
291
     0
 71
     2
176
     1
 72
     2
176
     1
 73
     0
176
     1
 90
        0
176
     1
 40
-0.6
176
     1
 41
-30.0
176
     1
 62
     5
 63
     7
421
 16777215
176
     1
 74
     1
176
     1
 91
        0
176
     1
 64
     7
176
     1
 65
   257
176
     1
 75
     1
176
     1
175
     1
176
     1
 42
1.0
176
     1
 92
        8
176
     1
 66
     8
424
  7895160
176
     1
 43
1.0
176
     1
 76
     1
176
     1
 77
     6
176
     1
 78
     2
176
     1
 67
     7
176
     1
 79
     5
176
     1
170
     0
176
     1
171
     0
176
     1
290
     0
176
     1
 93
       13
176
     1
 44
0.0
176
     1
173
     0
176
     1
  0
VISUALSTYLE
  5
37
102
{ACAD_REACTORS
330
2A
102
}
330
2A
100
AcDbVisualStyle
  2
Thicken
 70
    13
177
     2
291
     1
 71
     2
176
     1
 72
     2
176
     1
 73
     0
176
     1
 90
        0
176
     1
 40
-0.6
176
     1
 41
-30.0
176
     1
 62
     5
 63
     7
421
 16777215
176
     1
 74
     1
176
     1
 91
        4
176
     1
 64
     7
176
     1
 65
   257
176
     1
 75
     1
176
     1
175
     1
176
     1
 42
1.0
176
     1
 92
       12
176
     1
 66
     7
176
     1
 43
1.0
176
     1
 76
     1
176
     1
 77
     6
176
     1
 78
     2
176
     1
 67
     7
176
     1
 79
     5
176
     1
170
     0
176
     1
171
     0
176
     1
290
     0
176
     1
 93
        1
176
     1
 44
0.0
176
     1
173
     0
176
     1
  0
ENDSEC
  0
EOF
