  0
SECTION
  2
HEADER
  9
$ACADVER
  1
AC1024
  9
$ACADMAINTVER
 70
     6
  9
$DWGCODEPAGE
  3
UNDEFINED
  9
$INSBASE
 10
0.0
 20
0.0
 30
0.0
  9
$EXTMIN
 10
1.000000000000000E+20
 20
1.000000000000000E+20
 30
1.000000000000000E+20
  9
$EXTMAX
 10
-1.000000000000000E+20
 20
-1.000000000000000E+20
 30
-1.000000000000000E+20
  9
$LIMMIN
 10
0.0
 20
0.0
  9
$LIMMAX
 10
12.0
 20
9.0
  9
$ORTHOMODE
 70
     0
  9
$REGENMODE
 70
     1
  9
$FILLMODE
 70
     1
  9
$QTEXTMODE
 70
     0
  9
$MIRRTEXT
 70
     1
  9
$LTSCALE
 40
1.0
  9
$ATTMODE
 70
     1
  9
$TEXTSIZE
 40
0.2
  9
$TRACEWID
 40
0.05
  9
$TEXTSTYLE
  7
Standard
  9
$CLAYER
  8
0
  9
$CELTYPE
  6
ByLayer
  9
$CECOLOR
 62
   256
  9
$CELTSCALE
 40
1.0
  9
$DISPSILH
 70
     0
  9
$DIMSCALE
 40
1.0
  9
$DIMASZ
 40
0.18
  9
$DIMEXO
 40
0.0625
  9
$DIMDLI
 40
0.38
  9
$DIMRND
 40
0.0
  9
$DIMDLE
 40
0.0
  9
$DIMEXE
 40
0.18
  9
$DIMTP
 40
0.0
  9
$DIMTM
 40
0.0
  9
$DIMTXT
 40
0.18
  9
$DIMCEN
 40
0.09
  9
$DIMTSZ
 40
0.0
  9
$DIMTOL
 70
     0
  9
$DIMLIM
 70
     0
  9
$DIMTIH
 70
     1
  9
$DIMTOH
 70
     1
  9
$DIMSE1
 70
     0
  9
$DIMSE2
 70
     0
  9
$DIMTAD
 70
     0
  9
$DIMZIN
 70
     0
  9
$DIMBLK
  1

  9
$DIMASO
 70
     1
  9
$DIMSHO
 70
     1
  9
$DIMPOST
  1

  9
$DIMAPOST
  1

  9
$DIMALT
 70
     0
  9
$DIMALTD
 70
     2
  9
$DIMALTF
 40
25.4
  9
$DIMLFAC
 40
1.0
  9
$DIMTOFL
 70
     0
  9
$DIMTVP
 40
0.0
  9
$DIMTIX
 70
     0
  9
$DIMSOXD
 70
     0
  9
$DIMSAH
 70
     0
  9
$DIMBLK1
  1

  9
$DIMBLK2
  1

  9
$DIMSTYLE
  2
Standard
  9
$DIMCLRD
 70
     0
  9
$DIMCLRE
 70
     0
  9
$DIMCLRT
 70
     0
  9
$DIMTFAC
 40
1.0
  9
$DIMGAP
 40
0.09
  9
$DIMJUST
 70
     0
  9
$DIMSD1
 70
     0
  9
$DIMSD2
 70
     0
  9
$DIMTOLJ
 70
     1
  9
$DIMTZIN
 70
     0
  9
$DIMALTZ
 70
     0
  9
$DIMALTTZ
 70
     0
  9
$DIMUPT
 70
     0
  9
$DIMDEC
 70
     4
  9
$DIMTDEC
 70
     4
  9
$DIMALTU
 70
     2
  9
$DIMALTTD
 70
     2
  9
$DIMTXSTY
  7
Standard
  9
$DIMAUNIT
 70
     0
  9
$DIMADEC
 70
     0
  9
$DIMALTRND
 40
0.0
  9
$DIMAZIN
 70
     0
  9
$DIMDSEP
 70
    46
  9
$DIMATFIT
 70
     3
  9
$DIMFRAC
 70
     0
  9
$DIMLDRBLK
  1

  9
$DIMLUNIT
 70
     2
  9
$DIMLWD
 70
    -2
  9
$DIMLWE
 70
    -2
  9
$DIMTMOVE
 70
     0
  9
$DIMFXL
 40
1.0
  9
$DIMFXLON
 70
     0
  9
$DIMJOGANG
 40
0.7853981633974483
  9
$DIMTFILL
 70
     0
  9
$DIMTFILLCLR
 70
     0
  9
$DIMARCSYM
 70
     0
  9
$DIMLTYPE
  6

  9
$DIMLTEX1
  6

  9
$DIMLTEX2
  6

  9
$DIMTXTDIRECTION
 70
     0
  9
$LUNITS
 70
     2
  9
$LUPREC
 70
     4
  9
$SKETCHINC
 40
0.1
  9
$FILLETRAD
 40
0.5
  9
$AUNITS
 70
     0
  9
$AUPREC
 70
     0
  9
$MENU
  1
.
  9
$ELEVATION
 40
0.0
  9
$PELEVATION
 40
0.0
  9
$THICKNESS
 40
0.0
  9
$LIMCHECK
 70
     0
  9
$CHAMFERA
 40
0.5
  9
$CHAMFERB
 40
0.5
  9
$CHAMFERC
 40
1.0
  9
$CHAMFERD
 40
0.0
  9
$SKPOLY
 70
     0
  9
$TDCREATE
 40
2457917.594328704
  9
$TDUCREATE
 40
2457917.219328704
  9
$TDUPDATE
 40
2457917.594328704
  9
$TDUUPDATE
 40
2457917.219328704
  9
$TDINDWG
 40
0.0000000116
  9
$TDUSRTIMER
 40
0.0000000116
  9
$USRTIMER
 70
     1
  9
$ANGBASE
 50
0.0
  9
$ANGDIR
 70
     0
  9
$PDMODE
 70
     0
  9
$PDSIZE
 40
0.0
  9
$PLINEWID
 40
0.0
  9
$SPLFRAME
 70
     0
  9
$SPLINETYPE
 70
     6
  9
$SPLINESEGS
 70
     8
  9
$HANDSEED
  5
E9
  9
$SURFTAB1
 70
     6
  9
$SURFTAB2
 70
     6
  9
$SURFTYPE
 70
     6
  9
$SURFU
 70
     6
  9
$SURFV
 70
     6
  9
$UCSBASE
  2

  9
$UCSNAME
  2

  9
$UCSORG
 10
0.0
 20
0.0
 30
0.0
  9
$UCSXDIR
 10
1.0
 20
0.0
 30
0.0
  9
$UCSYDIR
 10
0.0
 20
1.0
 30
0.0
  9
$UCSORTHOREF
  2

  9
$UCSORTHOVIEW
 70
     0
  9
$UCSORGTOP
 10
0.0
 20
0.0
 30
0.0
  9
$UCSORGBOTTOM
 10
0.0
 20
0.0
 30
0.0
  9
$UCSORGLEFT
 10
0.0
 20
0.0
 30
0.0
  9
$UCSORGRIGHT
 10
0.0
 20
0.0
 30
0.0
  9
$UCSORGFRONT
 10
0.0
 20
0.0
 30
0.0
  9
$UCSORGBACK
 10
0.0
 20
0.0
 30
0.0
  9
$PUCSBASE
  2

  9
$PUCSNAME
  2

  9
$PUCSORG
 10
0.0
 20
0.0
 30
0.0
  9
$PUCSXDIR
 10
1.0
 20
0.0
 30
0.0
  9
$PUCSYDIR
 10
0.0
 20
1.0
 30
0.0
  9
$PUCSORTHOREF
  2

  9
$PUCSORTHOVIEW
 70
     0
  9
$PUCSORGTOP
 10
0.0
 20
0.0
 30
0.0
  9
$PUCSORGBOTTOM
 10
0.0
 20
0.0
 30
0.0
  9
$PUCSORGLEFT
 10
0.0
 20
0.0
 30
0.0
  9
$PUCSORGRIGHT
 10
0.0
 20
0.0
 30
0.0
  9
$PUCSORGFRONT
 10
0.0
 20
0.0
 30
0.0
  9
$PUCSORGBACK
 10
0.0
 20
0.0
 30
0.0
  9
$USERI1
 70
     0
  9
$USERI2
 70
     0
  9
$USERI3
 70
     0
  9
$USERI4
 70
     0
  9
$USERI5
 70
     0
  9
$USERR1
 40
0.0
  9
$USERR2
 40
0.0
  9
$USERR3
 40
0.0
  9
$USERR4
 40
0.0
  9
$USERR5
 40
0.0
  9
$WORLDVIEW
 70
     1
  9
$SHADEDGE
 70
     3
  9
$SHADEDIF
 70
    70
  9
$TILEMODE
 70
     1
  9
$MAXACTVP
 70
    64
  9
$PINSBASE
 10
0.0
 20
0.0
 30
0.0
  9
$PLIMCHECK
 70
     0
  9
$PEXTMIN
 10
1.000000000000000E+20
 20
1.000000000000000E+20
 30
1.000000000000000E+20
  9
$PEXTMAX
 10
-1.000000000000000E+20
 20
-1.000000000000000E+20
 30
-1.000000000000000E+20
  9
$PLIMMIN
 10
0.0
 20
0.0
  9
$PLIMMAX
 10
12.0
 20
9.0
  9
$UNITMODE
 70
     0
  9
$VISRETAIN
 70
     1
  9
$PLINEGEN
 70
     0
  9
$PSLTSCALE
 70
     1
  9
$TREEDEPTH
 70
  3020
  9
$CMLSTYLE
  2
Standard
  9
$CMLJUST
 70
     0
  9
$CMLSCALE
 40
1.0
  9
$PROXYGRAPHICS
 70
     1
  9
$MEASUREMENT
 70
     0
  9
$CELWEIGHT
370
    -1
  9
$ENDCAPS
280
     0
  9
$JOINSTYLE
280
     0
  9
$LWDISPLAY
290
     1
  9
$INSUNITS
 70
     1
  9
$HYPERLINKBASE
  1

  9
$STYLESHEET
  1

  9
$XEDIT
290
     1
  9
$CEPSNTYPE
380
     0
  9
$PSTYLEMODE
290
     1
  9
$FINGERPRINTGUID
  2
{2C646468-7429-0F8E-03D6-F580D49275C4}
  9
$VERSIONGUID
  2
{FAEB1C32-E019-11D5-929B-00C0DF256EC4}
  9
$EXTNAMES
290
     1
  9
$PSVPSCALE
 40
0.0
  9
$OLESTARTUP
290
     0
  9
$SORTENTS
280
   127
  9
$INDEXCTL
280
     0
  9
$HIDETEXT
280
     1
  9
$XCLIPFRAME
280
     2
  9
$HALOGAP
280
     0
  9
$OBSCOLOR
 70
   257
  9
$OBSLTYPE
280
     0
  9
$INTERSECTIONDISPLAY
280
     0
  9
$INTERSECTIONCOLOR
 70
   257
  9
$DIMASSOC
280
     2
  9
$PROJECTNAME
  1

  9
$CAMERADISPLAY
290
     0
  9
$LENSLENGTH
 40
50.0
  9
$CAMERAHEIGHT
 40
0.0
  9
$STEPSPERSEC
 40
2.0
  9
$STEPSIZE
 40
6.0
  9
$3DDWFPREC
 40
2.0
  9
$PSOLWIDTH
 40
0.25
  9
$PSOLHEIGHT
 40
4.0
  9
$LOFTANG1
 40
1.570796326794897
  9
$LOFTANG2
 40
1.570796326794897
  9
$LOFTMAG1
 40
0.0
  9
$LOFTMAG2
 40
0.0
  9
$LOFTPARAM
 70
     7
  9
$LOFTNORMALS
280
     1
  9
$LATITUDE
 40
37.795
  9
$LONGITUDE
 40
-122.394
  9
$NORTHDIRECTION
 40
0.0
  9
$TIMEZONE
 70
 -8000
  9
$LIGHTGLYPHDISPLAY
280
     1
  9
$TILEMODELIGHTSYNCH
280
     1
  9
$CMATERIAL
347
3C
  9
$SOLIDHIST
280
     1
  9
$SHOWHIST
280
     1
  9
$DWFFRAME
280
     2
  9
$DGNFRAME
280
     2
  9
$REALWORLDSCALE
290
     1
  9
$INTERFERECOLOR
 62
   256
  9
$CSHADOW
280
     0
  9
$SHADOWPLANELOCATION
 40
0.0
  0
ENDSEC
  0
SECTION
  2
CLASSES
  0
CLASS
  1
ACDBDICTIONARYWDFLT
  2
AcDbDictionaryWithDefault
  3
ObjectDBX Classes
 90
        0
 91
        4
280
     0
281
     0
  0
CLASS
  1
VISUALSTYLE
  2
AcDbVisualStyle
  3
ObjectDBX Classes
 90
     4095
 91
        4
280
     0
281
     0
  0
CLASS
  1
MATERIAL
  2
AcDbMaterial
  3
ObjectDBX Classes
 90
     1153
 91
        4
280
     0
281
     0
  0
CLASS
  1
SUN
  2
AcDbSun
  3
SCENEOE
 90
     1024
 91
        4
280
     0
281
     0
  0
ENDSEC
  0
SECTION
  2
TABLES
  0
TABLE
  2
VPORT
  5
8
330
0
100
AcDbSymbolTable
 70
     1
  0
VPORT
  5
29
330
8
100
AcDbSymbolTableRecord
100
AcDbViewportTableRecord
  2
*Active
 70
     0
 10
0.0
 20
0.0
 11
1.0
 21
1.0
 12
0.0
 22
0.0
 13
0.0
 23
0.0
 14
0.5
 24
0.5
 15
0.5
 25
0.5
 16
0.0
 26
0.0
 36
1.0
 17
91.00082462281999
 27
-128.4993055234307
 37
0.0
 40
256.9986110468615
 41
0.7081814508812795
 42
50.0
 43
0.0
 44
0.0
 50
0.0
 51
0.0
 71
     0
 72
   100
 73
     1
 74
     3
 75
     0
 76
     0
 77
     0
 78
     0
281
     0
 65
     1
110
0.0
120
0.0
130
0.0
111
1.0
121
0.0
131
0.0
112
0.0
122
1.0
132
0.0
 79
     0
146
0.0
 60
     3
 61
     5
292
     1
282
     1
141
0.0
142
0.0
 63
   250
361
3F
  0
ENDTAB
  0
TABLE
  2
LTYPE
  5
5
330
0
100
AcDbSymbolTable
 70
     3
  0
LTYPE
  5
14
330
5
100
AcDbSymbolTableRecord
100
AcDbLinetypeTableRecord
  2
ByBlock
 70
     0
  3

 72
    65
 73
     0
 40
0.0
  0
LTYPE
  5
15
330
5
100
AcDbSymbolTableRecord
100
AcDbLinetypeTableRecord
  2
ByLayer
 70
     0
  3

 72
    65
 73
     0
 40
0.0
  0
LTYPE
  5
16
330
5
100
AcDbSymbolTableRecord
100
AcDbLinetypeTableRecord
  2
Continuous
 70
     0
  3
Solid line
 72
    65
 73
     0
 40
0.0
  0
LTYPE
  5
4F
330
5
100
AcDbSymbolTableRecord
100
AcDbLinetypeTableRecord
  2
AI-Linetype-1
 70
     0
  3
Adobe Illustrator Linetype No. 1
 72
    65
 73
     2
 40
1.411111110758333
 49
0.7055555553791667
 74
     0
 49
-0.7055555553791667
 74
     0
  0
LTYPE
  5
54
330
5
100
AcDbSymbolTableRecord
100
AcDbLinetypeTableRecord
  2
AI-Linetype-2
 70
     0
  3
Adobe Illustrator Linetype No. 2
 72
    65
 73
     2
 40
1.411111110758333
 49
0.7055555553791667
 74
     0
 49
-0.7055555553791667
 74
     0
  0
ENDTAB
  0
TABLE
  2
LAYER
  5
2
330
0
100
AcDbSymbolTable
 70
     2
  0
LAYER
  5
10
330
2
100
AcDbSymbolTableRecord
100
AcDbLayerTableRecord
  2
0
 70
     0
 62
     7
  6
Continuous
370
    -3
390
F
347
3E
  0
LAYER
  5
40
330
2
100
AcDbSymbolTableRecord
100
AcDbLayerTableRecord
  2
_U+30EC_U+30A4_U+30E4_U+30FC 1
 70
     0
 62
     7
  6
Continuous
370
    -3
390
F
347
3E
  0
ENDTAB
  0
TABLE
  2
STYLE
  5
3
330
0
100
AcDbSymbolTable
 70
     1
  0
STYLE
  5
11
330
3
100
AcDbSymbolTableRecord
100
AcDbTextStyleTableRecord
  2
Standard
 70
     0
 40
0.0
 41
1.0
 50
0.0
 71
     0
 42
0.2
  3
txt
  4

  0
ENDTAB
  0
TABLE
  2
VIEW
  5
6
330
0
100
AcDbSymbolTable
 70
     0
  0
ENDTAB
  0
TABLE
  2
UCS
  5
7
330
0
100
AcDbSymbolTable
 70
     0
  0
ENDTAB
  0
TABLE
  2
APPID
  5
9
330
0
100
AcDbSymbolTable
 70
     1
  0
APPID
  5
12
330
9
100
AcDbSymbolTableRecord
100
AcDbRegAppTableRecord
  2
ACAD
 70
     0
  0
ENDTAB
  0
TABLE
  2
DIMSTYLE
  5
A
330
0
100
AcDbSymbolTable
 70
     1
100
AcDbDimStyleTable
  0
DIMSTYLE
105
27
330
A
100
AcDbSymbolTableRecord
100
AcDbDimStyleTableRecord
  2
Standard
 70
     0
178
     0
340
11
  0
ENDTAB
  0
TABLE
  2
BLOCK_RECORD
  5
1
330
0
100
AcDbSymbolTable
 70
     6
  0
BLOCK_RECORD
  5
1F
330
1
100
AcDbSymbolTableRecord
100
AcDbBlockTableRecord
  2
*Model_Space
340
22
 70
     0
280
     1
281
     0
  0
BLOCK_RECORD
  5
1B
330
1
100
AcDbSymbolTableRecord
100
AcDbBlockTableRecord
  2
*Paper_Space
340
1E
 70
     0
280
     1
281
     0
  0
BLOCK_RECORD
  5
23
330
1
100
AcDbSymbolTableRecord
100
AcDbBlockTableRecord
  2
*Paper_Space0
340
26
 70
     0
280
     1
281
     0
  0
BLOCK_RECORD
  5
A2
330
1
100
AcDbSymbolTableRecord
100
AcDbBlockTableRecord
  2
block 2
340
0
102
{BLKREFS
331
A3
102
}
 70
     0
280
     1
281
     0
  0
BLOCK_RECORD
  5
AA
330
1
100
AcDbSymbolTableRecord
100
AcDbBlockTableRecord
  2
block 3
340
0
102
{BLKREFS
331
AB
102
}
 70
     0
280
     1
281
     0
  0
BLOCK_RECORD
  5
BA
330
1
100
AcDbSymbolTableRecord
100
AcDbBlockTableRecord
  2
block 4
340
0
102
{BLKREFS
331
BB
102
}
 70
     0
280
     1
281
     0
  0
BLOCK_RECORD
  5
CC
330
1
100
AcDbSymbolTableRecord
100
AcDbBlockTableRecord
  2
block 5
340
0
102
{BLKREFS
331
CD
102
}
 70
     0
280
     1
281
     0
  0
BLOCK_RECORD
  5
D4
330
1
100
AcDbSymbolTableRecord
100
AcDbBlockTableRecord
  2
block 6
340
0
102
{BLKREFS
331
D5
102
}
 70
     0
280
     1
281
     0
  0
ENDTAB
  0
ENDSEC
  0
SECTION
  2
BLOCKS
  0
BLOCK
  5
20
330
1F
100
AcDbEntity
  8
0
100
AcDbBlockBegin
  2
*Model_Space
 70
     0
 10
0.0
 20
0.0
 30
0.0
  3
*Model_Space
  1

  0
ENDBLK
  5
21
330
1F
100
AcDbEntity
  8
0
100
AcDbBlockEnd
  0
BLOCK
  5
1C
330
1B
100
AcDbEntity
 67
     1
  8
0
100
AcDbBlockBegin
  2
*Paper_Space
 70
     0
 10
0.0
 20
0.0
 30
0.0
  3
*Paper_Space
  1

  0
ENDBLK
  5
1D
330
1B
100
AcDbEntity
 67
     1
  8
0
100
AcDbBlockEnd
  0
BLOCK
  5
24
330
23
100
AcDbEntity
  8
0
100
AcDbBlockBegin
  2
*Paper_Space0
 70
     0
 10
0.0
 20
0.0
 30
0.0
  3
*Paper_Space0
  1

  0
ENDBLK
  5
25
330
23
100
AcDbEntity
  8
0
100
AcDbBlockEnd
  0
BLOCK
  5
A4
330
A2
100
AcDbEntity
  8
0
100
AcDbBlockBegin
  2
block 2
 70
     0
 10
0.0
 20
0.0
 30
0.0
  3
block 2
  1

  0
SPLINE
  5
A6
330
A2
100
AcDbEntity
  8
_U+30EC_U+30A4_U+30E4_U+30FC 1
370
     0
100
AcDbSpline
210
0.0
220
0.0
230
1.0
 70
    11
 71
     3
 72
    26
 73
    22
 74
     0
 42
0.0000000001
 43
0.0000000001
 12
1.0
 22
0.0
 32
0.0
 13
1.0
 23
0.0
 33
0.0
 40
0.0
 40
0.0
 40
0.0
 40
0.0
 40
1.0
 40
1.0
 40
1.0
 40
2.0
 40
2.0
 40
2.0
 40
3.0
 40
3.0
 40
3.0
 40
4.0
 40
4.0
 40
4.0
 40
5.0
 40
5.0
 40
5.0
 40
6.0
 40
6.0
 40
6.0
 40
7.0
 40
7.0
 40
7.0
 40
7.0
 10
78.58676213313109
 20
-112.7410942643495
 30
0.0
 10
78.58676213313109
 20
-112.7410942643495
 30
0.0
 10
78.58676213313109
 20
-111.6369411613269
 30
0.0
 10
78.58676213313109
 20
-111.6369411613269
 30
0.0
 10
78.58676213313109
 20
-111.6369411613269
 30
0.0
 10
78.25672198564416
 20
-111.6369411613269
 30
0.0
 10
78.25672198564416
 20
-111.6369411613269
 30
0.0
 10
78.25672198564416
 20
-111.6369411613269
 30
0.0
 10
78.25672198564416
 20
-111.4888020554611
 30
0.0
 10
78.25672198564416
 20
-111.4888020554611
 30
0.0
 10
78.58882919042225
 20
-111.4739881448746
 30
0.0
 10
78.6353379794731
 20
-111.3110351284222
 30
0.0
 10
78.66496580064626
 20
-111.1966579583119
 30
0.0
 10
78.66496580064626
 20
-111.1966579583119
 30
0.0
 10
78.81103784922085
 20
-111.1966579583119
 30
0.0
 10
78.81103784922085
 20
-111.1966579583119
 30
0.0
 10
78.81103784922085
 20
-111.1966579583119
 30
0.0
 10
78.81103784922085
 20
-112.7410942643495
 30
0.0
 10
78.81103784922085
 20
-112.7410942643495
 30
0.0
 10
78.81103784922085
 20
-112.7410942643495
 30
0.0
 10
78.58676213313109
 20
-112.7410942643495
 30
0.0
 10
78.58676213313109
 20
-112.7410942643495
 30
0.0
  0
HATCH
  5
A7
330
A2
100
AcDbEntity
  8
_U+30EC_U+30A4_U+30E4_U+30FC 1
 62
   179
420
  2234388
100
AcDbHatch
 10
0.0
 20
0.0
 30
0.0
210
0.0
220
0.0
230
1.0
  2
SOLID
 70
     1
 71
     0
 91
        1
 92
        1
 93
        1
 72
     4
 94
        3
 73
     0
 74
     1
 95
       26
 96
       22
 40
0.0
 40
0.0
 40
0.0
 40
0.0
 40
1.0
 40
1.0
 40
1.0
 40
2.0
 40
2.0
 40
2.0
 40
3.0
 40
3.0
 40
3.0
 40
4.0
 40
4.0
 40
4.0
 40
5.0
 40
5.0
 40
5.0
 40
6.0
 40
6.0
 40
6.0
 40
7.0
 40
7.0
 40
7.0
 40
7.0
 10
78.58676213313109
 20
-112.7410942643495
 10
78.58676213313109
 20
-112.7410942643495
 10
78.58676213313109
 20
-111.6369411613269
 10
78.58676213313109
 20
-111.6369411613269
 10
78.58676213313109
 20
-111.6369411613269
 10
78.25672198564416
 20
-111.6369411613269
 10
78.25672198564416
 20
-111.6369411613269
 10
78.25672198564416
 20
-111.6369411613269
 10
78.25672198564416
 20
-111.4888020554611
 10
78.25672198564416
 20
-111.4888020554611
 10
78.58882919042225
 20
-111.4739881448746
 10
78.6353379794731
 20
-111.3110351284222
 10
78.66496580064626
 20
-111.1966579583119
 10
78.66496580064626
 20
-111.1966579583119
 10
78.81103784922085
 20
-111.1966579583119
 10
78.81103784922085
 20
-111.1966579583119
 10
78.81103784922085
 20
-111.1966579583119
 10
78.81103784922085
 20
-112.7410942643495
 10
78.81103784922085
 20
-112.7410942643495
 10
78.81103784922085
 20
-112.7410942643495
 10
78.58676213313109
 20
-112.7410942643495
 10
78.58676213313109
 20
-112.7410942643495
 97
        0
 97
        0
 75
     2
 76
     1
 98
        0
  0
SPLINE
  5
A8
330
A2
100
AcDbEntity
  8
_U+30EC_U+30A4_U+30E4_U+30FC 1
370
     0
100
AcDbSpline
210
0.0
220
0.0
230
1.0
 70
    11
 71
     3
 72
    53
 73
    49
 74
     0
 42
0.0000000001
 43
0.0000000001
 12
1.0
 22
0.0
 32
0.0
 13
1.0
 23
0.0
 33
0.0
 40
0.0
 40
0.0
 40
0.0
 40
0.0
 40
1.0
 40
1.0
 40
1.0
 40
2.0
 40
2.0
 40
2.0
 40
3.0
 40
3.0
 40
3.0
 40
4.0
 40
4.0
 40
4.0
 40
5.0
 40
5.0
 40
5.0
 40
6.0
 40
6.0
 40
6.0
 40
7.0
 40
7.0
 40
7.0
 40
8.0
 40
8.0
 40
8.0
 40
9.0
 40
9.0
 40
9.0
 40
10.0
 40
10.0
 40
10.0
 40
11.0
 40
11.0
 40
11.0
 40
12.0
 40
12.0
 40
12.0
 40
13.0
 40
13.0
 40
13.0
 40
14.0
 40
14.0
 40
14.0
 40
15.0
 40
15.0
 40
15.0
 40
16.0
 40
16.0
 40
16.0
 40
16.0
 10
79.79323457206559
 20
-112.7917371679826
 30
0.0
 10
79.71503090455042
 20
-112.7917371679826
 30
0.0
 10
79.61340058773554
 20
-112.7748562001049
 30
0.0
 10
79.51177027092068
 20
-112.7114664431763
 30
0.0
 10
79.3384819680126
 20
-112.6015678971968
 30
0.0
 10
79.31712237600405
 20
-112.4703097592088
 30
0.0
 10
79.29817435083518
 20
-112.3624782705205
 30
0.0
 10
79.29817435083518
 20
-112.3624782705205
 30
0.0
 10
79.5203830096338
 20
-112.3624782705205
 30
0.0
 10
79.5203830096338
 20
-112.3624782705205
 30
0.0
 10
79.57516002784926
 20
-112.5612602800194
 30
0.0
 10
79.70228405125499
 20
-112.5908881011926
 30
0.0
 10
79.79530162935673
 20
-112.5908881011926
 30
0.0
 10
79.93482799650936
 20
-112.5908881011926
 30
0.0
 10
80.0871012169574
 20
-112.4913248416688
 30
0.0
 10
80.0871012169574
 20
-112.2587808964145
 30
0.0
 10
80.0871012169574
 20
-112.0028103018604
 30
0.0
 10
79.90726723262735
 20
-111.9328748635098
 30
0.0
 10
79.7866888906436
 20
-111.9328748635098
 30
0.0
 10
79.75499401217931
 20
-111.9328748635098
 30
0.0
 10
79.61340058773554
 20
-111.9328748635098
 30
0.0
 10
79.5245171242161
 20
-112.0620659442067
 30
0.0
 10
79.5245171242161
 20
-112.0620659442067
 30
0.0
 10
79.34881725446836
 20
-112.0431179190378
 30
0.0
 10
79.34881725446836
 20
-112.0431179190378
 30
0.0
 10
79.34881725446836
 20
-112.0431179190378
 30
0.0
 10
79.4693955964521
 20
-111.1966579583119
 30
0.0
 10
79.4693955964521
 20
-111.1966579583119
 30
0.0
 10
79.4693955964521
 20
-111.1966579583119
 30
0.0
 10
80.24798717611856
 20
-111.1966579583119
 30
0.0
 10
80.24798717611856
 20
-111.1966579583119
 30
0.0
 10
80.24798717611856
 20
-111.1966579583119
 30
0.0
 10
80.24798717611856
 20
-111.3913058532286
 30
0.0
 10
80.24798717611856
 20
-111.3913058532286
 30
0.0
 10
80.24798717611856
 20
-111.3913058532286
 30
0.0
 10
79.63234861290442
 20
-111.3913058532286
 30
0.0
 10
79.63234861290442
 20
-111.3913058532286
 30
0.0
 10
79.63234861290442
 20
-111.3913058532286
 30
0.0
 10
79.56689179868467
 20
-111.8143635788173
 30
0.0
 10
79.56689179868467
 20
-111.8143635788173
 30
0.0
 10
79.62821449832212
 20
-111.7806016430618
 30
0.0
 10
79.71055228041959
 20
-111.7402940258844
 30
0.0
 10
79.82906356511218
 20
-111.7402940258844
 30
0.0
 10
80.0829671023751
 20
-111.7402940258844
 30
0.0
 10
80.31998967176028
 20
-111.9266736916364
 30
0.0
 10
80.31998967176028
 20
-112.2398328712456
 30
0.0
 10
80.31998967176028
 20
-112.5571261654371
 30
0.0
 10
80.09571395567052
 20
-112.7917371679826
 30
0.0
 10
79.79323457206559
 20
-112.7917371679826
 30
0.0
  0
HATCH
  5
A9
330
A2
100
AcDbEntity
  8
_U+30EC_U+30A4_U+30E4_U+30FC 1
 62
   179
420
  2234388
100
AcDbHatch
 10
0.0
 20
0.0
 30
0.0
210
0.0
220
0.0
230
1.0
  2
SOLID
 70
     1
 71
     0
 91
        1
 92
        1
 93
        1
 72
     4
 94
        3
 73
     0
 74
     1
 95
       53
 96
       49
 40
0.0
 40
0.0
 40
0.0
 40
0.0
 40
1.0
 40
1.0
 40
1.0
 40
2.0
 40
2.0
 40
2.0
 40
3.0
 40
3.0
 40
3.0
 40
4.0
 40
4.0
 40
4.0
 40
5.0
 40
5.0
 40
5.0
 40
6.0
 40
6.0
 40
6.0
 40
7.0
 40
7.0
 40
7.0
 40
8.0
 40
8.0
 40
8.0
 40
9.0
 40
9.0
 40
9.0
 40
10.0
 40
10.0
 40
10.0
 40
11.0
 40
11.0
 40
11.0
 40
12.0
 40
12.0
 40
12.0
 40
13.0
 40
13.0
 40
13.0
 40
14.0
 40
14.0
 40
14.0
 40
15.0
 40
15.0
 40
15.0
 40
16.0
 40
16.0
 40
16.0
 40
16.0
 10
79.79323457206559
 20
-112.7917371679826
 10
79.71503090455042
 20
-112.7917371679826
 10
79.61340058773554
 20
-112.7748562001049
 10
79.51177027092068
 20
-112.7114664431763
 10
79.3384819680126
 20
-112.6015678971968
 10
79.31712237600405
 20
-112.4703097592088
 10
79.29817435083518
 20
-112.3624782705205
 10
79.29817435083518
 20
-112.3624782705205
 10
79.5203830096338
 20
-112.3624782705205
 10
79.5203830096338
 20
-112.3624782705205
 10
79.57516002784926
 20
-112.5612602800194
 10
79.70228405125499
 20
-112.5908881011926
 10
79.79530162935673
 20
-112.5908881011926
 10
79.93482799650936
 20
-112.5908881011926
 10
80.0871012169574
 20
-112.4913248416688
 10
80.0871012169574
 20
-112.2587808964145
 10
80.0871012169574
 20
-112.0028103018604
 10
79.90726723262735
 20
-111.9328748635098
 10
79.7866888906436
 20
-111.9328748635098
 10
79.75499401217931
 20
-111.9328748635098
 10
79.61340058773554
 20
-111.9328748635098
 10
79.5245171242161
 20
-112.0620659442067
 10
79.5245171242161
 20
-112.0620659442067
 10
79.34881725446836
 20
-112.0431179190378
 10
79.34881725446836
 20
-112.0431179190378
 10
79.34881725446836
 20
-112.0431179190378
 10
79.4693955964521
 20
-111.1966579583119
 10
79.4693955964521
 20
-111.1966579583119
 10
79.4693955964521
 20
-111.1966579583119
 10
80.24798717611856
 20
-111.1966579583119
 10
80.24798717611856
 20
-111.1966579583119
 10
80.24798717611856
 20
-111.1966579583119
 10
80.24798717611856
 20
-111.3913058532286
 10
80.24798717611856
 20
-111.3913058532286
 10
80.24798717611856
 20
-111.3913058532286
 10
79.63234861290442
 20
-111.3913058532286
 10
79.63234861290442
 20
-111.3913058532286
 10
79.63234861290442
 20
-111.3913058532286
 10
79.56689179868467
 20
-111.8143635788173
 10
79.56689179868467
 20
-111.8143635788173
 10
79.62821449832212
 20
-111.7806016430618
 10
79.71055228041959
 20
-111.7402940258844
 10
79.82906356511218
 20
-111.7402940258844
 10
80.0829671023751
 20
-111.7402940258844
 10
80.31998967176028
 20
-111.9266736916364
 10
80.31998967176028
 20
-112.2398328712456
 10
80.31998967176028
 20
-112.5571261654371
 10
80.09571395567052
 20
-112.7917371679826
 10
79.79323457206559
 20
-112.7917371679826
 97
        0
 97
        0
 75
     2
 76
     1
 98
        0
  0
ENDBLK
  5
A5
330
A2
100
AcDbEntity
  8
0
100
AcDbBlockEnd
  0
BLOCK
  5
AC
330
AA
100
AcDbEntity
  8
0
100
AcDbBlockBegin
  2
block 3
 70
     0
 10
0.0
 20
0.0
 30
0.0
  3
block 3
  1

  0
SPLINE
  5
AE
330
AA
100
AcDbEntity
  8
_U+30EC_U+30A4_U+30E4_U+30FC 1
370
     0
100
AcDbSpline
210
0.0
220
0.0
230
1.0
 70
    11
 71
     3
 72
    26
 73
    22
 74
     0
 42
0.0000000001
 43
0.0000000001
 12
1.0
 22
0.0
 32
0.0
 13
1.0
 23
0.0
 33
0.0
 40
0.0
 40
0.0
 40
0.0
 40
0.0
 40
1.0
 40
1.0
 40
1.0
 40
2.0
 40
2.0
 40
2.0
 40
3.0
 40
3.0
 40
3.0
 40
4.0
 40
4.0
 40
4.0
 40
5.0
 40
5.0
 40
5.0
 40
6.0
 40
6.0
 40
6.0
 40
7.0
 40
7.0
 40
7.0
 40
7.0
 10
110.1679524464164
 20
-112.4396484093901
 30
0.0
 10
110.1679524464164
 20
-112.4396484093901
 30
0.0
 10
109.0637993433938
 20
-112.4396484093901
 30
0.0
 10
109.0637993433938
 20
-112.4396484093901
 30
0.0
 10
109.0637993433938
 20
-112.4396484093901
 30
0.0
 10
109.0637993433938
 20
-112.769688556877
 30
0.0
 10
109.0637993433938
 20
-112.769688556877
 30
0.0
 10
109.0637993433938
 20
-112.769688556877
 30
0.0
 10
108.915660237528
 20
-112.769688556877
 30
0.0
 10
108.915660237528
 20
-112.769688556877
 30
0.0
 10
108.9008463269415
 20
-112.4375813520989
 30
0.0
 10
108.7378933104891
 20
-112.3910725630481
 30
0.0
 10
108.6235161403789
 20
-112.3614447418749
 30
0.0
 10
108.6235161403789
 20
-112.3614447418749
 30
0.0
 10
108.6235161403789
 20
-112.2153726933003
 30
0.0
 10
108.6235161403789
 20
-112.2153726933003
 30
0.0
 10
108.6235161403789
 20
-112.2153726933003
 30
0.0
 10
110.1679524464164
 20
-112.2153726933003
 30
0.0
 10
110.1679524464164
 20
-112.2153726933003
 30
0.0
 10
110.1679524464164
 20
-112.2153726933003
 30
0.0
 10
110.1679524464164
 20
-112.4396484093901
 30
0.0
 10
110.1679524464164
 20
-112.4396484093901
 30
0.0
  0
HATCH
  5
AF
330
AA
100
AcDbEntity
  8
_U+30EC_U+30A4_U+30E4_U+30FC 1
 62
   179
420
  2234388
100
AcDbHatch
 10
0.0
 20
0.0
 30
0.0
210
0.0
220
0.0
230
1.0
  2
SOLID
 70
     1
 71
     0
 91
        1
 92
        1
 93
        1
 72
     4
 94
        3
 73
     0
 74
     1
 95
       26
 96
       22
 40
0.0
 40
0.0
 40
0.0
 40
0.0
 40
1.0
 40
1.0
 40
1.0
 40
2.0
 40
2.0
 40
2.0
 40
3.0
 40
3.0
 40
3.0
 40
4.0
 40
4.0
 40
4.0
 40
5.0
 40
5.0
 40
5.0
 40
6.0
 40
6.0
 40
6.0
 40
7.0
 40
7.0
 40
7.0
 40
7.0
 10
110.1679524464164
 20
-112.4396484093901
 10
110.1679524464164
 20
-112.4396484093901
 10
109.0637993433938
 20
-112.4396484093901
 10
109.0637993433938
 20
-112.4396484093901
 10
109.0637993433938
 20
-112.4396484093901
 10
109.0637993433938
 20
-112.769688556877
 10
109.0637993433938
 20
-112.769688556877
 10
109.0637993433938
 20
-112.769688556877
 10
108.915660237528
 20
-112.769688556877
 10
108.915660237528
 20
-112.769688556877
 10
108.9008463269415
 20
-112.4375813520989
 10
108.7378933104891
 20
-112.3910725630481
 10
108.6235161403789
 20
-112.3614447418749
 10
108.6235161403789
 20
-112.3614447418749
 10
108.6235161403789
 20
-112.2153726933003
 10
108.6235161403789
 20
-112.2153726933003
 10
108.6235161403789
 20
-112.2153726933003
 10
110.1679524464164
 20
-112.2153726933003
 10
110.1679524464164
 20
-112.2153726933003
 10
110.1679524464164
 20
-112.2153726933003
 10
110.1679524464164
 20
-112.4396484093901
 10
110.1679524464164
 20
-112.4396484093901
 97
        0
 97
        0
 75
     2
 76
     1
 98
        0
  0
POLYLINE
  5
B0
330
AA
100
AcDbEntity
  8
_U+30EC_U+30A4_U+30E4_U+30FC 1
370
     0
100
AcDb2dPolyline
 66
     1
 10
0.0
 20
0.0
 30
0.0
  0
VERTEX
  5
B1
330
B0
100
AcDbEntity
  8
_U+30EC_U+30A4_U+30E4_U+30FC 1
370
     0
100
AcDbVertex
100
AcDb2dVertex
 10
110.1679524464164
 20
-111.6541666387531
 30
0.0
  0
VERTEX
  5
B2
330
B0
100
AcDbEntity
  8
_U+30EC_U+30A4_U+30E4_U+30FC 1
370
     0
100
AcDbVertex
100
AcDb2dVertex
 10
109.9161159664446
 20
-111.6541666387531
 30
0.0
  0
VERTEX
  5
B3
330
B0
100
AcDbEntity
  8
_U+30EC_U+30A4_U+30E4_U+30FC 1
370
     0
100
AcDbVertex
100
AcDb2dVertex
 10
109.9161159664446
 20
-111.4023301587814
 30
0.0
  0
VERTEX
  5
B4
330
B0
100
AcDbEntity
  8
_U+30EC_U+30A4_U+30E4_U+30FC 1
370
     0
100
AcDbVertex
100
AcDb2dVertex
 10
110.1679524464164
 20
-111.4023301587814
 30
0.0
  0
VERTEX
  5
B5
330
B0
100
AcDbEntity
  8
_U+30EC_U+30A4_U+30E4_U+30FC 1
370
     0
100
AcDbVertex
100
AcDb2dVertex
 10
110.1679524464164
 20
-111.6541666387531
 30
0.0
  0
SEQEND
  5
B6
330
B0
100
AcDbEntity
  8
_U+30EC_U+30A4_U+30E4_U+30FC 1
370
     0
  0
HATCH
  5
B7
330
AA
100
AcDbEntity
  8
_U+30EC_U+30A4_U+30E4_U+30FC 1
 62
   179
420
  2234388
100
AcDbHatch
 10
0.0
 20
0.0
 30
0.0
210
0.0
220
0.0
230
1.0
  2
SOLID
 70
     1
 71
     0
 91
        1
 92
        1
 93
        4
 72
     1
 10
110.1679524464164
 20
-111.6541666387531
 11
109.9161159664446
 21
-111.6541666387531
 72
     1
 10
109.9161159664446
 20
-111.6541666387531
 11
109.9161159664446
 21
-111.4023301587814
 72
     1
 10
109.9161159664446
 20
-111.4023301587814
 11
110.1679524464164
 21
-111.4023301587814
 72
     1
 10
110.1679524464164
 20
-111.4023301587814
 11
110.1679524464164
 21
-111.6541666387531
 97
        0
 75
     2
 76
     1
 98
        0
  0
SPLINE
  5
B8
330
AA
100
AcDbEntity
  8
_U+30EC_U+30A4_U+30E4_U+30FC 1
370
     0
100
AcDbSpline
210
0.0
220
0.0
230
1.0
 70
    11
 71
     3
 72
    53
 73
    49
 74
     0
 42
0.0000000001
 43
0.0000000001
 12
1.0
 22
0.0
 32
0.0
 13
1.0
 23
0.0
 33
0.0
 40
0.0
 40
0.0
 40
0.0
 40
0.0
 40
1.0
 40
1.0
 40
1.0
 40
2.0
 40
2.0
 40
2.0
 40
3.0
 40
3.0
 40
3.0
 40
4.0
 40
4.0
 40
4.0
 40
5.0
 40
5.0
 40
5.0
 40
6.0
 40
6.0
 40
6.0
 40
7.0
 40
7.0
 40
7.0
 40
8.0
 40
8.0
 40
8.0
 40
9.0
 40
9.0
 40
9.0
 40
10.0
 40
10.0
 40
10.0
 40
11.0
 40
11.0
 40
11.0
 40
12.0
 40
12.0
 40
12.0
 40
13.0
 40
13.0
 40
13.0
 40
14.0
 40
14.0
 40
14.0
 40
15.0
 40
15.0
 40
15.0
 40
16.0
 40
16.0
 40
16.0
 40
16.0
 10
110.2185953500495
 20
-110.6850612787524
 30
0.0
 10
110.2185953500495
 20
-110.7632649462675
 30
0.0
 10
110.2017143821718
 20
-110.8648952630824
 30
0.0
 10
110.1383246252432
 20
-110.9665255798973
 30
0.0
 10
110.0284260792637
 20
-111.1398138828053
 30
0.0
 10
109.8971679412757
 20
-111.1611734748139
 30
0.0
 10
109.7893364525874
 20
-111.1801214999827
 30
0.0
 10
109.7893364525874
 20
-111.1801214999827
 30
0.0
 10
109.7893364525874
 20
-110.9579128411841
 30
0.0
 10
109.7893364525874
 20
-110.9579128411841
 30
0.0
 10
109.9881184620863
 20
-110.9031358229687
 30
0.0
 10
110.0177462832595
 20
-110.776011799563
 30
0.0
 10
110.0177462832595
 20
-110.6829942214612
 30
0.0
 10
110.0177462832595
 20
-110.5434678543086
 30
0.0
 10
109.9181830237357
 20
-110.3911946338605
 30
0.0
 10
109.6856390784814
 20
-110.3911946338605
 30
0.0
 10
109.4296684839273
 20
-110.3911946338605
 30
0.0
 10
109.3597330455767
 20
-110.5710286181906
 30
0.0
 10
109.3597330455767
 20
-110.6916069601743
 30
0.0
 10
109.3597330455767
 20
-110.7233018386386
 30
0.0
 10
109.3597330455767
 20
-110.8648952630824
 30
0.0
 10
109.4889241262736
 20
-110.9537787266018
 30
0.0
 10
109.4889241262736
 20
-110.9537787266018
 30
0.0
 10
109.4699761011047
 20
-111.1294785963496
 30
0.0
 10
109.4699761011047
 20
-111.1294785963496
 30
0.0
 10
109.4699761011047
 20
-111.1294785963496
 30
0.0
 10
108.6235161403789
 20
-111.0089002543658
 30
0.0
 10
108.6235161403789
 20
-111.0089002543658
 30
0.0
 10
108.6235161403789
 20
-111.0089002543658
 30
0.0
 10
108.6235161403789
 20
-110.2303086746994
 30
0.0
 10
108.6235161403789
 20
-110.2303086746994
 30
0.0
 10
108.6235161403789
 20
-110.2303086746994
 30
0.0
 10
108.8181640352955
 20
-110.2303086746994
 30
0.0
 10
108.8181640352955
 20
-110.2303086746994
 30
0.0
 10
108.8181640352955
 20
-110.2303086746994
 30
0.0
 10
108.8181640352955
 20
-110.8459472379135
 30
0.0
 10
108.8181640352955
 20
-110.8459472379135
 30
0.0
 10
108.8181640352955
 20
-110.8459472379135
 30
0.0
 10
109.2412217608841
 20
-110.9114040521333
 30
0.0
 10
109.2412217608841
 20
-110.9114040521333
 30
0.0
 10
109.2074598251287
 20
-110.8500813524958
 30
0.0
 10
109.1671522079513
 20
-110.7677435703984
 30
0.0
 10
109.1671522079513
 20
-110.6492322857058
 30
0.0
 10
109.1671522079513
 20
-110.3953287484428
 30
0.0
 10
109.3535318737033
 20
-110.1583061790576
 30
0.0
 10
109.6666910533125
 20
-110.1583061790576
 30
0.0
 10
109.983984347504
 20
-110.1583061790576
 30
0.0
 10
110.2185953500495
 20
-110.3825818951474
 30
0.0
 10
110.2185953500495
 20
-110.6850612787524
 30
0.0
  0
HATCH
  5
B9
330
AA
100
AcDbEntity
  8
_U+30EC_U+30A4_U+30E4_U+30FC 1
 62
   179
420
  2234388
100
AcDbHatch
 10
0.0
 20
0.0
 30
0.0
210
0.0
220
0.0
230
1.0
  2
SOLID
 70
     1
 71
     0
 91
        1
 92
        1
 93
        1
 72
     4
 94
        3
 73
     0
 74
     1
 95
       53
 96
       49
 40
0.0
 40
0.0
 40
0.0
 40
0.0
 40
1.0
 40
1.0
 40
1.0
 40
2.0
 40
2.0
 40
2.0
 40
3.0
 40
3.0
 40
3.0
 40
4.0
 40
4.0
 40
4.0
 40
5.0
 40
5.0
 40
5.0
 40
6.0
 40
6.0
 40
6.0
 40
7.0
 40
7.0
 40
7.0
 40
8.0
 40
8.0
 40
8.0
 40
9.0
 40
9.0
 40
9.0
 40
10.0
 40
10.0
 40
10.0
 40
11.0
 40
11.0
 40
11.0
 40
12.0
 40
12.0
 40
12.0
 40
13.0
 40
13.0
 40
13.0
 40
14.0
 40
14.0
 40
14.0
 40
15.0
 40
15.0
 40
15.0
 40
16.0
 40
16.0
 40
16.0
 40
16.0
 10
110.2185953500495
 20
-110.6850612787524
 10
110.2185953500495
 20
-110.7632649462675
 10
110.2017143821718
 20
-110.8648952630824
 10
110.1383246252432
 20
-110.9665255798973
 10
110.0284260792637
 20
-111.1398138828053
 10
109.8971679412757
 20
-111.1611734748139
 10
109.7893364525874
 20
-111.1801214999827
 10
109.7893364525874
 20
-111.1801214999827
 10
109.7893364525874
 20
-110.9579128411841
 10
109.7893364525874
 20
-110.9579128411841
 10
109.9881184620863
 20
-110.9031358229687
 10
110.0177462832595
 20
-110.776011799563
 10
110.0177462832595
 20
-110.6829942214612
 10
110.0177462832595
 20
-110.5434678543086
 10
109.9181830237357
 20
-110.3911946338605
 10
109.6856390784814
 20
-110.3911946338605
 10
109.4296684839273
 20
-110.3911946338605
 10
109.3597330455767
 20
-110.5710286181906
 10
109.3597330455767
 20
-110.6916069601743
 10
109.3597330455767
 20
-110.7233018386386
 10
109.3597330455767
 20
-110.8648952630824
 10
109.4889241262736
 20
-110.9537787266018
 10
109.4889241262736
 20
-110.9537787266018
 10
109.4699761011047
 20
-111.1294785963496
 10
109.4699761011047
 20
-111.1294785963496
 10
109.4699761011047
 20
-111.1294785963496
 10
108.6235161403789
 20
-111.0089002543658
 10
108.6235161403789
 20
-111.0089002543658
 10
108.6235161403789
 20
-111.0089002543658
 10
108.6235161403789
 20
-110.2303086746994
 10
108.6235161403789
 20
-110.2303086746994
 10
108.6235161403789
 20
-110.2303086746994
 10
108.8181640352955
 20
-110.2303086746994
 10
108.8181640352955
 20
-110.2303086746994
 10
108.8181640352955
 20
-110.2303086746994
 10
108.8181640352955
 20
-110.8459472379135
 10
108.8181640352955
 20
-110.8459472379135
 10
108.8181640352955
 20
-110.8459472379135
 10
109.2412217608841
 20
-110.9114040521333
 10
109.2412217608841
 20
-110.9114040521333
 10
109.2074598251287
 20
-110.8500813524958
 10
109.1671522079513
 20
-110.7677435703984
 10
109.1671522079513
 20
-110.6492322857058
 10
109.1671522079513
 20
-110.3953287484428
 10
109.3535318737033
 20
-110.1583061790576
 10
109.6666910533125
 20
-110.1583061790576
 10
109.983984347504
 20
-110.1583061790576
 10
110.2185953500495
 20
-110.3825818951474
 10
110.2185953500495
 20
-110.6850612787524
 97
        0
 97
        0
 75
     2
 76
     1
 98
        0
  0
ENDBLK
  5
AD
330
AA
100
AcDbEntity
  8
0
100
AcDbBlockEnd
  0
BLOCK
  5
BC
330
BA
100
AcDbEntity
  8
0
100
AcDbBlockBegin
  2
block 4
 70
     0
 10
0.0
 20
0.0
 30
0.0
  3
block 4
  1

  0
SPLINE
  5
BE
330
BA
100
AcDbEntity
  8
_U+30EC_U+30A4_U+30E4_U+30FC 1
370
     0
100
AcDbSpline
210
0.0
220
0.0
230
1.0
 70
    11
 71
     3
 72
    44
 73
    40
 74
     0
 42
0.0000000001
 43
0.0000000001
 12
1.0
 22
0.0
 32
0.0
 13
1.0
 23
0.0
 33
0.0
 40
0.0
 40
0.0
 40
0.0
 40
0.0
 40
1.0
 40
1.0
 40
1.0
 40
2.0
 40
2.0
 40
2.0
 40
3.0
 40
3.0
 40
3.0
 40
4.0
 40
4.0
 40
4.0
 40
5.0
 40
5.0
 40
5.0
 40
6.0
 40
6.0
 40
6.0
 40
7.0
 40
7.0
 40
7.0
 40
8.0
 40
8.0
 40
8.0
 40
9.0
 40
9.0
 40
9.0
 40
10.0
 40
10.0
 40
10.0
 40
11.0
 40
11.0
 40
11.0
 40
12.0
 40
12.0
 40
12.0
 40
13.0
 40
13.0
 40
13.0
 40
13.0
 10
109.5953775767678
 20
-129.5497151368834
 30
0.0
 10
109.7541964786379
 20
-129.7674451715512
 30
0.0
 10
109.8282660315707
 20
-129.860462749653
 30
0.0
 10
109.9719265133056
 20
-129.9093831055435
 30
0.0
 10
109.9719265133056
 20
-129.9093831055435
 30
0.0
 10
109.9719265133056
 20
-129.130791525877
 30
0.0
 10
109.9719265133056
 20
-129.130791525877
 30
0.0
 10
109.9719265133056
 20
-129.130791525877
 30
0.0
 10
110.1772542042265
 20
-129.130791525877
 30
0.0
 10
110.1772542042265
 20
-129.130791525877
 30
0.0
 10
110.1772542042265
 20
-129.130791525877
 30
0.0
 10
110.1772542042265
 20
-130.1588080186756
 30
0.0
 10
110.1772542042265
 20
-130.1588080186756
 30
0.0
 10
109.8196532928576
 20
-130.1271131402113
 30
0.0
 10
109.7414496253424
 20
-130.0616563259915
 30
0.0
 10
109.4431043563198
 20
-129.6764946507406
 30
0.0
 10
109.2443223468209
 20
-129.4205240561865
 30
0.0
 10
109.1764539657615
 20
-129.3550672419668
 30
0.0
 10
109.0389946559
 20
-129.3550672419668
 30
0.0
 10
108.9204833712074
 20
-129.3550672419668
 30
0.0
 10
108.7895697427679
 20
-129.4270697376085
 30
0.0
 10
108.7895697427679
 20
-129.6237846898163
 30
0.0
 10
108.7895697427679
 20
-129.8838893989526
 30
0.0
 10
109.0200466307311
 20
-129.8925021376658
 30
0.0
 10
109.1364908581325
 20
-129.8966362522481
 30
0.0
 10
109.1364908581325
 20
-129.8966362522481
 30
0.0
 10
109.1364908581325
 20
-130.1209119683378
 30
0.0
 10
109.1364908581325
 20
-130.1209119683378
 30
0.0
 10
109.0093668347268
 20
-130.1122992296247
 30
0.0
 10
108.8974012314562
 20
-130.1016194336204
 30
0.0
 10
108.7788899467636
 20
-130.0213487088141
 30
0.0
 10
108.6180039876024
 20
-129.9114501628347
 30
0.0
 10
108.584242051847
 20
-129.7250704970826
 30
0.0
 10
108.584242051847
 20
-129.6089707792297
 30
0.0
 10
108.584242051847
 20
-129.3316405926671
 30
0.0
 10
108.7682101507593
 20
-129.1242458444551
 30
0.0
 10
109.0410617131911
 20
-129.1242458444551
 30
0.0
 10
109.2698160534117
 20
-129.1242458444551
 30
0.0
 10
109.3690348033869
 20
-129.2406900718565
 30
0.0
 10
109.5953775767678
 20
-129.5497151368834
 30
0.0
  0
HATCH
  5
BF
330
BA
100
AcDbEntity
  8
_U+30EC_U+30A4_U+30E4_U+30FC 1
 62
   179
420
  2234388
100
AcDbHatch
 10
0.0
 20
0.0
 30
0.0
210
0.0
220
0.0
230
1.0
  2
SOLID
 70
     1
 71
     0
 91
        1
 92
        1
 93
        1
 72
     4
 94
        3
 73
     0
 74
     1
 95
       44
 96
       40
 40
0.0
 40
0.0
 40
0.0
 40
0.0
 40
1.0
 40
1.0
 40
1.0
 40
2.0
 40
2.0
 40
2.0
 40
3.0
 40
3.0
 40
3.0
 40
4.0
 40
4.0
 40
4.0
 40
5.0
 40
5.0
 40
5.0
 40
6.0
 40
6.0
 40
6.0
 40
7.0
 40
7.0
 40
7.0
 40
8.0
 40
8.0
 40
8.0
 40
9.0
 40
9.0
 40
9.0
 40
10.0
 40
10.0
 40
10.0
 40
11.0
 40
11.0
 40
11.0
 40
12.0
 40
12.0
 40
12.0
 40
13.0
 40
13.0
 40
13.0
 40
13.0
 10
109.5953775767678
 20
-129.5497151368834
 10
109.7541964786379
 20
-129.7674451715512
 10
109.8282660315707
 20
-129.860462749653
 10
109.9719265133056
 20
-129.9093831055435
 10
109.9719265133056
 20
-129.9093831055435
 10
109.9719265133056
 20
-129.130791525877
 10
109.9719265133056
 20
-129.130791525877
 10
109.9719265133056
 20
-129.130791525877
 10
110.1772542042265
 20
-129.130791525877
 10
110.1772542042265
 20
-129.130791525877
 10
110.1772542042265
 20
-129.130791525877
 10
110.1772542042265
 20
-130.1588080186756
 10
110.1772542042265
 20
-130.1588080186756
 10
109.8196532928576
 20
-130.1271131402113
 10
109.7414496253424
 20
-130.0616563259915
 10
109.4431043563198
 20
-129.6764946507406
 10
109.2443223468209
 20
-129.4205240561865
 10
109.1764539657615
 20
-129.3550672419668
 10
109.0389946559
 20
-129.3550672419668
 10
108.9204833712074
 20
-129.3550672419668
 10
108.7895697427679
 20
-129.4270697376085
 10
108.7895697427679
 20
-129.6237846898163
 10
108.7895697427679
 20
-129.8838893989526
 10
109.0200466307311
 20
-129.8925021376658
 10
109.1364908581325
 20
-129.8966362522481
 10
109.1364908581325
 20
-129.8966362522481
 10
109.1364908581325
 20
-130.1209119683378
 10
109.1364908581325
 20
-130.1209119683378
 10
109.0093668347268
 20
-130.1122992296247
 10
108.8974012314562
 20
-130.1016194336204
 10
108.7788899467636
 20
-130.0213487088141
 10
108.6180039876024
 20
-129.9114501628347
 10
108.584242051847
 20
-129.7250704970826
 10
108.584242051847
 20
-129.6089707792297
 10
108.584242051847
 20
-129.3316405926671
 10
108.7682101507593
 20
-129.1242458444551
 10
109.0410617131911
 20
-129.1242458444551
 10
109.2698160534117
 20
-129.1242458444551
 10
109.3690348033869
 20
-129.2406900718565
 10
109.5953775767678
 20
-129.5497151368834
 97
        0
 97
        0
 75
     2
 76
     1
 98
        0
  0
SPLINE
  5
C0
330
BA
100
AcDbEntity
  8
_U+30EC_U+30A4_U+30E4_U+30FC 1
370
     0
100
AcDbSpline
210
0.0
220
0.0
230
1.0
 70
    11
 71
     3
 72
    53
 73
    49
 74
     0
 42
0.0000000001
 43
0.0000000001
 12
1.0
 22
0.0
 32
0.0
 13
1.0
 23
0.0
 33
0.0
 40
0.0
 40
0.0
 40
0.0
 40
0.0
 40
1.0
 40
1.0
 40
1.0
 40
2.0
 40
2.0
 40
2.0
 40
3.0
 40
3.0
 40
3.0
 40
4.0
 40
4.0
 40
4.0
 40
5.0
 40
5.0
 40
5.0
 40
6.0
 40
6.0
 40
6.0
 40
7.0
 40
7.0
 40
7.0
 40
8.0
 40
8.0
 40
8.0
 40
9.0
 40
9.0
 40
9.0
 40
10.0
 40
10.0
 40
10.0
 40
11.0
 40
11.0
 40
11.0
 40
12.0
 40
12.0
 40
12.0
 40
13.0
 40
13.0
 40
13.0
 40
14.0
 40
14.0
 40
14.0
 40
15.0
 40
15.0
 40
15.0
 40
16.0
 40
16.0
 40
16.0
 40
16.0
 10
110.2278971078597
 20
-128.4848361223927
 30
0.0
 10
110.2278971078597
 20
-128.5630397899079
 30
0.0
 10
110.211016139982
 20
-128.6646701067227
 30
0.0
 10
110.1476263830534
 20
-128.7663004235376
 30
0.0
 10
110.0377278370739
 20
-128.9395887264457
 30
0.0
 10
109.9064696990859
 20
-128.9609483184542
 30
0.0
 10
109.7986382103976
 20
-128.9798963436231
 30
0.0
 10
109.7986382103976
 20
-128.9798963436231
 30
0.0
 10
109.7986382103976
 20
-128.7576876848245
 30
0.0
 10
109.7986382103976
 20
-128.7576876848245
 30
0.0
 10
109.9974202198965
 20
-128.702910666609
 30
0.0
 10
110.0270480410696
 20
-128.5757866432033
 30
0.0
 10
110.0270480410696
 20
-128.4827690651015
 30
0.0
 10
110.0270480410696
 20
-128.3432426979489
 30
0.0
 10
109.9274847815459
 20
-128.1909694775009
 30
0.0
 10
109.6949408362916
 20
-128.1909694775009
 30
0.0
 10
109.4389702417375
 20
-128.1909694775009
 30
0.0
 10
109.3690348033869
 20
-128.3708034618309
 30
0.0
 10
109.3690348033869
 20
-128.4913818038146
 30
0.0
 10
109.3690348033869
 20
-128.523076682279
 30
0.0
 10
109.3690348033869
 20
-128.6646701067227
 30
0.0
 10
109.4982258840838
 20
-128.7535535702422
 30
0.0
 10
109.4982258840838
 20
-128.7535535702422
 30
0.0
 10
109.4792778589149
 20
-128.9292534399899
 30
0.0
 10
109.4792778589149
 20
-128.9292534399899
 30
0.0
 10
109.4792778589149
 20
-128.9292534399899
 30
0.0
 10
108.632817898189
 20
-128.8086750980062
 30
0.0
 10
108.632817898189
 20
-128.8086750980062
 30
0.0
 10
108.632817898189
 20
-128.8086750980062
 30
0.0
 10
108.632817898189
 20
-128.0300835183397
 30
0.0
 10
108.632817898189
 20
-128.0300835183397
 30
0.0
 10
108.632817898189
 20
-128.0300835183397
 30
0.0
 10
108.8274657931056
 20
-128.0300835183397
 30
0.0
 10
108.8274657931056
 20
-128.0300835183397
 30
0.0
 10
108.8274657931056
 20
-128.0300835183397
 30
0.0
 10
108.8274657931056
 20
-128.6457220815539
 30
0.0
 10
108.8274657931056
 20
-128.6457220815539
 30
0.0
 10
108.8274657931056
 20
-128.6457220815539
 30
0.0
 10
109.2505235186943
 20
-128.7111788957736
 30
0.0
 10
109.2505235186943
 20
-128.7111788957736
 30
0.0
 10
109.2167615829389
 20
-128.6498561961361
 30
0.0
 10
109.1764539657615
 20
-128.5675184140387
 30
0.0
 10
109.1764539657615
 20
-128.4490071293461
 30
0.0
 10
109.1764539657615
 20
-128.1951035920832
 30
0.0
 10
109.3628336315135
 20
-127.958081022698
 30
0.0
 10
109.6759928111227
 20
-127.958081022698
 30
0.0
 10
109.9932861053142
 20
-127.958081022698
 30
0.0
 10
110.2278971078597
 20
-128.1823567387877
 30
0.0
 10
110.2278971078597
 20
-128.4848361223927
 30
0.0
  0
HATCH
  5
C1
330
BA
100
AcDbEntity
  8
_U+30EC_U+30A4_U+30E4_U+30FC 1
 62
   179
420
  2234388
100
AcDbHatch
 10
0.0
 20
0.0
 30
0.0
210
0.0
220
0.0
230
1.0
  2
SOLID
 70
     1
 71
     0
 91
        1
 92
        1
 93
        1
 72
     4
 94
        3
 73
     0
 74
     1
 95
       53
 96
       49
 40
0.0
 40
0.0
 40
0.0
 40
0.0
 40
1.0
 40
1.0
 40
1.0
 40
2.0
 40
2.0
 40
2.0
 40
3.0
 40
3.0
 40
3.0
 40
4.0
 40
4.0
 40
4.0
 40
5.0
 40
5.0
 40
5.0
 40
6.0
 40
6.0
 40
6.0
 40
7.0
 40
7.0
 40
7.0
 40
8.0
 40
8.0
 40
8.0
 40
9.0
 40
9.0
 40
9.0
 40
10.0
 40
10.0
 40
10.0
 40
11.0
 40
11.0
 40
11.0
 40
12.0
 40
12.0
 40
12.0
 40
13.0
 40
13.0
 40
13.0
 40
14.0
 40
14.0
 40
14.0
 40
15.0
 40
15.0
 40
15.0
 40
16.0
 40
16.0
 40
16.0
 40
16.0
 10
110.2278971078597
 20
-128.4848361223927
 10
110.2278971078597
 20
-128.5630397899079
 10
110.211016139982
 20
-128.6646701067227
 10
110.1476263830534
 20
-128.7663004235376
 10
110.0377278370739
 20
-128.9395887264457
 10
109.9064696990859
 20
-128.9609483184542
 10
109.7986382103976
 20
-128.9798963436231
 10
109.7986382103976
 20
-128.9798963436231
 10
109.7986382103976
 20
-128.7576876848245
 10
109.7986382103976
 20
-128.7576876848245
 10
109.9974202198965
 20
-128.702910666609
 10
110.0270480410696
 20
-128.5757866432033
 10
110.0270480410696
 20
-128.4827690651015
 10
110.0270480410696
 20
-128.3432426979489
 10
109.9274847815459
 20
-128.1909694775009
 10
109.6949408362916
 20
-128.1909694775009
 10
109.4389702417375
 20
-128.1909694775009
 10
109.3690348033869
 20
-128.3708034618309
 10
109.3690348033869
 20
-128.4913818038146
 10
109.3690348033869
 20
-128.523076682279
 10
109.3690348033869
 20
-128.6646701067227
 10
109.4982258840838
 20
-128.7535535702422
 10
109.4982258840838
 20
-128.7535535702422
 10
109.4792778589149
 20
-128.9292534399899
 10
109.4792778589149
 20
-128.9292534399899
 10
109.4792778589149
 20
-128.9292534399899
 10
108.632817898189
 20
-128.8086750980062
 10
108.632817898189
 20
-128.8086750980062
 10
108.632817898189
 20
-128.8086750980062
 10
108.632817898189
 20
-128.0300835183397
 10
108.632817898189
 20
-128.0300835183397
 10
108.632817898189
 20
-128.0300835183397
 10
108.8274657931056
 20
-128.0300835183397
 10
108.8274657931056
 20
-128.0300835183397
 10
108.8274657931056
 20
-128.0300835183397
 10
108.8274657931056
 20
-128.6457220815539
 10
108.8274657931056
 20
-128.6457220815539
 10
108.8274657931056
 20
-128.6457220815539
 10
109.2505235186943
 20
-128.7111788957736
 10
109.2505235186943
 20
-128.7111788957736
 10
109.2167615829389
 20
-128.6498561961361
 10
109.1764539657615
 20
-128.5675184140387
 10
109.1764539657615
 20
-128.4490071293461
 10
109.1764539657615
 20
-128.1951035920832
 10
109.3628336315135
 20
-127.958081022698
 10
109.6759928111227
 20
-127.958081022698
 10
109.9932861053142
 20
-127.958081022698
 10
110.2278971078597
 20
-128.1823567387877
 10
110.2278971078597
 20
-128.4848361223927
 97
        0
 97
        0
 75
     2
 76
     1
 98
        0
  0
POLYLINE
  5
C2
330
BA
100
AcDbEntity
  8
_U+30EC_U+30A4_U+30E4_U+30FC 1
370
     0
100
AcDb2dPolyline
 66
     1
 10
0.0
 20
0.0
 30
0.0
  0
VERTEX
  5
C3
330
C2
100
AcDbEntity
  8
_U+30EC_U+30A4_U+30E4_U+30FC 1
370
     0
100
AcDbVertex
100
AcDb2dVertex
 10
110.1772542042265
 20
-127.7289821729289
 30
0.0
  0
VERTEX
  5
C4
330
C2
100
AcDbEntity
  8
_U+30EC_U+30A4_U+30E4_U+30FC 1
370
     0
100
AcDbVertex
100
AcDb2dVertex
 10
109.9254177242548
 20
-127.7289821729289
 30
0.0
  0
VERTEX
  5
C5
330
C2
100
AcDbEntity
  8
_U+30EC_U+30A4_U+30E4_U+30FC 1
370
     0
100
AcDbVertex
100
AcDb2dVertex
 10
109.9254177242548
 20
-127.4771456929571
 30
0.0
  0
VERTEX
  5
C6
330
C2
100
AcDbEntity
  8
_U+30EC_U+30A4_U+30E4_U+30FC 1
370
     0
100
AcDbVertex
100
AcDb2dVertex
 10
110.1772542042265
 20
-127.4771456929571
 30
0.0
  0
VERTEX
  5
C7
330
C2
100
AcDbEntity
  8
_U+30EC_U+30A4_U+30E4_U+30FC 1
370
     0
100
AcDbVertex
100
AcDb2dVertex
 10
110.1772542042265
 20
-127.7289821729289
 30
0.0
  0
SEQEND
  5
C8
330
C2
100
AcDbEntity
  8
_U+30EC_U+30A4_U+30E4_U+30FC 1
370
     0
  0
HATCH
  5
C9
330
BA
100
AcDbEntity
  8
_U+30EC_U+30A4_U+30E4_U+30FC 1
 62
   179
420
  2234388
100
AcDbHatch
 10
0.0
 20
0.0
 30
0.0
210
0.0
220
0.0
230
1.0
  2
SOLID
 70
     1
 71
     0
 91
        1
 92
        1
 93
        4
 72
     1
 10
110.1772542042265
 20
-127.7289821729289
 11
109.9254177242548
 21
-127.7289821729289
 72
     1
 10
109.9254177242548
 20
-127.7289821729289
 11
109.9254177242548
 21
-127.4771456929571
 72
     1
 10
109.9254177242548
 20
-127.4771456929571
 11
110.1772542042265
 21
-127.4771456929571
 72
     1
 10
110.1772542042265
 20
-127.4771456929571
 11
110.1772542042265
 21
-127.7289821729289
 97
        0
 75
     2
 76
     1
 98
        0
  0
SPLINE
  5
CA
330
BA
100
AcDbEntity
  8
_U+30EC_U+30A4_U+30E4_U+30FC 1
370
     0
100
AcDbSpline
210
0.0
220
0.0
230
1.0
 70
    11
 71
     3
 72
    53
 73
    49
 74
     0
 42
0.0000000001
 43
0.0000000001
 12
1.0
 22
0.0
 32
0.0
 13
1.0
 23
0.0
 33
0.0
 40
0.0
 40
0.0
 40
0.0
 40
0.0
 40
1.0
 40
1.0
 40
1.0
 40
2.0
 40
2.0
 40
2.0
 40
3.0
 40
3.0
 40
3.0
 40
4.0
 40
4.0
 40
4.0
 40
5.0
 40
5.0
 40
5.0
 40
6.0
 40
6.0
 40
6.0
 40
7.0
 40
7.0
 40
7.0
 40
8.0
 40
8.0
 40
8.0
 40
9.0
 40
9.0
 40
9.0
 40
10.0
 40
10.0
 40
10.0
 40
11.0
 40
11.0
 40
11.0
 40
12.0
 40
12.0
 40
12.0
 40
13.0
 40
13.0
 40
13.0
 40
14.0
 40
14.0
 40
14.0
 40
15.0
 40
15.0
 40
15.0
 40
16.0
 40
16.0
 40
16.0
 40
16.0
 10
110.2278971078597
 20
-126.7598768129281
 30
0.0
 10
110.2278971078597
 20
-126.8380804804433
 30
0.0
 10
110.211016139982
 20
-126.9397107972581
 30
0.0
 10
110.1476263830534
 20
-127.041341114073
 30
0.0
 10
110.0377278370739
 20
-127.2146294169811
 30
0.0
 10
109.9064696990859
 20
-127.2359890089896
 30
0.0
 10
109.7986382103976
 20
-127.2549370341585
 30
0.0
 10
109.7986382103976
 20
-127.2549370341585
 30
0.0
 10
109.7986382103976
 20
-127.0327283753599
 30
0.0
 10
109.7986382103976
 20
-127.0327283753599
 30
0.0
 10
109.9974202198965
 20
-126.9779513571444
 30
0.0
 10
110.0270480410696
 20
-126.8508273337387
 30
0.0
 10
110.0270480410696
 20
-126.7578097556369
 30
0.0
 10
110.0270480410696
 20
-126.6182833884843
 30
0.0
 10
109.9274847815459
 20
-126.4660101680363
 30
0.0
 10
109.6949408362916
 20
-126.4660101680363
 30
0.0
 10
109.4389702417375
 20
-126.4660101680363
 30
0.0
 10
109.3690348033869
 20
-126.6458441523663
 30
0.0
 10
109.3690348033869
 20
-126.7664224943501
 30
0.0
 10
109.3690348033869
 20
-126.7981173728144
 30
0.0
 10
109.3690348033869
 20
-126.9397107972581
 30
0.0
 10
109.4982258840838
 20
-127.0285942607776
 30
0.0
 10
109.4982258840838
 20
-127.0285942607776
 30
0.0
 10
109.4792778589149
 20
-127.2042941305253
 30
0.0
 10
109.4792778589149
 20
-127.2042941305253
 30
0.0
 10
109.4792778589149
 20
-127.2042941305253
 30
0.0
 10
108.632817898189
 20
-127.0837157885416
 30
0.0
 10
108.632817898189
 20
-127.0837157885416
 30
0.0
 10
108.632817898189
 20
-127.0837157885416
 30
0.0
 10
108.632817898189
 20
-126.3051242088751
 30
0.0
 10
108.632817898189
 20
-126.3051242088751
 30
0.0
 10
108.632817898189
 20
-126.3051242088751
 30
0.0
 10
108.8274657931056
 20
-126.3051242088751
 30
0.0
 10
108.8274657931056
 20
-126.3051242088751
 30
0.0
 10
108.8274657931056
 20
-126.3051242088751
 30
0.0
 10
108.8274657931056
 20
-126.9207627720893
 30
0.0
 10
108.8274657931056
 20
-126.9207627720893
 30
0.0
 10
108.8274657931056
 20
-126.9207627720893
 30
0.0
 10
109.2505235186943
 20
-126.986219586309
 30
0.0
 10
109.2505235186943
 20
-126.986219586309
 30
0.0
 10
109.2167615829389
 20
-126.9248968866716
 30
0.0
 10
109.1764539657615
 20
-126.8425591045741
 30
0.0
 10
109.1764539657615
 20
-126.7240478198815
 30
0.0
 10
109.1764539657615
 20
-126.4701442826186
 30
0.0
 10
109.3628336315135
 20
-126.2331217132334
 30
0.0
 10
109.6759928111227
 20
-126.2331217132334
 30
0.0
 10
109.9932861053142
 20
-126.2331217132334
 30
0.0
 10
110.2278971078597
 20
-126.4573974293232
 30
0.0
 10
110.2278971078597
 20
-126.7598768129281
 30
0.0
  0
HATCH
  5
CB
330
BA
100
AcDbEntity
  8
_U+30EC_U+30A4_U+30E4_U+30FC 1
 62
   179
420
  2234388
100
AcDbHatch
 10
0.0
 20
0.0
 30
0.0
210
0.0
220
0.0
230
1.0
  2
SOLID
 70
     1
 71
     0
 91
        1
 92
        1
 93
        1
 72
     4
 94
        3
 73
     0
 74
     1
 95
       53
 96
       49
 40
0.0
 40
0.0
 40
0.0
 40
0.0
 40
1.0
 40
1.0
 40
1.0
 40
2.0
 40
2.0
 40
2.0
 40
3.0
 40
3.0
 40
3.0
 40
4.0
 40
4.0
 40
4.0
 40
5.0
 40
5.0
 40
5.0
 40
6.0
 40
6.0
 40
6.0
 40
7.0
 40
7.0
 40
7.0
 40
8.0
 40
8.0
 40
8.0
 40
9.0
 40
9.0
 40
9.0
 40
10.0
 40
10.0
 40
10.0
 40
11.0
 40
11.0
 40
11.0
 40
12.0
 40
12.0
 40
12.0
 40
13.0
 40
13.0
 40
13.0
 40
14.0
 40
14.0
 40
14.0
 40
15.0
 40
15.0
 40
15.0
 40
16.0
 40
16.0
 40
16.0
 40
16.0
 10
110.2278971078597
 20
-126.7598768129281
 10
110.2278971078597
 20
-126.8380804804433
 10
110.211016139982
 20
-126.9397107972581
 10
110.1476263830534
 20
-127.041341114073
 10
110.0377278370739
 20
-127.2146294169811
 10
109.9064696990859
 20
-127.2359890089896
 10
109.7986382103976
 20
-127.2549370341585
 10
109.7986382103976
 20
-127.2549370341585
 10
109.7986382103976
 20
-127.0327283753599
 10
109.7986382103976
 20
-127.0327283753599
 10
109.9974202198965
 20
-126.9779513571444
 10
110.0270480410696
 20
-126.8508273337387
 10
110.0270480410696
 20
-126.7578097556369
 10
110.0270480410696
 20
-126.6182833884843
 10
109.9274847815459
 20
-126.4660101680363
 10
109.6949408362916
 20
-126.4660101680363
 10
109.4389702417375
 20
-126.4660101680363
 10
109.3690348033869
 20
-126.6458441523663
 10
109.3690348033869
 20
-126.7664224943501
 10
109.3690348033869
 20
-126.7981173728144
 10
109.3690348033869
 20
-126.9397107972581
 10
109.4982258840838
 20
-127.0285942607776
 10
109.4982258840838
 20
-127.0285942607776
 10
109.4792778589149
 20
-127.2042941305253
 10
109.4792778589149
 20
-127.2042941305253
 10
109.4792778589149
 20
-127.2042941305253
 10
108.632817898189
 20
-127.0837157885416
 10
108.632817898189
 20
-127.0837157885416
 10
108.632817898189
 20
-127.0837157885416
 10
108.632817898189
 20
-126.3051242088751
 10
108.632817898189
 20
-126.3051242088751
 10
108.632817898189
 20
-126.3051242088751
 10
108.8274657931056
 20
-126.3051242088751
 10
108.8274657931056
 20
-126.3051242088751
 10
108.8274657931056
 20
-126.3051242088751
 10
108.8274657931056
 20
-126.9207627720893
 10
108.8274657931056
 20
-126.9207627720893
 10
108.8274657931056
 20
-126.9207627720893
 10
109.2505235186943
 20
-126.986219586309
 10
109.2505235186943
 20
-126.986219586309
 10
109.2167615829389
 20
-126.9248968866716
 10
109.1764539657615
 20
-126.8425591045741
 10
109.1764539657615
 20
-126.7240478198815
 10
109.1764539657615
 20
-126.4701442826186
 10
109.3628336315135
 20
-126.2331217132334
 10
109.6759928111227
 20
-126.2331217132334
 10
109.9932861053142
 20
-126.2331217132334
 10
110.2278971078597
 20
-126.4573974293232
 10
110.2278971078597
 20
-126.7598768129281
 97
        0
 97
        0
 75
     2
 76
     1
 98
        0
  0
ENDBLK
  5
BD
330
BA
100
AcDbEntity
  8
0
100
AcDbBlockEnd
  0
BLOCK
  5
CE
330
CC
100
AcDbEntity
  8
0
100
AcDbBlockBegin
  2
block 5
 70
     0
 10
0.0
 20
0.0
 30
0.0
  3
block 5
  1

  0
SPLINE
  5
D0
330
CC
100
AcDbEntity
  8
_U+30EC_U+30A4_U+30E4_U+30FC 1
370
     0
100
AcDbSpline
210
0.0
220
0.0
230
1.0
 70
    11
 71
     3
 72
    62
 73
    58
 74
     0
 42
0.0000000001
 43
0.0000000001
 12
1.0
 22
0.0
 32
0.0
 13
1.0
 23
0.0
 33
0.0
 40
0.0
 40
0.0
 40
0.0
 40
0.0
 40
1.0
 40
1.0
 40
1.0
 40
2.0
 40
2.0
 40
2.0
 40
3.0
 40
3.0
 40
3.0
 40
4.0
 40
4.0
 40
4.0
 40
5.0
 40
5.0
 40
5.0
 40
6.0
 40
6.0
 40
6.0
 40
7.0
 40
7.0
 40
7.0
 40
8.0
 40
8.0
 40
8.0
 40
9.0
 40
9.0
 40
9.0
 40
10.0
 40
10.0
 40
10.0
 40
11.0
 40
11.0
 40
11.0
 40
12.0
 40
12.0
 40
12.0
 40
13.0
 40
13.0
 40
13.0
 40
14.0
 40
14.0
 40
14.0
 40
15.0
 40
15.0
 40
15.0
 40
16.0
 40
16.0
 40
16.0
 40
17.0
 40
17.0
 40
17.0
 40
18.0
 40
18.0
 40
18.0
 40
19.0
 40
19.0
 40
19.0
 40
19.0
 10
88.21614852395291
 20
-147.5999484223014
 30
0.0
 10
88.12071937901149
 20
-147.5999484223014
 30
0.0
 10
87.9029893443437
 20
-147.5789333398414
 30
0.0
 10
87.77793237822914
 20
-147.3928981836379
 30
0.0
 10
87.70386282529626
 20
-147.2805880708187
 30
0.0
 10
87.69972871071396
 20
-147.1813693208435
 30
0.0
 10
87.69559459613166
 20
-147.0966199719064
 30
0.0
 10
87.69559459613166
 20
-147.0966199719064
 30
0.0
 10
87.91573619763912
 20
-147.0966199719064
 30
0.0
 10
87.91573619763912
 20
-147.0966199719064
 30
0.0
 10
87.91780325493028
 20
-147.1706895248393
 30
0.0
 10
87.92813854138602
 20
-147.4053005273848
 30
0.0
 10
88.21166989982208
 20
-147.4053005273848
 30
0.0
 10
88.34912920968355
 20
-147.4053005273848
 30
0.0
 10
88.50174693968012
 20
-147.3357095985828
 30
0.0
 10
88.50174693968012
 20
-147.1072997679107
 30
0.0
 10
88.50174693968012
 20
-146.9908555405092
 30
0.0
 10
88.46350637979386
 20
-146.9422796941672
 30
0.0
 10
88.43181150132955
 20
-146.9105848157029
 30
0.0
 10
88.35774194839668
 20
-146.83651526277
 30
0.0
 10
88.24129772099523
 20
-146.8237684094746
 30
0.0
 10
88.18652070277976
 20
-146.8237684094746
 30
0.0
 10
88.16722816806237
 20
-146.8237684094746
 30
0.0
 10
88.13139917501576
 20
-146.8258354667658
 30
0.0
 10
88.10383841113376
 20
-146.8299695813481
 30
0.0
 10
88.10383841113376
 20
-146.8299695813481
 30
0.0
 10
88.10383841113376
 20
-146.6353216864315
 30
0.0
 10
88.10383841113376
 20
-146.6353216864315
 30
0.0
 10
88.14207897102004
 20
-146.6418673678534
 30
0.0
 10
88.18410913594009
 20
-146.6439344251446
 30
0.0
 10
88.19065481736206
 20
-146.6439344251446
 30
0.0
 10
88.2561116315818
 20
-146.6439344251446
 30
0.0
 10
88.45489364108073
 20
-146.622574833136
 30
0.0
 10
88.45489364108073
 20
-146.3858967732994
 30
0.0
 10
88.45489364108073
 20
-146.2081298462605
 30
0.0
 10
88.32398001264123
 20
-146.1530083184965
 30
0.0
 10
88.21373695711324
 20
-146.1530083184965
 30
0.0
 10
87.94949813339457
 20
-146.1530083184965
 30
0.0
 10
87.94088539468144
 20
-146.3858967732994
 30
0.0
 10
87.93675128009914
 20
-146.4575547593926
 30
0.0
 10
87.93675128009914
 20
-146.4575547593926
 30
0.0
 10
87.7334906464694
 20
-146.4575547593926
 30
0.0
 10
87.7334906464694
 20
-146.4575547593926
 30
0.0
 10
87.74210338518253
 20
-146.3328423028265
 30
0.0
 10
87.76966414906454
 20
-145.9562933662887
 30
0.0
 10
88.22648381040867
 20
-145.9562933662887
 30
0.0
 10
88.45075952649843
 20
-145.9562933662887
 30
0.0
 10
88.69191621046592
 20
-146.0834173896944
 30
0.0
 10
88.69191621046592
 20
-146.3793510918774
 30
0.0
 10
88.69191621046592
 20
-146.5657307576294
 30
0.0
 10
88.59683157507301
 20
-146.6480685397269
 30
0.0
 10
88.49726831554929
 20
-146.7093912393643
 30
0.0
 10
88.55859101518675
 20
-146.7369520032463
 30
0.0
 10
88.74049205680794
 20
-146.8172227280527
 30
0.0
 10
88.74049205680794
 20
-147.0945529146153
 30
0.0
 10
88.74049205680794
 20
-147.4328612912668
 30
0.0
 10
88.49313420096699
 20
-147.5999484223014
 30
0.0
 10
88.21614852395291
 20
-147.5999484223014
 30
0.0
  0
HATCH
  5
D1
330
CC
100
AcDbEntity
  8
_U+30EC_U+30A4_U+30E4_U+30FC 1
 62
   179
420
  2234388
100
AcDbHatch
 10
0.0
 20
0.0
 30
0.0
210
0.0
220
0.0
230
1.0
  2
SOLID
 70
     1
 71
     0
 91
        1
 92
        1
 93
        1
 72
     4
 94
        3
 73
     0
 74
     1
 95
       62
 96
       58
 40
0.0
 40
0.0
 40
0.0
 40
0.0
 40
1.0
 40
1.0
 40
1.0
 40
2.0
 40
2.0
 40
2.0
 40
3.0
 40
3.0
 40
3.0
 40
4.0
 40
4.0
 40
4.0
 40
5.0
 40
5.0
 40
5.0
 40
6.0
 40
6.0
 40
6.0
 40
7.0
 40
7.0
 40
7.0
 40
8.0
 40
8.0
 40
8.0
 40
9.0
 40
9.0
 40
9.0
 40
10.0
 40
10.0
 40
10.0
 40
11.0
 40
11.0
 40
11.0
 40
12.0
 40
12.0
 40
12.0
 40
13.0
 40
13.0
 40
13.0
 40
14.0
 40
14.0
 40
14.0
 40
15.0
 40
15.0
 40
15.0
 40
16.0
 40
16.0
 40
16.0
 40
17.0
 40
17.0
 40
17.0
 40
18.0
 40
18.0
 40
18.0
 40
19.0
 40
19.0
 40
19.0
 40
19.0
 10
88.21614852395291
 20
-147.5999484223014
 10
88.12071937901149
 20
-147.5999484223014
 10
87.9029893443437
 20
-147.5789333398414
 10
87.77793237822914
 20
-147.3928981836379
 10
87.70386282529626
 20
-147.2805880708187
 10
87.69972871071396
 20
-147.1813693208435
 10
87.69559459613166
 20
-147.0966199719064
 10
87.69559459613166
 20
-147.0966199719064
 10
87.91573619763912
 20
-147.0966199719064
 10
87.91573619763912
 20
-147.0966199719064
 10
87.91780325493028
 20
-147.1706895248393
 10
87.92813854138602
 20
-147.4053005273848
 10
88.21166989982208
 20
-147.4053005273848
 10
88.34912920968355
 20
-147.4053005273848
 10
88.50174693968012
 20
-147.3357095985828
 10
88.50174693968012
 20
-147.1072997679107
 10
88.50174693968012
 20
-146.9908555405092
 10
88.46350637979386
 20
-146.9422796941672
 10
88.43181150132955
 20
-146.9105848157029
 10
88.35774194839668
 20
-146.83651526277
 10
88.24129772099523
 20
-146.8237684094746
 10
88.18652070277976
 20
-146.8237684094746
 10
88.16722816806237
 20
-146.8237684094746
 10
88.13139917501576
 20
-146.8258354667658
 10
88.10383841113376
 20
-146.8299695813481
 10
88.10383841113376
 20
-146.8299695813481
 10
88.10383841113376
 20
-146.6353216864315
 10
88.10383841113376
 20
-146.6353216864315
 10
88.14207897102004
 20
-146.6418673678534
 10
88.18410913594009
 20
-146.6439344251446
 10
88.19065481736206
 20
-146.6439344251446
 10
88.2561116315818
 20
-146.6439344251446
 10
88.45489364108073
 20
-146.622574833136
 10
88.45489364108073
 20
-146.3858967732994
 10
88.45489364108073
 20
-146.2081298462605
 10
88.32398001264123
 20
-146.1530083184965
 10
88.21373695711324
 20
-146.1530083184965
 10
87.94949813339457
 20
-146.1530083184965
 10
87.94088539468144
 20
-146.3858967732994
 10
87.93675128009914
 20
-146.4575547593926
 10
87.93675128009914
 20
-146.4575547593926
 10
87.7334906464694
 20
-146.4575547593926
 10
87.7334906464694
 20
-146.4575547593926
 10
87.74210338518253
 20
-146.3328423028265
 10
87.76966414906454
 20
-145.9562933662887
 10
88.22648381040867
 20
-145.9562933662887
 10
88.45075952649843
 20
-145.9562933662887
 10
88.69191621046592
 20
-146.0834173896944
 10
88.69191621046592
 20
-146.3793510918774
 10
88.69191621046592
 20
-146.5657307576294
 10
88.59683157507301
 20
-146.6480685397269
 10
88.49726831554929
 20
-146.7093912393643
 10
88.55859101518675
 20
-146.7369520032463
 10
88.74049205680794
 20
-146.8172227280527
 10
88.74049205680794
 20
-147.0945529146153
 10
88.74049205680794
 20
-147.4328612912668
 10
88.49313420096699
 20
-147.5999484223014
 10
88.21614852395291
 20
-147.5999484223014
 97
        0
 97
        0
 75
     2
 76
     1
 98
        0
  0
SPLINE
  5
D2
330
CC
100
AcDbEntity
  8
_U+30EC_U+30A4_U+30E4_U+30FC 1
370
     0
100
AcDbSpline
210
0.0
220
0.0
230
1.0
 70
    11
 71
     3
 72
    53
 73
    49
 74
     0
 42
0.0000000001
 43
0.0000000001
 12
1.0
 22
0.0
 32
0.0
 13
1.0
 23
0.0
 33
0.0
 40
0.0
 40
0.0
 40
0.0
 40
0.0
 40
1.0
 40
1.0
 40
1.0
 40
2.0
 40
2.0
 40
2.0
 40
3.0
 40
3.0
 40
3.0
 40
4.0
 40
4.0
 40
4.0
 40
5.0
 40
5.0
 40
5.0
 40
6.0
 40
6.0
 40
6.0
 40
7.0
 40
7.0
 40
7.0
 40
8.0
 40
8.0
 40
8.0
 40
9.0
 40
9.0
 40
9.0
 40
10.0
 40
10.0
 40
10.0
 40
11.0
 40
11.0
 40
11.0
 40
12.0
 40
12.0
 40
12.0
 40
13.0
 40
13.0
 40
13.0
 40
14.0
 40
14.0
 40
14.0
 40
15.0
 40
15.0
 40
15.0
 40
16.0
 40
16.0
 40
16.0
 40
16.0
 10
89.38231334570997
 20
-147.5999484223014
 30
0.0
 10
89.3041096781948
 20
-147.5999484223014
 30
0.0
 10
89.20247936137994
 20
-147.5830674544237
 30
0.0
 10
89.10084904456507
 20
-147.5196776974951
 30
0.0
 10
88.927560741657
 20
-147.4097791515156
 30
0.0
 10
88.90620114964845
 20
-147.2785210135276
 30
0.0
 10
88.88725312447959
 20
-147.1706895248393
 30
0.0
 10
88.88725312447959
 20
-147.1706895248393
 30
0.0
 10
89.10946178327819
 20
-147.1706895248393
 30
0.0
 10
89.10946178327819
 20
-147.1706895248393
 30
0.0
 10
89.16423880149367
 20
-147.3694715343382
 30
0.0
 10
89.29136282489938
 20
-147.3990993555113
 30
0.0
 10
89.38438040300113
 20
-147.3990993555113
 30
0.0
 10
89.52390677015374
 20
-147.3990993555113
 30
0.0
 10
89.6761799906018
 20
-147.2995360959876
 30
0.0
 10
89.6761799906018
 20
-147.0669921507333
 30
0.0
 10
89.6761799906018
 20
-146.8110215561792
 30
0.0
 10
89.49634600627175
 20
-146.7410861178286
 30
0.0
 10
89.375767664288
 20
-146.7410861178286
 30
0.0
 10
89.34407278582371
 20
-146.7410861178286
 30
0.0
 10
89.20247936137994
 20
-146.7410861178286
 30
0.0
 10
89.11359589786049
 20
-146.8702771985255
 30
0.0
 10
89.11359589786049
 20
-146.8702771985255
 30
0.0
 10
88.93789602811275
 20
-146.8513291733566
 30
0.0
 10
88.93789602811275
 20
-146.8513291733566
 30
0.0
 10
88.93789602811275
 20
-146.8513291733566
 30
0.0
 10
89.05847437009649
 20
-146.0048692126307
 30
0.0
 10
89.05847437009649
 20
-146.0048692126307
 30
0.0
 10
89.05847437009649
 20
-146.0048692126307
 30
0.0
 10
89.83706594976296
 20
-146.0048692126307
 30
0.0
 10
89.83706594976296
 20
-146.0048692126307
 30
0.0
 10
89.83706594976296
 20
-146.0048692126307
 30
0.0
 10
89.83706594976296
 20
-146.1995171075473
 30
0.0
 10
89.83706594976296
 20
-146.1995171075473
 30
0.0
 10
89.83706594976296
 20
-146.1995171075473
 30
0.0
 10
89.22142738654881
 20
-146.1995171075473
 30
0.0
 10
89.22142738654881
 20
-146.1995171075473
 30
0.0
 10
89.22142738654881
 20
-146.1995171075473
 30
0.0
 10
89.15597057232907
 20
-146.622574833136
 30
0.0
 10
89.15597057232907
 20
-146.622574833136
 30
0.0
 10
89.21729327196651
 20
-146.5888128973806
 30
0.0
 10
89.29963105406398
 20
-146.5485052802032
 30
0.0
 10
89.41814233875658
 20
-146.5485052802032
 30
0.0
 10
89.6720458760195
 20
-146.5485052802032
 30
0.0
 10
89.90906844540469
 20
-146.7348849459552
 30
0.0
 10
89.90906844540469
 20
-147.0480441255644
 30
0.0
 10
89.90906844540469
 20
-147.3653374197559
 30
0.0
 10
89.68479272931492
 20
-147.5999484223014
 30
0.0
 10
89.38231334570997
 20
-147.5999484223014
 30
0.0
  0
HATCH
  5
D3
330
CC
100
AcDbEntity
  8
_U+30EC_U+30A4_U+30E4_U+30FC 1
 62
   179
420
  2234388
100
AcDbHatch
 10
0.0
 20
0.0
 30
0.0
210
0.0
220
0.0
230
1.0
  2
SOLID
 70
     1
 71
     0
 91
        1
 92
        1
 93
        1
 72
     4
 94
        3
 73
     0
 74
     1
 95
       53
 96
       49
 40
0.0
 40
0.0
 40
0.0
 40
0.0
 40
1.0
 40
1.0
 40
1.0
 40
2.0
 40
2.0
 40
2.0
 40
3.0
 40
3.0
 40
3.0
 40
4.0
 40
4.0
 40
4.0
 40
5.0
 40
5.0
 40
5.0
 40
6.0
 40
6.0
 40
6.0
 40
7.0
 40
7.0
 40
7.0
 40
8.0
 40
8.0
 40
8.0
 40
9.0
 40
9.0
 40
9.0
 40
10.0
 40
10.0
 40
10.0
 40
11.0
 40
11.0
 40
11.0
 40
12.0
 40
12.0
 40
12.0
 40
13.0
 40
13.0
 40
13.0
 40
14.0
 40
14.0
 40
14.0
 40
15.0
 40
15.0
 40
15.0
 40
16.0
 40
16.0
 40
16.0
 40
16.0
 10
89.38231334570997
 20
-147.5999484223014
 10
89.3041096781948
 20
-147.5999484223014
 10
89.20247936137994
 20
-147.5830674544237
 10
89.10084904456507
 20
-147.5196776974951
 10
88.927560741657
 20
-147.4097791515156
 10
88.90620114964845
 20
-147.2785210135276
 10
88.88725312447959
 20
-147.1706895248393
 10
88.88725312447959
 20
-147.1706895248393
 10
89.10946178327819
 20
-147.1706895248393
 10
89.10946178327819
 20
-147.1706895248393
 10
89.16423880149367
 20
-147.3694715343382
 10
89.29136282489938
 20
-147.3990993555113
 10
89.38438040300113
 20
-147.3990993555113
 10
89.52390677015374
 20
-147.3990993555113
 10
89.6761799906018
 20
-147.2995360959876
 10
89.6761799906018
 20
-147.0669921507333
 10
89.6761799906018
 20
-146.8110215561792
 10
89.49634600627175
 20
-146.7410861178286
 10
89.375767664288
 20
-146.7410861178286
 10
89.34407278582371
 20
-146.7410861178286
 10
89.20247936137994
 20
-146.7410861178286
 10
89.11359589786049
 20
-146.8702771985255
 10
89.11359589786049
 20
-146.8702771985255
 10
88.93789602811275
 20
-146.8513291733566
 10
88.93789602811275
 20
-146.8513291733566
 10
88.93789602811275
 20
-146.8513291733566
 10
89.05847437009649
 20
-146.0048692126307
 10
89.05847437009649
 20
-146.0048692126307
 10
89.05847437009649
 20
-146.0048692126307
 10
89.83706594976296
 20
-146.0048692126307
 10
89.83706594976296
 20
-146.0048692126307
 10
89.83706594976296
 20
-146.0048692126307
 10
89.83706594976296
 20
-146.1995171075473
 10
89.83706594976296
 20
-146.1995171075473
 10
89.83706594976296
 20
-146.1995171075473
 10
89.22142738654881
 20
-146.1995171075473
 10
89.22142738654881
 20
-146.1995171075473
 10
89.22142738654881
 20
-146.1995171075473
 10
89.15597057232907
 20
-146.622574833136
 10
89.15597057232907
 20
-146.622574833136
 10
89.21729327196651
 20
-146.5888128973806
 10
89.29963105406398
 20
-146.5485052802032
 10
89.41814233875658
 20
-146.5485052802032
 10
89.6720458760195
 20
-146.5485052802032
 10
89.90906844540469
 20
-146.7348849459552
 10
89.90906844540469
 20
-147.0480441255644
 10
89.90906844540469
 20
-147.3653374197559
 10
89.68479272931492
 20
-147.5999484223014
 10
89.38231334570997
 20
-147.5999484223014
 97
        0
 97
        0
 75
     2
 76
     1
 98
        0
  0
ENDBLK
  5
CF
330
CC
100
AcDbEntity
  8
0
100
AcDbBlockEnd
  0
BLOCK
  5
D6
330
D4
100
AcDbEntity
  8
0
100
AcDbBlockBegin
  2
block 6
 70
     0
 10
0.0
 20
0.0
 30
0.0
  3
block 6
  1

  0
SPLINE
  5
D8
330
D4
100
AcDbEntity
  8
_U+30EC_U+30A4_U+30E4_U+30FC 1
370
     0
100
AcDbSpline
210
0.0
220
0.0
230
1.0
 70
    11
 71
     3
 72
    29
 73
    25
 74
     0
 42
0.0000000001
 43
0.0000000001
 12
1.0
 22
0.0
 32
0.0
 13
1.0
 23
0.0
 33
0.0
 40
0.0
 40
0.0
 40
0.0
 40
0.0
 40
1.0
 40
1.0
 40
1.0
 40
2.0
 40
2.0
 40
2.0
 40
3.0
 40
3.0
 40
3.0
 40
4.0
 40
4.0
 40
4.0
 40
5.0
 40
5.0
 40
5.0
 40
6.0
 40
6.0
 40
6.0
 40
7.0
 40
7.0
 40
7.0
 40
8.0
 40
8.0
 40
8.0
 40
8.0
 10
97.41696503640965
 20
-131.1420382701659
 30
0.0
 10
97.24781084808389
 20
-131.6029920460923
 30
0.0
 10
97.12723250610014
 20
-131.8486273541906
 30
0.0
 10
96.79925941590436
 20
-132.1256130312047
 30
0.0
 10
96.62149248886547
 20
-132.2758191943616
 30
0.0
 10
96.4247775366577
 20
-132.4050102750585
 30
0.0
 10
96.20911455928106
 20
-132.4914821717383
 30
0.0
 10
96.20911455928106
 20
-132.4914821717383
 30
0.0
 10
96.03754880411562
 20
-132.3033799582436
 30
0.0
 10
96.03754880411562
 20
-132.3033799582436
 30
0.0
 10
96.3930826581934
 20
-132.2017496414287
 30
0.0
 10
96.68936086992488
 20
-131.949913161457
 30
0.0
 10
96.81200626919978
 20
-131.8124538515955
 30
0.0
 10
97.02146807470297
 20
-131.57784284905
 30
0.0
 10
97.14618053126901
 20
-131.2794975800274
 30
0.0
 10
97.19268932031989
 20
-130.9684054577093
 30
0.0
 10
97.19268932031989
 20
-130.9684054577093
 30
0.0
 10
97.45520559629593
 20
-131.0552218639376
 30
0.0
 10
97.45520559629593
 20
-131.0552218639376
 30
0.0
 10
97.48483341746908
 20
-131.0659016599419
 30
0.0
 10
97.49103458934252
 20
-131.0762369463976
 30
0.0
 10
97.49103458934252
 20
-131.0869167424019
 30
0.0
 10
97.49103458934252
 20
-131.116544563575
 30
0.0
 10
97.4507269721651
 20
-131.1292914168705
 30
0.0
 10
97.41696503640965
 20
-131.1420382701659
 30
0.0
  0
HATCH
  5
D9
330
D4
100
AcDbEntity
  8
_U+30EC_U+30A4_U+30E4_U+30FC 1
 62
   179
420
  2234388
100
AcDbHatch
 10
0.0
 20
0.0
 30
0.0
210
0.0
220
0.0
230
1.0
  2
SOLID
 70
     1
 71
     0
 91
        1
 92
        1
 93
        1
 72
     4
 94
        3
 73
     0
 74
     1
 95
       29
 96
       25
 40
0.0
 40
0.0
 40
0.0
 40
0.0
 40
1.0
 40
1.0
 40
1.0
 40
2.0
 40
2.0
 40
2.0
 40
3.0
 40
3.0
 40
3.0
 40
4.0
 40
4.0
 40
4.0
 40
5.0
 40
5.0
 40
5.0
 40
6.0
 40
6.0
 40
6.0
 40
7.0
 40
7.0
 40
7.0
 40
8.0
 40
8.0
 40
8.0
 40
8.0
 10
97.41696503640965
 20
-131.1420382701659
 10
97.24781084808389
 20
-131.6029920460923
 10
97.12723250610014
 20
-131.8486273541906
 10
96.79925941590436
 20
-132.1256130312047
 10
96.62149248886547
 20
-132.2758191943616
 10
96.4247775366577
 20
-132.4050102750585
 10
96.20911455928106
 20
-132.4914821717383
 10
96.20911455928106
 20
-132.4914821717383
 10
96.03754880411562
 20
-132.3033799582436
 10
96.03754880411562
 20
-132.3033799582436
 10
96.3930826581934
 20
-132.2017496414287
 10
96.68936086992488
 20
-131.949913161457
 10
96.81200626919978
 20
-131.8124538515955
 10
97.02146807470297
 20
-131.57784284905
 10
97.14618053126901
 20
-131.2794975800274
 10
97.19268932031989
 20
-130.9684054577093
 10
97.19268932031989
 20
-130.9684054577093
 10
97.45520559629593
 20
-131.0552218639376
 10
97.45520559629593
 20
-131.0552218639376
 10
97.48483341746908
 20
-131.0659016599419
 10
97.49103458934252
 20
-131.0762369463976
 10
97.49103458934252
 20
-131.0869167424019
 10
97.49103458934252
 20
-131.116544563575
 10
97.4507269721651
 20
-131.1292914168705
 10
97.41696503640965
 20
-131.1420382701659
 97
        0
 97
        0
 75
     2
 76
     1
 98
        0
  0
SPLINE
  5
DA
330
D4
100
AcDbEntity
  8
_U+30EC_U+30A4_U+30E4_U+30FC 1
370
     0
100
AcDbSpline
210
0.0
220
0.0
230
1.0
 70
    11
 71
     3
 72
    17
 73
    13
 74
     0
 42
0.0000000001
 43
0.0000000001
 12
1.0
 22
0.0
 32
0.0
 13
1.0
 23
0.0
 33
0.0
 40
0.0
 40
0.0
 40
0.0
 40
0.0
 40
1.0
 40
1.0
 40
1.0
 40
2.0
 40
2.0
 40
2.0
 40
3.0
 40
3.0
 40
3.0
 40
4.0
 40
4.0
 40
4.0
 40
4.0
 10
97.89376625156822
 20
-131.8844563472372
 30
0.0
 10
97.86000431581279
 20
-131.8041856224309
 30
0.0
 10
97.80694984533993
 20
-131.6791286563163
 30
0.0
 10
97.70738658581621
 20
-131.550282085168
 30
0.0
 10
97.70738658581621
 20
-131.550282085168
 30
0.0
 10
97.86620548768623
 20
-131.4972276146951
 30
0.0
 10
97.86620548768623
 20
-131.4972276146951
 30
0.0
 10
97.9444091552014
 20
-131.6050591033835
 30
0.0
 10
97.99746362567424
 20
-131.6984211910337
 30
0.0
 10
98.05224064388972
 20
-131.8252007048909
 30
0.0
 10
98.05224064388972
 20
-131.8252007048909
 30
0.0
 10
97.89376625156822
 20
-131.8844563472372
 30
0.0
 10
97.89376625156822
 20
-131.8844563472372
 30
0.0
  0
SPLINE
  5
DB
330
D4
100
AcDbEntity
  8
_U+30EC_U+30A4_U+30E4_U+30FC 1
370
     0
100
AcDbSpline
210
0.0
220
0.0
230
1.0
 70
    11
 71
     3
 72
    32
 73
    28
 74
     0
 42
0.0000000001
 43
0.0000000001
 12
1.0
 22
0.0
 32
0.0
 13
1.0
 23
0.0
 33
0.0
 40
0.0
 40
0.0
 40
0.0
 40
0.0
 40
1.0
 40
1.0
 40
1.0
 40
2.0
 40
2.0
 40
2.0
 40
3.0
 40
3.0
 40
3.0
 40
4.0
 40
4.0
 40
4.0
 40
5.0
 40
5.0
 40
5.0
 40
6.0
 40
6.0
 40
6.0
 40
7.0
 40
7.0
 40
7.0
 40
8.0
 40
8.0
 40
8.0
 40
9.0
 40
9.0
 40
9.0
 40
9.0
 10
99.01066620788623
 20
-131.5396022891637
 30
0.0
 10
98.9896511254262
 20
-131.5461479705857
 30
0.0
 10
98.97897132942192
 20
-131.5544161997503
 30
0.0
 10
98.9703585907088
 20
-131.5650959957546
 30
0.0
 10
98.96415741883536
 20
-131.5754312822103
 30
0.0
 10
98.90283471919791
 20
-131.7807589731312
 30
0.0
 10
98.88802080861133
 20
-131.8210665903086
 30
0.0
 10
98.67442488852585
 20
-132.3688367724633
 30
0.0
 10
98.35713159433433
 20
-132.54246958492
 30
0.0
 10
98.12217608224029
 20
-132.6585693027729
 30
0.0
 10
98.12217608224029
 20
-132.6585693027729
 30
0.0
 10
97.98264971508767
 20
-132.5297227316245
 30
0.0
 10
97.98264971508767
 20
-132.5297227316245
 30
0.0
 10
98.12837725411374
 20
-132.4684000319871
 30
0.0
 10
98.36539982349893
 20
-132.3688367724633
 30
0.0
 10
98.56004771841555
 20
-132.0918510954493
 30
0.0
 10
98.74194876003673
 20
-131.8314018767644
 30
0.0
 10
98.78018931992301
 20
-131.5650959957546
 30
0.0
 10
98.80533851696534
 20
-131.4062770938845
 30
0.0
 10
98.80533851696534
 20
-131.4062770938845
 30
0.0
 10
98.9703585907088
 20
-131.467599793522
 30
0.0
 10
98.9703585907088
 20
-131.467599793522
 30
0.0
 10
99.01273326517737
 20
-131.4824137041086
 30
0.0
 10
99.03615991447708
 20
-131.4972276146951
 30
0.0
 10
99.03615991447708
 20
-131.5141085825729
 30
0.0
 10
99.03615991447708
 20
-131.5289224931595
 30
0.0
 10
99.0254801184728
 20
-131.5354681745814
 30
0.0
 10
99.01066620788623
 20
-131.5396022891637
 30
0.0
  0
SPLINE
  5
DC
330
D4
100
AcDbEntity
  8
_U+30EC_U+30A4_U+30E4_U+30FC 1
370
     0
100
AcDbSpline
210
0.0
220
0.0
230
1.0
 70
    11
 71
     3
 72
    17
 73
    13
 74
     0
 42
0.0000000001
 43
0.0000000001
 12
1.0
 22
0.0
 32
0.0
 13
1.0
 23
0.0
 33
0.0
 40
0.0
 40
0.0
 40
0.0
 40
0.0
 40
1.0
 40
1.0
 40
1.0
 40
2.0
 40
2.0
 40
2.0
 40
3.0
 40
3.0
 40
3.0
 40
4.0
 40
4.0
 40
4.0
 40
4.0
 10
98.30821123844379
 20
-131.7935058264266
 30
0.0
 10
98.27858341727064
 20
-131.7108235347806
 30
0.0
 10
98.23207462821976
 20
-131.5861110782146
 30
0.0
 10
98.12837725411374
 20
-131.4548529402266
 30
0.0
 10
98.12837725411374
 20
-131.4548529402266
 30
0.0
 10
98.28719615598376
 20
-131.4000759220111
 30
0.0
 10
98.28719615598376
 20
-131.4000759220111
 30
0.0
 10
98.3802137340855
 20
-131.5313340599991
 30
0.0
 10
98.42672252313638
 20
-131.6370984913963
 30
0.0
 10
98.4670301403138
 20
-131.7428629227934
 30
0.0
 10
98.4670301403138
 20
-131.7428629227934
 30
0.0
 10
98.30821123844379
 20
-131.7935058264266
 30
0.0
 10
98.30821123844379
 20
-131.7935058264266
 30
0.0
  0
HATCH
  5
DD
330
D4
100
AcDbEntity
  8
_U+30EC_U+30A4_U+30E4_U+30FC 1
 62
   179
420
  2234388
100
AcDbHatch
 10
0.0
 20
0.0
 30
0.0
210
0.0
220
0.0
230
1.0
  2
SOLID
 70
     1
 71
     0
 91
        3
 92
        1
 93
        1
 72
     4
 94
        3
 73
     0
 74
     1
 95
       17
 96
       13
 40
0.0
 40
0.0
 40
0.0
 40
0.0
 40
1.0
 40
1.0
 40
1.0
 40
2.0
 40
2.0
 40
2.0
 40
3.0
 40
3.0
 40
3.0
 40
4.0
 40
4.0
 40
4.0
 40
4.0
 10
97.89376625156822
 20
-131.8844563472372
 10
97.86000431581279
 20
-131.8041856224309
 10
97.80694984533993
 20
-131.6791286563163
 10
97.70738658581621
 20
-131.550282085168
 10
97.70738658581621
 20
-131.550282085168
 10
97.86620548768623
 20
-131.4972276146951
 10
97.86620548768623
 20
-131.4972276146951
 10
97.9444091552014
 20
-131.6050591033835
 10
97.99746362567424
 20
-131.6984211910337
 10
98.05224064388972
 20
-131.8252007048909
 10
98.05224064388972
 20
-131.8252007048909
 10
97.89376625156822
 20
-131.8844563472372
 10
97.89376625156822
 20
-131.8844563472372
 97
        0
 97
        0
 92
        1
 93
        1
 72
     4
 94
        3
 73
     0
 74
     1
 95
       32
 96
       28
 40
0.0
 40
0.0
 40
0.0
 40
0.0
 40
1.0
 40
1.0
 40
1.0
 40
2.0
 40
2.0
 40
2.0
 40
3.0
 40
3.0
 40
3.0
 40
4.0
 40
4.0
 40
4.0
 40
5.0
 40
5.0
 40
5.0
 40
6.0
 40
6.0
 40
6.0
 40
7.0
 40
7.0
 40
7.0
 40
8.0
 40
8.0
 40
8.0
 40
9.0
 40
9.0
 40
9.0
 40
9.0
 10
99.01066620788623
 20
-131.5396022891637
 10
98.9896511254262
 20
-131.5461479705857
 10
98.97897132942192
 20
-131.5544161997503
 10
98.9703585907088
 20
-131.5650959957546
 10
98.96415741883536
 20
-131.5754312822103
 10
98.90283471919791
 20
-131.7807589731312
 10
98.88802080861133
 20
-131.8210665903086
 10
98.67442488852585
 20
-132.3688367724633
 10
98.35713159433433
 20
-132.54246958492
 10
98.12217608224029
 20
-132.6585693027729
 10
98.12217608224029
 20
-132.6585693027729
 10
97.98264971508767
 20
-132.5297227316245
 10
97.98264971508767
 20
-132.5297227316245
 10
98.12837725411374
 20
-132.4684000319871
 10
98.36539982349893
 20
-132.3688367724633
 10
98.56004771841555
 20
-132.0918510954493
 10
98.74194876003673
 20
-131.8314018767644
 10
98.78018931992301
 20
-131.5650959957546
 10
98.80533851696534
 20
-131.4062770938845
 10
98.80533851696534
 20
-131.4062770938845
 10
98.9703585907088
 20
-131.467599793522
 10
98.9703585907088
 20
-131.467599793522
 10
99.01273326517737
 20
-131.4824137041086
 10
99.03615991447708
 20
-131.4972276146951
 10
99.03615991447708
 20
-131.5141085825729
 10
99.03615991447708
 20
-131.5289224931595
 10
99.0254801184728
 20
-131.5354681745814
 10
99.01066620788623
 20
-131.5396022891637
 97
        0
 97
        0
 92
        1
 93
        1
 72
     4
 94
        3
 73
     0
 74
     1
 95
       17
 96
       13
 40
0.0
 40
0.0
 40
0.0
 40
0.0
 40
1.0
 40
1.0
 40
1.0
 40
2.0
 40
2.0
 40
2.0
 40
3.0
 40
3.0
 40
3.0
 40
4.0
 40
4.0
 40
4.0
 40
4.0
 10
98.30821123844379
 20
-131.7935058264266
 10
98.27858341727064
 20
-131.7108235347806
 10
98.23207462821976
 20
-131.5861110782146
 10
98.12837725411374
 20
-131.4548529402266
 10
98.12837725411374
 20
-131.4548529402266
 10
98.28719615598376
 20
-131.4000759220111
 10
98.28719615598376
 20
-131.4000759220111
 10
98.3802137340855
 20
-131.5313340599991
 10
98.42672252313638
 20
-131.6370984913963
 10
98.4670301403138
 20
-131.7428629227934
 10
98.4670301403138
 20
-131.7428629227934
 10
98.30821123844379
 20
-131.7935058264266
 10
98.30821123844379
 20
-131.7935058264266
 97
        0
 97
        0
 75
     2
 76
     1
 98
        0
  0
SPLINE
  5
DE
330
D4
100
AcDbEntity
  8
_U+30EC_U+30A4_U+30E4_U+30FC 1
370
     0
100
AcDbSpline
210
0.0
220
0.0
230
1.0
 70
    11
 71
     3
 72
    83
 73
    79
 74
     0
 42
0.0000000001
 43
0.0000000001
 12
1.0
 22
0.0
 32
0.0
 13
1.0
 23
0.0
 33
0.0
 40
0.0
 40
0.0
 40
0.0
 40
0.0
 40
1.0
 40
1.0
 40
1.0
 40
2.0
 40
2.0
 40
2.0
 40
3.0
 40
3.0
 40
3.0
 40
4.0
 40
4.0
 40
4.0
 40
5.0
 40
5.0
 40
5.0
 40
6.0
 40
6.0
 40
6.0
 40
7.0
 40
7.0
 40
7.0
 40
8.0
 40
8.0
 40
8.0
 40
9.0
 40
9.0
 40
9.0
 40
10.0
 40
10.0
 40
10.0
 40
11.0
 40
11.0
 40
11.0
 40
12.0
 40
12.0
 40
12.0
 40
13.0
 40
13.0
 40
13.0
 40
14.0
 40
14.0
 40
14.0
 40
15.0
 40
15.0
 40
15.0
 40
16.0
 40
16.0
 40
16.0
 40
17.0
 40
17.0
 40
17.0
 40
18.0
 40
18.0
 40
18.0
 40
19.0
 40
19.0
 40
19.0
 40
20.0
 40
20.0
 40
20.0
 40
21.0
 40
21.0
 40
21.0
 40
22.0
 40
22.0
 40
22.0
 40
23.0
 40
23.0
 40
23.0
 40
24.0
 40
24.0
 40
24.0
 40
25.0
 40
25.0
 40
25.0
 40
26.0
 40
26.0
 40
26.0
 40
26.0
 10
100.3973171406993
 20
-131.7745578012577
 30
0.0
 10
100.3973171406993
 20
-131.7745578012577
 30
0.0
 10
100.317046415893
 20
-131.7745578012577
 30
0.0
 10
100.317046415893
 20
-131.7745578012577
 30
0.0
 10
100.3129123013107
 20
-131.8782551753638
 30
0.0
 10
100.3042995625975
 20
-132.0684244461496
 30
0.0
 10
100.1434136034364
 20
-132.2968342768216
 30
0.0
 10
99.97425941511061
 20
-132.5338568462068
 30
0.0
 10
99.77341034832054
 20
-132.6248073670174
 30
0.0
 10
99.67591414608798
 20
-132.6692490987771
 30
0.0
 10
99.67591414608798
 20
-132.6692490987771
 30
0.0
 10
99.45404999683788
 20
-132.5128417637468
 30
0.0
 10
99.45404999683788
 20
-132.5128417637468
 30
0.0
 10
99.55120168952193
 20
-132.4894151144471
 30
0.0
 10
99.78409014432482
 20
-132.432226529392
 30
0.0
 10
99.96151256181518
 20
-132.1996825841376
 30
0.0
 10
100.0948377570944
 20
-132.0219156570987
 30
0.0
 10
100.1034504958075
 20
-131.8655083220684
 30
0.0
 10
100.1075846103898
 20
-131.7745578012577
 30
0.0
 10
100.1075846103898
 20
-131.7745578012577
 30
0.0
 10
99.83680010524914
 20
-131.7745578012577
 30
0.0
 10
99.83680010524914
 20
-131.7745578012577
 30
0.0
 10
99.64628632491483
 20
-131.7745578012577
 30
0.0
 10
99.45818411142018
 20
-131.7786919158401
 30
0.0
 10
99.26767033108587
 20
-131.7935058264266
 30
0.0
 10
99.26767033108587
 20
-131.7935058264266
 30
0.0
 10
99.26767033108587
 20
-131.5840440209234
 30
0.0
 10
99.26767033108587
 20
-131.5840440209234
 30
0.0
 10
99.46438528329364
 20
-131.59885793151
 30
0.0
 10
99.74998369902085
 20
-131.6029920460923
 30
0.0
 10
99.83680010524914
 20
-131.6029920460923
 30
0.0
 10
99.83680010524914
 20
-131.6029920460923
 30
0.0
 10
100.1117187249721
 20
-131.6029920460923
 30
0.0
 10
100.1117187249721
 20
-131.6029920460923
 30
0.0
 10
100.1117187249721
 20
-131.4910264428217
 30
0.0
 10
100.1096516676809
 20
-131.3597683048337
 30
0.0
 10
100.0989718716767
 20
-131.247802701563
 30
0.0
 10
99.87710772242656
 20
-131.3132595157828
 30
0.0
 10
99.75446232315167
 20
-131.3387532223736
 30
0.0
 10
99.5660156001085
 20
-131.3618353621248
 30
0.0
 10
99.5660156001085
 20
-131.3618353621248
 30
0.0
 10
99.43062334753819
 20
-131.1692545244994
 30
0.0
 10
99.43062334753819
 20
-131.1692545244994
 30
0.0
 10
99.57462833882163
 20
-131.1671874672082
 30
0.0
 10
99.74378252714739
 20
-131.1630533526259
 30
0.0
 10
100.0441948534612
 20
-131.0700357745242
 30
0.0
 10
100.2050808126223
 20
-131.0214599281821
 30
0.0
 10
100.365622262235
 20
-130.9663384004182
 30
0.0
 10
100.5075601962273
 20
-130.8774549368987
 30
0.0
 10
100.5075601962273
 20
-130.8774549368987
 30
0.0
 10
100.6681016458399
 20
-131.012847189469
 30
0.0
 10
100.6681016458399
 20
-131.012847189469
 30
0.0
 10
100.6787814418442
 20
-131.0235269854733
 30
0.0
 10
100.6915282951396
 20
-131.0362738387687
 30
0.0
 10
100.6915282951396
 20
-131.0531548066464
 30
0.0
 10
100.6915282951396
 20
-131.0762369463976
 30
0.0
 10
100.6701687031311
 20
-131.0762369463976
 30
0.0
 10
100.6639675312576
 20
-131.0762369463976
 30
0.0
 10
100.6532877352533
 20
-131.0762369463976
 30
0.0
 10
100.649153620671
 20
-131.0741698891065
 30
0.0
 10
100.6133246276245
 20
-131.067968717233
 30
0.0
 10
100.5644042717339
 20
-131.0848496851107
 30
0.0
 10
100.3573540330704
 20
-131.1630533526259
 30
0.0
 10
100.3149793586018
 20
-131.1778672632125
 30
0.0
 10
100.3191134731841
 20
-131.4572645070662
 30
0.0
 10
100.3211805304753
 20
-131.4868923282394
 30
0.0
 10
100.3211805304753
 20
-131.6029920460923
 30
0.0
 10
100.3211805304753
 20
-131.6029920460923
 30
0.0
 10
100.3973171406993
 20
-131.6029920460923
 30
0.0
 10
100.3973171406993
 20
-131.6029920460923
 30
0.0
 10
100.5878309210336
 20
-131.6029920460923
 30
0.0
 10
100.7804117586591
 20
-131.59885793151
 30
0.0
 10
100.9705810294449
 20
-131.5861110782146
 30
0.0
 10
100.9705810294449
 20
-131.5861110782146
 30
0.0
 10
100.9705810294449
 20
-131.7935058264266
 30
0.0
 10
100.9705810294449
 20
-131.7935058264266
 30
0.0
 10
100.7232231736039
 20
-131.7745578012577
 30
0.0
 10
100.4186767327078
 20
-131.7745578012577
 30
0.0
 10
100.3973171406993
 20
-131.7745578012577
 30
0.0
  0
HATCH
  5
DF
330
D4
100
AcDbEntity
  8
_U+30EC_U+30A4_U+30E4_U+30FC 1
 62
   179
420
  2234388
100
AcDbHatch
 10
0.0
 20
0.0
 30
0.0
210
0.0
220
0.0
230
1.0
  2
SOLID
 70
     1
 71
     0
 91
        1
 92
        1
 93
        1
 72
     4
 94
        3
 73
     0
 74
     1
 95
       83
 96
       79
 40
0.0
 40
0.0
 40
0.0
 40
0.0
 40
1.0
 40
1.0
 40
1.0
 40
2.0
 40
2.0
 40
2.0
 40
3.0
 40
3.0
 40
3.0
 40
4.0
 40
4.0
 40
4.0
 40
5.0
 40
5.0
 40
5.0
 40
6.0
 40
6.0
 40
6.0
 40
7.0
 40
7.0
 40
7.0
 40
8.0
 40
8.0
 40
8.0
 40
9.0
 40
9.0
 40
9.0
 40
10.0
 40
10.0
 40
10.0
 40
11.0
 40
11.0
 40
11.0
 40
12.0
 40
12.0
 40
12.0
 40
13.0
 40
13.0
 40
13.0
 40
14.0
 40
14.0
 40
14.0
 40
15.0
 40
15.0
 40
15.0
 40
16.0
 40
16.0
 40
16.0
 40
17.0
 40
17.0
 40
17.0
 40
18.0
 40
18.0
 40
18.0
 40
19.0
 40
19.0
 40
19.0
 40
20.0
 40
20.0
 40
20.0
 40
21.0
 40
21.0
 40
21.0
 40
22.0
 40
22.0
 40
22.0
 40
23.0
 40
23.0
 40
23.0
 40
24.0
 40
24.0
 40
24.0
 40
25.0
 40
25.0
 40
25.0
 40
26.0
 40
26.0
 40
26.0
 40
26.0
 10
100.3973171406993
 20
-131.7745578012577
 10
100.3973171406993
 20
-131.7745578012577
 10
100.317046415893
 20
-131.7745578012577
 10
100.317046415893
 20
-131.7745578012577
 10
100.3129123013107
 20
-131.8782551753638
 10
100.3042995625975
 20
-132.0684244461496
 10
100.1434136034364
 20
-132.2968342768216
 10
99.97425941511061
 20
-132.5338568462068
 10
99.77341034832054
 20
-132.6248073670174
 10
99.67591414608798
 20
-132.6692490987771
 10
99.67591414608798
 20
-132.6692490987771
 10
99.45404999683788
 20
-132.5128417637468
 10
99.45404999683788
 20
-132.5128417637468
 10
99.55120168952193
 20
-132.4894151144471
 10
99.78409014432482
 20
-132.432226529392
 10
99.96151256181518
 20
-132.1996825841376
 10
100.0948377570944
 20
-132.0219156570987
 10
100.1034504958075
 20
-131.8655083220684
 10
100.1075846103898
 20
-131.7745578012577
 10
100.1075846103898
 20
-131.7745578012577
 10
99.83680010524914
 20
-131.7745578012577
 10
99.83680010524914
 20
-131.7745578012577
 10
99.64628632491483
 20
-131.7745578012577
 10
99.45818411142018
 20
-131.7786919158401
 10
99.26767033108587
 20
-131.7935058264266
 10
99.26767033108587
 20
-131.7935058264266
 10
99.26767033108587
 20
-131.5840440209234
 10
99.26767033108587
 20
-131.5840440209234
 10
99.46438528329364
 20
-131.59885793151
 10
99.74998369902085
 20
-131.6029920460923
 10
99.83680010524914
 20
-131.6029920460923
 10
99.83680010524914
 20
-131.6029920460923
 10
100.1117187249721
 20
-131.6029920460923
 10
100.1117187249721
 20
-131.6029920460923
 10
100.1117187249721
 20
-131.4910264428217
 10
100.1096516676809
 20
-131.3597683048337
 10
100.0989718716767
 20
-131.247802701563
 10
99.87710772242656
 20
-131.3132595157828
 10
99.75446232315167
 20
-131.3387532223736
 10
99.5660156001085
 20
-131.3618353621248
 10
99.5660156001085
 20
-131.3618353621248
 10
99.43062334753819
 20
-131.1692545244994
 10
99.43062334753819
 20
-131.1692545244994
 10
99.57462833882163
 20
-131.1671874672082
 10
99.74378252714739
 20
-131.1630533526259
 10
100.0441948534612
 20
-131.0700357745242
 10
100.2050808126223
 20
-131.0214599281821
 10
100.365622262235
 20
-130.9663384004182
 10
100.5075601962273
 20
-130.8774549368987
 10
100.5075601962273
 20
-130.8774549368987
 10
100.6681016458399
 20
-131.012847189469
 10
100.6681016458399
 20
-131.012847189469
 10
100.6787814418442
 20
-131.0235269854733
 10
100.6915282951396
 20
-131.0362738387687
 10
100.6915282951396
 20
-131.0531548066464
 10
100.6915282951396
 20
-131.0762369463976
 10
100.6701687031311
 20
-131.0762369463976
 10
100.6639675312576
 20
-131.0762369463976
 10
100.6532877352533
 20
-131.0762369463976
 10
100.649153620671
 20
-131.0741698891065
 10
100.6133246276245
 20
-131.067968717233
 10
100.5644042717339
 20
-131.0848496851107
 10
100.3573540330704
 20
-131.1630533526259
 10
100.3149793586018
 20
-131.1778672632125
 10
100.3191134731841
 20
-131.4572645070662
 10
100.3211805304753
 20
-131.4868923282394
 10
100.3211805304753
 20
-131.6029920460923
 10
100.3211805304753
 20
-131.6029920460923
 10
100.3973171406993
 20
-131.6029920460923
 10
100.3973171406993
 20
-131.6029920460923
 10
100.5878309210336
 20
-131.6029920460923
 10
100.7804117586591
 20
-131.59885793151
 10
100.9705810294449
 20
-131.5861110782146
 10
100.9705810294449
 20
-131.5861110782146
 10
100.9705810294449
 20
-131.7935058264266
 10
100.9705810294449
 20
-131.7935058264266
 10
100.7232231736039
 20
-131.7745578012577
 10
100.4186767327078
 20
-131.7745578012577
 10
100.3973171406993
 20
-131.7745578012577
 97
        0
 97
        0
 75
     2
 76
     1
 98
        0
  0
SPLINE
  5
E0
330
D4
100
AcDbEntity
  8
_U+30EC_U+30A4_U+30E4_U+30FC 1
370
     0
100
AcDbSpline
210
0.0
220
0.0
230
1.0
 70
    11
 71
     3
 72
    26
 73
    22
 74
     0
 42
0.0000000001
 43
0.0000000001
 12
1.0
 22
0.0
 32
0.0
 13
1.0
 23
0.0
 33
0.0
 40
0.0
 40
0.0
 40
0.0
 40
0.0
 40
1.0
 40
1.0
 40
1.0
 40
2.0
 40
2.0
 40
2.0
 40
3.0
 40
3.0
 40
3.0
 40
4.0
 40
4.0
 40
4.0
 40
5.0
 40
5.0
 40
5.0
 40
6.0
 40
6.0
 40
6.0
 40
7.0
 40
7.0
 40
7.0
 40
7.0
 10
101.4435926395697
 20
-132.5190429356202
 30
0.0
 10
101.4391140154388
 20
-132.5276556743334
 30
0.0
 10
101.4287787289831
 20
-132.5614176100888
 30
0.0
 10
101.4243001048523
 20
-132.5676187819623
 30
0.0
 10
101.42016599027
 20
-132.5762315206754
 30
0.0
 10
101.4118977611054
 20
-132.5803656352577
 30
0.0
 10
101.4012179651011
 20
-132.5803656352577
 30
0.0
 10
101.3864040545145
 20
-132.5803656352577
 30
0.0
 10
101.3802028826411
 20
-132.5720974060931
 30
0.0
 10
101.3567762333414
 20
-132.5297227316245
 30
0.0
 10
101.3567762333414
 20
-132.5297227316245
 30
0.0
 10
101.2423990632311
 20
-132.3095811301171
 30
0.0
 10
101.2423990632311
 20
-132.3095811301171
 30
0.0
 10
101.5683050961357
 20
-132.2651393983573
 30
0.0
 10
102.3300157079244
 20
-131.9330321935792
 30
0.0
 10
102.7317138415046
 20
-131.4148898325977
 30
0.0
 10
102.7317138415046
 20
-131.4148898325977
 30
0.0
 10
102.8164631904417
 20
-131.6198730139701
 30
0.0
 10
102.8164631904417
 20
-131.6198730139701
 30
0.0
 10
102.4016736940176
 20
-132.108732063327
 30
0.0
 10
101.7353922271703
 20
-132.3943304790542
 30
0.0
 10
101.4435926395697
 20
-132.5190429356202
 30
0.0
  0
SPLINE
  5
E1
330
D4
100
AcDbEntity
  8
_U+30EC_U+30A4_U+30E4_U+30FC 1
370
     0
100
AcDbSpline
210
0.0
220
0.0
230
1.0
 70
    11
 71
     3
 72
    17
 73
    13
 74
     0
 42
0.0000000001
 43
0.0000000001
 12
1.0
 22
0.0
 32
0.0
 13
1.0
 23
0.0
 33
0.0
 40
0.0
 40
0.0
 40
0.0
 40
0.0
 40
1.0
 40
1.0
 40
1.0
 40
2.0
 40
2.0
 40
2.0
 40
3.0
 40
3.0
 40
3.0
 40
4.0
 40
4.0
 40
4.0
 40
4.0
 10
101.7374592844615
 20
-131.4276366858931
 30
0.0
 10
101.5979329173089
 20
-131.2943114906139
 30
0.0
 10
101.3802028826411
 20
-131.1799343205036
 30
0.0
 10
101.276505508535
 20
-131.1354925887439
 30
0.0
 10
101.276505508535
 20
-131.1354925887439
 30
0.0
 10
101.392605226388
 20
-130.9453233179581
 30
0.0
 10
101.392605226388
 20
-130.9453233179581
 30
0.0
 10
101.7078314632883
 20
-131.095529481115
 30
0.0
 10
101.8032606082297
 20
-131.1864800019256
 30
0.0
 10
101.8580376264452
 20
-131.2391899628499
 30
0.0
 10
101.8580376264452
 20
-131.2391899628499
 30
0.0
 10
101.7374592844615
 20
-131.4276366858931
 30
0.0
 10
101.7374592844615
 20
-131.4276366858931
 30
0.0
  0
HATCH
  5
E2
330
D4
100
AcDbEntity
  8
_U+30EC_U+30A4_U+30E4_U+30FC 1
 62
   179
420
  2234388
100
AcDbHatch
 10
0.0
 20
0.0
 30
0.0
210
0.0
220
0.0
230
1.0
  2
SOLID
 70
     1
 71
     0
 91
        2
 92
        1
 93
        1
 72
     4
 94
        3
 73
     0
 74
     1
 95
       26
 96
       22
 40
0.0
 40
0.0
 40
0.0
 40
0.0
 40
1.0
 40
1.0
 40
1.0
 40
2.0
 40
2.0
 40
2.0
 40
3.0
 40
3.0
 40
3.0
 40
4.0
 40
4.0
 40
4.0
 40
5.0
 40
5.0
 40
5.0
 40
6.0
 40
6.0
 40
6.0
 40
7.0
 40
7.0
 40
7.0
 40
7.0
 10
101.4435926395697
 20
-132.5190429356202
 10
101.4391140154388
 20
-132.5276556743334
 10
101.4287787289831
 20
-132.5614176100888
 10
101.4243001048523
 20
-132.5676187819623
 10
101.42016599027
 20
-132.5762315206754
 10
101.4118977611054
 20
-132.5803656352577
 10
101.4012179651011
 20
-132.5803656352577
 10
101.3864040545145
 20
-132.5803656352577
 10
101.3802028826411
 20
-132.5720974060931
 10
101.3567762333414
 20
-132.5297227316245
 10
101.3567762333414
 20
-132.5297227316245
 10
101.2423990632311
 20
-132.3095811301171
 10
101.2423990632311
 20
-132.3095811301171
 10
101.5683050961357
 20
-132.2651393983573
 10
102.3300157079244
 20
-131.9330321935792
 10
102.7317138415046
 20
-131.4148898325977
 10
102.7317138415046
 20
-131.4148898325977
 10
102.8164631904417
 20
-131.6198730139701
 10
102.8164631904417
 20
-131.6198730139701
 10
102.4016736940176
 20
-132.108732063327
 10
101.7353922271703
 20
-132.3943304790542
 10
101.4435926395697
 20
-132.5190429356202
 97
        0
 97
        0
 92
        1
 93
        1
 72
     4
 94
        3
 73
     0
 74
     1
 95
       17
 96
       13
 40
0.0
 40
0.0
 40
0.0
 40
0.0
 40
1.0
 40
1.0
 40
1.0
 40
2.0
 40
2.0
 40
2.0
 40
3.0
 40
3.0
 40
3.0
 40
4.0
 40
4.0
 40
4.0
 40
4.0
 10
101.7374592844615
 20
-131.4276366858931
 10
101.5979329173089
 20
-131.2943114906139
 10
101.3802028826411
 20
-131.1799343205036
 10
101.276505508535
 20
-131.1354925887439
 10
101.276505508535
 20
-131.1354925887439
 10
101.392605226388
 20
-130.9453233179581
 10
101.392605226388
 20
-130.9453233179581
 10
101.7078314632883
 20
-131.095529481115
 10
101.8032606082297
 20
-131.1864800019256
 10
101.8580376264452
 20
-131.2391899628499
 10
101.8580376264452
 20
-131.2391899628499
 10
101.7374592844615
 20
-131.4276366858931
 10
101.7374592844615
 20
-131.4276366858931
 97
        0
 97
        0
 75
     2
 76
     1
 98
        0
  0
SPLINE
  5
E3
330
D4
100
AcDbEntity
  8
_U+30EC_U+30A4_U+30E4_U+30FC 1
370
     0
100
AcDbSpline
210
0.0
220
0.0
230
1.0
 70
    11
 71
     3
 72
    59
 73
    55
 74
     0
 42
0.0000000001
 43
0.0000000001
 12
1.0
 22
0.0
 32
0.0
 13
1.0
 23
0.0
 33
0.0
 40
0.0
 40
0.0
 40
0.0
 40
0.0
 40
1.0
 40
1.0
 40
1.0
 40
2.0
 40
2.0
 40
2.0
 40
3.0
 40
3.0
 40
3.0
 40
4.0
 40
4.0
 40
4.0
 40
5.0
 40
5.0
 40
5.0
 40
6.0
 40
6.0
 40
6.0
 40
7.0
 40
7.0
 40
7.0
 40
8.0
 40
8.0
 40
8.0
 40
9.0
 40
9.0
 40
9.0
 40
10.0
 40
10.0
 40
10.0
 40
11.0
 40
11.0
 40
11.0
 40
12.0
 40
12.0
 40
12.0
 40
13.0
 40
13.0
 40
13.0
 40
14.0
 40
14.0
 40
14.0
 40
15.0
 40
15.0
 40
15.0
 40
16.0
 40
16.0
 40
16.0
 40
17.0
 40
17.0
 40
17.0
 40
18.0
 40
18.0
 40
18.0
 40
18.0
 10
104.3808810502937
 20
-131.5141085825729
 30
0.0
 10
104.2940646440654
 20
-131.7745578012577
 30
0.0
 10
104.1479925954908
 20
-132.1128661779093
 30
0.0
 10
103.8244981294258
 20
-132.4050102750585
 30
0.0
 10
103.6594780556824
 20
-132.5507378140846
 30
0.0
 10
103.5006591538123
 20
-132.6227403097263
 30
0.0
 10
103.4035074611283
 20
-132.6692490987771
 30
0.0
 10
103.4035074611283
 20
-132.6692490987771
 30
0.0
 10
103.212993680794
 20
-132.5255886170422
 30
0.0
 10
103.212993680794
 20
-132.5255886170422
 30
0.0
 10
103.4772325045126
 20
-132.4280924148096
 30
0.0
 10
103.7101209593155
 20
-132.2589382264839
 30
0.0
 10
103.8834092622236
 20
-132.0367295676853
 30
0.0
 10
103.9809054644562
 20
-131.9120171111192
 30
0.0
 10
104.1393798567777
 20
-131.6495008351432
 30
0.0
 10
104.2134494097105
 20
-131.3239393117871
 30
0.0
 10
104.2134494097105
 20
-131.3239393117871
 30
0.0
 10
103.5767957640364
 20
-131.3239393117871
 30
0.0
 10
103.5767957640364
 20
-131.3239393117871
 30
0.0
 10
103.5068603256858
 20
-131.4210910044711
 30
0.0
 10
103.3249592840646
 20
-131.6791286563163
 30
0.0
 10
103.1475368665742
 20
-131.8021185651398
 30
0.0
 10
103.1475368665742
 20
-131.8021185651398
 30
0.0
 10
102.9801052259911
 20
-131.674994541734
 30
0.0
 10
102.9801052259911
 20
-131.674994541734
 30
0.0
 10
103.289130291018
 20
-131.4548529402266
 30
0.0
 10
103.5068603256858
 20
-131.0783040036888
 30
0.0
 10
103.5747287067452
 20
-130.8667751408944
 30
0.0
 10
103.5747287067452
 20
-130.8667751408944
 30
0.0
 10
103.7948703082527
 20
-130.9663384004182
 30
0.0
 10
103.7948703082527
 20
-130.9663384004182
 30
0.0
 10
103.799004422835
 20
-130.9684054577093
 30
0.0
 10
103.8393120400124
 20
-130.985286425587
 30
0.0
 10
103.8393120400124
 20
-131.0087130748867
 30
0.0
 10
103.8393120400124
 20
-131.0235269854733
 30
0.0
 10
103.8393120400124
 20
-131.0338622719291
 30
0.0
 10
103.7459499523621
 20
-131.0593559785199
 30
0.0
 10
103.7059868447332
 20
-131.1272243595793
 30
0.0
 10
103.7015082206024
 20
-131.1334255314528
 30
0.0
 10
103.6846272527247
 20
-131.1589192380436
 30
0.0
 10
103.6846272527247
 20
-131.1589192380436
 30
0.0
 10
104.0084662283382
 20
-131.1589192380436
 30
0.0
 10
104.0084662283382
 20
-131.1589192380436
 30
0.0
 10
104.1945013845417
 20
-131.1589192380436
 30
0.0
 10
104.2179280338414
 20
-131.1568521807525
 30
0.0
 10
104.2454887977234
 20
-131.1547851234613
 30
0.0
 10
104.3150797265254
 20
-131.1503064993305
 30
0.0
 10
104.329893637112
 20
-131.1420382701659
 30
0.0
 10
104.3512532291205
 20
-131.1272243595793
 30
0.0
 10
104.3512532291205
 20
-131.1272243595793
 30
0.0
 10
104.5138617360243
 20
-131.2943114906139
 30
0.0
 10
104.5138617360243
 20
-131.2943114906139
 30
0.0
 10
104.4356580685091
 20
-131.3663139862556
 30
0.0
 10
104.4273898393445
 20
-131.3766492727114
 30
0.0
 10
104.3808810502937
 20
-131.5141085825729
 30
0.0
  0
SPLINE
  5
E4
330
D4
100
AcDbEntity
  8
_U+30EC_U+30A4_U+30E4_U+30FC 1
370
     0
100
AcDbSpline
210
0.0
220
0.0
230
1.0
 70
    11
 71
     3
 72
    17
 73
    13
 74
     0
 42
0.0000000001
 43
0.0000000001
 12
1.0
 22
0.0
 32
0.0
 13
1.0
 23
0.0
 33
0.0
 40
0.0
 40
0.0
 40
0.0
 40
0.0
 40
1.0
 40
1.0
 40
1.0
 40
2.0
 40
2.0
 40
2.0
 40
3.0
 40
3.0
 40
3.0
 40
4.0
 40
4.0
 40
4.0
 40
4.0
 10
104.2919975867742
 20
-131.0486761825156
 30
0.0
 10
104.1862331553771
 20
-130.9556586044139
 30
0.0
 10
104.1734863020816
 20
-130.9453233179581
 30
0.0
 10
104.0718559852668
 20
-130.8667751408944
 30
0.0
 10
104.0718559852668
 20
-130.8667751408944
 30
0.0
 10
104.1838215885374
 20
-130.7696234482104
 30
0.0
 10
104.1838215885374
 20
-130.7696234482104
 30
0.0
 10
104.2940646440654
 20
-130.8457600584344
 30
0.0
 10
104.3257595225297
 20
-130.8774549368987
 30
0.0
 10
104.4080973046271
 20
-130.9622042858358
 30
0.0
 10
104.4080973046271
 20
-130.9622042858358
 30
0.0
 10
104.2919975867742
 20
-131.0486761825156
 30
0.0
 10
104.2919975867742
 20
-131.0486761825156
 30
0.0
  0
SPLINE
  5
E5
330
D4
100
AcDbEntity
  8
_U+30EC_U+30A4_U+30E4_U+30FC 1
370
     0
100
AcDbSpline
210
0.0
220
0.0
230
1.0
 70
    11
 71
     3
 72
    17
 73
    13
 74
     0
 42
0.0000000001
 43
0.0000000001
 12
1.0
 22
0.0
 32
0.0
 13
1.0
 23
0.0
 33
0.0
 40
0.0
 40
0.0
 40
0.0
 40
0.0
 40
1.0
 40
1.0
 40
1.0
 40
2.0
 40
2.0
 40
2.0
 40
3.0
 40
3.0
 40
3.0
 40
4.0
 40
4.0
 40
4.0
 40
4.0
 10
104.6261718488435
 20
-131.0572889212287
 30
0.0
 10
104.564849149206
 20
-130.9811523110047
 30
0.0
 10
104.4990478254377
 20
-130.909149815363
 30
0.0
 10
104.4187771006314
 20
-130.8498941730167
 30
0.0
 10
104.4187771006314
 20
-130.8498941730167
 30
0.0
 10
104.5393554426152
 20
-130.756876594915
 30
0.0
 10
104.5393554426152
 20
-130.756876594915
 30
0.0
 10
104.6282389061346
 20
-130.8140651799701
 30
0.0
 10
104.6809488670589
 20
-130.8667751408944
 30
0.0
 10
104.7467501908272
 20
-130.9556586044139
 30
0.0
 10
104.7467501908272
 20
-130.9556586044139
 30
0.0
 10
104.6261718488435
 20
-131.0572889212287
 30
0.0
 10
104.6261718488435
 20
-131.0572889212287
 30
0.0
  0
HATCH
  5
E6
330
D4
100
AcDbEntity
  8
_U+30EC_U+30A4_U+30E4_U+30FC 1
 62
   179
420
  2234388
100
AcDbHatch
 10
0.0
 20
0.0
 30
0.0
210
0.0
220
0.0
230
1.0
  2
SOLID
 70
     1
 71
     0
 91
        3
 92
        1
 93
        1
 72
     4
 94
        3
 73
     0
 74
     1
 95
       59
 96
       55
 40
0.0
 40
0.0
 40
0.0
 40
0.0
 40
1.0
 40
1.0
 40
1.0
 40
2.0
 40
2.0
 40
2.0
 40
3.0
 40
3.0
 40
3.0
 40
4.0
 40
4.0
 40
4.0
 40
5.0
 40
5.0
 40
5.0
 40
6.0
 40
6.0
 40
6.0
 40
7.0
 40
7.0
 40
7.0
 40
8.0
 40
8.0
 40
8.0
 40
9.0
 40
9.0
 40
9.0
 40
10.0
 40
10.0
 40
10.0
 40
11.0
 40
11.0
 40
11.0
 40
12.0
 40
12.0
 40
12.0
 40
13.0
 40
13.0
 40
13.0
 40
14.0
 40
14.0
 40
14.0
 40
15.0
 40
15.0
 40
15.0
 40
16.0
 40
16.0
 40
16.0
 40
17.0
 40
17.0
 40
17.0
 40
18.0
 40
18.0
 40
18.0
 40
18.0
 10
104.3808810502937
 20
-131.5141085825729
 10
104.2940646440654
 20
-131.7745578012577
 10
104.1479925954908
 20
-132.1128661779093
 10
103.8244981294258
 20
-132.4050102750585
 10
103.6594780556824
 20
-132.5507378140846
 10
103.5006591538123
 20
-132.6227403097263
 10
103.4035074611283
 20
-132.6692490987771
 10
103.4035074611283
 20
-132.6692490987771
 10
103.212993680794
 20
-132.5255886170422
 10
103.212993680794
 20
-132.5255886170422
 10
103.4772325045126
 20
-132.4280924148096
 10
103.7101209593155
 20
-132.2589382264839
 10
103.8834092622236
 20
-132.0367295676853
 10
103.9809054644562
 20
-131.9120171111192
 10
104.1393798567777
 20
-131.6495008351432
 10
104.2134494097105
 20
-131.3239393117871
 10
104.2134494097105
 20
-131.3239393117871
 10
103.5767957640364
 20
-131.3239393117871
 10
103.5767957640364
 20
-131.3239393117871
 10
103.5068603256858
 20
-131.4210910044711
 10
103.3249592840646
 20
-131.6791286563163
 10
103.1475368665742
 20
-131.8021185651398
 10
103.1475368665742
 20
-131.8021185651398
 10
102.9801052259911
 20
-131.674994541734
 10
102.9801052259911
 20
-131.674994541734
 10
103.289130291018
 20
-131.4548529402266
 10
103.5068603256858
 20
-131.0783040036888
 10
103.5747287067452
 20
-130.8667751408944
 10
103.5747287067452
 20
-130.8667751408944
 10
103.7948703082527
 20
-130.9663384004182
 10
103.7948703082527
 20
-130.9663384004182
 10
103.799004422835
 20
-130.9684054577093
 10
103.8393120400124
 20
-130.985286425587
 10
103.8393120400124
 20
-131.0087130748867
 10
103.8393120400124
 20
-131.0235269854733
 10
103.8393120400124
 20
-131.0338622719291
 10
103.7459499523621
 20
-131.0593559785199
 10
103.7059868447332
 20
-131.1272243595793
 10
103.7015082206024
 20
-131.1334255314528
 10
103.6846272527247
 20
-131.1589192380436
 10
103.6846272527247
 20
-131.1589192380436
 10
104.0084662283382
 20
-131.1589192380436
 10
104.0084662283382
 20
-131.1589192380436
 10
104.1945013845417
 20
-131.1589192380436
 10
104.2179280338414
 20
-131.1568521807525
 10
104.2454887977234
 20
-131.1547851234613
 10
104.3150797265254
 20
-131.1503064993305
 10
104.329893637112
 20
-131.1420382701659
 10
104.3512532291205
 20
-131.1272243595793
 10
104.3512532291205
 20
-131.1272243595793
 10
104.5138617360243
 20
-131.2943114906139
 10
104.5138617360243
 20
-131.2943114906139
 10
104.4356580685091
 20
-131.3663139862556
 10
104.4273898393445
 20
-131.3766492727114
 10
104.3808810502937
 20
-131.5141085825729
 97
        0
 97
        0
 92
        1
 93
        1
 72
     4
 94
        3
 73
     0
 74
     1
 95
       17
 96
       13
 40
0.0
 40
0.0
 40
0.0
 40
0.0
 40
1.0
 40
1.0
 40
1.0
 40
2.0
 40
2.0
 40
2.0
 40
3.0
 40
3.0
 40
3.0
 40
4.0
 40
4.0
 40
4.0
 40
4.0
 10
104.2919975867742
 20
-131.0486761825156
 10
104.1862331553771
 20
-130.9556586044139
 10
104.1734863020816
 20
-130.9453233179581
 10
104.0718559852668
 20
-130.8667751408944
 10
104.0718559852668
 20
-130.8667751408944
 10
104.1838215885374
 20
-130.7696234482104
 10
104.1838215885374
 20
-130.7696234482104
 10
104.2940646440654
 20
-130.8457600584344
 10
104.3257595225297
 20
-130.8774549368987
 10
104.4080973046271
 20
-130.9622042858358
 10
104.4080973046271
 20
-130.9622042858358
 10
104.2919975867742
 20
-131.0486761825156
 10
104.2919975867742
 20
-131.0486761825156
 97
        0
 97
        0
 92
        1
 93
        1
 72
     4
 94
        3
 73
     0
 74
     1
 95
       17
 96
       13
 40
0.0
 40
0.0
 40
0.0
 40
0.0
 40
1.0
 40
1.0
 40
1.0
 40
2.0
 40
2.0
 40
2.0
 40
3.0
 40
3.0
 40
3.0
 40
4.0
 40
4.0
 40
4.0
 40
4.0
 10
104.6261718488435
 20
-131.0572889212287
 10
104.564849149206
 20
-130.9811523110047
 10
104.4990478254377
 20
-130.909149815363
 10
104.4187771006314
 20
-130.8498941730167
 10
104.4187771006314
 20
-130.8498941730167
 10
104.5393554426152
 20
-130.756876594915
 10
104.5393554426152
 20
-130.756876594915
 10
104.6282389061346
 20
-130.8140651799701
 10
104.6809488670589
 20
-130.8667751408944
 10
104.7467501908272
 20
-130.9556586044139
 10
104.7467501908272
 20
-130.9556586044139
 10
104.6261718488435
 20
-131.0572889212287
 10
104.6261718488435
 20
-131.0572889212287
 97
        0
 97
        0
 75
     2
 76
     1
 98
        0
  0
ENDBLK
  5
D7
330
D4
100
AcDbEntity
  8
0
100
AcDbBlockEnd
  0
ENDSEC
  0
SECTION
  2
ENTITIES
  0
POLYLINE
  5
41
330
1F
100
AcDbEntity
  8
_U+30EC_U+30A4_U+30E4_U+30FC 1
 62
   179
420
  2234388
370
    25
100
AcDb2dPolyline
 66
     1
 10
0.0
 20
0.0
 30
0.0
  0
VERTEX
  5
42
330
41
100
AcDbEntity
  8
_U+30EC_U+30A4_U+30E4_U+30FC 1
 62
   179
420
  2234388
370
    25
100
AcDbVertex
100
AcDb2dVertex
 10
71.6104298397324
 20
-114.2934383047599
 30
0.0
  0
VERTEX
  5
43
330
41
100
AcDbEntity
  8
_U+30EC_U+30A4_U+30E4_U+30FC 1
 62
   179
420
  2234388
370
    25
100
AcDbVertex
100
AcDb2dVertex
 10
86.58559917990623
 20
-115.4754555266868
 30
0.0
  0
VERTEX
  5
44
330
41
100
AcDbEntity
  8
_U+30EC_U+30A4_U+30E4_U+30FC 1
 62
   179
420
  2234388
370
    25
100
AcDbVertex
100
AcDb2dVertex
 10
86.58559917990623
 20
-116.7236185819302
 30
0.0
  0
VERTEX
  5
45
330
41
100
AcDbEntity
  8
_U+30EC_U+30A4_U+30E4_U+30FC 1
 62
   179
420
  2234388
370
    25
100
AcDbVertex
100
AcDb2dVertex
 10
73.58104645612444
 20
-116.7236185819302
 30
0.0
  0
VERTEX
  5
46
330
41
100
AcDbEntity
  8
_U+30EC_U+30A4_U+30E4_U+30FC 1
 62
   179
420
  2234388
370
    25
100
AcDbVertex
100
AcDb2dVertex
 10
73.38398479448524
 20
-140.6966677426034
 30
0.0
  0
VERTEX
  5
47
330
41
100
AcDbEntity
  8
_U+30EC_U+30A4_U+30E4_U+30FC 1
 62
   179
420
  2234388
370
    25
100
AcDbVertex
100
AcDb2dVertex
 10
106.0266175728134
 20
-141.9444780200697
 30
0.0
  0
VERTEX
  5
48
330
41
100
AcDbEntity
  8
_U+30EC_U+30A4_U+30E4_U+30FC 1
 62
   179
420
  2234388
370
    25
100
AcDbVertex
100
AcDb2dVertex
 10
106.0266175728134
 20
-142.8639932976175
 30
0.0
  0
VERTEX
  5
49
330
41
100
AcDbEntity
  8
_U+30EC_U+30A4_U+30E4_U+30FC 1
 62
   179
420
  2234388
370
    25
100
AcDbVertex
100
AcDb2dVertex
 10
71.34792790198493
 20
-142.666931631
 30
0.0
  0
VERTEX
  5
4A
330
41
100
AcDbEntity
  8
_U+30EC_U+30A4_U+30E4_U+30FC 1
 62
   179
420
  2234388
370
    25
100
AcDbVertex
100
AcDb2dVertex
 10
71.6104298397324
 20
-114.2934383047599
 30
0.0
  0
SEQEND
  5
4B
330
41
100
AcDbEntity
  8
_U+30EC_U+30A4_U+30E4_U+30FC 1
 62
   179
420
  2234388
370
    25
  0
POLYLINE
  5
4C
330
1F
100
AcDbEntity
  8
_U+30EC_U+30A4_U+30E4_U+30FC 1
  6
AI-Linetype-1
 62
   154
420
    23468
370
    25
100
AcDb2dPolyline
 66
     1
 10
0.0
 20
0.0
 30
0.0
  0
VERTEX
  5
4D
330
4C
100
AcDbEntity
  8
_U+30EC_U+30A4_U+30E4_U+30FC 1
  6
AI-Linetype-1
 62
   154
420
    23468
370
    25
100
AcDbVertex
100
AcDb2dVertex
 10
71.2821348481079
 20
-143.4551430196919
 30
0.0
  0
VERTEX
  5
4E
330
4C
100
AcDbEntity
  8
_U+30EC_U+30A4_U+30E4_U+30FC 1
  6
AI-Linetype-1
 62
   154
420
    23468
370
    25
100
AcDbVertex
100
AcDb2dVertex
 10
105.698287303412
 20
-143.4551430196919
 30
0.0
  0
SEQEND
  5
50
330
4C
100
AcDbEntity
  8
_U+30EC_U+30A4_U+30E4_U+30FC 1
  6
AI-Linetype-1
 62
   154
420
    23468
370
    25
  0
POLYLINE
  5
51
330
1F
100
AcDbEntity
  8
_U+30EC_U+30A4_U+30E4_U+30FC 1
  6
AI-Linetype-2
 62
   154
420
    23468
370
    25
100
AcDb2dPolyline
 66
     1
 10
0.0
 20
0.0
 30
0.0
  0
VERTEX
  5
52
330
51
100
AcDbEntity
  8
_U+30EC_U+30A4_U+30E4_U+30FC 1
  6
AI-Linetype-2
 62
   154
420
    23468
370
    25
100
AcDbVertex
100
AcDb2dVertex
 10
73.6464867322327
 20
-140.1054827427515
 30
0.0
  0
VERTEX
  5
53
330
51
100
AcDbEntity
  8
_U+30EC_U+30A4_U+30E4_U+30FC 1
  6
AI-Linetype-2
 62
   154
420
    23468
370
    25
100
AcDbVertex
100
AcDb2dVertex
 10
106.1578509027987
 20
-141.2874999646781
 30
0.0
  0
SEQEND
  5
55
330
51
100
AcDbEntity
  8
_U+30EC_U+30A4_U+30E4_U+30FC 1
  6
AI-Linetype-2
 62
   154
420
    23468
370
    25
  0
POLYLINE
  5
56
330
1F
100
AcDbEntity
  8
_U+30EC_U+30A4_U+30E4_U+30FC 1
 62
   179
420
  2234388
370
     9
100
AcDb2dPolyline
 66
     1
 10
0.0
 20
0.0
 30
0.0
  0
VERTEX
  5
57
330
56
100
AcDbEntity
  8
_U+30EC_U+30A4_U+30E4_U+30FC 1
 62
   179
420
  2234388
370
     9
100
AcDbVertex
100
AcDb2dVertex
 10
71.61078261750117
 20
-110.5493371945849
 30
0.0
  0
VERTEX
  5
58
330
56
100
AcDbEntity
  8
_U+30EC_U+30A4_U+30E4_U+30FC 1
 62
   179
420
  2234388
370
     9
100
AcDbVertex
100
AcDb2dVertex
 10
71.61078261750117
 20
-113.5703144160518
 30
0.0
  0
SEQEND
  5
59
330
56
100
AcDbEntity
  8
_U+30EC_U+30A4_U+30E4_U+30FC 1
 62
   179
420
  2234388
370
     9
  0
POLYLINE
  5
5A
330
1F
100
AcDbEntity
  8
_U+30EC_U+30A4_U+30E4_U+30FC 1
 62
   179
420
  2234388
370
     9
100
AcDb2dPolyline
 66
     1
 10
0.0
 20
0.0
 30
0.0
  0
VERTEX
  5
5B
330
5A
100
AcDbEntity
  8
_U+30EC_U+30A4_U+30E4_U+30FC 1
 62
   179
420
  2234388
370
     9
100
AcDbVertex
100
AcDb2dVertex
 10
71.61078261750117
 20
-111.6000858054333
 30
0.0
  0
VERTEX
  5
5C
330
5A
100
AcDbEntity
  8
_U+30EC_U+30A4_U+30E4_U+30FC 1
 62
   179
420
  2234388
370
     9
100
AcDbVertex
100
AcDb2dVertex
 10
77.58733190947115
 20
-111.6000858054333
 30
0.0
  0
SEQEND
  5
5D
330
5A
100
AcDbEntity
  8
_U+30EC_U+30A4_U+30E4_U+30FC 1
 62
   179
420
  2234388
370
     9
  0
SPLINE
  5
5E
330
1F
100
AcDbEntity
  8
_U+30EC_U+30A4_U+30E4_U+30FC 1
 62
   179
420
  2234388
370
     9
100
AcDbSpline
210
0.0
220
0.0
230
1.0
 70
    24
 71
     3
 72
     8
 73
     4
 74
     0
 42
0.0000000001
 43
0.0000000001
 12
1.0
 22
0.0
 32
0.0
 13
1.0
 23
0.0
 33
0.0
 40
0.0
 40
0.0
 40
0.0
 40
0.0
 40
1.0
 40
1.0
 40
1.0
 40
1.0
 10
80.73993044015276
 20
-111.6658788609724
 30
0.0
 10
81.00282043344589
 20
-111.6658788609724
 30
0.0
 10
86.65139442278168
 20
-111.6658788609724
 30
0.0
 10
86.65139442278168
 20
-111.6658788609724
 30
0.0
  0
POLYLINE
  5
5F
330
1F
100
AcDbEntity
  8
_U+30EC_U+30A4_U+30E4_U+30FC 1
 62
   179
420
  2234388
370
     9
100
AcDb2dPolyline
 66
     1
 10
0.0
 20
0.0
 30
0.0
  0
VERTEX
  5
60
330
5F
100
AcDbEntity
  8
_U+30EC_U+30A4_U+30E4_U+30FC 1
 62
   179
420
  2234388
370
     9
100
AcDbVertex
100
AcDb2dVertex
 10
86.58559917990623
 20
-110.7463988612024
 30
0.0
  0
VERTEX
  5
61
330
5F
100
AcDbEntity
  8
_U+30EC_U+30A4_U+30E4_U+30FC 1
 62
   179
420
  2234388
370
     9
100
AcDbVertex
100
AcDb2dVertex
 10
86.58559917990623
 20
-113.5703144160518
 30
0.0
  0
SEQEND
  5
62
330
5F
100
AcDbEntity
  8
_U+30EC_U+30A4_U+30E4_U+30FC 1
 62
   179
420
  2234388
370
     9
  0
POLYLINE
  5
63
330
1F
100
AcDbEntity
  8
_U+30EC_U+30A4_U+30E4_U+30FC 1
 62
   179
420
  2234388
370
     9
100
AcDb2dPolyline
 66
     1
 10
0.0
 20
0.0
 30
0.0
  0
VERTEX
  5
64
330
63
100
AcDbEntity
  8
_U+30EC_U+30A4_U+30E4_U+30FC 1
 62
   179
420
  2234388
370
     9
100
AcDbVertex
100
AcDb2dVertex
 10
87.57087221032536
 20
-114.4898296935997
 30
0.0
  0
VERTEX
  5
65
330
63
100
AcDbEntity
  8
_U+30EC_U+30A4_U+30E4_U+30FC 1
 62
   179
420
  2234388
370
     9
100
AcDbVertex
100
AcDb2dVertex
 10
110.4273791272073
 20
-114.4898296935997
 30
0.0
  0
SEQEND
  5
66
330
63
100
AcDbEntity
  8
_U+30EC_U+30A4_U+30E4_U+30FC 1
 62
   179
420
  2234388
370
     9
  0
POLYLINE
  5
67
330
1F
100
AcDbEntity
  8
_U+30EC_U+30A4_U+30E4_U+30FC 1
 62
   179
420
  2234388
370
     9
100
AcDb2dPolyline
 66
     1
 10
0.0
 20
0.0
 30
0.0
  0
VERTEX
  5
68
330
67
100
AcDbEntity
  8
_U+30EC_U+30A4_U+30E4_U+30FC 1
 62
   179
420
  2234388
370
     9
100
AcDbVertex
100
AcDb2dVertex
 10
87.57087221032536
 20
-116.5916796930744
 30
0.0
  0
VERTEX
  5
69
330
67
100
AcDbEntity
  8
_U+30EC_U+30A4_U+30E4_U+30FC 1
 62
   179
420
  2234388
370
     9
100
AcDbVertex
100
AcDb2dVertex
 10
110.4273791272073
 20
-116.5916796930744
 30
0.0
  0
SEQEND
  5
6A
330
67
100
AcDbEntity
  8
_U+30EC_U+30A4_U+30E4_U+30FC 1
 62
   179
420
  2234388
370
     9
  0
POLYLINE
  5
6B
330
1F
100
AcDbEntity
  8
_U+30EC_U+30A4_U+30E4_U+30FC 1
 62
   179
420
  2234388
370
     9
100
AcDb2dPolyline
 66
     1
 10
0.0
 20
0.0
 30
0.0
  0
VERTEX
  5
6C
330
6B
100
AcDbEntity
  8
_U+30EC_U+30A4_U+30E4_U+30FC 1
 62
   179
420
  2234388
370
     9
100
AcDbVertex
100
AcDb2dVertex
 10
109.3108022112491
 20
-113.5048741382906
 30
0.0
  0
VERTEX
  5
6D
330
6B
100
AcDbEntity
  8
_U+30EC_U+30A4_U+30E4_U+30FC 1
 62
   179
420
  2234388
370
     9
100
AcDbVertex
100
AcDb2dVertex
 10
109.3108022112491
 20
-125.9182421907428
 30
0.0
  0
SEQEND
  5
6E
330
6B
100
AcDbEntity
  8
_U+30EC_U+30A4_U+30E4_U+30FC 1
 62
   179
420
  2234388
370
     9
  0
POLYLINE
  5
6F
330
1F
100
AcDbEntity
  8
_U+30EC_U+30A4_U+30E4_U+30FC 1
 62
   179
420
  2234388
370
     9
100
AcDb2dPolyline
 66
     1
 10
0.0
 20
0.0
 30
0.0
  0
VERTEX
  5
70
330
6F
100
AcDbEntity
  8
_U+30EC_U+30A4_U+30E4_U+30FC 1
 62
   179
420
  2234388
370
     9
100
AcDbVertex
100
AcDb2dVertex
 10
107.1431592109947
 20
-141.8783321867529
 30
0.0
  0
VERTEX
  5
71
330
6F
100
AcDbEntity
  8
_U+30EC_U+30A4_U+30E4_U+30FC 1
 62
   179
420
  2234388
370
     9
100
AcDbVertex
100
AcDb2dVertex
 10
110.0332558039289
 20
-141.8783321867529
 30
0.0
  0
SEQEND
  5
72
330
6F
100
AcDbEntity
  8
_U+30EC_U+30A4_U+30E4_U+30FC 1
 62
   179
420
  2234388
370
     9
  0
POLYLINE
  5
73
330
1F
100
AcDbEntity
  8
_U+30EC_U+30A4_U+30E4_U+30FC 1
 62
   179
420
  2234388
370
     9
100
AcDb2dPolyline
 66
     1
 10
0.0
 20
0.0
 30
0.0
  0
VERTEX
  5
74
330
73
100
AcDbEntity
  8
_U+30EC_U+30A4_U+30E4_U+30FC 1
 62
   179
420
  2234388
370
     9
100
AcDbVertex
100
AcDb2dVertex
 10
109.179216103495
 20
-141.8125391312138
 30
0.0
  0
VERTEX
  5
75
330
73
100
AcDbEntity
  8
_U+30EC_U+30A4_U+30E4_U+30FC 1
 62
   179
420
  2234388
370
     9
100
AcDbVertex
100
AcDb2dVertex
 10
109.3108022112491
 20
-130.7127744117663
 30
0.0
  0
SEQEND
  5
76
330
73
100
AcDbEntity
  8
_U+30EC_U+30A4_U+30E4_U+30FC 1
 62
   179
420
  2234388
370
     9
  0
POLYLINE
  5
77
330
1F
100
AcDbEntity
  8
_U+30EC_U+30A4_U+30E4_U+30FC 1
 62
   179
420
  2234388
370
     9
100
AcDb2dPolyline
 66
     1
 10
0.0
 20
0.0
 30
0.0
  0
VERTEX
  5
78
330
77
100
AcDbEntity
  8
_U+30EC_U+30A4_U+30E4_U+30FC 1
 62
   179
420
  2234388
370
     9
100
AcDbVertex
100
AcDb2dVertex
 10
89.40986744118646
 20
-139.5794205206606
 30
0.0
  0
VERTEX
  5
79
330
77
100
AcDbEntity
  8
_U+30EC_U+30A4_U+30E4_U+30FC 1
 62
   179
420
  2234388
370
     9
100
AcDbVertex
100
AcDb2dVertex
 10
94.2702278727439
 20
-132.9458930223189
 30
0.0
  0
VERTEX
  5
7A
330
77
100
AcDbEntity
  8
_U+30EC_U+30A4_U+30E4_U+30FC 1
 62
   179
420
  2234388
370
     9
100
AcDbVertex
100
AcDb2dVertex
 10
105.8953489650512
 20
-132.9458930223189
 30
0.0
  0
SEQEND
  5
7B
330
77
100
AcDbEntity
  8
_U+30EC_U+30A4_U+30E4_U+30FC 1
 62
   179
420
  2234388
370
     9
  0
POLYLINE
  5
7C
330
1F
100
AcDbEntity
  8
_U+30EC_U+30A4_U+30E4_U+30FC 1
 62
   179
420
  2234388
370
     9
100
AcDb2dPolyline
 66
     1
 10
0.0
 20
0.0
 30
0.0
  0
VERTEX
  5
7D
330
7C
100
AcDbEntity
  8
_U+30EC_U+30A4_U+30E4_U+30FC 1
 62
   179
420
  2234388
370
     9
100
AcDbVertex
100
AcDb2dVertex
 10
71.34792790198493
 20
-144.5713671860795
 30
0.0
  0
VERTEX
  5
7E
330
7C
100
AcDbEntity
  8
_U+30EC_U+30A4_U+30E4_U+30FC 1
 62
   179
420
  2234388
370
     9
100
AcDbVertex
100
AcDb2dVertex
 10
71.34792790198493
 20
-147.5269041297849
 30
0.0
  0
SEQEND
  5
7F
330
7C
100
AcDbEntity
  8
_U+30EC_U+30A4_U+30E4_U+30FC 1
 62
   179
420
  2234388
370
     9
  0
POLYLINE
  5
80
330
1F
100
AcDbEntity
  8
_U+30EC_U+30A4_U+30E4_U+30FC 1
 62
   179
420
  2234388
370
     9
100
AcDb2dPolyline
 66
     1
 10
0.0
 20
0.0
 30
0.0
  0
VERTEX
  5
81
330
80
100
AcDbEntity
  8
_U+30EC_U+30A4_U+30E4_U+30FC 1
 62
   179
420
  2234388
370
     9
100
AcDbVertex
100
AcDb2dVertex
 10
71.34792790198493
 20
-146.5416310744755
 30
0.0
  0
VERTEX
  5
82
330
80
100
AcDbEntity
  8
_U+30EC_U+30A4_U+30E4_U+30FC 1
 62
   179
420
  2234388
370
     9
100
AcDbVertex
100
AcDb2dVertex
 10
87.17674888704695
 20
-146.6074241300146
 30
0.0
  0
SEQEND
  5
83
330
80
100
AcDbEntity
  8
_U+30EC_U+30A4_U+30E4_U+30FC 1
 62
   179
420
  2234388
370
     9
  0
POLYLINE
  5
84
330
1F
100
AcDbEntity
  8
_U+30EC_U+30A4_U+30E4_U+30FC 1
 62
   179
420
  2234388
370
     9
100
AcDb2dPolyline
 66
     1
 10
0.0
 20
0.0
 30
0.0
  0
VERTEX
  5
85
330
84
100
AcDbEntity
  8
_U+30EC_U+30A4_U+30E4_U+30FC 1
 62
   179
420
  2234388
370
     9
100
AcDbVertex
100
AcDb2dVertex
 10
90.39482297161372
 20
-146.6728644077764
 30
0.0
  0
VERTEX
  5
86
330
84
100
AcDbEntity
  8
_U+30EC_U+30A4_U+30E4_U+30FC 1
 62
   179
420
  2234388
370
     9
100
AcDbVertex
100
AcDb2dVertex
 10
106.0924106266905
 20
-146.6728644077764
 30
0.0
  0
SEQEND
  5
87
330
84
100
AcDbEntity
  8
_U+30EC_U+30A4_U+30E4_U+30FC 1
 62
   179
420
  2234388
370
     9
  0
POLYLINE
  5
88
330
1F
100
AcDbEntity
  8
_U+30EC_U+30A4_U+30E4_U+30FC 1
 62
   179
420
  2234388
370
     9
100
AcDb2dPolyline
 66
     1
 10
0.0
 20
0.0
 30
0.0
  0
VERTEX
  5
89
330
88
100
AcDbEntity
  8
_U+30EC_U+30A4_U+30E4_U+30FC 1
 62
   179
420
  2234388
370
     9
100
AcDbVertex
100
AcDb2dVertex
 10
106.0924106266905
 20
-144.702635797158
 30
0.0
  0
VERTEX
  5
8A
330
88
100
AcDbEntity
  8
_U+30EC_U+30A4_U+30E4_U+30FC 1
 62
   179
420
  2234388
370
     9
100
AcDbVertex
100
AcDb2dVertex
 10
106.0924106266905
 20
-147.6581727408633
 30
0.0
  0
SEQEND
  5
8B
330
88
100
AcDbEntity
  8
_U+30EC_U+30A4_U+30E4_U+30FC 1
 62
   179
420
  2234388
370
     9
  0
POLYLINE
  5
8C
330
1F
100
AcDbEntity
  8
_U+30EC_U+30A4_U+30E4_U+30FC 1
 62
   179
420
  2234388
370
     9
100
AcDb2dPolyline
 66
     1
 10
0.0
 20
0.0
 30
0.0
  0
VERTEX
  5
8D
330
8C
100
AcDbEntity
  8
_U+30EC_U+30A4_U+30E4_U+30FC 1
 62
   179
420
  2234388
370
     9
100
AcDbVertex
100
AcDb2dVertex
 10
89.4753429950716
 20
-139.4481519095822
 30
0.0
  0
VERTEX
  5
8E
330
8C
100
AcDbEntity
  8
_U+30EC_U+30A4_U+30E4_U+30FC 1
 62
   179
420
  2234388
370
     9
100
AcDbVertex
100
AcDb2dVertex
 10
89.21280577954727
 20
-138.9227952430469
 30
0.0
  0
VERTEX
  5
8F
330
8C
100
AcDbEntity
  8
_U+30EC_U+30A4_U+30E4_U+30FC 1
 62
   179
420
  2234388
370
     9
100
AcDbVertex
100
AcDb2dVertex
 10
89.14701272567022
 20
-139.9735438538957
 30
0.0
  0
VERTEX
  5
90
330
8C
100
AcDbEntity
  8
_U+30EC_U+30A4_U+30E4_U+30FC 1
 62
   179
420
  2234388
370
     9
100
AcDbVertex
100
AcDb2dVertex
 10
90.06649270221234
 20
-139.5139802428994
 30
0.0
  0
VERTEX
  5
91
330
8C
100
AcDbEntity
  8
_U+30EC_U+30A4_U+30E4_U+30FC 1
 62
   179
420
  2234388
370
     9
100
AcDbVertex
100
AcDb2dVertex
 10
89.4753429950716
 20
-139.4481519095822
 30
0.0
  0
SEQEND
  5
93
330
8C
100
AcDbEntity
  8
_U+30EC_U+30A4_U+30E4_U+30FC 1
 62
   179
420
  2234388
370
     9
  0
HATCH
  5
92
330
1F
100
AcDbEntity
  8
_U+30EC_U+30A4_U+30E4_U+30FC 1
 62
   179
420
  2234388
100
AcDbHatch
 10
0.0
 20
0.0
 30
0.0
210
0.0
220
0.0
230
1.0
  2
SOLID
 70
     1
 71
     0
 91
        1
 92
        1
 93
        4
 72
     1
 10
89.4753429950716
 20
-139.4481519095822
 11
89.21280577954727
 21
-138.9227952430469
 72
     1
 10
89.21280577954727
 20
-138.9227952430469
 11
89.14701272567022
 21
-139.9735438538957
 72
     1
 10
89.14701272567022
 20
-139.9735438538957
 11
90.06649270221234
 21
-139.5139802428994
 72
     1
 10
90.06649270221234
 20
-139.5139802428994
 11
89.4753429950716
 21
-139.4481519095822
 97
        0
 75
     2
 76
     1
 98
        0
  0
SPLINE
  5
94
330
1F
100
AcDbEntity
  8
_U+30EC_U+30A4_U+30E4_U+30FC 1
370
     0
100
AcDbSpline
210
0.0
220
0.0
230
1.0
 70
    11
 71
     3
 72
    17
 73
    13
 74
     0
 42
0.0000000001
 43
0.0000000001
 12
1.0
 22
0.0
 32
0.0
 13
1.0
 23
0.0
 33
0.0
 40
0.0
 40
0.0
 40
0.0
 40
0.0
 40
1.0
 40
1.0
 40
1.0
 40
2.0
 40
2.0
 40
2.0
 40
3.0
 40
3.0
 40
3.0
 40
4.0
 40
4.0
 40
4.0
 40
4.0
 10
71.67625817138631
 20
-111.6658788609724
 30
0.0
 10
71.67625817138631
 20
-111.7144563609603
 30
0.0
 10
71.63664122795258
 20
-111.7540733053948
 30
0.0
 10
71.58806372919189
 20
-111.7540733053948
 30
0.0
 10
71.53948623043121
 20
-111.7540733053948
 30
0.0
 10
71.49986928699748
 20
-111.7144563609603
 30
0.0
 10
71.49986928699748
 20
-111.6658788609724
 30
0.0
 10
71.49986928699748
 20
-111.6173013609844
 30
0.0
 10
71.53948623043121
 20
-111.57768441655
 30
0.0
 10
71.58806372919189
 20
-111.57768441655
 30
0.0
 10
71.63664122795258
 20
-111.57768441655
 30
0.0
 10
71.67625817138631
 20
-111.6173013609844
 30
0.0
 10
71.67625817138631
 20
-111.6658788609724
 30
0.0
  0
HATCH
  5
95
330
1F
100
AcDbEntity
  8
_U+30EC_U+30A4_U+30E4_U+30FC 1
 62
   179
420
  2234388
100
AcDbHatch
 10
0.0
 20
0.0
 30
0.0
210
0.0
220
0.0
230
1.0
  2
SOLID
 70
     1
 71
     0
 91
        1
 92
        1
 93
        1
 72
     4
 94
        3
 73
     0
 74
     1
 95
       17
 96
       13
 40
0.0
 40
0.0
 40
0.0
 40
0.0
 40
1.0
 40
1.0
 40
1.0
 40
2.0
 40
2.0
 40
2.0
 40
3.0
 40
3.0
 40
3.0
 40
4.0
 40
4.0
 40
4.0
 40
4.0
 10
71.67625817138631
 20
-111.6658788609724
 10
71.67625817138631
 20
-111.7144563609603
 10
71.63664122795258
 20
-111.7540733053948
 10
71.58806372919189
 20
-111.7540733053948
 10
71.53948623043121
 20
-111.7540733053948
 10
71.49986928699748
 20
-111.7144563609603
 10
71.49986928699748
 20
-111.6658788609724
 10
71.49986928699748
 20
-111.6173013609844
 10
71.53948623043121
 20
-111.57768441655
 10
71.58806372919189
 20
-111.57768441655
 10
71.63664122795258
 20
-111.57768441655
 10
71.67625817138631
 20
-111.6173013609844
 10
71.67625817138631
 20
-111.6658788609724
 97
        0
 97
        0
 75
     2
 76
     1
 98
        0
  0
SPLINE
  5
96
330
1F
100
AcDbEntity
  8
_U+30EC_U+30A4_U+30E4_U+30FC 1
370
     0
100
AcDbSpline
210
0.0
220
0.0
230
1.0
 70
    11
 71
     3
 72
    17
 73
    13
 74
     0
 42
0.0000000001
 43
0.0000000001
 12
1.0
 22
0.0
 32
0.0
 13
1.0
 23
0.0
 33
0.0
 40
0.0
 40
0.0
 40
0.0
 40
0.0
 40
1.0
 40
1.0
 40
1.0
 40
2.0
 40
2.0
 40
2.0
 40
3.0
 40
3.0
 40
3.0
 40
4.0
 40
4.0
 40
4.0
 40
4.0
 10
86.65139442278168
 20
-111.6658788609724
 30
0.0
 10
86.65139442278168
 20
-111.7144563609603
 30
0.0
 10
86.61177529034953
 20
-111.7540733053948
 30
0.0
 10
86.56319997835928
 20
-111.7540733053948
 30
0.0
 10
86.51462029282816
 20
-111.7540733053948
 30
0.0
 10
86.47500553393688
 20
-111.7144563609603
 30
0.0
 10
86.47500553393688
 20
-111.6658788609724
 30
0.0
 10
86.47500553393688
 20
-111.6173013609844
 30
0.0
 10
86.51462029282816
 20
-111.57768441655
 30
0.0
 10
86.56319997835928
 20
-111.57768441655
 30
0.0
 10
86.61177529034953
 20
-111.57768441655
 30
0.0
 10
86.65139442278168
 20
-111.6173013609844
 30
0.0
 10
86.65139442278168
 20
-111.6658788609724
 30
0.0
  0
HATCH
  5
97
330
1F
100
AcDbEntity
  8
_U+30EC_U+30A4_U+30E4_U+30FC 1
 62
   179
420
  2234388
100
AcDbHatch
 10
0.0
 20
0.0
 30
0.0
210
0.0
220
0.0
230
1.0
  2
SOLID
 70
     1
 71
     0
 91
        1
 92
        1
 93
        1
 72
     4
 94
        3
 73
     0
 74
     1
 95
       17
 96
       13
 40
0.0
 40
0.0
 40
0.0
 40
0.0
 40
1.0
 40
1.0
 40
1.0
 40
2.0
 40
2.0
 40
2.0
 40
3.0
 40
3.0
 40
3.0
 40
4.0
 40
4.0
 40
4.0
 40
4.0
 10
86.65139442278168
 20
-111.6658788609724
 10
86.65139442278168
 20
-111.7144563609603
 10
86.61177529034953
 20
-111.7540733053948
 10
86.56319997835928
 20
-111.7540733053948
 10
86.51462029282816
 20
-111.7540733053948
 10
86.47500553393688
 20
-111.7144563609603
 10
86.47500553393688
 20
-111.6658788609724
 10
86.47500553393688
 20
-111.6173013609844
 10
86.51462029282816
 20
-111.57768441655
 10
86.56319997835928
 20
-111.57768441655
 10
86.61177529034953
 20
-111.57768441655
 10
86.65139442278168
 20
-111.6173013609844
 10
86.65139442278168
 20
-111.6658788609724
 97
        0
 97
        0
 75
     2
 76
     1
 98
        0
  0
SPLINE
  5
98
330
1F
100
AcDbEntity
  8
_U+30EC_U+30A4_U+30E4_U+30FC 1
370
     0
100
AcDbSpline
210
0.0
220
0.0
230
1.0
 70
    11
 71
     3
 72
    17
 73
    13
 74
     0
 42
0.0000000001
 43
0.0000000001
 12
1.0
 22
0.0
 32
0.0
 13
1.0
 23
0.0
 33
0.0
 40
0.0
 40
0.0
 40
0.0
 40
0.0
 40
1.0
 40
1.0
 40
1.0
 40
2.0
 40
2.0
 40
2.0
 40
3.0
 40
3.0
 40
3.0
 40
4.0
 40
4.0
 40
4.0
 40
4.0
 10
109.3108022112491
 20
-114.4898296935997
 30
0.0
 10
109.3108022112491
 20
-114.5384071935876
 30
0.0
 10
109.2711852678154
 20
-114.5780241380221
 30
0.0
 10
109.2226077690547
 20
-114.5780241380221
 30
0.0
 10
109.174030270294
 20
-114.5780241380221
 30
0.0
 10
109.1344133268603
 20
-114.5384071935876
 30
0.0
 10
109.1344133268603
 20
-114.4898296935997
 30
0.0
 10
109.1344133268603
 20
-114.4412521936121
 30
0.0
 10
109.174030270294
 20
-114.4016352491773
 30
0.0
 10
109.2226077690547
 20
-114.4016352491773
 30
0.0
 10
109.2711852678154
 20
-114.4016352491773
 30
0.0
 10
109.3108022112491
 20
-114.4412521936121
 30
0.0
 10
109.3108022112491
 20
-114.4898296935997
 30
0.0
  0
HATCH
  5
99
330
1F
100
AcDbEntity
  8
_U+30EC_U+30A4_U+30E4_U+30FC 1
 62
   179
420
  2234388
100
AcDbHatch
 10
0.0
 20
0.0
 30
0.0
210
0.0
220
0.0
230
1.0
  2
SOLID
 70
     1
 71
     0
 91
        1
 92
        1
 93
        1
 72
     4
 94
        3
 73
     0
 74
     1
 95
       17
 96
       13
 40
0.0
 40
0.0
 40
0.0
 40
0.0
 40
1.0
 40
1.0
 40
1.0
 40
2.0
 40
2.0
 40
2.0
 40
3.0
 40
3.0
 40
3.0
 40
4.0
 40
4.0
 40
4.0
 40
4.0
 10
109.3108022112491
 20
-114.4898296935997
 10
109.3108022112491
 20
-114.5384071935876
 10
109.2711852678154
 20
-114.5780241380221
 10
109.2226077690547
 20
-114.5780241380221
 10
109.174030270294
 20
-114.5780241380221
 10
109.1344133268603
 20
-114.5384071935876
 10
109.1344133268603
 20
-114.4898296935997
 10
109.1344133268603
 20
-114.4412521936121
 10
109.174030270294
 20
-114.4016352491773
 10
109.2226077690547
 20
-114.4016352491773
 10
109.2711852678154
 20
-114.4016352491773
 10
109.3108022112491
 20
-114.4412521936121
 10
109.3108022112491
 20
-114.4898296935997
 97
        0
 97
        0
 75
     2
 76
     1
 98
        0
  0
SPLINE
  5
9A
330
1F
100
AcDbEntity
  8
_U+30EC_U+30A4_U+30E4_U+30FC 1
370
     0
100
AcDbSpline
210
0.0
220
0.0
230
1.0
 70
    11
 71
     3
 72
    17
 73
    13
 74
     0
 42
0.0000000001
 43
0.0000000001
 12
1.0
 22
0.0
 32
0.0
 13
1.0
 23
0.0
 33
0.0
 40
0.0
 40
0.0
 40
0.0
 40
0.0
 40
1.0
 40
1.0
 40
1.0
 40
2.0
 40
2.0
 40
2.0
 40
3.0
 40
3.0
 40
3.0
 40
4.0
 40
4.0
 40
4.0
 40
4.0
 10
109.3108022112491
 20
-116.5916796930744
 30
0.0
 10
109.3108022112491
 20
-116.640257193062
 30
0.0
 10
109.2711852678154
 20
-116.6798741374968
 30
0.0
 10
109.2226077690547
 20
-116.6798741374968
 30
0.0
 10
109.174030270294
 20
-116.6798741374968
 30
0.0
 10
109.1344133268603
 20
-116.640257193062
 30
0.0
 10
109.1344133268603
 20
-116.5916796930744
 30
0.0
 10
109.1344133268603
 20
-116.5431021930865
 30
0.0
 10
109.174030270294
 20
-116.503485248652
 30
0.0
 10
109.2226077690547
 20
-116.503485248652
 30
0.0
 10
109.2711852678154
 20
-116.503485248652
 30
0.0
 10
109.3108022112491
 20
-116.5431021930865
 30
0.0
 10
109.3108022112491
 20
-116.5916796930744
 30
0.0
  0
HATCH
  5
9B
330
1F
100
AcDbEntity
  8
_U+30EC_U+30A4_U+30E4_U+30FC 1
 62
   179
420
  2234388
100
AcDbHatch
 10
0.0
 20
0.0
 30
0.0
210
0.0
220
0.0
230
1.0
  2
SOLID
 70
     1
 71
     0
 91
        1
 92
        1
 93
        1
 72
     4
 94
        3
 73
     0
 74
     1
 95
       17
 96
       13
 40
0.0
 40
0.0
 40
0.0
 40
0.0
 40
1.0
 40
1.0
 40
1.0
 40
2.0
 40
2.0
 40
2.0
 40
3.0
 40
3.0
 40
3.0
 40
4.0
 40
4.0
 40
4.0
 40
4.0
 10
109.3108022112491
 20
-116.5916796930744
 10
109.3108022112491
 20
-116.640257193062
 10
109.2711852678154
 20
-116.6798741374968
 10
109.2226077690547
 20
-116.6798741374968
 10
109.174030270294
 20
-116.6798741374968
 10
109.1344133268603
 20
-116.640257193062
 10
109.1344133268603
 20
-116.5916796930744
 10
109.1344133268603
 20
-116.5431021930865
 10
109.174030270294
 20
-116.503485248652
 10
109.2226077690547
 20
-116.503485248652
 10
109.2711852678154
 20
-116.503485248652
 10
109.3108022112491
 20
-116.5431021930865
 10
109.3108022112491
 20
-116.5916796930744
 97
        0
 97
        0
 75
     2
 76
     1
 98
        0
  0
SPLINE
  5
9C
330
1F
100
AcDbEntity
  8
_U+30EC_U+30A4_U+30E4_U+30FC 1
370
     0
100
AcDbSpline
210
0.0
220
0.0
230
1.0
 70
    11
 71
     3
 72
    17
 73
    13
 74
     0
 42
0.0000000001
 43
0.0000000001
 12
1.0
 22
0.0
 32
0.0
 13
1.0
 23
0.0
 33
0.0
 40
0.0
 40
0.0
 40
0.0
 40
0.0
 40
1.0
 40
1.0
 40
1.0
 40
2.0
 40
2.0
 40
2.0
 40
3.0
 40
3.0
 40
3.0
 40
4.0
 40
4.0
 40
4.0
 40
4.0
 10
109.3108022112491
 20
-141.8783321867529
 30
0.0
 10
109.3108022112491
 20
-141.9269096867405
 30
0.0
 10
109.2711852678154
 20
-141.9665266311753
 30
0.0
 10
109.2226077690547
 20
-141.9665266311753
 30
0.0
 10
109.174030270294
 20
-141.9665266311753
 30
0.0
 10
109.1344133268603
 20
-141.9269096867405
 30
0.0
 10
109.1344133268603
 20
-141.8783321867529
 30
0.0
 10
109.1344133268603
 20
-141.8297546867646
 30
0.0
 10
109.174030270294
 20
-141.7901377423305
 30
0.0
 10
109.2226077690547
 20
-141.7901377423305
 30
0.0
 10
109.2711852678154
 20
-141.7901377423305
 30
0.0
 10
109.3108022112491
 20
-141.8297546867646
 30
0.0
 10
109.3108022112491
 20
-141.8783321867529
 30
0.0
  0
HATCH
  5
9D
330
1F
100
AcDbEntity
  8
_U+30EC_U+30A4_U+30E4_U+30FC 1
 62
   179
420
  2234388
100
AcDbHatch
 10
0.0
 20
0.0
 30
0.0
210
0.0
220
0.0
230
1.0
  2
SOLID
 70
     1
 71
     0
 91
        1
 92
        1
 93
        1
 72
     4
 94
        3
 73
     0
 74
     1
 95
       17
 96
       13
 40
0.0
 40
0.0
 40
0.0
 40
0.0
 40
1.0
 40
1.0
 40
1.0
 40
2.0
 40
2.0
 40
2.0
 40
3.0
 40
3.0
 40
3.0
 40
4.0
 40
4.0
 40
4.0
 40
4.0
 10
109.3108022112491
 20
-141.8783321867529
 10
109.3108022112491
 20
-141.9269096867405
 10
109.2711852678154
 20
-141.9665266311753
 10
109.2226077690547
 20
-141.9665266311753
 10
109.174030270294
 20
-141.9665266311753
 10
109.1344133268603
 20
-141.9269096867405
 10
109.1344133268603
 20
-141.8783321867529
 10
109.1344133268603
 20
-141.8297546867646
 10
109.174030270294
 20
-141.7901377423305
 10
109.2226077690547
 20
-141.7901377423305
 10
109.2711852678154
 20
-141.7901377423305
 10
109.3108022112491
 20
-141.8297546867646
 10
109.3108022112491
 20
-141.8783321867529
 97
        0
 97
        0
 75
     2
 76
     1
 98
        0
  0
SPLINE
  5
9E
330
1F
100
AcDbEntity
  8
_U+30EC_U+30A4_U+30E4_U+30FC 1
370
     0
100
AcDbSpline
210
0.0
220
0.0
230
1.0
 70
    11
 71
     3
 72
    17
 73
    13
 74
     0
 42
0.0000000001
 43
0.0000000001
 12
1.0
 22
0.0
 32
0.0
 13
1.0
 23
0.0
 33
0.0
 40
0.0
 40
0.0
 40
0.0
 40
0.0
 40
1.0
 40
1.0
 40
1.0
 40
2.0
 40
2.0
 40
2.0
 40
3.0
 40
3.0
 40
3.0
 40
4.0
 40
4.0
 40
4.0
 40
4.0
 10
106.1582036805675
 20
-146.7386574633155
 30
0.0
 10
106.1582036805675
 20
-146.7872349633031
 30
0.0
 10
106.1185867371338
 20
-146.8268519077379
 30
0.0
 10
106.0700092383731
 20
-146.8268519077379
 30
0.0
 10
106.0214317396124
 20
-146.8268519077379
 30
0.0
 10
105.9818147961787
 20
-146.7872349633031
 30
0.0
 10
105.9818147961787
 20
-146.7386574633155
 30
0.0
 10
105.9818147961787
 20
-146.6901152411054
 30
0.0
 10
106.0214317396124
 20
-146.6504630188931
 30
0.0
 10
106.0700092383731
 20
-146.6504630188931
 30
0.0
 10
106.1185867371338
 20
-146.6504630188931
 30
0.0
 10
106.1582036805675
 20
-146.6901152411054
 30
0.0
 10
106.1582036805675
 20
-146.7386574633155
 30
0.0
  0
HATCH
  5
9F
330
1F
100
AcDbEntity
  8
_U+30EC_U+30A4_U+30E4_U+30FC 1
 62
   179
420
  2234388
100
AcDbHatch
 10
0.0
 20
0.0
 30
0.0
210
0.0
220
0.0
230
1.0
  2
SOLID
 70
     1
 71
     0
 91
        1
 92
        1
 93
        1
 72
     4
 94
        3
 73
     0
 74
     1
 95
       17
 96
       13
 40
0.0
 40
0.0
 40
0.0
 40
0.0
 40
1.0
 40
1.0
 40
1.0
 40
2.0
 40
2.0
 40
2.0
 40
3.0
 40
3.0
 40
3.0
 40
4.0
 40
4.0
 40
4.0
 40
4.0
 10
106.1582036805675
 20
-146.7386574633155
 10
106.1582036805675
 20
-146.7872349633031
 10
106.1185867371338
 20
-146.8268519077379
 10
106.0700092383731
 20
-146.8268519077379
 10
106.0214317396124
 20
-146.8268519077379
 10
105.9818147961787
 20
-146.7872349633031
 10
105.9818147961787
 20
-146.7386574633155
 10
105.9818147961787
 20
-146.6901152411054
 10
106.0214317396124
 20
-146.6504630188931
 10
106.0700092383731
 20
-146.6504630188931
 10
106.1185867371338
 20
-146.6504630188931
 10
106.1582036805675
 20
-146.6901152411054
 10
106.1582036805675
 20
-146.7386574633155
 97
        0
 97
        0
 75
     2
 76
     1
 98
        0
  0
SPLINE
  5
A0
330
1F
100
AcDbEntity
  8
_U+30EC_U+30A4_U+30E4_U+30FC 1
370
     0
100
AcDbSpline
210
0.0
220
0.0
230
1.0
 70
    11
 71
     3
 72
    17
 73
    13
 74
     0
 42
0.0000000001
 43
0.0000000001
 12
1.0
 22
0.0
 32
0.0
 13
1.0
 23
0.0
 33
0.0
 40
0.0
 40
0.0
 40
0.0
 40
0.0
 40
1.0
 40
1.0
 40
1.0
 40
2.0
 40
2.0
 40
2.0
 40
3.0
 40
3.0
 40
3.0
 40
4.0
 40
4.0
 40
4.0
 40
4.0
 10
71.41372095586198
 20
-146.5416310744755
 30
0.0
 10
71.41372095586198
 20
-146.5902085744638
 30
0.0
 10
71.37410401242823
 20
-146.6298255188979
 30
0.0
 10
71.32552651366755
 20
-146.6298255188979
 30
0.0
 10
71.27694901490688
 20
-146.6298255188979
 30
0.0
 10
71.23733207147313
 20
-146.5902085744638
 30
0.0
 10
71.23733207147313
 20
-146.5416310744755
 30
0.0
 10
71.23733207147313
 20
-146.4930535744879
 30
0.0
 10
71.27694901490688
 20
-146.4534366300531
 30
0.0
 10
71.32552651366755
 20
-146.4534366300531
 30
0.0
 10
71.37410401242823
 20
-146.4534366300531
 30
0.0
 10
71.41372095586198
 20
-146.4930535744879
 30
0.0
 10
71.41372095586198
 20
-146.5416310744755
 30
0.0
  0
HATCH
  5
A1
330
1F
100
AcDbEntity
  8
_U+30EC_U+30A4_U+30E4_U+30FC 1
 62
   179
420
  2234388
100
AcDbHatch
 10
0.0
 20
0.0
 30
0.0
210
0.0
220
0.0
230
1.0
  2
SOLID
 70
     1
 71
     0
 91
        1
 92
        1
 93
        1
 72
     4
 94
        3
 73
     0
 74
     1
 95
       17
 96
       13
 40
0.0
 40
0.0
 40
0.0
 40
0.0
 40
1.0
 40
1.0
 40
1.0
 40
2.0
 40
2.0
 40
2.0
 40
3.0
 40
3.0
 40
3.0
 40
4.0
 40
4.0
 40
4.0
 40
4.0
 10
71.41372095586198
 20
-146.5416310744755
 10
71.41372095586198
 20
-146.5902085744638
 10
71.37410401242823
 20
-146.6298255188979
 10
71.32552651366755
 20
-146.6298255188979
 10
71.27694901490688
 20
-146.6298255188979
 10
71.23733207147313
 20
-146.5902085744638
 10
71.23733207147313
 20
-146.5416310744755
 10
71.23733207147313
 20
-146.4930535744879
 10
71.27694901490688
 20
-146.4534366300531
 10
71.32552651366755
 20
-146.4534366300531
 10
71.37410401242823
 20
-146.4534366300531
 10
71.41372095586198
 20
-146.4930535744879
 10
71.41372095586198
 20
-146.5416310744755
 97
        0
 97
        0
 75
     2
 76
     1
 98
        0
  0
INSERT
  5
A3
330
1F
100
AcDbEntity
  8
_U+30EC_U+30A4_U+30E4_U+30FC 1
100
AcDbBlockReference
  2
block 2
 10
0.0
 20
0.0
 30
0.0
  0
INSERT
  5
AB
330
1F
100
AcDbEntity
  8
_U+30EC_U+30A4_U+30E4_U+30FC 1
100
AcDbBlockReference
  2
block 3
 10
0.0
 20
0.0
 30
0.0
  0
INSERT
  5
BB
330
1F
100
AcDbEntity
  8
_U+30EC_U+30A4_U+30E4_U+30FC 1
100
AcDbBlockReference
  2
block 4
 10
0.0
 20
0.0
 30
0.0
  0
INSERT
  5
CD
330
1F
100
AcDbEntity
  8
_U+30EC_U+30A4_U+30E4_U+30FC 1
100
AcDbBlockReference
  2
block 5
 10
0.0
 20
0.0
 30
0.0
  0
INSERT
  5
D5
330
1F
100
AcDbEntity
  8
_U+30EC_U+30A4_U+30E4_U+30FC 1
100
AcDbBlockReference
  2
block 6
 10
0.0
 20
0.0
 30
0.0
  0
ENDSEC
  0
SECTION
  2
OBJECTS
  0
DICTIONARY
  5
C
330
0
100
AcDbDictionary
281
     1
  3
ACAD_GROUP
350
D
  3
ACAD_LAYOUT
350
1A
  3
ACAD_MATERIAL
350
3B
  3
ACAD_MLEADERSTYLE
350
E8
  3
ACAD_MLINESTYLE
350
17
  3
ACAD_PLOTSETTINGS
350
19
  3
ACAD_PLOTSTYLENAME
350
E
  3
ACAD_TABLESTYLE
350
E7
  3
ACAD_VISUALSTYLE
350
2A
  0
SUN
  5
3F
330
29
100
AcDbSun
 90
        1
290
     0
 63
     7
421
 16777215
 40
1.0
291
     1
 91
  2455826
 92
 54000000
292
     0
 70
     2
 71
   256
280
     1
  0
DICTIONARY
  5
D
102
{ACAD_REACTORS
330
C
102
}
330
C
100
AcDbDictionary
281
     1
  0
DICTIONARY
  5
1A
102
{ACAD_REACTORS
330
C
102
}
330
C
100
AcDbDictionary
281
     1
  3
Layout1
350
1E
  3
Layout2
350
26
  3
Model
350
22
  0
DICTIONARY
  5
3B
102
{ACAD_REACTORS
330
C
102
}
330
C
100
AcDbDictionary
281
     1
  3
ByBlock
350
3D
  3
ByLayer
350
3C
  3
Global
350
3E
  0
DICTIONARY
  5
E8
102
{ACAD_REACTORS
330
C
102
}
330
C
100
AcDbDictionary
281
     1
  0
DICTIONARY
  5
17
102
{ACAD_REACTORS
330
C
102
}
330
C
100
AcDbDictionary
281
     1
  3
Standard
350
18
  0
DICTIONARY
  5
19
102
{ACAD_REACTORS
330
C
102
}
330
C
100
AcDbDictionary
281
     1
  0
ACDBDICTIONARYWDFLT
  5
E
102
{ACAD_REACTORS
330
C
102
}
330
C
100
AcDbDictionary
281
     1
  3
Normal
350
F
100
AcDbDictionaryWithDefault
340
F
  0
DICTIONARY
  5
E7
102
{ACAD_REACTORS
330
C
102
}
330
C
100
AcDbDictionary
281
     1
  0
DICTIONARY
  5
2A
102
{ACAD_REACTORS
330
C
102
}
330
C
100
AcDbDictionary
281
     1
  3
2dWireframe
350
2F
  3
3D Hidden
350
31
  3
3dWireframe
350
30
  3
Basic
350
32
  3
Brighten
350
36
  3
ColorChange
350
3A
  3
Conceptual
350
34
  3
Dim
350
35
  3
Facepattern
350
39
  3
Flat
350
2B
  3
FlatWithEdges
350
2C
  3
Gouraud
350
2D
  3
GouraudWithEdges
350
2E
  3
Linepattern
350
38
  3
Realistic
350
33
  3
Thicken
350
37
  0
LAYOUT
  5
1E
102
{ACAD_REACTORS
330
1A
102
}
330
1A
100
AcDbPlotSettings
  1

  2
none_device
  4

  6

 40
0.0
 41
0.0
 42
0.0
 43
0.0
 44
0.0
 45
0.0
 46
0.0
 47
0.0
 48
0.0
 49
0.0
140
0.0
141
0.0
142
1.0
143
1.0
 70
   688
 72
     0
 73
     0
 74
     5
  7

 75
    16
 76
     0
 77
     2
 78
   300
147
1.0
148
0.0
149
0.0
100
AcDbLayout
  1
Layout1
 70
     1
 71
     1
 10
0.0
 20
0.0
 11
12.0
 21
9.0
 12
0.0
 22
0.0
 32
0.0
 14
1.000000000000000E+20
 24
1.000000000000000E+20
 34
1.000000000000000E+20
 15
-1.000000000000000E+20
 25
-1.000000000000000E+20
 35
-1.000000000000000E+20
146
0.0
 13
0.0
 23
0.0
 33
0.0
 16
1.0
 26
0.0
 36
0.0
 17
0.0
 27
1.0
 37
0.0
 76
     0
330
1B
  0
LAYOUT
  5
26
102
{ACAD_REACTORS
330
1A
102
}
330
1A
100
AcDbPlotSettings
  1

  2
none_device
  4

  6

 40
0.0
 41
0.0
 42
0.0
 43
0.0
 44
0.0
 45
0.0
 46
0.0
 47
0.0
 48
0.0
 49
0.0
140
0.0
141
0.0
142
1.0
143
1.0
 70
   688
 72
     0
 73
     0
 74
     5
  7

 75
    16
 76
     0
 77
     2
 78
   300
147
1.0
148
0.0
149
0.0
100
AcDbLayout
  1
Layout2
 70
     1
 71
     2
 10
0.0
 20
0.0
 11
0.0
 21
0.0
 12
0.0
 22
0.0
 32
0.0
 14
0.0
 24
0.0
 34
0.0
 15
0.0
 25
0.0
 35
0.0
146
0.0
 13
0.0
 23
0.0
 33
0.0
 16
1.0
 26
0.0
 36
0.0
 17
0.0
 27
1.0
 37
0.0
 76
     0
330
23
  0
LAYOUT
  5
22
102
{ACAD_REACTORS
330
1A
102
}
330
1A
100
AcDbPlotSettings
  1

  2
none_device
  4

  6

 40
0.0
 41
0.0
 42
0.0
 43
0.0
 44
0.0
 45
0.0
 46
0.0
 47
0.0
 48
0.0
 49
0.0
140
0.0
141
0.0
142
1.0
143
1.0
 70
  1712
 72
     0
 73
     0
 74
     0
  7

 75
     0
 76
     0
 77
     2
 78
   300
147
1.0
148
0.0
149
0.0
100
AcDbLayout
  1
Model
 70
     1
 71
     0
 10
0.0
 20
0.0
 11
12.0
 21
9.0
 12
0.0
 22
0.0
 32
0.0
 14
1.000000000000000E+20
 24
1.000000000000000E+20
 34
1.000000000000000E+20
 15
-1.000000000000000E+20
 25
-1.000000000000000E+20
 35
-1.000000000000000E+20
146
0.0
 13
0.0
 23
0.0
 33
0.0
 16
1.0
 26
0.0
 36
0.0
 17
0.0
 27
1.0
 37
0.0
 76
     0
330
1F
331
29
  0
MATERIAL
  5
3D
102
{ACAD_REACTORS
330
3B
102
}
330
3B
100
AcDbMaterial
  1
ByBlock
 72
     1
 94
      127
  0
MATERIAL
  5
3C
102
{ACAD_REACTORS
330
3B
102
}
330
3B
100
AcDbMaterial
  1
ByLayer
 72
     1
 94
      127
  0
MATERIAL
  5
3E
102
{ACAD_REACTORS
330
3B
102
}
330
3B
100
AcDbMaterial
  1
Global
 72
     1
 94
      127
  0
MLINESTYLE
  5
18
102
{ACAD_REACTORS
330
17
102
}
330
17
100
AcDbMlineStyle
  2
Standard
 70
     0
  3

 62
   256
 51
90.0
 52
90.0
 71
     2
 49
0.5
 62
   256
  6
BYLAYER
 49
-0.5
 62
   256
  6
BYLAYER
  0
ACDBPLACEHOLDER
  5
F
102
{ACAD_REACTORS
330
E
102
}
330
E
  0
VISUALSTYLE
  5
2F
102
{ACAD_REACTORS
330
2A
102
}
330
2A
100
AcDbVisualStyle
  2
2dWireframe
 70
     4
177
     2
291
     0
 71
     0
176
     1
 72
     2
176
     1
 73
     0
176
     1
 90
        0
176
     1
 40
-0.6
176
     1
 41
-30.0
176
     1
 62
     5
 63
     7
421
 16777215
176
     1
 74
     1
176
     1
 91
        4
176
     1
 64
     7
176
     1
 65
   257
176
     1
 75
     1
176
     1
175
     1
176
     1
 42
1.0
176
     1
 92
        0
176
     1
 66
   257
176
     1
 43
1.0
176
     1
 76
     1
176
     1
 77
     6
176
     1
 78
     2
176
     1
 67
     7
176
     1
 79
     5
176
     1
170
     0
176
     1
171
     0
176
     1
290
     0
176
     1
 93
        1
176
     1
 44
0.0
176
     1
173
     0
176
     1
  0
VISUALSTYLE
  5
31
102
{ACAD_REACTORS
330
2A
102
}
330
2A
100
AcDbVisualStyle
  2
3D Hidden
 70
     6
177
     2
291
     0
 71
     1
176
     1
 72
     2
176
     1
 73
     2
176
     1
 90
        0
176
     1
 40
-0.6
176
     1
 41
-30.0
176
     1
 62
     5
 63
     7
421
 16777215
176
     1
 74
     2
176
     1
 91
        2
176
     1
 64
     7
176
     1
 65
   257
176
     1
 75
     2
176
     1
175
     1
176
     1
 42
40.0
176
     1
 92
        0
176
     1
 66
   257
176
     1
 43
1.0
176
     1
 76
     1
176
     1
 77
     6
176
     1
 78
     2
176
     1
 67
     7
176
     1
 79
     3
176
     1
170
     0
176
     1
171
     0
176
     1
290
     0
176
     1
 93
        1
176
     1
 44
0.0
176
     1
173
     0
176
     1
  0
VISUALSTYLE
  5
30
102
{ACAD_REACTORS
330
2A
102
}
330
2A
100
AcDbVisualStyle
  2
3dWireframe
 70
     5
177
     2
291
     0
 71
     0
176
     1
 72
     2
176
     1
 73
     0
176
     1
 90
        0
176
     1
 40
-0.6
176
     1
 41
-30.0
176
     1
 62
     5
 63
     7
421
 16777215
176
     1
 74
     1
176
     1
 91
        4
176
     1
 64
     7
176
     1
 65
   257
176
     1
 75
     1
176
     1
175
     1
176
     1
 42
1.0
176
     1
 92
        0
176
     1
 66
   257
176
     1
 43
1.0
176
     1
 76
     1
176
     1
 77
     6
176
     1
 78
     2
176
     1
 67
     7
176
     1
 79
     5
176
     1
170
     0
176
     1
171
     0
176
     1
290
     0
176
     1
 93
        1
176
     1
 44
0.0
176
     1
173
     0
176
     1
  0
VISUALSTYLE
  5
32
102
{ACAD_REACTORS
330
2A
102
}
330
2A
100
AcDbVisualStyle
  2
Basic
 70
     7
177
     2
291
     1
 71
     1
176
     1
 72
     0
176
     1
 73
     1
176
     1
 90
        0
176
     1
 40
-0.6
176
     1
 41
-30.0
176
     1
 62
     5
 63
     7
421
 16777215
176
     1
 74
     0
176
     1
 91
        4
176
     1
 64
     7
176
     1
 65
   257
176
     1
 75
     1
176
     1
175
     1
176
     1
 42
1.0
176
     1
 92
        8
176
     1
 66
     7
176
     1
 43
1.0
176
     1
 76
     1
176
     1
 77
     6
176
     1
 78
     2
176
     1
 67
     7
176
     1
 79
     5
176
     1
170
     0
176
     1
171
     0
176
     1
290
     0
176
     1
 93
        1
176
     1
 44
0.0
176
     1
173
     0
176
     1
  0
VISUALSTYLE
  5
36
102
{ACAD_REACTORS
330
2A
102
}
330
2A
100
AcDbVisualStyle
  2
Brighten
 70
    12
177
     2
291
     1
 71
     2
176
     1
 72
     2
176
     1
 73
     0
176
     1
 90
        0
176
     1
 40
-0.6
176
     1
 41
-30.0
176
     1
 62
     5
 63
     7
421
 16777215
176
     1
 74
     1
176
     1
 91
        4
176
     1
 64
     7
176
     1
 65
   257
176
     1
 75
     1
176
     1
175
     1
176
     1
 42
1.0
176
     1
 92
        8
176
     1
 66
     7
176
     1
 43
1.0
176
     1
 76
     1
176
     1
 77
     6
176
     1
 78
     2
176
     1
 67
     7
176
     1
 79
     5
176
     1
170
     0
176
     1
171
     0
176
     1
290
     0
176
     1
 93
        1
176
     1
 44
50.0
176
     1
173
     0
176
     1
  0
VISUALSTYLE
  5
3A
102
{ACAD_REACTORS
330
2A
102
}
330
2A
100
AcDbVisualStyle
  2
ColorChange
 70
    16
177
     2
291
     1
 71
     2
176
     1
 72
     2
176
     1
 73
     3
176
     1
 90
        0
176
     1
 40
-0.6
176
     1
 41
-30.0
176
     1
 62
     5
 63
     8
421
  8421504
176
     1
 74
     1
176
     1
 91
        4
176
     1
 64
     7
176
     1
 65
   257
176
     1
 75
     1
176
     1
175
     1
176
     1
 42
1.0
176
     1
 92
        8
176
     1
 66
     8
424
  8421504
176
     1
 43
1.0
176
     1
 76
     1
176
     1
 77
     6
176
     1
 78
     2
176
     1
 67
     7
176
     1
 79
     5
176
     1
170
     0
176
     1
171
     0
176
     1
290
     0
176
     1
 93
        1
176
     1
 44
0.0
176
     1
173
     0
176
     1
  0
VISUALSTYLE
  5
34
102
{ACAD_REACTORS
330
2A
102
}
330
2A
100
AcDbVisualStyle
  2
Conceptual
 70
     9
177
     2
291
     0
 71
     3
176
     1
 72
     2
176
     1
 73
     0
176
     1
 90
        0
176
     1
 40
-0.6
176
     1
 41
-30.0
176
     1
 62
     5
 63
     7
421
 16777215
176
     1
 74
     2
176
     1
 91
        2
176
     1
 64
     7
176
     1
 65
   257
176
     1
 75
     1
176
     1
175
     1
176
     1
 42
40.0
176
     1
 92
        8
176
     1
 66
     7
176
     1
 43
1.0
176
     1
 76
     1
176
     1
 77
     6
176
     1
 78
     2
176
     1
 67
     7
176
     1
 79
     3
176
     1
170
     0
176
     1
171
     0
176
     1
290
     0
176
     1
 93
        1
176
     1
 44
0.0
176
     1
173
     0
176
     1
  0
VISUALSTYLE
  5
35
102
{ACAD_REACTORS
330
2A
102
}
330
2A
100
AcDbVisualStyle
  2
Dim
 70
    11
177
     2
291
     1
 71
     2
176
     1
 72
     2
176
     1
 73
     0
176
     1
 90
        0
176
     1
 40
-0.6
176
     1
 41
-30.0
176
     1
 62
     5
 63
     7
421
 16777215
176
     1
 74
     1
176
     1
 91
        4
176
     1
 64
     7
176
     1
 65
   257
176
     1
 75
     1
176
     1
175
     1
176
     1
 42
1.0
176
     1
 92
        8
176
     1
 66
     7
176
     1
 43
1.0
176
     1
 76
     1
176
     1
 77
     6
176
     1
 78
     2
176
     1
 67
     7
176
     1
 79
     5
176
     1
170
     0
176
     1
171
     0
176
     1
290
     0
176
     1
 93
        1
176
     1
 44
-50.0
176
     1
173
     0
176
     1
  0
VISUALSTYLE
  5
39
102
{ACAD_REACTORS
330
2A
102
}
330
2A
100
AcDbVisualStyle
  2
Facepattern
 70
    15
177
     2
291
     1
 71
     2
176
     1
 72
     2
176
     1
 73
     0
176
     1
 90
        0
176
     1
 40
-0.6
176
     1
 41
-30.0
176
     1
 62
     5
 63
     7
421
 16777215
176
     1
 74
     1
176
     1
 91
        4
176
     1
 64
     7
176
     1
 65
   257
176
     1
 75
     1
176
     1
175
     1
176
     1
 42
1.0
176
     1
 92
        8
176
     1
 66
     7
176
     1
 43
1.0
176
     1
 76
     1
176
     1
 77
     6
176
     1
 78
     2
176
     1
 67
     7
176
     1
 79
     5
176
     1
170
     0
176
     1
171
     0
176
     1
290
     0
176
     1
 93
        1
176
     1
 44
0.0
176
     1
173
     0
176
     1
  0
VISUALSTYLE
  5
2B
102
{ACAD_REACTORS
330
2A
102
}
330
2A
100
AcDbVisualStyle
  2
Flat
 70
     0
177
     2
291
     1
 71
     2
176
     1
 72
     1
176
     1
 73
     1
176
     1
 90
        2
176
     1
 40
-0.6
176
     1
 41
30.0
176
     1
 62
     5
 63
     7
421
 16777215
176
     1
 74
     0
176
     1
 91
        4
176
     1
 64
     7
176
     1
 65
   257
176
     1
 75
     1
176
     1
175
     1
176
     1
 42
1.0
176
     1
 92
        8
176
     1
 66
     7
176
     1
 43
1.0
176
     1
 76
     1
176
     1
 77
     6
176
     1
 78
     2
176
     1
 67
     7
176
     1
 79
     5
176
     1
170
     0
176
     1
171
     0
176
     1
290
     0
176
     1
 93
       13
176
     1
 44
0.0
176
     1
173
     0
176
     1
  0
VISUALSTYLE
  5
2C
102
{ACAD_REACTORS
330
2A
102
}
330
2A
100
AcDbVisualStyle
  2
FlatWithEdges
 70
     1
177
     2
291
     1
 71
     2
176
     1
 72
     1
176
     1
 73
     1
176
     1
 90
        2
176
     1
 40
-0.6
176
     1
 41
30.0
176
     1
 62
     5
 63
     7
421
 16777215
176
     1
 74
     1
176
     1
 91
        4
176
     1
 64
     7
176
     1
 65
   257
176
     1
 75
     1
176
     1
175
     1
176
     1
 42
1.0
176
     1
 92
        0
176
     1
 66
   257
176
     1
 43
1.0
176
     1
 76
     1
176
     1
 77
     6
176
     1
 78
     2
176
     1
 67
     7
176
     1
 79
     5
176
     1
170
     0
176
     1
171
     0
176
     1
290
     0
176
     1
 93
       13
176
     1
 44
0.0
176
     1
173
     0
176
     1
  0
VISUALSTYLE
  5
2D
102
{ACAD_REACTORS
330
2A
102
}
330
2A
100
AcDbVisualStyle
  2
Gouraud
 70
     2
177
     2
291
     1
 71
     2
176
     1
 72
     2
176
     1
 73
     1
176
     1
 90
        2
176
     1
 40
-0.6
176
     1
 41
30.0
176
     1
 62
     5
 63
     7
421
 16777215
176
     1
 74
     0
176
     1
 91
        4
176
     1
 64
     7
176
     1
 65
   257
176
     1
 75
     1
176
     1
175
     1
176
     1
 42
1.0
176
     1
 92
        0
176
     1
 66
     7
176
     1
 43
1.0
176
     1
 76
     1
176
     1
 77
     6
176
     1
 78
     2
176
     1
 67
     7
176
     1
 79
     5
176
     1
170
     0
176
     1
171
     0
176
     1
290
     0
176
     1
 93
       13
176
     1
 44
0.0
176
     1
173
     0
176
     1
  0
VISUALSTYLE
  5
2E
102
{ACAD_REACTORS
330
2A
102
}
330
2A
100
AcDbVisualStyle
  2
GouraudWithEdges
 70
     3
177
     2
291
     1
 71
     2
176
     1
 72
     2
176
     1
 73
     1
176
     1
 90
        2
176
     1
 40
-0.6
176
     1
 41
30.0
176
     1
 62
     5
 63
     7
421
 16777215
176
     1
 74
     1
176
     1
 91
        4
176
     1
 64
     7
176
     1
 65
   257
176
     1
 75
     1
176
     1
175
     1
176
     1
 42
1.0
176
     1
 92
        0
176
     1
 66
   257
176
     1
 43
1.0
176
     1
 76
     1
176
     1
 77
     6
176
     1
 78
     2
176
     1
 67
     7
176
     1
 79
     5
176
     1
170
     0
176
     1
171
     0
176
     1
290
     0
176
     1
 93
       13
176
     1
 44
0.0
176
     1
173
     0
176
     1
  0
VISUALSTYLE
  5
38
102
{ACAD_REACTORS
330
2A
102
}
330
2A
100
AcDbVisualStyle
  2
Linepattern
 70
    14
177
     2
291
     1
 71
     2
176
     1
 72
     2
176
     1
 73
     0
176
     1
 90
        0
176
     1
 40
-0.6
176
     1
 41
-30.0
176
     1
 62
     5
 63
     7
421
 16777215
176
     1
 74
     1
176
     1
 91
        4
176
     1
 64
     7
176
     1
 65
   257
176
     1
 75
     7
176
     1
175
     7
176
     1
 42
1.0
176
     1
 92
        8
176
     1
 66
     7
176
     1
 43
1.0
176
     1
 76
     1
176
     1
 77
     6
176
     1
 78
     2
176
     1
 67
     7
176
     1
 79
     5
176
     1
170
     0
176
     1
171
     0
176
     1
290
     0
176
     1
 93
        1
176
     1
 44
0.0
176
     1
173
     0
176
     1
  0
VISUALSTYLE
  5
33
102
{ACAD_REACTORS
330
2A
102
}
330
2A
100
AcDbVisualStyle
  2
Realistic
 70
     8
177
     2
291
     0
 71
     2
176
     1
 72
     2
176
     1
 73
     0
176
     1
 90
        0
176
     1
 40
-0.6
176
     1
 41
-30.0
176
     1
 62
     5
 63
     7
421
 16777215
176
     1
 74
     1
176
     1
 91
        0
176
     1
 64
     7
176
     1
 65
   257
176
     1
 75
     1
176
     1
175
     1
176
     1
 42
1.0
176
     1
 92
        8
176
     1
 66
     8
424
  7895160
176
     1
 43
1.0
176
     1
 76
     1
176
     1
 77
     6
176
     1
 78
     2
176
     1
 67
     7
176
     1
 79
     5
176
     1
170
     0
176
     1
171
     0
176
     1
290
     0
176
     1
 93
       13
176
     1
 44
0.0
176
     1
173
     0
176
     1
  0
VISUALSTYLE
  5
37
102
{ACAD_REACTORS
330
2A
102
}
330
2A
100
AcDbVisualStyle
  2
Thicken
 70
    13
177
     2
291
     1
 71
     2
176
     1
 72
     2
176
     1
 73
     0
176
     1
 90
        0
176
     1
 40
-0.6
176
     1
 41
-30.0
176
     1
 62
     5
 63
     7
421
 16777215
176
     1
 74
     1
176
     1
 91
        4
176
     1
 64
     7
176
     1
 65
   257
176
     1
 75
     1
176
     1
175
     1
176
     1
 42
1.0
176
     1
 92
       12
176
     1
 66
     7
176
     1
 43
1.0
176
     1
 76
     1
176
     1
 77
     6
176
     1
 78
     2
176
     1
 67
     7
176
     1
 79
     5
176
     1
170
     0
176
     1
171
     0
176
     1
290
     0
176
     1
 93
        1
176
     1
 44
0.0
176
     1
173
     0
176
     1
  0
ENDSEC
  0
EOF
