  0
SECTION
  2
HEADER
  9
$ACADVER
  1
AC1024
  9
$ACADMAINTVER
 70
     6
  9
$DWGCODEPAGE
  3
UNDEFINED
  9
$INSBASE
 10
0.0
 20
0.0
 30
0.0
  9
$EXTMIN
 10
1.000000000000000E+20
 20
1.000000000000000E+20
 30
1.000000000000000E+20
  9
$EXTMAX
 10
-1.000000000000000E+20
 20
-1.000000000000000E+20
 30
-1.000000000000000E+20
  9
$LIMMIN
 10
0.0
 20
0.0
  9
$LIMMAX
 10
12.0
 20
9.0
  9
$ORTHOMODE
 70
     0
  9
$REGENMODE
 70
     1
  9
$FILLMODE
 70
     1
  9
$QTEXTMODE
 70
     0
  9
$MIRRTEXT
 70
     1
  9
$LTSCALE
 40
1.0
  9
$ATTMODE
 70
     1
  9
$TEXTSIZE
 40
0.2
  9
$TRACEWID
 40
0.05
  9
$TEXTSTYLE
  7
Standard
  9
$CLAYER
  8
0
  9
$CELTYPE
  6
ByLayer
  9
$CECOLOR
 62
   256
  9
$CELTSCALE
 40
1.0
  9
$DISPSILH
 70
     0
  9
$DIMSCALE
 40
1.0
  9
$DIMASZ
 40
0.18
  9
$DIMEXO
 40
0.0625
  9
$DIMDLI
 40
0.38
  9
$DIMRND
 40
0.0
  9
$DIMDLE
 40
0.0
  9
$DIMEXE
 40
0.18
  9
$DIMTP
 40
0.0
  9
$DIMTM
 40
0.0
  9
$DIMTXT
 40
0.18
  9
$DIMCEN
 40
0.09
  9
$DIMTSZ
 40
0.0
  9
$DIMTOL
 70
     0
  9
$DIMLIM
 70
     0
  9
$DIMTIH
 70
     1
  9
$DIMTOH
 70
     1
  9
$DIMSE1
 70
     0
  9
$DIMSE2
 70
     0
  9
$DIMTAD
 70
     0
  9
$DIMZIN
 70
     0
  9
$DIMBLK
  1

  9
$DIMASO
 70
     1
  9
$DIMSHO
 70
     1
  9
$DIMPOST
  1

  9
$DIMAPOST
  1

  9
$DIMALT
 70
     0
  9
$DIMALTD
 70
     2
  9
$DIMALTF
 40
25.4
  9
$DIMLFAC
 40
1.0
  9
$DIMTOFL
 70
     0
  9
$DIMTVP
 40
0.0
  9
$DIMTIX
 70
     0
  9
$DIMSOXD
 70
     0
  9
$DIMSAH
 70
     0
  9
$DIMBLK1
  1

  9
$DIMBLK2
  1

  9
$DIMSTYLE
  2
Standard
  9
$DIMCLRD
 70
     0
  9
$DIMCLRE
 70
     0
  9
$DIMCLRT
 70
     0
  9
$DIMTFAC
 40
1.0
  9
$DIMGAP
 40
0.09
  9
$DIMJUST
 70
     0
  9
$DIMSD1
 70
     0
  9
$DIMSD2
 70
     0
  9
$DIMTOLJ
 70
     1
  9
$DIMTZIN
 70
     0
  9
$DIMALTZ
 70
     0
  9
$DIMALTTZ
 70
     0
  9
$DIMUPT
 70
     0
  9
$DIMDEC
 70
     4
  9
$DIMTDEC
 70
     4
  9
$DIMALTU
 70
     2
  9
$DIMALTTD
 70
     2
  9
$DIMTXSTY
  7
Standard
  9
$DIMAUNIT
 70
     0
  9
$DIMADEC
 70
     0
  9
$DIMALTRND
 40
0.0
  9
$DIMAZIN
 70
     0
  9
$DIMDSEP
 70
    46
  9
$DIMATFIT
 70
     3
  9
$DIMFRAC
 70
     0
  9
$DIMLDRBLK
  1

  9
$DIMLUNIT
 70
     2
  9
$DIMLWD
 70
    -2
  9
$DIMLWE
 70
    -2
  9
$DIMTMOVE
 70
     0
  9
$DIMFXL
 40
1.0
  9
$DIMFXLON
 70
     0
  9
$DIMJOGANG
 40
0.7853981633974483
  9
$DIMTFILL
 70
     0
  9
$DIMTFILLCLR
 70
     0
  9
$DIMARCSYM
 70
     0
  9
$DIMLTYPE
  6

  9
$DIMLTEX1
  6

  9
$DIMLTEX2
  6

  9
$DIMTXTDIRECTION
 70
     0
  9
$LUNITS
 70
     2
  9
$LUPREC
 70
     4
  9
$SKETCHINC
 40
0.1
  9
$FILLETRAD
 40
0.5
  9
$AUNITS
 70
     0
  9
$AUPREC
 70
     0
  9
$MENU
  1
.
  9
$ELEVATION
 40
0.0
  9
$PELEVATION
 40
0.0
  9
$THICKNESS
 40
0.0
  9
$LIMCHECK
 70
     0
  9
$CHAMFERA
 40
0.5
  9
$CHAMFERB
 40
0.5
  9
$CHAMFERC
 40
1.0
  9
$CHAMFERD
 40
0.0
  9
$SKPOLY
 70
     0
  9
$TDCREATE
 40
2457917.594305544
  9
$TDUCREATE
 40
2457917.219305555
  9
$TDUPDATE
 40
2457917.594305544
  9
$TDUUPDATE
 40
2457917.219305555
  9
$TDINDWG
 40
0.0000000116
  9
$TDUSRTIMER
 40
0.0000000116
  9
$USRTIMER
 70
     1
  9
$ANGBASE
 50
0.0
  9
$ANGDIR
 70
     0
  9
$PDMODE
 70
     0
  9
$PDSIZE
 40
0.0
  9
$PLINEWID
 40
0.0
  9
$SPLFRAME
 70
     0
  9
$SPLINETYPE
 70
     6
  9
$SPLINESEGS
 70
     8
  9
$HANDSEED
  5
ED
  9
$SURFTAB1
 70
     6
  9
$SURFTAB2
 70
     6
  9
$SURFTYPE
 70
     6
  9
$SURFU
 70
     6
  9
$SURFV
 70
     6
  9
$UCSBASE
  2

  9
$UCSNAME
  2

  9
$UCSORG
 10
0.0
 20
0.0
 30
0.0
  9
$UCSXDIR
 10
1.0
 20
0.0
 30
0.0
  9
$UCSYDIR
 10
0.0
 20
1.0
 30
0.0
  9
$UCSORTHOREF
  2

  9
$UCSORTHOVIEW
 70
     0
  9
$UCSORGTOP
 10
0.0
 20
0.0
 30
0.0
  9
$UCSORGBOTTOM
 10
0.0
 20
0.0
 30
0.0
  9
$UCSORGLEFT
 10
0.0
 20
0.0
 30
0.0
  9
$UCSORGRIGHT
 10
0.0
 20
0.0
 30
0.0
  9
$UCSORGFRONT
 10
0.0
 20
0.0
 30
0.0
  9
$UCSORGBACK
 10
0.0
 20
0.0
 30
0.0
  9
$PUCSBASE
  2

  9
$PUCSNAME
  2

  9
$PUCSORG
 10
0.0
 20
0.0
 30
0.0
  9
$PUCSXDIR
 10
1.0
 20
0.0
 30
0.0
  9
$PUCSYDIR
 10
0.0
 20
1.0
 30
0.0
  9
$PUCSORTHOREF
  2

  9
$PUCSORTHOVIEW
 70
     0
  9
$PUCSORGTOP
 10
0.0
 20
0.0
 30
0.0
  9
$PUCSORGBOTTOM
 10
0.0
 20
0.0
 30
0.0
  9
$PUCSORGLEFT
 10
0.0
 20
0.0
 30
0.0
  9
$PUCSORGRIGHT
 10
0.0
 20
0.0
 30
0.0
  9
$PUCSORGFRONT
 10
0.0
 20
0.0
 30
0.0
  9
$PUCSORGBACK
 10
0.0
 20
0.0
 30
0.0
  9
$USERI1
 70
     0
  9
$USERI2
 70
     0
  9
$USERI3
 70
     0
  9
$USERI4
 70
     0
  9
$USERI5
 70
     0
  9
$USERR1
 40
0.0
  9
$USERR2
 40
0.0
  9
$USERR3
 40
0.0
  9
$USERR4
 40
0.0
  9
$USERR5
 40
0.0
  9
$WORLDVIEW
 70
     1
  9
$SHADEDGE
 70
     3
  9
$SHADEDIF
 70
    70
  9
$TILEMODE
 70
     1
  9
$MAXACTVP
 70
    64
  9
$PINSBASE
 10
0.0
 20
0.0
 30
0.0
  9
$PLIMCHECK
 70
     0
  9
$PEXTMIN
 10
1.000000000000000E+20
 20
1.000000000000000E+20
 30
1.000000000000000E+20
  9
$PEXTMAX
 10
-1.000000000000000E+20
 20
-1.000000000000000E+20
 30
-1.000000000000000E+20
  9
$PLIMMIN
 10
0.0
 20
0.0
  9
$PLIMMAX
 10
12.0
 20
9.0
  9
$UNITMODE
 70
     0
  9
$VISRETAIN
 70
     1
  9
$PLINEGEN
 70
     0
  9
$PSLTSCALE
 70
     1
  9
$TREEDEPTH
 70
  3020
  9
$CMLSTYLE
  2
Standard
  9
$CMLJUST
 70
     0
  9
$CMLSCALE
 40
1.0
  9
$PROXYGRAPHICS
 70
     1
  9
$MEASUREMENT
 70
     0
  9
$CELWEIGHT
370
    -1
  9
$ENDCAPS
280
     0
  9
$JOINSTYLE
280
     0
  9
$LWDISPLAY
290
     1
  9
$INSUNITS
 70
     1
  9
$HYPERLINKBASE
  1

  9
$STYLESHEET
  1

  9
$XEDIT
290
     1
  9
$CEPSNTYPE
380
     0
  9
$PSTYLEMODE
290
     1
  9
$FINGERPRINTGUID
  2
{8425F964-9CD6-D04C-397F-67AB831E199C}
  9
$VERSIONGUID
  2
{FAEB1C32-E019-11D5-929B-00C0DF256EC4}
  9
$EXTNAMES
290
     1
  9
$PSVPSCALE
 40
0.0
  9
$OLESTARTUP
290
     0
  9
$SORTENTS
280
   127
  9
$INDEXCTL
280
     0
  9
$HIDETEXT
280
     1
  9
$XCLIPFRAME
280
     2
  9
$HALOGAP
280
     0
  9
$OBSCOLOR
 70
   257
  9
$OBSLTYPE
280
     0
  9
$INTERSECTIONDISPLAY
280
     0
  9
$INTERSECTIONCOLOR
 70
   257
  9
$DIMASSOC
280
     2
  9
$PROJECTNAME
  1

  9
$CAMERADISPLAY
290
     0
  9
$LENSLENGTH
 40
50.0
  9
$CAMERAHEIGHT
 40
0.0
  9
$STEPSPERSEC
 40
2.0
  9
$STEPSIZE
 40
6.0
  9
$3DDWFPREC
 40
2.0
  9
$PSOLWIDTH
 40
0.25
  9
$PSOLHEIGHT
 40
4.0
  9
$LOFTANG1
 40
1.570796326794897
  9
$LOFTANG2
 40
1.570796326794897
  9
$LOFTMAG1
 40
0.0
  9
$LOFTMAG2
 40
0.0
  9
$LOFTPARAM
 70
     7
  9
$LOFTNORMALS
280
     1
  9
$LATITUDE
 40
37.795
  9
$LONGITUDE
 40
-122.394
  9
$NORTHDIRECTION
 40
0.0
  9
$TIMEZONE
 70
 -8000
  9
$LIGHTGLYPHDISPLAY
280
     1
  9
$TILEMODELIGHTSYNCH
280
     1
  9
$CMATERIAL
347
3C
  9
$SOLIDHIST
280
     1
  9
$SHOWHIST
280
     1
  9
$DWFFRAME
280
     2
  9
$DGNFRAME
280
     2
  9
$REALWORLDSCALE
290
     1
  9
$INTERFERECOLOR
 62
   256
  9
$CSHADOW
280
     0
  9
$SHADOWPLANELOCATION
 40
0.0
  0
ENDSEC
  0
SECTION
  2
CLASSES
  0
CLASS
  1
ACDBDICTIONARYWDFLT
  2
AcDbDictionaryWithDefault
  3
ObjectDBX Classes
 90
        0
 91
        4
280
     0
281
     0
  0
CLASS
  1
VISUALSTYLE
  2
AcDbVisualStyle
  3
ObjectDBX Classes
 90
     4095
 91
        4
280
     0
281
     0
  0
CLASS
  1
MATERIAL
  2
AcDbMaterial
  3
ObjectDBX Classes
 90
     1153
 91
        4
280
     0
281
     0
  0
CLASS
  1
SUN
  2
AcDbSun
  3
SCENEOE
 90
     1024
 91
        4
280
     0
281
     0
  0
ENDSEC
  0
SECTION
  2
TABLES
  0
TABLE
  2
VPORT
  5
8
330
0
100
AcDbSymbolTable
 70
     1
  0
VPORT
  5
29
330
8
100
AcDbSymbolTableRecord
100
AcDbViewportTableRecord
  2
*Active
 70
     0
 10
0.0
 20
0.0
 11
1.0
 21
1.0
 12
0.0
 22
0.0
 13
0.0
 23
0.0
 14
0.5
 24
0.5
 15
0.5
 25
0.5
 16
0.0
 26
0.0
 36
1.0
 17
91.00082462281999
 27
-128.4993055234307
 37
0.0
 40
256.9986110468615
 41
0.7081814508812795
 42
50.0
 43
0.0
 44
0.0
 50
0.0
 51
0.0
 71
     0
 72
   100
 73
     1
 74
     3
 75
     0
 76
     0
 77
     0
 78
     0
281
     0
 65
     1
110
0.0
120
0.0
130
0.0
111
1.0
121
0.0
131
0.0
112
0.0
122
1.0
132
0.0
 79
     0
146
0.0
 60
     3
 61
     5
292
     1
282
     1
141
0.0
142
0.0
 63
   250
361
3F
  0
ENDTAB
  0
TABLE
  2
LTYPE
  5
5
330
0
100
AcDbSymbolTable
 70
     3
  0
LTYPE
  5
14
330
5
100
AcDbSymbolTableRecord
100
AcDbLinetypeTableRecord
  2
ByBlock
 70
     0
  3

 72
    65
 73
     0
 40
0.0
  0
LTYPE
  5
15
330
5
100
AcDbSymbolTableRecord
100
AcDbLinetypeTableRecord
  2
ByLayer
 70
     0
  3

 72
    65
 73
     0
 40
0.0
  0
LTYPE
  5
16
330
5
100
AcDbSymbolTableRecord
100
AcDbLinetypeTableRecord
  2
Continuous
 70
     0
  3
Solid line
 72
    65
 73
     0
 40
0.0
  0
LTYPE
  5
4F
330
5
100
AcDbSymbolTableRecord
100
AcDbLinetypeTableRecord
  2
AI-Linetype-1
 70
     0
  3
Adobe Illustrator Linetype No. 1
 72
    65
 73
     2
 40
1.411111110758333
 49
0.7055555553791667
 74
     0
 49
-0.7055555553791667
 74
     0
  0
LTYPE
  5
54
330
5
100
AcDbSymbolTableRecord
100
AcDbLinetypeTableRecord
  2
AI-Linetype-2
 70
     0
  3
Adobe Illustrator Linetype No. 2
 72
    65
 73
     2
 40
1.411111110758333
 49
0.7055555553791667
 74
     0
 49
-0.7055555553791667
 74
     0
  0
ENDTAB
  0
TABLE
  2
LAYER
  5
2
330
0
100
AcDbSymbolTable
 70
     2
  0
LAYER
  5
10
330
2
100
AcDbSymbolTableRecord
100
AcDbLayerTableRecord
  2
0
 70
     0
 62
     7
  6
Continuous
370
    -3
390
F
347
3E
  0
LAYER
  5
40
330
2
100
AcDbSymbolTableRecord
100
AcDbLayerTableRecord
  2
_U+30EC_U+30A4_U+30E4_U+30FC 1
 70
     0
 62
     7
  6
Continuous
370
    -3
390
F
347
3E
  0
ENDTAB
  0
TABLE
  2
STYLE
  5
3
330
0
100
AcDbSymbolTable
 70
     1
  0
STYLE
  5
11
330
3
100
AcDbSymbolTableRecord
100
AcDbTextStyleTableRecord
  2
Standard
 70
     0
 40
0.0
 41
1.0
 50
0.0
 71
     0
 42
0.2
  3
txt
  4

  0
ENDTAB
  0
TABLE
  2
VIEW
  5
6
330
0
100
AcDbSymbolTable
 70
     0
  0
ENDTAB
  0
TABLE
  2
UCS
  5
7
330
0
100
AcDbSymbolTable
 70
     0
  0
ENDTAB
  0
TABLE
  2
APPID
  5
9
330
0
100
AcDbSymbolTable
 70
     1
  0
APPID
  5
12
330
9
100
AcDbSymbolTableRecord
100
AcDbRegAppTableRecord
  2
ACAD
 70
     0
  0
ENDTAB
  0
TABLE
  2
DIMSTYLE
  5
A
330
0
100
AcDbSymbolTable
 70
     1
100
AcDbDimStyleTable
  0
DIMSTYLE
105
27
330
A
100
AcDbSymbolTableRecord
100
AcDbDimStyleTableRecord
  2
Standard
 70
     0
178
     0
340
11
  0
ENDTAB
  0
TABLE
  2
BLOCK_RECORD
  5
1
330
0
100
AcDbSymbolTable
 70
     6
  0
BLOCK_RECORD
  5
1F
330
1
100
AcDbSymbolTableRecord
100
AcDbBlockTableRecord
  2
*Model_Space
340
22
 70
     0
280
     1
281
     0
  0
BLOCK_RECORD
  5
1B
330
1
100
AcDbSymbolTableRecord
100
AcDbBlockTableRecord
  2
*Paper_Space
340
1E
 70
     0
280
     1
281
     0
  0
BLOCK_RECORD
  5
23
330
1
100
AcDbSymbolTableRecord
100
AcDbBlockTableRecord
  2
*Paper_Space0
340
26
 70
     0
280
     1
281
     0
  0
BLOCK_RECORD
  5
97
330
1
100
AcDbSymbolTableRecord
100
AcDbBlockTableRecord
  2
block 2
340
0
102
{BLKREFS
331
98
102
}
 70
     0
280
     1
281
     0
  0
BLOCK_RECORD
  5
9F
330
1
100
AcDbSymbolTableRecord
100
AcDbBlockTableRecord
  2
block 3
340
0
102
{BLKREFS
331
A0
102
}
 70
     0
280
     1
281
     0
  0
BLOCK_RECORD
  5
AF
330
1
100
AcDbSymbolTableRecord
100
AcDbBlockTableRecord
  2
block 4
340
0
102
{BLKREFS
331
B0
102
}
 70
     0
280
     1
281
     0
  0
BLOCK_RECORD
  5
C1
330
1
100
AcDbSymbolTableRecord
100
AcDbBlockTableRecord
  2
block 5
340
0
102
{BLKREFS
331
C2
102
}
 70
     0
280
     1
281
     0
  0
BLOCK_RECORD
  5
CA
330
1
100
AcDbSymbolTableRecord
100
AcDbBlockTableRecord
  2
block 6
340
0
102
{BLKREFS
331
CB
102
}
 70
     0
280
     1
281
     0
  0
ENDTAB
  0
ENDSEC
  0
SECTION
  2
BLOCKS
  0
BLOCK
  5
20
330
1F
100
AcDbEntity
  8
0
100
AcDbBlockBegin
  2
*Model_Space
 70
     0
 10
0.0
 20
0.0
 30
0.0
  3
*Model_Space
  1

  0
ENDBLK
  5
21
330
1F
100
AcDbEntity
  8
0
100
AcDbBlockEnd
  0
BLOCK
  5
1C
330
1B
100
AcDbEntity
 67
     1
  8
0
100
AcDbBlockBegin
  2
*Paper_Space
 70
     0
 10
0.0
 20
0.0
 30
0.0
  3
*Paper_Space
  1

  0
ENDBLK
  5
1D
330
1B
100
AcDbEntity
 67
     1
  8
0
100
AcDbBlockEnd
  0
BLOCK
  5
24
330
23
100
AcDbEntity
  8
0
100
AcDbBlockBegin
  2
*Paper_Space0
 70
     0
 10
0.0
 20
0.0
 30
0.0
  3
*Paper_Space0
  1

  0
ENDBLK
  5
25
330
23
100
AcDbEntity
  8
0
100
AcDbBlockEnd
  0
BLOCK
  5
99
330
97
100
AcDbEntity
  8
0
100
AcDbBlockBegin
  2
block 2
 70
     0
 10
0.0
 20
0.0
 30
0.0
  3
block 2
  1

  0
SPLINE
  5
9B
330
97
100
AcDbEntity
  8
_U+30EC_U+30A4_U+30E4_U+30FC 1
370
     0
100
AcDbSpline
210
0.0
220
0.0
230
1.0
 70
    11
 71
     3
 72
    26
 73
    22
 74
     0
 42
0.0000000001
 43
0.0000000001
 12
1.0
 22
0.0
 32
0.0
 13
1.0
 23
0.0
 33
0.0
 40
0.0
 40
0.0
 40
0.0
 40
0.0
 40
1.0
 40
1.0
 40
1.0
 40
2.0
 40
2.0
 40
2.0
 40
3.0
 40
3.0
 40
3.0
 40
4.0
 40
4.0
 40
4.0
 40
5.0
 40
5.0
 40
5.0
 40
6.0
 40
6.0
 40
6.0
 40
7.0
 40
7.0
 40
7.0
 40
7.0
 10
80.7649237536803
 20
-114.099839923732
 30
0.0
 10
80.7649237536803
 20
-114.099839923732
 30
0.0
 10
80.7649237536803
 20
-112.9956868207094
 30
0.0
 10
80.7649237536803
 20
-112.9956868207094
 30
0.0
 10
80.7649237536803
 20
-112.9956868207094
 30
0.0
 10
80.43488360619337
 20
-112.9956868207094
 30
0.0
 10
80.43488360619337
 20
-112.9956868207094
 30
0.0
 10
80.43488360619337
 20
-112.9956868207094
 30
0.0
 10
80.43488360619337
 20
-112.8475477148437
 30
0.0
 10
80.43488360619337
 20
-112.8475477148437
 30
0.0
 10
80.76699081097145
 20
-112.8327338042571
 30
0.0
 10
80.81349960002233
 20
-112.6697807878048
 30
0.0
 10
80.84312742119548
 20
-112.5554036176945
 30
0.0
 10
80.84312742119548
 20
-112.5554036176945
 30
0.0
 10
80.98919946977007
 20
-112.5554036176945
 30
0.0
 10
80.98919946977007
 20
-112.5554036176945
 30
0.0
 10
80.98919946977007
 20
-112.5554036176945
 30
0.0
 10
80.98919946977007
 20
-114.099839923732
 30
0.0
 10
80.98919946977007
 20
-114.099839923732
 30
0.0
 10
80.98919946977007
 20
-114.099839923732
 30
0.0
 10
80.7649237536803
 20
-114.099839923732
 30
0.0
 10
80.7649237536803
 20
-114.099839923732
 30
0.0
  0
HATCH
  5
9C
330
97
100
AcDbEntity
  8
_U+30EC_U+30A4_U+30E4_U+30FC 1
 62
   179
420
  2234388
100
AcDbHatch
 10
0.0
 20
0.0
 30
0.0
210
0.0
220
0.0
230
1.0
  2
SOLID
 70
     1
 71
     0
 91
        1
 92
        1
 93
        1
 72
     4
 94
        3
 73
     0
 74
     1
 95
       26
 96
       22
 40
0.0
 40
0.0
 40
0.0
 40
0.0
 40
1.0
 40
1.0
 40
1.0
 40
2.0
 40
2.0
 40
2.0
 40
3.0
 40
3.0
 40
3.0
 40
4.0
 40
4.0
 40
4.0
 40
5.0
 40
5.0
 40
5.0
 40
6.0
 40
6.0
 40
6.0
 40
7.0
 40
7.0
 40
7.0
 40
7.0
 10
80.7649237536803
 20
-114.099839923732
 10
80.7649237536803
 20
-114.099839923732
 10
80.7649237536803
 20
-112.9956868207094
 10
80.7649237536803
 20
-112.9956868207094
 10
80.7649237536803
 20
-112.9956868207094
 10
80.43488360619337
 20
-112.9956868207094
 10
80.43488360619337
 20
-112.9956868207094
 10
80.43488360619337
 20
-112.9956868207094
 10
80.43488360619337
 20
-112.8475477148437
 10
80.43488360619337
 20
-112.8475477148437
 10
80.76699081097145
 20
-112.8327338042571
 10
80.81349960002233
 20
-112.6697807878048
 10
80.84312742119548
 20
-112.5554036176945
 10
80.84312742119548
 20
-112.5554036176945
 10
80.98919946977007
 20
-112.5554036176945
 10
80.98919946977007
 20
-112.5554036176945
 10
80.98919946977007
 20
-112.5554036176945
 10
80.98919946977007
 20
-114.099839923732
 10
80.98919946977007
 20
-114.099839923732
 10
80.98919946977007
 20
-114.099839923732
 10
80.7649237536803
 20
-114.099839923732
 10
80.7649237536803
 20
-114.099839923732
 97
        0
 97
        0
 75
     2
 76
     1
 98
        0
  0
SPLINE
  5
9D
330
97
100
AcDbEntity
  8
_U+30EC_U+30A4_U+30E4_U+30FC 1
370
     0
100
AcDbSpline
210
0.0
220
0.0
230
1.0
 70
    11
 71
     3
 72
    53
 73
    49
 74
     0
 42
0.0000000001
 43
0.0000000001
 12
1.0
 22
0.0
 32
0.0
 13
1.0
 23
0.0
 33
0.0
 40
0.0
 40
0.0
 40
0.0
 40
0.0
 40
1.0
 40
1.0
 40
1.0
 40
2.0
 40
2.0
 40
2.0
 40
3.0
 40
3.0
 40
3.0
 40
4.0
 40
4.0
 40
4.0
 40
5.0
 40
5.0
 40
5.0
 40
6.0
 40
6.0
 40
6.0
 40
7.0
 40
7.0
 40
7.0
 40
8.0
 40
8.0
 40
8.0
 40
9.0
 40
9.0
 40
9.0
 40
10.0
 40
10.0
 40
10.0
 40
11.0
 40
11.0
 40
11.0
 40
12.0
 40
12.0
 40
12.0
 40
13.0
 40
13.0
 40
13.0
 40
14.0
 40
14.0
 40
14.0
 40
15.0
 40
15.0
 40
15.0
 40
16.0
 40
16.0
 40
16.0
 40
16.0
 10
81.97139619261479
 20
-114.1504828273652
 30
0.0
 10
81.89302027032537
 20
-114.1504828273652
 30
0.0
 10
81.79156220828476
 20
-114.1336018594874
 30
0.0
 10
81.68993189146988
 20
-114.0702121025588
 30
0.0
 10
81.51647133378755
 20
-113.9603135565794
 30
0.0
 10
81.49528399655327
 20
-113.8290554185914
 30
0.0
 10
81.47633597138439
 20
-113.721223929903
 30
0.0
 10
81.47633597138439
 20
-113.721223929903
 30
0.0
 10
81.69837237540874
 20
-113.721223929903
 30
0.0
 10
81.69837237540874
 20
-113.721223929903
 30
0.0
 10
81.75349390317274
 20
-113.9200059394019
 30
0.0
 10
81.8804456718042
 20
-113.9496337605751
 30
0.0
 10
81.97346324990595
 20
-113.9496337605751
 30
0.0
 10
82.11316187183283
 20
-113.9496337605751
 30
0.0
 10
82.26543509228087
 20
-113.8500705010514
 30
0.0
 10
82.26543509228087
 20
-113.617526555797
 30
0.0
 10
82.26543509228087
 20
-113.361555961243
 30
0.0
 10
82.08560110795082
 20
-113.2916205228924
 30
0.0
 10
81.96502276596708
 20
-113.2916205228924
 30
0.0
 10
81.93332788750278
 20
-113.2916205228924
 30
0.0
 10
81.79156220828476
 20
-113.2916205228924
 30
0.0
 10
81.70267874476531
 20
-113.4208116035892
 30
0.0
 10
81.70267874476531
 20
-113.4208116035892
 30
0.0
 10
81.52715112979183
 20
-113.4018635784204
 30
0.0
 10
81.52715112979183
 20
-113.4018635784204
 30
0.0
 10
81.52715112979183
 20
-113.4018635784204
 30
0.0
 10
81.64772947177558
 20
-112.5554036176945
 30
0.0
 10
81.64772947177558
 20
-112.5554036176945
 30
0.0
 10
81.64772947177558
 20
-112.5554036176945
 30
0.0
 10
82.42614879666777
 20
-112.5554036176945
 30
0.0
 10
82.42614879666777
 20
-112.5554036176945
 30
0.0
 10
82.42614879666777
 20
-112.5554036176945
 30
0.0
 10
82.42614879666777
 20
-112.7500515126111
 30
0.0
 10
82.42614879666777
 20
-112.7500515126111
 30
0.0
 10
82.42614879666777
 20
-112.7500515126111
 30
0.0
 10
81.81051023345363
 20
-112.7500515126111
 30
0.0
 10
81.81051023345363
 20
-112.7500515126111
 30
0.0
 10
81.81051023345363
 20
-112.7500515126111
 30
0.0
 10
81.74505341923388
 20
-113.1731092381998
 30
0.0
 10
81.74505341923388
 20
-113.1731092381998
 30
0.0
 10
81.80637611887133
 20
-113.1393473024443
 30
0.0
 10
81.88888615574307
 20
-113.0990396852669
 30
0.0
 10
82.0072251856614
 20
-113.0990396852669
 30
0.0
 10
82.26112872292431
 20
-113.0990396852669
 30
0.0
 10
82.49815129230949
 20
-113.2854193510189
 30
0.0
 10
82.49815129230949
 20
-113.5985785306281
 30
0.0
 10
82.49815129230949
 20
-113.9158718248196
 30
0.0
 10
82.27387557621972
 20
-114.1504828273652
 30
0.0
 10
81.97139619261479
 20
-114.1504828273652
 30
0.0
  0
HATCH
  5
9E
330
97
100
AcDbEntity
  8
_U+30EC_U+30A4_U+30E4_U+30FC 1
 62
   179
420
  2234388
100
AcDbHatch
 10
0.0
 20
0.0
 30
0.0
210
0.0
220
0.0
230
1.0
  2
SOLID
 70
     1
 71
     0
 91
        1
 92
        1
 93
        1
 72
     4
 94
        3
 73
     0
 74
     1
 95
       53
 96
       49
 40
0.0
 40
0.0
 40
0.0
 40
0.0
 40
1.0
 40
1.0
 40
1.0
 40
2.0
 40
2.0
 40
2.0
 40
3.0
 40
3.0
 40
3.0
 40
4.0
 40
4.0
 40
4.0
 40
5.0
 40
5.0
 40
5.0
 40
6.0
 40
6.0
 40
6.0
 40
7.0
 40
7.0
 40
7.0
 40
8.0
 40
8.0
 40
8.0
 40
9.0
 40
9.0
 40
9.0
 40
10.0
 40
10.0
 40
10.0
 40
11.0
 40
11.0
 40
11.0
 40
12.0
 40
12.0
 40
12.0
 40
13.0
 40
13.0
 40
13.0
 40
14.0
 40
14.0
 40
14.0
 40
15.0
 40
15.0
 40
15.0
 40
16.0
 40
16.0
 40
16.0
 40
16.0
 10
81.97139619261479
 20
-114.1504828273652
 10
81.89302027032537
 20
-114.1504828273652
 10
81.79156220828476
 20
-114.1336018594874
 10
81.68993189146988
 20
-114.0702121025588
 10
81.51647133378755
 20
-113.9603135565794
 10
81.49528399655327
 20
-113.8290554185914
 10
81.47633597138439
 20
-113.721223929903
 10
81.47633597138439
 20
-113.721223929903
 10
81.69837237540874
 20
-113.721223929903
 10
81.69837237540874
 20
-113.721223929903
 10
81.75349390317274
 20
-113.9200059394019
 10
81.8804456718042
 20
-113.9496337605751
 10
81.97346324990595
 20
-113.9496337605751
 10
82.11316187183283
 20
-113.9496337605751
 10
82.26543509228087
 20
-113.8500705010514
 10
82.26543509228087
 20
-113.617526555797
 10
82.26543509228087
 20
-113.361555961243
 10
82.08560110795082
 20
-113.2916205228924
 10
81.96502276596708
 20
-113.2916205228924
 10
81.93332788750278
 20
-113.2916205228924
 10
81.79156220828476
 20
-113.2916205228924
 10
81.70267874476531
 20
-113.4208116035892
 10
81.70267874476531
 20
-113.4208116035892
 10
81.52715112979183
 20
-113.4018635784204
 10
81.52715112979183
 20
-113.4018635784204
 10
81.52715112979183
 20
-113.4018635784204
 10
81.64772947177558
 20
-112.5554036176945
 10
81.64772947177558
 20
-112.5554036176945
 10
81.64772947177558
 20
-112.5554036176945
 10
82.42614879666777
 20
-112.5554036176945
 10
82.42614879666777
 20
-112.5554036176945
 10
82.42614879666777
 20
-112.5554036176945
 10
82.42614879666777
 20
-112.7500515126111
 10
82.42614879666777
 20
-112.7500515126111
 10
82.42614879666777
 20
-112.7500515126111
 10
81.81051023345363
 20
-112.7500515126111
 10
81.81051023345363
 20
-112.7500515126111
 10
81.81051023345363
 20
-112.7500515126111
 10
81.74505341923388
 20
-113.1731092381998
 10
81.74505341923388
 20
-113.1731092381998
 10
81.80637611887133
 20
-113.1393473024443
 10
81.88888615574307
 20
-113.0990396852669
 10
82.0072251856614
 20
-113.0990396852669
 10
82.26112872292431
 20
-113.0990396852669
 10
82.49815129230949
 20
-113.2854193510189
 10
82.49815129230949
 20
-113.5985785306281
 10
82.49815129230949
 20
-113.9158718248196
 10
82.27387557621972
 20
-114.1504828273652
 10
81.97139619261479
 20
-114.1504828273652
 97
        0
 97
        0
 75
     2
 76
     1
 98
        0
  0
ENDBLK
  5
9A
330
97
100
AcDbEntity
  8
0
100
AcDbBlockEnd
  0
BLOCK
  5
A1
330
9F
100
AcDbEntity
  8
0
100
AcDbBlockBegin
  2
block 3
 70
     0
 10
0.0
 20
0.0
 30
0.0
  3
block 3
  1

  0
SPLINE
  5
A3
330
9F
100
AcDbEntity
  8
_U+30EC_U+30A4_U+30E4_U+30FC 1
370
     0
100
AcDbSpline
210
0.0
220
0.0
230
1.0
 70
    11
 71
     3
 72
    26
 73
    22
 74
     0
 42
0.0000000001
 43
0.0000000001
 12
1.0
 22
0.0
 32
0.0
 13
1.0
 23
0.0
 33
0.0
 40
0.0
 40
0.0
 40
0.0
 40
0.0
 40
1.0
 40
1.0
 40
1.0
 40
2.0
 40
2.0
 40
2.0
 40
3.0
 40
3.0
 40
3.0
 40
4.0
 40
4.0
 40
4.0
 40
5.0
 40
5.0
 40
5.0
 40
6.0
 40
6.0
 40
6.0
 40
7.0
 40
7.0
 40
7.0
 40
7.0
 10
107.4146321346047
 20
-114.1091416815422
 30
0.0
 10
107.4146321346047
 20
-114.1091416815422
 30
0.0
 10
106.3104790315821
 20
-114.1091416815422
 30
0.0
 10
106.3104790315821
 20
-114.1091416815422
 30
0.0
 10
106.3104790315821
 20
-114.1091416815422
 30
0.0
 10
106.3104790315821
 20
-114.4391818290291
 30
0.0
 10
106.3104790315821
 20
-114.4391818290291
 30
0.0
 10
106.3104790315821
 20
-114.4391818290291
 30
0.0
 10
106.1623399257164
 20
-114.4391818290291
 30
0.0
 10
106.1623399257164
 20
-114.4391818290291
 30
0.0
 10
106.1475260151298
 20
-114.107074624251
 30
0.0
 10
105.9845729986775
 20
-114.0605658352001
 30
0.0
 10
105.8701958285672
 20
-114.030938014027
 30
0.0
 10
105.8701958285672
 20
-114.030938014027
 30
0.0
 10
105.8701958285672
 20
-113.8848659654524
 30
0.0
 10
105.8701958285672
 20
-113.8848659654524
 30
0.0
 10
105.8701958285672
 20
-113.8848659654524
 30
0.0
 10
107.4146321346047
 20
-113.8848659654524
 30
0.0
 10
107.4146321346047
 20
-113.8848659654524
 30
0.0
 10
107.4146321346047
 20
-113.8848659654524
 30
0.0
 10
107.4146321346047
 20
-114.1091416815422
 30
0.0
 10
107.4146321346047
 20
-114.1091416815422
 30
0.0
  0
HATCH
  5
A4
330
9F
100
AcDbEntity
  8
_U+30EC_U+30A4_U+30E4_U+30FC 1
 62
   179
420
  2234388
100
AcDbHatch
 10
0.0
 20
0.0
 30
0.0
210
0.0
220
0.0
230
1.0
  2
SOLID
 70
     1
 71
     0
 91
        1
 92
        1
 93
        1
 72
     4
 94
        3
 73
     0
 74
     1
 95
       26
 96
       22
 40
0.0
 40
0.0
 40
0.0
 40
0.0
 40
1.0
 40
1.0
 40
1.0
 40
2.0
 40
2.0
 40
2.0
 40
3.0
 40
3.0
 40
3.0
 40
4.0
 40
4.0
 40
4.0
 40
5.0
 40
5.0
 40
5.0
 40
6.0
 40
6.0
 40
6.0
 40
7.0
 40
7.0
 40
7.0
 40
7.0
 10
107.4146321346047
 20
-114.1091416815422
 10
107.4146321346047
 20
-114.1091416815422
 10
106.3104790315821
 20
-114.1091416815422
 10
106.3104790315821
 20
-114.1091416815422
 10
106.3104790315821
 20
-114.1091416815422
 10
106.3104790315821
 20
-114.4391818290291
 10
106.3104790315821
 20
-114.4391818290291
 10
106.3104790315821
 20
-114.4391818290291
 10
106.1623399257164
 20
-114.4391818290291
 10
106.1623399257164
 20
-114.4391818290291
 10
106.1475260151298
 20
-114.107074624251
 10
105.9845729986775
 20
-114.0605658352001
 10
105.8701958285672
 20
-114.030938014027
 10
105.8701958285672
 20
-114.030938014027
 10
105.8701958285672
 20
-113.8848659654524
 10
105.8701958285672
 20
-113.8848659654524
 10
105.8701958285672
 20
-113.8848659654524
 10
107.4146321346047
 20
-113.8848659654524
 10
107.4146321346047
 20
-113.8848659654524
 10
107.4146321346047
 20
-113.8848659654524
 10
107.4146321346047
 20
-114.1091416815422
 10
107.4146321346047
 20
-114.1091416815422
 97
        0
 97
        0
 75
     2
 76
     1
 98
        0
  0
POLYLINE
  5
A5
330
9F
100
AcDbEntity
  8
_U+30EC_U+30A4_U+30E4_U+30FC 1
370
     0
100
AcDb2dPolyline
 66
     1
 10
0.0
 20
0.0
 30
0.0
  0
VERTEX
  5
A6
330
A5
100
AcDbEntity
  8
_U+30EC_U+30A4_U+30E4_U+30FC 1
370
     0
100
AcDbVertex
100
AcDb2dVertex
 10
107.4146321346047
 20
-113.3236599109052
 30
0.0
  0
VERTEX
  5
A7
330
A5
100
AcDbEntity
  8
_U+30EC_U+30A4_U+30E4_U+30FC 1
370
     0
100
AcDbVertex
100
AcDb2dVertex
 10
107.1627956546329
 20
-113.3236599109052
 30
0.0
  0
VERTEX
  5
A8
330
A5
100
AcDbEntity
  8
_U+30EC_U+30A4_U+30E4_U+30FC 1
370
     0
100
AcDbVertex
100
AcDb2dVertex
 10
107.1627956546329
 20
-113.0719956857077
 30
0.0
  0
VERTEX
  5
A9
330
A5
100
AcDbEntity
  8
_U+30EC_U+30A4_U+30E4_U+30FC 1
370
     0
100
AcDbVertex
100
AcDb2dVertex
 10
107.4146321346047
 20
-113.0719956857077
 30
0.0
  0
VERTEX
  5
AA
330
A5
100
AcDbEntity
  8
_U+30EC_U+30A4_U+30E4_U+30FC 1
370
     0
100
AcDbVertex
100
AcDb2dVertex
 10
107.4146321346047
 20
-113.3236599109052
 30
0.0
  0
SEQEND
  5
AB
330
A5
100
AcDbEntity
  8
_U+30EC_U+30A4_U+30E4_U+30FC 1
370
     0
  0
HATCH
  5
AC
330
9F
100
AcDbEntity
  8
_U+30EC_U+30A4_U+30E4_U+30FC 1
 62
   179
420
  2234388
100
AcDbHatch
 10
0.0
 20
0.0
 30
0.0
210
0.0
220
0.0
230
1.0
  2
SOLID
 70
     1
 71
     0
 91
        1
 92
        1
 93
        4
 72
     1
 10
107.4146321346047
 20
-113.3236599109052
 11
107.1627956546329
 21
-113.3236599109052
 72
     1
 10
107.1627956546329
 20
-113.3236599109052
 11
107.1627956546329
 21
-113.0719956857077
 72
     1
 10
107.1627956546329
 20
-113.0719956857077
 11
107.4146321346047
 21
-113.0719956857077
 72
     1
 10
107.4146321346047
 20
-113.0719956857077
 11
107.4146321346047
 21
-113.3236599109052
 97
        0
 75
     2
 76
     1
 98
        0
  0
SPLINE
  5
AD
330
9F
100
AcDbEntity
  8
_U+30EC_U+30A4_U+30E4_U+30FC 1
370
     0
100
AcDbSpline
210
0.0
220
0.0
230
1.0
 70
    11
 71
     3
 72
    53
 73
    49
 74
     0
 42
0.0000000001
 43
0.0000000001
 12
1.0
 22
0.0
 32
0.0
 13
1.0
 23
0.0
 33
0.0
 40
0.0
 40
0.0
 40
0.0
 40
0.0
 40
1.0
 40
1.0
 40
1.0
 40
2.0
 40
2.0
 40
2.0
 40
3.0
 40
3.0
 40
3.0
 40
4.0
 40
4.0
 40
4.0
 40
5.0
 40
5.0
 40
5.0
 40
6.0
 40
6.0
 40
6.0
 40
7.0
 40
7.0
 40
7.0
 40
8.0
 40
8.0
 40
8.0
 40
9.0
 40
9.0
 40
9.0
 40
10.0
 40
10.0
 40
10.0
 40
11.0
 40
11.0
 40
11.0
 40
12.0
 40
12.0
 40
12.0
 40
13.0
 40
13.0
 40
13.0
 40
14.0
 40
14.0
 40
14.0
 40
15.0
 40
15.0
 40
15.0
 40
16.0
 40
16.0
 40
16.0
 40
16.0
 10
107.4652750382378
 20
-112.3543822961302
 30
0.0
 10
107.4652750382378
 20
-112.4327582184196
 30
0.0
 10
107.4483940703601
 20
-112.5342162804602
 30
0.0
 10
107.3850043134315
 20
-112.6358465972751
 30
0.0
 10
107.2751057674521
 20
-112.8093071549574
 30
0.0
 10
107.143847629464
 20
-112.8304944921917
 30
0.0
 10
107.0360161407757
 20
-112.8494425173606
 30
0.0
 10
107.0360161407757
 20
-112.8494425173606
 30
0.0
 10
107.0360161407757
 20
-112.6274061133362
 30
0.0
 10
107.0360161407757
 20
-112.6274061133362
 30
0.0
 10
107.2347981502746
 20
-112.5722845855722
 30
0.0
 10
107.2644259714478
 20
-112.4453328169407
 30
0.0
 10
107.2644259714478
 20
-112.352315238839
 30
0.0
 10
107.2644259714478
 20
-112.2126166169121
 30
0.0
 10
107.1648627119241
 20
-112.0603433964641
 30
0.0
 10
106.9323187666697
 20
-112.0603433964641
 30
0.0
 10
106.6763481721156
 20
-112.0603433964641
 30
0.0
 10
106.6064127337651
 20
-112.2401773807941
 30
0.0
 10
106.6064127337651
 20
-112.3607557227779
 30
0.0
 10
106.6064127337651
 20
-112.3924506012422
 30
0.0
 10
106.6064127337651
 20
-112.5342162804602
 30
0.0
 10
106.7356038144619
 20
-112.6230997439797
 30
0.0
 10
106.7356038144619
 20
-112.6230997439797
 30
0.0
 10
106.7166557892931
 20
-112.7986273589531
 30
0.0
 10
106.7166557892931
 20
-112.7986273589531
 30
0.0
 10
106.7166557892931
 20
-112.7986273589531
 30
0.0
 10
105.8701958285672
 20
-112.6780490169694
 30
0.0
 10
105.8701958285672
 20
-112.6780490169694
 30
0.0
 10
105.8701958285672
 20
-112.6780490169694
 30
0.0
 10
105.8701958285672
 20
-111.8996296920772
 30
0.0
 10
105.8701958285672
 20
-111.8996296920772
 30
0.0
 10
105.8701958285672
 20
-111.8996296920772
 30
0.0
 10
106.0648437234838
 20
-111.8996296920772
 30
0.0
 10
106.0648437234838
 20
-111.8996296920772
 30
0.0
 10
106.0648437234838
 20
-111.8996296920772
 30
0.0
 10
106.0648437234838
 20
-112.5152682552913
 30
0.0
 10
106.0648437234838
 20
-112.5152682552913
 30
0.0
 10
106.0648437234838
 20
-112.5152682552913
 30
0.0
 10
106.4879014490725
 20
-112.5807250695111
 30
0.0
 10
106.4879014490725
 20
-112.5807250695111
 30
0.0
 10
106.454139513317
 20
-112.5194023698736
 30
0.0
 10
106.4138318961396
 20
-112.4368923330019
 30
0.0
 10
106.4138318961396
 20
-112.3185533030836
 30
0.0
 10
106.4138318961396
 20
-112.0646497658206
 30
0.0
 10
106.6002115618916
 20
-111.8276271964355
 30
0.0
 10
106.9133707415008
 20
-111.8276271964355
 30
0.0
 10
107.2306640356923
 20
-111.8276271964355
 30
0.0
 10
107.4652750382378
 20
-112.0519029125252
 30
0.0
 10
107.4652750382378
 20
-112.3543822961302
 30
0.0
  0
HATCH
  5
AE
330
9F
100
AcDbEntity
  8
_U+30EC_U+30A4_U+30E4_U+30FC 1
 62
   179
420
  2234388
100
AcDbHatch
 10
0.0
 20
0.0
 30
0.0
210
0.0
220
0.0
230
1.0
  2
SOLID
 70
     1
 71
     0
 91
        1
 92
        1
 93
        1
 72
     4
 94
        3
 73
     0
 74
     1
 95
       53
 96
       49
 40
0.0
 40
0.0
 40
0.0
 40
0.0
 40
1.0
 40
1.0
 40
1.0
 40
2.0
 40
2.0
 40
2.0
 40
3.0
 40
3.0
 40
3.0
 40
4.0
 40
4.0
 40
4.0
 40
5.0
 40
5.0
 40
5.0
 40
6.0
 40
6.0
 40
6.0
 40
7.0
 40
7.0
 40
7.0
 40
8.0
 40
8.0
 40
8.0
 40
9.0
 40
9.0
 40
9.0
 40
10.0
 40
10.0
 40
10.0
 40
11.0
 40
11.0
 40
11.0
 40
12.0
 40
12.0
 40
12.0
 40
13.0
 40
13.0
 40
13.0
 40
14.0
 40
14.0
 40
14.0
 40
15.0
 40
15.0
 40
15.0
 40
16.0
 40
16.0
 40
16.0
 40
16.0
 10
107.4652750382378
 20
-112.3543822961302
 10
107.4652750382378
 20
-112.4327582184196
 10
107.4483940703601
 20
-112.5342162804602
 10
107.3850043134315
 20
-112.6358465972751
 10
107.2751057674521
 20
-112.8093071549574
 10
107.143847629464
 20
-112.8304944921917
 10
107.0360161407757
 20
-112.8494425173606
 10
107.0360161407757
 20
-112.8494425173606
 10
107.0360161407757
 20
-112.6274061133362
 10
107.0360161407757
 20
-112.6274061133362
 10
107.2347981502746
 20
-112.5722845855722
 10
107.2644259714478
 20
-112.4453328169407
 10
107.2644259714478
 20
-112.352315238839
 10
107.2644259714478
 20
-112.2126166169121
 10
107.1648627119241
 20
-112.0603433964641
 10
106.9323187666697
 20
-112.0603433964641
 10
106.6763481721156
 20
-112.0603433964641
 10
106.6064127337651
 20
-112.2401773807941
 10
106.6064127337651
 20
-112.3607557227779
 10
106.6064127337651
 20
-112.3924506012422
 10
106.6064127337651
 20
-112.5342162804602
 10
106.7356038144619
 20
-112.6230997439797
 10
106.7356038144619
 20
-112.6230997439797
 10
106.7166557892931
 20
-112.7986273589531
 10
106.7166557892931
 20
-112.7986273589531
 10
106.7166557892931
 20
-112.7986273589531
 10
105.8701958285672
 20
-112.6780490169694
 10
105.8701958285672
 20
-112.6780490169694
 10
105.8701958285672
 20
-112.6780490169694
 10
105.8701958285672
 20
-111.8996296920772
 10
105.8701958285672
 20
-111.8996296920772
 10
105.8701958285672
 20
-111.8996296920772
 10
106.0648437234838
 20
-111.8996296920772
 10
106.0648437234838
 20
-111.8996296920772
 10
106.0648437234838
 20
-111.8996296920772
 10
106.0648437234838
 20
-112.5152682552913
 10
106.0648437234838
 20
-112.5152682552913
 10
106.0648437234838
 20
-112.5152682552913
 10
106.4879014490725
 20
-112.5807250695111
 10
106.4879014490725
 20
-112.5807250695111
 10
106.454139513317
 20
-112.5194023698736
 10
106.4138318961396
 20
-112.4368923330019
 10
106.4138318961396
 20
-112.3185533030836
 10
106.4138318961396
 20
-112.0646497658206
 10
106.6002115618916
 20
-111.8276271964355
 10
106.9133707415008
 20
-111.8276271964355
 10
107.2306640356923
 20
-111.8276271964355
 10
107.4652750382378
 20
-112.0519029125252
 10
107.4652750382378
 20
-112.3543822961302
 97
        0
 97
        0
 75
     2
 76
     1
 98
        0
  0
ENDBLK
  5
A2
330
9F
100
AcDbEntity
  8
0
100
AcDbBlockEnd
  0
BLOCK
  5
B1
330
AF
100
AcDbEntity
  8
0
100
AcDbBlockBegin
  2
block 4
 70
     0
 10
0.0
 20
0.0
 30
0.0
  3
block 4
  1

  0
SPLINE
  5
B3
330
AF
100
AcDbEntity
  8
_U+30EC_U+30A4_U+30E4_U+30FC 1
370
     0
100
AcDbSpline
210
0.0
220
0.0
230
1.0
 70
    11
 71
     3
 72
    44
 73
    40
 74
     0
 42
0.0000000001
 43
0.0000000001
 12
1.0
 22
0.0
 32
0.0
 13
1.0
 23
0.0
 33
0.0
 40
0.0
 40
0.0
 40
0.0
 40
0.0
 40
1.0
 40
1.0
 40
1.0
 40
2.0
 40
2.0
 40
2.0
 40
3.0
 40
3.0
 40
3.0
 40
4.0
 40
4.0
 40
4.0
 40
5.0
 40
5.0
 40
5.0
 40
6.0
 40
6.0
 40
6.0
 40
7.0
 40
7.0
 40
7.0
 40
8.0
 40
8.0
 40
8.0
 40
9.0
 40
9.0
 40
9.0
 40
10.0
 40
10.0
 40
10.0
 40
11.0
 40
11.0
 40
11.0
 40
12.0
 40
12.0
 40
12.0
 40
13.0
 40
13.0
 40
13.0
 40
13.0
 10
106.922672499311
 20
-129.7708902670365
 30
0.0
 10
107.081491401181
 20
-129.9889648112528
 30
0.0
 10
107.1555609541139
 20
-130.0819823893545
 30
0.0
 10
107.2992214358488
 20
-130.1305582356965
 30
0.0
 10
107.2992214358488
 20
-130.1305582356965
 30
0.0
 10
107.2992214358488
 20
-129.3523111655786
 30
0.0
 10
107.2992214358488
 20
-129.3523111655786
 30
0.0
 10
107.2992214358488
 20
-129.3523111655786
 30
0.0
 10
107.5045491267697
 20
-129.3523111655786
 30
0.0
 10
107.5045491267697
 20
-129.3523111655786
 30
0.0
 10
107.5045491267697
 20
-129.3523111655786
 30
0.0
 10
107.5045491267697
 20
-130.3803276583772
 30
0.0
 10
107.5045491267697
 20
-130.3803276583772
 30
0.0
 10
107.1469482154008
 20
-130.3486327799129
 30
0.0
 10
107.0687445478856
 20
-130.2828314561446
 30
0.0
 10
106.770399278863
 20
-129.8980142904422
 30
0.0
 10
106.571617269364
 20
-129.6416991863396
 30
0.0
 10
106.5037488883046
 20
-129.5762423721198
 30
0.0
 10
106.3662895784432
 20
-129.5762423721198
 30
0.0
 10
106.2477782937506
 20
-129.5762423721198
 30
0.0
 10
106.1168646653111
 20
-129.6482448677615
 30
0.0
 10
106.1168646653111
 20
-129.8449598199693
 30
0.0
 10
106.1168646653111
 20
-130.1054090386542
 30
0.0
 10
106.3473415532743
 20
-130.1136772678188
 30
0.0
 10
106.4637857806757
 20
-130.1178113824011
 30
0.0
 10
106.4637857806757
 20
-130.1178113824011
 30
0.0
 10
106.4637857806757
 20
-130.3420870984909
 30
0.0
 10
106.4637857806757
 20
-130.3420870984909
 30
0.0
 10
106.33666175727
 20
-130.3334743597777
 30
0.0
 10
106.2246961539994
 20
-130.323139073322
 30
0.0
 10
106.1061848693068
 20
-130.2425238389671
 30
0.0
 10
105.9452989101456
 20
-130.1329698025362
 30
0.0
 10
105.9115369743902
 20
-129.9465901367842
 30
0.0
 10
105.9115369743902
 20
-129.8301459093827
 30
0.0
 10
105.9115369743902
 20
-129.5528157228201
 30
0.0
 10
106.0955050733025
 20
-129.3457654841566
 30
0.0
 10
106.3683566357343
 20
-129.3457654841566
 30
0.0
 10
106.5971109759549
 20
-129.3457654841566
 30
0.0
 10
106.6963297259301
 20
-129.4618652020095
 30
0.0
 10
106.922672499311
 20
-129.7708902670365
 30
0.0
  0
HATCH
  5
B4
330
AF
100
AcDbEntity
  8
_U+30EC_U+30A4_U+30E4_U+30FC 1
 62
   179
420
  2234388
100
AcDbHatch
 10
0.0
 20
0.0
 30
0.0
210
0.0
220
0.0
230
1.0
  2
SOLID
 70
     1
 71
     0
 91
        1
 92
        1
 93
        1
 72
     4
 94
        3
 73
     0
 74
     1
 95
       44
 96
       40
 40
0.0
 40
0.0
 40
0.0
 40
0.0
 40
1.0
 40
1.0
 40
1.0
 40
2.0
 40
2.0
 40
2.0
 40
3.0
 40
3.0
 40
3.0
 40
4.0
 40
4.0
 40
4.0
 40
5.0
 40
5.0
 40
5.0
 40
6.0
 40
6.0
 40
6.0
 40
7.0
 40
7.0
 40
7.0
 40
8.0
 40
8.0
 40
8.0
 40
9.0
 40
9.0
 40
9.0
 40
10.0
 40
10.0
 40
10.0
 40
11.0
 40
11.0
 40
11.0
 40
12.0
 40
12.0
 40
12.0
 40
13.0
 40
13.0
 40
13.0
 40
13.0
 10
106.922672499311
 20
-129.7708902670365
 10
107.081491401181
 20
-129.9889648112528
 10
107.1555609541139
 20
-130.0819823893545
 10
107.2992214358488
 20
-130.1305582356965
 10
107.2992214358488
 20
-130.1305582356965
 10
107.2992214358488
 20
-129.3523111655786
 10
107.2992214358488
 20
-129.3523111655786
 10
107.2992214358488
 20
-129.3523111655786
 10
107.5045491267697
 20
-129.3523111655786
 10
107.5045491267697
 20
-129.3523111655786
 10
107.5045491267697
 20
-129.3523111655786
 10
107.5045491267697
 20
-130.3803276583772
 10
107.5045491267697
 20
-130.3803276583772
 10
107.1469482154008
 20
-130.3486327799129
 10
107.0687445478856
 20
-130.2828314561446
 10
106.770399278863
 20
-129.8980142904422
 10
106.571617269364
 20
-129.6416991863396
 10
106.5037488883046
 20
-129.5762423721198
 10
106.3662895784432
 20
-129.5762423721198
 10
106.2477782937506
 20
-129.5762423721198
 10
106.1168646653111
 20
-129.6482448677615
 10
106.1168646653111
 20
-129.8449598199693
 10
106.1168646653111
 20
-130.1054090386542
 10
106.3473415532743
 20
-130.1136772678188
 10
106.4637857806757
 20
-130.1178113824011
 10
106.4637857806757
 20
-130.1178113824011
 10
106.4637857806757
 20
-130.3420870984909
 10
106.4637857806757
 20
-130.3420870984909
 10
106.33666175727
 20
-130.3334743597777
 10
106.2246961539994
 20
-130.323139073322
 10
106.1061848693068
 20
-130.2425238389671
 10
105.9452989101456
 20
-130.1329698025362
 10
105.9115369743902
 20
-129.9465901367842
 10
105.9115369743902
 20
-129.8301459093827
 10
105.9115369743902
 20
-129.5528157228201
 10
106.0955050733025
 20
-129.3457654841566
 10
106.3683566357343
 20
-129.3457654841566
 10
106.5971109759549
 20
-129.3457654841566
 10
106.6963297259301
 20
-129.4618652020095
 10
106.922672499311
 20
-129.7708902670365
 97
        0
 97
        0
 75
     2
 76
     1
 98
        0
  0
SPLINE
  5
B5
330
AF
100
AcDbEntity
  8
_U+30EC_U+30A4_U+30E4_U+30FC 1
370
     0
100
AcDbSpline
210
0.0
220
0.0
230
1.0
 70
    11
 71
     3
 72
    26
 73
    22
 74
     0
 42
0.0000000001
 43
0.0000000001
 12
1.0
 22
0.0
 32
0.0
 13
1.0
 23
0.0
 33
0.0
 40
0.0
 40
0.0
 40
0.0
 40
0.0
 40
1.0
 40
1.0
 40
1.0
 40
2.0
 40
2.0
 40
2.0
 40
3.0
 40
3.0
 40
3.0
 40
4.0
 40
4.0
 40
4.0
 40
5.0
 40
5.0
 40
5.0
 40
6.0
 40
6.0
 40
6.0
 40
7.0
 40
7.0
 40
7.0
 40
7.0
 10
107.5045491267697
 20
-128.7358113284931
 30
0.0
 10
107.5045491267697
 20
-128.7358113284931
 30
0.0
 10
106.4003960237471
 20
-128.7358113284931
 30
0.0
 10
106.4003960237471
 20
-128.7358113284931
 30
0.0
 10
106.4003960237471
 20
-128.7358113284931
 30
0.0
 10
106.4003960237471
 20
-129.0656792212058
 30
0.0
 10
106.4003960237471
 20
-129.0656792212058
 30
0.0
 10
106.4003960237471
 20
-129.0656792212058
 30
0.0
 10
106.2522569178814
 20
-129.0656792212058
 30
0.0
 10
106.2522569178814
 20
-129.0656792212058
 30
0.0
 10
106.2374430072948
 20
-128.733744271202
 30
0.0
 10
106.0744899908425
 20
-128.6872354821511
 30
0.0
 10
105.9601128207322
 20
-128.657607660978
 30
0.0
 10
105.9601128207322
 20
-128.657607660978
 30
0.0
 10
105.9601128207322
 20
-128.5115356124034
 30
0.0
 10
105.9601128207322
 20
-128.5115356124034
 30
0.0
 10
105.9601128207322
 20
-128.5115356124034
 30
0.0
 10
107.5045491267697
 20
-128.5115356124034
 30
0.0
 10
107.5045491267697
 20
-128.5115356124034
 30
0.0
 10
107.5045491267697
 20
-128.5115356124034
 30
0.0
 10
107.5045491267697
 20
-128.7358113284931
 30
0.0
 10
107.5045491267697
 20
-128.7358113284931
 30
0.0
  0
HATCH
  5
B6
330
AF
100
AcDbEntity
  8
_U+30EC_U+30A4_U+30E4_U+30FC 1
 62
   179
420
  2234388
100
AcDbHatch
 10
0.0
 20
0.0
 30
0.0
210
0.0
220
0.0
230
1.0
  2
SOLID
 70
     1
 71
     0
 91
        1
 92
        1
 93
        1
 72
     4
 94
        3
 73
     0
 74
     1
 95
       26
 96
       22
 40
0.0
 40
0.0
 40
0.0
 40
0.0
 40
1.0
 40
1.0
 40
1.0
 40
2.0
 40
2.0
 40
2.0
 40
3.0
 40
3.0
 40
3.0
 40
4.0
 40
4.0
 40
4.0
 40
5.0
 40
5.0
 40
5.0
 40
6.0
 40
6.0
 40
6.0
 40
7.0
 40
7.0
 40
7.0
 40
7.0
 10
107.5045491267697
 20
-128.7358113284931
 10
107.5045491267697
 20
-128.7358113284931
 10
106.4003960237471
 20
-128.7358113284931
 10
106.4003960237471
 20
-128.7358113284931
 10
106.4003960237471
 20
-128.7358113284931
 10
106.4003960237471
 20
-129.0656792212058
 10
106.4003960237471
 20
-129.0656792212058
 10
106.4003960237471
 20
-129.0656792212058
 10
106.2522569178814
 20
-129.0656792212058
 10
106.2522569178814
 20
-129.0656792212058
 10
106.2374430072948
 20
-128.733744271202
 10
106.0744899908425
 20
-128.6872354821511
 10
105.9601128207322
 20
-128.657607660978
 10
105.9601128207322
 20
-128.657607660978
 10
105.9601128207322
 20
-128.5115356124034
 10
105.9601128207322
 20
-128.5115356124034
 10
105.9601128207322
 20
-128.5115356124034
 10
107.5045491267697
 20
-128.5115356124034
 10
107.5045491267697
 20
-128.5115356124034
 10
107.5045491267697
 20
-128.5115356124034
 10
107.5045491267697
 20
-128.7358113284931
 10
107.5045491267697
 20
-128.7358113284931
 97
        0
 97
        0
 75
     2
 76
     1
 98
        0
  0
POLYLINE
  5
B7
330
AF
100
AcDbEntity
  8
_U+30EC_U+30A4_U+30E4_U+30FC 1
370
     0
100
AcDb2dPolyline
 66
     1
 10
0.0
 20
0.0
 30
0.0
  0
VERTEX
  5
B8
330
B7
100
AcDbEntity
  8
_U+30EC_U+30A4_U+30E4_U+30FC 1
370
     0
100
AcDbVertex
100
AcDb2dVertex
 10
107.5045491267697
 20
-127.9503295578562
 30
0.0
  0
VERTEX
  5
B9
330
B7
100
AcDbEntity
  8
_U+30EC_U+30A4_U+30E4_U+30FC 1
370
     0
100
AcDbVertex
100
AcDb2dVertex
 10
107.2527126467979
 20
-127.9503295578562
 30
0.0
  0
VERTEX
  5
BA
330
B7
100
AcDbEntity
  8
_U+30EC_U+30A4_U+30E4_U+30FC 1
370
     0
100
AcDbVertex
100
AcDb2dVertex
 10
107.2527126467979
 20
-127.6986653326587
 30
0.0
  0
VERTEX
  5
BB
330
B7
100
AcDbEntity
  8
_U+30EC_U+30A4_U+30E4_U+30FC 1
370
     0
100
AcDbVertex
100
AcDb2dVertex
 10
107.5045491267697
 20
-127.6986653326587
 30
0.0
  0
VERTEX
  5
BC
330
B7
100
AcDbEntity
  8
_U+30EC_U+30A4_U+30E4_U+30FC 1
370
     0
100
AcDbVertex
100
AcDb2dVertex
 10
107.5045491267697
 20
-127.9503295578562
 30
0.0
  0
SEQEND
  5
BD
330
B7
100
AcDbEntity
  8
_U+30EC_U+30A4_U+30E4_U+30FC 1
370
     0
  0
HATCH
  5
BE
330
AF
100
AcDbEntity
  8
_U+30EC_U+30A4_U+30E4_U+30FC 1
 62
   179
420
  2234388
100
AcDbHatch
 10
0.0
 20
0.0
 30
0.0
210
0.0
220
0.0
230
1.0
  2
SOLID
 70
     1
 71
     0
 91
        1
 92
        1
 93
        4
 72
     1
 10
107.5045491267697
 20
-127.9503295578562
 11
107.2527126467979
 21
-127.9503295578562
 72
     1
 10
107.2527126467979
 20
-127.9503295578562
 11
107.2527126467979
 21
-127.6986653326587
 72
     1
 10
107.2527126467979
 20
-127.6986653326587
 11
107.5045491267697
 21
-127.6986653326587
 72
     1
 10
107.5045491267697
 20
-127.6986653326587
 11
107.5045491267697
 21
-127.9503295578562
 97
        0
 75
     2
 76
     1
 98
        0
  0
SPLINE
  5
BF
330
AF
100
AcDbEntity
  8
_U+30EC_U+30A4_U+30E4_U+30FC 1
370
     0
100
AcDbSpline
210
0.0
220
0.0
230
1.0
 70
    11
 71
     3
 72
    53
 73
    49
 74
     0
 42
0.0000000001
 43
0.0000000001
 12
1.0
 22
0.0
 32
0.0
 13
1.0
 23
0.0
 33
0.0
 40
0.0
 40
0.0
 40
0.0
 40
0.0
 40
1.0
 40
1.0
 40
1.0
 40
2.0
 40
2.0
 40
2.0
 40
3.0
 40
3.0
 40
3.0
 40
4.0
 40
4.0
 40
4.0
 40
5.0
 40
5.0
 40
5.0
 40
6.0
 40
6.0
 40
6.0
 40
7.0
 40
7.0
 40
7.0
 40
8.0
 40
8.0
 40
8.0
 40
9.0
 40
9.0
 40
9.0
 40
10.0
 40
10.0
 40
10.0
 40
11.0
 40
11.0
 40
11.0
 40
12.0
 40
12.0
 40
12.0
 40
13.0
 40
13.0
 40
13.0
 40
14.0
 40
14.0
 40
14.0
 40
15.0
 40
15.0
 40
15.0
 40
16.0
 40
16.0
 40
16.0
 40
16.0
 10
107.5551920304029
 20
-126.9810519430811
 30
0.0
 10
107.5551920304029
 20
-127.0594278653706
 30
0.0
 10
107.5383110625252
 20
-127.1608859274112
 30
0.0
 10
107.4749213055966
 20
-127.262516244226
 30
0.0
 10
107.3650227596171
 20
-127.4359768019084
 30
0.0
 10
107.2337646216291
 20
-127.4571641391427
 30
0.0
 10
107.1259331329407
 20
-127.4761121643115
 30
0.0
 10
107.1259331329407
 20
-127.4761121643115
 30
0.0
 10
107.1259331329407
 20
-127.2540757602872
 30
0.0
 10
107.1259331329407
 20
-127.2540757602872
 30
0.0
 10
107.3247151424397
 20
-127.1989542325232
 30
0.0
 10
107.3543429636128
 20
-127.0720024638917
 30
0.0
 10
107.3543429636128
 20
-126.97898488579
 30
0.0
 10
107.3543429636128
 20
-126.8394585186374
 30
0.0
 10
107.2547797040891
 20
-126.6870130434151
 30
0.0
 10
107.0222357588347
 20
-126.6870130434151
 30
0.0
 10
106.7662651642807
 20
-126.6870130434151
 30
0.0
 10
106.6963297259301
 20
-126.8668470277451
 30
0.0
 10
106.6963297259301
 20
-126.9874253697288
 30
0.0
 10
106.6963297259301
 20
-127.0191202481931
 30
0.0
 10
106.6963297259301
 20
-127.1608859274112
 30
0.0
 10
106.825520806627
 20
-127.2497693909306
 30
0.0
 10
106.825520806627
 20
-127.2497693909306
 30
0.0
 10
106.8065727814581
 20
-127.4252970059041
 30
0.0
 10
106.8065727814581
 20
-127.4252970059041
 30
0.0
 10
106.8065727814581
 20
-127.4252970059041
 30
0.0
 10
105.9601128207322
 20
-127.3047186639204
 30
0.0
 10
105.9601128207322
 20
-127.3047186639204
 30
0.0
 10
105.9601128207322
 20
-127.3047186639204
 30
0.0
 10
105.9601128207322
 20
-126.5262993390282
 30
0.0
 10
105.9601128207322
 20
-126.5262993390282
 30
0.0
 10
105.9601128207322
 20
-126.5262993390282
 30
0.0
 10
106.1547607156488
 20
-126.5262993390282
 30
0.0
 10
106.1547607156488
 20
-126.5262993390282
 30
0.0
 10
106.1547607156488
 20
-126.5262993390282
 30
0.0
 10
106.1547607156488
 20
-127.1419379022423
 30
0.0
 10
106.1547607156488
 20
-127.1419379022423
 30
0.0
 10
106.1547607156488
 20
-127.1419379022423
 30
0.0
 10
106.5778184412375
 20
-127.207394716462
 30
0.0
 10
106.5778184412375
 20
-127.207394716462
 30
0.0
 10
106.544056505482
 20
-127.1460720168246
 30
0.0
 10
106.5037488883046
 20
-127.0635619799529
 30
0.0
 10
106.5037488883046
 20
-126.9452229500345
 30
0.0
 10
106.5037488883046
 20
-126.6913194127716
 30
0.0
 10
106.6901285540566
 20
-126.4542968433864
 30
0.0
 10
107.0032877336658
 20
-126.4542968433864
 30
0.0
 10
107.3205810278574
 20
-126.4542968433864
 30
0.0
 10
107.5551920304029
 20
-126.6785725594762
 30
0.0
 10
107.5551920304029
 20
-126.9810519430811
 30
0.0
  0
HATCH
  5
C0
330
AF
100
AcDbEntity
  8
_U+30EC_U+30A4_U+30E4_U+30FC 1
 62
   179
420
  2234388
100
AcDbHatch
 10
0.0
 20
0.0
 30
0.0
210
0.0
220
0.0
230
1.0
  2
SOLID
 70
     1
 71
     0
 91
        1
 92
        1
 93
        1
 72
     4
 94
        3
 73
     0
 74
     1
 95
       53
 96
       49
 40
0.0
 40
0.0
 40
0.0
 40
0.0
 40
1.0
 40
1.0
 40
1.0
 40
2.0
 40
2.0
 40
2.0
 40
3.0
 40
3.0
 40
3.0
 40
4.0
 40
4.0
 40
4.0
 40
5.0
 40
5.0
 40
5.0
 40
6.0
 40
6.0
 40
6.0
 40
7.0
 40
7.0
 40
7.0
 40
8.0
 40
8.0
 40
8.0
 40
9.0
 40
9.0
 40
9.0
 40
10.0
 40
10.0
 40
10.0
 40
11.0
 40
11.0
 40
11.0
 40
12.0
 40
12.0
 40
12.0
 40
13.0
 40
13.0
 40
13.0
 40
14.0
 40
14.0
 40
14.0
 40
15.0
 40
15.0
 40
15.0
 40
16.0
 40
16.0
 40
16.0
 40
16.0
 10
107.5551920304029
 20
-126.9810519430811
 10
107.5551920304029
 20
-127.0594278653706
 10
107.5383110625252
 20
-127.1608859274112
 10
107.4749213055966
 20
-127.262516244226
 10
107.3650227596171
 20
-127.4359768019084
 10
107.2337646216291
 20
-127.4571641391427
 10
107.1259331329407
 20
-127.4761121643115
 10
107.1259331329407
 20
-127.4761121643115
 10
107.1259331329407
 20
-127.2540757602872
 10
107.1259331329407
 20
-127.2540757602872
 10
107.3247151424397
 20
-127.1989542325232
 10
107.3543429636128
 20
-127.0720024638917
 10
107.3543429636128
 20
-126.97898488579
 10
107.3543429636128
 20
-126.8394585186374
 10
107.2547797040891
 20
-126.6870130434151
 10
107.0222357588347
 20
-126.6870130434151
 10
106.7662651642807
 20
-126.6870130434151
 10
106.6963297259301
 20
-126.8668470277451
 10
106.6963297259301
 20
-126.9874253697288
 10
106.6963297259301
 20
-127.0191202481931
 10
106.6963297259301
 20
-127.1608859274112
 10
106.825520806627
 20
-127.2497693909306
 10
106.825520806627
 20
-127.2497693909306
 10
106.8065727814581
 20
-127.4252970059041
 10
106.8065727814581
 20
-127.4252970059041
 10
106.8065727814581
 20
-127.4252970059041
 10
105.9601128207322
 20
-127.3047186639204
 10
105.9601128207322
 20
-127.3047186639204
 10
105.9601128207322
 20
-127.3047186639204
 10
105.9601128207322
 20
-126.5262993390282
 10
105.9601128207322
 20
-126.5262993390282
 10
105.9601128207322
 20
-126.5262993390282
 10
106.1547607156488
 20
-126.5262993390282
 10
106.1547607156488
 20
-126.5262993390282
 10
106.1547607156488
 20
-126.5262993390282
 10
106.1547607156488
 20
-127.1419379022423
 10
106.1547607156488
 20
-127.1419379022423
 10
106.1547607156488
 20
-127.1419379022423
 10
106.5778184412375
 20
-127.207394716462
 10
106.5778184412375
 20
-127.207394716462
 10
106.544056505482
 20
-127.1460720168246
 10
106.5037488883046
 20
-127.0635619799529
 10
106.5037488883046
 20
-126.9452229500345
 10
106.5037488883046
 20
-126.6913194127716
 10
106.6901285540566
 20
-126.4542968433864
 10
107.0032877336658
 20
-126.4542968433864
 10
107.3205810278574
 20
-126.4542968433864
 10
107.5551920304029
 20
-126.6785725594762
 10
107.5551920304029
 20
-126.9810519430811
 97
        0
 97
        0
 75
     2
 76
     1
 98
        0
  0
ENDBLK
  5
B2
330
AF
100
AcDbEntity
  8
0
100
AcDbBlockEnd
  0
BLOCK
  5
C3
330
C1
100
AcDbEntity
  8
0
100
AcDbBlockBegin
  2
block 5
 70
     0
 10
0.0
 20
0.0
 30
0.0
  3
block 5
  1

  0
SPLINE
  5
C5
330
C1
100
AcDbEntity
  8
_U+30EC_U+30A4_U+30E4_U+30FC 1
370
     0
100
AcDbSpline
210
0.0
220
0.0
230
1.0
 70
    11
 71
     3
 72
    62
 73
    58
 74
     0
 42
0.0000000001
 43
0.0000000001
 12
1.0
 22
0.0
 32
0.0
 13
1.0
 23
0.0
 33
0.0
 40
0.0
 40
0.0
 40
0.0
 40
0.0
 40
1.0
 40
1.0
 40
1.0
 40
2.0
 40
2.0
 40
2.0
 40
3.0
 40
3.0
 40
3.0
 40
4.0
 40
4.0
 40
4.0
 40
5.0
 40
5.0
 40
5.0
 40
6.0
 40
6.0
 40
6.0
 40
7.0
 40
7.0
 40
7.0
 40
8.0
 40
8.0
 40
8.0
 40
9.0
 40
9.0
 40
9.0
 40
10.0
 40
10.0
 40
10.0
 40
11.0
 40
11.0
 40
11.0
 40
12.0
 40
12.0
 40
12.0
 40
13.0
 40
13.0
 40
13.0
 40
14.0
 40
14.0
 40
14.0
 40
15.0
 40
15.0
 40
15.0
 40
16.0
 40
16.0
 40
16.0
 40
17.0
 40
17.0
 40
17.0
 40
18.0
 40
18.0
 40
18.0
 40
19.0
 40
19.0
 40
19.0
 40
19.0
 10
88.11813555739755
 20
-145.3964653499356
 30
0.0
 10
88.0228786672304
 20
-145.3943982926445
 30
0.0
 10
87.80549314211113
 20
-145.3685600765051
 30
0.0
 10
87.68525930967591
 20
-145.1794243343649
 30
0.0
 10
87.61377357835698
 20
-145.0653916738031
 30
0.0
 10
87.61170652106583
 20
-144.9661729238279
 30
0.0
 10
87.60946720900041
 20
-144.8817680844393
 30
0.0
 10
87.60946720900041
 20
-144.8817680844393
 30
0.0
 10
87.82926430095935
 20
-144.8865912181186
 30
0.0
 10
87.82926430095935
 20
-144.8865912181186
 30
0.0
 10
87.82960881050788
 20
-144.9606607710515
 30
0.0
 10
87.83494870851001
 20
-145.195271773597
 30
0.0
 10
88.11830781217182
 20
-145.201817455019
 30
0.0
 10
88.25593937680755
 20
-145.2049180409557
 30
0.0
 10
88.40959063544969
 20
-145.1387722076389
 30
0.0
 10
88.41475827867757
 20
-144.9107068865154
 30
0.0
 10
88.41751435506576
 20
-144.7942626591139
 30
0.0
 10
88.38065183337359
 20
-144.7449977936749
 30
0.0
 10
88.34964597400634
 20
-144.712269386565
 30
0.0
 10
88.2772989688161
 20
-144.636821795438
 30
0.0
 10
88.16119925096318
 20
-144.6213188657544
 30
0.0
 10
88.10624997797345
 20
-144.6199408275603
 30
0.0
 10
88.08730195280457
 20
-144.6195963180118
 30
0.0
 10
88.0513007049837
 20
-144.6209743562059
 30
0.0
 10
88.02356768632744
 20
-144.6244194516911
 30
0.0
 10
88.02356768632744
 20
-144.6244194516911
 30
0.0
 10
88.02804631045827
 20
-144.4297715567745
 30
0.0
 10
88.02804631045827
 20
-144.4297715567745
 30
0.0
 10
88.06594236079602
 20
-144.4370062572935
 30
0.0
 10
88.10831703526459
 20
-144.4401068432303
 30
0.0
 10
88.1146904619123
 20
-144.4404513527788
 30
0.0
 10
88.18014727613205
 20
-144.4418293909729
 30
0.0
 10
88.37944604995376
 20
-144.4249484230951
 30
0.0
 10
88.38495820273015
 20
-144.1882703632585
 30
0.0
 10
88.38892006253819
 20
-144.0105034362196
 30
0.0
 10
88.25886770797001
 20
-143.9522813225189
 30
0.0
 10
88.14896916199054
 20
-143.9498697556792
 30
0.0
 10
87.88455808349761
 20
-143.9440130933543
 30
0.0
 10
87.87077770155662
 20
-144.1765570386086
 30
0.0
 10
87.86492103923169
 20
-144.2482150247018
 30
0.0
 10
87.86492103923169
 20
-144.2482150247018
 30
0.0
 10
87.66200491515048
 20
-144.2433918910225
 30
0.0
 10
87.66200491515048
 20
-144.2433918910225
 30
0.0
 10
87.6733737302518
 20
-144.119023944005
 30
0.0
 10
87.70937497807266
 20
-143.7431640265642
 30
0.0
 10
88.16602238464253
 20
-143.75349931302
 30
0.0
 10
88.3902981007323
 20
-143.7586669562479
 30
0.0
 10
88.62852645353732
 20
-143.89130313243
 30
0.0
 10
88.62163626256682
 20
-144.1872368346129
 30
0.0
 10
88.61750214798452
 20
-144.3736165003649
 30
0.0
 10
88.52052271007473
 20
-144.4535427156227
 30
0.0
 10
88.41958141235692
 20
-144.512798357969
 30
0.0
 10
88.48038734767158
 20
-144.5417371600451
 30
0.0
 10
88.66056584155014
 20
-144.6261419994337
 30
0.0
 10
88.65419241490243
 20
-144.9034721859963
 30
0.0
 10
88.64644095006062
 20
-145.2414360530994
 30
0.0
 10
88.39512123441165
 20
-145.4026665218091
 30
0.0
 10
88.11813555739755
 20
-145.3964653499356
 30
0.0
  0
HATCH
  5
C6
330
C1
100
AcDbEntity
  8
_U+30EC_U+30A4_U+30E4_U+30FC 1
 62
   179
420
  2234388
100
AcDbHatch
 10
0.0
 20
0.0
 30
0.0
210
0.0
220
0.0
230
1.0
  2
SOLID
 70
     1
 71
     0
 91
        1
 92
        1
 93
        1
 72
     4
 94
        3
 73
     0
 74
     1
 95
       62
 96
       58
 40
0.0
 40
0.0
 40
0.0
 40
0.0
 40
1.0
 40
1.0
 40
1.0
 40
2.0
 40
2.0
 40
2.0
 40
3.0
 40
3.0
 40
3.0
 40
4.0
 40
4.0
 40
4.0
 40
5.0
 40
5.0
 40
5.0
 40
6.0
 40
6.0
 40
6.0
 40
7.0
 40
7.0
 40
7.0
 40
8.0
 40
8.0
 40
8.0
 40
9.0
 40
9.0
 40
9.0
 40
10.0
 40
10.0
 40
10.0
 40
11.0
 40
11.0
 40
11.0
 40
12.0
 40
12.0
 40
12.0
 40
13.0
 40
13.0
 40
13.0
 40
14.0
 40
14.0
 40
14.0
 40
15.0
 40
15.0
 40
15.0
 40
16.0
 40
16.0
 40
16.0
 40
17.0
 40
17.0
 40
17.0
 40
18.0
 40
18.0
 40
18.0
 40
19.0
 40
19.0
 40
19.0
 40
19.0
 10
88.11813555739755
 20
-145.3964653499356
 10
88.0228786672304
 20
-145.3943982926445
 10
87.80549314211113
 20
-145.3685600765051
 10
87.68525930967591
 20
-145.1794243343649
 10
87.61377357835698
 20
-145.0653916738031
 10
87.61170652106583
 20
-144.9661729238279
 10
87.60946720900041
 20
-144.8817680844393
 10
87.60946720900041
 20
-144.8817680844393
 10
87.82926430095935
 20
-144.8865912181186
 10
87.82926430095935
 20
-144.8865912181186
 10
87.82960881050788
 20
-144.9606607710515
 10
87.83494870851001
 20
-145.195271773597
 10
88.11830781217182
 20
-145.201817455019
 10
88.25593937680755
 20
-145.2049180409557
 10
88.40959063544969
 20
-145.1387722076389
 10
88.41475827867757
 20
-144.9107068865154
 10
88.41751435506576
 20
-144.7942626591139
 10
88.38065183337359
 20
-144.7449977936749
 10
88.34964597400634
 20
-144.712269386565
 10
88.2772989688161
 20
-144.636821795438
 10
88.16119925096318
 20
-144.6213188657544
 10
88.10624997797345
 20
-144.6199408275603
 10
88.08730195280457
 20
-144.6195963180118
 10
88.0513007049837
 20
-144.6209743562059
 10
88.02356768632744
 20
-144.6244194516911
 10
88.02356768632744
 20
-144.6244194516911
 10
88.02804631045827
 20
-144.4297715567745
 10
88.02804631045827
 20
-144.4297715567745
 10
88.06594236079602
 20
-144.4370062572935
 10
88.10831703526459
 20
-144.4401068432303
 10
88.1146904619123
 20
-144.4404513527788
 10
88.18014727613205
 20
-144.4418293909729
 10
88.37944604995376
 20
-144.4249484230951
 10
88.38495820273015
 20
-144.1882703632585
 10
88.38892006253819
 20
-144.0105034362196
 10
88.25886770797001
 20
-143.9522813225189
 10
88.14896916199054
 20
-143.9498697556792
 10
87.88455808349761
 20
-143.9440130933543
 10
87.87077770155662
 20
-144.1765570386086
 10
87.86492103923169
 20
-144.2482150247018
 10
87.86492103923169
 20
-144.2482150247018
 10
87.66200491515048
 20
-144.2433918910225
 10
87.66200491515048
 20
-144.2433918910225
 10
87.6733737302518
 20
-144.119023944005
 10
87.70937497807266
 20
-143.7431640265642
 10
88.16602238464253
 20
-143.75349931302
 10
88.3902981007323
 20
-143.7586669562479
 10
88.62852645353732
 20
-143.89130313243
 10
88.62163626256682
 20
-144.1872368346129
 10
88.61750214798452
 20
-144.3736165003649
 10
88.52052271007473
 20
-144.4535427156227
 10
88.41958141235692
 20
-144.512798357969
 10
88.48038734767158
 20
-144.5417371600451
 10
88.66056584155014
 20
-144.6261419994337
 10
88.65419241490243
 20
-144.9034721859963
 10
88.64644095006062
 20
-145.2414360530994
 10
88.39512123441165
 20
-145.4026665218091
 10
88.11813555739755
 20
-145.3964653499356
 97
        0
 97
        0
 75
     2
 76
     1
 98
        0
  0
SPLINE
  5
C7
330
C1
100
AcDbEntity
  8
_U+30EC_U+30A4_U+30E4_U+30FC 1
370
     0
100
AcDbSpline
210
0.0
220
0.0
230
1.0
 70
    11
 71
     3
 72
    29
 73
    25
 74
     0
 42
0.0000000001
 43
0.0000000001
 12
1.0
 22
0.0
 32
0.0
 13
1.0
 23
0.0
 33
0.0
 40
0.0
 40
0.0
 40
0.0
 40
0.0
 40
1.0
 40
1.0
 40
1.0
 40
2.0
 40
2.0
 40
2.0
 40
3.0
 40
3.0
 40
3.0
 40
4.0
 40
4.0
 40
4.0
 40
5.0
 40
5.0
 40
5.0
 40
6.0
 40
6.0
 40
6.0
 40
7.0
 40
7.0
 40
7.0
 40
8.0
 40
8.0
 40
8.0
 40
8.0
 10
89.7059800665492
 20
-145.2042290218587
 30
0.0
 10
89.5934976989558
 20
-145.4112792605222
 30
0.0
 10
89.41952037695069
 20
-145.4260931711088
 30
0.0
 10
89.30307614954924
 20
-145.4233370947206
 30
0.0
 10
89.14236244516233
 20
-145.4198919992353
 30
0.0
 10
89.0019748041384
 20
-145.3699381146992
 30
0.0
 10
88.91085202855353
 20
-145.1859700157868
 30
0.0
 10
88.81163327857834
 20
-144.9889105540306
 30
0.0
 10
88.79802515141161
 20
-144.7522324941939
 30
0.0
 10
88.80164250167113
 20
-144.5892794777416
 30
0.0
 10
88.8049153423821
 20
-144.4452744864581
 30
0.0
 10
88.82748071781049
 20
-144.1937825160349
 30
0.0
 10
88.93772377333849
 20
-143.9974120733756
 30
0.0
 10
89.05037839570616
 20
-143.7969075161341
 30
0.0
 10
89.2114366096416
 20
-143.7772704718682
 30
0.0
 10
89.3404554355642
 20
-143.7800265482564
 30
0.0
 10
89.49910208265995
 20
-143.7838161532902
 30
0.0
 10
89.64190129052356
 20
-143.8313584709866
 30
0.0
 10
89.73285181133416
 20
-144.0156710794475
 30
0.0
 10
89.82793644672705
 20
-144.2103189743641
 30
0.0
 10
89.84602319802461
 20
-144.4394178241332
 30
0.0
 10
89.84206133821657
 20
-144.6130506365898
 30
0.0
 10
89.83809947840854
 20
-144.7842718822067
 30
0.0
 10
89.81191675272063
 20
-145.0137152415244
 30
0.0
 10
89.7059800665492
 20
-145.2042290218587
 30
0.0
  0
SPLINE
  5
C8
330
C1
100
AcDbEntity
  8
_U+30EC_U+30A4_U+30E4_U+30FC 1
370
     0
100
AcDbSpline
210
0.0
220
0.0
230
1.0
 70
    11
 71
     3
 72
    17
 73
    13
 74
     0
 42
0.0000000001
 43
0.0000000001
 12
1.0
 22
0.0
 32
0.0
 13
1.0
 23
0.0
 33
0.0
 40
0.0
 40
0.0
 40
0.0
 40
0.0
 40
1.0
 40
1.0
 40
1.0
 40
2.0
 40
2.0
 40
2.0
 40
3.0
 40
3.0
 40
3.0
 40
4.0
 40
4.0
 40
4.0
 40
4.0
 10
89.33614906620764
 20
-143.9726073858818
 30
0.0
 10
89.08655189830128
 20
-143.9670952331055
 30
0.0
 10
89.03366968260269
 20
-144.2495930628959
 30
0.0
 10
89.02591821776089
 20
-144.5944471209694
 30
0.0
 10
89.01868351724185
 20
-144.9138074724521
 30
0.0
 10
89.0474500645437
 20
-145.222832537479
 30
0.0
 10
89.30755477368005
 20
-145.2286891998039
 30
0.0
 10
89.55508488429525
 20
-145.2345458621289
 30
0.0
 10
89.61020641205926
 20
-144.9544595991781
 30
0.0
 10
89.61813013167533
 20
-144.6078829933619
 30
0.0
 10
89.62536483219436
 20
-144.2881781323307
 30
0.0
 10
89.59418671805285
 20
-143.9784640482068
 30
0.0
 10
89.33614906620764
 20
-143.9726073858818
 30
0.0
  0
HATCH
  5
C9
330
C1
100
AcDbEntity
  8
_U+30EC_U+30A4_U+30E4_U+30FC 1
 62
   179
420
  2234388
100
AcDbHatch
 10
0.0
 20
0.0
 30
0.0
210
0.0
220
0.0
230
1.0
  2
SOLID
 70
     1
 71
     0
 91
        2
 92
        1
 93
        1
 72
     4
 94
        3
 73
     0
 74
     1
 95
       29
 96
       25
 40
0.0
 40
0.0
 40
0.0
 40
0.0
 40
1.0
 40
1.0
 40
1.0
 40
2.0
 40
2.0
 40
2.0
 40
3.0
 40
3.0
 40
3.0
 40
4.0
 40
4.0
 40
4.0
 40
5.0
 40
5.0
 40
5.0
 40
6.0
 40
6.0
 40
6.0
 40
7.0
 40
7.0
 40
7.0
 40
8.0
 40
8.0
 40
8.0
 40
8.0
 10
89.7059800665492
 20
-145.2042290218587
 10
89.5934976989558
 20
-145.4112792605222
 10
89.41952037695069
 20
-145.4260931711088
 10
89.30307614954924
 20
-145.4233370947206
 10
89.14236244516233
 20
-145.4198919992353
 10
89.0019748041384
 20
-145.3699381146992
 10
88.91085202855353
 20
-145.1859700157868
 10
88.81163327857834
 20
-144.9889105540306
 10
88.79802515141161
 20
-144.7522324941939
 10
88.80164250167113
 20
-144.5892794777416
 10
88.8049153423821
 20
-144.4452744864581
 10
88.82748071781049
 20
-144.1937825160349
 10
88.93772377333849
 20
-143.9974120733756
 10
89.05037839570616
 20
-143.7969075161341
 10
89.2114366096416
 20
-143.7772704718682
 10
89.3404554355642
 20
-143.7800265482564
 10
89.49910208265995
 20
-143.7838161532902
 10
89.64190129052356
 20
-143.8313584709866
 10
89.73285181133416
 20
-144.0156710794475
 10
89.82793644672705
 20
-144.2103189743641
 10
89.84602319802461
 20
-144.4394178241332
 10
89.84206133821657
 20
-144.6130506365898
 10
89.83809947840854
 20
-144.7842718822067
 10
89.81191675272063
 20
-145.0137152415244
 10
89.7059800665492
 20
-145.2042290218587
 97
        0
 97
        0
 92
        1
 93
        1
 72
     4
 94
        3
 73
     0
 74
     1
 95
       17
 96
       13
 40
0.0
 40
0.0
 40
0.0
 40
0.0
 40
1.0
 40
1.0
 40
1.0
 40
2.0
 40
2.0
 40
2.0
 40
3.0
 40
3.0
 40
3.0
 40
4.0
 40
4.0
 40
4.0
 40
4.0
 10
89.33614906620764
 20
-143.9726073858818
 10
89.08655189830128
 20
-143.9670952331055
 10
89.03366968260269
 20
-144.2495930628959
 10
89.02591821776089
 20
-144.5944471209694
 10
89.01868351724185
 20
-144.9138074724521
 10
89.0474500645437
 20
-145.222832537479
 10
89.30755477368005
 20
-145.2286891998039
 10
89.55508488429525
 20
-145.2345458621289
 10
89.61020641205926
 20
-144.9544595991781
 10
89.61813013167533
 20
-144.6078829933619
 10
89.62536483219436
 20
-144.2881781323307
 10
89.59418671805285
 20
-143.9784640482068
 10
89.33614906620764
 20
-143.9726073858818
 97
        0
 97
        0
 75
     2
 76
     1
 98
        0
  0
ENDBLK
  5
C4
330
C1
100
AcDbEntity
  8
0
100
AcDbBlockEnd
  0
BLOCK
  5
CC
330
CA
100
AcDbEntity
  8
0
100
AcDbBlockBegin
  2
block 6
 70
     0
 10
0.0
 20
0.0
 30
0.0
  3
block 6
  1

  0
SPLINE
  5
CE
330
CA
100
AcDbEntity
  8
_U+30EC_U+30A4_U+30E4_U+30FC 1
370
     0
100
AcDbSpline
210
0.0
220
0.0
230
1.0
 70
    11
 71
     3
 72
    29
 73
    25
 74
     0
 42
0.0000000001
 43
0.0000000001
 12
1.0
 22
0.0
 32
0.0
 13
1.0
 23
0.0
 33
0.0
 40
0.0
 40
0.0
 40
0.0
 40
0.0
 40
1.0
 40
1.0
 40
1.0
 40
2.0
 40
2.0
 40
2.0
 40
3.0
 40
3.0
 40
3.0
 40
4.0
 40
4.0
 40
4.0
 40
5.0
 40
5.0
 40
5.0
 40
6.0
 40
6.0
 40
6.0
 40
7.0
 40
7.0
 40
7.0
 40
8.0
 40
8.0
 40
8.0
 40
8.0
 10
94.88275279745987
 20
-128.8227999894957
 30
0.0
 10
94.71359860913411
 20
-129.2837537654221
 30
0.0
 10
94.59302026715037
 20
-129.5293890735204
 30
0.0
 10
94.26504717695458
 20
-129.8063747505345
 30
0.0
 10
94.08728024991568
 20
-129.9565809136914
 30
0.0
 10
93.89056529770792
 20
-130.0857719943883
 30
0.0
 10
93.67490232033128
 20
-130.1722438910681
 30
0.0
 10
93.67490232033128
 20
-130.1722438910681
 30
0.0
 10
93.50333656516584
 20
-129.9841416775734
 30
0.0
 10
93.50333656516584
 20
-129.9841416775734
 30
0.0
 10
93.85887041924362
 20
-129.8825113607585
 30
0.0
 10
94.1551486309751
 20
-129.6306748807868
 30
0.0
 10
94.27779403025
 20
-129.4932155709253
 30
0.0
 10
94.48725583575319
 20
-129.2586045683798
 30
0.0
 10
94.61196829231923
 20
-128.9602592993572
 30
0.0
 10
94.65847708137011
 20
-128.6491671770391
 30
0.0
 10
94.65847708137011
 20
-128.6491671770391
 30
0.0
 10
94.92064884779762
 20
-128.7359835832674
 30
0.0
 10
94.92064884779762
 20
-128.7359835832674
 30
0.0
 10
94.95027666897077
 20
-128.7466633792717
 30
0.0
 10
94.95682235039274
 20
-128.7569986657274
 30
0.0
 10
94.95682235039274
 20
-128.7676784617317
 30
0.0
 10
94.95682235039274
 20
-128.7973062829049
 30
0.0
 10
94.91651473321532
 20
-128.8100531362003
 30
0.0
 10
94.88275279745987
 20
-128.8227999894957
 30
0.0
  0
HATCH
  5
CF
330
CA
100
AcDbEntity
  8
_U+30EC_U+30A4_U+30E4_U+30FC 1
 62
   179
420
  2234388
100
AcDbHatch
 10
0.0
 20
0.0
 30
0.0
210
0.0
220
0.0
230
1.0
  2
SOLID
 70
     1
 71
     0
 91
        1
 92
        1
 93
        1
 72
     4
 94
        3
 73
     0
 74
     1
 95
       29
 96
       25
 40
0.0
 40
0.0
 40
0.0
 40
0.0
 40
1.0
 40
1.0
 40
1.0
 40
2.0
 40
2.0
 40
2.0
 40
3.0
 40
3.0
 40
3.0
 40
4.0
 40
4.0
 40
4.0
 40
5.0
 40
5.0
 40
5.0
 40
6.0
 40
6.0
 40
6.0
 40
7.0
 40
7.0
 40
7.0
 40
8.0
 40
8.0
 40
8.0
 40
8.0
 10
94.88275279745987
 20
-128.8227999894957
 10
94.71359860913411
 20
-129.2837537654221
 10
94.59302026715037
 20
-129.5293890735204
 10
94.26504717695458
 20
-129.8063747505345
 10
94.08728024991568
 20
-129.9565809136914
 10
93.89056529770792
 20
-130.0857719943883
 10
93.67490232033128
 20
-130.1722438910681
 10
93.67490232033128
 20
-130.1722438910681
 10
93.50333656516584
 20
-129.9841416775734
 10
93.50333656516584
 20
-129.9841416775734
 10
93.85887041924362
 20
-129.8825113607585
 10
94.1551486309751
 20
-129.6306748807868
 10
94.27779403025
 20
-129.4932155709253
 10
94.48725583575319
 20
-129.2586045683798
 10
94.61196829231923
 20
-128.9602592993572
 10
94.65847708137011
 20
-128.6491671770391
 10
94.65847708137011
 20
-128.6491671770391
 10
94.92064884779762
 20
-128.7359835832674
 10
94.92064884779762
 20
-128.7359835832674
 10
94.95027666897077
 20
-128.7466633792717
 10
94.95682235039274
 20
-128.7569986657274
 10
94.95682235039274
 20
-128.7676784617317
 10
94.95682235039274
 20
-128.7973062829049
 10
94.91651473321532
 20
-128.8100531362003
 10
94.88275279745987
 20
-128.8227999894957
 97
        0
 97
        0
 75
     2
 76
     1
 98
        0
  0
SPLINE
  5
D0
330
CA
100
AcDbEntity
  8
_U+30EC_U+30A4_U+30E4_U+30FC 1
370
     0
100
AcDbSpline
210
0.0
220
0.0
230
1.0
 70
    11
 71
     3
 72
    17
 73
    13
 74
     0
 42
0.0000000001
 43
0.0000000001
 12
1.0
 22
0.0
 32
0.0
 13
1.0
 23
0.0
 33
0.0
 40
0.0
 40
0.0
 40
0.0
 40
0.0
 40
1.0
 40
1.0
 40
1.0
 40
2.0
 40
2.0
 40
2.0
 40
3.0
 40
3.0
 40
3.0
 40
4.0
 40
4.0
 40
4.0
 40
4.0
 10
95.35955401261845
 20
-129.565218066567
 30
0.0
 10
95.325792076863
 20
-129.4849473417607
 30
0.0
 10
95.27273760639015
 20
-129.3598903756461
 30
0.0
 10
95.17351885641496
 20
-129.2310438044978
 30
0.0
 10
95.17351885641496
 20
-129.2310438044978
 30
0.0
 10
95.33199324873645
 20
-129.1779893340249
 30
0.0
 10
95.33199324873645
 20
-129.1779893340249
 30
0.0
 10
95.41019691625162
 20
-129.2858208227133
 30
0.0
 10
95.46325138672447
 20
-129.3791829103635
 30
0.0
 10
95.51837291448847
 20
-129.5059624242207
 30
0.0
 10
95.51837291448847
 20
-129.5059624242207
 30
0.0
 10
95.35955401261845
 20
-129.565218066567
 30
0.0
 10
95.35955401261845
 20
-129.565218066567
 30
0.0
  0
SPLINE
  5
D1
330
CA
100
AcDbEntity
  8
_U+30EC_U+30A4_U+30E4_U+30FC 1
370
     0
100
AcDbSpline
210
0.0
220
0.0
230
1.0
 70
    11
 71
     3
 72
    32
 73
    28
 74
     0
 42
0.0000000001
 43
0.0000000001
 12
1.0
 22
0.0
 32
0.0
 13
1.0
 23
0.0
 33
0.0
 40
0.0
 40
0.0
 40
0.0
 40
0.0
 40
1.0
 40
1.0
 40
1.0
 40
2.0
 40
2.0
 40
2.0
 40
3.0
 40
3.0
 40
3.0
 40
4.0
 40
4.0
 40
4.0
 40
5.0
 40
5.0
 40
5.0
 40
6.0
 40
6.0
 40
6.0
 40
7.0
 40
7.0
 40
7.0
 40
8.0
 40
8.0
 40
8.0
 40
9.0
 40
9.0
 40
9.0
 40
9.0
 10
96.47645396893644
 20
-129.2203640084935
 30
0.0
 10
96.45543888647643
 20
-129.2269096899155
 30
0.0
 10
96.44475909047215
 20
-129.2351779190801
 30
0.0
 10
96.43649086130755
 20
-129.2458577150844
 30
0.0
 10
96.42994517988558
 20
-129.2561930015401
 30
0.0
 10
96.36862248024812
 20
-129.461520692461
 30
0.0
 10
96.35380856966155
 20
-129.5018283096384
 30
0.0
 10
96.14021264957606
 20
-130.0495984917931
 30
0.0
 10
95.82291935538456
 20
-130.2232313042498
 30
0.0
 10
95.58796384329051
 20
-130.3393310221027
 30
0.0
 10
95.58796384329051
 20
-130.3393310221027
 30
0.0
 10
95.4484374761379
 20
-130.2104844509543
 30
0.0
 10
95.4484374761379
 20
-130.2104844509543
 30
0.0
 10
95.59450952471249
 20
-130.1491617513169
 30
0.0
 10
95.83118758454916
 20
-130.0495984917931
 30
0.0
 10
96.02583547946577
 20
-129.7726128147791
 30
0.0
 10
96.20773652108696
 20
-129.5125081056427
 30
0.0
 10
96.24597708097323
 20
-129.2458577150844
 30
0.0
 10
96.27147078756408
 20
-129.0870388132143
 30
0.0
 10
96.27147078756408
 20
-129.0870388132143
 30
0.0
 10
96.43649086130755
 20
-129.1483615128518
 30
0.0
 10
96.43649086130755
 20
-129.1483615128518
 30
0.0
 10
96.4785210262276
 20
-129.1631754234384
 30
0.0
 10
96.50194767552729
 20
-129.1779893340249
 30
0.0
 10
96.50194767552729
 20
-129.1948703019027
 30
0.0
 10
96.50194767552729
 20
-129.2096842124893
 30
0.0
 10
96.49126787952302
 20
-129.2162298939112
 30
0.0
 10
96.47645396893644
 20
-129.2203640084935
 30
0.0
  0
SPLINE
  5
D2
330
CA
100
AcDbEntity
  8
_U+30EC_U+30A4_U+30E4_U+30FC 1
370
     0
100
AcDbSpline
210
0.0
220
0.0
230
1.0
 70
    11
 71
     3
 72
    17
 73
    13
 74
     0
 42
0.0000000001
 43
0.0000000001
 12
1.0
 22
0.0
 32
0.0
 13
1.0
 23
0.0
 33
0.0
 40
0.0
 40
0.0
 40
0.0
 40
0.0
 40
1.0
 40
1.0
 40
1.0
 40
2.0
 40
2.0
 40
2.0
 40
3.0
 40
3.0
 40
3.0
 40
4.0
 40
4.0
 40
4.0
 40
4.0
 10
95.77434350904252
 20
-129.4742675457564
 30
0.0
 10
95.74471568786939
 20
-129.3915852541105
 30
0.0
 10
95.69820689881851
 20
-129.2668727975444
 30
0.0
 10
95.59450952471249
 20
-129.1356146595564
 30
0.0
 10
95.59450952471249
 20
-129.1356146595564
 30
0.0
 10
95.75298391703399
 20
-129.0808376413409
 30
0.0
 10
95.75298391703399
 20
-129.0808376413409
 30
0.0
 10
95.84600149513572
 20
-129.2120957793289
 30
0.0
 10
95.8925102841866
 20
-129.3178602107261
 30
0.0
 10
95.93281790136402
 20
-129.4236246421233
 30
0.0
 10
95.93281790136402
 20
-129.4236246421233
 30
0.0
 10
95.77434350904252
 20
-129.4742675457564
 30
0.0
 10
95.77434350904252
 20
-129.4742675457564
 30
0.0
  0
HATCH
  5
D3
330
CA
100
AcDbEntity
  8
_U+30EC_U+30A4_U+30E4_U+30FC 1
 62
   179
420
  2234388
100
AcDbHatch
 10
0.0
 20
0.0
 30
0.0
210
0.0
220
0.0
230
1.0
  2
SOLID
 70
     1
 71
     0
 91
        3
 92
        1
 93
        1
 72
     4
 94
        3
 73
     0
 74
     1
 95
       17
 96
       13
 40
0.0
 40
0.0
 40
0.0
 40
0.0
 40
1.0
 40
1.0
 40
1.0
 40
2.0
 40
2.0
 40
2.0
 40
3.0
 40
3.0
 40
3.0
 40
4.0
 40
4.0
 40
4.0
 40
4.0
 10
95.35955401261845
 20
-129.565218066567
 10
95.325792076863
 20
-129.4849473417607
 10
95.27273760639015
 20
-129.3598903756461
 10
95.17351885641496
 20
-129.2310438044978
 10
95.17351885641496
 20
-129.2310438044978
 10
95.33199324873645
 20
-129.1779893340249
 10
95.33199324873645
 20
-129.1779893340249
 10
95.41019691625162
 20
-129.2858208227133
 10
95.46325138672447
 20
-129.3791829103635
 10
95.51837291448847
 20
-129.5059624242207
 10
95.51837291448847
 20
-129.5059624242207
 10
95.35955401261845
 20
-129.565218066567
 10
95.35955401261845
 20
-129.565218066567
 97
        0
 97
        0
 92
        1
 93
        1
 72
     4
 94
        3
 73
     0
 74
     1
 95
       32
 96
       28
 40
0.0
 40
0.0
 40
0.0
 40
0.0
 40
1.0
 40
1.0
 40
1.0
 40
2.0
 40
2.0
 40
2.0
 40
3.0
 40
3.0
 40
3.0
 40
4.0
 40
4.0
 40
4.0
 40
5.0
 40
5.0
 40
5.0
 40
6.0
 40
6.0
 40
6.0
 40
7.0
 40
7.0
 40
7.0
 40
8.0
 40
8.0
 40
8.0
 40
9.0
 40
9.0
 40
9.0
 40
9.0
 10
96.47645396893644
 20
-129.2203640084935
 10
96.45543888647643
 20
-129.2269096899155
 10
96.44475909047215
 20
-129.2351779190801
 10
96.43649086130755
 20
-129.2458577150844
 10
96.42994517988558
 20
-129.2561930015401
 10
96.36862248024812
 20
-129.461520692461
 10
96.35380856966155
 20
-129.5018283096384
 10
96.14021264957606
 20
-130.0495984917931
 10
95.82291935538456
 20
-130.2232313042498
 10
95.58796384329051
 20
-130.3393310221027
 10
95.58796384329051
 20
-130.3393310221027
 10
95.4484374761379
 20
-130.2104844509543
 10
95.4484374761379
 20
-130.2104844509543
 10
95.59450952471249
 20
-130.1491617513169
 10
95.83118758454916
 20
-130.0495984917931
 10
96.02583547946577
 20
-129.7726128147791
 10
96.20773652108696
 20
-129.5125081056427
 10
96.24597708097323
 20
-129.2458577150844
 10
96.27147078756408
 20
-129.0870388132143
 10
96.27147078756408
 20
-129.0870388132143
 10
96.43649086130755
 20
-129.1483615128518
 10
96.43649086130755
 20
-129.1483615128518
 10
96.4785210262276
 20
-129.1631754234384
 10
96.50194767552729
 20
-129.1779893340249
 10
96.50194767552729
 20
-129.1948703019027
 10
96.50194767552729
 20
-129.2096842124893
 10
96.49126787952302
 20
-129.2162298939112
 10
96.47645396893644
 20
-129.2203640084935
 97
        0
 97
        0
 92
        1
 93
        1
 72
     4
 94
        3
 73
     0
 74
     1
 95
       17
 96
       13
 40
0.0
 40
0.0
 40
0.0
 40
0.0
 40
1.0
 40
1.0
 40
1.0
 40
2.0
 40
2.0
 40
2.0
 40
3.0
 40
3.0
 40
3.0
 40
4.0
 40
4.0
 40
4.0
 40
4.0
 10
95.77434350904252
 20
-129.4742675457564
 10
95.74471568786939
 20
-129.3915852541105
 10
95.69820689881851
 20
-129.2668727975444
 10
95.59450952471249
 20
-129.1356146595564
 10
95.59450952471249
 20
-129.1356146595564
 10
95.75298391703399
 20
-129.0808376413409
 10
95.75298391703399
 20
-129.0808376413409
 10
95.84600149513572
 20
-129.2120957793289
 10
95.8925102841866
 20
-129.3178602107261
 10
95.93281790136402
 20
-129.4236246421233
 10
95.93281790136402
 20
-129.4236246421233
 10
95.77434350904252
 20
-129.4742675457564
 10
95.77434350904252
 20
-129.4742675457564
 97
        0
 97
        0
 75
     2
 76
     1
 98
        0
  0
SPLINE
  5
D4
330
CA
100
AcDbEntity
  8
_U+30EC_U+30A4_U+30E4_U+30FC 1
370
     0
100
AcDbSpline
210
0.0
220
0.0
230
1.0
 70
    11
 71
     3
 72
    83
 73
    79
 74
     0
 42
0.0000000001
 43
0.0000000001
 12
1.0
 22
0.0
 32
0.0
 13
1.0
 23
0.0
 33
0.0
 40
0.0
 40
0.0
 40
0.0
 40
0.0
 40
1.0
 40
1.0
 40
1.0
 40
2.0
 40
2.0
 40
2.0
 40
3.0
 40
3.0
 40
3.0
 40
4.0
 40
4.0
 40
4.0
 40
5.0
 40
5.0
 40
5.0
 40
6.0
 40
6.0
 40
6.0
 40
7.0
 40
7.0
 40
7.0
 40
8.0
 40
8.0
 40
8.0
 40
9.0
 40
9.0
 40
9.0
 40
10.0
 40
10.0
 40
10.0
 40
11.0
 40
11.0
 40
11.0
 40
12.0
 40
12.0
 40
12.0
 40
13.0
 40
13.0
 40
13.0
 40
14.0
 40
14.0
 40
14.0
 40
15.0
 40
15.0
 40
15.0
 40
16.0
 40
16.0
 40
16.0
 40
17.0
 40
17.0
 40
17.0
 40
18.0
 40
18.0
 40
18.0
 40
19.0
 40
19.0
 40
19.0
 40
20.0
 40
20.0
 40
20.0
 40
21.0
 40
21.0
 40
21.0
 40
22.0
 40
22.0
 40
22.0
 40
23.0
 40
23.0
 40
23.0
 40
24.0
 40
24.0
 40
24.0
 40
25.0
 40
25.0
 40
25.0
 40
26.0
 40
26.0
 40
26.0
 40
26.0
 10
97.86344941129803
 20
-129.4553195205876
 30
0.0
 10
97.86344941129803
 20
-129.4553195205876
 30
0.0
 10
97.78283417694318
 20
-129.4553195205876
 30
0.0
 10
97.78283417694318
 20
-129.4553195205876
 30
0.0
 10
97.77870006236088
 20
-129.5590168946936
 30
0.0
 10
97.77008732364776
 20
-129.7491861654794
 30
0.0
 10
97.60954587403512
 20
-129.9775959961515
 30
0.0
 10
97.44004717616083
 20
-130.2146185655366
 30
0.0
 10
97.23919810937076
 20
-130.3055690863472
 30
0.0
 10
97.14204641668671
 20
-130.3500108181069
 30
0.0
 10
97.14204641668671
 20
-130.3500108181069
 30
0.0
 10
96.9198377578881
 20
-130.1936034830766
 30
0.0
 10
96.9198377578881
 20
-130.1936034830766
 30
0.0
 10
97.01698945057214
 20
-130.1701768337769
 30
0.0
 10
97.24987790537503
 20
-130.1129882487218
 30
0.0
 10
97.42764483241393
 20
-129.8804443034674
 30
0.0
 10
97.56062551814458
 20
-129.7026773764285
 30
0.0
 10
97.5692382568577
 20
-129.5462700413982
 30
0.0
 10
97.57337237144
 20
-129.4553195205876
 30
0.0
 10
97.57337237144
 20
-129.4553195205876
 30
0.0
 10
97.30258786629936
 20
-129.4553195205876
 30
0.0
 10
97.30258786629936
 20
-129.4553195205876
 30
0.0
 10
97.11241859551356
 20
-129.4553195205876
 30
0.0
 10
96.9239718724704
 20
-129.4594536351699
 30
0.0
 10
96.73345809213609
 20
-129.4742675457564
 30
0.0
 10
96.73345809213609
 20
-129.4742675457564
 30
0.0
 10
96.73345809213609
 20
-129.2648057402533
 30
0.0
 10
96.73345809213609
 20
-129.2648057402533
 30
0.0
 10
96.93051755389237
 20
-129.2796196508398
 30
0.0
 10
97.21611596961958
 20
-129.2837537654221
 30
0.0
 10
97.30258786629936
 20
-129.2837537654221
 30
0.0
 10
97.30258786629936
 20
-129.2837537654221
 30
0.0
 10
97.57785099557081
 20
-129.2837537654221
 30
0.0
 10
97.57785099557081
 20
-129.2837537654221
 30
0.0
 10
97.57785099557081
 20
-129.1717881621515
 30
0.0
 10
97.57543942873114
 20
-129.0405300241635
 30
0.0
 10
97.5651041422754
 20
-128.9285644208929
 30
0.0
 10
97.34289548347678
 20
-128.9940212351126
 30
0.0
 10
97.22025008420188
 20
-129.0195149417034
 30
0.0
 10
97.03180336115872
 20
-129.0425970814546
 30
0.0
 10
97.03180336115872
 20
-129.0425970814546
 30
0.0
 10
96.8964111085884
 20
-128.8500162438292
 30
0.0
 10
96.8964111085884
 20
-128.8500162438292
 30
0.0
 10
97.04041609987185
 20
-128.847949186538
 30
0.0
 10
97.20957028819761
 20
-128.8438150719557
 30
0.0
 10
97.5099826145114
 20
-128.750797493854
 30
0.0
 10
97.67086857367256
 20
-128.7022216475119
 30
0.0
 10
97.8314100232852
 20
-128.647100119748
 30
0.0
 10
97.9733479572775
 20
-128.5582166562285
 30
0.0
 10
97.9733479572775
 20
-128.5582166562285
 30
0.0
 10
98.13423391643867
 20
-128.6936089087988
 30
0.0
 10
98.13423391643867
 20
-128.6936089087988
 30
0.0
 10
98.14456920289442
 20
-128.7042887048031
 30
0.0
 10
98.15731605618984
 20
-128.7170355580985
 30
0.0
 10
98.15731605618984
 20
-128.7339165259762
 30
0.0
 10
98.15731605618984
 20
-128.7569986657274
 30
0.0
 10
98.13630097372982
 20
-128.7569986657274
 30
0.0
 10
98.12975529230785
 20
-128.7569986657274
 30
0.0
 10
98.11942000585209
 20
-128.7569986657274
 30
0.0
 10
98.11494138172127
 20
-128.7549316084363
 30
0.0
 10
98.07911238867467
 20
-128.7487304365628
 30
0.0
 10
98.03053654233265
 20
-128.7656114044405
 30
0.0
 10
97.8231417941206
 20
-128.8438150719557
 30
0.0
 10
97.78076711965204
 20
-128.8586289825423
 30
0.0
 10
97.78490123423434
 20
-129.1380262263961
 30
0.0
 10
97.78696829152548
 20
-129.1676540475692
 30
0.0
 10
97.78696829152548
 20
-129.2837537654221
 30
0.0
 10
97.78696829152548
 20
-129.2837537654221
 30
0.0
 10
97.86344941129803
 20
-129.2837537654221
 30
0.0
 10
97.86344941129803
 20
-129.2837537654221
 30
0.0
 10
98.05361868208382
 20
-129.2837537654221
 30
0.0
 10
98.2461995197093
 20
-129.2796196508398
 30
0.0
 10
98.4367133000436
 20
-129.2668727975444
 30
0.0
 10
98.4367133000436
 20
-129.2668727975444
 30
0.0
 10
98.4367133000436
 20
-129.4742675457564
 30
0.0
 10
98.4367133000436
 20
-129.4742675457564
 30
0.0
 10
98.18901093465414
 20
-129.4553195205876
 30
0.0
 10
97.88446449375806
 20
-129.4553195205876
 30
0.0
 10
97.86344941129803
 20
-129.4553195205876
 30
0.0
  0
HATCH
  5
D5
330
CA
100
AcDbEntity
  8
_U+30EC_U+30A4_U+30E4_U+30FC 1
 62
   179
420
  2234388
100
AcDbHatch
 10
0.0
 20
0.0
 30
0.0
210
0.0
220
0.0
230
1.0
  2
SOLID
 70
     1
 71
     0
 91
        1
 92
        1
 93
        1
 72
     4
 94
        3
 73
     0
 74
     1
 95
       83
 96
       79
 40
0.0
 40
0.0
 40
0.0
 40
0.0
 40
1.0
 40
1.0
 40
1.0
 40
2.0
 40
2.0
 40
2.0
 40
3.0
 40
3.0
 40
3.0
 40
4.0
 40
4.0
 40
4.0
 40
5.0
 40
5.0
 40
5.0
 40
6.0
 40
6.0
 40
6.0
 40
7.0
 40
7.0
 40
7.0
 40
8.0
 40
8.0
 40
8.0
 40
9.0
 40
9.0
 40
9.0
 40
10.0
 40
10.0
 40
10.0
 40
11.0
 40
11.0
 40
11.0
 40
12.0
 40
12.0
 40
12.0
 40
13.0
 40
13.0
 40
13.0
 40
14.0
 40
14.0
 40
14.0
 40
15.0
 40
15.0
 40
15.0
 40
16.0
 40
16.0
 40
16.0
 40
17.0
 40
17.0
 40
17.0
 40
18.0
 40
18.0
 40
18.0
 40
19.0
 40
19.0
 40
19.0
 40
20.0
 40
20.0
 40
20.0
 40
21.0
 40
21.0
 40
21.0
 40
22.0
 40
22.0
 40
22.0
 40
23.0
 40
23.0
 40
23.0
 40
24.0
 40
24.0
 40
24.0
 40
25.0
 40
25.0
 40
25.0
 40
26.0
 40
26.0
 40
26.0
 40
26.0
 10
97.86344941129803
 20
-129.4553195205876
 10
97.86344941129803
 20
-129.4553195205876
 10
97.78283417694318
 20
-129.4553195205876
 10
97.78283417694318
 20
-129.4553195205876
 10
97.77870006236088
 20
-129.5590168946936
 10
97.77008732364776
 20
-129.7491861654794
 10
97.60954587403512
 20
-129.9775959961515
 10
97.44004717616083
 20
-130.2146185655366
 10
97.23919810937076
 20
-130.3055690863472
 10
97.14204641668671
 20
-130.3500108181069
 10
97.14204641668671
 20
-130.3500108181069
 10
96.9198377578881
 20
-130.1936034830766
 10
96.9198377578881
 20
-130.1936034830766
 10
97.01698945057214
 20
-130.1701768337769
 10
97.24987790537503
 20
-130.1129882487218
 10
97.42764483241393
 20
-129.8804443034674
 10
97.56062551814458
 20
-129.7026773764285
 10
97.5692382568577
 20
-129.5462700413982
 10
97.57337237144
 20
-129.4553195205876
 10
97.57337237144
 20
-129.4553195205876
 10
97.30258786629936
 20
-129.4553195205876
 10
97.30258786629936
 20
-129.4553195205876
 10
97.11241859551356
 20
-129.4553195205876
 10
96.9239718724704
 20
-129.4594536351699
 10
96.73345809213609
 20
-129.4742675457564
 10
96.73345809213609
 20
-129.4742675457564
 10
96.73345809213609
 20
-129.2648057402533
 10
96.73345809213609
 20
-129.2648057402533
 10
96.93051755389237
 20
-129.2796196508398
 10
97.21611596961958
 20
-129.2837537654221
 10
97.30258786629936
 20
-129.2837537654221
 10
97.30258786629936
 20
-129.2837537654221
 10
97.57785099557081
 20
-129.2837537654221
 10
97.57785099557081
 20
-129.2837537654221
 10
97.57785099557081
 20
-129.1717881621515
 10
97.57543942873114
 20
-129.0405300241635
 10
97.5651041422754
 20
-128.9285644208929
 10
97.34289548347678
 20
-128.9940212351126
 10
97.22025008420188
 20
-129.0195149417034
 10
97.03180336115872
 20
-129.0425970814546
 10
97.03180336115872
 20
-129.0425970814546
 10
96.8964111085884
 20
-128.8500162438292
 10
96.8964111085884
 20
-128.8500162438292
 10
97.04041609987185
 20
-128.847949186538
 10
97.20957028819761
 20
-128.8438150719557
 10
97.5099826145114
 20
-128.750797493854
 10
97.67086857367256
 20
-128.7022216475119
 10
97.8314100232852
 20
-128.647100119748
 10
97.9733479572775
 20
-128.5582166562285
 10
97.9733479572775
 20
-128.5582166562285
 10
98.13423391643867
 20
-128.6936089087988
 10
98.13423391643867
 20
-128.6936089087988
 10
98.14456920289442
 20
-128.7042887048031
 10
98.15731605618984
 20
-128.7170355580985
 10
98.15731605618984
 20
-128.7339165259762
 10
98.15731605618984
 20
-128.7569986657274
 10
98.13630097372982
 20
-128.7569986657274
 10
98.12975529230785
 20
-128.7569986657274
 10
98.11942000585209
 20
-128.7569986657274
 10
98.11494138172127
 20
-128.7549316084363
 10
98.07911238867467
 20
-128.7487304365628
 10
98.03053654233265
 20
-128.7656114044405
 10
97.8231417941206
 20
-128.8438150719557
 10
97.78076711965204
 20
-128.8586289825423
 10
97.78490123423434
 20
-129.1380262263961
 10
97.78696829152548
 20
-129.1676540475692
 10
97.78696829152548
 20
-129.2837537654221
 10
97.78696829152548
 20
-129.2837537654221
 10
97.86344941129803
 20
-129.2837537654221
 10
97.86344941129803
 20
-129.2837537654221
 10
98.05361868208382
 20
-129.2837537654221
 10
98.2461995197093
 20
-129.2796196508398
 10
98.4367133000436
 20
-129.2668727975444
 10
98.4367133000436
 20
-129.2668727975444
 10
98.4367133000436
 20
-129.4742675457564
 10
98.4367133000436
 20
-129.4742675457564
 10
98.18901093465414
 20
-129.4553195205876
 10
97.88446449375806
 20
-129.4553195205876
 10
97.86344941129803
 20
-129.4553195205876
 97
        0
 97
        0
 75
     2
 76
     1
 98
        0
  0
SPLINE
  5
D6
330
CA
100
AcDbEntity
  8
_U+30EC_U+30A4_U+30E4_U+30FC 1
370
     0
100
AcDbSpline
210
0.0
220
0.0
230
1.0
 70
    11
 71
     3
 72
    26
 73
    22
 74
     0
 42
0.0000000001
 43
0.0000000001
 12
1.0
 22
0.0
 32
0.0
 13
1.0
 23
0.0
 33
0.0
 40
0.0
 40
0.0
 40
0.0
 40
0.0
 40
1.0
 40
1.0
 40
1.0
 40
2.0
 40
2.0
 40
2.0
 40
3.0
 40
3.0
 40
3.0
 40
4.0
 40
4.0
 40
4.0
 40
5.0
 40
5.0
 40
5.0
 40
6.0
 40
6.0
 40
6.0
 40
7.0
 40
7.0
 40
7.0
 40
7.0
 10
98.90938040061988
 20
-130.19980465495
 30
0.0
 10
98.90524628603758
 20
-130.2084173936632
 30
0.0
 10
98.89456649003331
 20
-130.2421793294186
 30
0.0
 10
98.89043237545101
 20
-130.2483805012921
 30
0.0
 10
98.88595375132019
 20
-130.2569932400052
 30
0.0
 10
98.87768552215559
 20
-130.2611273545875
 30
0.0
 10
98.8670057261513
 20
-130.2611273545875
 30
0.0
 10
98.85219181556474
 20
-130.2611273545875
 30
0.0
 10
98.84599064369128
 20
-130.2528591254229
 30
0.0
 10
98.82256399439159
 20
-130.2104844509543
 30
0.0
 10
98.82256399439159
 20
-130.2104844509543
 30
0.0
 10
98.70853133382981
 20
-129.9903428494469
 30
0.0
 10
98.70853133382981
 20
-129.9903428494469
 30
0.0
 10
99.03409285718593
 20
-129.9459011176871
 30
0.0
 10
99.79580346897467
 20
-129.613793912909
 30
0.0
 10
100.1978461121033
 20
-129.0956515519275
 30
0.0
 10
100.1978461121033
 20
-129.0956515519275
 30
0.0
 10
100.2822509514919
 20
-129.3006347332999
 30
0.0
 10
100.2822509514919
 20
-129.3006347332999
 30
0.0
 10
99.86780596461638
 20
-129.7894937826568
 30
0.0
 10
99.20117998822055
 20
-130.075092198384
 30
0.0
 10
98.90938040061988
 20
-130.19980465495
 30
0.0
  0
SPLINE
  5
D7
330
CA
100
AcDbEntity
  8
_U+30EC_U+30A4_U+30E4_U+30FC 1
370
     0
100
AcDbSpline
210
0.0
220
0.0
230
1.0
 70
    11
 71
     3
 72
    17
 73
    13
 74
     0
 42
0.0000000001
 43
0.0000000001
 12
1.0
 22
0.0
 32
0.0
 13
1.0
 23
0.0
 33
0.0
 40
0.0
 40
0.0
 40
0.0
 40
0.0
 40
1.0
 40
1.0
 40
1.0
 40
2.0
 40
2.0
 40
2.0
 40
3.0
 40
3.0
 40
3.0
 40
4.0
 40
4.0
 40
4.0
 40
4.0
 10
99.20359155506021
 20
-129.1083984052229
 30
0.0
 10
99.06372067835908
 20
-128.9750732099437
 30
0.0
 10
98.84599064369128
 20
-128.8606960398334
 30
0.0
 10
98.74229326958526
 20
-128.8162543080737
 30
0.0
 10
98.74229326958526
 20
-128.8162543080737
 30
0.0
 10
98.8587374969867
 20
-128.6260850372879
 30
0.0
 10
98.8587374969867
 20
-128.6260850372879
 30
0.0
 10
99.17396373388706
 20
-128.7762912004448
 30
0.0
 10
99.26904836927997
 20
-128.8672417212554
 30
0.0
 10
99.32416989704396
 20
-128.9199516821797
 30
0.0
 10
99.32416989704396
 20
-128.9199516821797
 30
0.0
 10
99.20359155506021
 20
-129.1083984052229
 30
0.0
 10
99.20359155506021
 20
-129.1083984052229
 30
0.0
  0
HATCH
  5
D8
330
CA
100
AcDbEntity
  8
_U+30EC_U+30A4_U+30E4_U+30FC 1
 62
   179
420
  2234388
100
AcDbHatch
 10
0.0
 20
0.0
 30
0.0
210
0.0
220
0.0
230
1.0
  2
SOLID
 70
     1
 71
     0
 91
        2
 92
        1
 93
        1
 72
     4
 94
        3
 73
     0
 74
     1
 95
       26
 96
       22
 40
0.0
 40
0.0
 40
0.0
 40
0.0
 40
1.0
 40
1.0
 40
1.0
 40
2.0
 40
2.0
 40
2.0
 40
3.0
 40
3.0
 40
3.0
 40
4.0
 40
4.0
 40
4.0
 40
5.0
 40
5.0
 40
5.0
 40
6.0
 40
6.0
 40
6.0
 40
7.0
 40
7.0
 40
7.0
 40
7.0
 10
98.90938040061988
 20
-130.19980465495
 10
98.90524628603758
 20
-130.2084173936632
 10
98.89456649003331
 20
-130.2421793294186
 10
98.89043237545101
 20
-130.2483805012921
 10
98.88595375132019
 20
-130.2569932400052
 10
98.87768552215559
 20
-130.2611273545875
 10
98.8670057261513
 20
-130.2611273545875
 10
98.85219181556474
 20
-130.2611273545875
 10
98.84599064369128
 20
-130.2528591254229
 10
98.82256399439159
 20
-130.2104844509543
 10
98.82256399439159
 20
-130.2104844509543
 10
98.70853133382981
 20
-129.9903428494469
 10
98.70853133382981
 20
-129.9903428494469
 10
99.03409285718593
 20
-129.9459011176871
 10
99.79580346897467
 20
-129.613793912909
 10
100.1978461121033
 20
-129.0956515519275
 10
100.1978461121033
 20
-129.0956515519275
 10
100.2822509514919
 20
-129.3006347332999
 10
100.2822509514919
 20
-129.3006347332999
 10
99.86780596461638
 20
-129.7894937826568
 10
99.20117998822055
 20
-130.075092198384
 10
98.90938040061988
 20
-130.19980465495
 97
        0
 97
        0
 92
        1
 93
        1
 72
     4
 94
        3
 73
     0
 74
     1
 95
       17
 96
       13
 40
0.0
 40
0.0
 40
0.0
 40
0.0
 40
1.0
 40
1.0
 40
1.0
 40
2.0
 40
2.0
 40
2.0
 40
3.0
 40
3.0
 40
3.0
 40
4.0
 40
4.0
 40
4.0
 40
4.0
 10
99.20359155506021
 20
-129.1083984052229
 10
99.06372067835908
 20
-128.9750732099437
 10
98.84599064369128
 20
-128.8606960398334
 10
98.74229326958526
 20
-128.8162543080737
 10
98.74229326958526
 20
-128.8162543080737
 10
98.8587374969867
 20
-128.6260850372879
 10
98.8587374969867
 20
-128.6260850372879
 10
99.17396373388706
 20
-128.7762912004448
 10
99.26904836927997
 20
-128.8672417212554
 10
99.32416989704396
 20
-128.9199516821797
 10
99.32416989704396
 20
-128.9199516821797
 10
99.20359155506021
 20
-129.1083984052229
 10
99.20359155506021
 20
-129.1083984052229
 97
        0
 97
        0
 75
     2
 76
     1
 98
        0
  0
SPLINE
  5
D9
330
CA
100
AcDbEntity
  8
_U+30EC_U+30A4_U+30E4_U+30FC 1
370
     0
100
AcDbSpline
210
0.0
220
0.0
230
1.0
 70
    11
 71
     3
 72
    59
 73
    55
 74
     0
 42
0.0000000001
 43
0.0000000001
 12
1.0
 22
0.0
 32
0.0
 13
1.0
 23
0.0
 33
0.0
 40
0.0
 40
0.0
 40
0.0
 40
0.0
 40
1.0
 40
1.0
 40
1.0
 40
2.0
 40
2.0
 40
2.0
 40
3.0
 40
3.0
 40
3.0
 40
4.0
 40
4.0
 40
4.0
 40
5.0
 40
5.0
 40
5.0
 40
6.0
 40
6.0
 40
6.0
 40
7.0
 40
7.0
 40
7.0
 40
8.0
 40
8.0
 40
8.0
 40
9.0
 40
9.0
 40
9.0
 40
10.0
 40
10.0
 40
10.0
 40
11.0
 40
11.0
 40
11.0
 40
12.0
 40
12.0
 40
12.0
 40
13.0
 40
13.0
 40
13.0
 40
14.0
 40
14.0
 40
14.0
 40
15.0
 40
15.0
 40
15.0
 40
16.0
 40
16.0
 40
16.0
 40
17.0
 40
17.0
 40
17.0
 40
18.0
 40
18.0
 40
18.0
 40
18.0
 10
101.8466688113439
 20
-129.1948703019027
 30
0.0
 10
101.7598524051156
 20
-129.4553195205876
 30
0.0
 10
101.613780356541
 20
-129.7936278972391
 30
0.0
 10
101.290285890476
 20
-130.0857719943883
 30
0.0
 10
101.1252658167326
 20
-130.2314995334144
 30
0.0
 10
100.9664469148626
 20
-130.3035020290561
 30
0.0
 10
100.8692952221785
 20
-130.3500108181069
 30
0.0
 10
100.8692952221785
 20
-130.3500108181069
 30
0.0
 10
100.6787814418442
 20
-130.206350336372
 30
0.0
 10
100.6787814418442
 20
-130.206350336372
 30
0.0
 10
100.9433647751114
 20
-130.1088541341394
 30
0.0
 10
101.1759087203658
 20
-129.9396999458137
 30
0.0
 10
101.3495415328223
 20
-129.7174912870151
 30
0.0
 10
101.4466932255064
 20
-129.592778830449
 30
0.0
 10
101.6055121273764
 20
-129.330262554473
 30
0.0
 10
101.6795816803093
 20
-129.0047010311169
 30
0.0
 10
101.6795816803093
 20
-129.0047010311169
 30
0.0
 10
101.0425835250866
 20
-129.0047010311169
 30
0.0
 10
101.0425835250866
 20
-129.0047010311169
 30
0.0
 10
100.9729925962845
 20
-129.1018527238009
 30
0.0
 10
100.7910915546633
 20
-129.3598903756461
 30
0.0
 10
100.6133246276245
 20
-129.4828802844696
 30
0.0
 10
100.6133246276245
 20
-129.4828802844696
 30
0.0
 10
100.4462374965898
 20
-129.3557562610638
 30
0.0
 10
100.4462374965898
 20
-129.3557562610638
 30
0.0
 10
100.7549180520682
 20
-129.1356146595564
 30
0.0
 10
100.9729925962845
 20
-128.7590657230186
 30
0.0
 10
101.0405164677954
 20
-128.5475368602242
 30
0.0
 10
101.0405164677954
 20
-128.5475368602242
 30
0.0
 10
101.2606580693029
 20
-128.647100119748
 30
0.0
 10
101.2606580693029
 20
-128.647100119748
 30
0.0
 10
101.2647921838852
 20
-128.6491671770391
 30
0.0
 10
101.3050998010626
 20
-128.6660481449168
 30
0.0
 10
101.3050998010626
 20
-128.6894747942165
 30
0.0
 10
101.3050998010626
 20
-128.7042887048031
 30
0.0
 10
101.3050998010626
 20
-128.7146239912589
 30
0.0
 10
101.2120822229609
 20
-128.7401176978497
 30
0.0
 10
101.1717746057835
 20
-128.8079860789091
 30
0.0
 10
101.1676404912012
 20
-128.8141872507826
 30
0.0
 10
101.1504150137749
 20
-128.8396809573734
 30
0.0
 10
101.1504150137749
 20
-128.8396809573734
 30
0.0
 10
101.4742539893884
 20
-128.8396809573734
 30
0.0
 10
101.4742539893884
 20
-128.8396809573734
 30
0.0
 10
101.6602891455919
 20
-128.8396809573734
 30
0.0
 10
101.6837157948916
 20
-128.8376139000823
 30
0.0
 10
101.7112765587736
 20
-128.8352023332426
 30
0.0
 10
101.7808674875756
 20
-128.8310682186603
 30
0.0
 10
101.7956813981622
 20
-128.8227999894957
 30
0.0
 10
101.8170409901707
 20
-128.8079860789091
 30
0.0
 10
101.8170409901707
 20
-128.8079860789091
 30
0.0
 10
101.9796494970745
 20
-128.9750732099437
 30
0.0
 10
101.9796494970745
 20
-128.9750732099437
 30
0.0
 10
101.9014458295594
 20
-129.0470757055855
 30
0.0
 10
101.8931776003948
 20
-129.0574109920412
 30
0.0
 10
101.8466688113439
 20
-129.1948703019027
 30
0.0
  0
SPLINE
  5
DA
330
CA
100
AcDbEntity
  8
_U+30EC_U+30A4_U+30E4_U+30FC 1
370
     0
100
AcDbSpline
210
0.0
220
0.0
230
1.0
 70
    11
 71
     3
 72
    17
 73
    13
 74
     0
 42
0.0000000001
 43
0.0000000001
 12
1.0
 22
0.0
 32
0.0
 13
1.0
 23
0.0
 33
0.0
 40
0.0
 40
0.0
 40
0.0
 40
0.0
 40
1.0
 40
1.0
 40
1.0
 40
2.0
 40
2.0
 40
2.0
 40
3.0
 40
3.0
 40
3.0
 40
4.0
 40
4.0
 40
4.0
 40
4.0
 10
101.7577853478245
 20
-128.7294379018454
 30
0.0
 10
101.6520209164273
 20
-128.6364203237437
 30
0.0
 10
101.6392740631319
 20
-128.6260850372879
 30
0.0
 10
101.537643746317
 20
-128.5475368602242
 30
0.0
 10
101.537643746317
 20
-128.5475368602242
 30
0.0
 10
101.6499538591361
 20
-128.4503851675402
 30
0.0
 10
101.6499538591361
 20
-128.4503851675402
 30
0.0
 10
101.7598524051156
 20
-128.5265217777642
 30
0.0
 10
101.7915472835799
 20
-128.5582166562285
 30
0.0
 10
101.8738850656774
 20
-128.6429660051656
 30
0.0
 10
101.8738850656774
 20
-128.6429660051656
 30
0.0
 10
101.7577853478245
 20
-128.7294379018454
 30
0.0
 10
101.7577853478245
 20
-128.7294379018454
 30
0.0
  0
SPLINE
  5
DB
330
CA
100
AcDbEntity
  8
_U+30EC_U+30A4_U+30E4_U+30FC 1
370
     0
100
AcDbSpline
210
0.0
220
0.0
230
1.0
 70
    11
 71
     3
 72
    17
 73
    13
 74
     0
 42
0.0000000001
 43
0.0000000001
 12
1.0
 22
0.0
 32
0.0
 13
1.0
 23
0.0
 33
0.0
 40
0.0
 40
0.0
 40
0.0
 40
0.0
 40
1.0
 40
1.0
 40
1.0
 40
2.0
 40
2.0
 40
2.0
 40
3.0
 40
3.0
 40
3.0
 40
4.0
 40
4.0
 40
4.0
 40
4.0
 10
102.0919596098937
 20
-128.7380506405586
 30
0.0
 10
102.0306369102562
 20
-128.6619140303345
 30
0.0
 10
101.964835586488
 20
-128.5899115346928
 30
0.0
 10
101.8845648616816
 20
-128.5306558923465
 30
0.0
 10
101.8845648616816
 20
-128.5306558923465
 30
0.0
 10
102.0051432036654
 20
-128.4376383142448
 30
0.0
 10
102.0051432036654
 20
-128.4376383142448
 30
0.0
 10
102.0940266671848
 20
-128.4948268992999
 30
0.0
 10
102.1467366281092
 20
-128.5475368602242
 30
0.0
 10
102.2125379518774
 20
-128.6364203237437
 30
0.0
 10
102.2125379518774
 20
-128.6364203237437
 30
0.0
 10
102.0919596098937
 20
-128.7380506405586
 30
0.0
 10
102.0919596098937
 20
-128.7380506405586
 30
0.0
  0
HATCH
  5
DC
330
CA
100
AcDbEntity
  8
_U+30EC_U+30A4_U+30E4_U+30FC 1
 62
   179
420
  2234388
100
AcDbHatch
 10
0.0
 20
0.0
 30
0.0
210
0.0
220
0.0
230
1.0
  2
SOLID
 70
     1
 71
     0
 91
        3
 92
        1
 93
        1
 72
     4
 94
        3
 73
     0
 74
     1
 95
       59
 96
       55
 40
0.0
 40
0.0
 40
0.0
 40
0.0
 40
1.0
 40
1.0
 40
1.0
 40
2.0
 40
2.0
 40
2.0
 40
3.0
 40
3.0
 40
3.0
 40
4.0
 40
4.0
 40
4.0
 40
5.0
 40
5.0
 40
5.0
 40
6.0
 40
6.0
 40
6.0
 40
7.0
 40
7.0
 40
7.0
 40
8.0
 40
8.0
 40
8.0
 40
9.0
 40
9.0
 40
9.0
 40
10.0
 40
10.0
 40
10.0
 40
11.0
 40
11.0
 40
11.0
 40
12.0
 40
12.0
 40
12.0
 40
13.0
 40
13.0
 40
13.0
 40
14.0
 40
14.0
 40
14.0
 40
15.0
 40
15.0
 40
15.0
 40
16.0
 40
16.0
 40
16.0
 40
17.0
 40
17.0
 40
17.0
 40
18.0
 40
18.0
 40
18.0
 40
18.0
 10
101.8466688113439
 20
-129.1948703019027
 10
101.7598524051156
 20
-129.4553195205876
 10
101.613780356541
 20
-129.7936278972391
 10
101.290285890476
 20
-130.0857719943883
 10
101.1252658167326
 20
-130.2314995334144
 10
100.9664469148626
 20
-130.3035020290561
 10
100.8692952221785
 20
-130.3500108181069
 10
100.8692952221785
 20
-130.3500108181069
 10
100.6787814418442
 20
-130.206350336372
 10
100.6787814418442
 20
-130.206350336372
 10
100.9433647751114
 20
-130.1088541341394
 10
101.1759087203658
 20
-129.9396999458137
 10
101.3495415328223
 20
-129.7174912870151
 10
101.4466932255064
 20
-129.592778830449
 10
101.6055121273764
 20
-129.330262554473
 10
101.6795816803093
 20
-129.0047010311169
 10
101.6795816803093
 20
-129.0047010311169
 10
101.0425835250866
 20
-129.0047010311169
 10
101.0425835250866
 20
-129.0047010311169
 10
100.9729925962845
 20
-129.1018527238009
 10
100.7910915546633
 20
-129.3598903756461
 10
100.6133246276245
 20
-129.4828802844696
 10
100.6133246276245
 20
-129.4828802844696
 10
100.4462374965898
 20
-129.3557562610638
 10
100.4462374965898
 20
-129.3557562610638
 10
100.7549180520682
 20
-129.1356146595564
 10
100.9729925962845
 20
-128.7590657230186
 10
101.0405164677954
 20
-128.5475368602242
 10
101.0405164677954
 20
-128.5475368602242
 10
101.2606580693029
 20
-128.647100119748
 10
101.2606580693029
 20
-128.647100119748
 10
101.2647921838852
 20
-128.6491671770391
 10
101.3050998010626
 20
-128.6660481449168
 10
101.3050998010626
 20
-128.6894747942165
 10
101.3050998010626
 20
-128.7042887048031
 10
101.3050998010626
 20
-128.7146239912589
 10
101.2120822229609
 20
-128.7401176978497
 10
101.1717746057835
 20
-128.8079860789091
 10
101.1676404912012
 20
-128.8141872507826
 10
101.1504150137749
 20
-128.8396809573734
 10
101.1504150137749
 20
-128.8396809573734
 10
101.4742539893884
 20
-128.8396809573734
 10
101.4742539893884
 20
-128.8396809573734
 10
101.6602891455919
 20
-128.8396809573734
 10
101.6837157948916
 20
-128.8376139000823
 10
101.7112765587736
 20
-128.8352023332426
 10
101.7808674875756
 20
-128.8310682186603
 10
101.7956813981622
 20
-128.8227999894957
 10
101.8170409901707
 20
-128.8079860789091
 10
101.8170409901707
 20
-128.8079860789091
 10
101.9796494970745
 20
-128.9750732099437
 10
101.9796494970745
 20
-128.9750732099437
 10
101.9014458295594
 20
-129.0470757055855
 10
101.8931776003948
 20
-129.0574109920412
 10
101.8466688113439
 20
-129.1948703019027
 97
        0
 97
        0
 92
        1
 93
        1
 72
     4
 94
        3
 73
     0
 74
     1
 95
       17
 96
       13
 40
0.0
 40
0.0
 40
0.0
 40
0.0
 40
1.0
 40
1.0
 40
1.0
 40
2.0
 40
2.0
 40
2.0
 40
3.0
 40
3.0
 40
3.0
 40
4.0
 40
4.0
 40
4.0
 40
4.0
 10
101.7577853478245
 20
-128.7294379018454
 10
101.6520209164273
 20
-128.6364203237437
 10
101.6392740631319
 20
-128.6260850372879
 10
101.537643746317
 20
-128.5475368602242
 10
101.537643746317
 20
-128.5475368602242
 10
101.6499538591361
 20
-128.4503851675402
 10
101.6499538591361
 20
-128.4503851675402
 10
101.7598524051156
 20
-128.5265217777642
 10
101.7915472835799
 20
-128.5582166562285
 10
101.8738850656774
 20
-128.6429660051656
 10
101.8738850656774
 20
-128.6429660051656
 10
101.7577853478245
 20
-128.7294379018454
 10
101.7577853478245
 20
-128.7294379018454
 97
        0
 97
        0
 92
        1
 93
        1
 72
     4
 94
        3
 73
     0
 74
     1
 95
       17
 96
       13
 40
0.0
 40
0.0
 40
0.0
 40
0.0
 40
1.0
 40
1.0
 40
1.0
 40
2.0
 40
2.0
 40
2.0
 40
3.0
 40
3.0
 40
3.0
 40
4.0
 40
4.0
 40
4.0
 40
4.0
 10
102.0919596098937
 20
-128.7380506405586
 10
102.0306369102562
 20
-128.6619140303345
 10
101.964835586488
 20
-128.5899115346928
 10
101.8845648616816
 20
-128.5306558923465
 10
101.8845648616816
 20
-128.5306558923465
 10
102.0051432036654
 20
-128.4376383142448
 10
102.0051432036654
 20
-128.4376383142448
 10
102.0940266671848
 20
-128.4948268992999
 10
102.1467366281092
 20
-128.5475368602242
 10
102.2125379518774
 20
-128.6364203237437
 10
102.2125379518774
 20
-128.6364203237437
 10
102.0919596098937
 20
-128.7380506405586
 10
102.0919596098937
 20
-128.7380506405586
 97
        0
 97
        0
 75
     2
 76
     1
 98
        0
  0
ENDBLK
  5
CD
330
CA
100
AcDbEntity
  8
0
100
AcDbBlockEnd
  0
ENDSEC
  0
SECTION
  2
ENTITIES
  0
POLYLINE
  5
41
330
1F
100
AcDbEntity
  8
_U+30EC_U+30A4_U+30E4_U+30FC 1
 62
   179
420
  2234388
370
    25
100
AcDb2dPolyline
 66
     1
 10
0.0
 20
0.0
 30
0.0
  0
VERTEX
  5
42
330
41
100
AcDbEntity
  8
_U+30EC_U+30A4_U+30E4_U+30FC 1
 62
   179
420
  2234388
370
    25
100
AcDbVertex
100
AcDb2dVertex
 10
73.76569034030268
 20
-116.0480491376547
 30
0.0
  0
VERTEX
  5
43
330
41
100
AcDbEntity
  8
_U+30EC_U+30A4_U+30E4_U+30FC 1
 62
   179
420
  2234388
370
    25
100
AcDbVertex
100
AcDb2dVertex
 10
73.76569034030268
 20
-140.5464549648635
 30
0.0
  0
VERTEX
  5
44
330
41
100
AcDbEntity
  8
_U+30EC_U+30A4_U+30E4_U+30FC 1
 62
   179
420
  2234388
370
    25
100
AcDbVertex
100
AcDb2dVertex
 10
103.3869579179345
 20
-140.6777235759419
 30
0.0
  0
VERTEX
  5
45
330
41
100
AcDbEntity
  8
_U+30EC_U+30A4_U+30E4_U+30FC 1
 62
   179
420
  2234388
370
    25
100
AcDbVertex
100
AcDb2dVertex
 10
103.3869579179345
 20
-139.8240366317106
 30
0.0
  0
VERTEX
  5
46
330
41
100
AcDbEntity
  8
_U+30EC_U+30A4_U+30E4_U+30FC 1
 62
   179
420
  2234388
370
    25
100
AcDbVertex
100
AcDb2dVertex
 10
75.60468557116378
 20
-138.576226354245
 30
0.0
  0
VERTEX
  5
47
330
41
100
AcDbEntity
  8
_U+30EC_U+30A4_U+30E4_U+30FC 1
 62
   179
420
  2234388
370
    25
100
AcDbVertex
100
AcDb2dVertex
 10
75.60468557116378
 20
-118.2811677482076
 30
0.0
  0
VERTEX
  5
48
330
41
100
AcDbEntity
  8
_U+30EC_U+30A4_U+30E4_U+30FC 1
 62
   179
420
  2234388
370
    25
100
AcDbVertex
100
AcDb2dVertex
 10
88.80629995658475
 20
-118.3469608037466
 30
0.0
  0
VERTEX
  5
49
330
41
100
AcDbEntity
  8
_U+30EC_U+30A4_U+30E4_U+30FC 1
 62
   179
420
  2234388
370
    25
100
AcDbVertex
100
AcDb2dVertex
 10
88.80629995658475
 20
-117.0987977485032
 30
0.0
  0
VERTEX
  5
4A
330
41
100
AcDbEntity
  8
_U+30EC_U+30A4_U+30E4_U+30FC 1
 62
   179
420
  2234388
370
    25
100
AcDbVertex
100
AcDb2dVertex
 10
73.76569034030268
 20
-116.0480491376547
 30
0.0
  0
SEQEND
  5
4B
330
41
100
AcDbEntity
  8
_U+30EC_U+30A4_U+30E4_U+30FC 1
 62
   179
420
  2234388
370
    25
  0
POLYLINE
  5
4C
330
1F
100
AcDbEntity
  8
_U+30EC_U+30A4_U+30E4_U+30FC 1
  6
AI-Linetype-1
 62
   154
420
    23468
370
    25
100
AcDb2dPolyline
 66
     1
 10
0.0
 20
0.0
 30
0.0
  0
VERTEX
  5
4D
330
4C
100
AcDbEntity
  8
_U+30EC_U+30A4_U+30E4_U+30FC 1
  6
AI-Linetype-1
 62
   154
420
    23468
370
    25
100
AcDbVertex
100
AcDb2dVertex
 10
73.50283562478644
 20
-141.4659702424113
 30
0.0
  0
VERTEX
  5
4E
330
4C
100
AcDbEntity
  8
_U+30EC_U+30A4_U+30E4_U+30FC 1
  6
AI-Linetype-1
 62
   154
420
    23468
370
    25
100
AcDbVertex
100
AcDb2dVertex
 10
103.2557245879492
 20
-141.4659702424113
 30
0.0
  0
SEQEND
  5
50
330
4C
100
AcDbEntity
  8
_U+30EC_U+30A4_U+30E4_U+30FC 1
  6
AI-Linetype-1
 62
   154
420
    23468
370
    25
  0
POLYLINE
  5
51
330
1F
100
AcDbEntity
  8
_U+30EC_U+30A4_U+30E4_U+30FC 1
  6
AI-Linetype-2
 62
   154
420
    23468
370
    25
100
AcDb2dPolyline
 66
     1
 10
0.0
 20
0.0
 30
0.0
  0
VERTEX
  5
52
330
51
100
AcDbEntity
  8
_U+30EC_U+30A4_U+30E4_U+30FC 1
  6
AI-Linetype-2
 62
   154
420
    23468
370
    25
100
AcDbVertex
100
AcDb2dVertex
 10
76.19551777831262
 20
-137.9192130210759
 30
0.0
  0
VERTEX
  5
53
330
51
100
AcDbEntity
  8
_U+30EC_U+30A4_U+30E4_U+30FC 1
  6
AI-Linetype-2
 62
   154
420
    23468
370
    25
100
AcDbVertex
100
AcDb2dVertex
 10
103.5182265256967
 20
-139.1670585763191
 30
0.0
  0
SEQEND
  5
55
330
51
100
AcDbEntity
  8
_U+30EC_U+30A4_U+30E4_U+30FC 1
  6
AI-Linetype-2
 62
   154
420
    23468
370
    25
  0
POLYLINE
  5
56
330
1F
100
AcDbEntity
  8
_U+30EC_U+30A4_U+30E4_U+30FC 1
 62
   179
420
  2234388
370
     9
100
AcDb2dPolyline
 66
     1
 10
0.0
 20
0.0
 30
0.0
  0
VERTEX
  5
57
330
56
100
AcDbEntity
  8
_U+30EC_U+30A4_U+30E4_U+30FC 1
 62
   179
420
  2234388
370
     9
100
AcDbVertex
100
AcDb2dVertex
 10
73.89695894806485
 20
-112.1726441386234
 30
0.0
  0
VERTEX
  5
58
330
56
100
AcDbEntity
  8
_U+30EC_U+30A4_U+30E4_U+30FC 1
 62
   179
420
  2234388
370
     9
100
AcDbVertex
100
AcDb2dVertex
 10
73.89695894806485
 20
-115.194009415646
 30
0.0
  0
SEQEND
  5
59
330
56
100
AcDbEntity
  8
_U+30EC_U+30A4_U+30E4_U+30FC 1
 62
   179
420
  2234388
370
     9
  0
POLYLINE
  5
5A
330
1F
100
AcDbEntity
  8
_U+30EC_U+30A4_U+30E4_U+30FC 1
 62
   179
420
  2234388
370
     9
100
AcDb2dPolyline
 66
     1
 10
0.0
 20
0.0
 30
0.0
  0
VERTEX
  5
5B
330
5A
100
AcDbEntity
  8
_U+30EC_U+30A4_U+30E4_U+30FC 1
 62
   179
420
  2234388
370
     9
100
AcDbVertex
100
AcDb2dVertex
 10
73.83116589418782
 20
-113.1575996939328
 30
0.0
  0
VERTEX
  5
5C
330
5A
100
AcDbEntity
  8
_U+30EC_U+30A4_U+30E4_U+30FC 1
 62
   179
420
  2234388
370
     9
100
AcDbVertex
100
AcDb2dVertex
 10
79.80803268614969
 20
-113.1575996939328
 30
0.0
  0
SEQEND
  5
5D
330
5A
100
AcDbEntity
  8
_U+30EC_U+30A4_U+30E4_U+30FC 1
 62
   179
420
  2234388
370
     9
  0
POLYLINE
  5
5E
330
1F
100
AcDbEntity
  8
_U+30EC_U+30A4_U+30E4_U+30FC 1
 62
   179
420
  2234388
370
     9
100
AcDb2dPolyline
 66
     1
 10
0.0
 20
0.0
 30
0.0
  0
VERTEX
  5
5F
330
5E
100
AcDbEntity
  8
_U+30EC_U+30A4_U+30E4_U+30FC 1
 62
   179
420
  2234388
370
     9
100
AcDbVertex
100
AcDb2dVertex
 10
82.96066649460818
 20
-113.2233927494719
 30
0.0
  0
VERTEX
  5
60
330
5E
100
AcDbEntity
  8
_U+30EC_U+30A4_U+30E4_U+30FC 1
 62
   179
420
  2234388
370
     9
100
AcDbVertex
100
AcDb2dVertex
 10
88.80629995658475
 20
-113.2233927494719
 30
0.0
  0
SEQEND
  5
61
330
5E
100
AcDbEntity
  8
_U+30EC_U+30A4_U+30E4_U+30FC 1
 62
   179
420
  2234388
370
     9
  0
POLYLINE
  5
62
330
1F
100
AcDbEntity
  8
_U+30EC_U+30A4_U+30E4_U+30FC 1
 62
   179
420
  2234388
370
     9
100
AcDb2dPolyline
 66
     1
 10
0.0
 20
0.0
 30
0.0
  0
VERTEX
  5
63
330
62
100
AcDbEntity
  8
_U+30EC_U+30A4_U+30E4_U+30FC 1
 62
   179
420
  2234388
370
     9
100
AcDbVertex
100
AcDb2dVertex
 10
88.87174023269301
 20
-112.3697058052409
 30
0.0
  0
VERTEX
  5
64
330
62
100
AcDbEntity
  8
_U+30EC_U+30A4_U+30E4_U+30FC 1
 62
   179
420
  2234388
370
     9
100
AcDbVertex
100
AcDb2dVertex
 10
88.87174023269301
 20
-115.194009415646
 30
0.0
  0
SEQEND
  5
65
330
62
100
AcDbEntity
  8
_U+30EC_U+30A4_U+30E4_U+30FC 1
 62
   179
420
  2234388
370
     9
  0
POLYLINE
  5
66
330
1F
100
AcDbEntity
  8
_U+30EC_U+30A4_U+30E4_U+30FC 1
 62
   179
420
  2234388
370
     9
100
AcDb2dPolyline
 66
     1
 10
0.0
 20
0.0
 30
0.0
  0
VERTEX
  5
67
330
66
100
AcDbEntity
  8
_U+30EC_U+30A4_U+30E4_U+30FC 1
 62
   179
420
  2234388
370
     9
100
AcDbVertex
100
AcDb2dVertex
 10
89.85704854088904
 20
-116.0476963598769
 30
0.0
  0
VERTEX
  5
68
330
66
100
AcDbEntity
  8
_U+30EC_U+30A4_U+30E4_U+30FC 1
 62
   179
420
  2234388
370
     9
100
AcDbVertex
100
AcDb2dVertex
 10
107.7219264184514
 20
-116.0476963598769
 30
0.0
  0
SEQEND
  5
69
330
66
100
AcDbEntity
  8
_U+30EC_U+30A4_U+30E4_U+30FC 1
 62
   179
420
  2234388
370
     9
  0
POLYLINE
  5
6A
330
1F
100
AcDbEntity
  8
_U+30EC_U+30A4_U+30E4_U+30FC 1
 62
   179
420
  2234388
370
     9
100
AcDb2dPolyline
 66
     1
 10
0.0
 20
0.0
 30
0.0
  0
VERTEX
  5
6B
330
6A
100
AcDbEntity
  8
_U+30EC_U+30A4_U+30E4_U+30FC 1
 62
   179
420
  2234388
370
     9
100
AcDbVertex
100
AcDb2dVertex
 10
89.85704854088904
 20
-118.1495463593513
 30
0.0
  0
VERTEX
  5
6C
330
6A
100
AcDbEntity
  8
_U+30EC_U+30A4_U+30E4_U+30FC 1
 62
   179
420
  2234388
370
     9
100
AcDbVertex
100
AcDb2dVertex
 10
107.6561360841969
 20
-118.1495463593513
 30
0.0
  0
SEQEND
  5
6D
330
6A
100
AcDbEntity
  8
_U+30EC_U+30A4_U+30E4_U+30FC 1
 62
   179
420
  2234388
370
     9
  0
POLYLINE
  5
6E
330
1F
100
AcDbEntity
  8
_U+30EC_U+30A4_U+30E4_U+30FC 1
 62
   179
420
  2234388
370
     9
100
AcDb2dPolyline
 66
     1
 10
0.0
 20
0.0
 30
0.0
  0
VERTEX
  5
6F
330
6E
100
AcDbEntity
  8
_U+30EC_U+30A4_U+30E4_U+30FC 1
 62
   179
420
  2234388
370
     9
100
AcDbVertex
100
AcDb2dVertex
 10
106.7366181102553
 20
-115.0623880267901
 30
0.0
  0
VERTEX
  5
70
330
6E
100
AcDbEntity
  8
_U+30EC_U+30A4_U+30E4_U+30FC 1
 62
   179
420
  2234388
370
     9
100
AcDbVertex
100
AcDb2dVertex
 10
106.7366181102553
 20
-126.096712468476
 30
0.0
  0
SEQEND
  5
71
330
6E
100
AcDbEntity
  8
_U+30EC_U+30A4_U+30E4_U+30FC 1
 62
   179
420
  2234388
370
     9
  0
POLYLINE
  5
72
330
1F
100
AcDbEntity
  8
_U+30EC_U+30A4_U+30E4_U+30FC 1
 62
   179
420
  2234388
370
     9
100
AcDb2dPolyline
 66
     1
 10
0.0
 20
0.0
 30
0.0
  0
VERTEX
  5
73
330
72
100
AcDbEntity
  8
_U+30EC_U+30A4_U+30E4_U+30FC 1
 62
   179
420
  2234388
370
     9
100
AcDbVertex
100
AcDb2dVertex
 10
106.5395944178097
 20
-130.8912446894995
 30
0.0
  0
VERTEX
  5
74
330
72
100
AcDbEntity
  8
_U+30EC_U+30A4_U+30E4_U+30FC 1
 62
   179
420
  2234388
370
     9
100
AcDbVertex
100
AcDb2dVertex
 10
106.5395944178097
 20
-139.6266221873154
 30
0.0
  0
SEQEND
  5
75
330
72
100
AcDbEntity
  8
_U+30EC_U+30A4_U+30E4_U+30FC 1
 62
   179
420
  2234388
370
     9
  0
POLYLINE
  5
76
330
1F
100
AcDbEntity
  8
_U+30EC_U+30A4_U+30E4_U+30FC 1
 62
   179
420
  2234388
370
     9
100
AcDb2dPolyline
 66
     1
 10
0.0
 20
0.0
 30
0.0
  0
VERTEX
  5
77
330
76
100
AcDbEntity
  8
_U+30EC_U+30A4_U+30E4_U+30FC 1
 62
   179
420
  2234388
370
     9
100
AcDbVertex
100
AcDb2dVertex
 10
104.5035348338927
 20
-139.6924152428544
 30
0.0
  0
VERTEX
  5
78
330
76
100
AcDbEntity
  8
_U+30EC_U+30A4_U+30E4_U+30FC 1
 62
   179
420
  2234388
370
     9
100
AcDbVertex
100
AcDb2dVertex
 10
107.5248647568122
 20
-139.6924152428544
 30
0.0
  0
SEQEND
  5
79
330
76
100
AcDbEntity
  8
_U+30EC_U+30A4_U+30E4_U+30FC 1
 62
   179
420
  2234388
370
     9
  0
POLYLINE
  5
7A
330
1F
100
AcDbEntity
  8
_U+30EC_U+30A4_U+30E4_U+30FC 1
 62
   179
420
  2234388
370
     9
100
AcDb2dPolyline
 66
     1
 10
0.0
 20
0.0
 30
0.0
  0
VERTEX
  5
7B
330
7A
100
AcDbEntity
  8
_U+30EC_U+30A4_U+30E4_U+30FC 1
 62
   179
420
  2234388
370
     9
100
AcDbVertex
100
AcDb2dVertex
 10
73.63410423254861
 20
-142.3850974644039
 30
0.0
  0
VERTEX
  5
7C
330
7A
100
AcDbEntity
  8
_U+30EC_U+30A4_U+30E4_U+30FC 1
 62
   179
420
  2234388
370
     9
100
AcDbVertex
100
AcDb2dVertex
 10
73.63410423254861
 20
-145.209401074809
 30
0.0
  0
SEQEND
  5
7D
330
7A
100
AcDbEntity
  8
_U+30EC_U+30A4_U+30E4_U+30FC 1
 62
   179
420
  2234388
370
     9
  0
POLYLINE
  5
7E
330
1F
100
AcDbEntity
  8
_U+30EC_U+30A4_U+30E4_U+30FC 1
 62
   179
420
  2234388
370
     9
100
AcDb2dPolyline
 66
     1
 10
0.0
 20
0.0
 30
0.0
  0
VERTEX
  5
7F
330
7E
100
AcDbEntity
  8
_U+30EC_U+30A4_U+30E4_U+30FC 1
 62
   179
420
  2234388
370
     9
100
AcDbVertex
100
AcDb2dVertex
 10
73.63410423254861
 20
-144.3557141305777
 30
0.0
  0
VERTEX
  5
80
330
7E
100
AcDbEntity
  8
_U+30EC_U+30A4_U+30E4_U+30FC 1
 62
   179
420
  2234388
370
     9
100
AcDbVertex
100
AcDb2dVertex
 10
87.16401360959408
 20
-144.3557141305777
 30
0.0
  0
SEQEND
  5
81
330
7E
100
AcDbEntity
  8
_U+30EC_U+30A4_U+30E4_U+30FC 1
 62
   179
420
  2234388
370
     9
  0
POLYLINE
  5
82
330
1F
100
AcDbEntity
  8
_U+30EC_U+30A4_U+30E4_U+30FC 1
 62
   179
420
  2234388
370
     9
100
AcDb2dPolyline
 66
     1
 10
0.0
 20
0.0
 30
0.0
  0
VERTEX
  5
83
330
82
100
AcDbEntity
  8
_U+30EC_U+30A4_U+30E4_U+30FC 1
 62
   179
420
  2234388
370
     9
100
AcDbVertex
100
AcDb2dVertex
 10
90.18537881029042
 20
-144.421154408339
 30
0.0
  0
VERTEX
  5
84
330
82
100
AcDbEntity
  8
_U+30EC_U+30A4_U+30E4_U+30FC 1
 62
   179
420
  2234388
370
     9
100
AcDbVertex
100
AcDb2dVertex
 10
103.5182265256967
 20
-144.421154408339
 30
0.0
  0
SEQEND
  5
85
330
82
100
AcDbEntity
  8
_U+30EC_U+30A4_U+30E4_U+30FC 1
 62
   179
420
  2234388
370
     9
  0
POLYLINE
  5
86
330
1F
100
AcDbEntity
  8
_U+30EC_U+30A4_U+30E4_U+30FC 1
 62
   179
420
  2234388
370
     9
100
AcDb2dPolyline
 66
     1
 10
0.0
 20
0.0
 30
0.0
  0
VERTEX
  5
87
330
86
100
AcDbEntity
  8
_U+30EC_U+30A4_U+30E4_U+30FC 1
 62
   179
420
  2234388
370
     9
100
AcDbVertex
100
AcDb2dVertex
 10
103.5182265256967
 20
-142.5163660754817
 30
0.0
  0
VERTEX
  5
88
330
86
100
AcDbEntity
  8
_U+30EC_U+30A4_U+30E4_U+30FC 1
 62
   179
420
  2234388
370
     9
100
AcDbVertex
100
AcDb2dVertex
 10
103.5182265256967
 20
-145.4722557969655
 30
0.0
  0
SEQEND
  5
89
330
86
100
AcDbEntity
  8
_U+30EC_U+30A4_U+30E4_U+30FC 1
 62
   179
420
  2234388
370
     9
  0
POLYLINE
  5
8A
330
1F
100
AcDbEntity
  8
_U+30EC_U+30A4_U+30E4_U+30FC 1
 62
   179
420
  2234388
370
     9
100
AcDb2dPolyline
 66
     1
 10
0.0
 20
0.0
 30
0.0
  0
VERTEX
  5
8B
330
8A
100
AcDbEntity
  8
_U+30EC_U+30A4_U+30E4_U+30FC 1
 62
   179
420
  2234388
370
     9
100
AcDbVertex
100
AcDb2dVertex
 10
88.21511497166715
 20
-137.3277105212238
 30
0.0
  0
VERTEX
  5
8C
330
8A
100
AcDbEntity
  8
_U+30EC_U+30A4_U+30E4_U+30FC 1
 62
   179
420
  2234388
370
     9
100
AcDbVertex
100
AcDb2dVertex
 10
93.00964707157067
 20
-130.8254516339605
 30
0.0
  0
VERTEX
  5
8D
330
8A
100
AcDbEntity
  8
_U+30EC_U+30A4_U+30E4_U+30FC 1
 62
   179
420
  2234388
370
     9
100
AcDbVertex
100
AcDb2dVertex
 10
103.5840221963261
 20
-130.8254516339605
 30
0.0
  0
SEQEND
  5
8E
330
8A
100
AcDbEntity
  8
_U+30EC_U+30A4_U+30E4_U+30FC 1
 62
   179
420
  2234388
370
     9
  0
POLYLINE
  5
8F
330
1F
100
AcDbEntity
  8
_U+30EC_U+30A4_U+30E4_U+30FC 1
 62
   179
420
  2234388
370
     9
100
AcDb2dPolyline
 66
     1
 10
0.0
 20
0.0
 30
0.0
  0
VERTEX
  5
90
330
8F
100
AcDbEntity
  8
_U+30EC_U+30A4_U+30E4_U+30FC 1
 62
   179
420
  2234388
370
     9
100
AcDbVertex
100
AcDb2dVertex
 10
88.21511497166715
 20
-137.2622349656843
 30
0.0
  0
VERTEX
  5
91
330
8F
100
AcDbEntity
  8
_U+30EC_U+30A4_U+30E4_U+30FC 1
 62
   179
420
  2234388
370
     9
100
AcDbVertex
100
AcDb2dVertex
 10
88.01805553355105
 20
-136.736878299149
 30
0.0
  0
VERTEX
  5
92
330
8F
100
AcDbEntity
  8
_U+30EC_U+30A4_U+30E4_U+30FC 1
 62
   179
420
  2234388
370
     9
100
AcDbVertex
100
AcDb2dVertex
 10
87.82099164838874
 20
-137.8534199655369
 30
0.0
  0
VERTEX
  5
93
330
8F
100
AcDbEntity
  8
_U+30EC_U+30A4_U+30E4_U+30FC 1
 62
   179
420
  2234388
370
     9
100
AcDbVertex
100
AcDb2dVertex
 10
88.74050690270772
 20
-137.3935035767628
 30
0.0
  0
VERTEX
  5
94
330
8F
100
AcDbEntity
  8
_U+30EC_U+30A4_U+30E4_U+30FC 1
 62
   179
420
  2234388
370
     9
100
AcDbVertex
100
AcDb2dVertex
 10
88.21511497166715
 20
-137.2622349656843
 30
0.0
  0
SEQEND
  5
96
330
8F
100
AcDbEntity
  8
_U+30EC_U+30A4_U+30E4_U+30FC 1
 62
   179
420
  2234388
370
     9
  0
HATCH
  5
95
330
1F
100
AcDbEntity
  8
_U+30EC_U+30A4_U+30E4_U+30FC 1
 62
   179
420
  2234388
100
AcDbHatch
 10
0.0
 20
0.0
 30
0.0
210
0.0
220
0.0
230
1.0
  2
SOLID
 70
     1
 71
     0
 91
        1
 92
        1
 93
        4
 72
     1
 10
88.21511497166715
 20
-137.2622349656843
 11
88.01805553355105
 21
-136.736878299149
 72
     1
 10
88.01805553355105
 20
-136.736878299149
 11
87.82099164838874
 21
-137.8534199655369
 72
     1
 10
87.82099164838874
 20
-137.8534199655369
 11
88.74050690270772
 21
-137.3935035767628
 72
     1
 10
88.74050690270772
 20
-137.3935035767628
 11
88.21511497166715
 21
-137.2622349656843
 97
        0
 75
     2
 76
     1
 98
        0
  0
INSERT
  5
98
330
1F
100
AcDbEntity
  8
_U+30EC_U+30A4_U+30E4_U+30FC 1
100
AcDbBlockReference
  2
block 2
 10
0.0
 20
0.0
 30
0.0
  0
INSERT
  5
A0
330
1F
100
AcDbEntity
  8
_U+30EC_U+30A4_U+30E4_U+30FC 1
100
AcDbBlockReference
  2
block 3
 10
0.0
 20
0.0
 30
0.0
  0
INSERT
  5
B0
330
1F
100
AcDbEntity
  8
_U+30EC_U+30A4_U+30E4_U+30FC 1
100
AcDbBlockReference
  2
block 4
 10
0.0
 20
0.0
 30
0.0
  0
INSERT
  5
C2
330
1F
100
AcDbEntity
  8
_U+30EC_U+30A4_U+30E4_U+30FC 1
100
AcDbBlockReference
  2
block 5
 10
0.0
 20
0.0
 30
0.0
  0
INSERT
  5
CB
330
1F
100
AcDbEntity
  8
_U+30EC_U+30A4_U+30E4_U+30FC 1
100
AcDbBlockReference
  2
block 6
 10
0.0
 20
0.0
 30
0.0
  0
SPLINE
  5
DD
330
1F
100
AcDbEntity
  8
_U+30EC_U+30A4_U+30E4_U+30FC 1
370
     0
100
AcDbSpline
210
0.0
220
0.0
230
1.0
 70
    11
 71
     3
 72
    17
 73
    13
 74
     0
 42
0.0000000001
 43
0.0000000001
 12
1.0
 22
0.0
 32
0.0
 13
1.0
 23
0.0
 33
0.0
 40
0.0
 40
0.0
 40
0.0
 40
0.0
 40
1.0
 40
1.0
 40
1.0
 40
2.0
 40
2.0
 40
2.0
 40
3.0
 40
3.0
 40
3.0
 40
4.0
 40
4.0
 40
4.0
 40
4.0
 10
73.96275200194188
 20
-113.2233927494719
 30
0.0
 10
73.96275200194188
 20
-113.2719702494598
 30
0.0
 10
73.92313505850815
 20
-113.3115871938943
 30
0.0
 10
73.87455755974746
 20
-113.3115871938943
 30
0.0
 10
73.825627283218
 20
-113.3115871938943
 30
0.0
 10
73.78636311755305
 20
-113.2719702494598
 30
0.0
 10
73.78636311755305
 20
-113.2233927494719
 30
0.0
 10
73.78636311755305
 20
-113.1748152494839
 30
0.0
 10
73.825627283218
 20
-113.1351983050495
 30
0.0
 10
73.87455755974746
 20
-113.1351983050495
 30
0.0
 10
73.92313505850815
 20
-113.1351983050495
 30
0.0
 10
73.96275200194188
 20
-113.1748152494839
 30
0.0
 10
73.96275200194188
 20
-113.2233927494719
 30
0.0
  0
HATCH
  5
DE
330
1F
100
AcDbEntity
  8
_U+30EC_U+30A4_U+30E4_U+30FC 1
 62
   179
420
  2234388
100
AcDbHatch
 10
0.0
 20
0.0
 30
0.0
210
0.0
220
0.0
230
1.0
  2
SOLID
 70
     1
 71
     0
 91
        1
 92
        1
 93
        1
 72
     4
 94
        3
 73
     0
 74
     1
 95
       17
 96
       13
 40
0.0
 40
0.0
 40
0.0
 40
0.0
 40
1.0
 40
1.0
 40
1.0
 40
2.0
 40
2.0
 40
2.0
 40
3.0
 40
3.0
 40
3.0
 40
4.0
 40
4.0
 40
4.0
 40
4.0
 10
73.96275200194188
 20
-113.2233927494719
 10
73.96275200194188
 20
-113.2719702494598
 10
73.92313505850815
 20
-113.3115871938943
 10
73.87455755974746
 20
-113.3115871938943
 10
73.825627283218
 20
-113.3115871938943
 10
73.78636311755305
 20
-113.2719702494598
 10
73.78636311755305
 20
-113.2233927494719
 10
73.78636311755305
 20
-113.1748152494839
 10
73.825627283218
 20
-113.1351983050495
 10
73.87455755974746
 20
-113.1351983050495
 10
73.92313505850815
 20
-113.1351983050495
 10
73.96275200194188
 20
-113.1748152494839
 10
73.96275200194188
 20
-113.2233927494719
 97
        0
 97
        0
 75
     2
 76
     1
 98
        0
  0
SPLINE
  5
DF
330
1F
100
AcDbEntity
  8
_U+30EC_U+30A4_U+30E4_U+30FC 1
370
     0
100
AcDbSpline
210
0.0
220
0.0
230
1.0
 70
    11
 71
     3
 72
    17
 73
    13
 74
     0
 42
0.0000000001
 43
0.0000000001
 12
1.0
 22
0.0
 32
0.0
 13
1.0
 23
0.0
 33
0.0
 40
0.0
 40
0.0
 40
0.0
 40
0.0
 40
1.0
 40
1.0
 40
1.0
 40
2.0
 40
2.0
 40
2.0
 40
3.0
 40
3.0
 40
3.0
 40
4.0
 40
4.0
 40
4.0
 40
4.0
 10
88.87174023269301
 20
-113.2233927494719
 30
0.0
 10
88.87174023269301
 20
-113.2719702494598
 30
0.0
 10
88.83247606702807
 20
-113.3115871938943
 30
0.0
 10
88.7835457904986
 20
-113.3115871938943
 30
0.0
 10
88.73465079174602
 20
-113.3115871938943
 30
0.0
 10
88.69535134830419
 20
-113.2719702494598
 30
0.0
 10
88.69535134830419
 20
-113.2233927494719
 30
0.0
 10
88.69535134830419
 20
-113.1748152494839
 30
0.0
 10
88.73465079174602
 20
-113.1351983050495
 30
0.0
 10
88.7835457904986
 20
-113.1351983050495
 30
0.0
 10
88.83247606702807
 20
-113.1351983050495
 30
0.0
 10
88.87174023269301
 20
-113.1748152494839
 30
0.0
 10
88.87174023269301
 20
-113.2233927494719
 30
0.0
  0
HATCH
  5
E0
330
1F
100
AcDbEntity
  8
_U+30EC_U+30A4_U+30E4_U+30FC 1
 62
   179
420
  2234388
100
AcDbHatch
 10
0.0
 20
0.0
 30
0.0
210
0.0
220
0.0
230
1.0
  2
SOLID
 70
     1
 71
     0
 91
        1
 92
        1
 93
        1
 72
     4
 94
        3
 73
     0
 74
     1
 95
       17
 96
       13
 40
0.0
 40
0.0
 40
0.0
 40
0.0
 40
1.0
 40
1.0
 40
1.0
 40
2.0
 40
2.0
 40
2.0
 40
3.0
 40
3.0
 40
3.0
 40
4.0
 40
4.0
 40
4.0
 40
4.0
 10
88.87174023269301
 20
-113.2233927494719
 10
88.87174023269301
 20
-113.2719702494598
 10
88.83247606702807
 20
-113.3115871938943
 10
88.7835457904986
 20
-113.3115871938943
 10
88.73465079174602
 20
-113.3115871938943
 10
88.69535134830419
 20
-113.2719702494598
 10
88.69535134830419
 20
-113.2233927494719
 10
88.69535134830419
 20
-113.1748152494839
 10
88.73465079174602
 20
-113.1351983050495
 10
88.7835457904986
 20
-113.1351983050495
 10
88.83247606702807
 20
-113.1351983050495
 10
88.87174023269301
 20
-113.1748152494839
 10
88.87174023269301
 20
-113.2233927494719
 97
        0
 97
        0
 75
     2
 76
     1
 98
        0
  0
SPLINE
  5
E1
330
1F
100
AcDbEntity
  8
_U+30EC_U+30A4_U+30E4_U+30FC 1
370
     0
100
AcDbSpline
210
0.0
220
0.0
230
1.0
 70
    11
 71
     3
 72
    17
 73
    13
 74
     0
 42
0.0000000001
 43
0.0000000001
 12
1.0
 22
0.0
 32
0.0
 13
1.0
 23
0.0
 33
0.0
 40
0.0
 40
0.0
 40
0.0
 40
0.0
 40
1.0
 40
1.0
 40
1.0
 40
2.0
 40
2.0
 40
2.0
 40
3.0
 40
3.0
 40
3.0
 40
4.0
 40
4.0
 40
4.0
 40
4.0
 10
106.8024464419093
 20
-115.9819033043379
 30
0.0
 10
106.8024464419093
 20
-116.0304808043258
 30
0.0
 10
106.7631469984674
 20
-116.0700977487603
 30
0.0
 10
106.7142519997148
 20
-116.0700977487603
 30
0.0
 10
106.6653217231854
 20
-116.0700977487603
 30
0.0
 10
106.6260575575204
 20
-116.0304808043258
 30
0.0
 10
106.6260575575204
 20
-115.9819033043379
 30
0.0
 10
106.6260575575204
 20
-115.93332580435
 30
0.0
 10
106.6653217231854
 20
-115.8937088599155
 30
0.0
 10
106.7142519997148
 20
-115.8937088599155
 30
0.0
 10
106.7631469984674
 20
-115.8937088599155
 30
0.0
 10
106.8024464419093
 20
-115.93332580435
 30
0.0
 10
106.8024464419093
 20
-115.9819033043379
 30
0.0
  0
HATCH
  5
E2
330
1F
100
AcDbEntity
  8
_U+30EC_U+30A4_U+30E4_U+30FC 1
 62
   179
420
  2234388
100
AcDbHatch
 10
0.0
 20
0.0
 30
0.0
210
0.0
220
0.0
230
1.0
  2
SOLID
 70
     1
 71
     0
 91
        1
 92
        1
 93
        1
 72
     4
 94
        3
 73
     0
 74
     1
 95
       17
 96
       13
 40
0.0
 40
0.0
 40
0.0
 40
0.0
 40
1.0
 40
1.0
 40
1.0
 40
2.0
 40
2.0
 40
2.0
 40
3.0
 40
3.0
 40
3.0
 40
4.0
 40
4.0
 40
4.0
 40
4.0
 10
106.8024464419093
 20
-115.9819033043379
 10
106.8024464419093
 20
-116.0304808043258
 10
106.7631469984674
 20
-116.0700977487603
 10
106.7142519997148
 20
-116.0700977487603
 10
106.6653217231854
 20
-116.0700977487603
 10
106.6260575575204
 20
-116.0304808043258
 10
106.6260575575204
 20
-115.9819033043379
 10
106.6260575575204
 20
-115.93332580435
 10
106.6653217231854
 20
-115.8937088599155
 10
106.7142519997148
 20
-115.8937088599155
 10
106.7631469984674
 20
-115.8937088599155
 10
106.8024464419093
 20
-115.93332580435
 10
106.8024464419093
 20
-115.9819033043379
 97
        0
 97
        0
 75
     2
 76
     1
 98
        0
  0
SPLINE
  5
E3
330
1F
100
AcDbEntity
  8
_U+30EC_U+30A4_U+30E4_U+30FC 1
370
     0
100
AcDbSpline
210
0.0
220
0.0
230
1.0
 70
    11
 71
     3
 72
    17
 73
    13
 74
     0
 42
0.0000000001
 43
0.0000000001
 12
1.0
 22
0.0
 32
0.0
 13
1.0
 23
0.0
 33
0.0
 40
0.0
 40
0.0
 40
0.0
 40
0.0
 40
1.0
 40
1.0
 40
1.0
 40
2.0
 40
2.0
 40
2.0
 40
3.0
 40
3.0
 40
3.0
 40
4.0
 40
4.0
 40
4.0
 40
4.0
 10
106.8024464419093
 20
-118.1495463593513
 30
0.0
 10
106.8024464419093
 20
-118.1981238593393
 30
0.0
 10
106.7631469984674
 20
-118.2377408037737
 30
0.0
 10
106.7142519997148
 20
-118.2377408037737
 30
0.0
 10
106.6653217231854
 20
-118.2377408037737
 30
0.0
 10
106.6260575575204
 20
-118.1981238593393
 30
0.0
 10
106.6260575575204
 20
-118.1495463593513
 30
0.0
 10
106.6260575575204
 20
-118.1009688593637
 30
0.0
 10
106.6653217231854
 20
-118.0613519149289
 30
0.0
 10
106.7142519997148
 20
-118.0613519149289
 30
0.0
 10
106.7631469984674
 20
-118.0613519149289
 30
0.0
 10
106.8024464419093
 20
-118.1009688593637
 30
0.0
 10
106.8024464419093
 20
-118.1495463593513
 30
0.0
  0
HATCH
  5
E4
330
1F
100
AcDbEntity
  8
_U+30EC_U+30A4_U+30E4_U+30FC 1
 62
   179
420
  2234388
100
AcDbHatch
 10
0.0
 20
0.0
 30
0.0
210
0.0
220
0.0
230
1.0
  2
SOLID
 70
     1
 71
     0
 91
        1
 92
        1
 93
        1
 72
     4
 94
        3
 73
     0
 74
     1
 95
       17
 96
       13
 40
0.0
 40
0.0
 40
0.0
 40
0.0
 40
1.0
 40
1.0
 40
1.0
 40
2.0
 40
2.0
 40
2.0
 40
3.0
 40
3.0
 40
3.0
 40
4.0
 40
4.0
 40
4.0
 40
4.0
 10
106.8024464419093
 20
-118.1495463593513
 10
106.8024464419093
 20
-118.1981238593393
 10
106.7631469984674
 20
-118.2377408037737
 10
106.7142519997148
 20
-118.2377408037737
 10
106.6653217231854
 20
-118.2377408037737
 10
106.6260575575204
 20
-118.1981238593393
 10
106.6260575575204
 20
-118.1495463593513
 10
106.6260575575204
 20
-118.1009688593637
 10
106.6653217231854
 20
-118.0613519149289
 10
106.7142519997148
 20
-118.0613519149289
 10
106.7631469984674
 20
-118.0613519149289
 10
106.8024464419093
 20
-118.1009688593637
 10
106.8024464419093
 20
-118.1495463593513
 97
        0
 97
        0
 75
     2
 76
     1
 98
        0
  0
SPLINE
  5
E5
330
1F
100
AcDbEntity
  8
_U+30EC_U+30A4_U+30E4_U+30FC 1
370
     0
100
AcDbSpline
210
0.0
220
0.0
230
1.0
 70
    11
 71
     3
 72
    17
 73
    13
 74
     0
 42
0.0000000001
 43
0.0000000001
 12
1.0
 22
0.0
 32
0.0
 13
1.0
 23
0.0
 33
0.0
 40
0.0
 40
0.0
 40
0.0
 40
0.0
 40
1.0
 40
1.0
 40
1.0
 40
2.0
 40
2.0
 40
2.0
 40
3.0
 40
3.0
 40
3.0
 40
4.0
 40
4.0
 40
4.0
 40
4.0
 10
106.6053847802701
 20
-139.6924152428544
 30
0.0
 10
106.6053847802701
 20
-139.7409927428427
 30
0.0
 10
106.5660853368282
 20
-139.7806096872768
 30
0.0
 10
106.5171903380756
 20
-139.7806096872768
 30
0.0
 10
106.4682600615462
 20
-139.7806096872768
 30
0.0
 10
106.4289958958812
 20
-139.7409927428427
 30
0.0
 10
106.4289958958812
 20
-139.6924152428544
 30
0.0
 10
106.4289958958812
 20
-139.6438377428668
 30
0.0
 10
106.4682600615462
 20
-139.604220798432
 30
0.0
 10
106.5171903380756
 20
-139.604220798432
 30
0.0
 10
106.5660853368282
 20
-139.604220798432
 30
0.0
 10
106.6053847802701
 20
-139.6438377428668
 30
0.0
 10
106.6053847802701
 20
-139.6924152428544
 30
0.0
  0
HATCH
  5
E6
330
1F
100
AcDbEntity
  8
_U+30EC_U+30A4_U+30E4_U+30FC 1
 62
   179
420
  2234388
100
AcDbHatch
 10
0.0
 20
0.0
 30
0.0
210
0.0
220
0.0
230
1.0
  2
SOLID
 70
     1
 71
     0
 91
        1
 92
        1
 93
        1
 72
     4
 94
        3
 73
     0
 74
     1
 95
       17
 96
       13
 40
0.0
 40
0.0
 40
0.0
 40
0.0
 40
1.0
 40
1.0
 40
1.0
 40
2.0
 40
2.0
 40
2.0
 40
3.0
 40
3.0
 40
3.0
 40
4.0
 40
4.0
 40
4.0
 40
4.0
 10
106.6053847802701
 20
-139.6924152428544
 10
106.6053847802701
 20
-139.7409927428427
 10
106.5660853368282
 20
-139.7806096872768
 10
106.5171903380756
 20
-139.7806096872768
 10
106.4682600615462
 20
-139.7806096872768
 10
106.4289958958812
 20
-139.7409927428427
 10
106.4289958958812
 20
-139.6924152428544
 10
106.4289958958812
 20
-139.6438377428668
 10
106.4682600615462
 20
-139.604220798432
 10
106.5171903380756
 20
-139.604220798432
 10
106.5660853368282
 20
-139.604220798432
 10
106.6053847802701
 20
-139.6438377428668
 10
106.6053847802701
 20
-139.6924152428544
 97
        0
 97
        0
 75
     2
 76
     1
 98
        0
  0
SPLINE
  5
E7
330
1F
100
AcDbEntity
  8
_U+30EC_U+30A4_U+30E4_U+30FC 1
370
     0
100
AcDbSpline
210
0.0
220
0.0
230
1.0
 70
    11
 71
     3
 72
    17
 73
    13
 74
     0
 42
0.0000000001
 43
0.0000000001
 12
1.0
 22
0.0
 32
0.0
 13
1.0
 23
0.0
 33
0.0
 40
0.0
 40
0.0
 40
0.0
 40
0.0
 40
1.0
 40
1.0
 40
1.0
 40
2.0
 40
2.0
 40
2.0
 40
3.0
 40
3.0
 40
3.0
 40
4.0
 40
4.0
 40
4.0
 40
4.0
 10
103.5182265256967
 20
-144.486947463878
 30
0.0
 10
103.5182265256967
 20
-144.5355249638662
 30
0.0
 10
103.4789623600317
 20
-144.5751419083004
 30
0.0
 10
103.4300320835023
 20
-144.5751419083004
 30
0.0
 10
103.3811018069728
 20
-144.5751419083004
 30
0.0
 10
103.3418376413078
 20
-144.5355249638662
 30
0.0
 10
103.3418376413078
 20
-144.486947463878
 30
0.0
 10
103.3418376413078
 20
-144.4383699638904
 30
0.0
 10
103.3811018069728
 20
-144.3987530194556
 30
0.0
 10
103.4300320835023
 20
-144.3987530194556
 30
0.0
 10
103.4789623600317
 20
-144.3987530194556
 30
0.0
 10
103.5182265256967
 20
-144.4383699638904
 30
0.0
 10
103.5182265256967
 20
-144.486947463878
 30
0.0
  0
HATCH
  5
E8
330
1F
100
AcDbEntity
  8
_U+30EC_U+30A4_U+30E4_U+30FC 1
 62
   179
420
  2234388
100
AcDbHatch
 10
0.0
 20
0.0
 30
0.0
210
0.0
220
0.0
230
1.0
  2
SOLID
 70
     1
 71
     0
 91
        1
 92
        1
 93
        1
 72
     4
 94
        3
 73
     0
 74
     1
 95
       17
 96
       13
 40
0.0
 40
0.0
 40
0.0
 40
0.0
 40
1.0
 40
1.0
 40
1.0
 40
2.0
 40
2.0
 40
2.0
 40
3.0
 40
3.0
 40
3.0
 40
4.0
 40
4.0
 40
4.0
 40
4.0
 10
103.5182265256967
 20
-144.486947463878
 10
103.5182265256967
 20
-144.5355249638662
 10
103.4789623600317
 20
-144.5751419083004
 10
103.4300320835023
 20
-144.5751419083004
 10
103.3811018069728
 20
-144.5751419083004
 10
103.3418376413078
 20
-144.5355249638662
 10
103.3418376413078
 20
-144.486947463878
 10
103.3418376413078
 20
-144.4383699638904
 10
103.3811018069728
 20
-144.3987530194556
 10
103.4300320835023
 20
-144.3987530194556
 10
103.4789623600317
 20
-144.3987530194556
 10
103.5182265256967
 20
-144.4383699638904
 10
103.5182265256967
 20
-144.486947463878
 97
        0
 97
        0
 75
     2
 76
     1
 98
        0
  0
SPLINE
  5
E9
330
1F
100
AcDbEntity
  8
_U+30EC_U+30A4_U+30E4_U+30FC 1
370
     0
100
AcDbSpline
210
0.0
220
0.0
230
1.0
 70
    11
 71
     3
 72
    17
 73
    13
 74
     0
 42
0.0000000001
 43
0.0000000001
 12
1.0
 22
0.0
 32
0.0
 13
1.0
 23
0.0
 33
0.0
 40
0.0
 40
0.0
 40
0.0
 40
0.0
 40
1.0
 40
1.0
 40
1.0
 40
2.0
 40
2.0
 40
2.0
 40
3.0
 40
3.0
 40
3.0
 40
4.0
 40
4.0
 40
4.0
 40
4.0
 10
73.76569034030268
 20
-144.3557141305777
 30
0.0
 10
73.76569034030268
 20
-144.4042916305653
 30
0.0
 10
73.72642617463772
 20
-144.4439085750001
 30
0.0
 10
73.67749589810826
 20
-144.4439085750001
 30
0.0
 10
73.6285656215788
 20
-144.4439085750001
 30
0.0
 10
73.58930145591384
 20
-144.4042916305653
 30
0.0
 10
73.58930145591384
 20
-144.3557141305777
 30
0.0
 10
73.58930145591384
 20
-144.3071366305901
 30
0.0
 10
73.6285656215788
 20
-144.2675196861553
 30
0.0
 10
73.67749589810826
 20
-144.2675196861553
 30
0.0
 10
73.72642617463772
 20
-144.2675196861553
 30
0.0
 10
73.76569034030268
 20
-144.3071366305901
 30
0.0
 10
73.76569034030268
 20
-144.3557141305777
 30
0.0
  0
HATCH
  5
EA
330
1F
100
AcDbEntity
  8
_U+30EC_U+30A4_U+30E4_U+30FC 1
 62
   179
420
  2234388
100
AcDbHatch
 10
0.0
 20
0.0
 30
0.0
210
0.0
220
0.0
230
1.0
  2
SOLID
 70
     1
 71
     0
 91
        1
 92
        1
 93
        1
 72
     4
 94
        3
 73
     0
 74
     1
 95
       17
 96
       13
 40
0.0
 40
0.0
 40
0.0
 40
0.0
 40
1.0
 40
1.0
 40
1.0
 40
2.0
 40
2.0
 40
2.0
 40
3.0
 40
3.0
 40
3.0
 40
4.0
 40
4.0
 40
4.0
 40
4.0
 10
73.76569034030268
 20
-144.3557141305777
 10
73.76569034030268
 20
-144.4042916305653
 10
73.72642617463772
 20
-144.4439085750001
 10
73.67749589810826
 20
-144.4439085750001
 10
73.6285656215788
 20
-144.4439085750001
 10
73.58930145591384
 20
-144.4042916305653
 10
73.58930145591384
 20
-144.3557141305777
 10
73.58930145591384
 20
-144.3071366305901
 10
73.6285656215788
 20
-144.2675196861553
 10
73.67749589810826
 20
-144.2675196861553
 10
73.72642617463772
 20
-144.2675196861553
 10
73.76569034030268
 20
-144.3071366305901
 10
73.76569034030268
 20
-144.3557141305777
 97
        0
 97
        0
 75
     2
 76
     1
 98
        0
  0
ENDSEC
  0
SECTION
  2
OBJECTS
  0
DICTIONARY
  5
C
330
0
100
AcDbDictionary
281
     1
  3
ACAD_GROUP
350
D
  3
ACAD_LAYOUT
350
1A
  3
ACAD_MATERIAL
350
3B
  3
ACAD_MLEADERSTYLE
350
EC
  3
ACAD_MLINESTYLE
350
17
  3
ACAD_PLOTSETTINGS
350
19
  3
ACAD_PLOTSTYLENAME
350
E
  3
ACAD_TABLESTYLE
350
EB
  3
ACAD_VISUALSTYLE
350
2A
  0
SUN
  5
3F
330
29
100
AcDbSun
 90
        1
290
     0
 63
     7
421
 16777215
 40
1.0
291
     1
 91
  2455826
 92
 54000000
292
     0
 70
     2
 71
   256
280
     1
  0
DICTIONARY
  5
D
102
{ACAD_REACTORS
330
C
102
}
330
C
100
AcDbDictionary
281
     1
  0
DICTIONARY
  5
1A
102
{ACAD_REACTORS
330
C
102
}
330
C
100
AcDbDictionary
281
     1
  3
Layout1
350
1E
  3
Layout2
350
26
  3
Model
350
22
  0
DICTIONARY
  5
3B
102
{ACAD_REACTORS
330
C
102
}
330
C
100
AcDbDictionary
281
     1
  3
ByBlock
350
3D
  3
ByLayer
350
3C
  3
Global
350
3E
  0
DICTIONARY
  5
EC
102
{ACAD_REACTORS
330
C
102
}
330
C
100
AcDbDictionary
281
     1
  0
DICTIONARY
  5
17
102
{ACAD_REACTORS
330
C
102
}
330
C
100
AcDbDictionary
281
     1
  3
Standard
350
18
  0
DICTIONARY
  5
19
102
{ACAD_REACTORS
330
C
102
}
330
C
100
AcDbDictionary
281
     1
  0
ACDBDICTIONARYWDFLT
  5
E
102
{ACAD_REACTORS
330
C
102
}
330
C
100
AcDbDictionary
281
     1
  3
Normal
350
F
100
AcDbDictionaryWithDefault
340
F
  0
DICTIONARY
  5
EB
102
{ACAD_REACTORS
330
C
102
}
330
C
100
AcDbDictionary
281
     1
  0
DICTIONARY
  5
2A
102
{ACAD_REACTORS
330
C
102
}
330
C
100
AcDbDictionary
281
     1
  3
2dWireframe
350
2F
  3
3D Hidden
350
31
  3
3dWireframe
350
30
  3
Basic
350
32
  3
Brighten
350
36
  3
ColorChange
350
3A
  3
Conceptual
350
34
  3
Dim
350
35
  3
Facepattern
350
39
  3
Flat
350
2B
  3
FlatWithEdges
350
2C
  3
Gouraud
350
2D
  3
GouraudWithEdges
350
2E
  3
Linepattern
350
38
  3
Realistic
350
33
  3
Thicken
350
37
  0
LAYOUT
  5
1E
102
{ACAD_REACTORS
330
1A
102
}
330
1A
100
AcDbPlotSettings
  1

  2
none_device
  4

  6

 40
0.0
 41
0.0
 42
0.0
 43
0.0
 44
0.0
 45
0.0
 46
0.0
 47
0.0
 48
0.0
 49
0.0
140
0.0
141
0.0
142
1.0
143
1.0
 70
   688
 72
     0
 73
     0
 74
     5
  7

 75
    16
 76
     0
 77
     2
 78
   300
147
1.0
148
0.0
149
0.0
100
AcDbLayout
  1
Layout1
 70
     1
 71
     1
 10
0.0
 20
0.0
 11
12.0
 21
9.0
 12
0.0
 22
0.0
 32
0.0
 14
1.000000000000000E+20
 24
1.000000000000000E+20
 34
1.000000000000000E+20
 15
-1.000000000000000E+20
 25
-1.000000000000000E+20
 35
-1.000000000000000E+20
146
0.0
 13
0.0
 23
0.0
 33
0.0
 16
1.0
 26
0.0
 36
0.0
 17
0.0
 27
1.0
 37
0.0
 76
     0
330
1B
  0
LAYOUT
  5
26
102
{ACAD_REACTORS
330
1A
102
}
330
1A
100
AcDbPlotSettings
  1

  2
none_device
  4

  6

 40
0.0
 41
0.0
 42
0.0
 43
0.0
 44
0.0
 45
0.0
 46
0.0
 47
0.0
 48
0.0
 49
0.0
140
0.0
141
0.0
142
1.0
143
1.0
 70
   688
 72
     0
 73
     0
 74
     5
  7

 75
    16
 76
     0
 77
     2
 78
   300
147
1.0
148
0.0
149
0.0
100
AcDbLayout
  1
Layout2
 70
     1
 71
     2
 10
0.0
 20
0.0
 11
0.0
 21
0.0
 12
0.0
 22
0.0
 32
0.0
 14
0.0
 24
0.0
 34
0.0
 15
0.0
 25
0.0
 35
0.0
146
0.0
 13
0.0
 23
0.0
 33
0.0
 16
1.0
 26
0.0
 36
0.0
 17
0.0
 27
1.0
 37
0.0
 76
     0
330
23
  0
LAYOUT
  5
22
102
{ACAD_REACTORS
330
1A
102
}
330
1A
100
AcDbPlotSettings
  1

  2
none_device
  4

  6

 40
0.0
 41
0.0
 42
0.0
 43
0.0
 44
0.0
 45
0.0
 46
0.0
 47
0.0
 48
0.0
 49
0.0
140
0.0
141
0.0
142
1.0
143
1.0
 70
  1712
 72
     0
 73
     0
 74
     0
  7

 75
     0
 76
     0
 77
     2
 78
   300
147
1.0
148
0.0
149
0.0
100
AcDbLayout
  1
Model
 70
     1
 71
     0
 10
0.0
 20
0.0
 11
12.0
 21
9.0
 12
0.0
 22
0.0
 32
0.0
 14
1.000000000000000E+20
 24
1.000000000000000E+20
 34
1.000000000000000E+20
 15
-1.000000000000000E+20
 25
-1.000000000000000E+20
 35
-1.000000000000000E+20
146
0.0
 13
0.0
 23
0.0
 33
0.0
 16
1.0
 26
0.0
 36
0.0
 17
0.0
 27
1.0
 37
0.0
 76
     0
330
1F
331
29
  0
MATERIAL
  5
3D
102
{ACAD_REACTORS
330
3B
102
}
330
3B
100
AcDbMaterial
  1
ByBlock
 72
     1
 94
      127
  0
MATERIAL
  5
3C
102
{ACAD_REACTORS
330
3B
102
}
330
3B
100
AcDbMaterial
  1
ByLayer
 72
     1
 94
      127
  0
MATERIAL
  5
3E
102
{ACAD_REACTORS
330
3B
102
}
330
3B
100
AcDbMaterial
  1
Global
 72
     1
 94
      127
  0
MLINESTYLE
  5
18
102
{ACAD_REACTORS
330
17
102
}
330
17
100
AcDbMlineStyle
  2
Standard
 70
     0
  3

 62
   256
 51
90.0
 52
90.0
 71
     2
 49
0.5
 62
   256
  6
BYLAYER
 49
-0.5
 62
   256
  6
BYLAYER
  0
ACDBPLACEHOLDER
  5
F
102
{ACAD_REACTORS
330
E
102
}
330
E
  0
VISUALSTYLE
  5
2F
102
{ACAD_REACTORS
330
2A
102
}
330
2A
100
AcDbVisualStyle
  2
2dWireframe
 70
     4
177
     2
291
     0
 71
     0
176
     1
 72
     2
176
     1
 73
     0
176
     1
 90
        0
176
     1
 40
-0.6
176
     1
 41
-30.0
176
     1
 62
     5
 63
     7
421
 16777215
176
     1
 74
     1
176
     1
 91
        4
176
     1
 64
     7
176
     1
 65
   257
176
     1
 75
     1
176
     1
175
     1
176
     1
 42
1.0
176
     1
 92
        0
176
     1
 66
   257
176
     1
 43
1.0
176
     1
 76
     1
176
     1
 77
     6
176
     1
 78
     2
176
     1
 67
     7
176
     1
 79
     5
176
     1
170
     0
176
     1
171
     0
176
     1
290
     0
176
     1
 93
        1
176
     1
 44
0.0
176
     1
173
     0
176
     1
  0
VISUALSTYLE
  5
31
102
{ACAD_REACTORS
330
2A
102
}
330
2A
100
AcDbVisualStyle
  2
3D Hidden
 70
     6
177
     2
291
     0
 71
     1
176
     1
 72
     2
176
     1
 73
     2
176
     1
 90
        0
176
     1
 40
-0.6
176
     1
 41
-30.0
176
     1
 62
     5
 63
     7
421
 16777215
176
     1
 74
     2
176
     1
 91
        2
176
     1
 64
     7
176
     1
 65
   257
176
     1
 75
     2
176
     1
175
     1
176
     1
 42
40.0
176
     1
 92
        0
176
     1
 66
   257
176
     1
 43
1.0
176
     1
 76
     1
176
     1
 77
     6
176
     1
 78
     2
176
     1
 67
     7
176
     1
 79
     3
176
     1
170
     0
176
     1
171
     0
176
     1
290
     0
176
     1
 93
        1
176
     1
 44
0.0
176
     1
173
     0
176
     1
  0
VISUALSTYLE
  5
30
102
{ACAD_REACTORS
330
2A
102
}
330
2A
100
AcDbVisualStyle
  2
3dWireframe
 70
     5
177
     2
291
     0
 71
     0
176
     1
 72
     2
176
     1
 73
     0
176
     1
 90
        0
176
     1
 40
-0.6
176
     1
 41
-30.0
176
     1
 62
     5
 63
     7
421
 16777215
176
     1
 74
     1
176
     1
 91
        4
176
     1
 64
     7
176
     1
 65
   257
176
     1
 75
     1
176
     1
175
     1
176
     1
 42
1.0
176
     1
 92
        0
176
     1
 66
   257
176
     1
 43
1.0
176
     1
 76
     1
176
     1
 77
     6
176
     1
 78
     2
176
     1
 67
     7
176
     1
 79
     5
176
     1
170
     0
176
     1
171
     0
176
     1
290
     0
176
     1
 93
        1
176
     1
 44
0.0
176
     1
173
     0
176
     1
  0
VISUALSTYLE
  5
32
102
{ACAD_REACTORS
330
2A
102
}
330
2A
100
AcDbVisualStyle
  2
Basic
 70
     7
177
     2
291
     1
 71
     1
176
     1
 72
     0
176
     1
 73
     1
176
     1
 90
        0
176
     1
 40
-0.6
176
     1
 41
-30.0
176
     1
 62
     5
 63
     7
421
 16777215
176
     1
 74
     0
176
     1
 91
        4
176
     1
 64
     7
176
     1
 65
   257
176
     1
 75
     1
176
     1
175
     1
176
     1
 42
1.0
176
     1
 92
        8
176
     1
 66
     7
176
     1
 43
1.0
176
     1
 76
     1
176
     1
 77
     6
176
     1
 78
     2
176
     1
 67
     7
176
     1
 79
     5
176
     1
170
     0
176
     1
171
     0
176
     1
290
     0
176
     1
 93
        1
176
     1
 44
0.0
176
     1
173
     0
176
     1
  0
VISUALSTYLE
  5
36
102
{ACAD_REACTORS
330
2A
102
}
330
2A
100
AcDbVisualStyle
  2
Brighten
 70
    12
177
     2
291
     1
 71
     2
176
     1
 72
     2
176
     1
 73
     0
176
     1
 90
        0
176
     1
 40
-0.6
176
     1
 41
-30.0
176
     1
 62
     5
 63
     7
421
 16777215
176
     1
 74
     1
176
     1
 91
        4
176
     1
 64
     7
176
     1
 65
   257
176
     1
 75
     1
176
     1
175
     1
176
     1
 42
1.0
176
     1
 92
        8
176
     1
 66
     7
176
     1
 43
1.0
176
     1
 76
     1
176
     1
 77
     6
176
     1
 78
     2
176
     1
 67
     7
176
     1
 79
     5
176
     1
170
     0
176
     1
171
     0
176
     1
290
     0
176
     1
 93
        1
176
     1
 44
50.0
176
     1
173
     0
176
     1
  0
VISUALSTYLE
  5
3A
102
{ACAD_REACTORS
330
2A
102
}
330
2A
100
AcDbVisualStyle
  2
ColorChange
 70
    16
177
     2
291
     1
 71
     2
176
     1
 72
     2
176
     1
 73
     3
176
     1
 90
        0
176
     1
 40
-0.6
176
     1
 41
-30.0
176
     1
 62
     5
 63
     8
421
  8421504
176
     1
 74
     1
176
     1
 91
        4
176
     1
 64
     7
176
     1
 65
   257
176
     1
 75
     1
176
     1
175
     1
176
     1
 42
1.0
176
     1
 92
        8
176
     1
 66
     8
424
  8421504
176
     1
 43
1.0
176
     1
 76
     1
176
     1
 77
     6
176
     1
 78
     2
176
     1
 67
     7
176
     1
 79
     5
176
     1
170
     0
176
     1
171
     0
176
     1
290
     0
176
     1
 93
        1
176
     1
 44
0.0
176
     1
173
     0
176
     1
  0
VISUALSTYLE
  5
34
102
{ACAD_REACTORS
330
2A
102
}
330
2A
100
AcDbVisualStyle
  2
Conceptual
 70
     9
177
     2
291
     0
 71
     3
176
     1
 72
     2
176
     1
 73
     0
176
     1
 90
        0
176
     1
 40
-0.6
176
     1
 41
-30.0
176
     1
 62
     5
 63
     7
421
 16777215
176
     1
 74
     2
176
     1
 91
        2
176
     1
 64
     7
176
     1
 65
   257
176
     1
 75
     1
176
     1
175
     1
176
     1
 42
40.0
176
     1
 92
        8
176
     1
 66
     7
176
     1
 43
1.0
176
     1
 76
     1
176
     1
 77
     6
176
     1
 78
     2
176
     1
 67
     7
176
     1
 79
     3
176
     1
170
     0
176
     1
171
     0
176
     1
290
     0
176
     1
 93
        1
176
     1
 44
0.0
176
     1
173
     0
176
     1
  0
VISUALSTYLE
  5
35
102
{ACAD_REACTORS
330
2A
102
}
330
2A
100
AcDbVisualStyle
  2
Dim
 70
    11
177
     2
291
     1
 71
     2
176
     1
 72
     2
176
     1
 73
     0
176
     1
 90
        0
176
     1
 40
-0.6
176
     1
 41
-30.0
176
     1
 62
     5
 63
     7
421
 16777215
176
     1
 74
     1
176
     1
 91
        4
176
     1
 64
     7
176
     1
 65
   257
176
     1
 75
     1
176
     1
175
     1
176
     1
 42
1.0
176
     1
 92
        8
176
     1
 66
     7
176
     1
 43
1.0
176
     1
 76
     1
176
     1
 77
     6
176
     1
 78
     2
176
     1
 67
     7
176
     1
 79
     5
176
     1
170
     0
176
     1
171
     0
176
     1
290
     0
176
     1
 93
        1
176
     1
 44
-50.0
176
     1
173
     0
176
     1
  0
VISUALSTYLE
  5
39
102
{ACAD_REACTORS
330
2A
102
}
330
2A
100
AcDbVisualStyle
  2
Facepattern
 70
    15
177
     2
291
     1
 71
     2
176
     1
 72
     2
176
     1
 73
     0
176
     1
 90
        0
176
     1
 40
-0.6
176
     1
 41
-30.0
176
     1
 62
     5
 63
     7
421
 16777215
176
     1
 74
     1
176
     1
 91
        4
176
     1
 64
     7
176
     1
 65
   257
176
     1
 75
     1
176
     1
175
     1
176
     1
 42
1.0
176
     1
 92
        8
176
     1
 66
     7
176
     1
 43
1.0
176
     1
 76
     1
176
     1
 77
     6
176
     1
 78
     2
176
     1
 67
     7
176
     1
 79
     5
176
     1
170
     0
176
     1
171
     0
176
     1
290
     0
176
     1
 93
        1
176
     1
 44
0.0
176
     1
173
     0
176
     1
  0
VISUALSTYLE
  5
2B
102
{ACAD_REACTORS
330
2A
102
}
330
2A
100
AcDbVisualStyle
  2
Flat
 70
     0
177
     2
291
     1
 71
     2
176
     1
 72
     1
176
     1
 73
     1
176
     1
 90
        2
176
     1
 40
-0.6
176
     1
 41
30.0
176
     1
 62
     5
 63
     7
421
 16777215
176
     1
 74
     0
176
     1
 91
        4
176
     1
 64
     7
176
     1
 65
   257
176
     1
 75
     1
176
     1
175
     1
176
     1
 42
1.0
176
     1
 92
        8
176
     1
 66
     7
176
     1
 43
1.0
176
     1
 76
     1
176
     1
 77
     6
176
     1
 78
     2
176
     1
 67
     7
176
     1
 79
     5
176
     1
170
     0
176
     1
171
     0
176
     1
290
     0
176
     1
 93
       13
176
     1
 44
0.0
176
     1
173
     0
176
     1
  0
VISUALSTYLE
  5
2C
102
{ACAD_REACTORS
330
2A
102
}
330
2A
100
AcDbVisualStyle
  2
FlatWithEdges
 70
     1
177
     2
291
     1
 71
     2
176
     1
 72
     1
176
     1
 73
     1
176
     1
 90
        2
176
     1
 40
-0.6
176
     1
 41
30.0
176
     1
 62
     5
 63
     7
421
 16777215
176
     1
 74
     1
176
     1
 91
        4
176
     1
 64
     7
176
     1
 65
   257
176
     1
 75
     1
176
     1
175
     1
176
     1
 42
1.0
176
     1
 92
        0
176
     1
 66
   257
176
     1
 43
1.0
176
     1
 76
     1
176
     1
 77
     6
176
     1
 78
     2
176
     1
 67
     7
176
     1
 79
     5
176
     1
170
     0
176
     1
171
     0
176
     1
290
     0
176
     1
 93
       13
176
     1
 44
0.0
176
     1
173
     0
176
     1
  0
VISUALSTYLE
  5
2D
102
{ACAD_REACTORS
330
2A
102
}
330
2A
100
AcDbVisualStyle
  2
Gouraud
 70
     2
177
     2
291
     1
 71
     2
176
     1
 72
     2
176
     1
 73
     1
176
     1
 90
        2
176
     1
 40
-0.6
176
     1
 41
30.0
176
     1
 62
     5
 63
     7
421
 16777215
176
     1
 74
     0
176
     1
 91
        4
176
     1
 64
     7
176
     1
 65
   257
176
     1
 75
     1
176
     1
175
     1
176
     1
 42
1.0
176
     1
 92
        0
176
     1
 66
     7
176
     1
 43
1.0
176
     1
 76
     1
176
     1
 77
     6
176
     1
 78
     2
176
     1
 67
     7
176
     1
 79
     5
176
     1
170
     0
176
     1
171
     0
176
     1
290
     0
176
     1
 93
       13
176
     1
 44
0.0
176
     1
173
     0
176
     1
  0
VISUALSTYLE
  5
2E
102
{ACAD_REACTORS
330
2A
102
}
330
2A
100
AcDbVisualStyle
  2
GouraudWithEdges
 70
     3
177
     2
291
     1
 71
     2
176
     1
 72
     2
176
     1
 73
     1
176
     1
 90
        2
176
     1
 40
-0.6
176
     1
 41
30.0
176
     1
 62
     5
 63
     7
421
 16777215
176
     1
 74
     1
176
     1
 91
        4
176
     1
 64
     7
176
     1
 65
   257
176
     1
 75
     1
176
     1
175
     1
176
     1
 42
1.0
176
     1
 92
        0
176
     1
 66
   257
176
     1
 43
1.0
176
     1
 76
     1
176
     1
 77
     6
176
     1
 78
     2
176
     1
 67
     7
176
     1
 79
     5
176
     1
170
     0
176
     1
171
     0
176
     1
290
     0
176
     1
 93
       13
176
     1
 44
0.0
176
     1
173
     0
176
     1
  0
VISUALSTYLE
  5
38
102
{ACAD_REACTORS
330
2A
102
}
330
2A
100
AcDbVisualStyle
  2
Linepattern
 70
    14
177
     2
291
     1
 71
     2
176
     1
 72
     2
176
     1
 73
     0
176
     1
 90
        0
176
     1
 40
-0.6
176
     1
 41
-30.0
176
     1
 62
     5
 63
     7
421
 16777215
176
     1
 74
     1
176
     1
 91
        4
176
     1
 64
     7
176
     1
 65
   257
176
     1
 75
     7
176
     1
175
     7
176
     1
 42
1.0
176
     1
 92
        8
176
     1
 66
     7
176
     1
 43
1.0
176
     1
 76
     1
176
     1
 77
     6
176
     1
 78
     2
176
     1
 67
     7
176
     1
 79
     5
176
     1
170
     0
176
     1
171
     0
176
     1
290
     0
176
     1
 93
        1
176
     1
 44
0.0
176
     1
173
     0
176
     1
  0
VISUALSTYLE
  5
33
102
{ACAD_REACTORS
330
2A
102
}
330
2A
100
AcDbVisualStyle
  2
Realistic
 70
     8
177
     2
291
     0
 71
     2
176
     1
 72
     2
176
     1
 73
     0
176
     1
 90
        0
176
     1
 40
-0.6
176
     1
 41
-30.0
176
     1
 62
     5
 63
     7
421
 16777215
176
     1
 74
     1
176
     1
 91
        0
176
     1
 64
     7
176
     1
 65
   257
176
     1
 75
     1
176
     1
175
     1
176
     1
 42
1.0
176
     1
 92
        8
176
     1
 66
     8
424
  7895160
176
     1
 43
1.0
176
     1
 76
     1
176
     1
 77
     6
176
     1
 78
     2
176
     1
 67
     7
176
     1
 79
     5
176
     1
170
     0
176
     1
171
     0
176
     1
290
     0
176
     1
 93
       13
176
     1
 44
0.0
176
     1
173
     0
176
     1
  0
VISUALSTYLE
  5
37
102
{ACAD_REACTORS
330
2A
102
}
330
2A
100
AcDbVisualStyle
  2
Thicken
 70
    13
177
     2
291
     1
 71
     2
176
     1
 72
     2
176
     1
 73
     0
176
     1
 90
        0
176
     1
 40
-0.6
176
     1
 41
-30.0
176
     1
 62
     5
 63
     7
421
 16777215
176
     1
 74
     1
176
     1
 91
        4
176
     1
 64
     7
176
     1
 65
   257
176
     1
 75
     1
176
     1
175
     1
176
     1
 42
1.0
176
     1
 92
       12
176
     1
 66
     7
176
     1
 43
1.0
176
     1
 76
     1
176
     1
 77
     6
176
     1
 78
     2
176
     1
 67
     7
176
     1
 79
     5
176
     1
170
     0
176
     1
171
     0
176
     1
290
     0
176
     1
 93
        1
176
     1
 44
0.0
176
     1
173
     0
176
     1
  0
ENDSEC
  0
EOF
