  0
SECTION
  2
HEADER
  9
$ACADVER
  1
AC1024
  9
$ACADMAINTVER
 70
     6
  9
$DWGCODEPAGE
  3
UNDEFINED
  9
$INSBASE
 10
0.0
 20
0.0
 30
0.0
  9
$EXTMIN
 10
1.000000000000000E+20
 20
1.000000000000000E+20
 30
1.000000000000000E+20
  9
$EXTMAX
 10
-1.000000000000000E+20
 20
-1.000000000000000E+20
 30
-1.000000000000000E+20
  9
$LIMMIN
 10
0.0
 20
0.0
  9
$LIMMAX
 10
12.0
 20
9.0
  9
$ORTHOMODE
 70
     0
  9
$REGENMODE
 70
     1
  9
$FILLMODE
 70
     1
  9
$QTEXTMODE
 70
     0
  9
$MIRRTEXT
 70
     1
  9
$LTSCALE
 40
1.0
  9
$ATTMODE
 70
     1
  9
$TEXTSIZE
 40
0.2
  9
$TRACEWID
 40
0.05
  9
$TEXTSTYLE
  7
Standard
  9
$CLAYER
  8
0
  9
$CELTYPE
  6
ByLayer
  9
$CECOLOR
 62
   256
  9
$CELTSCALE
 40
1.0
  9
$DISPSILH
 70
     0
  9
$DIMSCALE
 40
1.0
  9
$DIMASZ
 40
0.18
  9
$DIMEXO
 40
0.0625
  9
$DIMDLI
 40
0.38
  9
$DIMRND
 40
0.0
  9
$DIMDLE
 40
0.0
  9
$DIMEXE
 40
0.18
  9
$DIMTP
 40
0.0
  9
$DIMTM
 40
0.0
  9
$DIMTXT
 40
0.18
  9
$DIMCEN
 40
0.09
  9
$DIMTSZ
 40
0.0
  9
$DIMTOL
 70
     0
  9
$DIMLIM
 70
     0
  9
$DIMTIH
 70
     1
  9
$DIMTOH
 70
     1
  9
$DIMSE1
 70
     0
  9
$DIMSE2
 70
     0
  9
$DIMTAD
 70
     0
  9
$DIMZIN
 70
     0
  9
$DIMBLK
  1

  9
$DIMASO
 70
     1
  9
$DIMSHO
 70
     1
  9
$DIMPOST
  1

  9
$DIMAPOST
  1

  9
$DIMALT
 70
     0
  9
$DIMALTD
 70
     2
  9
$DIMALTF
 40
25.4
  9
$DIMLFAC
 40
1.0
  9
$DIMTOFL
 70
     0
  9
$DIMTVP
 40
0.0
  9
$DIMTIX
 70
     0
  9
$DIMSOXD
 70
     0
  9
$DIMSAH
 70
     0
  9
$DIMBLK1
  1

  9
$DIMBLK2
  1

  9
$DIMSTYLE
  2
Standard
  9
$DIMCLRD
 70
     0
  9
$DIMCLRE
 70
     0
  9
$DIMCLRT
 70
     0
  9
$DIMTFAC
 40
1.0
  9
$DIMGAP
 40
0.09
  9
$DIMJUST
 70
     0
  9
$DIMSD1
 70
     0
  9
$DIMSD2
 70
     0
  9
$DIMTOLJ
 70
     1
  9
$DIMTZIN
 70
     0
  9
$DIMALTZ
 70
     0
  9
$DIMALTTZ
 70
     0
  9
$DIMUPT
 70
     0
  9
$DIMDEC
 70
     4
  9
$DIMTDEC
 70
     4
  9
$DIMALTU
 70
     2
  9
$DIMALTTD
 70
     2
  9
$DIMTXSTY
  7
Standard
  9
$DIMAUNIT
 70
     0
  9
$DIMADEC
 70
     0
  9
$DIMALTRND
 40
0.0
  9
$DIMAZIN
 70
     0
  9
$DIMDSEP
 70
    46
  9
$DIMATFIT
 70
     3
  9
$DIMFRAC
 70
     0
  9
$DIMLDRBLK
  1

  9
$DIMLUNIT
 70
     2
  9
$DIMLWD
 70
    -2
  9
$DIMLWE
 70
    -2
  9
$DIMTMOVE
 70
     0
  9
$DIMFXL
 40
1.0
  9
$DIMFXLON
 70
     0
  9
$DIMJOGANG
 40
0.7853981633974483
  9
$DIMTFILL
 70
     0
  9
$DIMTFILLCLR
 70
     0
  9
$DIMARCSYM
 70
     0
  9
$DIMLTYPE
  6

  9
$DIMLTEX1
  6

  9
$DIMLTEX2
  6

  9
$DIMTXTDIRECTION
 70
     0
  9
$LUNITS
 70
     2
  9
$LUPREC
 70
     4
  9
$SKETCHINC
 40
0.1
  9
$FILLETRAD
 40
0.5
  9
$AUNITS
 70
     0
  9
$AUPREC
 70
     0
  9
$MENU
  1
.
  9
$ELEVATION
 40
0.0
  9
$PELEVATION
 40
0.0
  9
$THICKNESS
 40
0.0
  9
$LIMCHECK
 70
     0
  9
$CHAMFERA
 40
0.5
  9
$CHAMFERB
 40
0.5
  9
$CHAMFERC
 40
1.0
  9
$CHAMFERD
 40
0.0
  9
$SKPOLY
 70
     0
  9
$TDCREATE
 40
2457917.594259259
  9
$TDUCREATE
 40
2457917.219259259
  9
$TDUPDATE
 40
2457917.594270822
  9
$TDUUPDATE
 40
2457917.219270833
  9
$TDINDWG
 40
0.0000000116
  9
$TDUSRTIMER
 40
0.0000000116
  9
$USRTIMER
 70
     1
  9
$ANGBASE
 50
0.0
  9
$ANGDIR
 70
     0
  9
$PDMODE
 70
     0
  9
$PDSIZE
 40
0.0
  9
$PLINEWID
 40
0.0
  9
$SPLFRAME
 70
     0
  9
$SPLINETYPE
 70
     6
  9
$SPLINESEGS
 70
     8
  9
$HANDSEED
  5
F8
  9
$SURFTAB1
 70
     6
  9
$SURFTAB2
 70
     6
  9
$SURFTYPE
 70
     6
  9
$SURFU
 70
     6
  9
$SURFV
 70
     6
  9
$UCSBASE
  2

  9
$UCSNAME
  2

  9
$UCSORG
 10
0.0
 20
0.0
 30
0.0
  9
$UCSXDIR
 10
1.0
 20
0.0
 30
0.0
  9
$UCSYDIR
 10
0.0
 20
1.0
 30
0.0
  9
$UCSORTHOREF
  2

  9
$UCSORTHOVIEW
 70
     0
  9
$UCSORGTOP
 10
0.0
 20
0.0
 30
0.0
  9
$UCSORGBOTTOM
 10
0.0
 20
0.0
 30
0.0
  9
$UCSORGLEFT
 10
0.0
 20
0.0
 30
0.0
  9
$UCSORGRIGHT
 10
0.0
 20
0.0
 30
0.0
  9
$UCSORGFRONT
 10
0.0
 20
0.0
 30
0.0
  9
$UCSORGBACK
 10
0.0
 20
0.0
 30
0.0
  9
$PUCSBASE
  2

  9
$PUCSNAME
  2

  9
$PUCSORG
 10
0.0
 20
0.0
 30
0.0
  9
$PUCSXDIR
 10
1.0
 20
0.0
 30
0.0
  9
$PUCSYDIR
 10
0.0
 20
1.0
 30
0.0
  9
$PUCSORTHOREF
  2

  9
$PUCSORTHOVIEW
 70
     0
  9
$PUCSORGTOP
 10
0.0
 20
0.0
 30
0.0
  9
$PUCSORGBOTTOM
 10
0.0
 20
0.0
 30
0.0
  9
$PUCSORGLEFT
 10
0.0
 20
0.0
 30
0.0
  9
$PUCSORGRIGHT
 10
0.0
 20
0.0
 30
0.0
  9
$PUCSORGFRONT
 10
0.0
 20
0.0
 30
0.0
  9
$PUCSORGBACK
 10
0.0
 20
0.0
 30
0.0
  9
$USERI1
 70
     0
  9
$USERI2
 70
     0
  9
$USERI3
 70
     0
  9
$USERI4
 70
     0
  9
$USERI5
 70
     0
  9
$USERR1
 40
0.0
  9
$USERR2
 40
0.0
  9
$USERR3
 40
0.0
  9
$USERR4
 40
0.0
  9
$USERR5
 40
0.0
  9
$WORLDVIEW
 70
     1
  9
$SHADEDGE
 70
     3
  9
$SHADEDIF
 70
    70
  9
$TILEMODE
 70
     1
  9
$MAXACTVP
 70
    64
  9
$PINSBASE
 10
0.0
 20
0.0
 30
0.0
  9
$PLIMCHECK
 70
     0
  9
$PEXTMIN
 10
1.000000000000000E+20
 20
1.000000000000000E+20
 30
1.000000000000000E+20
  9
$PEXTMAX
 10
-1.000000000000000E+20
 20
-1.000000000000000E+20
 30
-1.000000000000000E+20
  9
$PLIMMIN
 10
0.0
 20
0.0
  9
$PLIMMAX
 10
12.0
 20
9.0
  9
$UNITMODE
 70
     0
  9
$VISRETAIN
 70
     1
  9
$PLINEGEN
 70
     0
  9
$PSLTSCALE
 70
     1
  9
$TREEDEPTH
 70
  3020
  9
$CMLSTYLE
  2
Standard
  9
$CMLJUST
 70
     0
  9
$CMLSCALE
 40
1.0
  9
$PROXYGRAPHICS
 70
     1
  9
$MEASUREMENT
 70
     0
  9
$CELWEIGHT
370
    -1
  9
$ENDCAPS
280
     0
  9
$JOINSTYLE
280
     0
  9
$LWDISPLAY
290
     1
  9
$INSUNITS
 70
     1
  9
$HYPERLINKBASE
  1

  9
$STYLESHEET
  1

  9
$XEDIT
290
     1
  9
$CEPSNTYPE
380
     0
  9
$PSTYLEMODE
290
     1
  9
$FINGERPRINTGUID
  2
{68FD32DD-A1FD-8F8D-4B0D-E3BB4A5BDF25}
  9
$VERSIONGUID
  2
{FAEB1C32-E019-11D5-929B-00C0DF256EC4}
  9
$EXTNAMES
290
     1
  9
$PSVPSCALE
 40
0.0
  9
$OLESTARTUP
290
     0
  9
$SORTENTS
280
   127
  9
$INDEXCTL
280
     0
  9
$HIDETEXT
280
     1
  9
$XCLIPFRAME
280
     2
  9
$HALOGAP
280
     0
  9
$OBSCOLOR
 70
   257
  9
$OBSLTYPE
280
     0
  9
$INTERSECTIONDISPLAY
280
     0
  9
$INTERSECTIONCOLOR
 70
   257
  9
$DIMASSOC
280
     2
  9
$PROJECTNAME
  1

  9
$CAMERADISPLAY
290
     0
  9
$LENSLENGTH
 40
50.0
  9
$CAMERAHEIGHT
 40
0.0
  9
$STEPSPERSEC
 40
2.0
  9
$STEPSIZE
 40
6.0
  9
$3DDWFPREC
 40
2.0
  9
$PSOLWIDTH
 40
0.25
  9
$PSOLHEIGHT
 40
4.0
  9
$LOFTANG1
 40
1.570796326794897
  9
$LOFTANG2
 40
1.570796326794897
  9
$LOFTMAG1
 40
0.0
  9
$LOFTMAG2
 40
0.0
  9
$LOFTPARAM
 70
     7
  9
$LOFTNORMALS
280
     1
  9
$LATITUDE
 40
37.795
  9
$LONGITUDE
 40
-122.394
  9
$NORTHDIRECTION
 40
0.0
  9
$TIMEZONE
 70
 -8000
  9
$LIGHTGLYPHDISPLAY
280
     1
  9
$TILEMODELIGHTSYNCH
280
     1
  9
$CMATERIAL
347
3C
  9
$SOLIDHIST
280
     1
  9
$SHOWHIST
280
     1
  9
$DWFFRAME
280
     2
  9
$DGNFRAME
280
     2
  9
$REALWORLDSCALE
290
     1
  9
$INTERFERECOLOR
 62
   256
  9
$CSHADOW
280
     0
  9
$SHADOWPLANELOCATION
 40
0.0
  0
ENDSEC
  0
SECTION
  2
CLASSES
  0
CLASS
  1
ACDBDICTIONARYWDFLT
  2
AcDbDictionaryWithDefault
  3
ObjectDBX Classes
 90
        0
 91
        4
280
     0
281
     0
  0
CLASS
  1
VISUALSTYLE
  2
AcDbVisualStyle
  3
ObjectDBX Classes
 90
     4095
 91
        4
280
     0
281
     0
  0
CLASS
  1
MATERIAL
  2
AcDbMaterial
  3
ObjectDBX Classes
 90
     1153
 91
        4
280
     0
281
     0
  0
CLASS
  1
SUN
  2
AcDbSun
  3
SCENEOE
 90
     1024
 91
        4
280
     0
281
     0
  0
ENDSEC
  0
SECTION
  2
TABLES
  0
TABLE
  2
VPORT
  5
8
330
0
100
AcDbSymbolTable
 70
     1
  0
VPORT
  5
29
330
8
100
AcDbSymbolTableRecord
100
AcDbViewportTableRecord
  2
*Active
 70
     0
 10
0.0
 20
0.0
 11
1.0
 21
1.0
 12
0.0
 22
0.0
 13
0.0
 23
0.0
 14
0.5
 24
0.5
 15
0.5
 25
0.5
 16
0.0
 26
0.0
 36
1.0
 17
91.00082462281999
 27
-128.4993055234307
 37
0.0
 40
256.9986110468615
 41
0.7081814508812795
 42
50.0
 43
0.0
 44
0.0
 50
0.0
 51
0.0
 71
     0
 72
   100
 73
     1
 74
     3
 75
     0
 76
     0
 77
     0
 78
     0
281
     0
 65
     1
110
0.0
120
0.0
130
0.0
111
1.0
121
0.0
131
0.0
112
0.0
122
1.0
132
0.0
 79
     0
146
0.0
 60
     3
 61
     5
292
     1
282
     1
141
0.0
142
0.0
 63
   250
361
3F
  0
ENDTAB
  0
TABLE
  2
LTYPE
  5
5
330
0
100
AcDbSymbolTable
 70
     1
  0
LTYPE
  5
14
330
5
100
AcDbSymbolTableRecord
100
AcDbLinetypeTableRecord
  2
ByBlock
 70
     0
  3

 72
    65
 73
     0
 40
0.0
  0
LTYPE
  5
15
330
5
100
AcDbSymbolTableRecord
100
AcDbLinetypeTableRecord
  2
ByLayer
 70
     0
  3

 72
    65
 73
     0
 40
0.0
  0
LTYPE
  5
16
330
5
100
AcDbSymbolTableRecord
100
AcDbLinetypeTableRecord
  2
Continuous
 70
     0
  3
Solid line
 72
    65
 73
     0
 40
0.0
  0
ENDTAB
  0
TABLE
  2
LAYER
  5
2
330
0
100
AcDbSymbolTable
 70
     2
  0
LAYER
  5
10
330
2
100
AcDbSymbolTableRecord
100
AcDbLayerTableRecord
  2
0
 70
     0
 62
     7
  6
Continuous
370
    -3
390
F
347
3E
  0
LAYER
  5
40
330
2
100
AcDbSymbolTableRecord
100
AcDbLayerTableRecord
  2
_U+30EC_U+30A4_U+30E4_U+30FC 1
 70
     0
 62
     7
  6
Continuous
370
    -3
390
F
347
3E
  0
ENDTAB
  0
TABLE
  2
STYLE
  5
3
330
0
100
AcDbSymbolTable
 70
     1
  0
STYLE
  5
11
330
3
100
AcDbSymbolTableRecord
100
AcDbTextStyleTableRecord
  2
Standard
 70
     0
 40
0.0
 41
1.0
 50
0.0
 71
     0
 42
0.2
  3
txt
  4

  0
ENDTAB
  0
TABLE
  2
VIEW
  5
6
330
0
100
AcDbSymbolTable
 70
     0
  0
ENDTAB
  0
TABLE
  2
UCS
  5
7
330
0
100
AcDbSymbolTable
 70
     0
  0
ENDTAB
  0
TABLE
  2
APPID
  5
9
330
0
100
AcDbSymbolTable
 70
     1
  0
APPID
  5
12
330
9
100
AcDbSymbolTableRecord
100
AcDbRegAppTableRecord
  2
ACAD
 70
     0
  0
ENDTAB
  0
TABLE
  2
DIMSTYLE
  5
A
330
0
100
AcDbSymbolTable
 70
     1
100
AcDbDimStyleTable
  0
DIMSTYLE
105
27
330
A
100
AcDbSymbolTableRecord
100
AcDbDimStyleTableRecord
  2
Standard
 70
     0
178
     0
340
11
  0
ENDTAB
  0
TABLE
  2
BLOCK_RECORD
  5
1
330
0
100
AcDbSymbolTable
 70
     7
  0
BLOCK_RECORD
  5
1F
330
1
100
AcDbSymbolTableRecord
100
AcDbBlockTableRecord
  2
*Model_Space
340
22
 70
     0
280
     1
281
     0
  0
BLOCK_RECORD
  5
1B
330
1
100
AcDbSymbolTableRecord
100
AcDbBlockTableRecord
  2
*Paper_Space
340
1E
 70
     0
280
     1
281
     0
  0
BLOCK_RECORD
  5
23
330
1
100
AcDbSymbolTableRecord
100
AcDbBlockTableRecord
  2
*Paper_Space0
340
26
 70
     0
280
     1
281
     0
  0
BLOCK_RECORD
  5
59
330
1
100
AcDbSymbolTableRecord
100
AcDbBlockTableRecord
  2
block 2
340
0
102
{BLKREFS
331
5A
102
}
 70
     0
280
     1
281
     0
  0
BLOCK_RECORD
  5
6D
330
1
100
AcDbSymbolTableRecord
100
AcDbBlockTableRecord
  2
block 3
340
0
102
{BLKREFS
331
6E
102
}
 70
     0
280
     1
281
     0
  0
BLOCK_RECORD
  5
87
330
1
100
AcDbSymbolTableRecord
100
AcDbBlockTableRecord
  2
block 4
340
0
102
{BLKREFS
331
88
102
}
 70
     0
280
     1
281
     0
  0
BLOCK_RECORD
  5
A0
330
1
100
AcDbSymbolTableRecord
100
AcDbBlockTableRecord
  2
block 5
340
0
102
{BLKREFS
331
A1
102
}
 70
     0
280
     1
281
     0
  0
BLOCK_RECORD
  5
B2
330
1
100
AcDbSymbolTableRecord
100
AcDbBlockTableRecord
  2
block 6
340
0
102
{BLKREFS
331
B3
102
}
 70
     0
280
     1
281
     0
  0
BLOCK_RECORD
  5
C4
330
1
100
AcDbSymbolTableRecord
100
AcDbBlockTableRecord
  2
block 7
340
0
102
{BLKREFS
331
C5
102
}
 70
     0
280
     1
281
     0
  0
ENDTAB
  0
ENDSEC
  0
SECTION
  2
BLOCKS
  0
BLOCK
  5
20
330
1F
100
AcDbEntity
  8
0
100
AcDbBlockBegin
  2
*Model_Space
 70
     0
 10
0.0
 20
0.0
 30
0.0
  3
*Model_Space
  1

  0
ENDBLK
  5
21
330
1F
100
AcDbEntity
  8
0
100
AcDbBlockEnd
  0
BLOCK
  5
1C
330
1B
100
AcDbEntity
 67
     1
  8
0
100
AcDbBlockBegin
  2
*Paper_Space
 70
     0
 10
0.0
 20
0.0
 30
0.0
  3
*Paper_Space
  1

  0
ENDBLK
  5
1D
330
1B
100
AcDbEntity
 67
     1
  8
0
100
AcDbBlockEnd
  0
BLOCK
  5
24
330
23
100
AcDbEntity
  8
0
100
AcDbBlockBegin
  2
*Paper_Space0
 70
     0
 10
0.0
 20
0.0
 30
0.0
  3
*Paper_Space0
  1

  0
ENDBLK
  5
25
330
23
100
AcDbEntity
  8
0
100
AcDbBlockEnd
  0
BLOCK
  5
5B
330
59
100
AcDbEntity
  8
0
100
AcDbBlockBegin
  2
block 2
 70
     0
 10
0.0
 20
0.0
 30
0.0
  3
block 2
  1

  0
SPLINE
  5
5D
330
59
100
AcDbEntity
  8
_U+30EC_U+30A4_U+30E4_U+30FC 1
370
     0
100
AcDbSpline
210
0.0
220
0.0
230
1.0
 70
    11
 71
     3
 72
    29
 73
    25
 74
     0
 42
0.0000000001
 43
0.0000000001
 12
1.0
 22
0.0
 32
0.0
 13
1.0
 23
0.0
 33
0.0
 40
0.0
 40
0.0
 40
0.0
 40
0.0
 40
1.0
 40
1.0
 40
1.0
 40
2.0
 40
2.0
 40
2.0
 40
3.0
 40
3.0
 40
3.0
 40
4.0
 40
4.0
 40
4.0
 40
5.0
 40
5.0
 40
5.0
 40
6.0
 40
6.0
 40
6.0
 40
7.0
 40
7.0
 40
7.0
 40
8.0
 40
8.0
 40
8.0
 40
8.0
 10
85.91051837044945
 20
-117.2269530956933
 30
0.0
 10
85.64404023466538
 20
-117.2269530956933
 30
0.0
 10
85.39013669740247
 20
-117.0893215310575
 30
0.0
 10
85.39013669740247
 20
-116.7403333584017
 30
0.0
 10
85.39013669740247
 20
-116.4843627638477
 30
0.0
 10
85.5319023766205
 20
-116.3891058736805
 30
0.0
 10
85.63766680801767
 20
-116.3277831740431
 30
0.0
 10
85.51278209667737
 20
-116.2685275316968
 30
0.0
 10
85.43664548645334
 20
-116.1543226163607
 30
0.0
 10
85.43664548645334
 20
-115.9936089119738
 30
0.0
 10
85.43664548645334
 20
-115.7185180374766
 30
0.0
 10
85.63559975072653
 20
-115.5831257849063
 30
0.0
 10
85.91051837044945
 20
-115.5831257849063
 30
0.0
 10
86.19404972888552
 20
-115.5831257849063
 30
0.0
 10
86.38439125444557
 20
-115.7269585214155
 30
0.0
 10
86.38439125444557
 20
-115.9936089119738
 30
0.0
 10
86.38439125444557
 20
-116.1543226163607
 30
0.0
 10
86.3061875869304
 20
-116.2685275316968
 30
0.0
 10
86.18130287559009
 20
-116.3277831740431
 30
0.0
 10
86.27018633910954
 20
-116.3785983324505
 30
0.0
 10
86.4288329862053
 20
-116.4738552226177
 30
0.0
 10
86.4288329862053
 20
-116.7360269890452
 30
0.0
 10
86.4288329862053
 20
-117.1105088682918
 30
0.0
 10
86.1496079971258
 20
-117.2269530956933
 30
0.0
 10
85.91051837044945
 20
-117.2269530956933
 30
0.0
  0
SPLINE
  5
5E
330
59
100
AcDbEntity
  8
_U+30EC_U+30A4_U+30E4_U+30FC 1
370
     0
100
AcDbSpline
210
0.0
220
0.0
230
1.0
 70
    11
 71
     3
 72
    17
 73
    13
 74
     0
 42
0.0000000001
 43
0.0000000001
 12
1.0
 22
0.0
 32
0.0
 13
1.0
 23
0.0
 33
0.0
 40
0.0
 40
0.0
 40
0.0
 40
0.0
 40
1.0
 40
1.0
 40
1.0
 40
2.0
 40
2.0
 40
2.0
 40
3.0
 40
3.0
 40
3.0
 40
4.0
 40
4.0
 40
4.0
 40
4.0
 10
85.91051837044945
 20
-116.4357869175056
 30
0.0
 10
85.76668563394027
 20
-116.4357869175056
 30
0.0
 10
85.61441241349223
 20
-116.5224310689597
 30
0.0
 10
85.61441241349223
 20
-116.7255194478152
 30
0.0
 10
85.61441241349223
 20
-116.9306748839618
 30
0.0
 10
85.74136418212369
 20
-117.0323052007766
 30
0.0
 10
85.91051837044945
 20
-117.0323052007766
 30
0.0
 10
86.09672578142721
 20
-117.0323052007766
 30
0.0
 10
86.20679658218094
 20
-116.9096598015018
 30
0.0
 10
86.20679658218094
 20
-116.7318928744629
 30
0.0
 10
86.20679658218094
 20
-116.5096842156643
 30
0.0
 10
86.04384356572862
 20
-116.4357869175056
 30
0.0
 10
85.91051837044945
 20
-116.4357869175056
 30
0.0
  0
SPLINE
  5
5F
330
59
100
AcDbEntity
  8
_U+30EC_U+30A4_U+30E4_U+30FC 1
370
     0
100
AcDbSpline
210
0.0
220
0.0
230
1.0
 70
    11
 71
     3
 72
    17
 73
    13
 74
     0
 42
0.0000000001
 43
0.0000000001
 12
1.0
 22
0.0
 32
0.0
 13
1.0
 23
0.0
 33
0.0
 40
0.0
 40
0.0
 40
0.0
 40
0.0
 40
1.0
 40
1.0
 40
1.0
 40
2.0
 40
2.0
 40
2.0
 40
3.0
 40
3.0
 40
3.0
 40
4.0
 40
4.0
 40
4.0
 40
4.0
 10
85.91051837044945
 20
-115.7757066225318
 30
0.0
 10
85.74549829670599
 20
-115.7757066225318
 30
0.0
 10
85.66092120254311
 20
-115.8707912579247
 30
0.0
 10
85.66092120254311
 20
-116.006183510495
 30
0.0
 10
85.66092120254311
 20
-116.1290011645441
 30
0.0
 10
85.73292369818483
 20
-116.2475124492367
 30
0.0
 10
85.91051837044945
 20
-116.2475124492367
 30
0.0
 10
86.08828529748835
 20
-116.2475124492367
 30
0.0
 10
86.16011553835581
 20
-116.1290011645441
 30
0.0
 10
86.16011553835581
 20
-116.006183510495
 30
0.0
 10
86.16011553835581
 20
-115.8707912579247
 30
0.0
 10
86.07347138690177
 20
-115.7757066225318
 30
0.0
 10
85.91051837044945
 20
-115.7757066225318
 30
0.0
  0
HATCH
  5
60
330
59
100
AcDbEntity
  8
_U+30EC_U+30A4_U+30E4_U+30FC 1
 62
   179
420
  2234388
100
AcDbHatch
 10
0.0
 20
0.0
 30
0.0
210
0.0
220
0.0
230
1.0
  2
SOLID
 70
     1
 71
     0
 91
        3
 92
        1
 93
        1
 72
     4
 94
        3
 73
     0
 74
     1
 95
       29
 96
       25
 40
0.0
 40
0.0
 40
0.0
 40
0.0
 40
1.0
 40
1.0
 40
1.0
 40
2.0
 40
2.0
 40
2.0
 40
3.0
 40
3.0
 40
3.0
 40
4.0
 40
4.0
 40
4.0
 40
5.0
 40
5.0
 40
5.0
 40
6.0
 40
6.0
 40
6.0
 40
7.0
 40
7.0
 40
7.0
 40
8.0
 40
8.0
 40
8.0
 40
8.0
 10
85.91051837044945
 20
-117.2269530956933
 10
85.64404023466538
 20
-117.2269530956933
 10
85.39013669740247
 20
-117.0893215310575
 10
85.39013669740247
 20
-116.7403333584017
 10
85.39013669740247
 20
-116.4843627638477
 10
85.5319023766205
 20
-116.3891058736805
 10
85.63766680801767
 20
-116.3277831740431
 10
85.51278209667737
 20
-116.2685275316968
 10
85.43664548645334
 20
-116.1543226163607
 10
85.43664548645334
 20
-115.9936089119738
 10
85.43664548645334
 20
-115.7185180374766
 10
85.63559975072653
 20
-115.5831257849063
 10
85.91051837044945
 20
-115.5831257849063
 10
86.19404972888552
 20
-115.5831257849063
 10
86.38439125444557
 20
-115.7269585214155
 10
86.38439125444557
 20
-115.9936089119738
 10
86.38439125444557
 20
-116.1543226163607
 10
86.3061875869304
 20
-116.2685275316968
 10
86.18130287559009
 20
-116.3277831740431
 10
86.27018633910954
 20
-116.3785983324505
 10
86.4288329862053
 20
-116.4738552226177
 10
86.4288329862053
 20
-116.7360269890452
 10
86.4288329862053
 20
-117.1105088682918
 10
86.1496079971258
 20
-117.2269530956933
 10
85.91051837044945
 20
-117.2269530956933
 97
        0
 97
        0
 92
        1
 93
        1
 72
     4
 94
        3
 73
     0
 74
     1
 95
       17
 96
       13
 40
0.0
 40
0.0
 40
0.0
 40
0.0
 40
1.0
 40
1.0
 40
1.0
 40
2.0
 40
2.0
 40
2.0
 40
3.0
 40
3.0
 40
3.0
 40
4.0
 40
4.0
 40
4.0
 40
4.0
 10
85.91051837044945
 20
-116.4357869175056
 10
85.76668563394027
 20
-116.4357869175056
 10
85.61441241349223
 20
-116.5224310689597
 10
85.61441241349223
 20
-116.7255194478152
 10
85.61441241349223
 20
-116.9306748839618
 10
85.74136418212369
 20
-117.0323052007766
 10
85.91051837044945
 20
-117.0323052007766
 10
86.09672578142721
 20
-117.0323052007766
 10
86.20679658218094
 20
-116.9096598015018
 10
86.20679658218094
 20
-116.7318928744629
 10
86.20679658218094
 20
-116.5096842156643
 10
86.04384356572862
 20
-116.4357869175056
 10
85.91051837044945
 20
-116.4357869175056
 97
        0
 97
        0
 92
        1
 93
        1
 72
     4
 94
        3
 73
     0
 74
     1
 95
       17
 96
       13
 40
0.0
 40
0.0
 40
0.0
 40
0.0
 40
1.0
 40
1.0
 40
1.0
 40
2.0
 40
2.0
 40
2.0
 40
3.0
 40
3.0
 40
3.0
 40
4.0
 40
4.0
 40
4.0
 40
4.0
 10
85.91051837044945
 20
-115.7757066225318
 10
85.74549829670599
 20
-115.7757066225318
 10
85.66092120254311
 20
-115.8707912579247
 10
85.66092120254311
 20
-116.006183510495
 10
85.66092120254311
 20
-116.1290011645441
 10
85.73292369818483
 20
-116.2475124492367
 10
85.91051837044945
 20
-116.2475124492367
 10
86.08828529748835
 20
-116.2475124492367
 10
86.16011553835581
 20
-116.1290011645441
 10
86.16011553835581
 20
-116.006183510495
 10
86.16011553835581
 20
-115.8707912579247
 10
86.07347138690177
 20
-115.7757066225318
 10
85.91051837044945
 20
-115.7757066225318
 97
        0
 97
        0
 75
     2
 76
     1
 98
        0
  0
ENDBLK
  5
5C
330
59
100
AcDbEntity
  8
0
100
AcDbBlockEnd
  0
BLOCK
  5
6F
330
6D
100
AcDbEntity
  8
0
100
AcDbBlockBegin
  2
block 3
 70
     0
 10
0.0
 20
0.0
 30
0.0
  3
block 3
  1

  0
SPLINE
  5
71
330
6D
100
AcDbEntity
  8
_U+30EC_U+30A4_U+30E4_U+30FC 1
370
     0
100
AcDbSpline
210
0.0
220
0.0
230
1.0
 70
    11
 71
     3
 72
    26
 73
    22
 74
     0
 42
0.0000000001
 43
0.0000000001
 12
1.0
 22
0.0
 32
0.0
 13
1.0
 23
0.0
 33
0.0
 40
0.0
 40
0.0
 40
0.0
 40
0.0
 40
1.0
 40
1.0
 40
1.0
 40
2.0
 40
2.0
 40
2.0
 40
3.0
 40
3.0
 40
3.0
 40
4.0
 40
4.0
 40
4.0
 40
5.0
 40
5.0
 40
5.0
 40
6.0
 40
6.0
 40
6.0
 40
7.0
 40
7.0
 40
7.0
 40
7.0
 10
90.19535588022895
 20
-140.1761121611365
 30
0.0
 10
90.19535588022895
 20
-140.1761121611365
 30
0.0
 10
90.19535588022895
 20
-139.0719590581139
 30
0.0
 10
90.19535588022895
 20
-139.0719590581139
 30
0.0
 10
90.19535588022895
 20
-139.0719590581139
 30
0.0
 10
89.865315732742
 20
-139.0719590581139
 30
0.0
 10
89.865315732742
 20
-139.0719590581139
 30
0.0
 10
89.865315732742
 20
-139.0719590581139
 30
0.0
 10
89.865315732742
 20
-138.9238199522482
 30
0.0
 10
89.865315732742
 20
-138.9238199522482
 30
0.0
 10
90.19742293752009
 20
-138.9090060416617
 30
0.0
 10
90.24393172657096
 20
-138.7460530252093
 30
0.0
 10
90.27355954774411
 20
-138.631675855099
 30
0.0
 10
90.27355954774411
 20
-138.631675855099
 30
0.0
 10
90.41963159631871
 20
-138.631675855099
 30
0.0
 10
90.41963159631871
 20
-138.631675855099
 30
0.0
 10
90.41963159631871
 20
-138.631675855099
 30
0.0
 10
90.41963159631871
 20
-140.1761121611365
 30
0.0
 10
90.41963159631871
 20
-140.1761121611365
 30
0.0
 10
90.41963159631871
 20
-140.1761121611365
 30
0.0
 10
90.19535588022895
 20
-140.1761121611365
 30
0.0
 10
90.19535588022895
 20
-140.1761121611365
 30
0.0
  0
HATCH
  5
72
330
6D
100
AcDbEntity
  8
_U+30EC_U+30A4_U+30E4_U+30FC 1
 62
   179
420
  2234388
100
AcDbHatch
 10
0.0
 20
0.0
 30
0.0
210
0.0
220
0.0
230
1.0
  2
SOLID
 70
     1
 71
     0
 91
        1
 92
        1
 93
        1
 72
     4
 94
        3
 73
     0
 74
     1
 95
       26
 96
       22
 40
0.0
 40
0.0
 40
0.0
 40
0.0
 40
1.0
 40
1.0
 40
1.0
 40
2.0
 40
2.0
 40
2.0
 40
3.0
 40
3.0
 40
3.0
 40
4.0
 40
4.0
 40
4.0
 40
5.0
 40
5.0
 40
5.0
 40
6.0
 40
6.0
 40
6.0
 40
7.0
 40
7.0
 40
7.0
 40
7.0
 10
90.19535588022895
 20
-140.1761121611365
 10
90.19535588022895
 20
-140.1761121611365
 10
90.19535588022895
 20
-139.0719590581139
 10
90.19535588022895
 20
-139.0719590581139
 10
90.19535588022895
 20
-139.0719590581139
 10
89.865315732742
 20
-139.0719590581139
 10
89.865315732742
 20
-139.0719590581139
 10
89.865315732742
 20
-139.0719590581139
 10
89.865315732742
 20
-138.9238199522482
 10
89.865315732742
 20
-138.9238199522482
 10
90.19742293752009
 20
-138.9090060416617
 10
90.24393172657096
 20
-138.7460530252093
 10
90.27355954774411
 20
-138.631675855099
 10
90.27355954774411
 20
-138.631675855099
 10
90.41963159631871
 20
-138.631675855099
 10
90.41963159631871
 20
-138.631675855099
 10
90.41963159631871
 20
-138.631675855099
 10
90.41963159631871
 20
-140.1761121611365
 10
90.41963159631871
 20
-140.1761121611365
 10
90.41963159631871
 20
-140.1761121611365
 10
90.19535588022895
 20
-140.1761121611365
 10
90.19535588022895
 20
-140.1761121611365
 97
        0
 97
        0
 75
     2
 76
     1
 98
        0
  0
SPLINE
  5
73
330
6D
100
AcDbEntity
  8
_U+30EC_U+30A4_U+30E4_U+30FC 1
370
     0
100
AcDbSpline
210
0.0
220
0.0
230
1.0
 70
    11
 71
     3
 72
    29
 73
    25
 74
     0
 42
0.0000000001
 43
0.0000000001
 12
1.0
 22
0.0
 32
0.0
 13
1.0
 23
0.0
 33
0.0
 40
0.0
 40
0.0
 40
0.0
 40
0.0
 40
1.0
 40
1.0
 40
1.0
 40
2.0
 40
2.0
 40
2.0
 40
3.0
 40
3.0
 40
3.0
 40
4.0
 40
4.0
 40
4.0
 40
5.0
 40
5.0
 40
5.0
 40
6.0
 40
6.0
 40
6.0
 40
7.0
 40
7.0
 40
7.0
 40
8.0
 40
8.0
 40
8.0
 40
8.0
 10
91.42077634433231
 20
-140.2267550647697
 30
0.0
 10
91.15412595377397
 20
-140.2267550647697
 30
0.0
 10
90.90056692605958
 20
-140.0892957549082
 30
0.0
 10
90.90056692605958
 20
-139.7403075822524
 30
0.0
 10
90.90056692605958
 20
-139.4843369876984
 30
0.0
 10
91.04216035050335
 20
-139.3892523523055
 30
0.0
 10
91.14792478190053
 20
-139.327929652668
 30
0.0
 10
91.02321232533448
 20
-139.2686740103217
 30
0.0
 10
90.94707571511046
 20
-139.1542968402114
 30
0.0
 10
90.94707571511046
 20
-138.9934108810503
 30
0.0
 10
90.94707571511046
 20
-138.7184922613273
 30
0.0
 10
91.14585772460937
 20
-138.583100008757
 30
0.0
 10
91.42077634433231
 20
-138.583100008757
 30
0.0
 10
91.70430770276838
 20
-138.583100008757
 30
0.0
 10
91.89482148310269
 20
-138.7271050000404
 30
0.0
 10
91.89482148310269
 20
-138.9934108810503
 30
0.0
 10
91.89482148310269
 20
-139.1542968402114
 30
0.0
 10
91.816273306039
 20
-139.2686740103217
 30
0.0
 10
91.69156084947295
 20
-139.327929652668
 30
0.0
 10
91.78044431299239
 20
-139.3785725563012
 30
0.0
 10
91.93926321486241
 20
-139.4736571916941
 30
0.0
 10
91.93926321486241
 20
-139.7361734676701
 30
0.0
 10
91.93926321486241
 20
-140.1106553469168
 30
0.0
 10
91.65986597100864
 20
-140.2267550647697
 30
0.0
 10
91.42077634433231
 20
-140.2267550647697
 30
0.0
  0
SPLINE
  5
74
330
6D
100
AcDbEntity
  8
_U+30EC_U+30A4_U+30E4_U+30FC 1
370
     0
100
AcDbSpline
210
0.0
220
0.0
230
1.0
 70
    11
 71
     3
 72
    17
 73
    13
 74
     0
 42
0.0000000001
 43
0.0000000001
 12
1.0
 22
0.0
 32
0.0
 13
1.0
 23
0.0
 33
0.0
 40
0.0
 40
0.0
 40
0.0
 40
0.0
 40
1.0
 40
1.0
 40
1.0
 40
2.0
 40
2.0
 40
2.0
 40
3.0
 40
3.0
 40
3.0
 40
4.0
 40
4.0
 40
4.0
 40
4.0
 10
91.42077634433231
 20
-139.4357611413564
 30
0.0
 10
91.2771158625974
 20
-139.4357611413564
 30
0.0
 10
91.12449813260082
 20
-139.5225775475846
 30
0.0
 10
91.12449813260082
 20
-139.7254936716658
 30
0.0
 10
91.12449813260082
 20
-139.9308213625868
 30
0.0
 10
91.25162215600655
 20
-140.0321071698531
 30
0.0
 10
91.42077634433231
 20
-140.0321071698531
 30
0.0
 10
91.6068115005358
 20
-140.0321071698531
 30
0.0
 10
91.7170545560638
 20
-139.9094617705782
 30
0.0
 10
91.7170545560638
 20
-139.7316948435393
 30
0.0
 10
91.7170545560638
 20
-139.5098306942892
 30
0.0
 10
91.55410153961148
 20
-139.4357611413564
 30
0.0
 10
91.42077634433231
 20
-139.4357611413564
 30
0.0
  0
SPLINE
  5
75
330
6D
100
AcDbEntity
  8
_U+30EC_U+30A4_U+30E4_U+30FC 1
370
     0
100
AcDbSpline
210
0.0
220
0.0
230
1.0
 70
    11
 71
     3
 72
    17
 73
    13
 74
     0
 42
0.0000000001
 43
0.0000000001
 12
1.0
 22
0.0
 32
0.0
 13
1.0
 23
0.0
 33
0.0
 40
0.0
 40
0.0
 40
0.0
 40
0.0
 40
1.0
 40
1.0
 40
1.0
 40
2.0
 40
2.0
 40
2.0
 40
3.0
 40
3.0
 40
3.0
 40
4.0
 40
4.0
 40
4.0
 40
4.0
 10
91.42077634433231
 20
-138.7756808463825
 30
0.0
 10
91.25575627058885
 20
-138.7756808463825
 30
0.0
 10
91.17135143120022
 20
-138.8707654817754
 30
0.0
 10
91.17135143120022
 20
-139.0061577343457
 30
0.0
 10
91.17135143120022
 20
-139.1288031336206
 30
0.0
 10
91.24300941729342
 20
-139.2473144183132
 30
0.0
 10
91.42077634433231
 20
-139.2473144183132
 30
0.0
 10
91.5985432713712
 20
-139.2473144183132
 30
0.0
 10
91.67054576701292
 20
-139.1288031336206
 30
0.0
 10
91.67054576701292
 20
-139.0061577343457
 30
0.0
 10
91.67054576701292
 20
-138.8707654817754
 30
0.0
 10
91.58372936078463
 20
-138.7756808463825
 30
0.0
 10
91.42077634433231
 20
-138.7756808463825
 30
0.0
  0
HATCH
  5
76
330
6D
100
AcDbEntity
  8
_U+30EC_U+30A4_U+30E4_U+30FC 1
 62
   179
420
  2234388
100
AcDbHatch
 10
0.0
 20
0.0
 30
0.0
210
0.0
220
0.0
230
1.0
  2
SOLID
 70
     1
 71
     0
 91
        3
 92
        1
 93
        1
 72
     4
 94
        3
 73
     0
 74
     1
 95
       29
 96
       25
 40
0.0
 40
0.0
 40
0.0
 40
0.0
 40
1.0
 40
1.0
 40
1.0
 40
2.0
 40
2.0
 40
2.0
 40
3.0
 40
3.0
 40
3.0
 40
4.0
 40
4.0
 40
4.0
 40
5.0
 40
5.0
 40
5.0
 40
6.0
 40
6.0
 40
6.0
 40
7.0
 40
7.0
 40
7.0
 40
8.0
 40
8.0
 40
8.0
 40
8.0
 10
91.42077634433231
 20
-140.2267550647697
 10
91.15412595377397
 20
-140.2267550647697
 10
90.90056692605958
 20
-140.0892957549082
 10
90.90056692605958
 20
-139.7403075822524
 10
90.90056692605958
 20
-139.4843369876984
 10
91.04216035050335
 20
-139.3892523523055
 10
91.14792478190053
 20
-139.327929652668
 10
91.02321232533448
 20
-139.2686740103217
 10
90.94707571511046
 20
-139.1542968402114
 10
90.94707571511046
 20
-138.9934108810503
 10
90.94707571511046
 20
-138.7184922613273
 10
91.14585772460937
 20
-138.583100008757
 10
91.42077634433231
 20
-138.583100008757
 10
91.70430770276838
 20
-138.583100008757
 10
91.89482148310269
 20
-138.7271050000404
 10
91.89482148310269
 20
-138.9934108810503
 10
91.89482148310269
 20
-139.1542968402114
 10
91.816273306039
 20
-139.2686740103217
 10
91.69156084947295
 20
-139.327929652668
 10
91.78044431299239
 20
-139.3785725563012
 10
91.93926321486241
 20
-139.4736571916941
 10
91.93926321486241
 20
-139.7361734676701
 10
91.93926321486241
 20
-140.1106553469168
 10
91.65986597100864
 20
-140.2267550647697
 10
91.42077634433231
 20
-140.2267550647697
 97
        0
 97
        0
 92
        1
 93
        1
 72
     4
 94
        3
 73
     0
 74
     1
 95
       17
 96
       13
 40
0.0
 40
0.0
 40
0.0
 40
0.0
 40
1.0
 40
1.0
 40
1.0
 40
2.0
 40
2.0
 40
2.0
 40
3.0
 40
3.0
 40
3.0
 40
4.0
 40
4.0
 40
4.0
 40
4.0
 10
91.42077634433231
 20
-139.4357611413564
 10
91.2771158625974
 20
-139.4357611413564
 10
91.12449813260082
 20
-139.5225775475846
 10
91.12449813260082
 20
-139.7254936716658
 10
91.12449813260082
 20
-139.9308213625868
 10
91.25162215600655
 20
-140.0321071698531
 10
91.42077634433231
 20
-140.0321071698531
 10
91.6068115005358
 20
-140.0321071698531
 10
91.7170545560638
 20
-139.9094617705782
 10
91.7170545560638
 20
-139.7316948435393
 10
91.7170545560638
 20
-139.5098306942892
 10
91.55410153961148
 20
-139.4357611413564
 10
91.42077634433231
 20
-139.4357611413564
 97
        0
 97
        0
 92
        1
 93
        1
 72
     4
 94
        3
 73
     0
 74
     1
 95
       17
 96
       13
 40
0.0
 40
0.0
 40
0.0
 40
0.0
 40
1.0
 40
1.0
 40
1.0
 40
2.0
 40
2.0
 40
2.0
 40
3.0
 40
3.0
 40
3.0
 40
4.0
 40
4.0
 40
4.0
 40
4.0
 10
91.42077634433231
 20
-138.7756808463825
 10
91.25575627058885
 20
-138.7756808463825
 10
91.17135143120022
 20
-138.8707654817754
 10
91.17135143120022
 20
-139.0061577343457
 10
91.17135143120022
 20
-139.1288031336206
 10
91.24300941729342
 20
-139.2473144183132
 10
91.42077634433231
 20
-139.2473144183132
 10
91.5985432713712
 20
-139.2473144183132
 10
91.67054576701292
 20
-139.1288031336206
 10
91.67054576701292
 20
-139.0061577343457
 10
91.67054576701292
 20
-138.8707654817754
 10
91.58372936078463
 20
-138.7756808463825
 10
91.42077634433231
 20
-138.7756808463825
 97
        0
 97
        0
 75
     2
 76
     1
 98
        0
  0
ENDBLK
  5
70
330
6D
100
AcDbEntity
  8
0
100
AcDbBlockEnd
  0
BLOCK
  5
89
330
87
100
AcDbEntity
  8
0
100
AcDbBlockBegin
  2
block 4
 70
     0
 10
0.0
 20
0.0
 30
0.0
  3
block 4
  1

  0
SPLINE
  5
8B
330
87
100
AcDbEntity
  8
_U+30EC_U+30A4_U+30E4_U+30FC 1
370
     0
100
AcDbSpline
210
0.0
220
0.0
230
1.0
 70
    11
 71
     3
 72
    29
 73
    25
 74
     0
 42
0.0000000001
 43
0.0000000001
 12
1.0
 22
0.0
 32
0.0
 13
1.0
 23
0.0
 33
0.0
 40
0.0
 40
0.0
 40
0.0
 40
0.0
 40
1.0
 40
1.0
 40
1.0
 40
2.0
 40
2.0
 40
2.0
 40
3.0
 40
3.0
 40
3.0
 40
4.0
 40
4.0
 40
4.0
 40
5.0
 40
5.0
 40
5.0
 40
6.0
 40
6.0
 40
6.0
 40
7.0
 40
7.0
 40
7.0
 40
8.0
 40
8.0
 40
8.0
 40
8.0
 10
102.7816677260407
 20
-138.4256591450811
 30
0.0
 10
102.9911295315439
 20
-138.5338351433179
 30
0.0
 10
103.0100775567128
 20
-138.707123446226
 30
0.0
 10
103.0100775567128
 20
-138.8235676736275
 30
0.0
 10
103.0100775567128
 20
-138.9844536327886
 30
0.0
 10
102.9635687676619
 20
-139.1260470572324
 30
0.0
 10
102.7816677260407
 20
-139.2211316926253
 30
0.0
 10
102.5870198311241
 20
-139.3248290667313
 30
0.0
 10
102.3499972617389
 20
-139.3441216014487
 30
0.0
 10
102.1873887548351
 20
-139.3441216014487
 30
0.0
 10
102.0433837635517
 20
-139.3441216014487
 30
0.0
 10
101.7915472835799
 20
-139.3268961240225
 30
0.0
 10
101.592765274081
 20
-139.2211316926253
 30
0.0
 10
101.3898491499998
 20
-139.113300203937
 30
0.0
 10
101.3664225007001
 20
-138.9524142447758
 30
0.0
 10
101.3664225007001
 20
-138.8235676736275
 30
0.0
 10
101.3664225007001
 20
-138.6647487717574
 30
0.0
 10
101.4108642324598
 20
-138.5210882900225
 30
0.0
 10
101.592765274081
 20
-138.4256591450811
 30
0.0
 10
101.7853461117064
 20
-138.3264403951059
 30
0.0
 10
102.0137559423785
 20
-138.3030137458062
 30
0.0
 10
102.1873887548351
 20
-138.3030137458062
 30
0.0
 10
102.358610000452
 20
-138.3030137458062
 30
0.0
 10
102.5890868884152
 20
-138.3243733378147
 30
0.0
 10
102.7816677260407
 20
-138.4256591450811
 30
0.0
  0
SPLINE
  5
8C
330
87
100
AcDbEntity
  8
_U+30EC_U+30A4_U+30E4_U+30FC 1
370
     0
100
AcDbSpline
210
0.0
220
0.0
230
1.0
 70
    11
 71
     3
 72
    17
 73
    13
 74
     0
 42
0.0000000001
 43
0.0000000001
 12
1.0
 22
0.0
 32
0.0
 13
1.0
 23
0.0
 33
0.0
 40
0.0
 40
0.0
 40
0.0
 40
0.0
 40
1.0
 40
1.0
 40
1.0
 40
2.0
 40
2.0
 40
2.0
 40
3.0
 40
3.0
 40
3.0
 40
4.0
 40
4.0
 40
4.0
 40
4.0
 10
101.5590033383255
 20
-138.8235676736275
 30
0.0
 10
101.5590033383255
 20
-139.0733370963081
 30
0.0
 10
101.8425346967616
 20
-139.1198458853589
 30
0.0
 10
102.1873887548351
 20
-139.1198458853589
 30
0.0
 10
102.5067491063178
 20
-139.1198458853589
 30
0.0
 10
102.8154296617961
 20
-139.0836723827638
 30
0.0
 10
102.8154296617961
 20
-138.8235676736275
 30
0.0
 10
102.8154296617961
 20
-138.575865308238
 30
0.0
 10
102.5343098701998
 20
-138.527289461896
 30
0.0
 10
102.1873887548351
 20
-138.527289461896
 30
0.0
 10
101.8676838938039
 20
-138.527289461896
 30
0.0
 10
101.5590033383255
 20
-138.5655300217822
 30
0.0
 10
101.5590033383255
 20
-138.8235676736275
 30
0.0
  0
HATCH
  5
8D
330
87
100
AcDbEntity
  8
_U+30EC_U+30A4_U+30E4_U+30FC 1
 62
   179
420
  2234388
100
AcDbHatch
 10
0.0
 20
0.0
 30
0.0
210
0.0
220
0.0
230
1.0
  2
SOLID
 70
     1
 71
     0
 91
        2
 92
        1
 93
        1
 72
     4
 94
        3
 73
     0
 74
     1
 95
       29
 96
       25
 40
0.0
 40
0.0
 40
0.0
 40
0.0
 40
1.0
 40
1.0
 40
1.0
 40
2.0
 40
2.0
 40
2.0
 40
3.0
 40
3.0
 40
3.0
 40
4.0
 40
4.0
 40
4.0
 40
5.0
 40
5.0
 40
5.0
 40
6.0
 40
6.0
 40
6.0
 40
7.0
 40
7.0
 40
7.0
 40
8.0
 40
8.0
 40
8.0
 40
8.0
 10
102.7816677260407
 20
-138.4256591450811
 10
102.9911295315439
 20
-138.5338351433179
 10
103.0100775567128
 20
-138.707123446226
 10
103.0100775567128
 20
-138.8235676736275
 10
103.0100775567128
 20
-138.9844536327886
 10
102.9635687676619
 20
-139.1260470572324
 10
102.7816677260407
 20
-139.2211316926253
 10
102.5870198311241
 20
-139.3248290667313
 10
102.3499972617389
 20
-139.3441216014487
 10
102.1873887548351
 20
-139.3441216014487
 10
102.0433837635517
 20
-139.3441216014487
 10
101.7915472835799
 20
-139.3268961240225
 10
101.592765274081
 20
-139.2211316926253
 10
101.3898491499998
 20
-139.113300203937
 10
101.3664225007001
 20
-138.9524142447758
 10
101.3664225007001
 20
-138.8235676736275
 10
101.3664225007001
 20
-138.6647487717574
 10
101.4108642324598
 20
-138.5210882900225
 10
101.592765274081
 20
-138.4256591450811
 10
101.7853461117064
 20
-138.3264403951059
 10
102.0137559423785
 20
-138.3030137458062
 10
102.1873887548351
 20
-138.3030137458062
 10
102.358610000452
 20
-138.3030137458062
 10
102.5890868884152
 20
-138.3243733378147
 10
102.7816677260407
 20
-138.4256591450811
 97
        0
 97
        0
 92
        1
 93
        1
 72
     4
 94
        3
 73
     0
 74
     1
 95
       17
 96
       13
 40
0.0
 40
0.0
 40
0.0
 40
0.0
 40
1.0
 40
1.0
 40
1.0
 40
2.0
 40
2.0
 40
2.0
 40
3.0
 40
3.0
 40
3.0
 40
4.0
 40
4.0
 40
4.0
 40
4.0
 10
101.5590033383255
 20
-138.8235676736275
 10
101.5590033383255
 20
-139.0733370963081
 10
101.8425346967616
 20
-139.1198458853589
 10
102.1873887548351
 20
-139.1198458853589
 10
102.5067491063178
 20
-139.1198458853589
 10
102.8154296617961
 20
-139.0836723827638
 10
102.8154296617961
 20
-138.8235676736275
 10
102.8154296617961
 20
-138.575865308238
 10
102.5343098701998
 20
-138.527289461896
 10
102.1873887548351
 20
-138.527289461896
 10
101.8676838938039
 20
-138.527289461896
 10
101.5590033383255
 20
-138.5655300217822
 10
101.5590033383255
 20
-138.8235676736275
 97
        0
 97
        0
 75
     2
 76
     1
 98
        0
  0
POLYLINE
  5
8E
330
87
100
AcDbEntity
  8
_U+30EC_U+30A4_U+30E4_U+30FC 1
370
     0
100
AcDb2dPolyline
 66
     1
 10
0.0
 20
0.0
 30
0.0
  0
VERTEX
  5
8F
330
8E
100
AcDbEntity
  8
_U+30EC_U+30A4_U+30E4_U+30FC 1
370
     0
100
AcDbVertex
100
AcDb2dVertex
 10
102.9594346530796
 20
-138.0866617493325
 30
0.0
  0
VERTEX
  5
90
330
8E
100
AcDbEntity
  8
_U+30EC_U+30A4_U+30E4_U+30FC 1
370
     0
100
AcDbVertex
100
AcDb2dVertex
 10
102.7075981731078
 20
-138.0866617493325
 30
0.0
  0
VERTEX
  5
91
330
8E
100
AcDbEntity
  8
_U+30EC_U+30A4_U+30E4_U+30FC 1
370
     0
100
AcDbVertex
100
AcDb2dVertex
 10
102.7075981731078
 20
-137.8348252693607
 30
0.0
  0
VERTEX
  5
92
330
8E
100
AcDbEntity
  8
_U+30EC_U+30A4_U+30E4_U+30FC 1
370
     0
100
AcDbVertex
100
AcDb2dVertex
 10
102.9594346530796
 20
-137.8348252693607
 30
0.0
  0
VERTEX
  5
93
330
8E
100
AcDbEntity
  8
_U+30EC_U+30A4_U+30E4_U+30FC 1
370
     0
100
AcDbVertex
100
AcDb2dVertex
 10
102.9594346530796
 20
-138.0866617493325
 30
0.0
  0
SEQEND
  5
94
330
8E
100
AcDbEntity
  8
_U+30EC_U+30A4_U+30E4_U+30FC 1
370
     0
  0
HATCH
  5
95
330
87
100
AcDbEntity
  8
_U+30EC_U+30A4_U+30E4_U+30FC 1
 62
   179
420
  2234388
100
AcDbHatch
 10
0.0
 20
0.0
 30
0.0
210
0.0
220
0.0
230
1.0
  2
SOLID
 70
     1
 71
     0
 91
        1
 92
        1
 93
        4
 72
     1
 10
102.9594346530796
 20
-138.0866617493325
 11
102.7075981731078
 21
-138.0866617493325
 72
     1
 10
102.7075981731078
 20
-138.0866617493325
 11
102.7075981731078
 21
-137.8348252693607
 72
     1
 10
102.7075981731078
 20
-137.8348252693607
 11
102.9594346530796
 21
-137.8348252693607
 72
     1
 10
102.9594346530796
 20
-137.8348252693607
 11
102.9594346530796
 21
-138.0866617493325
 97
        0
 75
     2
 76
     1
 98
        0
  0
SPLINE
  5
96
330
87
100
AcDbEntity
  8
_U+30EC_U+30A4_U+30E4_U+30FC 1
370
     0
100
AcDbSpline
210
0.0
220
0.0
230
1.0
 70
    11
 71
     3
 72
    26
 73
    22
 74
     0
 42
0.0000000001
 43
0.0000000001
 12
1.0
 22
0.0
 32
0.0
 13
1.0
 23
0.0
 33
0.0
 40
0.0
 40
0.0
 40
0.0
 40
0.0
 40
1.0
 40
1.0
 40
1.0
 40
2.0
 40
2.0
 40
2.0
 40
3.0
 40
3.0
 40
3.0
 40
4.0
 40
4.0
 40
4.0
 40
5.0
 40
5.0
 40
5.0
 40
6.0
 40
6.0
 40
6.0
 40
7.0
 40
7.0
 40
7.0
 40
7.0
 10
102.9594346530796
 20
-137.1874918276823
 30
0.0
 10
102.9594346530796
 20
-137.1874918276823
 30
0.0
 10
102.9594346530796
 20
-137.4245143970675
 30
0.0
 10
102.9594346530796
 20
-137.4245143970675
 30
0.0
 10
102.6504095880527
 20
-137.3990206904766
 30
0.0
 10
102.1322672270711
 20
-137.2064398528512
 30
0.0
 10
101.6265272098364
 20
-136.8002630951402
 30
0.0
 10
101.6265272098364
 20
-136.8002630951402
 30
0.0
 10
101.6265272098364
 20
-137.638110317153
 30
0.0
 10
101.6265272098364
 20
-137.638110317153
 30
0.0
 10
101.6265272098364
 20
-137.638110317153
 30
0.0
 10
101.4149983470421
 20
-137.638110317153
 30
0.0
 10
101.4149983470421
 20
-137.638110317153
 30
0.0
 10
101.4149983470421
 20
-137.638110317153
 30
0.0
 10
101.4149983470421
 20
-136.563240525755
 30
0.0
 10
101.4149983470421
 20
-136.563240525755
 30
0.0
 10
101.4149983470421
 20
-136.563240525755
 30
0.0
 10
101.6265272098364
 20
-136.563240525755
 30
0.0
 10
101.6265272098364
 20
-136.563240525755
 30
0.0
 10
101.9166042496945
 20
-136.8870795013685
 30
0.0
 10
102.5088161636089
 20
-137.1537298919268
 30
0.0
 10
102.9594346530796
 20
-137.1874918276823
 30
0.0
  0
HATCH
  5
97
330
87
100
AcDbEntity
  8
_U+30EC_U+30A4_U+30E4_U+30FC 1
 62
   179
420
  2234388
100
AcDbHatch
 10
0.0
 20
0.0
 30
0.0
210
0.0
220
0.0
230
1.0
  2
SOLID
 70
     1
 71
     0
 91
        1
 92
        1
 93
        1
 72
     4
 94
        3
 73
     0
 74
     1
 95
       26
 96
       22
 40
0.0
 40
0.0
 40
0.0
 40
0.0
 40
1.0
 40
1.0
 40
1.0
 40
2.0
 40
2.0
 40
2.0
 40
3.0
 40
3.0
 40
3.0
 40
4.0
 40
4.0
 40
4.0
 40
5.0
 40
5.0
 40
5.0
 40
6.0
 40
6.0
 40
6.0
 40
7.0
 40
7.0
 40
7.0
 40
7.0
 10
102.9594346530796
 20
-137.1874918276823
 10
102.9594346530796
 20
-137.1874918276823
 10
102.9594346530796
 20
-137.4245143970675
 10
102.9594346530796
 20
-137.4245143970675
 10
102.6504095880527
 20
-137.3990206904766
 10
102.1322672270711
 20
-137.2064398528512
 10
101.6265272098364
 20
-136.8002630951402
 10
101.6265272098364
 20
-136.8002630951402
 10
101.6265272098364
 20
-137.638110317153
 10
101.6265272098364
 20
-137.638110317153
 10
101.6265272098364
 20
-137.638110317153
 10
101.4149983470421
 20
-137.638110317153
 10
101.4149983470421
 20
-137.638110317153
 10
101.4149983470421
 20
-137.638110317153
 10
101.4149983470421
 20
-136.563240525755
 10
101.4149983470421
 20
-136.563240525755
 10
101.4149983470421
 20
-136.563240525755
 10
101.6265272098364
 20
-136.563240525755
 10
101.6265272098364
 20
-136.563240525755
 10
101.9166042496945
 20
-136.8870795013685
 10
102.5088161636089
 20
-137.1537298919268
 10
102.9594346530796
 20
-137.1874918276823
 97
        0
 97
        0
 75
     2
 76
     1
 98
        0
  0
ENDBLK
  5
8A
330
87
100
AcDbEntity
  8
0
100
AcDbBlockEnd
  0
BLOCK
  5
A2
330
A0
100
AcDbEntity
  8
0
100
AcDbBlockBegin
  2
block 5
 70
     0
 10
0.0
 20
0.0
 30
0.0
  3
block 5
  1

  0
SPLINE
  5
A4
330
A0
100
AcDbEntity
  8
_U+30EC_U+30A4_U+30E4_U+30FC 1
370
     0
100
AcDbSpline
210
0.0
220
0.0
230
1.0
 70
    11
 71
     3
 72
    26
 73
    22
 74
     0
 42
0.0000000001
 43
0.0000000001
 12
1.0
 22
0.0
 32
0.0
 13
1.0
 23
0.0
 33
0.0
 40
0.0
 40
0.0
 40
0.0
 40
0.0
 40
1.0
 40
1.0
 40
1.0
 40
2.0
 40
2.0
 40
2.0
 40
3.0
 40
3.0
 40
3.0
 40
4.0
 40
4.0
 40
4.0
 40
5.0
 40
5.0
 40
5.0
 40
6.0
 40
6.0
 40
6.0
 40
7.0
 40
7.0
 40
7.0
 40
7.0
 10
78.86185300762828
 20
-132.1762559348379
 30
0.0
 10
78.86185300762828
 20
-132.1762559348379
 30
0.0
 10
78.86185300762828
 20
-131.0721028318153
 30
0.0
 10
78.86185300762828
 20
-131.0721028318153
 30
0.0
 10
78.86185300762828
 20
-131.0721028318153
 30
0.0
 10
78.53181286014136
 20
-131.0721028318153
 30
0.0
 10
78.53181286014136
 20
-131.0721028318153
 30
0.0
 10
78.53181286014136
 20
-131.0721028318153
 30
0.0
 10
78.53181286014136
 20
-130.9239637259496
 30
0.0
 10
78.53181286014136
 20
-130.9239637259496
 30
0.0
 10
78.86392006491944
 20
-130.909149815363
 30
0.0
 10
78.91042885397032
 20
-130.7461967989107
 30
0.0
 10
78.94005667514347
 20
-130.6318196288004
 30
0.0
 10
78.94005667514347
 20
-130.6318196288004
 30
0.0
 10
79.08612872371805
 20
-130.6318196288004
 30
0.0
 10
79.08612872371805
 20
-130.6318196288004
 30
0.0
 10
79.08612872371805
 20
-130.6318196288004
 30
0.0
 10
79.08612872371805
 20
-132.1762559348379
 30
0.0
 10
79.08612872371805
 20
-132.1762559348379
 30
0.0
 10
79.08612872371805
 20
-132.1762559348379
 30
0.0
 10
78.86185300762828
 20
-132.1762559348379
 30
0.0
 10
78.86185300762828
 20
-132.1762559348379
 30
0.0
  0
HATCH
  5
A5
330
A0
100
AcDbEntity
  8
_U+30EC_U+30A4_U+30E4_U+30FC 1
 62
   179
420
  2234388
100
AcDbHatch
 10
0.0
 20
0.0
 30
0.0
210
0.0
220
0.0
230
1.0
  2
SOLID
 70
     1
 71
     0
 91
        1
 92
        1
 93
        1
 72
     4
 94
        3
 73
     0
 74
     1
 95
       26
 96
       22
 40
0.0
 40
0.0
 40
0.0
 40
0.0
 40
1.0
 40
1.0
 40
1.0
 40
2.0
 40
2.0
 40
2.0
 40
3.0
 40
3.0
 40
3.0
 40
4.0
 40
4.0
 40
4.0
 40
5.0
 40
5.0
 40
5.0
 40
6.0
 40
6.0
 40
6.0
 40
7.0
 40
7.0
 40
7.0
 40
7.0
 10
78.86185300762828
 20
-132.1762559348379
 10
78.86185300762828
 20
-132.1762559348379
 10
78.86185300762828
 20
-131.0721028318153
 10
78.86185300762828
 20
-131.0721028318153
 10
78.86185300762828
 20
-131.0721028318153
 10
78.53181286014136
 20
-131.0721028318153
 10
78.53181286014136
 20
-131.0721028318153
 10
78.53181286014136
 20
-131.0721028318153
 10
78.53181286014136
 20
-130.9239637259496
 10
78.53181286014136
 20
-130.9239637259496
 10
78.86392006491944
 20
-130.909149815363
 10
78.91042885397032
 20
-130.7461967989107
 10
78.94005667514347
 20
-130.6318196288004
 10
78.94005667514347
 20
-130.6318196288004
 10
79.08612872371805
 20
-130.6318196288004
 10
79.08612872371805
 20
-130.6318196288004
 10
79.08612872371805
 20
-130.6318196288004
 10
79.08612872371805
 20
-132.1762559348379
 10
79.08612872371805
 20
-132.1762559348379
 10
79.08612872371805
 20
-132.1762559348379
 10
78.86185300762828
 20
-132.1762559348379
 10
78.86185300762828
 20
-132.1762559348379
 97
        0
 97
        0
 75
     2
 76
     1
 98
        0
  0
ENDBLK
  5
A3
330
A0
100
AcDbEntity
  8
0
100
AcDbBlockEnd
  0
BLOCK
  5
B4
330
B2
100
AcDbEntity
  8
0
100
AcDbBlockBegin
  2
block 6
 70
     0
 10
0.0
 20
0.0
 30
0.0
  3
block 6
  1

  0
SPLINE
  5
B6
330
B2
100
AcDbEntity
  8
_U+30EC_U+30A4_U+30E4_U+30FC 1
370
     0
100
AcDbSpline
210
0.0
220
0.0
230
1.0
 70
    11
 71
     3
 72
    26
 73
    22
 74
     0
 42
0.0000000001
 43
0.0000000001
 12
1.0
 22
0.0
 32
0.0
 13
1.0
 23
0.0
 33
0.0
 40
0.0
 40
0.0
 40
0.0
 40
0.0
 40
1.0
 40
1.0
 40
1.0
 40
2.0
 40
2.0
 40
2.0
 40
3.0
 40
3.0
 40
3.0
 40
4.0
 40
4.0
 40
4.0
 40
5.0
 40
5.0
 40
5.0
 40
6.0
 40
6.0
 40
6.0
 40
7.0
 40
7.0
 40
7.0
 40
7.0
 10
96.32176918164873
 20
-132.1762559348379
 30
0.0
 10
96.32176918164873
 20
-132.1762559348379
 30
0.0
 10
96.08474661226354
 20
-132.1762559348379
 30
0.0
 10
96.08474661226354
 20
-132.1762559348379
 30
0.0
 10
96.1102403188544
 20
-131.867230869811
 30
0.0
 10
96.30282115647985
 20
-131.3490885088294
 30
0.0
 10
96.70899791419082
 20
-130.8433484915947
 30
0.0
 10
96.70899791419082
 20
-130.8433484915947
 30
0.0
 10
95.87115069217805
 20
-130.8433484915947
 30
0.0
 10
95.87115069217805
 20
-130.8433484915947
 30
0.0
 10
95.87115069217805
 20
-130.8433484915947
 30
0.0
 10
95.87115069217805
 20
-130.6318196288004
 30
0.0
 10
95.87115069217805
 20
-130.6318196288004
 30
0.0
 10
95.87115069217805
 20
-130.6318196288004
 30
0.0
 10
96.94602048357599
 20
-130.6318196288004
 30
0.0
 10
96.94602048357599
 20
-130.6318196288004
 30
0.0
 10
96.94602048357599
 20
-130.6318196288004
 30
0.0
 10
96.94602048357599
 20
-130.8433484915947
 30
0.0
 10
96.94602048357599
 20
-130.8433484915947
 30
0.0
 10
96.62218150796251
 20
-131.1334255314528
 30
0.0
 10
96.35553111740418
 20
-131.7256374453672
 30
0.0
 10
96.32176918164873
 20
-132.1762559348379
 30
0.0
  0
HATCH
  5
B7
330
B2
100
AcDbEntity
  8
_U+30EC_U+30A4_U+30E4_U+30FC 1
 62
   179
420
  2234388
100
AcDbHatch
 10
0.0
 20
0.0
 30
0.0
210
0.0
220
0.0
230
1.0
  2
SOLID
 70
     1
 71
     0
 91
        1
 92
        1
 93
        1
 72
     4
 94
        3
 73
     0
 74
     1
 95
       26
 96
       22
 40
0.0
 40
0.0
 40
0.0
 40
0.0
 40
1.0
 40
1.0
 40
1.0
 40
2.0
 40
2.0
 40
2.0
 40
3.0
 40
3.0
 40
3.0
 40
4.0
 40
4.0
 40
4.0
 40
5.0
 40
5.0
 40
5.0
 40
6.0
 40
6.0
 40
6.0
 40
7.0
 40
7.0
 40
7.0
 40
7.0
 10
96.32176918164873
 20
-132.1762559348379
 10
96.32176918164873
 20
-132.1762559348379
 10
96.08474661226354
 20
-132.1762559348379
 10
96.08474661226354
 20
-132.1762559348379
 10
96.1102403188544
 20
-131.867230869811
 10
96.30282115647985
 20
-131.3490885088294
 10
96.70899791419082
 20
-130.8433484915947
 10
96.70899791419082
 20
-130.8433484915947
 10
95.87115069217805
 20
-130.8433484915947
 10
95.87115069217805
 20
-130.8433484915947
 10
95.87115069217805
 20
-130.8433484915947
 10
95.87115069217805
 20
-130.6318196288004
 10
95.87115069217805
 20
-130.6318196288004
 10
95.87115069217805
 20
-130.6318196288004
 10
96.94602048357599
 20
-130.6318196288004
 10
96.94602048357599
 20
-130.6318196288004
 10
96.94602048357599
 20
-130.6318196288004
 10
96.94602048357599
 20
-130.8433484915947
 10
96.94602048357599
 20
-130.8433484915947
 10
96.62218150796251
 20
-131.1334255314528
 10
96.35553111740418
 20
-131.7256374453672
 10
96.32176918164873
 20
-132.1762559348379
 97
        0
 97
        0
 75
     2
 76
     1
 98
        0
  0
ENDBLK
  5
B5
330
B2
100
AcDbEntity
  8
0
100
AcDbBlockEnd
  0
BLOCK
  5
C6
330
C4
100
AcDbEntity
  8
0
100
AcDbBlockBegin
  2
block 7
 70
     0
 10
0.0
 20
0.0
 30
0.0
  3
block 7
  1

  0
SPLINE
  5
C8
330
C4
100
AcDbEntity
  8
_U+30EC_U+30A4_U+30E4_U+30FC 1
370
     0
100
AcDbSpline
210
0.0
220
0.0
230
1.0
 70
    11
 71
     3
 72
    26
 73
    22
 74
     0
 42
0.0000000001
 43
0.0000000001
 12
1.0
 22
0.0
 32
0.0
 13
1.0
 23
0.0
 33
0.0
 40
0.0
 40
0.0
 40
0.0
 40
0.0
 40
1.0
 40
1.0
 40
1.0
 40
2.0
 40
2.0
 40
2.0
 40
3.0
 40
3.0
 40
3.0
 40
4.0
 40
4.0
 40
4.0
 40
5.0
 40
5.0
 40
5.0
 40
6.0
 40
6.0
 40
6.0
 40
7.0
 40
7.0
 40
7.0
 40
7.0
 10
103.3122124307692
 20
-129.985175206219
 30
0.0
 10
103.3122124307692
 20
-129.985175206219
 30
0.0
 10
102.2080593277466
 20
-129.985175206219
 30
0.0
 10
102.2080593277466
 20
-129.985175206219
 30
0.0
 10
102.2080593277466
 20
-129.985175206219
 30
0.0
 10
102.2080593277466
 20
-130.3152153537059
 30
0.0
 10
102.2080593277466
 20
-130.3152153537059
 30
0.0
 10
102.2080593277466
 20
-130.3152153537059
 30
0.0
 10
102.0599202218809
 20
-130.3152153537059
 30
0.0
 10
102.0599202218809
 20
-130.3152153537059
 30
0.0
 10
102.0451063112943
 20
-129.9831081489278
 30
0.0
 10
101.882153294842
 20
-129.936599359877
 30
0.0
 10
101.7677761247317
 20
-129.9069715387038
 30
0.0
 10
101.7677761247317
 20
-129.9069715387038
 30
0.0
 10
101.7677761247317
 20
-129.7608994901292
 30
0.0
 10
101.7677761247317
 20
-129.7608994901292
 30
0.0
 10
101.7677761247317
 20
-129.7608994901292
 30
0.0
 10
103.3122124307692
 20
-129.7608994901292
 30
0.0
 10
103.3122124307692
 20
-129.7608994901292
 30
0.0
 10
103.3122124307692
 20
-129.7608994901292
 30
0.0
 10
103.3122124307692
 20
-129.985175206219
 30
0.0
 10
103.3122124307692
 20
-129.985175206219
 30
0.0
  0
HATCH
  5
C9
330
C4
100
AcDbEntity
  8
_U+30EC_U+30A4_U+30E4_U+30FC 1
 62
   179
420
  2234388
100
AcDbHatch
 10
0.0
 20
0.0
 30
0.0
210
0.0
220
0.0
230
1.0
  2
SOLID
 70
     1
 71
     0
 91
        1
 92
        1
 93
        1
 72
     4
 94
        3
 73
     0
 74
     1
 95
       26
 96
       22
 40
0.0
 40
0.0
 40
0.0
 40
0.0
 40
1.0
 40
1.0
 40
1.0
 40
2.0
 40
2.0
 40
2.0
 40
3.0
 40
3.0
 40
3.0
 40
4.0
 40
4.0
 40
4.0
 40
5.0
 40
5.0
 40
5.0
 40
6.0
 40
6.0
 40
6.0
 40
7.0
 40
7.0
 40
7.0
 40
7.0
 10
103.3122124307692
 20
-129.985175206219
 10
103.3122124307692
 20
-129.985175206219
 10
102.2080593277466
 20
-129.985175206219
 10
102.2080593277466
 20
-129.985175206219
 10
102.2080593277466
 20
-129.985175206219
 10
102.2080593277466
 20
-130.3152153537059
 10
102.2080593277466
 20
-130.3152153537059
 10
102.2080593277466
 20
-130.3152153537059
 10
102.0599202218809
 20
-130.3152153537059
 10
102.0599202218809
 20
-130.3152153537059
 10
102.0451063112943
 20
-129.9831081489278
 10
101.882153294842
 20
-129.936599359877
 10
101.7677761247317
 20
-129.9069715387038
 10
101.7677761247317
 20
-129.9069715387038
 10
101.7677761247317
 20
-129.7608994901292
 10
101.7677761247317
 20
-129.7608994901292
 10
101.7677761247317
 20
-129.7608994901292
 10
103.3122124307692
 20
-129.7608994901292
 10
103.3122124307692
 20
-129.7608994901292
 10
103.3122124307692
 20
-129.7608994901292
 10
103.3122124307692
 20
-129.985175206219
 10
103.3122124307692
 20
-129.985175206219
 97
        0
 97
        0
 75
     2
 76
     1
 98
        0
  0
SPLINE
  5
CA
330
C4
100
AcDbEntity
  8
_U+30EC_U+30A4_U+30E4_U+30FC 1
370
     0
100
AcDbSpline
210
0.0
220
0.0
230
1.0
 70
    11
 71
     3
 72
    62
 73
    58
 74
     0
 42
0.0000000001
 43
0.0000000001
 12
1.0
 22
0.0
 32
0.0
 13
1.0
 23
0.0
 33
0.0
 40
0.0
 40
0.0
 40
0.0
 40
0.0
 40
1.0
 40
1.0
 40
1.0
 40
2.0
 40
2.0
 40
2.0
 40
3.0
 40
3.0
 40
3.0
 40
4.0
 40
4.0
 40
4.0
 40
5.0
 40
5.0
 40
5.0
 40
6.0
 40
6.0
 40
6.0
 40
7.0
 40
7.0
 40
7.0
 40
8.0
 40
8.0
 40
8.0
 40
9.0
 40
9.0
 40
9.0
 40
10.0
 40
10.0
 40
10.0
 40
11.0
 40
11.0
 40
11.0
 40
12.0
 40
12.0
 40
12.0
 40
13.0
 40
13.0
 40
13.0
 40
14.0
 40
14.0
 40
14.0
 40
15.0
 40
15.0
 40
15.0
 40
16.0
 40
16.0
 40
16.0
 40
17.0
 40
17.0
 40
17.0
 40
18.0
 40
18.0
 40
18.0
 40
19.0
 40
19.0
 40
19.0
 40
19.0
 10
103.3628553344023
 20
-128.7680229712802
 30
0.0
 10
103.3628553344023
 20
-128.8634521162217
 30
0.0
 10
103.3418402519423
 20
-129.0811821508894
 30
0.0
 10
103.1558050957388
 20
-129.206239117004
 30
0.0
 10
103.0434949829197
 20
-129.2803086699369
 30
0.0
 10
102.9442762329445
 20
-129.2844427845192
 30
0.0
 10
102.8595268840074
 20
-129.2885768991015
 30
0.0
 10
102.8595268840074
 20
-129.2885768991015
 30
0.0
 10
102.8595268840074
 20
-129.068435297594
 30
0.0
 10
102.8595268840074
 20
-129.068435297594
 30
0.0
 10
102.9335964369402
 20
-129.0663682403029
 30
0.0
 10
103.1682074394857
 20
-129.0560329538471
 30
0.0
 10
103.1682074394857
 20
-128.7725015954111
 30
0.0
 10
103.1682074394857
 20
-128.6348700307753
 30
0.0
 10
103.0986165106837
 20
-128.4822523007788
 30
0.0
 10
102.8702066800116
 20
-128.4822523007788
 30
0.0
 10
102.7537624526102
 20
-128.4822523007788
 30
0.0
 10
102.7051866062682
 20
-128.520492860665
 30
0.0
 10
102.6734917278038
 20
-128.5521877391293
 30
0.0
 10
102.599422174871
 20
-128.6262572920622
 30
0.0
 10
102.5866753215756
 20
-128.7427015194636
 30
0.0
 10
102.5866753215756
 20
-128.7976507924534
 30
0.0
 10
102.5866753215756
 20
-128.8169433271708
 30
0.0
 10
102.5887423788667
 20
-128.8527723202174
 30
0.0
 10
102.592876493449
 20
-128.8803330840994
 30
0.0
 10
102.592876493449
 20
-128.8803330840994
 30
0.0
 10
102.3982285985324
 20
-128.8803330840994
 30
0.0
 10
102.3982285985324
 20
-128.8803330840994
 30
0.0
 10
102.4047742799544
 20
-128.8420925242131
 30
0.0
 10
102.4068413372455
 20
-128.800062359293
 30
0.0
 10
102.4068413372455
 20
-128.7935166778711
 30
0.0
 10
102.4068413372455
 20
-128.7278876088771
 30
0.0
 10
102.385481745237
 20
-128.5291055993781
 30
0.0
 10
102.1488036854003
 20
-128.5291055993781
 30
0.0
 10
101.9710367583614
 20
-128.5291055993781
 30
0.0
 10
101.9159152305974
 20
-128.6600192278176
 30
0.0
 10
101.9159152305974
 20
-128.7704345381199
 30
0.0
 10
101.9159152305974
 20
-129.0346733618386
 30
0.0
 10
102.1488036854003
 20
-129.0432861005517
 30
0.0
 10
102.2204616714935
 20
-129.047420215134
 30
0.0
 10
102.2204616714935
 20
-129.047420215134
 30
0.0
 10
102.2204616714935
 20
-129.2506808487637
 30
0.0
 10
102.2204616714935
 20
-129.2506808487637
 30
0.0
 10
102.0957492149275
 20
-129.2420681100506
 30
0.0
 10
101.7192002783896
 20
-129.2145073461686
 30
0.0
 10
101.7192002783896
 20
-128.7575154300502
 30
0.0
 10
101.7192002783896
 20
-128.5332397139605
 30
0.0
 10
101.8463243017954
 20
-128.292083029993
 30
0.0
 10
102.1422580039783
 20
-128.292083029993
 30
0.0
 10
102.3286376697303
 20
-128.292083029993
 30
0.0
 10
102.4109754518278
 20
-128.3871676653858
 30
0.0
 10
102.4722981514653
 20
-128.4867309249096
 30
0.0
 10
102.4998589153473
 20
-128.4254082252721
 30
0.0
 10
102.5801296401536
 20
-128.2435071836509
 30
0.0
 10
102.8574598267162
 20
-128.2435071836509
 30
0.0
 10
103.1957682033677
 20
-128.2435071836509
 30
0.0
 10
103.3628553344023
 20
-128.4908650394919
 30
0.0
 10
103.3628553344023
 20
-128.7680229712802
 30
0.0
  0
HATCH
  5
CB
330
C4
100
AcDbEntity
  8
_U+30EC_U+30A4_U+30E4_U+30FC 1
 62
   179
420
  2234388
100
AcDbHatch
 10
0.0
 20
0.0
 30
0.0
210
0.0
220
0.0
230
1.0
  2
SOLID
 70
     1
 71
     0
 91
        1
 92
        1
 93
        1
 72
     4
 94
        3
 73
     0
 74
     1
 95
       62
 96
       58
 40
0.0
 40
0.0
 40
0.0
 40
0.0
 40
1.0
 40
1.0
 40
1.0
 40
2.0
 40
2.0
 40
2.0
 40
3.0
 40
3.0
 40
3.0
 40
4.0
 40
4.0
 40
4.0
 40
5.0
 40
5.0
 40
5.0
 40
6.0
 40
6.0
 40
6.0
 40
7.0
 40
7.0
 40
7.0
 40
8.0
 40
8.0
 40
8.0
 40
9.0
 40
9.0
 40
9.0
 40
10.0
 40
10.0
 40
10.0
 40
11.0
 40
11.0
 40
11.0
 40
12.0
 40
12.0
 40
12.0
 40
13.0
 40
13.0
 40
13.0
 40
14.0
 40
14.0
 40
14.0
 40
15.0
 40
15.0
 40
15.0
 40
16.0
 40
16.0
 40
16.0
 40
17.0
 40
17.0
 40
17.0
 40
18.0
 40
18.0
 40
18.0
 40
19.0
 40
19.0
 40
19.0
 40
19.0
 10
103.3628553344023
 20
-128.7680229712802
 10
103.3628553344023
 20
-128.8634521162217
 10
103.3418402519423
 20
-129.0811821508894
 10
103.1558050957388
 20
-129.206239117004
 10
103.0434949829197
 20
-129.2803086699369
 10
102.9442762329445
 20
-129.2844427845192
 10
102.8595268840074
 20
-129.2885768991015
 10
102.8595268840074
 20
-129.2885768991015
 10
102.8595268840074
 20
-129.068435297594
 10
102.8595268840074
 20
-129.068435297594
 10
102.9335964369402
 20
-129.0663682403029
 10
103.1682074394857
 20
-129.0560329538471
 10
103.1682074394857
 20
-128.7725015954111
 10
103.1682074394857
 20
-128.6348700307753
 10
103.0986165106837
 20
-128.4822523007788
 10
102.8702066800116
 20
-128.4822523007788
 10
102.7537624526102
 20
-128.4822523007788
 10
102.7051866062682
 20
-128.520492860665
 10
102.6734917278038
 20
-128.5521877391293
 10
102.599422174871
 20
-128.6262572920622
 10
102.5866753215756
 20
-128.7427015194636
 10
102.5866753215756
 20
-128.7976507924534
 10
102.5866753215756
 20
-128.8169433271708
 10
102.5887423788667
 20
-128.8527723202174
 10
102.592876493449
 20
-128.8803330840994
 10
102.592876493449
 20
-128.8803330840994
 10
102.3982285985324
 20
-128.8803330840994
 10
102.3982285985324
 20
-128.8803330840994
 10
102.4047742799544
 20
-128.8420925242131
 10
102.4068413372455
 20
-128.800062359293
 10
102.4068413372455
 20
-128.7935166778711
 10
102.4068413372455
 20
-128.7278876088771
 10
102.385481745237
 20
-128.5291055993781
 10
102.1488036854003
 20
-128.5291055993781
 10
101.9710367583614
 20
-128.5291055993781
 10
101.9159152305974
 20
-128.6600192278176
 10
101.9159152305974
 20
-128.7704345381199
 10
101.9159152305974
 20
-129.0346733618386
 10
102.1488036854003
 20
-129.0432861005517
 10
102.2204616714935
 20
-129.047420215134
 10
102.2204616714935
 20
-129.047420215134
 10
102.2204616714935
 20
-129.2506808487637
 10
102.2204616714935
 20
-129.2506808487637
 10
102.0957492149275
 20
-129.2420681100506
 10
101.7192002783896
 20
-129.2145073461686
 10
101.7192002783896
 20
-128.7575154300502
 10
101.7192002783896
 20
-128.5332397139605
 10
101.8463243017954
 20
-128.292083029993
 10
102.1422580039783
 20
-128.292083029993
 10
102.3286376697303
 20
-128.292083029993
 10
102.4109754518278
 20
-128.3871676653858
 10
102.4722981514653
 20
-128.4867309249096
 10
102.4998589153473
 20
-128.4254082252721
 10
102.5801296401536
 20
-128.2435071836509
 10
102.8574598267162
 20
-128.2435071836509
 10
103.1957682033677
 20
-128.2435071836509
 10
103.3628553344023
 20
-128.4908650394919
 10
103.3628553344023
 20
-128.7680229712802
 97
        0
 97
        0
 75
     2
 76
     1
 98
        0
  0
ENDBLK
  5
C7
330
C4
100
AcDbEntity
  8
0
100
AcDbBlockEnd
  0
ENDSEC
  0
SECTION
  2
ENTITIES
  0
SPLINE
  5
41
330
1F
100
AcDbEntity
  8
_U+30EC_U+30A4_U+30E4_U+30FC 1
 62
   179
420
  2234388
370
     9
100
AcDbSpline
210
0.0
220
0.0
230
1.0
 70
    11
 71
     3
 72
    17
 73
    13
 74
     0
 42
0.0000000001
 43
0.0000000001
 12
1.0
 22
0.0
 32
0.0
 13
1.0
 23
0.0
 33
0.0
 40
0.0
 40
0.0
 40
0.0
 40
0.0
 40
1.0
 40
1.0
 40
1.0
 40
2.0
 40
2.0
 40
2.0
 40
3.0
 40
3.0
 40
3.0
 40
4.0
 40
4.0
 40
4.0
 40
4.0
 10
82.00858985223101
 20
-132.7722558001405
 30
0.0
 10
82.00858985223101
 20
-132.7171519112649
 30
0.0
 10
81.96382235337313
 20
-132.6723491334989
 30
0.0
 10
81.9080129103525
 20
-132.6723491334989
 30
0.0
 10
81.85287374509255
 20
-132.6723491334989
 30
0.0
 10
81.80810831288129
 20
-132.7171519112649
 30
0.0
 10
81.80810831288129
 20
-132.7722558001405
 30
0.0
 10
81.80810831288129
 20
-132.8277124667932
 30
0.0
 10
81.85287374509255
 20
-132.8721624667822
 30
0.0
 10
81.9080129103525
 20
-132.8721624667822
 30
0.0
 10
81.96382235337313
 20
-132.8721624667822
 30
0.0
 10
82.00858985223101
 20
-132.8277124667932
 30
0.0
 10
82.00858985223101
 20
-132.7722558001405
 30
0.0
  0
SPLINE
  5
42
330
1F
100
AcDbEntity
  8
_U+30EC_U+30A4_U+30E4_U+30FC 1
 62
   179
420
  2234388
370
     9
100
AcDbSpline
210
0.0
220
0.0
230
1.0
 70
    11
 71
     3
 72
    17
 73
    13
 74
     0
 42
0.0000000001
 43
0.0000000001
 12
1.0
 22
0.0
 32
0.0
 13
1.0
 23
0.0
 33
0.0
 40
0.0
 40
0.0
 40
0.0
 40
0.0
 40
1.0
 40
1.0
 40
1.0
 40
2.0
 40
2.0
 40
2.0
 40
3.0
 40
3.0
 40
3.0
 40
4.0
 40
4.0
 40
4.0
 40
4.0
 10
83.00836204894692
 20
-132.7722558001405
 30
0.0
 10
83.00836204894692
 20
-132.7171519112649
 30
0.0
 10
82.96359455008904
 20
-132.6723491334989
 30
0.0
 10
82.90845538482908
 20
-132.6723491334989
 30
0.0
 10
82.85335149734601
 20
-132.6723491334989
 30
0.0
 10
82.80854872071126
 20
-132.7171519112649
 30
0.0
 10
82.80854872071126
 20
-132.7722558001405
 30
0.0
 10
82.80854872071126
 20
-132.8277124667932
 30
0.0
 10
82.85335149734601
 20
-132.8721624667822
 30
0.0
 10
82.90845538482908
 20
-132.8721624667822
 30
0.0
 10
82.96359455008904
 20
-132.8721624667822
 30
0.0
 10
83.00836204894692
 20
-132.8277124667932
 30
0.0
 10
83.00836204894692
 20
-132.7722558001405
 30
0.0
  0
SPLINE
  5
43
330
1F
100
AcDbEntity
  8
_U+30EC_U+30A4_U+30E4_U+30FC 1
 62
   179
420
  2234388
370
     9
100
AcDbSpline
210
0.0
220
0.0
230
1.0
 70
    11
 71
     3
 72
    17
 73
    13
 74
     0
 42
0.0000000001
 43
0.0000000001
 12
1.0
 22
0.0
 32
0.0
 13
1.0
 23
0.0
 33
0.0
 40
0.0
 40
0.0
 40
0.0
 40
0.0
 40
1.0
 40
1.0
 40
1.0
 40
2.0
 40
2.0
 40
2.0
 40
3.0
 40
3.0
 40
3.0
 40
4.0
 40
4.0
 40
4.0
 40
4.0
 10
82.00858985223101
 20
-117.7723210816682
 30
0.0
 10
82.00858985223101
 20
-117.7171819150151
 30
0.0
 10
81.96382235337313
 20
-117.6724144150262
 30
0.0
 10
81.9080129103525
 20
-117.6724144150262
 30
0.0
 10
81.85287374509255
 20
-117.6724144150262
 30
0.0
 10
81.80810831288129
 20
-117.7171819150151
 30
0.0
 10
81.80810831288129
 20
-117.7723210816682
 30
0.0
 10
81.80810831288129
 20
-117.8274249705431
 30
0.0
 10
81.85287374509255
 20
-117.8722277483098
 30
0.0
 10
81.9080129103525
 20
-117.8722277483098
 30
0.0
 10
81.96382235337313
 20
-117.8722277483098
 30
0.0
 10
82.00858985223101
 20
-117.8274249705431
 30
0.0
 10
82.00858985223101
 20
-117.7723210816682
 30
0.0
  0
SPLINE
  5
44
330
1F
100
AcDbEntity
  8
_U+30EC_U+30A4_U+30E4_U+30FC 1
 62
   179
420
  2234388
370
     9
100
AcDbSpline
210
0.0
220
0.0
230
1.0
 70
    11
 71
     3
 72
    17
 73
    13
 74
     0
 42
0.0000000001
 43
0.0000000001
 12
1.0
 22
0.0
 32
0.0
 13
1.0
 23
0.0
 33
0.0
 40
0.0
 40
0.0
 40
0.0
 40
0.0
 40
1.0
 40
1.0
 40
1.0
 40
2.0
 40
2.0
 40
2.0
 40
3.0
 40
3.0
 40
3.0
 40
4.0
 40
4.0
 40
4.0
 40
4.0
 10
90.00810798147964
 20
-117.7723210816682
 30
0.0
 10
90.00810798147964
 20
-117.7171819150151
 30
0.0
 10
89.96334048262175
 20
-117.6724144150262
 30
0.0
 10
89.9082013173618
 20
-117.6724144150262
 30
0.0
 10
89.85309742987873
 20
-117.6724144150262
 30
0.0
 10
89.80829465324396
 20
-117.7171819150151
 30
0.0
 10
89.80829465324396
 20
-117.7723210816682
 30
0.0
 10
89.80829465324396
 20
-117.8274249705431
 30
0.0
 10
89.85309742987873
 20
-117.8722277483098
 30
0.0
 10
89.9082013173618
 20
-117.8722277483098
 30
0.0
 10
89.96334048262175
 20
-117.8722277483098
 30
0.0
 10
90.00810798147964
 20
-117.8274249705431
 30
0.0
 10
90.00810798147964
 20
-117.7723210816682
 30
0.0
  0
SPLINE
  5
45
330
1F
100
AcDbEntity
  8
_U+30EC_U+30A4_U+30E4_U+30FC 1
 62
   179
420
  2234388
370
     9
100
AcDbSpline
210
0.0
220
0.0
230
1.0
 70
    11
 71
     3
 72
    17
 73
    13
 74
     0
 42
0.0000000001
 43
0.0000000001
 12
1.0
 22
0.0
 32
0.0
 13
1.0
 23
0.0
 33
0.0
 40
0.0
 40
0.0
 40
0.0
 40
0.0
 40
1.0
 40
1.0
 40
1.0
 40
2.0
 40
2.0
 40
2.0
 40
3.0
 40
3.0
 40
3.0
 40
4.0
 40
4.0
 40
4.0
 40
4.0
 10
104.0081290131982
 20
-122.7725227470846
 30
0.0
 10
104.0081290131982
 20
-122.7174188582094
 30
0.0
 10
103.9633262365635
 20
-122.672616080443
 30
0.0
 10
103.9082249740228
 20
-122.672616080443
 30
0.0
 10
103.8530831838204
 20
-122.672616080443
 30
0.0
 10
103.8083156849626
 20
-122.7174188582094
 30
0.0
 10
103.8083156849626
 20
-122.7725227470846
 30
0.0
 10
103.8083156849626
 20
-122.8276619137374
 30
0.0
 10
103.8530831838204
 20
-122.8724294137263
 30
0.0
 10
103.9082249740228
 20
-122.8724294137263
 30
0.0
 10
103.9633262365635
 20
-122.8724294137263
 30
0.0
 10
104.0081290131982
 20
-122.8276619137374
 30
0.0
 10
104.0081290131982
 20
-122.7725227470846
 30
0.0
  0
SPLINE
  5
46
330
1F
100
AcDbEntity
  8
_U+30EC_U+30A4_U+30E4_U+30FC 1
 62
   179
420
  2234388
370
     9
100
AcDbSpline
210
0.0
220
0.0
230
1.0
 70
    11
 71
     3
 72
    17
 73
    13
 74
     0
 42
0.0000000001
 43
0.0000000001
 12
1.0
 22
0.0
 32
0.0
 13
1.0
 23
0.0
 33
0.0
 40
0.0
 40
0.0
 40
0.0
 40
0.0
 40
1.0
 40
1.0
 40
1.0
 40
2.0
 40
2.0
 40
2.0
 40
3.0
 40
3.0
 40
3.0
 40
4.0
 40
4.0
 40
4.0
 40
4.0
 10
104.0081290131982
 20
-135.7722427438349
 30
0.0
 10
104.0081290131982
 20
-135.7171388549593
 30
0.0
 10
103.9633262365635
 20
-135.6723360771932
 30
0.0
 10
103.9082249740228
 20
-135.6723360771932
 30
0.0
 10
103.8530831838204
 20
-135.6723360771932
 30
0.0
 10
103.8083156849626
 20
-135.7171388549593
 30
0.0
 10
103.8083156849626
 20
-135.7722427438349
 30
0.0
 10
103.8083156849626
 20
-135.8276994104875
 30
0.0
 10
103.8530831838204
 20
-135.8725021882543
 30
0.0
 10
103.9082249740228
 20
-135.8725021882543
 30
0.0
 10
103.9633262365635
 20
-135.8725021882543
 30
0.0
 10
104.0081290131982
 20
-135.8276994104875
 30
0.0
 10
104.0081290131982
 20
-135.7722427438349
 30
0.0
  0
SPLINE
  5
47
330
1F
100
AcDbEntity
  8
_U+30EC_U+30A4_U+30E4_U+30FC 1
 62
   179
420
  2234388
370
     9
100
AcDbSpline
210
0.0
220
0.0
230
1.0
 70
    11
 71
     3
 72
    17
 73
    13
 74
     0
 42
0.0000000001
 43
0.0000000001
 12
1.0
 22
0.0
 32
0.0
 13
1.0
 23
0.0
 33
0.0
 40
0.0
 40
0.0
 40
0.0
 40
0.0
 40
1.0
 40
1.0
 40
1.0
 40
2.0
 40
2.0
 40
2.0
 40
3.0
 40
3.0
 40
3.0
 40
4.0
 40
4.0
 40
4.0
 40
4.0
 10
104.0081290131982
 20
-136.0723155215375
 30
0.0
 10
104.0081290131982
 20
-136.0171763548845
 30
0.0
 10
103.9633262365635
 20
-135.9724088548959
 30
0.0
 10
103.9082249740228
 20
-135.9724088548959
 30
0.0
 10
103.8530831838204
 20
-135.9724088548959
 30
0.0
 10
103.8083156849626
 20
-136.0171763548845
 30
0.0
 10
103.8083156849626
 20
-136.0723155215375
 30
0.0
 10
103.8083156849626
 20
-136.1277721881902
 30
0.0
 10
103.8530831838204
 20
-136.1725749659569
 30
0.0
 10
103.9082249740228
 20
-136.1725749659569
 30
0.0
 10
103.9633262365635
 20
-136.1725749659569
 30
0.0
 10
104.0081290131982
 20
-136.1277721881902
 30
0.0
 10
104.0081290131982
 20
-136.0723155215375
 30
0.0
  0
SPLINE
  5
48
330
1F
100
AcDbEntity
  8
_U+30EC_U+30A4_U+30E4_U+30FC 1
 62
   179
420
  2234388
370
     9
100
AcDbSpline
210
0.0
220
0.0
230
1.0
 70
    11
 71
     3
 72
    17
 73
    13
 74
     0
 42
0.0000000001
 43
0.0000000001
 12
1.0
 22
0.0
 32
0.0
 13
1.0
 23
0.0
 33
0.0
 40
0.0
 40
0.0
 40
0.0
 40
0.0
 40
1.0
 40
1.0
 40
1.0
 40
2.0
 40
2.0
 40
2.0
 40
3.0
 40
3.0
 40
3.0
 40
4.0
 40
4.0
 40
4.0
 40
4.0
 10
104.0081290131982
 20
-136.7723677435845
 30
0.0
 10
104.0081290131982
 20
-136.7172285769321
 30
0.0
 10
103.9633262365635
 20
-136.6724610769429
 30
0.0
 10
103.9082249740228
 20
-136.6724610769429
 30
0.0
 10
103.8530831838204
 20
-136.6724610769429
 30
0.0
 10
103.8083156849626
 20
-136.7172285769321
 30
0.0
 10
103.8083156849626
 20
-136.7723677435845
 30
0.0
 10
103.8083156849626
 20
-136.8274716324601
 30
0.0
 10
103.8530831838204
 20
-136.8722744102262
 30
0.0
 10
103.9082249740228
 20
-136.8722744102262
 30
0.0
 10
103.9633262365635
 20
-136.8722744102262
 30
0.0
 10
104.0081290131982
 20
-136.8274716324601
 30
0.0
 10
104.0081290131982
 20
-136.7723677435845
 30
0.0
  0
SPLINE
  5
49
330
1F
100
AcDbEntity
  8
_U+30EC_U+30A4_U+30E4_U+30FC 1
 62
   179
420
  2234388
370
     9
100
AcDbSpline
210
0.0
220
0.0
230
1.0
 70
    11
 71
     3
 72
    17
 73
    13
 74
     0
 42
0.0000000001
 43
0.0000000001
 12
1.0
 22
0.0
 32
0.0
 13
1.0
 23
0.0
 33
0.0
 40
0.0
 40
0.0
 40
0.0
 40
0.0
 40
1.0
 40
1.0
 40
1.0
 40
2.0
 40
2.0
 40
2.0
 40
3.0
 40
3.0
 40
3.0
 40
4.0
 40
4.0
 40
4.0
 40
4.0
 10
100.0076643930364
 20
-140.7724444092516
 30
0.0
 10
100.0076643930364
 20
-140.7173405203761
 30
0.0
 10
99.96356717193916
 20
-140.6725377426094
 30
0.0
 10
99.90775772891853
 20
-140.6725377426094
 30
0.0
 10
99.85265384143545
 20
-140.6725377426094
 30
0.0
 10
99.8078510648007
 20
-140.7173405203761
 30
0.0
 10
99.8078510648007
 20
-140.7724444092516
 30
0.0
 10
99.8078510648007
 20
-140.8275835759041
 30
0.0
 10
99.85265384143545
 20
-140.8723510758933
 30
0.0
 10
99.90775772891853
 20
-140.8723510758933
 30
0.0
 10
99.96356717193916
 20
-140.8723510758933
 30
0.0
 10
100.0076643930364
 20
-140.8275835759041
 30
0.0
 10
100.0076643930364
 20
-140.7724444092516
 30
0.0
  0
SPLINE
  5
4A
330
1F
100
AcDbEntity
  8
_U+30EC_U+30A4_U+30E4_U+30FC 1
 62
   179
420
  2234388
370
     9
100
AcDbSpline
210
0.0
220
0.0
230
1.0
 70
    11
 71
     3
 72
    17
 73
    13
 74
     0
 42
0.0000000001
 43
0.0000000001
 12
1.0
 22
0.0
 32
0.0
 13
1.0
 23
0.0
 33
0.0
 40
0.0
 40
0.0
 40
0.0
 40
0.0
 40
1.0
 40
1.0
 40
1.0
 40
2.0
 40
2.0
 40
2.0
 40
3.0
 40
3.0
 40
3.0
 40
4.0
 40
4.0
 40
4.0
 40
4.0
 10
82.00858985223101
 20
-140.7724444092516
 30
0.0
 10
82.00858985223101
 20
-140.7173405203761
 30
0.0
 10
81.96382235337313
 20
-140.6725377426094
 30
0.0
 10
81.9080129103525
 20
-140.6725377426094
 30
0.0
 10
81.85287374509255
 20
-140.6725377426094
 30
0.0
 10
81.80810831288129
 20
-140.7173405203761
 30
0.0
 10
81.80810831288129
 20
-140.7724444092516
 30
0.0
 10
81.80810831288129
 20
-140.8275835759041
 30
0.0
 10
81.85287374509255
 20
-140.8723510758933
 30
0.0
 10
81.9080129103525
 20
-140.8723510758933
 30
0.0
 10
81.96382235337313
 20
-140.8723510758933
 30
0.0
 10
82.00858985223101
 20
-140.8275835759041
 30
0.0
 10
82.00858985223101
 20
-140.7724444092516
 30
0.0
  0
SPLINE
  5
4B
330
1F
100
AcDbEntity
  8
_U+30EC_U+30A4_U+30E4_U+30FC 1
 62
   179
420
  2234388
370
     9
100
AcDbSpline
210
0.0
220
0.0
230
1.0
 70
    11
 71
     3
 72
    17
 73
    13
 74
     0
 42
0.0000000001
 43
0.0000000001
 12
1.0
 22
0.0
 32
0.0
 13
1.0
 23
0.0
 33
0.0
 40
0.0
 40
0.0
 40
0.0
 40
0.0
 40
1.0
 40
1.0
 40
1.0
 40
2.0
 40
2.0
 40
2.0
 40
3.0
 40
3.0
 40
3.0
 40
4.0
 40
4.0
 40
4.0
 40
4.0
 10
100.0076643930364
 20
-132.7722558001405
 30
0.0
 10
100.0076643930364
 20
-132.7171519112649
 30
0.0
 10
99.96356717193916
 20
-132.6723491334989
 30
0.0
 10
99.90775772891853
 20
-132.6723491334989
 30
0.0
 10
99.85265384143545
 20
-132.6723491334989
 30
0.0
 10
99.8078510648007
 20
-132.7171519112649
 30
0.0
 10
99.8078510648007
 20
-132.7722558001405
 30
0.0
 10
99.8078510648007
 20
-132.8277124667932
 30
0.0
 10
99.85265384143545
 20
-132.8721624667822
 30
0.0
 10
99.90775772891853
 20
-132.8721624667822
 30
0.0
 10
99.96356717193916
 20
-132.8721624667822
 30
0.0
 10
100.0076643930364
 20
-132.8277124667932
 30
0.0
 10
100.0076643930364
 20
-132.7722558001405
 30
0.0
  0
SPLINE
  5
4C
330
1F
100
AcDbEntity
  8
_U+30EC_U+30A4_U+30E4_U+30FC 1
 62
   179
420
  2234388
370
     9
100
AcDbSpline
210
0.0
220
0.0
230
1.0
 70
    11
 71
     3
 72
    17
 73
    13
 74
     0
 42
0.0000000001
 43
0.0000000001
 12
1.0
 22
0.0
 32
0.0
 13
1.0
 23
0.0
 33
0.0
 40
0.0
 40
0.0
 40
0.0
 40
0.0
 40
1.0
 40
1.0
 40
1.0
 40
2.0
 40
2.0
 40
2.0
 40
3.0
 40
3.0
 40
3.0
 40
4.0
 40
4.0
 40
4.0
 40
4.0
 10
93.00791846050365
 20
-132.7722558001405
 30
0.0
 10
93.00791846050365
 20
-132.7171519112649
 30
0.0
 10
92.96315096164577
 20
-132.6723491334989
 30
0.0
 10
92.90801179638582
 20
-132.6723491334989
 30
0.0
 10
92.85290790890275
 20
-132.6723491334989
 30
0.0
 10
92.80810513226798
 20
-132.7171519112649
 30
0.0
 10
92.80810513226798
 20
-132.7722558001405
 30
0.0
 10
92.80810513226798
 20
-132.8277124667932
 30
0.0
 10
92.85290790890275
 20
-132.8721624667822
 30
0.0
 10
92.90801179638582
 20
-132.8721624667822
 30
0.0
 10
92.96315096164577
 20
-132.8721624667822
 30
0.0
 10
93.00791846050365
 20
-132.8277124667932
 30
0.0
 10
93.00791846050365
 20
-132.7722558001405
 30
0.0
  0
POLYLINE
  5
4D
330
1F
100
AcDbEntity
  8
_U+30EC_U+30A4_U+30E4_U+30FC 1
 62
   179
420
  2234388
370
     9
100
AcDb2dPolyline
 66
     1
 10
0.0
 20
0.0
 30
0.0
  0
VERTEX
  5
4E
330
4D
100
AcDbEntity
  8
_U+30EC_U+30A4_U+30E4_U+30FC 1
 62
   179
420
  2234388
370
     9
100
AcDbVertex
100
AcDb2dVertex
 10
81.9080129103525
 20
-117.7723210816682
 30
0.0
  0
VERTEX
  5
4F
330
4D
100
AcDbEntity
  8
_U+30EC_U+30A4_U+30E4_U+30FC 1
 62
   179
420
  2234388
370
     9
100
AcDbVertex
100
AcDb2dVertex
 10
89.9082013173618
 20
-117.7723210816682
 30
0.0
  0
SEQEND
  5
50
330
4D
100
AcDbEntity
  8
_U+30EC_U+30A4_U+30E4_U+30FC 1
 62
   179
420
  2234388
370
     9
  0
POLYLINE
  5
51
330
1F
100
AcDbEntity
  8
_U+30EC_U+30A4_U+30E4_U+30FC 1
 62
   179
420
  2234388
370
     9
100
AcDb2dPolyline
 66
     1
 10
0.0
 20
0.0
 30
0.0
  0
VERTEX
  5
52
330
51
100
AcDbEntity
  8
_U+30EC_U+30A4_U+30E4_U+30FC 1
 62
   179
420
  2234388
370
     9
100
AcDbVertex
100
AcDb2dVertex
 10
81.9080129103525
 20
-119.232327192414
 30
0.0
  0
VERTEX
  5
53
330
51
100
AcDbEntity
  8
_U+30EC_U+30A4_U+30E4_U+30FC 1
 62
   179
420
  2234388
370
     9
100
AcDbVertex
100
AcDb2dVertex
 10
81.9080129103525
 20
-116.7725488596956
 30
0.0
  0
SEQEND
  5
54
330
51
100
AcDbEntity
  8
_U+30EC_U+30A4_U+30E4_U+30FC 1
 62
   179
420
  2234388
370
     9
  0
POLYLINE
  5
55
330
1F
100
AcDbEntity
  8
_U+30EC_U+30A4_U+30E4_U+30FC 1
 62
   179
420
  2234388
370
     9
100
AcDb2dPolyline
 66
     1
 10
0.0
 20
0.0
 30
0.0
  0
VERTEX
  5
56
330
55
100
AcDbEntity
  8
_U+30EC_U+30A4_U+30E4_U+30FC 1
 62
   179
420
  2234388
370
     9
100
AcDbVertex
100
AcDb2dVertex
 10
89.9082013173618
 20
-119.232327192414
 30
0.0
  0
VERTEX
  5
57
330
55
100
AcDbEntity
  8
_U+30EC_U+30A4_U+30E4_U+30FC 1
 62
   179
420
  2234388
370
     9
100
AcDbVertex
100
AcDb2dVertex
 10
89.9082013173618
 20
-116.7725488596956
 30
0.0
  0
SEQEND
  5
58
330
55
100
AcDbEntity
  8
_U+30EC_U+30A4_U+30E4_U+30FC 1
 62
   179
420
  2234388
370
     9
  0
INSERT
  5
5A
330
1F
100
AcDbEntity
  8
_U+30EC_U+30A4_U+30E4_U+30FC 1
100
AcDbBlockReference
  2
block 2
 10
0.0
 20
0.0
 30
0.0
  0
POLYLINE
  5
61
330
1F
100
AcDbEntity
  8
_U+30EC_U+30A4_U+30E4_U+30FC 1
 62
   179
420
  2234388
370
     9
100
AcDb2dPolyline
 66
     1
 10
0.0
 20
0.0
 30
0.0
  0
VERTEX
  5
62
330
61
100
AcDbEntity
  8
_U+30EC_U+30A4_U+30E4_U+30FC 1
 62
   179
420
  2234388
370
     9
100
AcDbVertex
100
AcDb2dVertex
 10
81.9080129103525
 20
-140.7724444092516
 30
0.0
  0
VERTEX
  5
63
330
61
100
AcDbEntity
  8
_U+30EC_U+30A4_U+30E4_U+30FC 1
 62
   179
420
  2234388
370
     9
100
AcDbVertex
100
AcDb2dVertex
 10
99.90775772891853
 20
-140.7724444092516
 30
0.0
  0
SEQEND
  5
64
330
61
100
AcDbEntity
  8
_U+30EC_U+30A4_U+30E4_U+30FC 1
 62
   179
420
  2234388
370
     9
  0
POLYLINE
  5
65
330
1F
100
AcDbEntity
  8
_U+30EC_U+30A4_U+30E4_U+30FC 1
 62
   179
420
  2234388
370
     9
100
AcDb2dPolyline
 66
     1
 10
0.0
 20
0.0
 30
0.0
  0
VERTEX
  5
66
330
65
100
AcDbEntity
  8
_U+30EC_U+30A4_U+30E4_U+30FC 1
 62
   179
420
  2234388
370
     9
100
AcDbVertex
100
AcDb2dVertex
 10
81.9080129103525
 20
-139.3124382985055
 30
0.0
  0
VERTEX
  5
67
330
65
100
AcDbEntity
  8
_U+30EC_U+30A4_U+30E4_U+30FC 1
 62
   179
420
  2234388
370
     9
100
AcDbVertex
100
AcDb2dVertex
 10
81.9080129103525
 20
-141.7725694090013
 30
0.0
  0
SEQEND
  5
68
330
65
100
AcDbEntity
  8
_U+30EC_U+30A4_U+30E4_U+30FC 1
 62
   179
420
  2234388
370
     9
  0
POLYLINE
  5
69
330
1F
100
AcDbEntity
  8
_U+30EC_U+30A4_U+30E4_U+30FC 1
 62
   179
420
  2234388
370
     9
100
AcDb2dPolyline
 66
     1
 10
0.0
 20
0.0
 30
0.0
  0
VERTEX
  5
6A
330
69
100
AcDbEntity
  8
_U+30EC_U+30A4_U+30E4_U+30FC 1
 62
   179
420
  2234388
370
     9
100
AcDbVertex
100
AcDb2dVertex
 10
99.90775772891853
 20
-139.3124382985055
 30
0.0
  0
VERTEX
  5
6B
330
69
100
AcDbEntity
  8
_U+30EC_U+30A4_U+30E4_U+30FC 1
 62
   179
420
  2234388
370
     9
100
AcDbVertex
100
AcDb2dVertex
 10
99.90775772891853
 20
-141.7725694090013
 30
0.0
  0
SEQEND
  5
6C
330
69
100
AcDbEntity
  8
_U+30EC_U+30A4_U+30E4_U+30FC 1
 62
   179
420
  2234388
370
     9
  0
INSERT
  5
6E
330
1F
100
AcDbEntity
  8
_U+30EC_U+30A4_U+30E4_U+30FC 1
100
AcDbBlockReference
  2
block 3
 10
0.0
 20
0.0
 30
0.0
  0
POLYLINE
  5
77
330
1F
100
AcDbEntity
  8
_U+30EC_U+30A4_U+30E4_U+30FC 1
 62
   179
420
  2234388
370
     9
100
AcDb2dPolyline
 66
     1
 10
0.0
 20
0.0
 30
0.0
  0
VERTEX
  5
78
330
77
100
AcDbEntity
  8
_U+30EC_U+30A4_U+30E4_U+30FC 1
 62
   179
420
  2234388
370
     9
100
AcDbVertex
100
AcDb2dVertex
 10
103.9082249740228
 20
-136.7723677435845
 30
0.0
  0
VERTEX
  5
79
330
77
100
AcDbEntity
  8
_U+30EC_U+30A4_U+30E4_U+30FC 1
 62
   179
420
  2234388
370
     9
100
AcDbVertex
100
AcDb2dVertex
 10
103.9082249740228
 20
-142.0302735756034
 30
0.0
  0
SEQEND
  5
7A
330
77
100
AcDbEntity
  8
_U+30EC_U+30A4_U+30E4_U+30FC 1
 62
   179
420
  2234388
370
     9
  0
POLYLINE
  5
7B
330
1F
100
AcDbEntity
  8
_U+30EC_U+30A4_U+30E4_U+30FC 1
 62
   179
420
  2234388
370
     9
100
AcDb2dPolyline
 66
     1
 10
0.0
 20
0.0
 30
0.0
  0
VERTEX
  5
7C
330
7B
100
AcDbEntity
  8
_U+30EC_U+30A4_U+30E4_U+30FC 1
 62
   179
420
  2234388
370
     9
100
AcDbVertex
100
AcDb2dVertex
 10
103.9082249740228
 20
-136.7723677435845
 30
0.0
  0
VERTEX
  5
7D
330
7B
100
AcDbEntity
  8
_U+30EC_U+30A4_U+30E4_U+30FC 1
 62
   179
420
  2234388
370
     9
100
AcDbVertex
100
AcDb2dVertex
 10
103.9082249740228
 20
-136.0723155215375
 30
0.0
  0
SEQEND
  5
7E
330
7B
100
AcDbEntity
  8
_U+30EC_U+30A4_U+30E4_U+30FC 1
 62
   179
420
  2234388
370
     9
  0
POLYLINE
  5
7F
330
1F
100
AcDbEntity
  8
_U+30EC_U+30A4_U+30E4_U+30FC 1
 62
   179
420
  2234388
370
     9
100
AcDb2dPolyline
 66
     1
 10
0.0
 20
0.0
 30
0.0
  0
VERTEX
  5
80
330
7F
100
AcDbEntity
  8
_U+30EC_U+30A4_U+30E4_U+30FC 1
 62
   179
420
  2234388
370
     9
100
AcDbVertex
100
AcDb2dVertex
 10
102.4481809974403
 20
-136.7723677435845
 30
0.0
  0
VERTEX
  5
81
330
7F
100
AcDbEntity
  8
_U+30EC_U+30A4_U+30E4_U+30FC 1
 62
   179
420
  2234388
370
     9
100
AcDbVertex
100
AcDb2dVertex
 10
104.9079971959954
 20
-136.7723677435845
 30
0.0
  0
SEQEND
  5
82
330
7F
100
AcDbEntity
  8
_U+30EC_U+30A4_U+30E4_U+30FC 1
 62
   179
420
  2234388
370
     9
  0
POLYLINE
  5
83
330
1F
100
AcDbEntity
  8
_U+30EC_U+30A4_U+30E4_U+30FC 1
 62
   179
420
  2234388
370
     9
100
AcDb2dPolyline
 66
     1
 10
0.0
 20
0.0
 30
0.0
  0
VERTEX
  5
84
330
83
100
AcDbEntity
  8
_U+30EC_U+30A4_U+30E4_U+30FC 1
 62
   179
420
  2234388
370
     9
100
AcDbVertex
100
AcDb2dVertex
 10
102.1932285039447
 20
-136.0723155215375
 30
0.0
  0
VERTEX
  5
85
330
83
100
AcDbEntity
  8
_U+30EC_U+30A4_U+30E4_U+30FC 1
 62
   179
420
  2234388
370
     9
100
AcDbVertex
100
AcDb2dVertex
 10
104.9079971959954
 20
-136.0723155215375
 30
0.0
  0
SEQEND
  5
86
330
83
100
AcDbEntity
  8
_U+30EC_U+30A4_U+30E4_U+30FC 1
 62
   179
420
  2234388
370
     9
  0
INSERT
  5
88
330
1F
100
AcDbEntity
  8
_U+30EC_U+30A4_U+30E4_U+30FC 1
100
AcDbBlockReference
  2
block 4
 10
0.0
 20
0.0
 30
0.0
  0
POLYLINE
  5
98
330
1F
100
AcDbEntity
  8
_U+30EC_U+30A4_U+30E4_U+30FC 1
 62
   179
420
  2234388
370
     9
100
AcDb2dPolyline
 66
     1
 10
0.0
 20
0.0
 30
0.0
  0
VERTEX
  5
99
330
98
100
AcDbEntity
  8
_U+30EC_U+30A4_U+30E4_U+30FC 1
 62
   179
420
  2234388
370
     9
100
AcDbVertex
100
AcDb2dVertex
 10
81.9080129103525
 20
-132.7722558001405
 30
0.0
  0
VERTEX
  5
9A
330
98
100
AcDbEntity
  8
_U+30EC_U+30A4_U+30E4_U+30FC 1
 62
   179
420
  2234388
370
     9
100
AcDbVertex
100
AcDb2dVertex
 10
78.13770050654118
 20
-132.7722558001405
 30
0.0
  0
SEQEND
  5
9B
330
98
100
AcDbEntity
  8
_U+30EC_U+30A4_U+30E4_U+30FC 1
 62
   179
420
  2234388
370
     9
  0
POLYLINE
  5
9C
330
1F
100
AcDbEntity
  8
_U+30EC_U+30A4_U+30E4_U+30FC 1
 62
   179
420
  2234388
370
     9
100
AcDb2dPolyline
 66
     1
 10
0.0
 20
0.0
 30
0.0
  0
VERTEX
  5
9D
330
9C
100
AcDbEntity
  8
_U+30EC_U+30A4_U+30E4_U+30FC 1
 62
   179
420
  2234388
370
     9
100
AcDbVertex
100
AcDb2dVertex
 10
81.9080129103525
 20
-132.7722558001405
 30
0.0
  0
VERTEX
  5
9E
330
9C
100
AcDbEntity
  8
_U+30EC_U+30A4_U+30E4_U+30FC 1
 62
   179
420
  2234388
370
     9
100
AcDbVertex
100
AcDb2dVertex
 10
83.90822758154499
 20
-132.7722558001405
 30
0.0
  0
SEQEND
  5
9F
330
9C
100
AcDbEntity
  8
_U+30EC_U+30A4_U+30E4_U+30FC 1
 62
   179
420
  2234388
370
     9
  0
INSERT
  5
A1
330
1F
100
AcDbEntity
  8
_U+30EC_U+30A4_U+30E4_U+30FC 1
100
AcDbBlockReference
  2
block 5
 10
0.0
 20
0.0
 30
0.0
  0
POLYLINE
  5
A6
330
1F
100
AcDbEntity
  8
_U+30EC_U+30A4_U+30E4_U+30FC 1
 62
   179
420
  2234388
370
     9
100
AcDb2dPolyline
 66
     1
 10
0.0
 20
0.0
 30
0.0
  0
VERTEX
  5
A7
330
A6
100
AcDbEntity
  8
_U+30EC_U+30A4_U+30E4_U+30FC 1
 62
   179
420
  2234388
370
     9
100
AcDbVertex
100
AcDb2dVertex
 10
92.90801179638582
 20
-132.7722558001405
 30
0.0
  0
VERTEX
  5
A8
330
A6
100
AcDbEntity
  8
_U+30EC_U+30A4_U+30E4_U+30FC 1
 62
   179
420
  2234388
370
     9
100
AcDbVertex
100
AcDb2dVertex
 10
99.90775772891853
 20
-132.7722558001405
 30
0.0
  0
SEQEND
  5
A9
330
A6
100
AcDbEntity
  8
_U+30EC_U+30A4_U+30E4_U+30FC 1
 62
   179
420
  2234388
370
     9
  0
POLYLINE
  5
AA
330
1F
100
AcDbEntity
  8
_U+30EC_U+30A4_U+30E4_U+30FC 1
 62
   179
420
  2234388
370
     9
100
AcDb2dPolyline
 66
     1
 10
0.0
 20
0.0
 30
0.0
  0
VERTEX
  5
AB
330
AA
100
AcDbEntity
  8
_U+30EC_U+30A4_U+30E4_U+30FC 1
 62
   179
420
  2234388
370
     9
100
AcDbVertex
100
AcDb2dVertex
 10
92.90801179638582
 20
-133.2325249666917
 30
0.0
  0
VERTEX
  5
AC
330
AA
100
AcDbEntity
  8
_U+30EC_U+30A4_U+30E4_U+30FC 1
 62
   179
420
  2234388
370
     9
100
AcDbVertex
100
AcDb2dVertex
 10
92.90801179638582
 20
-131.772483578168
 30
0.0
  0
SEQEND
  5
AD
330
AA
100
AcDbEntity
  8
_U+30EC_U+30A4_U+30E4_U+30FC 1
 62
   179
420
  2234388
370
     9
  0
POLYLINE
  5
AE
330
1F
100
AcDbEntity
  8
_U+30EC_U+30A4_U+30E4_U+30FC 1
 62
   179
420
  2234388
370
     9
100
AcDb2dPolyline
 66
     1
 10
0.0
 20
0.0
 30
0.0
  0
VERTEX
  5
AF
330
AE
100
AcDbEntity
  8
_U+30EC_U+30A4_U+30E4_U+30FC 1
 62
   179
420
  2234388
370
     9
100
AcDbVertex
100
AcDb2dVertex
 10
99.90775772891853
 20
-134.2322971886642
 30
0.0
  0
VERTEX
  5
B0
330
AE
100
AcDbEntity
  8
_U+30EC_U+30A4_U+30E4_U+30FC 1
 62
   179
420
  2234388
370
     9
100
AcDbVertex
100
AcDb2dVertex
 10
99.90775772891853
 20
-131.772483578168
 30
0.0
  0
SEQEND
  5
B1
330
AE
100
AcDbEntity
  8
_U+30EC_U+30A4_U+30E4_U+30FC 1
 62
   179
420
  2234388
370
     9
  0
INSERT
  5
B3
330
1F
100
AcDbEntity
  8
_U+30EC_U+30A4_U+30E4_U+30FC 1
100
AcDbBlockReference
  2
block 6
 10
0.0
 20
0.0
 30
0.0
  0
POLYLINE
  5
B8
330
1F
100
AcDbEntity
  8
_U+30EC_U+30A4_U+30E4_U+30FC 1
 62
   179
420
  2234388
370
     9
100
AcDb2dPolyline
 66
     1
 10
0.0
 20
0.0
 30
0.0
  0
VERTEX
  5
B9
330
B8
100
AcDbEntity
  8
_U+30EC_U+30A4_U+30E4_U+30FC 1
 62
   179
420
  2234388
370
     9
100
AcDbVertex
100
AcDb2dVertex
 10
103.9082249740228
 20
-122.7725227470846
 30
0.0
  0
VERTEX
  5
BA
330
B8
100
AcDbEntity
  8
_U+30EC_U+30A4_U+30E4_U+30FC 1
 62
   179
420
  2234388
370
     9
100
AcDbVertex
100
AcDb2dVertex
 10
103.9082249740228
 20
-135.7722427438349
 30
0.0
  0
SEQEND
  5
BB
330
B8
100
AcDbEntity
  8
_U+30EC_U+30A4_U+30E4_U+30FC 1
 62
   179
420
  2234388
370
     9
  0
POLYLINE
  5
BC
330
1F
100
AcDbEntity
  8
_U+30EC_U+30A4_U+30E4_U+30FC 1
 62
   179
420
  2234388
370
     9
100
AcDb2dPolyline
 66
     1
 10
0.0
 20
0.0
 30
0.0
  0
VERTEX
  5
BD
330
BC
100
AcDbEntity
  8
_U+30EC_U+30A4_U+30E4_U+30FC 1
 62
   179
420
  2234388
370
     9
100
AcDbVertex
100
AcDb2dVertex
 10
92.81223263216268
 20
-122.7725227470846
 30
0.0
  0
VERTEX
  5
BE
330
BC
100
AcDbEntity
  8
_U+30EC_U+30A4_U+30E4_U+30FC 1
 62
   179
420
  2234388
370
     9
100
AcDbVertex
100
AcDb2dVertex
 10
104.9079971959954
 20
-122.7725227470846
 30
0.0
  0
SEQEND
  5
BF
330
BC
100
AcDbEntity
  8
_U+30EC_U+30A4_U+30E4_U+30FC 1
 62
   179
420
  2234388
370
     9
  0
POLYLINE
  5
C0
330
1F
100
AcDbEntity
  8
_U+30EC_U+30A4_U+30E4_U+30FC 1
 62
   179
420
  2234388
370
     9
100
AcDb2dPolyline
 66
     1
 10
0.0
 20
0.0
 30
0.0
  0
VERTEX
  5
C1
330
C0
100
AcDbEntity
  8
_U+30EC_U+30A4_U+30E4_U+30FC 1
 62
   179
420
  2234388
370
     9
100
AcDbVertex
100
AcDb2dVertex
 10
95.44772950936999
 20
-135.7722427438349
 30
0.0
  0
VERTEX
  5
C2
330
C0
100
AcDbEntity
  8
_U+30EC_U+30A4_U+30E4_U+30FC 1
 62
   179
420
  2234388
370
     9
100
AcDbVertex
100
AcDb2dVertex
 10
104.9079971959954
 20
-135.7722427438349
 30
0.0
  0
SEQEND
  5
C3
330
C0
100
AcDbEntity
  8
_U+30EC_U+30A4_U+30E4_U+30FC 1
 62
   179
420
  2234388
370
     9
  0
INSERT
  5
C5
330
1F
100
AcDbEntity
  8
_U+30EC_U+30A4_U+30E4_U+30FC 1
100
AcDbBlockReference
  2
block 7
 10
0.0
 20
0.0
 30
0.0
  0
SPLINE
  5
CC
330
1F
100
AcDbEntity
  8
_U+30EC_U+30A4_U+30E4_U+30FC 1
 62
     9
420
 13224394
370
     9
100
AcDbSpline
210
0.0
220
0.0
230
1.0
 70
    11
 71
     3
 72
    44
 73
    40
 74
     0
 42
0.0000000001
 43
0.0000000001
 12
1.0
 22
0.0
 32
0.0
 13
1.0
 23
0.0
 33
0.0
 40
0.0
 40
0.0
 40
0.0
 40
0.0
 40
1.0
 40
1.0
 40
1.0
 40
2.0
 40
2.0
 40
2.0
 40
3.0
 40
3.0
 40
3.0
 40
4.0
 40
4.0
 40
4.0
 40
5.0
 40
5.0
 40
5.0
 40
6.0
 40
6.0
 40
6.0
 40
7.0
 40
7.0
 40
7.0
 40
8.0
 40
8.0
 40
8.0
 40
9.0
 40
9.0
 40
9.0
 40
10.0
 40
10.0
 40
10.0
 40
11.0
 40
11.0
 40
11.0
 40
12.0
 40
12.0
 40
12.0
 40
13.0
 40
13.0
 40
13.0
 40
13.0
 10
89.45174442208162
 20
-121.9046894139682
 30
0.0
 10
89.45174442208162
 20
-121.9046894139682
 30
0.0
 10
89.71925354440448
 20
-122.640231080451
 30
0.0
 10
89.71925354440448
 20
-122.640231080451
 30
0.0
 10
89.71925354440448
 20
-122.640231080451
 30
0.0
 10
82.90845538482908
 20
-122.640231080451
 30
0.0
 10
82.90845538482908
 20
-122.640231080451
 30
0.0
 10
82.83543038669211
 20
-122.640231080451
 30
0.0
 10
82.77616372153746
 20
-122.6994977471028
 30
0.0
 10
82.77616372153746
 20
-122.7725227470846
 30
0.0
 10
82.77616372153746
 20
-122.7725227470846
 30
0.0
 10
82.77616372153746
 20
-135.7722427438349
 30
0.0
 10
82.77616372153746
 20
-135.7722427438349
 30
0.0
 10
82.77616372153746
 20
-135.8452677438167
 30
0.0
 10
82.83543038669211
 20
-135.9045344104684
 30
0.0
 10
82.90845538482908
 20
-135.9045344104684
 30
0.0
 10
82.90845538482908
 20
-135.9045344104684
 30
0.0
 10
92.85358053234228
 20
-135.9045344104684
 30
0.0
 10
92.85358053234228
 20
-135.9045344104684
 30
0.0
 10
92.85358053234228
 20
-135.9045344104684
 30
0.0
 10
93.11438679112075
 20
-136.1660132992921
 30
0.0
 10
93.11438679112075
 20
-136.1660132992921
 30
0.0
 10
93.13816401273637
 20
-136.1897905215083
 30
0.0
 10
93.17121928967083
 20
-136.2046071881711
 30
0.0
 10
93.20773178873932
 20
-136.2046071881711
 30
0.0
 10
93.20773178873932
 20
-136.2046071881711
 30
0.0
 10
99.56118884887135
 20
-136.2046071881711
 30
0.0
 10
99.56118884887135
 20
-136.2046071881711
 30
0.0
 10
99.56118884887135
 20
-136.2046071881711
 30
0.0
 10
99.71898886395903
 20
-136.6400760769509
 30
0.0
 10
99.71898886395903
 20
-136.6400760769509
 30
0.0
 10
99.71898886395903
 20
-136.6400760769509
 30
0.0
 10
82.04030457364412
 20
-136.6400760769509
 30
0.0
 10
82.04030457364412
 20
-136.6400760769509
 30
0.0
 10
82.04030457364412
 20
-136.6400760769509
 30
0.0
 10
82.04030457364412
 20
-121.9046894139682
 30
0.0
 10
82.04030457364412
 20
-121.9046894139682
 30
0.0
 10
82.04030457364412
 20
-121.9046894139682
 30
0.0
 10
89.45174442208162
 20
-121.9046894139682
 30
0.0
 10
89.45174442208162
 20
-121.9046894139682
 30
0.0
  0
HATCH
  5
CD
330
1F
100
AcDbEntity
  8
_U+30EC_U+30A4_U+30E4_U+30FC 1
 62
     9
420
 13224394
100
AcDbHatch
 10
0.0
 20
0.0
 30
0.0
210
0.0
220
0.0
230
1.0
  2
SOLID
 70
     1
 71
     0
 91
        1
 92
        1
 93
        1
 72
     4
 94
        3
 73
     0
 74
     1
 95
       44
 96
       40
 40
0.0
 40
0.0
 40
0.0
 40
0.0
 40
1.0
 40
1.0
 40
1.0
 40
2.0
 40
2.0
 40
2.0
 40
3.0
 40
3.0
 40
3.0
 40
4.0
 40
4.0
 40
4.0
 40
5.0
 40
5.0
 40
5.0
 40
6.0
 40
6.0
 40
6.0
 40
7.0
 40
7.0
 40
7.0
 40
8.0
 40
8.0
 40
8.0
 40
9.0
 40
9.0
 40
9.0
 40
10.0
 40
10.0
 40
10.0
 40
11.0
 40
11.0
 40
11.0
 40
12.0
 40
12.0
 40
12.0
 40
13.0
 40
13.0
 40
13.0
 40
13.0
 10
89.45174442208162
 20
-121.9046894139682
 10
89.45174442208162
 20
-121.9046894139682
 10
89.71925354440448
 20
-122.640231080451
 10
89.71925354440448
 20
-122.640231080451
 10
89.71925354440448
 20
-122.640231080451
 10
82.90845538482908
 20
-122.640231080451
 10
82.90845538482908
 20
-122.640231080451
 10
82.83543038669211
 20
-122.640231080451
 10
82.77616372153746
 20
-122.6994977471028
 10
82.77616372153746
 20
-122.7725227470846
 10
82.77616372153746
 20
-122.7725227470846
 10
82.77616372153746
 20
-135.7722427438349
 10
82.77616372153746
 20
-135.7722427438349
 10
82.77616372153746
 20
-135.8452677438167
 10
82.83543038669211
 20
-135.9045344104684
 10
82.90845538482908
 20
-135.9045344104684
 10
82.90845538482908
 20
-135.9045344104684
 10
92.85358053234228
 20
-135.9045344104684
 10
92.85358053234228
 20
-135.9045344104684
 10
92.85358053234228
 20
-135.9045344104684
 10
93.11438679112075
 20
-136.1660132992921
 10
93.11438679112075
 20
-136.1660132992921
 10
93.13816401273637
 20
-136.1897905215083
 10
93.17121928967083
 20
-136.2046071881711
 10
93.20773178873932
 20
-136.2046071881711
 10
93.20773178873932
 20
-136.2046071881711
 10
99.56118884887135
 20
-136.2046071881711
 10
99.56118884887135
 20
-136.2046071881711
 10
99.56118884887135
 20
-136.2046071881711
 10
99.71898886395903
 20
-136.6400760769509
 10
99.71898886395903
 20
-136.6400760769509
 10
99.71898886395903
 20
-136.6400760769509
 10
82.04030457364412
 20
-136.6400760769509
 10
82.04030457364412
 20
-136.6400760769509
 10
82.04030457364412
 20
-136.6400760769509
 10
82.04030457364412
 20
-121.9046894139682
 10
82.04030457364412
 20
-121.9046894139682
 10
82.04030457364412
 20
-121.9046894139682
 10
89.45174442208162
 20
-121.9046894139682
 10
89.45174442208162
 20
-121.9046894139682
 97
        0
 97
        0
 75
     2
 76
     1
 98
        0
  0
POLYLINE
  5
CE
330
1F
100
AcDbEntity
  8
_U+30EC_U+30A4_U+30E4_U+30FC 1
 62
   179
420
  2234388
370
    25
100
AcDb2dPolyline
 66
     1
 10
0.0
 20
0.0
 30
0.0
  0
VERTEX
  5
CF
330
CE
100
AcDbEntity
  8
_U+30EC_U+30A4_U+30E4_U+30FC 1
 62
   179
420
  2234388
370
    25
100
AcDbVertex
100
AcDb2dVertex
 10
81.9080129103525
 20
-121.7723977473347
 30
0.0
  0
VERTEX
  5
D0
330
CE
100
AcDbEntity
  8
_U+30EC_U+30A4_U+30E4_U+30FC 1
 62
   179
420
  2234388
370
    25
100
AcDbVertex
100
AcDb2dVertex
 10
81.9080129103525
 20
-136.7723677435845
 30
0.0
  0
SEQEND
  5
D1
330
CE
100
AcDbEntity
  8
_U+30EC_U+30A4_U+30E4_U+30FC 1
 62
   179
420
  2234388
370
    25
  0
POLYLINE
  5
D2
330
1F
100
AcDbEntity
  8
_U+30EC_U+30A4_U+30E4_U+30FC 1
 62
   179
420
  2234388
370
    25
100
AcDb2dPolyline
 66
     1
 10
0.0
 20
0.0
 30
0.0
  0
VERTEX
  5
D3
330
D2
100
AcDbEntity
  8
_U+30EC_U+30A4_U+30E4_U+30FC 1
 62
   179
420
  2234388
370
    25
100
AcDbVertex
100
AcDb2dVertex
 10
82.90845538482908
 20
-135.7722427438349
 30
0.0
  0
VERTEX
  5
D4
330
D2
100
AcDbEntity
  8
_U+30EC_U+30A4_U+30E4_U+30FC 1
 62
   179
420
  2234388
370
    25
100
AcDbVertex
100
AcDb2dVertex
 10
92.90801179638582
 20
-135.7722427438349
 30
0.0
  0
SEQEND
  5
D5
330
D2
100
AcDbEntity
  8
_U+30EC_U+30A4_U+30E4_U+30FC 1
 62
   179
420
  2234388
370
    25
  0
POLYLINE
  5
D6
330
1F
100
AcDbEntity
  8
_U+30EC_U+30A4_U+30E4_U+30FC 1
 62
   179
420
  2234388
370
    25
100
AcDb2dPolyline
 66
     1
 10
0.0
 20
0.0
 30
0.0
  0
VERTEX
  5
D7
330
D6
100
AcDbEntity
  8
_U+30EC_U+30A4_U+30E4_U+30FC 1
 62
   179
420
  2234388
370
    25
100
AcDbVertex
100
AcDb2dVertex
 10
82.90845538482908
 20
-122.7725227470846
 30
0.0
  0
VERTEX
  5
D8
330
D6
100
AcDbEntity
  8
_U+30EC_U+30A4_U+30E4_U+30FC 1
 62
   179
420
  2234388
370
    25
100
AcDbVertex
100
AcDb2dVertex
 10
89.9082013173618
 20
-122.7725227470846
 30
0.0
  0
SEQEND
  5
D9
330
D6
100
AcDbEntity
  8
_U+30EC_U+30A4_U+30E4_U+30FC 1
 62
   179
420
  2234388
370
    25
  0
POLYLINE
  5
DA
330
1F
100
AcDbEntity
  8
_U+30EC_U+30A4_U+30E4_U+30FC 1
 62
   179
420
  2234388
370
    25
100
AcDb2dPolyline
 66
     1
 10
0.0
 20
0.0
 30
0.0
  0
VERTEX
  5
DB
330
DA
100
AcDbEntity
  8
_U+30EC_U+30A4_U+30E4_U+30FC 1
 62
   179
420
  2234388
370
    25
100
AcDbVertex
100
AcDb2dVertex
 10
81.9080129103525
 20
-121.7723977473347
 30
0.0
  0
VERTEX
  5
DC
330
DA
100
AcDbEntity
  8
_U+30EC_U+30A4_U+30E4_U+30FC 1
 62
   179
420
  2234388
370
    25
100
AcDbVertex
100
AcDb2dVertex
 10
89.54441688219828
 20
-121.7723977473347
 30
0.0
  0
SEQEND
  5
DD
330
DA
100
AcDbEntity
  8
_U+30EC_U+30A4_U+30E4_U+30FC 1
 62
   179
420
  2234388
370
    25
  0
POLYLINE
  5
DE
330
1F
100
AcDbEntity
  8
_U+30EC_U+30A4_U+30E4_U+30FC 1
 62
   179
420
  2234388
370
    25
100
AcDb2dPolyline
 66
     1
 10
0.0
 20
0.0
 30
0.0
  0
VERTEX
  5
DF
330
DE
100
AcDbEntity
  8
_U+30EC_U+30A4_U+30E4_U+30FC 1
 62
   179
420
  2234388
370
    25
100
AcDbVertex
100
AcDb2dVertex
 10
81.9080129103525
 20
-136.7723677435845
 30
0.0
  0
VERTEX
  5
E0
330
DE
100
AcDbEntity
  8
_U+30EC_U+30A4_U+30E4_U+30FC 1
 62
   179
420
  2234388
370
    25
100
AcDbVertex
100
AcDb2dVertex
 10
99.90775772891853
 20
-136.7723677435845
 30
0.0
  0
SEQEND
  5
E1
330
DE
100
AcDbEntity
  8
_U+30EC_U+30A4_U+30E4_U+30FC 1
 62
   179
420
  2234388
370
    25
  0
POLYLINE
  5
E2
330
1F
100
AcDbEntity
  8
_U+30EC_U+30A4_U+30E4_U+30FC 1
 62
   179
420
  2234388
370
    25
100
AcDb2dPolyline
 66
     1
 10
0.0
 20
0.0
 30
0.0
  0
VERTEX
  5
E3
330
E2
100
AcDbEntity
  8
_U+30EC_U+30A4_U+30E4_U+30FC 1
 62
   179
420
  2234388
370
    25
100
AcDbVertex
100
AcDb2dVertex
 10
82.90845538482908
 20
-122.7725227470846
 30
0.0
  0
VERTEX
  5
E4
330
E2
100
AcDbEntity
  8
_U+30EC_U+30A4_U+30E4_U+30FC 1
 62
   179
420
  2234388
370
    25
100
AcDbVertex
100
AcDb2dVertex
 10
82.90845538482908
 20
-135.7722427438349
 30
0.0
  0
SEQEND
  5
E5
330
E2
100
AcDbEntity
  8
_U+30EC_U+30A4_U+30E4_U+30FC 1
 62
   179
420
  2234388
370
    25
  0
POLYLINE
  5
E6
330
1F
100
AcDbEntity
  8
_U+30EC_U+30A4_U+30E4_U+30FC 1
 62
   179
420
  2234388
370
    25
100
AcDb2dPolyline
 66
     1
 10
0.0
 20
0.0
 30
0.0
  0
VERTEX
  5
E7
330
E6
100
AcDbEntity
  8
_U+30EC_U+30A4_U+30E4_U+30FC 1
 62
   179
420
  2234388
370
    25
100
AcDbVertex
100
AcDb2dVertex
 10
93.20773178873932
 20
-136.0723155215375
 30
0.0
  0
VERTEX
  5
E8
330
E6
100
AcDbEntity
  8
_U+30EC_U+30A4_U+30E4_U+30FC 1
 62
   179
420
  2234388
370
    25
100
AcDbVertex
100
AcDb2dVertex
 10
99.65351079096047
 20
-136.0723155215375
 30
0.0
  0
SEQEND
  5
E9
330
E6
100
AcDbEntity
  8
_U+30EC_U+30A4_U+30E4_U+30FC 1
 62
   179
420
  2234388
370
    25
  0
POLYLINE
  5
EA
330
1F
100
AcDbEntity
  8
_U+30EC_U+30A4_U+30E4_U+30FC 1
 62
   179
420
  2234388
370
    25
100
AcDb2dPolyline
 66
     1
 10
0.0
 20
0.0
 30
0.0
  0
VERTEX
  5
EB
330
EA
100
AcDbEntity
  8
_U+30EC_U+30A4_U+30E4_U+30FC 1
 62
   179
420
  2234388
370
    25
100
AcDbVertex
100
AcDb2dVertex
 10
89.54441688219828
 20
-121.7723977473347
 30
0.0
  0
VERTEX
  5
EC
330
EA
100
AcDbEntity
  8
_U+30EC_U+30A4_U+30E4_U+30FC 1
 62
   179
420
  2234388
370
    25
100
AcDbVertex
100
AcDb2dVertex
 10
89.9082013173618
 20
-122.7725227470846
 30
0.0
  0
SEQEND
  5
ED
330
EA
100
AcDbEntity
  8
_U+30EC_U+30A4_U+30E4_U+30FC 1
 62
   179
420
  2234388
370
    25
  0
POLYLINE
  5
EE
330
1F
100
AcDbEntity
  8
_U+30EC_U+30A4_U+30E4_U+30FC 1
 62
   179
420
  2234388
370
    25
100
AcDb2dPolyline
 66
     1
 10
0.0
 20
0.0
 30
0.0
  0
VERTEX
  5
EF
330
EE
100
AcDbEntity
  8
_U+30EC_U+30A4_U+30E4_U+30FC 1
 62
   179
420
  2234388
370
    25
100
AcDbVertex
100
AcDb2dVertex
 10
99.65351079096047
 20
-136.0723155215375
 30
0.0
  0
VERTEX
  5
F0
330
EE
100
AcDbEntity
  8
_U+30EC_U+30A4_U+30E4_U+30FC 1
 62
   179
420
  2234388
370
    25
100
AcDbVertex
100
AcDb2dVertex
 10
99.90775772891853
 20
-136.7723677435845
 30
0.0
  0
SEQEND
  5
F1
330
EE
100
AcDbEntity
  8
_U+30EC_U+30A4_U+30E4_U+30FC 1
 62
   179
420
  2234388
370
    25
  0
POLYLINE
  5
F2
330
1F
100
AcDbEntity
  8
_U+30EC_U+30A4_U+30E4_U+30FC 1
 62
   179
420
  2234388
370
    25
100
AcDb2dPolyline
 66
     1
 10
0.0
 20
0.0
 30
0.0
  0
VERTEX
  5
F3
330
F2
100
AcDbEntity
  8
_U+30EC_U+30A4_U+30E4_U+30FC 1
 62
   179
420
  2234388
370
    25
100
AcDbVertex
100
AcDb2dVertex
 10
92.90801179638582
 20
-135.7722427438349
 30
0.0
  0
VERTEX
  5
F4
330
F2
100
AcDbEntity
  8
_U+30EC_U+30A4_U+30E4_U+30FC 1
 62
   179
420
  2234388
370
    25
100
AcDbVertex
100
AcDb2dVertex
 10
93.20773178873932
 20
-136.0723155215375
 30
0.0
  0
SEQEND
  5
F5
330
F2
100
AcDbEntity
  8
_U+30EC_U+30A4_U+30E4_U+30FC 1
 62
   179
420
  2234388
370
    25
  0
ENDSEC
  0
SECTION
  2
OBJECTS
  0
DICTIONARY
  5
C
330
0
100
AcDbDictionary
281
     1
  3
ACAD_GROUP
350
D
  3
ACAD_LAYOUT
350
1A
  3
ACAD_MATERIAL
350
3B
  3
ACAD_MLEADERSTYLE
350
F7
  3
ACAD_MLINESTYLE
350
17
  3
ACAD_PLOTSETTINGS
350
19
  3
ACAD_PLOTSTYLENAME
350
E
  3
ACAD_TABLESTYLE
350
F6
  3
ACAD_VISUALSTYLE
350
2A
  0
SUN
  5
3F
330
29
100
AcDbSun
 90
        1
290
     0
 63
     7
421
 16777215
 40
1.0
291
     1
 91
  2455826
 92
 54000000
292
     0
 70
     2
 71
   256
280
     1
  0
DICTIONARY
  5
D
102
{ACAD_REACTORS
330
C
102
}
330
C
100
AcDbDictionary
281
     1
  0
DICTIONARY
  5
1A
102
{ACAD_REACTORS
330
C
102
}
330
C
100
AcDbDictionary
281
     1
  3
Layout1
350
1E
  3
Layout2
350
26
  3
Model
350
22
  0
DICTIONARY
  5
3B
102
{ACAD_REACTORS
330
C
102
}
330
C
100
AcDbDictionary
281
     1
  3
ByBlock
350
3D
  3
ByLayer
350
3C
  3
Global
350
3E
  0
DICTIONARY
  5
F7
102
{ACAD_REACTORS
330
C
102
}
330
C
100
AcDbDictionary
281
     1
  0
DICTIONARY
  5
17
102
{ACAD_REACTORS
330
C
102
}
330
C
100
AcDbDictionary
281
     1
  3
Standard
350
18
  0
DICTIONARY
  5
19
102
{ACAD_REACTORS
330
C
102
}
330
C
100
AcDbDictionary
281
     1
  0
ACDBDICTIONARYWDFLT
  5
E
102
{ACAD_REACTORS
330
C
102
}
330
C
100
AcDbDictionary
281
     1
  3
Normal
350
F
100
AcDbDictionaryWithDefault
340
F
  0
DICTIONARY
  5
F6
102
{ACAD_REACTORS
330
C
102
}
330
C
100
AcDbDictionary
281
     1
  0
DICTIONARY
  5
2A
102
{ACAD_REACTORS
330
C
102
}
330
C
100
AcDbDictionary
281
     1
  3
2dWireframe
350
2F
  3
3D Hidden
350
31
  3
3dWireframe
350
30
  3
Basic
350
32
  3
Brighten
350
36
  3
ColorChange
350
3A
  3
Conceptual
350
34
  3
Dim
350
35
  3
Facepattern
350
39
  3
Flat
350
2B
  3
FlatWithEdges
350
2C
  3
Gouraud
350
2D
  3
GouraudWithEdges
350
2E
  3
Linepattern
350
38
  3
Realistic
350
33
  3
Thicken
350
37
  0
LAYOUT
  5
1E
102
{ACAD_REACTORS
330
1A
102
}
330
1A
100
AcDbPlotSettings
  1

  2
none_device
  4

  6

 40
0.0
 41
0.0
 42
0.0
 43
0.0
 44
0.0
 45
0.0
 46
0.0
 47
0.0
 48
0.0
 49
0.0
140
0.0
141
0.0
142
1.0
143
1.0
 70
   688
 72
     0
 73
     0
 74
     5
  7

 75
    16
 76
     0
 77
     2
 78
   300
147
1.0
148
0.0
149
0.0
100
AcDbLayout
  1
Layout1
 70
     1
 71
     1
 10
0.0
 20
0.0
 11
12.0
 21
9.0
 12
0.0
 22
0.0
 32
0.0
 14
1.000000000000000E+20
 24
1.000000000000000E+20
 34
1.000000000000000E+20
 15
-1.000000000000000E+20
 25
-1.000000000000000E+20
 35
-1.000000000000000E+20
146
0.0
 13
0.0
 23
0.0
 33
0.0
 16
1.0
 26
0.0
 36
0.0
 17
0.0
 27
1.0
 37
0.0
 76
     0
330
1B
  0
LAYOUT
  5
26
102
{ACAD_REACTORS
330
1A
102
}
330
1A
100
AcDbPlotSettings
  1

  2
none_device
  4

  6

 40
0.0
 41
0.0
 42
0.0
 43
0.0
 44
0.0
 45
0.0
 46
0.0
 47
0.0
 48
0.0
 49
0.0
140
0.0
141
0.0
142
1.0
143
1.0
 70
   688
 72
     0
 73
     0
 74
     5
  7

 75
    16
 76
     0
 77
     2
 78
   300
147
1.0
148
0.0
149
0.0
100
AcDbLayout
  1
Layout2
 70
     1
 71
     2
 10
0.0
 20
0.0
 11
0.0
 21
0.0
 12
0.0
 22
0.0
 32
0.0
 14
0.0
 24
0.0
 34
0.0
 15
0.0
 25
0.0
 35
0.0
146
0.0
 13
0.0
 23
0.0
 33
0.0
 16
1.0
 26
0.0
 36
0.0
 17
0.0
 27
1.0
 37
0.0
 76
     0
330
23
  0
LAYOUT
  5
22
102
{ACAD_REACTORS
330
1A
102
}
330
1A
100
AcDbPlotSettings
  1

  2
none_device
  4

  6

 40
0.0
 41
0.0
 42
0.0
 43
0.0
 44
0.0
 45
0.0
 46
0.0
 47
0.0
 48
0.0
 49
0.0
140
0.0
141
0.0
142
1.0
143
1.0
 70
  1712
 72
     0
 73
     0
 74
     0
  7

 75
     0
 76
     0
 77
     2
 78
   300
147
1.0
148
0.0
149
0.0
100
AcDbLayout
  1
Model
 70
     1
 71
     0
 10
0.0
 20
0.0
 11
12.0
 21
9.0
 12
0.0
 22
0.0
 32
0.0
 14
1.000000000000000E+20
 24
1.000000000000000E+20
 34
1.000000000000000E+20
 15
-1.000000000000000E+20
 25
-1.000000000000000E+20
 35
-1.000000000000000E+20
146
0.0
 13
0.0
 23
0.0
 33
0.0
 16
1.0
 26
0.0
 36
0.0
 17
0.0
 27
1.0
 37
0.0
 76
     0
330
1F
331
29
  0
MATERIAL
  5
3D
102
{ACAD_REACTORS
330
3B
102
}
330
3B
100
AcDbMaterial
  1
ByBlock
 72
     1
 94
      127
  0
MATERIAL
  5
3C
102
{ACAD_REACTORS
330
3B
102
}
330
3B
100
AcDbMaterial
  1
ByLayer
 72
     1
 94
      127
  0
MATERIAL
  5
3E
102
{ACAD_REACTORS
330
3B
102
}
330
3B
100
AcDbMaterial
  1
Global
 72
     1
 94
      127
  0
MLINESTYLE
  5
18
102
{ACAD_REACTORS
330
17
102
}
330
17
100
AcDbMlineStyle
  2
Standard
 70
     0
  3

 62
   256
 51
90.0
 52
90.0
 71
     2
 49
0.5
 62
   256
  6
BYLAYER
 49
-0.5
 62
   256
  6
BYLAYER
  0
ACDBPLACEHOLDER
  5
F
102
{ACAD_REACTORS
330
E
102
}
330
E
  0
VISUALSTYLE
  5
2F
102
{ACAD_REACTORS
330
2A
102
}
330
2A
100
AcDbVisualStyle
  2
2dWireframe
 70
     4
177
     2
291
     0
 71
     0
176
     1
 72
     2
176
     1
 73
     0
176
     1
 90
        0
176
     1
 40
-0.6
176
     1
 41
-30.0
176
     1
 62
     5
 63
     7
421
 16777215
176
     1
 74
     1
176
     1
 91
        4
176
     1
 64
     7
176
     1
 65
   257
176
     1
 75
     1
176
     1
175
     1
176
     1
 42
1.0
176
     1
 92
        0
176
     1
 66
   257
176
     1
 43
1.0
176
     1
 76
     1
176
     1
 77
     6
176
     1
 78
     2
176
     1
 67
     7
176
     1
 79
     5
176
     1
170
     0
176
     1
171
     0
176
     1
290
     0
176
     1
 93
        1
176
     1
 44
0.0
176
     1
173
     0
176
     1
  0
VISUALSTYLE
  5
31
102
{ACAD_REACTORS
330
2A
102
}
330
2A
100
AcDbVisualStyle
  2
3D Hidden
 70
     6
177
     2
291
     0
 71
     1
176
     1
 72
     2
176
     1
 73
     2
176
     1
 90
        0
176
     1
 40
-0.6
176
     1
 41
-30.0
176
     1
 62
     5
 63
     7
421
 16777215
176
     1
 74
     2
176
     1
 91
        2
176
     1
 64
     7
176
     1
 65
   257
176
     1
 75
     2
176
     1
175
     1
176
     1
 42
40.0
176
     1
 92
        0
176
     1
 66
   257
176
     1
 43
1.0
176
     1
 76
     1
176
     1
 77
     6
176
     1
 78
     2
176
     1
 67
     7
176
     1
 79
     3
176
     1
170
     0
176
     1
171
     0
176
     1
290
     0
176
     1
 93
        1
176
     1
 44
0.0
176
     1
173
     0
176
     1
  0
VISUALSTYLE
  5
30
102
{ACAD_REACTORS
330
2A
102
}
330
2A
100
AcDbVisualStyle
  2
3dWireframe
 70
     5
177
     2
291
     0
 71
     0
176
     1
 72
     2
176
     1
 73
     0
176
     1
 90
        0
176
     1
 40
-0.6
176
     1
 41
-30.0
176
     1
 62
     5
 63
     7
421
 16777215
176
     1
 74
     1
176
     1
 91
        4
176
     1
 64
     7
176
     1
 65
   257
176
     1
 75
     1
176
     1
175
     1
176
     1
 42
1.0
176
     1
 92
        0
176
     1
 66
   257
176
     1
 43
1.0
176
     1
 76
     1
176
     1
 77
     6
176
     1
 78
     2
176
     1
 67
     7
176
     1
 79
     5
176
     1
170
     0
176
     1
171
     0
176
     1
290
     0
176
     1
 93
        1
176
     1
 44
0.0
176
     1
173
     0
176
     1
  0
VISUALSTYLE
  5
32
102
{ACAD_REACTORS
330
2A
102
}
330
2A
100
AcDbVisualStyle
  2
Basic
 70
     7
177
     2
291
     1
 71
     1
176
     1
 72
     0
176
     1
 73
     1
176
     1
 90
        0
176
     1
 40
-0.6
176
     1
 41
-30.0
176
     1
 62
     5
 63
     7
421
 16777215
176
     1
 74
     0
176
     1
 91
        4
176
     1
 64
     7
176
     1
 65
   257
176
     1
 75
     1
176
     1
175
     1
176
     1
 42
1.0
176
     1
 92
        8
176
     1
 66
     7
176
     1
 43
1.0
176
     1
 76
     1
176
     1
 77
     6
176
     1
 78
     2
176
     1
 67
     7
176
     1
 79
     5
176
     1
170
     0
176
     1
171
     0
176
     1
290
     0
176
     1
 93
        1
176
     1
 44
0.0
176
     1
173
     0
176
     1
  0
VISUALSTYLE
  5
36
102
{ACAD_REACTORS
330
2A
102
}
330
2A
100
AcDbVisualStyle
  2
Brighten
 70
    12
177
     2
291
     1
 71
     2
176
     1
 72
     2
176
     1
 73
     0
176
     1
 90
        0
176
     1
 40
-0.6
176
     1
 41
-30.0
176
     1
 62
     5
 63
     7
421
 16777215
176
     1
 74
     1
176
     1
 91
        4
176
     1
 64
     7
176
     1
 65
   257
176
     1
 75
     1
176
     1
175
     1
176
     1
 42
1.0
176
     1
 92
        8
176
     1
 66
     7
176
     1
 43
1.0
176
     1
 76
     1
176
     1
 77
     6
176
     1
 78
     2
176
     1
 67
     7
176
     1
 79
     5
176
     1
170
     0
176
     1
171
     0
176
     1
290
     0
176
     1
 93
        1
176
     1
 44
50.0
176
     1
173
     0
176
     1
  0
VISUALSTYLE
  5
3A
102
{ACAD_REACTORS
330
2A
102
}
330
2A
100
AcDbVisualStyle
  2
ColorChange
 70
    16
177
     2
291
     1
 71
     2
176
     1
 72
     2
176
     1
 73
     3
176
     1
 90
        0
176
     1
 40
-0.6
176
     1
 41
-30.0
176
     1
 62
     5
 63
     8
421
  8421504
176
     1
 74
     1
176
     1
 91
        4
176
     1
 64
     7
176
     1
 65
   257
176
     1
 75
     1
176
     1
175
     1
176
     1
 42
1.0
176
     1
 92
        8
176
     1
 66
     8
424
  8421504
176
     1
 43
1.0
176
     1
 76
     1
176
     1
 77
     6
176
     1
 78
     2
176
     1
 67
     7
176
     1
 79
     5
176
     1
170
     0
176
     1
171
     0
176
     1
290
     0
176
     1
 93
        1
176
     1
 44
0.0
176
     1
173
     0
176
     1
  0
VISUALSTYLE
  5
34
102
{ACAD_REACTORS
330
2A
102
}
330
2A
100
AcDbVisualStyle
  2
Conceptual
 70
     9
177
     2
291
     0
 71
     3
176
     1
 72
     2
176
     1
 73
     0
176
     1
 90
        0
176
     1
 40
-0.6
176
     1
 41
-30.0
176
     1
 62
     5
 63
     7
421
 16777215
176
     1
 74
     2
176
     1
 91
        2
176
     1
 64
     7
176
     1
 65
   257
176
     1
 75
     1
176
     1
175
     1
176
     1
 42
40.0
176
     1
 92
        8
176
     1
 66
     7
176
     1
 43
1.0
176
     1
 76
     1
176
     1
 77
     6
176
     1
 78
     2
176
     1
 67
     7
176
     1
 79
     3
176
     1
170
     0
176
     1
171
     0
176
     1
290
     0
176
     1
 93
        1
176
     1
 44
0.0
176
     1
173
     0
176
     1
  0
VISUALSTYLE
  5
35
102
{ACAD_REACTORS
330
2A
102
}
330
2A
100
AcDbVisualStyle
  2
Dim
 70
    11
177
     2
291
     1
 71
     2
176
     1
 72
     2
176
     1
 73
     0
176
     1
 90
        0
176
     1
 40
-0.6
176
     1
 41
-30.0
176
     1
 62
     5
 63
     7
421
 16777215
176
     1
 74
     1
176
     1
 91
        4
176
     1
 64
     7
176
     1
 65
   257
176
     1
 75
     1
176
     1
175
     1
176
     1
 42
1.0
176
     1
 92
        8
176
     1
 66
     7
176
     1
 43
1.0
176
     1
 76
     1
176
     1
 77
     6
176
     1
 78
     2
176
     1
 67
     7
176
     1
 79
     5
176
     1
170
     0
176
     1
171
     0
176
     1
290
     0
176
     1
 93
        1
176
     1
 44
-50.0
176
     1
173
     0
176
     1
  0
VISUALSTYLE
  5
39
102
{ACAD_REACTORS
330
2A
102
}
330
2A
100
AcDbVisualStyle
  2
Facepattern
 70
    15
177
     2
291
     1
 71
     2
176
     1
 72
     2
176
     1
 73
     0
176
     1
 90
        0
176
     1
 40
-0.6
176
     1
 41
-30.0
176
     1
 62
     5
 63
     7
421
 16777215
176
     1
 74
     1
176
     1
 91
        4
176
     1
 64
     7
176
     1
 65
   257
176
     1
 75
     1
176
     1
175
     1
176
     1
 42
1.0
176
     1
 92
        8
176
     1
 66
     7
176
     1
 43
1.0
176
     1
 76
     1
176
     1
 77
     6
176
     1
 78
     2
176
     1
 67
     7
176
     1
 79
     5
176
     1
170
     0
176
     1
171
     0
176
     1
290
     0
176
     1
 93
        1
176
     1
 44
0.0
176
     1
173
     0
176
     1
  0
VISUALSTYLE
  5
2B
102
{ACAD_REACTORS
330
2A
102
}
330
2A
100
AcDbVisualStyle
  2
Flat
 70
     0
177
     2
291
     1
 71
     2
176
     1
 72
     1
176
     1
 73
     1
176
     1
 90
        2
176
     1
 40
-0.6
176
     1
 41
30.0
176
     1
 62
     5
 63
     7
421
 16777215
176
     1
 74
     0
176
     1
 91
        4
176
     1
 64
     7
176
     1
 65
   257
176
     1
 75
     1
176
     1
175
     1
176
     1
 42
1.0
176
     1
 92
        8
176
     1
 66
     7
176
     1
 43
1.0
176
     1
 76
     1
176
     1
 77
     6
176
     1
 78
     2
176
     1
 67
     7
176
     1
 79
     5
176
     1
170
     0
176
     1
171
     0
176
     1
290
     0
176
     1
 93
       13
176
     1
 44
0.0
176
     1
173
     0
176
     1
  0
VISUALSTYLE
  5
2C
102
{ACAD_REACTORS
330
2A
102
}
330
2A
100
AcDbVisualStyle
  2
FlatWithEdges
 70
     1
177
     2
291
     1
 71
     2
176
     1
 72
     1
176
     1
 73
     1
176
     1
 90
        2
176
     1
 40
-0.6
176
     1
 41
30.0
176
     1
 62
     5
 63
     7
421
 16777215
176
     1
 74
     1
176
     1
 91
        4
176
     1
 64
     7
176
     1
 65
   257
176
     1
 75
     1
176
     1
175
     1
176
     1
 42
1.0
176
     1
 92
        0
176
     1
 66
   257
176
     1
 43
1.0
176
     1
 76
     1
176
     1
 77
     6
176
     1
 78
     2
176
     1
 67
     7
176
     1
 79
     5
176
     1
170
     0
176
     1
171
     0
176
     1
290
     0
176
     1
 93
       13
176
     1
 44
0.0
176
     1
173
     0
176
     1
  0
VISUALSTYLE
  5
2D
102
{ACAD_REACTORS
330
2A
102
}
330
2A
100
AcDbVisualStyle
  2
Gouraud
 70
     2
177
     2
291
     1
 71
     2
176
     1
 72
     2
176
     1
 73
     1
176
     1
 90
        2
176
     1
 40
-0.6
176
     1
 41
30.0
176
     1
 62
     5
 63
     7
421
 16777215
176
     1
 74
     0
176
     1
 91
        4
176
     1
 64
     7
176
     1
 65
   257
176
     1
 75
     1
176
     1
175
     1
176
     1
 42
1.0
176
     1
 92
        0
176
     1
 66
     7
176
     1
 43
1.0
176
     1
 76
     1
176
     1
 77
     6
176
     1
 78
     2
176
     1
 67
     7
176
     1
 79
     5
176
     1
170
     0
176
     1
171
     0
176
     1
290
     0
176
     1
 93
       13
176
     1
 44
0.0
176
     1
173
     0
176
     1
  0
VISUALSTYLE
  5
2E
102
{ACAD_REACTORS
330
2A
102
}
330
2A
100
AcDbVisualStyle
  2
GouraudWithEdges
 70
     3
177
     2
291
     1
 71
     2
176
     1
 72
     2
176
     1
 73
     1
176
     1
 90
        2
176
     1
 40
-0.6
176
     1
 41
30.0
176
     1
 62
     5
 63
     7
421
 16777215
176
     1
 74
     1
176
     1
 91
        4
176
     1
 64
     7
176
     1
 65
   257
176
     1
 75
     1
176
     1
175
     1
176
     1
 42
1.0
176
     1
 92
        0
176
     1
 66
   257
176
     1
 43
1.0
176
     1
 76
     1
176
     1
 77
     6
176
     1
 78
     2
176
     1
 67
     7
176
     1
 79
     5
176
     1
170
     0
176
     1
171
     0
176
     1
290
     0
176
     1
 93
       13
176
     1
 44
0.0
176
     1
173
     0
176
     1
  0
VISUALSTYLE
  5
38
102
{ACAD_REACTORS
330
2A
102
}
330
2A
100
AcDbVisualStyle
  2
Linepattern
 70
    14
177
     2
291
     1
 71
     2
176
     1
 72
     2
176
     1
 73
     0
176
     1
 90
        0
176
     1
 40
-0.6
176
     1
 41
-30.0
176
     1
 62
     5
 63
     7
421
 16777215
176
     1
 74
     1
176
     1
 91
        4
176
     1
 64
     7
176
     1
 65
   257
176
     1
 75
     7
176
     1
175
     7
176
     1
 42
1.0
176
     1
 92
        8
176
     1
 66
     7
176
     1
 43
1.0
176
     1
 76
     1
176
     1
 77
     6
176
     1
 78
     2
176
     1
 67
     7
176
     1
 79
     5
176
     1
170
     0
176
     1
171
     0
176
     1
290
     0
176
     1
 93
        1
176
     1
 44
0.0
176
     1
173
     0
176
     1
  0
VISUALSTYLE
  5
33
102
{ACAD_REACTORS
330
2A
102
}
330
2A
100
AcDbVisualStyle
  2
Realistic
 70
     8
177
     2
291
     0
 71
     2
176
     1
 72
     2
176
     1
 73
     0
176
     1
 90
        0
176
     1
 40
-0.6
176
     1
 41
-30.0
176
     1
 62
     5
 63
     7
421
 16777215
176
     1
 74
     1
176
     1
 91
        0
176
     1
 64
     7
176
     1
 65
   257
176
     1
 75
     1
176
     1
175
     1
176
     1
 42
1.0
176
     1
 92
        8
176
     1
 66
     8
424
  7895160
176
     1
 43
1.0
176
     1
 76
     1
176
     1
 77
     6
176
     1
 78
     2
176
     1
 67
     7
176
     1
 79
     5
176
     1
170
     0
176
     1
171
     0
176
     1
290
     0
176
     1
 93
       13
176
     1
 44
0.0
176
     1
173
     0
176
     1
  0
VISUALSTYLE
  5
37
102
{ACAD_REACTORS
330
2A
102
}
330
2A
100
AcDbVisualStyle
  2
Thicken
 70
    13
177
     2
291
     1
 71
     2
176
     1
 72
     2
176
     1
 73
     0
176
     1
 90
        0
176
     1
 40
-0.6
176
     1
 41
-30.0
176
     1
 62
     5
 63
     7
421
 16777215
176
     1
 74
     1
176
     1
 91
        4
176
     1
 64
     7
176
     1
 65
   257
176
     1
 75
     1
176
     1
175
     1
176
     1
 42
1.0
176
     1
 92
       12
176
     1
 66
     7
176
     1
 43
1.0
176
     1
 76
     1
176
     1
 77
     6
176
     1
 78
     2
176
     1
 67
     7
176
     1
 79
     5
176
     1
170
     0
176
     1
171
     0
176
     1
290
     0
176
     1
 93
        1
176
     1
 44
0.0
176
     1
173
     0
176
     1
  0
ENDSEC
  0
EOF
