  0
SECTION
  2
HEADER
  9
$ACADVER
  1
AC1024
  9
$ACADMAINTVER
 70
     6
  9
$DWGCODEPAGE
  3
UNDEFINED
  9
$INSBASE
 10
0.0
 20
0.0
 30
0.0
  9
$EXTMIN
 10
1.000000000000000E+20
 20
1.000000000000000E+20
 30
1.000000000000000E+20
  9
$EXTMAX
 10
-1.000000000000000E+20
 20
-1.000000000000000E+20
 30
-1.000000000000000E+20
  9
$LIMMIN
 10
0.0
 20
0.0
  9
$LIMMAX
 10
12.0
 20
9.0
  9
$ORTHOMODE
 70
     0
  9
$REGENMODE
 70
     1
  9
$FILLMODE
 70
     1
  9
$QTEXTMODE
 70
     0
  9
$MIRRTEXT
 70
     1
  9
$LTSCALE
 40
1.0
  9
$ATTMODE
 70
     1
  9
$TEXTSIZE
 40
0.2
  9
$TRACEWID
 40
0.05
  9
$TEXTSTYLE
  7
Standard
  9
$CLAYER
  8
0
  9
$CELTYPE
  6
ByLayer
  9
$CECOLOR
 62
   256
  9
$CELTSCALE
 40
1.0
  9
$DISPSILH
 70
     0
  9
$DIMSCALE
 40
1.0
  9
$DIMASZ
 40
0.18
  9
$DIMEXO
 40
0.0625
  9
$DIMDLI
 40
0.38
  9
$DIMRND
 40
0.0
  9
$DIMDLE
 40
0.0
  9
$DIMEXE
 40
0.18
  9
$DIMTP
 40
0.0
  9
$DIMTM
 40
0.0
  9
$DIMTXT
 40
0.18
  9
$DIMCEN
 40
0.09
  9
$DIMTSZ
 40
0.0
  9
$DIMTOL
 70
     0
  9
$DIMLIM
 70
     0
  9
$DIMTIH
 70
     1
  9
$DIMTOH
 70
     1
  9
$DIMSE1
 70
     0
  9
$DIMSE2
 70
     0
  9
$DIMTAD
 70
     0
  9
$DIMZIN
 70
     0
  9
$DIMBLK
  1

  9
$DIMASO
 70
     1
  9
$DIMSHO
 70
     1
  9
$DIMPOST
  1

  9
$DIMAPOST
  1

  9
$DIMALT
 70
     0
  9
$DIMALTD
 70
     2
  9
$DIMALTF
 40
25.4
  9
$DIMLFAC
 40
1.0
  9
$DIMTOFL
 70
     0
  9
$DIMTVP
 40
0.0
  9
$DIMTIX
 70
     0
  9
$DIMSOXD
 70
     0
  9
$DIMSAH
 70
     0
  9
$DIMBLK1
  1

  9
$DIMBLK2
  1

  9
$DIMSTYLE
  2
Standard
  9
$DIMCLRD
 70
     0
  9
$DIMCLRE
 70
     0
  9
$DIMCLRT
 70
     0
  9
$DIMTFAC
 40
1.0
  9
$DIMGAP
 40
0.09
  9
$DIMJUST
 70
     0
  9
$DIMSD1
 70
     0
  9
$DIMSD2
 70
     0
  9
$DIMTOLJ
 70
     1
  9
$DIMTZIN
 70
     0
  9
$DIMALTZ
 70
     0
  9
$DIMALTTZ
 70
     0
  9
$DIMUPT
 70
     0
  9
$DIMDEC
 70
     4
  9
$DIMTDEC
 70
     4
  9
$DIMALTU
 70
     2
  9
$DIMALTTD
 70
     2
  9
$DIMTXSTY
  7
Standard
  9
$DIMAUNIT
 70
     0
  9
$DIMADEC
 70
     0
  9
$DIMALTRND
 40
0.0
  9
$DIMAZIN
 70
     0
  9
$DIMDSEP
 70
    46
  9
$DIMATFIT
 70
     3
  9
$DIMFRAC
 70
     0
  9
$DIMLDRBLK
  1

  9
$DIMLUNIT
 70
     2
  9
$DIMLWD
 70
    -2
  9
$DIMLWE
 70
    -2
  9
$DIMTMOVE
 70
     0
  9
$DIMFXL
 40
1.0
  9
$DIMFXLON
 70
     0
  9
$DIMJOGANG
 40
0.7853981633974483
  9
$DIMTFILL
 70
     0
  9
$DIMTFILLCLR
 70
     0
  9
$DIMARCSYM
 70
     0
  9
$DIMLTYPE
  6

  9
$DIMLTEX1
  6

  9
$DIMLTEX2
  6

  9
$DIMTXTDIRECTION
 70
     0
  9
$LUNITS
 70
     2
  9
$LUPREC
 70
     4
  9
$SKETCHINC
 40
0.1
  9
$FILLETRAD
 40
0.5
  9
$AUNITS
 70
     0
  9
$AUPREC
 70
     0
  9
$MENU
  1
.
  9
$ELEVATION
 40
0.0
  9
$PELEVATION
 40
0.0
  9
$THICKNESS
 40
0.0
  9
$LIMCHECK
 70
     0
  9
$CHAMFERA
 40
0.5
  9
$CHAMFERB
 40
0.5
  9
$CHAMFERC
 40
1.0
  9
$CHAMFERD
 40
0.0
  9
$SKPOLY
 70
     0
  9
$TDCREATE
 40
2457917.594224537
  9
$TDUCREATE
 40
2457917.219224537
  9
$TDUPDATE
 40
2457917.594224537
  9
$TDUUPDATE
 40
2457917.219224537
  9
$TDINDWG
 40
0.0000000116
  9
$TDUSRTIMER
 40
0.0000000116
  9
$USRTIMER
 70
     1
  9
$ANGBASE
 50
0.0
  9
$ANGDIR
 70
     0
  9
$PDMODE
 70
     0
  9
$PDSIZE
 40
0.0
  9
$PLINEWID
 40
0.0
  9
$SPLFRAME
 70
     0
  9
$SPLINETYPE
 70
     6
  9
$SPLINESEGS
 70
     8
  9
$HANDSEED
  5
101
  9
$SURFTAB1
 70
     6
  9
$SURFTAB2
 70
     6
  9
$SURFTYPE
 70
     6
  9
$SURFU
 70
     6
  9
$SURFV
 70
     6
  9
$UCSBASE
  2

  9
$UCSNAME
  2

  9
$UCSORG
 10
0.0
 20
0.0
 30
0.0
  9
$UCSXDIR
 10
1.0
 20
0.0
 30
0.0
  9
$UCSYDIR
 10
0.0
 20
1.0
 30
0.0
  9
$UCSORTHOREF
  2

  9
$UCSORTHOVIEW
 70
     0
  9
$UCSORGTOP
 10
0.0
 20
0.0
 30
0.0
  9
$UCSORGBOTTOM
 10
0.0
 20
0.0
 30
0.0
  9
$UCSORGLEFT
 10
0.0
 20
0.0
 30
0.0
  9
$UCSORGRIGHT
 10
0.0
 20
0.0
 30
0.0
  9
$UCSORGFRONT
 10
0.0
 20
0.0
 30
0.0
  9
$UCSORGBACK
 10
0.0
 20
0.0
 30
0.0
  9
$PUCSBASE
  2

  9
$PUCSNAME
  2

  9
$PUCSORG
 10
0.0
 20
0.0
 30
0.0
  9
$PUCSXDIR
 10
1.0
 20
0.0
 30
0.0
  9
$PUCSYDIR
 10
0.0
 20
1.0
 30
0.0
  9
$PUCSORTHOREF
  2

  9
$PUCSORTHOVIEW
 70
     0
  9
$PUCSORGTOP
 10
0.0
 20
0.0
 30
0.0
  9
$PUCSORGBOTTOM
 10
0.0
 20
0.0
 30
0.0
  9
$PUCSORGLEFT
 10
0.0
 20
0.0
 30
0.0
  9
$PUCSORGRIGHT
 10
0.0
 20
0.0
 30
0.0
  9
$PUCSORGFRONT
 10
0.0
 20
0.0
 30
0.0
  9
$PUCSORGBACK
 10
0.0
 20
0.0
 30
0.0
  9
$USERI1
 70
     0
  9
$USERI2
 70
     0
  9
$USERI3
 70
     0
  9
$USERI4
 70
     0
  9
$USERI5
 70
     0
  9
$USERR1
 40
0.0
  9
$USERR2
 40
0.0
  9
$USERR3
 40
0.0
  9
$USERR4
 40
0.0
  9
$USERR5
 40
0.0
  9
$WORLDVIEW
 70
     1
  9
$SHADEDGE
 70
     3
  9
$SHADEDIF
 70
    70
  9
$TILEMODE
 70
     1
  9
$MAXACTVP
 70
    64
  9
$PINSBASE
 10
0.0
 20
0.0
 30
0.0
  9
$PLIMCHECK
 70
     0
  9
$PEXTMIN
 10
1.000000000000000E+20
 20
1.000000000000000E+20
 30
1.000000000000000E+20
  9
$PEXTMAX
 10
-1.000000000000000E+20
 20
-1.000000000000000E+20
 30
-1.000000000000000E+20
  9
$PLIMMIN
 10
0.0
 20
0.0
  9
$PLIMMAX
 10
12.0
 20
9.0
  9
$UNITMODE
 70
     0
  9
$VISRETAIN
 70
     1
  9
$PLINEGEN
 70
     0
  9
$PSLTSCALE
 70
     1
  9
$TREEDEPTH
 70
  3020
  9
$CMLSTYLE
  2
Standard
  9
$CMLJUST
 70
     0
  9
$CMLSCALE
 40
1.0
  9
$PROXYGRAPHICS
 70
     1
  9
$MEASUREMENT
 70
     0
  9
$CELWEIGHT
370
    -1
  9
$ENDCAPS
280
     0
  9
$JOINSTYLE
280
     0
  9
$LWDISPLAY
290
     1
  9
$INSUNITS
 70
     1
  9
$HYPERLINKBASE
  1

  9
$STYLESHEET
  1

  9
$XEDIT
290
     1
  9
$CEPSNTYPE
380
     0
  9
$PSTYLEMODE
290
     1
  9
$FINGERPRINTGUID
  2
{9BFD41D3-496F-50B3-D217-174D006DD725}
  9
$VERSIONGUID
  2
{FAEB1C32-E019-11D5-929B-00C0DF256EC4}
  9
$EXTNAMES
290
     1
  9
$PSVPSCALE
 40
0.0
  9
$OLESTARTUP
290
     0
  9
$SORTENTS
280
   127
  9
$INDEXCTL
280
     0
  9
$HIDETEXT
280
     1
  9
$XCLIPFRAME
280
     2
  9
$HALOGAP
280
     0
  9
$OBSCOLOR
 70
   257
  9
$OBSLTYPE
280
     0
  9
$INTERSECTIONDISPLAY
280
     0
  9
$INTERSECTIONCOLOR
 70
   257
  9
$DIMASSOC
280
     2
  9
$PROJECTNAME
  1

  9
$CAMERADISPLAY
290
     0
  9
$LENSLENGTH
 40
50.0
  9
$CAMERAHEIGHT
 40
0.0
  9
$STEPSPERSEC
 40
2.0
  9
$STEPSIZE
 40
6.0
  9
$3DDWFPREC
 40
2.0
  9
$PSOLWIDTH
 40
0.25
  9
$PSOLHEIGHT
 40
4.0
  9
$LOFTANG1
 40
1.570796326794897
  9
$LOFTANG2
 40
1.570796326794897
  9
$LOFTMAG1
 40
0.0
  9
$LOFTMAG2
 40
0.0
  9
$LOFTPARAM
 70
     7
  9
$LOFTNORMALS
280
     1
  9
$LATITUDE
 40
37.795
  9
$LONGITUDE
 40
-122.394
  9
$NORTHDIRECTION
 40
0.0
  9
$TIMEZONE
 70
 -8000
  9
$LIGHTGLYPHDISPLAY
280
     1
  9
$TILEMODELIGHTSYNCH
280
     1
  9
$CMATERIAL
347
3C
  9
$SOLIDHIST
280
     1
  9
$SHOWHIST
280
     1
  9
$DWFFRAME
280
     2
  9
$DGNFRAME
280
     2
  9
$REALWORLDSCALE
290
     1
  9
$INTERFERECOLOR
 62
   256
  9
$CSHADOW
280
     0
  9
$SHADOWPLANELOCATION
 40
0.0
  0
ENDSEC
  0
SECTION
  2
CLASSES
  0
CLASS
  1
ACDBDICTIONARYWDFLT
  2
AcDbDictionaryWithDefault
  3
ObjectDBX Classes
 90
        0
 91
        4
280
     0
281
     0
  0
CLASS
  1
VISUALSTYLE
  2
AcDbVisualStyle
  3
ObjectDBX Classes
 90
     4095
 91
        4
280
     0
281
     0
  0
CLASS
  1
MATERIAL
  2
AcDbMaterial
  3
ObjectDBX Classes
 90
     1153
 91
        4
280
     0
281
     0
  0
CLASS
  1
SUN
  2
AcDbSun
  3
SCENEOE
 90
     1024
 91
        4
280
     0
281
     0
  0
ENDSEC
  0
SECTION
  2
TABLES
  0
TABLE
  2
VPORT
  5
8
330
0
100
AcDbSymbolTable
 70
     1
  0
VPORT
  5
29
330
8
100
AcDbSymbolTableRecord
100
AcDbViewportTableRecord
  2
*Active
 70
     0
 10
0.0
 20
0.0
 11
1.0
 21
1.0
 12
0.0
 22
0.0
 13
0.0
 23
0.0
 14
0.5
 24
0.5
 15
0.5
 25
0.5
 16
0.0
 26
0.0
 36
1.0
 17
91.00082462281999
 27
-128.4993055234307
 37
0.0
 40
256.9986110468615
 41
0.7081814508812795
 42
50.0
 43
0.0
 44
0.0
 50
0.0
 51
0.0
 71
     0
 72
   100
 73
     1
 74
     3
 75
     0
 76
     0
 77
     0
 78
     0
281
     0
 65
     1
110
0.0
120
0.0
130
0.0
111
1.0
121
0.0
131
0.0
112
0.0
122
1.0
132
0.0
 79
     0
146
0.0
 60
     3
 61
     5
292
     1
282
     1
141
0.0
142
0.0
 63
   250
361
3F
  0
ENDTAB
  0
TABLE
  2
LTYPE
  5
5
330
0
100
AcDbSymbolTable
 70
     1
  0
LTYPE
  5
14
330
5
100
AcDbSymbolTableRecord
100
AcDbLinetypeTableRecord
  2
ByBlock
 70
     0
  3

 72
    65
 73
     0
 40
0.0
  0
LTYPE
  5
15
330
5
100
AcDbSymbolTableRecord
100
AcDbLinetypeTableRecord
  2
ByLayer
 70
     0
  3

 72
    65
 73
     0
 40
0.0
  0
LTYPE
  5
16
330
5
100
AcDbSymbolTableRecord
100
AcDbLinetypeTableRecord
  2
Continuous
 70
     0
  3
Solid line
 72
    65
 73
     0
 40
0.0
  0
ENDTAB
  0
TABLE
  2
LAYER
  5
2
330
0
100
AcDbSymbolTable
 70
     2
  0
LAYER
  5
10
330
2
100
AcDbSymbolTableRecord
100
AcDbLayerTableRecord
  2
0
 70
     0
 62
     7
  6
Continuous
370
    -3
390
F
347
3E
  0
LAYER
  5
40
330
2
100
AcDbSymbolTableRecord
100
AcDbLayerTableRecord
  2
_U+30EC_U+30A4_U+30E4_U+30FC 1
 70
     0
 62
     7
  6
Continuous
370
    -3
390
F
347
3E
  0
ENDTAB
  0
TABLE
  2
STYLE
  5
3
330
0
100
AcDbSymbolTable
 70
     1
  0
STYLE
  5
11
330
3
100
AcDbSymbolTableRecord
100
AcDbTextStyleTableRecord
  2
Standard
 70
     0
 40
0.0
 41
1.0
 50
0.0
 71
     0
 42
0.2
  3
txt
  4

  0
ENDTAB
  0
TABLE
  2
VIEW
  5
6
330
0
100
AcDbSymbolTable
 70
     0
  0
ENDTAB
  0
TABLE
  2
UCS
  5
7
330
0
100
AcDbSymbolTable
 70
     0
  0
ENDTAB
  0
TABLE
  2
APPID
  5
9
330
0
100
AcDbSymbolTable
 70
     1
  0
APPID
  5
12
330
9
100
AcDbSymbolTableRecord
100
AcDbRegAppTableRecord
  2
ACAD
 70
     0
  0
ENDTAB
  0
TABLE
  2
DIMSTYLE
  5
A
330
0
100
AcDbSymbolTable
 70
     1
100
AcDbDimStyleTable
  0
DIMSTYLE
105
27
330
A
100
AcDbSymbolTableRecord
100
AcDbDimStyleTableRecord
  2
Standard
 70
     0
178
     0
340
11
  0
ENDTAB
  0
TABLE
  2
BLOCK_RECORD
  5
1
330
0
100
AcDbSymbolTable
 70
     7
  0
BLOCK_RECORD
  5
1F
330
1
100
AcDbSymbolTableRecord
100
AcDbBlockTableRecord
  2
*Model_Space
340
22
 70
     0
280
     1
281
     0
  0
BLOCK_RECORD
  5
1B
330
1
100
AcDbSymbolTableRecord
100
AcDbBlockTableRecord
  2
*Paper_Space
340
1E
 70
     0
280
     1
281
     0
  0
BLOCK_RECORD
  5
23
330
1
100
AcDbSymbolTableRecord
100
AcDbBlockTableRecord
  2
*Paper_Space0
340
26
 70
     0
280
     1
281
     0
  0
BLOCK_RECORD
  5
59
330
1
100
AcDbSymbolTableRecord
100
AcDbBlockTableRecord
  2
block 2
340
0
102
{BLKREFS
331
5A
102
}
 70
     0
280
     1
281
     0
  0
BLOCK_RECORD
  5
6D
330
1
100
AcDbSymbolTableRecord
100
AcDbBlockTableRecord
  2
block 3
340
0
102
{BLKREFS
331
6E
102
}
 70
     0
280
     1
281
     0
  0
BLOCK_RECORD
  5
87
330
1
100
AcDbSymbolTableRecord
100
AcDbBlockTableRecord
  2
block 4
340
0
102
{BLKREFS
331
88
102
}
 70
     0
280
     1
281
     0
  0
BLOCK_RECORD
  5
A0
330
1
100
AcDbSymbolTableRecord
100
AcDbBlockTableRecord
  2
block 5
340
0
102
{BLKREFS
331
A1
102
}
 70
     0
280
     1
281
     0
  0
BLOCK_RECORD
  5
B2
330
1
100
AcDbSymbolTableRecord
100
AcDbBlockTableRecord
  2
block 6
340
0
102
{BLKREFS
331
B3
102
}
 70
     0
280
     1
281
     0
  0
BLOCK_RECORD
  5
CF
330
1
100
AcDbSymbolTableRecord
100
AcDbBlockTableRecord
  2
block 7
340
0
102
{BLKREFS
331
D0
102
}
 70
     0
280
     1
281
     0
  0
ENDTAB
  0
ENDSEC
  0
SECTION
  2
BLOCKS
  0
BLOCK
  5
20
330
1F
100
AcDbEntity
  8
0
100
AcDbBlockBegin
  2
*Model_Space
 70
     0
 10
0.0
 20
0.0
 30
0.0
  3
*Model_Space
  1

  0
ENDBLK
  5
21
330
1F
100
AcDbEntity
  8
0
100
AcDbBlockEnd
  0
BLOCK
  5
1C
330
1B
100
AcDbEntity
 67
     1
  8
0
100
AcDbBlockBegin
  2
*Paper_Space
 70
     0
 10
0.0
 20
0.0
 30
0.0
  3
*Paper_Space
  1

  0
ENDBLK
  5
1D
330
1B
100
AcDbEntity
 67
     1
  8
0
100
AcDbBlockEnd
  0
BLOCK
  5
24
330
23
100
AcDbEntity
  8
0
100
AcDbBlockBegin
  2
*Paper_Space0
 70
     0
 10
0.0
 20
0.0
 30
0.0
  3
*Paper_Space0
  1

  0
ENDBLK
  5
25
330
23
100
AcDbEntity
  8
0
100
AcDbBlockEnd
  0
BLOCK
  5
5B
330
59
100
AcDbEntity
  8
0
100
AcDbBlockBegin
  2
block 2
 70
     0
 10
0.0
 20
0.0
 30
0.0
  3
block 2
  1

  0
SPLINE
  5
5D
330
59
100
AcDbEntity
  8
_U+30EC_U+30A4_U+30E4_U+30FC 1
370
     0
100
AcDbSpline
210
0.0
220
0.0
230
1.0
 70
    11
 71
     3
 72
    29
 73
    25
 74
     0
 42
0.0000000001
 43
0.0000000001
 12
1.0
 22
0.0
 32
0.0
 13
1.0
 23
0.0
 33
0.0
 40
0.0
 40
0.0
 40
0.0
 40
0.0
 40
1.0
 40
1.0
 40
1.0
 40
2.0
 40
2.0
 40
2.0
 40
3.0
 40
3.0
 40
3.0
 40
4.0
 40
4.0
 40
4.0
 40
5.0
 40
5.0
 40
5.0
 40
6.0
 40
6.0
 40
6.0
 40
7.0
 40
7.0
 40
7.0
 40
8.0
 40
8.0
 40
8.0
 40
8.0
 10
85.89208710960337
 20
-120.4698214759589
 30
0.0
 10
85.6256089738193
 20
-120.4698214759589
 30
0.0
 10
85.37170543655638
 20
-120.3321899113232
 30
0.0
 10
85.37170543655638
 20
-119.9832017386674
 30
0.0
 10
85.37170543655638
 20
-119.7272311441133
 30
0.0
 10
85.51347111577441
 20
-119.6319742539462
 30
0.0
 10
85.61923554717158
 20
-119.5706515543087
 30
0.0
 10
85.49435083583128
 20
-119.5113959119624
 30
0.0
 10
85.41821422560726
 20
-119.3971909966264
 30
0.0
 10
85.41821422560726
 20
-119.2364772922395
 30
0.0
 10
85.41821422560726
 20
-118.9613864177423
 30
0.0
 10
85.61716848988043
 20
-118.825994165172
 30
0.0
 10
85.89208710960337
 20
-118.825994165172
 30
0.0
 10
86.17561846803943
 20
-118.825994165172
 30
0.0
 10
86.36595999359949
 20
-118.9698269016812
 30
0.0
 10
86.36595999359949
 20
-119.2364772922395
 30
0.0
 10
86.36595999359949
 20
-119.3971909966264
 30
0.0
 10
86.28775632608432
 20
-119.5113959119624
 30
0.0
 10
86.162871614744
 20
-119.5706515543087
 30
0.0
 10
86.25175507826346
 20
-119.6214667127162
 30
0.0
 10
86.41040172535921
 20
-119.7167236028833
 30
0.0
 10
86.41040172535921
 20
-119.9788953693108
 30
0.0
 10
86.41040172535921
 20
-120.3533772485575
 30
0.0
 10
86.13117673627971
 20
-120.4698214759589
 30
0.0
 10
85.89208710960337
 20
-120.4698214759589
 30
0.0
  0
SPLINE
  5
5E
330
59
100
AcDbEntity
  8
_U+30EC_U+30A4_U+30E4_U+30FC 1
370
     0
100
AcDbSpline
210
0.0
220
0.0
230
1.0
 70
    11
 71
     3
 72
    17
 73
    13
 74
     0
 42
0.0000000001
 43
0.0000000001
 12
1.0
 22
0.0
 32
0.0
 13
1.0
 23
0.0
 33
0.0
 40
0.0
 40
0.0
 40
0.0
 40
0.0
 40
1.0
 40
1.0
 40
1.0
 40
2.0
 40
2.0
 40
2.0
 40
3.0
 40
3.0
 40
3.0
 40
4.0
 40
4.0
 40
4.0
 40
4.0
 10
85.89208710960337
 20
-119.6786552977713
 30
0.0
 10
85.74825437309418
 20
-119.6786552977713
 30
0.0
 10
85.59598115264615
 20
-119.7652994492254
 30
0.0
 10
85.59598115264615
 20
-119.9683878280808
 30
0.0
 10
85.59598115264615
 20
-120.1735432642274
 30
0.0
 10
85.7229329212776
 20
-120.2751735810423
 30
0.0
 10
85.89208710960337
 20
-120.2751735810423
 30
0.0
 10
86.07829452058112
 20
-120.2751735810423
 30
0.0
 10
86.18836532133486
 20
-120.1525281817674
 30
0.0
 10
86.18836532133486
 20
-119.9747612547285
 30
0.0
 10
86.18836532133486
 20
-119.7525525959299
 30
0.0
 10
86.02541230488254
 20
-119.6786552977713
 30
0.0
 10
85.89208710960337
 20
-119.6786552977713
 30
0.0
  0
SPLINE
  5
5F
330
59
100
AcDbEntity
  8
_U+30EC_U+30A4_U+30E4_U+30FC 1
370
     0
100
AcDbSpline
210
0.0
220
0.0
230
1.0
 70
    11
 71
     3
 72
    17
 73
    13
 74
     0
 42
0.0000000001
 43
0.0000000001
 12
1.0
 22
0.0
 32
0.0
 13
1.0
 23
0.0
 33
0.0
 40
0.0
 40
0.0
 40
0.0
 40
0.0
 40
1.0
 40
1.0
 40
1.0
 40
2.0
 40
2.0
 40
2.0
 40
3.0
 40
3.0
 40
3.0
 40
4.0
 40
4.0
 40
4.0
 40
4.0
 10
85.89208710960337
 20
-119.0185750027974
 30
0.0
 10
85.7270670358599
 20
-119.0185750027974
 30
0.0
 10
85.64248994169702
 20
-119.1136596381903
 30
0.0
 10
85.64248994169702
 20
-119.2490518907607
 30
0.0
 10
85.64248994169702
 20
-119.3718695448098
 30
0.0
 10
85.71449243733875
 20
-119.4903808295024
 30
0.0
 10
85.89208710960337
 20
-119.4903808295024
 30
0.0
 10
86.06985403664227
 20
-119.4903808295024
 30
0.0
 10
86.14168427750973
 20
-119.3718695448098
 30
0.0
 10
86.14168427750973
 20
-119.2490518907607
 30
0.0
 10
86.14168427750973
 20
-119.1136596381903
 30
0.0
 10
86.05504012605569
 20
-119.0185750027974
 30
0.0
 10
85.89208710960337
 20
-119.0185750027974
 30
0.0
  0
HATCH
  5
60
330
59
100
AcDbEntity
  8
_U+30EC_U+30A4_U+30E4_U+30FC 1
 62
   179
420
  2234388
100
AcDbHatch
 10
0.0
 20
0.0
 30
0.0
210
0.0
220
0.0
230
1.0
  2
SOLID
 70
     1
 71
     0
 91
        3
 92
        1
 93
        1
 72
     4
 94
        3
 73
     0
 74
     1
 95
       29
 96
       25
 40
0.0
 40
0.0
 40
0.0
 40
0.0
 40
1.0
 40
1.0
 40
1.0
 40
2.0
 40
2.0
 40
2.0
 40
3.0
 40
3.0
 40
3.0
 40
4.0
 40
4.0
 40
4.0
 40
5.0
 40
5.0
 40
5.0
 40
6.0
 40
6.0
 40
6.0
 40
7.0
 40
7.0
 40
7.0
 40
8.0
 40
8.0
 40
8.0
 40
8.0
 10
85.89208710960337
 20
-120.4698214759589
 10
85.6256089738193
 20
-120.4698214759589
 10
85.37170543655638
 20
-120.3321899113232
 10
85.37170543655638
 20
-119.9832017386674
 10
85.37170543655638
 20
-119.7272311441133
 10
85.51347111577441
 20
-119.6319742539462
 10
85.61923554717158
 20
-119.5706515543087
 10
85.49435083583128
 20
-119.5113959119624
 10
85.41821422560726
 20
-119.3971909966264
 10
85.41821422560726
 20
-119.2364772922395
 10
85.41821422560726
 20
-118.9613864177423
 10
85.61716848988043
 20
-118.825994165172
 10
85.89208710960337
 20
-118.825994165172
 10
86.17561846803943
 20
-118.825994165172
 10
86.36595999359949
 20
-118.9698269016812
 10
86.36595999359949
 20
-119.2364772922395
 10
86.36595999359949
 20
-119.3971909966264
 10
86.28775632608432
 20
-119.5113959119624
 10
86.162871614744
 20
-119.5706515543087
 10
86.25175507826346
 20
-119.6214667127162
 10
86.41040172535921
 20
-119.7167236028833
 10
86.41040172535921
 20
-119.9788953693108
 10
86.41040172535921
 20
-120.3533772485575
 10
86.13117673627971
 20
-120.4698214759589
 10
85.89208710960337
 20
-120.4698214759589
 97
        0
 97
        0
 92
        1
 93
        1
 72
     4
 94
        3
 73
     0
 74
     1
 95
       17
 96
       13
 40
0.0
 40
0.0
 40
0.0
 40
0.0
 40
1.0
 40
1.0
 40
1.0
 40
2.0
 40
2.0
 40
2.0
 40
3.0
 40
3.0
 40
3.0
 40
4.0
 40
4.0
 40
4.0
 40
4.0
 10
85.89208710960337
 20
-119.6786552977713
 10
85.74825437309418
 20
-119.6786552977713
 10
85.59598115264615
 20
-119.7652994492254
 10
85.59598115264615
 20
-119.9683878280808
 10
85.59598115264615
 20
-120.1735432642274
 10
85.7229329212776
 20
-120.2751735810423
 10
85.89208710960337
 20
-120.2751735810423
 10
86.07829452058112
 20
-120.2751735810423
 10
86.18836532133486
 20
-120.1525281817674
 10
86.18836532133486
 20
-119.9747612547285
 10
86.18836532133486
 20
-119.7525525959299
 10
86.02541230488254
 20
-119.6786552977713
 10
85.89208710960337
 20
-119.6786552977713
 97
        0
 97
        0
 92
        1
 93
        1
 72
     4
 94
        3
 73
     0
 74
     1
 95
       17
 96
       13
 40
0.0
 40
0.0
 40
0.0
 40
0.0
 40
1.0
 40
1.0
 40
1.0
 40
2.0
 40
2.0
 40
2.0
 40
3.0
 40
3.0
 40
3.0
 40
4.0
 40
4.0
 40
4.0
 40
4.0
 10
85.89208710960337
 20
-119.0185750027974
 10
85.7270670358599
 20
-119.0185750027974
 10
85.64248994169702
 20
-119.1136596381903
 10
85.64248994169702
 20
-119.2490518907607
 10
85.64248994169702
 20
-119.3718695448098
 10
85.71449243733875
 20
-119.4903808295024
 10
85.89208710960337
 20
-119.4903808295024
 10
86.06985403664227
 20
-119.4903808295024
 10
86.14168427750973
 20
-119.3718695448098
 10
86.14168427750973
 20
-119.2490518907607
 10
86.14168427750973
 20
-119.1136596381903
 10
86.05504012605569
 20
-119.0185750027974
 10
85.89208710960337
 20
-119.0185750027974
 97
        0
 97
        0
 75
     2
 76
     1
 98
        0
  0
ENDBLK
  5
5C
330
59
100
AcDbEntity
  8
0
100
AcDbBlockEnd
  0
BLOCK
  5
6F
330
6D
100
AcDbEntity
  8
0
100
AcDbBlockBegin
  2
block 3
 70
     0
 10
0.0
 20
0.0
 30
0.0
  3
block 3
  1

  0
SPLINE
  5
71
330
6D
100
AcDbEntity
  8
_U+30EC_U+30A4_U+30E4_U+30FC 1
370
     0
100
AcDbSpline
210
0.0
220
0.0
230
1.0
 70
    11
 71
     3
 72
    26
 73
    22
 74
     0
 42
0.0000000001
 43
0.0000000001
 12
1.0
 22
0.0
 32
0.0
 13
1.0
 23
0.0
 33
0.0
 40
0.0
 40
0.0
 40
0.0
 40
0.0
 40
1.0
 40
1.0
 40
1.0
 40
2.0
 40
2.0
 40
2.0
 40
3.0
 40
3.0
 40
3.0
 40
4.0
 40
4.0
 40
4.0
 40
5.0
 40
5.0
 40
5.0
 40
6.0
 40
6.0
 40
6.0
 40
7.0
 40
7.0
 40
7.0
 40
7.0
 10
90.17709687415712
 20
-136.9187743798328
 30
0.0
 10
90.17709687415712
 20
-136.9187743798328
 30
0.0
 10
90.17709687415712
 20
-135.8146212768102
 30
0.0
 10
90.17709687415712
 20
-135.8146212768102
 30
0.0
 10
90.17709687415712
 20
-135.8146212768102
 30
0.0
 10
89.84705672667019
 20
-135.8146212768102
 30
0.0
 10
89.84705672667019
 20
-135.8146212768102
 30
0.0
 10
89.84705672667019
 20
-135.8146212768102
 30
0.0
 10
89.84705672667019
 20
-135.6664821709445
 30
0.0
 10
89.84705672667019
 20
-135.6664821709445
 30
0.0
 10
90.17916393144827
 20
-135.6516682603579
 30
0.0
 10
90.22567272049915
 20
-135.4887152439056
 30
0.0
 10
90.25530054167228
 20
-135.3743380737953
 30
0.0
 10
90.25530054167228
 20
-135.3743380737953
 30
0.0
 10
90.40137259024688
 20
-135.3743380737953
 30
0.0
 10
90.40137259024688
 20
-135.3743380737953
 30
0.0
 10
90.40137259024688
 20
-135.3743380737953
 30
0.0
 10
90.40137259024688
 20
-136.9187743798328
 30
0.0
 10
90.40137259024688
 20
-136.9187743798328
 30
0.0
 10
90.40137259024688
 20
-136.9187743798328
 30
0.0
 10
90.17709687415712
 20
-136.9187743798328
 30
0.0
 10
90.17709687415712
 20
-136.9187743798328
 30
0.0
  0
HATCH
  5
72
330
6D
100
AcDbEntity
  8
_U+30EC_U+30A4_U+30E4_U+30FC 1
 62
   179
420
  2234388
100
AcDbHatch
 10
0.0
 20
0.0
 30
0.0
210
0.0
220
0.0
230
1.0
  2
SOLID
 70
     1
 71
     0
 91
        1
 92
        1
 93
        1
 72
     4
 94
        3
 73
     0
 74
     1
 95
       26
 96
       22
 40
0.0
 40
0.0
 40
0.0
 40
0.0
 40
1.0
 40
1.0
 40
1.0
 40
2.0
 40
2.0
 40
2.0
 40
3.0
 40
3.0
 40
3.0
 40
4.0
 40
4.0
 40
4.0
 40
5.0
 40
5.0
 40
5.0
 40
6.0
 40
6.0
 40
6.0
 40
7.0
 40
7.0
 40
7.0
 40
7.0
 10
90.17709687415712
 20
-136.9187743798328
 10
90.17709687415712
 20
-136.9187743798328
 10
90.17709687415712
 20
-135.8146212768102
 10
90.17709687415712
 20
-135.8146212768102
 10
90.17709687415712
 20
-135.8146212768102
 10
89.84705672667019
 20
-135.8146212768102
 10
89.84705672667019
 20
-135.8146212768102
 10
89.84705672667019
 20
-135.8146212768102
 10
89.84705672667019
 20
-135.6664821709445
 10
89.84705672667019
 20
-135.6664821709445
 10
90.17916393144827
 20
-135.6516682603579
 10
90.22567272049915
 20
-135.4887152439056
 10
90.25530054167228
 20
-135.3743380737953
 10
90.25530054167228
 20
-135.3743380737953
 10
90.40137259024688
 20
-135.3743380737953
 10
90.40137259024688
 20
-135.3743380737953
 10
90.40137259024688
 20
-135.3743380737953
 10
90.40137259024688
 20
-136.9187743798328
 10
90.40137259024688
 20
-136.9187743798328
 10
90.40137259024688
 20
-136.9187743798328
 10
90.17709687415712
 20
-136.9187743798328
 10
90.17709687415712
 20
-136.9187743798328
 97
        0
 97
        0
 75
     2
 76
     1
 98
        0
  0
SPLINE
  5
73
330
6D
100
AcDbEntity
  8
_U+30EC_U+30A4_U+30E4_U+30FC 1
370
     0
100
AcDbSpline
210
0.0
220
0.0
230
1.0
 70
    11
 71
     3
 72
    29
 73
    25
 74
     0
 42
0.0000000001
 43
0.0000000001
 12
1.0
 22
0.0
 32
0.0
 13
1.0
 23
0.0
 33
0.0
 40
0.0
 40
0.0
 40
0.0
 40
0.0
 40
1.0
 40
1.0
 40
1.0
 40
2.0
 40
2.0
 40
2.0
 40
3.0
 40
3.0
 40
3.0
 40
4.0
 40
4.0
 40
4.0
 40
5.0
 40
5.0
 40
5.0
 40
6.0
 40
6.0
 40
6.0
 40
7.0
 40
7.0
 40
7.0
 40
8.0
 40
8.0
 40
8.0
 40
8.0
 10
91.40251733826048
 20
-136.969417283466
 30
0.0
 10
91.13586694770216
 20
-136.969417283466
 30
0.0
 10
90.88230791998777
 20
-136.8319579736045
 30
0.0
 10
90.88230791998777
 20
-136.4829698009487
 30
0.0
 10
90.88230791998777
 20
-136.2269992063947
 30
0.0
 10
91.02390134443152
 20
-136.1319145710017
 30
0.0
 10
91.1296657758287
 20
-136.0705918713643
 30
0.0
 10
91.00495331926265
 20
-136.011336229018
 30
0.0
 10
90.92881670903863
 20
-135.8969590589077
 30
0.0
 10
90.92881670903863
 20
-135.7360730997465
 30
0.0
 10
90.92881670903863
 20
-135.4611544800236
 30
0.0
 10
91.12759871853756
 20
-135.3257622274533
 30
0.0
 10
91.40251733826048
 20
-135.3257622274533
 30
0.0
 10
91.68604869669655
 20
-135.3257622274533
 30
0.0
 10
91.87656247703086
 20
-135.4697672187367
 30
0.0
 10
91.87656247703086
 20
-135.7360730997465
 30
0.0
 10
91.87656247703086
 20
-135.8969590589077
 30
0.0
 10
91.79801429996716
 20
-136.011336229018
 30
0.0
 10
91.67330184340112
 20
-136.0705918713643
 30
0.0
 10
91.76218530692057
 20
-136.1212347749975
 30
0.0
 10
91.92100420879059
 20
-136.2163194103904
 30
0.0
 10
91.92100420879059
 20
-136.4788356863664
 30
0.0
 10
91.92100420879059
 20
-136.8533175656131
 30
0.0
 10
91.64160696493683
 20
-136.969417283466
 30
0.0
 10
91.40251733826048
 20
-136.969417283466
 30
0.0
  0
SPLINE
  5
74
330
6D
100
AcDbEntity
  8
_U+30EC_U+30A4_U+30E4_U+30FC 1
370
     0
100
AcDbSpline
210
0.0
220
0.0
230
1.0
 70
    11
 71
     3
 72
    17
 73
    13
 74
     0
 42
0.0000000001
 43
0.0000000001
 12
1.0
 22
0.0
 32
0.0
 13
1.0
 23
0.0
 33
0.0
 40
0.0
 40
0.0
 40
0.0
 40
0.0
 40
1.0
 40
1.0
 40
1.0
 40
2.0
 40
2.0
 40
2.0
 40
3.0
 40
3.0
 40
3.0
 40
4.0
 40
4.0
 40
4.0
 40
4.0
 10
91.40251733826048
 20
-136.1784233600526
 30
0.0
 10
91.25885685652557
 20
-136.1784233600526
 30
0.0
 10
91.106239126529
 20
-136.2652397662809
 30
0.0
 10
91.106239126529
 20
-136.4681558903621
 30
0.0
 10
91.106239126529
 20
-136.673483581283
 30
0.0
 10
91.23336314993472
 20
-136.7747693885494
 30
0.0
 10
91.40251733826048
 20
-136.7747693885494
 30
0.0
 10
91.58855249446398
 20
-136.7747693885494
 30
0.0
 10
91.69879554999197
 20
-136.6521239892745
 30
0.0
 10
91.69879554999197
 20
-136.4743570622356
 30
0.0
 10
91.69879554999197
 20
-136.2524929129855
 30
0.0
 10
91.53584253353965
 20
-136.1784233600526
 30
0.0
 10
91.40251733826048
 20
-136.1784233600526
 30
0.0
  0
SPLINE
  5
75
330
6D
100
AcDbEntity
  8
_U+30EC_U+30A4_U+30E4_U+30FC 1
370
     0
100
AcDbSpline
210
0.0
220
0.0
230
1.0
 70
    11
 71
     3
 72
    17
 73
    13
 74
     0
 42
0.0000000001
 43
0.0000000001
 12
1.0
 22
0.0
 32
0.0
 13
1.0
 23
0.0
 33
0.0
 40
0.0
 40
0.0
 40
0.0
 40
0.0
 40
1.0
 40
1.0
 40
1.0
 40
2.0
 40
2.0
 40
2.0
 40
3.0
 40
3.0
 40
3.0
 40
4.0
 40
4.0
 40
4.0
 40
4.0
 10
91.40251733826048
 20
-135.5183430650788
 30
0.0
 10
91.23749726451702
 20
-135.5183430650788
 30
0.0
 10
91.15309242512839
 20
-135.6134277004716
 30
0.0
 10
91.15309242512839
 20
-135.748819953042
 30
0.0
 10
91.15309242512839
 20
-135.8714653523169
 30
0.0
 10
91.22475041122159
 20
-135.9899766370094
 30
0.0
 10
91.40251733826048
 20
-135.9899766370094
 30
0.0
 10
91.58028426529938
 20
-135.9899766370094
 30
0.0
 10
91.6522867609411
 20
-135.8714653523169
 30
0.0
 10
91.6522867609411
 20
-135.748819953042
 30
0.0
 10
91.6522867609411
 20
-135.6134277004716
 30
0.0
 10
91.5654703547128
 20
-135.5183430650788
 30
0.0
 10
91.40251733826048
 20
-135.5183430650788
 30
0.0
  0
HATCH
  5
76
330
6D
100
AcDbEntity
  8
_U+30EC_U+30A4_U+30E4_U+30FC 1
 62
   179
420
  2234388
100
AcDbHatch
 10
0.0
 20
0.0
 30
0.0
210
0.0
220
0.0
230
1.0
  2
SOLID
 70
     1
 71
     0
 91
        3
 92
        1
 93
        1
 72
     4
 94
        3
 73
     0
 74
     1
 95
       29
 96
       25
 40
0.0
 40
0.0
 40
0.0
 40
0.0
 40
1.0
 40
1.0
 40
1.0
 40
2.0
 40
2.0
 40
2.0
 40
3.0
 40
3.0
 40
3.0
 40
4.0
 40
4.0
 40
4.0
 40
5.0
 40
5.0
 40
5.0
 40
6.0
 40
6.0
 40
6.0
 40
7.0
 40
7.0
 40
7.0
 40
8.0
 40
8.0
 40
8.0
 40
8.0
 10
91.40251733826048
 20
-136.969417283466
 10
91.13586694770216
 20
-136.969417283466
 10
90.88230791998777
 20
-136.8319579736045
 10
90.88230791998777
 20
-136.4829698009487
 10
90.88230791998777
 20
-136.2269992063947
 10
91.02390134443152
 20
-136.1319145710017
 10
91.1296657758287
 20
-136.0705918713643
 10
91.00495331926265
 20
-136.011336229018
 10
90.92881670903863
 20
-135.8969590589077
 10
90.92881670903863
 20
-135.7360730997465
 10
90.92881670903863
 20
-135.4611544800236
 10
91.12759871853756
 20
-135.3257622274533
 10
91.40251733826048
 20
-135.3257622274533
 10
91.68604869669655
 20
-135.3257622274533
 10
91.87656247703086
 20
-135.4697672187367
 10
91.87656247703086
 20
-135.7360730997465
 10
91.87656247703086
 20
-135.8969590589077
 10
91.79801429996716
 20
-136.011336229018
 10
91.67330184340112
 20
-136.0705918713643
 10
91.76218530692057
 20
-136.1212347749975
 10
91.92100420879059
 20
-136.2163194103904
 10
91.92100420879059
 20
-136.4788356863664
 10
91.92100420879059
 20
-136.8533175656131
 10
91.64160696493683
 20
-136.969417283466
 10
91.40251733826048
 20
-136.969417283466
 97
        0
 97
        0
 92
        1
 93
        1
 72
     4
 94
        3
 73
     0
 74
     1
 95
       17
 96
       13
 40
0.0
 40
0.0
 40
0.0
 40
0.0
 40
1.0
 40
1.0
 40
1.0
 40
2.0
 40
2.0
 40
2.0
 40
3.0
 40
3.0
 40
3.0
 40
4.0
 40
4.0
 40
4.0
 40
4.0
 10
91.40251733826048
 20
-136.1784233600526
 10
91.25885685652557
 20
-136.1784233600526
 10
91.106239126529
 20
-136.2652397662809
 10
91.106239126529
 20
-136.4681558903621
 10
91.106239126529
 20
-136.673483581283
 10
91.23336314993472
 20
-136.7747693885494
 10
91.40251733826048
 20
-136.7747693885494
 10
91.58855249446398
 20
-136.7747693885494
 10
91.69879554999197
 20
-136.6521239892745
 10
91.69879554999197
 20
-136.4743570622356
 10
91.69879554999197
 20
-136.2524929129855
 10
91.53584253353965
 20
-136.1784233600526
 10
91.40251733826048
 20
-136.1784233600526
 97
        0
 97
        0
 92
        1
 93
        1
 72
     4
 94
        3
 73
     0
 74
     1
 95
       17
 96
       13
 40
0.0
 40
0.0
 40
0.0
 40
0.0
 40
1.0
 40
1.0
 40
1.0
 40
2.0
 40
2.0
 40
2.0
 40
3.0
 40
3.0
 40
3.0
 40
4.0
 40
4.0
 40
4.0
 40
4.0
 10
91.40251733826048
 20
-135.5183430650788
 10
91.23749726451702
 20
-135.5183430650788
 10
91.15309242512839
 20
-135.6134277004716
 10
91.15309242512839
 20
-135.748819953042
 10
91.15309242512839
 20
-135.8714653523169
 10
91.22475041122159
 20
-135.9899766370094
 10
91.40251733826048
 20
-135.9899766370094
 10
91.58028426529938
 20
-135.9899766370094
 10
91.6522867609411
 20
-135.8714653523169
 10
91.6522867609411
 20
-135.748819953042
 10
91.6522867609411
 20
-135.6134277004716
 10
91.5654703547128
 20
-135.5183430650788
 10
91.40251733826048
 20
-135.5183430650788
 97
        0
 97
        0
 75
     2
 76
     1
 98
        0
  0
ENDBLK
  5
70
330
6D
100
AcDbEntity
  8
0
100
AcDbBlockEnd
  0
BLOCK
  5
89
330
87
100
AcDbEntity
  8
0
100
AcDbBlockBegin
  2
block 4
 70
     0
 10
0.0
 20
0.0
 30
0.0
  3
block 4
  1

  0
SPLINE
  5
8B
330
87
100
AcDbEntity
  8
_U+30EC_U+30A4_U+30E4_U+30FC 1
370
     0
100
AcDbSpline
210
0.0
220
0.0
230
1.0
 70
    11
 71
     3
 72
    29
 73
    25
 74
     0
 42
0.0000000001
 43
0.0000000001
 12
1.0
 22
0.0
 32
0.0
 13
1.0
 23
0.0
 33
0.0
 40
0.0
 40
0.0
 40
0.0
 40
0.0
 40
1.0
 40
1.0
 40
1.0
 40
2.0
 40
2.0
 40
2.0
 40
3.0
 40
3.0
 40
3.0
 40
4.0
 40
4.0
 40
4.0
 40
5.0
 40
5.0
 40
5.0
 40
6.0
 40
6.0
 40
6.0
 40
7.0
 40
7.0
 40
7.0
 40
8.0
 40
8.0
 40
8.0
 40
8.0
 10
102.6459309639219
 20
-135.1683213637774
 30
0.0
 10
102.8553927694251
 20
-135.2764973620142
 30
0.0
 10
102.8743407945939
 20
-135.4497856649223
 30
0.0
 10
102.8743407945939
 20
-135.5662298923237
 30
0.0
 10
102.8743407945939
 20
-135.7271158514849
 30
0.0
 10
102.827832005543
 20
-135.8687092759287
 30
0.0
 10
102.6459309639219
 20
-135.9637939113215
 30
0.0
 10
102.4512830690052
 20
-136.0674912854276
 30
0.0
 10
102.2142604996201
 20
-136.086783820145
 30
0.0
 10
102.0516519927163
 20
-136.086783820145
 30
0.0
 10
101.9076470014328
 20
-136.086783820145
 30
0.0
 10
101.655810521461
 20
-136.0695583427187
 30
0.0
 10
101.4570285119621
 20
-135.9637939113215
 30
0.0
 10
101.2541123878809
 20
-135.8559624226332
 30
0.0
 10
101.2306857385812
 20
-135.6950764634721
 30
0.0
 10
101.2306857385812
 20
-135.5662298923237
 30
0.0
 10
101.2306857385812
 20
-135.4074109904537
 30
0.0
 10
101.2751274703409
 20
-135.2637505087188
 30
0.0
 10
101.4570285119621
 20
-135.1683213637774
 30
0.0
 10
101.6496093495876
 20
-135.0691026138022
 30
0.0
 10
101.8780191802597
 20
-135.0456759645025
 30
0.0
 10
102.0516519927163
 20
-135.0456759645025
 30
0.0
 10
102.2228732383332
 20
-135.0456759645025
 30
0.0
 10
102.4533501262964
 20
-135.067035556511
 30
0.0
 10
102.6459309639219
 20
-135.1683213637774
 30
0.0
  0
SPLINE
  5
8C
330
87
100
AcDbEntity
  8
_U+30EC_U+30A4_U+30E4_U+30FC 1
370
     0
100
AcDbSpline
210
0.0
220
0.0
230
1.0
 70
    11
 71
     3
 72
    17
 73
    13
 74
     0
 42
0.0000000001
 43
0.0000000001
 12
1.0
 22
0.0
 32
0.0
 13
1.0
 23
0.0
 33
0.0
 40
0.0
 40
0.0
 40
0.0
 40
0.0
 40
1.0
 40
1.0
 40
1.0
 40
2.0
 40
2.0
 40
2.0
 40
3.0
 40
3.0
 40
3.0
 40
4.0
 40
4.0
 40
4.0
 40
4.0
 10
101.4232665762067
 20
-135.5662298923237
 30
0.0
 10
101.4232665762067
 20
-135.8159993150043
 30
0.0
 10
101.7067979346428
 20
-135.8625081040552
 30
0.0
 10
102.0516519927163
 20
-135.8625081040552
 30
0.0
 10
102.3710123441989
 20
-135.8625081040552
 30
0.0
 10
102.6796928996773
 20
-135.8263346014601
 30
0.0
 10
102.6796928996773
 20
-135.5662298923237
 30
0.0
 10
102.6796928996773
 20
-135.3185275269343
 30
0.0
 10
102.3985731080809
 20
-135.2699516805922
 30
0.0
 10
102.0516519927163
 20
-135.2699516805922
 30
0.0
 10
101.7319471316851
 20
-135.2699516805922
 30
0.0
 10
101.4232665762067
 20
-135.3081922404785
 30
0.0
 10
101.4232665762067
 20
-135.5662298923237
 30
0.0
  0
HATCH
  5
8D
330
87
100
AcDbEntity
  8
_U+30EC_U+30A4_U+30E4_U+30FC 1
 62
   179
420
  2234388
100
AcDbHatch
 10
0.0
 20
0.0
 30
0.0
210
0.0
220
0.0
230
1.0
  2
SOLID
 70
     1
 71
     0
 91
        2
 92
        1
 93
        1
 72
     4
 94
        3
 73
     0
 74
     1
 95
       29
 96
       25
 40
0.0
 40
0.0
 40
0.0
 40
0.0
 40
1.0
 40
1.0
 40
1.0
 40
2.0
 40
2.0
 40
2.0
 40
3.0
 40
3.0
 40
3.0
 40
4.0
 40
4.0
 40
4.0
 40
5.0
 40
5.0
 40
5.0
 40
6.0
 40
6.0
 40
6.0
 40
7.0
 40
7.0
 40
7.0
 40
8.0
 40
8.0
 40
8.0
 40
8.0
 10
102.6459309639219
 20
-135.1683213637774
 10
102.8553927694251
 20
-135.2764973620142
 10
102.8743407945939
 20
-135.4497856649223
 10
102.8743407945939
 20
-135.5662298923237
 10
102.8743407945939
 20
-135.7271158514849
 10
102.827832005543
 20
-135.8687092759287
 10
102.6459309639219
 20
-135.9637939113215
 10
102.4512830690052
 20
-136.0674912854276
 10
102.2142604996201
 20
-136.086783820145
 10
102.0516519927163
 20
-136.086783820145
 10
101.9076470014328
 20
-136.086783820145
 10
101.655810521461
 20
-136.0695583427187
 10
101.4570285119621
 20
-135.9637939113215
 10
101.2541123878809
 20
-135.8559624226332
 10
101.2306857385812
 20
-135.6950764634721
 10
101.2306857385812
 20
-135.5662298923237
 10
101.2306857385812
 20
-135.4074109904537
 10
101.2751274703409
 20
-135.2637505087188
 10
101.4570285119621
 20
-135.1683213637774
 10
101.6496093495876
 20
-135.0691026138022
 10
101.8780191802597
 20
-135.0456759645025
 10
102.0516519927163
 20
-135.0456759645025
 10
102.2228732383332
 20
-135.0456759645025
 10
102.4533501262964
 20
-135.067035556511
 10
102.6459309639219
 20
-135.1683213637774
 97
        0
 97
        0
 92
        1
 93
        1
 72
     4
 94
        3
 73
     0
 74
     1
 95
       17
 96
       13
 40
0.0
 40
0.0
 40
0.0
 40
0.0
 40
1.0
 40
1.0
 40
1.0
 40
2.0
 40
2.0
 40
2.0
 40
3.0
 40
3.0
 40
3.0
 40
4.0
 40
4.0
 40
4.0
 40
4.0
 10
101.4232665762067
 20
-135.5662298923237
 10
101.4232665762067
 20
-135.8159993150043
 10
101.7067979346428
 20
-135.8625081040552
 10
102.0516519927163
 20
-135.8625081040552
 10
102.3710123441989
 20
-135.8625081040552
 10
102.6796928996773
 20
-135.8263346014601
 10
102.6796928996773
 20
-135.5662298923237
 10
102.6796928996773
 20
-135.3185275269343
 10
102.3985731080809
 20
-135.2699516805922
 10
102.0516519927163
 20
-135.2699516805922
 10
101.7319471316851
 20
-135.2699516805922
 10
101.4232665762067
 20
-135.3081922404785
 10
101.4232665762067
 20
-135.5662298923237
 97
        0
 97
        0
 75
     2
 76
     1
 98
        0
  0
POLYLINE
  5
8E
330
87
100
AcDbEntity
  8
_U+30EC_U+30A4_U+30E4_U+30FC 1
370
     0
100
AcDb2dPolyline
 66
     1
 10
0.0
 20
0.0
 30
0.0
  0
VERTEX
  5
8F
330
8E
100
AcDbEntity
  8
_U+30EC_U+30A4_U+30E4_U+30FC 1
370
     0
100
AcDbVertex
100
AcDb2dVertex
 10
102.8236978909607
 20
-134.8293239680288
 30
0.0
  0
VERTEX
  5
90
330
8E
100
AcDbEntity
  8
_U+30EC_U+30A4_U+30E4_U+30FC 1
370
     0
100
AcDbVertex
100
AcDb2dVertex
 10
102.571861410989
 20
-134.8293239680288
 30
0.0
  0
VERTEX
  5
91
330
8E
100
AcDbEntity
  8
_U+30EC_U+30A4_U+30E4_U+30FC 1
370
     0
100
AcDbVertex
100
AcDb2dVertex
 10
102.571861410989
 20
-134.577487488057
 30
0.0
  0
VERTEX
  5
92
330
8E
100
AcDbEntity
  8
_U+30EC_U+30A4_U+30E4_U+30FC 1
370
     0
100
AcDbVertex
100
AcDb2dVertex
 10
102.8236978909607
 20
-134.577487488057
 30
0.0
  0
VERTEX
  5
93
330
8E
100
AcDbEntity
  8
_U+30EC_U+30A4_U+30E4_U+30FC 1
370
     0
100
AcDbVertex
100
AcDb2dVertex
 10
102.8236978909607
 20
-134.8293239680288
 30
0.0
  0
SEQEND
  5
94
330
8E
100
AcDbEntity
  8
_U+30EC_U+30A4_U+30E4_U+30FC 1
370
     0
  0
HATCH
  5
95
330
87
100
AcDbEntity
  8
_U+30EC_U+30A4_U+30E4_U+30FC 1
 62
   179
420
  2234388
100
AcDbHatch
 10
0.0
 20
0.0
 30
0.0
210
0.0
220
0.0
230
1.0
  2
SOLID
 70
     1
 71
     0
 91
        1
 92
        1
 93
        4
 72
     1
 10
102.8236978909607
 20
-134.8293239680288
 11
102.571861410989
 21
-134.8293239680288
 72
     1
 10
102.571861410989
 20
-134.8293239680288
 11
102.571861410989
 21
-134.577487488057
 72
     1
 10
102.571861410989
 20
-134.577487488057
 11
102.8236978909607
 21
-134.577487488057
 72
     1
 10
102.8236978909607
 20
-134.577487488057
 11
102.8236978909607
 21
-134.8293239680288
 97
        0
 75
     2
 76
     1
 98
        0
  0
SPLINE
  5
96
330
87
100
AcDbEntity
  8
_U+30EC_U+30A4_U+30E4_U+30FC 1
370
     0
100
AcDbSpline
210
0.0
220
0.0
230
1.0
 70
    11
 71
     3
 72
    26
 73
    22
 74
     0
 42
0.0000000001
 43
0.0000000001
 12
1.0
 22
0.0
 32
0.0
 13
1.0
 23
0.0
 33
0.0
 40
0.0
 40
0.0
 40
0.0
 40
0.0
 40
1.0
 40
1.0
 40
1.0
 40
2.0
 40
2.0
 40
2.0
 40
3.0
 40
3.0
 40
3.0
 40
4.0
 40
4.0
 40
4.0
 40
5.0
 40
5.0
 40
5.0
 40
6.0
 40
6.0
 40
6.0
 40
7.0
 40
7.0
 40
7.0
 40
7.0
 10
102.8236978909607
 20
-133.9301540463786
 30
0.0
 10
102.8236978909607
 20
-133.9301540463786
 30
0.0
 10
102.8236978909607
 20
-134.1671766157638
 30
0.0
 10
102.8236978909607
 20
-134.1671766157638
 30
0.0
 10
102.5146728259338
 20
-134.1416829091729
 30
0.0
 10
101.9965304649523
 20
-133.9491020715475
 30
0.0
 10
101.4907904477176
 20
-133.5429253138365
 30
0.0
 10
101.4907904477176
 20
-133.5429253138365
 30
0.0
 10
101.4907904477176
 20
-134.3807725358492
 30
0.0
 10
101.4907904477176
 20
-134.3807725358492
 30
0.0
 10
101.4907904477176
 20
-134.3807725358492
 30
0.0
 10
101.2792615849232
 20
-134.3807725358492
 30
0.0
 10
101.2792615849232
 20
-134.3807725358492
 30
0.0
 10
101.2792615849232
 20
-134.3807725358492
 30
0.0
 10
101.2792615849232
 20
-133.3059027444513
 30
0.0
 10
101.2792615849232
 20
-133.3059027444513
 30
0.0
 10
101.2792615849232
 20
-133.3059027444513
 30
0.0
 10
101.4907904477176
 20
-133.3059027444513
 30
0.0
 10
101.4907904477176
 20
-133.3059027444513
 30
0.0
 10
101.7808674875756
 20
-133.6297417200648
 30
0.0
 10
102.3730794014901
 20
-133.8963921106231
 30
0.0
 10
102.8236978909607
 20
-133.9301540463786
 30
0.0
  0
HATCH
  5
97
330
87
100
AcDbEntity
  8
_U+30EC_U+30A4_U+30E4_U+30FC 1
 62
   179
420
  2234388
100
AcDbHatch
 10
0.0
 20
0.0
 30
0.0
210
0.0
220
0.0
230
1.0
  2
SOLID
 70
     1
 71
     0
 91
        1
 92
        1
 93
        1
 72
     4
 94
        3
 73
     0
 74
     1
 95
       26
 96
       22
 40
0.0
 40
0.0
 40
0.0
 40
0.0
 40
1.0
 40
1.0
 40
1.0
 40
2.0
 40
2.0
 40
2.0
 40
3.0
 40
3.0
 40
3.0
 40
4.0
 40
4.0
 40
4.0
 40
5.0
 40
5.0
 40
5.0
 40
6.0
 40
6.0
 40
6.0
 40
7.0
 40
7.0
 40
7.0
 40
7.0
 10
102.8236978909607
 20
-133.9301540463786
 10
102.8236978909607
 20
-133.9301540463786
 10
102.8236978909607
 20
-134.1671766157638
 10
102.8236978909607
 20
-134.1671766157638
 10
102.5146728259338
 20
-134.1416829091729
 10
101.9965304649523
 20
-133.9491020715475
 10
101.4907904477176
 20
-133.5429253138365
 10
101.4907904477176
 20
-133.5429253138365
 10
101.4907904477176
 20
-134.3807725358492
 10
101.4907904477176
 20
-134.3807725358492
 10
101.4907904477176
 20
-134.3807725358492
 10
101.2792615849232
 20
-134.3807725358492
 10
101.2792615849232
 20
-134.3807725358492
 10
101.2792615849232
 20
-134.3807725358492
 10
101.2792615849232
 20
-133.3059027444513
 10
101.2792615849232
 20
-133.3059027444513
 10
101.2792615849232
 20
-133.3059027444513
 10
101.4907904477176
 20
-133.3059027444513
 10
101.4907904477176
 20
-133.3059027444513
 10
101.7808674875756
 20
-133.6297417200648
 10
102.3730794014901
 20
-133.8963921106231
 10
102.8236978909607
 20
-133.9301540463786
 97
        0
 97
        0
 75
     2
 76
     1
 98
        0
  0
ENDBLK
  5
8A
330
87
100
AcDbEntity
  8
0
100
AcDbBlockEnd
  0
BLOCK
  5
A2
330
A0
100
AcDbEntity
  8
0
100
AcDbBlockBegin
  2
block 5
 70
     0
 10
0.0
 20
0.0
 30
0.0
  3
block 5
  1

  0
SPLINE
  5
A4
330
A0
100
AcDbEntity
  8
_U+30EC_U+30A4_U+30E4_U+30FC 1
370
     0
100
AcDbSpline
210
0.0
220
0.0
230
1.0
 70
    11
 71
     3
 72
    26
 73
    22
 74
     0
 42
0.0000000001
 43
0.0000000001
 12
1.0
 22
0.0
 32
0.0
 13
1.0
 23
0.0
 33
0.0
 40
0.0
 40
0.0
 40
0.0
 40
0.0
 40
1.0
 40
1.0
 40
1.0
 40
2.0
 40
2.0
 40
2.0
 40
3.0
 40
3.0
 40
3.0
 40
4.0
 40
4.0
 40
4.0
 40
5.0
 40
5.0
 40
5.0
 40
6.0
 40
6.0
 40
6.0
 40
7.0
 40
7.0
 40
7.0
 40
7.0
 10
78.8434217467822
 20
-128.9189181535342
 30
0.0
 10
78.8434217467822
 20
-128.9189181535342
 30
0.0
 10
78.8434217467822
 20
-127.8147650505116
 30
0.0
 10
78.8434217467822
 20
-127.8147650505116
 30
0.0
 10
78.8434217467822
 20
-127.8147650505116
 30
0.0
 10
78.51338159929527
 20
-127.8147650505116
 30
0.0
 10
78.51338159929527
 20
-127.8147650505116
 30
0.0
 10
78.51338159929527
 20
-127.8147650505116
 30
0.0
 10
78.51338159929527
 20
-127.6666259446458
 30
0.0
 10
78.51338159929527
 20
-127.6666259446458
 30
0.0
 10
78.84548880407336
 20
-127.6519842888335
 30
0.0
 10
78.89199759312423
 20
-127.4890312723812
 30
0.0
 10
78.92162541429738
 20
-127.3748263570452
 30
0.0
 10
78.92162541429738
 20
-127.3748263570452
 30
0.0
 10
79.06769746287196
 20
-127.3748263570452
 30
0.0
 10
79.06769746287196
 20
-127.3748263570452
 30
0.0
 10
79.06769746287196
 20
-127.3748263570452
 30
0.0
 10
79.06769746287196
 20
-128.9189181535342
 30
0.0
 10
79.06769746287196
 20
-128.9189181535342
 30
0.0
 10
79.06769746287196
 20
-128.9189181535342
 30
0.0
 10
78.8434217467822
 20
-128.9189181535342
 30
0.0
 10
78.8434217467822
 20
-128.9189181535342
 30
0.0
  0
HATCH
  5
A5
330
A0
100
AcDbEntity
  8
_U+30EC_U+30A4_U+30E4_U+30FC 1
 62
   179
420
  2234388
100
AcDbHatch
 10
0.0
 20
0.0
 30
0.0
210
0.0
220
0.0
230
1.0
  2
SOLID
 70
     1
 71
     0
 91
        1
 92
        1
 93
        1
 72
     4
 94
        3
 73
     0
 74
     1
 95
       26
 96
       22
 40
0.0
 40
0.0
 40
0.0
 40
0.0
 40
1.0
 40
1.0
 40
1.0
 40
2.0
 40
2.0
 40
2.0
 40
3.0
 40
3.0
 40
3.0
 40
4.0
 40
4.0
 40
4.0
 40
5.0
 40
5.0
 40
5.0
 40
6.0
 40
6.0
 40
6.0
 40
7.0
 40
7.0
 40
7.0
 40
7.0
 10
78.8434217467822
 20
-128.9189181535342
 10
78.8434217467822
 20
-128.9189181535342
 10
78.8434217467822
 20
-127.8147650505116
 10
78.8434217467822
 20
-127.8147650505116
 10
78.8434217467822
 20
-127.8147650505116
 10
78.51338159929527
 20
-127.8147650505116
 10
78.51338159929527
 20
-127.8147650505116
 10
78.51338159929527
 20
-127.8147650505116
 10
78.51338159929527
 20
-127.6666259446458
 10
78.51338159929527
 20
-127.6666259446458
 10
78.84548880407336
 20
-127.6519842888335
 10
78.89199759312423
 20
-127.4890312723812
 10
78.92162541429738
 20
-127.3748263570452
 10
78.92162541429738
 20
-127.3748263570452
 10
79.06769746287196
 20
-127.3748263570452
 10
79.06769746287196
 20
-127.3748263570452
 10
79.06769746287196
 20
-127.3748263570452
 10
79.06769746287196
 20
-128.9189181535342
 10
79.06769746287196
 20
-128.9189181535342
 10
79.06769746287196
 20
-128.9189181535342
 10
78.8434217467822
 20
-128.9189181535342
 10
78.8434217467822
 20
-128.9189181535342
 97
        0
 97
        0
 75
     2
 76
     1
 98
        0
  0
ENDBLK
  5
A3
330
A0
100
AcDbEntity
  8
0
100
AcDbBlockEnd
  0
BLOCK
  5
B4
330
B2
100
AcDbEntity
  8
0
100
AcDbBlockBegin
  2
block 6
 70
     0
 10
0.0
 20
0.0
 30
0.0
  3
block 6
  1

  0
SPLINE
  5
B6
330
B2
100
AcDbEntity
  8
_U+30EC_U+30A4_U+30E4_U+30FC 1
370
     0
100
AcDbSpline
210
0.0
220
0.0
230
1.0
 70
    11
 71
     3
 72
    32
 73
    28
 74
     0
 42
0.0000000001
 43
0.0000000001
 12
1.0
 22
0.0
 32
0.0
 13
1.0
 23
0.0
 33
0.0
 40
0.0
 40
0.0
 40
0.0
 40
0.0
 40
1.0
 40
1.0
 40
1.0
 40
2.0
 40
2.0
 40
2.0
 40
3.0
 40
3.0
 40
3.0
 40
4.0
 40
4.0
 40
4.0
 40
5.0
 40
5.0
 40
5.0
 40
6.0
 40
6.0
 40
6.0
 40
7.0
 40
7.0
 40
7.0
 40
8.0
 40
8.0
 40
8.0
 40
9.0
 40
9.0
 40
9.0
 40
9.0
 10
103.3445963283305
 20
-130.0757812174811
 30
0.0
 10
103.3445963283305
 20
-130.5918565211715
 30
0.0
 10
102.7906249743023
 20
-130.6001247503361
 30
0.0
 10
102.5766845446683
 20
-130.6001247503361
 30
0.0
 10
102.3462076567051
 20
-130.6001247503361
 30
0.0
 10
101.6988742150267
 20
-130.5811767251672
 30
0.0
 10
101.6988742150267
 20
-130.0375406575948
 30
0.0
 10
101.6988742150267
 20
-129.8642523546867
 30
0.0
 10
101.7688096533772
 20
-129.6186170465884
 30
0.0
 10
102.1009168581553
 20
-129.5807209962506
 30
0.0
 10
102.1009168581553
 20
-129.5807209962506
 30
0.0
 10
102.1009168581553
 20
-129.7943169163362
 30
0.0
 10
102.1009168581553
 20
-129.7943169163362
 30
0.0
 10
102.0437282731002
 20
-129.8049967123404
 30
0.0
 10
101.8955891672344
 20
-129.8366915908047
 30
0.0
 10
101.8955891672344
 20
-130.0396077148859
 30
0.0
 10
101.8955891672344
 20
-130.3317518120351
 30
0.0
 10
102.2235622574302
 20
-130.371714919664
 30
0.0
 10
102.4285454388026
 20
-130.3844617729594
 30
0.0
 10
102.3503417712874
 20
-130.2914441948577
 30
0.0
 10
102.2910861289411
 20
-130.2235758137983
 30
0.0
 10
102.2910861289411
 20
-130.0416747721771
 30
0.0
 10
102.2910861289411
 20
-129.8618407878471
 30
0.0
 10
102.399262127178
 20
-129.5593614042421
 30
0.0
 10
102.8054388848889
 20
-129.5593614042421
 30
0.0
 10
103.1247992363716
 20
-129.5593614042421
 30
0.0
 10
103.3445963283305
 20
-129.7584879232896
 30
0.0
 10
103.3445963283305
 20
-130.0757812174811
 30
0.0
  0
SPLINE
  5
B7
330
B2
100
AcDbEntity
  8
_U+30EC_U+30A4_U+30E4_U+30FC 1
370
     0
100
AcDbSpline
210
0.0
220
0.0
230
1.0
 70
    11
 71
     3
 72
    17
 73
    13
 74
     0
 42
0.0000000001
 43
0.0000000001
 12
1.0
 22
0.0
 32
0.0
 13
1.0
 23
0.0
 33
0.0
 40
0.0
 40
0.0
 40
0.0
 40
0.0
 40
1.0
 40
1.0
 40
1.0
 40
2.0
 40
2.0
 40
2.0
 40
3.0
 40
3.0
 40
3.0
 40
4.0
 40
4.0
 40
4.0
 40
4.0
 10
102.4857340238577
 20
-130.0585557400548
 30
0.0
 10
102.4857340238577
 20
-130.3210720160309
 30
0.0
 10
102.6972628866521
 20
-130.3589680663686
 30
0.0
 10
102.8137071140535
 20
-130.3589680663686
 30
0.0
 10
102.9894069838013
 20
-130.3589680663686
 30
0.0
 10
103.1523600002536
 20
-130.2638834309757
 30
0.0
 10
103.1523600002536
 20
-130.0799153320634
 30
0.0
 10
103.1523600002536
 20
-129.9593369900796
 30
0.0
 10
103.0931043579073
 20
-129.7836371203319
 30
0.0
 10
102.8075059421801
 20
-129.7836371203319
 30
0.0
 10
102.5832302260903
 20
-129.7836371203319
 30
0.0
 10
102.4857340238577
 20
-129.923507997033
 30
0.0
 10
102.4857340238577
 20
-130.0585557400548
 30
0.0
  0
HATCH
  5
B8
330
B2
100
AcDbEntity
  8
_U+30EC_U+30A4_U+30E4_U+30FC 1
 62
   179
420
  2234388
100
AcDbHatch
 10
0.0
 20
0.0
 30
0.0
210
0.0
220
0.0
230
1.0
  2
SOLID
 70
     1
 71
     0
 91
        2
 92
        1
 93
        1
 72
     4
 94
        3
 73
     0
 74
     1
 95
       32
 96
       28
 40
0.0
 40
0.0
 40
0.0
 40
0.0
 40
1.0
 40
1.0
 40
1.0
 40
2.0
 40
2.0
 40
2.0
 40
3.0
 40
3.0
 40
3.0
 40
4.0
 40
4.0
 40
4.0
 40
5.0
 40
5.0
 40
5.0
 40
6.0
 40
6.0
 40
6.0
 40
7.0
 40
7.0
 40
7.0
 40
8.0
 40
8.0
 40
8.0
 40
9.0
 40
9.0
 40
9.0
 40
9.0
 10
103.3445963283305
 20
-130.0757812174811
 10
103.3445963283305
 20
-130.5918565211715
 10
102.7906249743023
 20
-130.6001247503361
 10
102.5766845446683
 20
-130.6001247503361
 10
102.3462076567051
 20
-130.6001247503361
 10
101.6988742150267
 20
-130.5811767251672
 10
101.6988742150267
 20
-130.0375406575948
 10
101.6988742150267
 20
-129.8642523546867
 10
101.7688096533772
 20
-129.6186170465884
 10
102.1009168581553
 20
-129.5807209962506
 10
102.1009168581553
 20
-129.5807209962506
 10
102.1009168581553
 20
-129.7943169163362
 10
102.1009168581553
 20
-129.7943169163362
 10
102.0437282731002
 20
-129.8049967123404
 10
101.8955891672344
 20
-129.8366915908047
 10
101.8955891672344
 20
-130.0396077148859
 10
101.8955891672344
 20
-130.3317518120351
 10
102.2235622574302
 20
-130.371714919664
 10
102.4285454388026
 20
-130.3844617729594
 10
102.3503417712874
 20
-130.2914441948577
 10
102.2910861289411
 20
-130.2235758137983
 10
102.2910861289411
 20
-130.0416747721771
 10
102.2910861289411
 20
-129.8618407878471
 10
102.399262127178
 20
-129.5593614042421
 10
102.8054388848889
 20
-129.5593614042421
 10
103.1247992363716
 20
-129.5593614042421
 10
103.3445963283305
 20
-129.7584879232896
 10
103.3445963283305
 20
-130.0757812174811
 97
        0
 97
        0
 92
        1
 93
        1
 72
     4
 94
        3
 73
     0
 74
     1
 95
       17
 96
       13
 40
0.0
 40
0.0
 40
0.0
 40
0.0
 40
1.0
 40
1.0
 40
1.0
 40
2.0
 40
2.0
 40
2.0
 40
3.0
 40
3.0
 40
3.0
 40
4.0
 40
4.0
 40
4.0
 40
4.0
 10
102.4857340238577
 20
-130.0585557400548
 10
102.4857340238577
 20
-130.3210720160309
 10
102.6972628866521
 20
-130.3589680663686
 10
102.8137071140535
 20
-130.3589680663686
 10
102.9894069838013
 20
-130.3589680663686
 10
103.1523600002536
 20
-130.2638834309757
 10
103.1523600002536
 20
-130.0799153320634
 10
103.1523600002536
 20
-129.9593369900796
 10
103.0931043579073
 20
-129.7836371203319
 10
102.8075059421801
 20
-129.7836371203319
 10
102.5832302260903
 20
-129.7836371203319
 10
102.4857340238577
 20
-129.923507997033
 10
102.4857340238577
 20
-130.0585557400548
 97
        0
 97
        0
 75
     2
 76
     1
 98
        0
  0
POLYLINE
  5
B9
330
B2
100
AcDbEntity
  8
_U+30EC_U+30A4_U+30E4_U+30FC 1
370
     0
100
AcDb2dPolyline
 66
     1
 10
0.0
 20
0.0
 30
0.0
  0
VERTEX
  5
BA
330
B9
100
AcDbEntity
  8
_U+30EC_U+30A4_U+30E4_U+30FC 1
370
     0
100
AcDbVertex
100
AcDb2dVertex
 10
103.2939534246973
 20
-129.3430094077684
 30
0.0
  0
VERTEX
  5
BB
330
B9
100
AcDbEntity
  8
_U+30EC_U+30A4_U+30E4_U+30FC 1
370
     0
100
AcDbVertex
100
AcDb2dVertex
 10
103.0421169447256
 20
-129.3430094077684
 30
0.0
  0
VERTEX
  5
BC
330
B9
100
AcDbEntity
  8
_U+30EC_U+30A4_U+30E4_U+30FC 1
370
     0
100
AcDbVertex
100
AcDb2dVertex
 10
103.0421169447256
 20
-129.0911729277967
 30
0.0
  0
VERTEX
  5
BD
330
B9
100
AcDbEntity
  8
_U+30EC_U+30A4_U+30E4_U+30FC 1
370
     0
100
AcDbVertex
100
AcDb2dVertex
 10
103.2939534246973
 20
-129.0911729277967
 30
0.0
  0
VERTEX
  5
BE
330
B9
100
AcDbEntity
  8
_U+30EC_U+30A4_U+30E4_U+30FC 1
370
     0
100
AcDbVertex
100
AcDb2dVertex
 10
103.2939534246973
 20
-129.3430094077684
 30
0.0
  0
SEQEND
  5
BF
330
B9
100
AcDbEntity
  8
_U+30EC_U+30A4_U+30E4_U+30FC 1
370
     0
  0
HATCH
  5
C0
330
B2
100
AcDbEntity
  8
_U+30EC_U+30A4_U+30E4_U+30FC 1
 62
   179
420
  2234388
100
AcDbHatch
 10
0.0
 20
0.0
 30
0.0
210
0.0
220
0.0
230
1.0
  2
SOLID
 70
     1
 71
     0
 91
        1
 92
        1
 93
        4
 72
     1
 10
103.2939534246973
 20
-129.3430094077684
 11
103.0421169447256
 21
-129.3430094077684
 72
     1
 10
103.0421169447256
 20
-129.3430094077684
 11
103.0421169447256
 21
-129.0911729277967
 72
     1
 10
103.0421169447256
 20
-129.0911729277967
 11
103.2939534246973
 21
-129.0911729277967
 72
     1
 10
103.2939534246973
 20
-129.0911729277967
 11
103.2939534246973
 21
-129.3430094077684
 97
        0
 75
     2
 76
     1
 98
        0
  0
SPLINE
  5
C1
330
B2
100
AcDbEntity
  8
_U+30EC_U+30A4_U+30E4_U+30FC 1
370
     0
100
AcDbSpline
210
0.0
220
0.0
230
1.0
 70
    11
 71
     3
 72
    53
 73
    49
 74
     0
 42
0.0000000001
 43
0.0000000001
 12
1.0
 22
0.0
 32
0.0
 13
1.0
 23
0.0
 33
0.0
 40
0.0
 40
0.0
 40
0.0
 40
0.0
 40
1.0
 40
1.0
 40
1.0
 40
2.0
 40
2.0
 40
2.0
 40
3.0
 40
3.0
 40
3.0
 40
4.0
 40
4.0
 40
4.0
 40
5.0
 40
5.0
 40
5.0
 40
6.0
 40
6.0
 40
6.0
 40
7.0
 40
7.0
 40
7.0
 40
8.0
 40
8.0
 40
8.0
 40
9.0
 40
9.0
 40
9.0
 40
10.0
 40
10.0
 40
10.0
 40
11.0
 40
11.0
 40
11.0
 40
12.0
 40
12.0
 40
12.0
 40
13.0
 40
13.0
 40
13.0
 40
14.0
 40
14.0
 40
14.0
 40
15.0
 40
15.0
 40
15.0
 40
16.0
 40
16.0
 40
16.0
 40
16.0
 10
103.3445963283305
 20
-128.3739040477676
 30
0.0
 10
103.3445963283305
 20
-128.4521077152828
 30
0.0
 10
103.3277153604528
 20
-128.5537380320977
 30
0.0
 10
103.2643256035242
 20
-128.6553683489126
 30
0.0
 10
103.1544270575447
 20
-128.8286566518206
 30
0.0
 10
103.0231689195567
 20
-128.8500162438292
 30
0.0
 10
102.9153374308684
 20
-128.868964268998
 30
0.0
 10
102.9153374308684
 20
-128.868964268998
 30
0.0
 10
102.9153374308684
 20
-128.6467556101994
 30
0.0
 10
102.9153374308684
 20
-128.6467556101994
 30
0.0
 10
103.1141194403673
 20
-128.5919785919839
 30
0.0
 10
103.1437472615405
 20
-128.4648545685782
 30
0.0
 10
103.1437472615405
 20
-128.3718369904765
 30
0.0
 10
103.1437472615405
 20
-128.2323106233239
 30
0.0
 10
103.0441840020167
 20
-128.0800374028758
 30
0.0
 10
102.8116400567624
 20
-128.0800374028758
 30
0.0
 10
102.5556694622083
 20
-128.0800374028758
 30
0.0
 10
102.4857340238577
 20
-128.2598713872059
 30
0.0
 10
102.4857340238577
 20
-128.3804497291896
 30
0.0
 10
102.4857340238577
 20
-128.4121446076539
 30
0.0
 10
102.4857340238577
 20
-128.5537380320977
 30
0.0
 10
102.6149251045546
 20
-128.6426214956171
 30
0.0
 10
102.6149251045546
 20
-128.6426214956171
 30
0.0
 10
102.5959770793857
 20
-128.8183213653649
 30
0.0
 10
102.5959770793857
 20
-128.8183213653649
 30
0.0
 10
102.5959770793857
 20
-128.8183213653649
 30
0.0
 10
101.7495171186599
 20
-128.6977430233811
 30
0.0
 10
101.7495171186599
 20
-128.6977430233811
 30
0.0
 10
101.7495171186599
 20
-128.6977430233811
 30
0.0
 10
101.7495171186599
 20
-127.9191514437147
 30
0.0
 10
101.7495171186599
 20
-127.9191514437147
 30
0.0
 10
101.7495171186599
 20
-127.9191514437147
 30
0.0
 10
101.9441650135765
 20
-127.9191514437147
 30
0.0
 10
101.9441650135765
 20
-127.9191514437147
 30
0.0
 10
101.9441650135765
 20
-127.9191514437147
 30
0.0
 10
101.9441650135765
 20
-128.5347900069288
 30
0.0
 10
101.9441650135765
 20
-128.5347900069288
 30
0.0
 10
101.9441650135765
 20
-128.5347900069288
 30
0.0
 10
102.3672227391651
 20
-128.6002468211485
 30
0.0
 10
102.3672227391651
 20
-128.6002468211485
 30
0.0
 10
102.3334608034097
 20
-128.5389241215111
 30
0.0
 10
102.2931531862323
 20
-128.4565863394136
 30
0.0
 10
102.2931531862323
 20
-128.338075054721
 30
0.0
 10
102.2931531862323
 20
-128.0841715174581
 30
0.0
 10
102.4795328519843
 20
-127.8471489480729
 30
0.0
 10
102.7926920315935
 20
-127.8471489480729
 30
0.0
 10
103.109985325785
 20
-127.8471489480729
 30
0.0
 10
103.3445963283305
 20
-128.0714246641627
 30
0.0
 10
103.3445963283305
 20
-128.3739040477676
 30
0.0
  0
HATCH
  5
C2
330
B2
100
AcDbEntity
  8
_U+30EC_U+30A4_U+30E4_U+30FC 1
 62
   179
420
  2234388
100
AcDbHatch
 10
0.0
 20
0.0
 30
0.0
210
0.0
220
0.0
230
1.0
  2
SOLID
 70
     1
 71
     0
 91
        1
 92
        1
 93
        1
 72
     4
 94
        3
 73
     0
 74
     1
 95
       53
 96
       49
 40
0.0
 40
0.0
 40
0.0
 40
0.0
 40
1.0
 40
1.0
 40
1.0
 40
2.0
 40
2.0
 40
2.0
 40
3.0
 40
3.0
 40
3.0
 40
4.0
 40
4.0
 40
4.0
 40
5.0
 40
5.0
 40
5.0
 40
6.0
 40
6.0
 40
6.0
 40
7.0
 40
7.0
 40
7.0
 40
8.0
 40
8.0
 40
8.0
 40
9.0
 40
9.0
 40
9.0
 40
10.0
 40
10.0
 40
10.0
 40
11.0
 40
11.0
 40
11.0
 40
12.0
 40
12.0
 40
12.0
 40
13.0
 40
13.0
 40
13.0
 40
14.0
 40
14.0
 40
14.0
 40
15.0
 40
15.0
 40
15.0
 40
16.0
 40
16.0
 40
16.0
 40
16.0
 10
103.3445963283305
 20
-128.3739040477676
 10
103.3445963283305
 20
-128.4521077152828
 10
103.3277153604528
 20
-128.5537380320977
 10
103.2643256035242
 20
-128.6553683489126
 10
103.1544270575447
 20
-128.8286566518206
 10
103.0231689195567
 20
-128.8500162438292
 10
102.9153374308684
 20
-128.868964268998
 10
102.9153374308684
 20
-128.868964268998
 10
102.9153374308684
 20
-128.6467556101994
 10
102.9153374308684
 20
-128.6467556101994
 10
103.1141194403673
 20
-128.5919785919839
 10
103.1437472615405
 20
-128.4648545685782
 10
103.1437472615405
 20
-128.3718369904765
 10
103.1437472615405
 20
-128.2323106233239
 10
103.0441840020167
 20
-128.0800374028758
 10
102.8116400567624
 20
-128.0800374028758
 10
102.5556694622083
 20
-128.0800374028758
 10
102.4857340238577
 20
-128.2598713872059
 10
102.4857340238577
 20
-128.3804497291896
 10
102.4857340238577
 20
-128.4121446076539
 10
102.4857340238577
 20
-128.5537380320977
 10
102.6149251045546
 20
-128.6426214956171
 10
102.6149251045546
 20
-128.6426214956171
 10
102.5959770793857
 20
-128.8183213653649
 10
102.5959770793857
 20
-128.8183213653649
 10
102.5959770793857
 20
-128.8183213653649
 10
101.7495171186599
 20
-128.6977430233811
 10
101.7495171186599
 20
-128.6977430233811
 10
101.7495171186599
 20
-128.6977430233811
 10
101.7495171186599
 20
-127.9191514437147
 10
101.7495171186599
 20
-127.9191514437147
 10
101.7495171186599
 20
-127.9191514437147
 10
101.9441650135765
 20
-127.9191514437147
 10
101.9441650135765
 20
-127.9191514437147
 10
101.9441650135765
 20
-127.9191514437147
 10
101.9441650135765
 20
-128.5347900069288
 10
101.9441650135765
 20
-128.5347900069288
 10
101.9441650135765
 20
-128.5347900069288
 10
102.3672227391651
 20
-128.6002468211485
 10
102.3672227391651
 20
-128.6002468211485
 10
102.3334608034097
 20
-128.5389241215111
 10
102.2931531862323
 20
-128.4565863394136
 10
102.2931531862323
 20
-128.338075054721
 10
102.2931531862323
 20
-128.0841715174581
 10
102.4795328519843
 20
-127.8471489480729
 10
102.7926920315935
 20
-127.8471489480729
 10
103.109985325785
 20
-127.8471489480729
 10
103.3445963283305
 20
-128.0714246641627
 10
103.3445963283305
 20
-128.3739040477676
 97
        0
 97
        0
 75
     2
 76
     1
 98
        0
  0
ENDBLK
  5
B5
330
B2
100
AcDbEntity
  8
0
100
AcDbBlockEnd
  0
BLOCK
  5
D1
330
CF
100
AcDbEntity
  8
0
100
AcDbBlockBegin
  2
block 7
 70
     0
 10
0.0
 20
0.0
 30
0.0
  3
block 7
  1

  0
SPLINE
  5
D3
330
CF
100
AcDbEntity
  8
_U+30EC_U+30A4_U+30E4_U+30FC 1
370
     0
100
AcDbSpline
210
0.0
220
0.0
230
1.0
 70
    11
 71
     3
 72
    26
 73
    22
 74
     0
 42
0.0000000001
 43
0.0000000001
 12
1.0
 22
0.0
 32
0.0
 13
1.0
 23
0.0
 33
0.0
 40
0.0
 40
0.0
 40
0.0
 40
0.0
 40
1.0
 40
1.0
 40
1.0
 40
2.0
 40
2.0
 40
2.0
 40
3.0
 40
3.0
 40
3.0
 40
4.0
 40
4.0
 40
4.0
 40
5.0
 40
5.0
 40
5.0
 40
6.0
 40
6.0
 40
6.0
 40
7.0
 40
7.0
 40
7.0
 40
7.0
 10
96.3035101755769
 20
-128.9189181535342
 30
0.0
 10
96.3035101755769
 20
-128.9189181535342
 30
0.0
 10
96.06648760619171
 20
-128.9189181535342
 30
0.0
 10
96.06648760619171
 20
-128.9189181535342
 30
0.0
 10
96.09198131278256
 20
-128.6102375980558
 30
0.0
 10
96.28456215040804
 20
-128.0919229822999
 30
0.0
 10
96.69073890811899
 20
-127.5863552198395
 30
0.0
 10
96.69073890811899
 20
-127.5863552198395
 30
0.0
 10
95.85289168610623
 20
-127.5863552198395
 30
0.0
 10
95.85289168610623
 20
-127.5863552198395
 30
0.0
 10
95.85289168610623
 20
-127.5863552198395
 30
0.0
 10
95.85289168610623
 20
-127.3748263570452
 30
0.0
 10
95.85289168610623
 20
-127.3748263570452
 30
0.0
 10
95.85289168610623
 20
-127.3748263570452
 30
0.0
 10
96.92776147750418
 20
-127.3748263570452
 30
0.0
 10
96.92776147750418
 20
-127.3748263570452
 30
0.0
 10
96.92776147750418
 20
-127.3748263570452
 30
0.0
 10
96.92776147750418
 20
-127.5863552198395
 30
0.0
 10
96.92776147750418
 20
-127.5863552198395
 30
0.0
 10
96.6039225018907
 20
-127.876087750149
 30
0.0
 10
96.33727211133235
 20
-128.4684719188377
 30
0.0
 10
96.3035101755769
 20
-128.9189181535342
 30
0.0
  0
HATCH
  5
D4
330
CF
100
AcDbEntity
  8
_U+30EC_U+30A4_U+30E4_U+30FC 1
 62
   179
420
  2234388
100
AcDbHatch
 10
0.0
 20
0.0
 30
0.0
210
0.0
220
0.0
230
1.0
  2
SOLID
 70
     1
 71
     0
 91
        1
 92
        1
 93
        1
 72
     4
 94
        3
 73
     0
 74
     1
 95
       26
 96
       22
 40
0.0
 40
0.0
 40
0.0
 40
0.0
 40
1.0
 40
1.0
 40
1.0
 40
2.0
 40
2.0
 40
2.0
 40
3.0
 40
3.0
 40
3.0
 40
4.0
 40
4.0
 40
4.0
 40
5.0
 40
5.0
 40
5.0
 40
6.0
 40
6.0
 40
6.0
 40
7.0
 40
7.0
 40
7.0
 40
7.0
 10
96.3035101755769
 20
-128.9189181535342
 10
96.3035101755769
 20
-128.9189181535342
 10
96.06648760619171
 20
-128.9189181535342
 10
96.06648760619171
 20
-128.9189181535342
 10
96.09198131278256
 20
-128.6102375980558
 10
96.28456215040804
 20
-128.0919229822999
 10
96.69073890811899
 20
-127.5863552198395
 10
96.69073890811899
 20
-127.5863552198395
 10
95.85289168610623
 20
-127.5863552198395
 10
95.85289168610623
 20
-127.5863552198395
 10
95.85289168610623
 20
-127.5863552198395
 10
95.85289168610623
 20
-127.3748263570452
 10
95.85289168610623
 20
-127.3748263570452
 10
95.85289168610623
 20
-127.3748263570452
 10
96.92776147750418
 20
-127.3748263570452
 10
96.92776147750418
 20
-127.3748263570452
 10
96.92776147750418
 20
-127.3748263570452
 10
96.92776147750418
 20
-127.5863552198395
 10
96.92776147750418
 20
-127.5863552198395
 10
96.6039225018907
 20
-127.876087750149
 10
96.33727211133235
 20
-128.4684719188377
 10
96.3035101755769
 20
-128.9189181535342
 97
        0
 97
        0
 75
     2
 76
     1
 98
        0
  0
ENDBLK
  5
D2
330
CF
100
AcDbEntity
  8
0
100
AcDbBlockEnd
  0
ENDSEC
  0
SECTION
  2
ENTITIES
  0
SPLINE
  5
41
330
1F
100
AcDbEntity
  8
_U+30EC_U+30A4_U+30E4_U+30FC 1
 62
   179
420
  2234388
370
     9
100
AcDbSpline
210
0.0
220
0.0
230
1.0
 70
    11
 71
     3
 72
    17
 73
    13
 74
     0
 42
0.0000000001
 43
0.0000000001
 12
1.0
 22
0.0
 32
0.0
 13
1.0
 23
0.0
 33
0.0
 40
0.0
 40
0.0
 40
0.0
 40
0.0
 40
1.0
 40
1.0
 40
1.0
 40
2.0
 40
2.0
 40
2.0
 40
3.0
 40
3.0
 40
3.0
 40
4.0
 40
4.0
 40
4.0
 40
4.0
 10
81.99017485270082
 20
-129.5149174676212
 30
0.0
 10
81.99017485270082
 20
-129.4598135787463
 30
0.0
 10
81.94537207606605
 20
-129.4150108009795
 30
0.0
 10
81.88991541081421
 20
-129.4150108009795
 30
0.0
 10
81.83445874556236
 20
-129.4150108009795
 30
0.0
 10
81.78965596892759
 20
-129.4598135787463
 30
0.0
 10
81.78965596892759
 20
-129.5149174676212
 30
0.0
 10
81.78965596892759
 20
-129.5707269120516
 30
0.0
 10
81.83445874556236
 20
-129.6148241342628
 30
0.0
 10
81.88991541081421
 20
-129.6148241342628
 30
0.0
 10
81.94537207606605
 20
-129.6148241342628
 30
0.0
 10
81.99017485270082
 20
-129.5707269120516
 30
0.0
 10
81.99017485270082
 20
-129.5149174676212
 30
0.0
  0
SPLINE
  5
42
330
1F
100
AcDbEntity
  8
_U+30EC_U+30A4_U+30E4_U+30FC 1
 62
   179
420
  2234388
370
     9
100
AcDbSpline
210
0.0
220
0.0
230
1.0
 70
    11
 71
     3
 72
    17
 73
    13
 74
     0
 42
0.0000000001
 43
0.0000000001
 12
1.0
 22
0.0
 32
0.0
 13
1.0
 23
0.0
 33
0.0
 40
0.0
 40
0.0
 40
0.0
 40
0.0
 40
1.0
 40
1.0
 40
1.0
 40
2.0
 40
2.0
 40
2.0
 40
3.0
 40
3.0
 40
3.0
 40
4.0
 40
4.0
 40
4.0
 40
4.0
 10
82.98994704941673
 20
-129.5149174676212
 30
0.0
 10
82.98994704941673
 20
-129.4598135787463
 30
0.0
 10
82.94514427278196
 20
-129.4150108009795
 30
0.0
 10
82.89004038529889
 20
-129.4150108009795
 30
0.0
 10
82.83490122003894
 20
-129.4150108009795
 30
0.0
 10
82.79013372118105
 20
-129.4598135787463
 30
0.0
 10
82.79013372118105
 20
-129.5149174676212
 30
0.0
 10
82.79013372118105
 20
-129.5707269120516
 30
0.0
 10
82.83490122003894
 20
-129.6148241342628
 30
0.0
 10
82.89004038529889
 20
-129.6148241342628
 30
0.0
 10
82.94514427278196
 20
-129.6148241342628
 30
0.0
 10
82.98994704941673
 20
-129.5707269120516
 30
0.0
 10
82.98994704941673
 20
-129.5149174676212
 30
0.0
  0
SPLINE
  5
43
330
1F
100
AcDbEntity
  8
_U+30EC_U+30A4_U+30E4_U+30FC 1
 62
   179
420
  2234388
370
     9
100
AcDbSpline
210
0.0
220
0.0
230
1.0
 70
    11
 71
     3
 72
    17
 73
    13
 74
     0
 42
0.0000000001
 43
0.0000000001
 12
1.0
 22
0.0
 32
0.0
 13
1.0
 23
0.0
 33
0.0
 40
0.0
 40
0.0
 40
0.0
 40
0.0
 40
1.0
 40
1.0
 40
1.0
 40
2.0
 40
2.0
 40
2.0
 40
3.0
 40
3.0
 40
3.0
 40
4.0
 40
4.0
 40
4.0
 40
4.0
 10
81.99017485270082
 20
-121.0153366364129
 30
0.0
 10
81.99017485270082
 20
-120.9602327475377
 30
0.0
 10
81.94537207606605
 20
-120.9154299697713
 30
0.0
 10
81.88991541081421
 20
-120.9154299697713
 30
0.0
 10
81.83445874556236
 20
-120.9154299697713
 30
0.0
 10
81.78965596892759
 20
-120.9602327475377
 30
0.0
 10
81.78965596892759
 20
-121.0153366364129
 30
0.0
 10
81.78965596892759
 20
-121.0704758030656
 30
0.0
 10
81.83445874556236
 20
-121.1152433030545
 30
0.0
 10
81.88991541081421
 20
-121.1152433030545
 30
0.0
 10
81.94537207606605
 20
-121.1152433030545
 30
0.0
 10
81.99017485270082
 20
-121.0704758030656
 30
0.0
 10
81.99017485270082
 20
-121.0153366364129
 30
0.0
  0
SPLINE
  5
44
330
1F
100
AcDbEntity
  8
_U+30EC_U+30A4_U+30E4_U+30FC 1
 62
   179
420
  2234388
370
     9
100
AcDbSpline
210
0.0
220
0.0
230
1.0
 70
    11
 71
     3
 72
    17
 73
    13
 74
     0
 42
0.0000000001
 43
0.0000000001
 12
1.0
 22
0.0
 32
0.0
 13
1.0
 23
0.0
 33
0.0
 40
0.0
 40
0.0
 40
0.0
 40
0.0
 40
1.0
 40
1.0
 40
1.0
 40
2.0
 40
2.0
 40
2.0
 40
3.0
 40
3.0
 40
3.0
 40
4.0
 40
4.0
 40
4.0
 40
4.0
 10
89.98969298194945
 20
-121.0153366364129
 30
0.0
 10
89.98969298194945
 20
-120.9602327475377
 30
0.0
 10
89.94489020531468
 20
-120.9154299697713
 30
0.0
 10
89.88978631783161
 20
-120.9154299697713
 30
0.0
 10
89.83464715257166
 20
-120.9154299697713
 30
0.0
 10
89.78987965371377
 20
-120.9602327475377
 30
0.0
 10
89.78987965371377
 20
-121.0153366364129
 30
0.0
 10
89.78987965371377
 20
-121.0704758030656
 30
0.0
 10
89.83464715257166
 20
-121.1152433030545
 30
0.0
 10
89.88978631783161
 20
-121.1152433030545
 30
0.0
 10
89.94489020531468
 20
-121.1152433030545
 30
0.0
 10
89.98969298194945
 20
-121.0704758030656
 30
0.0
 10
89.98969298194945
 20
-121.0153366364129
 30
0.0
  0
SPLINE
  5
45
330
1F
100
AcDbEntity
  8
_U+30EC_U+30A4_U+30E4_U+30FC 1
 62
   179
420
  2234388
370
     9
100
AcDbSpline
210
0.0
220
0.0
230
1.0
 70
    11
 71
     3
 72
    17
 73
    13
 74
     0
 42
0.0000000001
 43
0.0000000001
 12
1.0
 22
0.0
 32
0.0
 13
1.0
 23
0.0
 33
0.0
 40
0.0
 40
0.0
 40
0.0
 40
0.0
 40
1.0
 40
1.0
 40
1.0
 40
2.0
 40
2.0
 40
2.0
 40
3.0
 40
3.0
 40
3.0
 40
4.0
 40
4.0
 40
4.0
 40
4.0
 10
103.9898551247755
 20
-126.0152208018294
 30
0.0
 10
103.9898551247755
 20
-125.9600816351767
 30
0.0
 10
103.9450876259177
 20
-125.9153141351878
 30
0.0
 10
103.8899484606577
 20
-125.9153141351878
 30
0.0
 10
103.8348471962632
 20
-125.9153141351878
 30
0.0
 10
103.7900444184971
 20
-125.9600816351767
 30
0.0
 10
103.7900444184971
 20
-126.0152208018294
 30
0.0
 10
103.7900444184971
 20
-126.0706774684824
 30
0.0
 10
103.8348471962632
 20
-126.1154802462488
 30
0.0
 10
103.8899484606577
 20
-126.1154802462488
 30
0.0
 10
103.9450876259177
 20
-126.1154802462488
 30
0.0
 10
103.9898551247755
 20
-126.0706774684824
 30
0.0
 10
103.9898551247755
 20
-126.0152208018294
 30
0.0
  0
SPLINE
  5
46
330
1F
100
AcDbEntity
  8
_U+30EC_U+30A4_U+30E4_U+30FC 1
 62
   179
420
  2234388
370
     9
100
AcDbSpline
210
0.0
220
0.0
230
1.0
 70
    11
 71
     3
 72
    17
 73
    13
 74
     0
 42
0.0000000001
 43
0.0000000001
 12
1.0
 22
0.0
 32
0.0
 13
1.0
 23
0.0
 33
0.0
 40
0.0
 40
0.0
 40
0.0
 40
0.0
 40
1.0
 40
1.0
 40
1.0
 40
2.0
 40
2.0
 40
2.0
 40
3.0
 40
3.0
 40
3.0
 40
4.0
 40
4.0
 40
4.0
 40
4.0
 10
103.9898551247755
 20
-132.5149044113155
 30
0.0
 10
103.9898551247755
 20
-132.4598005224406
 30
0.0
 10
103.9450876259177
 20
-132.4149977446739
 30
0.0
 10
103.8899484606577
 20
-132.4149977446739
 30
0.0
 10
103.8348471962632
 20
-132.4149977446739
 30
0.0
 10
103.7900444184971
 20
-132.4598005224406
 30
0.0
 10
103.7900444184971
 20
-132.5149044113155
 30
0.0
 10
103.7900444184971
 20
-132.570713855746
 30
0.0
 10
103.8348471962632
 20
-132.6155166335127
 30
0.0
 10
103.8899484606577
 20
-132.6155166335127
 30
0.0
 10
103.9450876259177
 20
-132.6155166335127
 30
0.0
 10
103.9898551247755
 20
-132.570713855746
 30
0.0
 10
103.9898551247755
 20
-132.5149044113155
 30
0.0
  0
SPLINE
  5
47
330
1F
100
AcDbEntity
  8
_U+30EC_U+30A4_U+30E4_U+30FC 1
 62
   179
420
  2234388
370
     9
100
AcDbSpline
210
0.0
220
0.0
230
1.0
 70
    11
 71
     3
 72
    17
 73
    13
 74
     0
 42
0.0000000001
 43
0.0000000001
 12
1.0
 22
0.0
 32
0.0
 13
1.0
 23
0.0
 33
0.0
 40
0.0
 40
0.0
 40
0.0
 40
0.0
 40
1.0
 40
1.0
 40
1.0
 40
2.0
 40
2.0
 40
2.0
 40
3.0
 40
3.0
 40
3.0
 40
4.0
 40
4.0
 40
4.0
 40
4.0
 10
103.9898551247755
 20
-132.815329966796
 30
0.0
 10
103.9898551247755
 20
-132.7601908001435
 30
0.0
 10
103.9450876259177
 20
-132.7154233001543
 30
0.0
 10
103.8899484606577
 20
-132.7154233001543
 30
0.0
 10
103.8348471962632
 20
-132.7154233001543
 30
0.0
 10
103.7900444184971
 20
-132.7601908001435
 30
0.0
 10
103.7900444184971
 20
-132.815329966796
 30
0.0
 10
103.7900444184971
 20
-132.8704338556715
 30
0.0
 10
103.8348471962632
 20
-132.9152366334376
 30
0.0
 10
103.8899484606577
 20
-132.9152366334376
 30
0.0
 10
103.9450876259177
 20
-132.9152366334376
 30
0.0
 10
103.9898551247755
 20
-132.8704338556715
 30
0.0
 10
103.9898551247755
 20
-132.815329966796
 30
0.0
  0
SPLINE
  5
48
330
1F
100
AcDbEntity
  8
_U+30EC_U+30A4_U+30E4_U+30FC 1
 62
   179
420
  2234388
370
     9
100
AcDbSpline
210
0.0
220
0.0
230
1.0
 70
    11
 71
     3
 72
    17
 73
    13
 74
     0
 42
0.0000000001
 43
0.0000000001
 12
1.0
 22
0.0
 32
0.0
 13
1.0
 23
0.0
 33
0.0
 40
0.0
 40
0.0
 40
0.0
 40
0.0
 40
1.0
 40
1.0
 40
1.0
 40
2.0
 40
2.0
 40
2.0
 40
3.0
 40
3.0
 40
3.0
 40
4.0
 40
4.0
 40
4.0
 40
4.0
 10
103.9898551247755
 20
-133.5153821888436
 30
0.0
 10
103.9898551247755
 20
-133.4602430221905
 30
0.0
 10
103.9450876259177
 20
-133.4154402444238
 30
0.0
 10
103.8899484606577
 20
-133.4154402444238
 30
0.0
 10
103.8348471962632
 20
-133.4154402444238
 30
0.0
 10
103.7900444184971
 20
-133.4602430221905
 30
0.0
 10
103.7900444184971
 20
-133.5153821888436
 30
0.0
 10
103.7900444184971
 20
-133.5704860777185
 30
0.0
 10
103.8348471962632
 20
-133.6152888554852
 30
0.0
 10
103.8899484606577
 20
-133.6152888554852
 30
0.0
 10
103.9450876259177
 20
-133.6152888554852
 30
0.0
 10
103.9898551247755
 20
-133.5704860777185
 30
0.0
 10
103.9898551247755
 20
-133.5153821888436
 30
0.0
  0
SPLINE
  5
49
330
1F
100
AcDbEntity
  8
_U+30EC_U+30A4_U+30E4_U+30FC 1
 62
   179
420
  2234388
370
     9
100
AcDbSpline
210
0.0
220
0.0
230
1.0
 70
    11
 71
     3
 72
    17
 73
    13
 74
     0
 42
0.0000000001
 43
0.0000000001
 12
1.0
 22
0.0
 32
0.0
 13
1.0
 23
0.0
 33
0.0
 40
0.0
 40
0.0
 40
0.0
 40
0.0
 40
1.0
 40
1.0
 40
1.0
 40
2.0
 40
2.0
 40
2.0
 40
3.0
 40
3.0
 40
3.0
 40
4.0
 40
4.0
 40
4.0
 40
4.0
 10
99.98974328238246
 20
-137.5151060767323
 30
0.0
 10
99.98974328238246
 20
-137.4600021878574
 30
0.0
 10
99.94532856129335
 20
-137.4151994100907
 30
0.0
 10
99.88983661826462
 20
-137.4151994100907
 30
0.0
 10
99.83473273078155
 20
-137.4151994100907
 30
0.0
 10
99.78992995414679
 20
-137.4600021878574
 30
0.0
 10
99.78992995414679
 20
-137.5151060767323
 30
0.0
 10
99.78992995414679
 20
-137.5702452433854
 30
0.0
 10
99.83473273078155
 20
-137.6150127433739
 30
0.0
 10
99.88983661826462
 20
-137.6150127433739
 30
0.0
 10
99.94532856129335
 20
-137.6150127433739
 30
0.0
 10
99.98974328238246
 20
-137.5702452433854
 30
0.0
 10
99.98974328238246
 20
-137.5151060767323
 30
0.0
  0
SPLINE
  5
4A
330
1F
100
AcDbEntity
  8
_U+30EC_U+30A4_U+30E4_U+30FC 1
 62
   179
420
  2234388
370
     9
100
AcDbSpline
210
0.0
220
0.0
230
1.0
 70
    11
 71
     3
 72
    17
 73
    13
 74
     0
 42
0.0000000001
 43
0.0000000001
 12
1.0
 22
0.0
 32
0.0
 13
1.0
 23
0.0
 33
0.0
 40
0.0
 40
0.0
 40
0.0
 40
0.0
 40
1.0
 40
1.0
 40
1.0
 40
2.0
 40
2.0
 40
2.0
 40
3.0
 40
3.0
 40
3.0
 40
4.0
 40
4.0
 40
4.0
 40
4.0
 10
81.99017485270082
 20
-137.5151060767323
 30
0.0
 10
81.99017485270082
 20
-137.4600021878574
 30
0.0
 10
81.94537207606605
 20
-137.4151994100907
 30
0.0
 10
81.88991541081421
 20
-137.4151994100907
 30
0.0
 10
81.83445874556236
 20
-137.4151994100907
 30
0.0
 10
81.78965596892759
 20
-137.4600021878574
 30
0.0
 10
81.78965596892759
 20
-137.5151060767323
 30
0.0
 10
81.78965596892759
 20
-137.5702452433854
 30
0.0
 10
81.83445874556236
 20
-137.6150127433739
 30
0.0
 10
81.88991541081421
 20
-137.6150127433739
 30
0.0
 10
81.94537207606605
 20
-137.6150127433739
 30
0.0
 10
81.99017485270082
 20
-137.5702452433854
 30
0.0
 10
81.99017485270082
 20
-137.5151060767323
 30
0.0
  0
SPLINE
  5
4B
330
1F
100
AcDbEntity
  8
_U+30EC_U+30A4_U+30E4_U+30FC 1
 62
   179
420
  2234388
370
     9
100
AcDbSpline
210
0.0
220
0.0
230
1.0
 70
    11
 71
     3
 72
    17
 73
    13
 74
     0
 42
0.0000000001
 43
0.0000000001
 12
1.0
 22
0.0
 32
0.0
 13
1.0
 23
0.0
 33
0.0
 40
0.0
 40
0.0
 40
0.0
 40
0.0
 40
1.0
 40
1.0
 40
1.0
 40
2.0
 40
2.0
 40
2.0
 40
3.0
 40
3.0
 40
3.0
 40
4.0
 40
4.0
 40
4.0
 40
4.0
 10
99.98974328238246
 20
-129.5149174676212
 30
0.0
 10
99.98974328238246
 20
-129.4598135787463
 30
0.0
 10
99.94532856129335
 20
-129.4150108009795
 30
0.0
 10
99.88983661826462
 20
-129.4150108009795
 30
0.0
 10
99.83473273078155
 20
-129.4150108009795
 30
0.0
 10
99.78992995414679
 20
-129.4598135787463
 30
0.0
 10
99.78992995414679
 20
-129.5149174676212
 30
0.0
 10
99.78992995414679
 20
-129.5707269120516
 30
0.0
 10
99.83473273078155
 20
-129.6148241342628
 30
0.0
 10
99.88983661826462
 20
-129.6148241342628
 30
0.0
 10
99.94532856129335
 20
-129.6148241342628
 30
0.0
 10
99.98974328238246
 20
-129.5707269120516
 30
0.0
 10
99.98974328238246
 20
-129.5149174676212
 30
0.0
  0
SPLINE
  5
4C
330
1F
100
AcDbEntity
  8
_U+30EC_U+30A4_U+30E4_U+30FC 1
 62
   179
420
  2234388
370
     9
100
AcDbSpline
210
0.0
220
0.0
230
1.0
 70
    11
 71
     3
 72
    17
 73
    13
 74
     0
 42
0.0000000001
 43
0.0000000001
 12
1.0
 22
0.0
 32
0.0
 13
1.0
 23
0.0
 33
0.0
 40
0.0
 40
0.0
 40
0.0
 40
0.0
 40
1.0
 40
1.0
 40
1.0
 40
2.0
 40
2.0
 40
2.0
 40
3.0
 40
3.0
 40
3.0
 40
4.0
 40
4.0
 40
4.0
 40
4.0
 10
92.99003262762662
 20
-129.5149174676212
 30
0.0
 10
92.99003262762662
 20
-129.4598135787463
 30
0.0
 10
92.94522985099186
 20
-129.4150108009795
 30
0.0
 10
92.88977318574001
 20
-129.4150108009795
 30
0.0
 10
92.83463402048007
 20
-129.4150108009795
 30
0.0
 10
92.78986652162217
 20
-129.4598135787463
 30
0.0
 10
92.78986652162217
 20
-129.5149174676212
 30
0.0
 10
92.78986652162217
 20
-129.5707269120516
 30
0.0
 10
92.83463402048007
 20
-129.6148241342628
 30
0.0
 10
92.88977318574001
 20
-129.6148241342628
 30
0.0
 10
92.94522985099186
 20
-129.6148241342628
 30
0.0
 10
92.99003262762662
 20
-129.5707269120516
 30
0.0
 10
92.99003262762662
 20
-129.5149174676212
 30
0.0
  0
POLYLINE
  5
4D
330
1F
100
AcDbEntity
  8
_U+30EC_U+30A4_U+30E4_U+30FC 1
 62
   179
420
  2234388
370
     9
100
AcDb2dPolyline
 66
     1
 10
0.0
 20
0.0
 30
0.0
  0
VERTEX
  5
4E
330
4D
100
AcDbEntity
  8
_U+30EC_U+30A4_U+30E4_U+30FC 1
 62
   179
420
  2234388
370
     9
100
AcDbVertex
100
AcDb2dVertex
 10
81.88991541081421
 20
-121.0153366364129
 30
0.0
  0
VERTEX
  5
4F
330
4D
100
AcDbEntity
  8
_U+30EC_U+30A4_U+30E4_U+30FC 1
 62
   179
420
  2234388
370
     9
100
AcDbVertex
100
AcDb2dVertex
 10
89.88978631783161
 20
-121.0153366364129
 30
0.0
  0
SEQEND
  5
50
330
4D
100
AcDbEntity
  8
_U+30EC_U+30A4_U+30E4_U+30FC 1
 62
   179
420
  2234388
370
     9
  0
POLYLINE
  5
51
330
1F
100
AcDbEntity
  8
_U+30EC_U+30A4_U+30E4_U+30FC 1
 62
   179
420
  2234388
370
     9
100
AcDb2dPolyline
 66
     1
 10
0.0
 20
0.0
 30
0.0
  0
VERTEX
  5
52
330
51
100
AcDbEntity
  8
_U+30EC_U+30A4_U+30E4_U+30FC 1
 62
   179
420
  2234388
370
     9
100
AcDbVertex
100
AcDb2dVertex
 10
81.88991541081421
 20
-122.4753780249366
 30
0.0
  0
VERTEX
  5
53
330
51
100
AcDbEntity
  8
_U+30EC_U+30A4_U+30E4_U+30FC 1
 62
   179
420
  2234388
370
     9
100
AcDbVertex
100
AcDb2dVertex
 10
81.88991541081421
 20
-120.0152469144408
 30
0.0
  0
SEQEND
  5
54
330
51
100
AcDbEntity
  8
_U+30EC_U+30A4_U+30E4_U+30FC 1
 62
   179
420
  2234388
370
     9
  0
POLYLINE
  5
55
330
1F
100
AcDbEntity
  8
_U+30EC_U+30A4_U+30E4_U+30FC 1
 62
   179
420
  2234388
370
     9
100
AcDb2dPolyline
 66
     1
 10
0.0
 20
0.0
 30
0.0
  0
VERTEX
  5
56
330
55
100
AcDbEntity
  8
_U+30EC_U+30A4_U+30E4_U+30FC 1
 62
   179
420
  2234388
370
     9
100
AcDbVertex
100
AcDb2dVertex
 10
89.88978631783161
 20
-122.4753780249366
 30
0.0
  0
VERTEX
  5
57
330
55
100
AcDbEntity
  8
_U+30EC_U+30A4_U+30E4_U+30FC 1
 62
   179
420
  2234388
370
     9
100
AcDbVertex
100
AcDb2dVertex
 10
89.88978631783161
 20
-120.0152469144408
 30
0.0
  0
SEQEND
  5
58
330
55
100
AcDbEntity
  8
_U+30EC_U+30A4_U+30E4_U+30FC 1
 62
   179
420
  2234388
370
     9
  0
INSERT
  5
5A
330
1F
100
AcDbEntity
  8
_U+30EC_U+30A4_U+30E4_U+30FC 1
100
AcDbBlockReference
  2
block 2
 10
0.0
 20
0.0
 30
0.0
  0
POLYLINE
  5
61
330
1F
100
AcDbEntity
  8
_U+30EC_U+30A4_U+30E4_U+30FC 1
 62
   179
420
  2234388
370
     9
100
AcDb2dPolyline
 66
     1
 10
0.0
 20
0.0
 30
0.0
  0
VERTEX
  5
62
330
61
100
AcDbEntity
  8
_U+30EC_U+30A4_U+30E4_U+30FC 1
 62
   179
420
  2234388
370
     9
100
AcDbVertex
100
AcDb2dVertex
 10
81.88991541081421
 20
-137.5151060767323
 30
0.0
  0
VERTEX
  5
63
330
61
100
AcDbEntity
  8
_U+30EC_U+30A4_U+30E4_U+30FC 1
 62
   179
420
  2234388
370
     9
100
AcDbVertex
100
AcDb2dVertex
 10
99.88983661826462
 20
-137.5151060767323
 30
0.0
  0
SEQEND
  5
64
330
61
100
AcDbEntity
  8
_U+30EC_U+30A4_U+30E4_U+30FC 1
 62
   179
420
  2234388
370
     9
  0
POLYLINE
  5
65
330
1F
100
AcDbEntity
  8
_U+30EC_U+30A4_U+30E4_U+30FC 1
 62
   179
420
  2234388
370
     9
100
AcDb2dPolyline
 66
     1
 10
0.0
 20
0.0
 30
0.0
  0
VERTEX
  5
66
330
65
100
AcDbEntity
  8
_U+30EC_U+30A4_U+30E4_U+30FC 1
 62
   179
420
  2234388
370
     9
100
AcDbVertex
100
AcDb2dVertex
 10
81.88991541081421
 20
-136.0550999659861
 30
0.0
  0
VERTEX
  5
67
330
65
100
AcDbEntity
  8
_U+30EC_U+30A4_U+30E4_U+30FC 1
 62
   179
420
  2234388
370
     9
100
AcDbVertex
100
AcDb2dVertex
 10
81.88991541081421
 20
-138.5155838542597
 30
0.0
  0
SEQEND
  5
68
330
65
100
AcDbEntity
  8
_U+30EC_U+30A4_U+30E4_U+30FC 1
 62
   179
420
  2234388
370
     9
  0
POLYLINE
  5
69
330
1F
100
AcDbEntity
  8
_U+30EC_U+30A4_U+30E4_U+30FC 1
 62
   179
420
  2234388
370
     9
100
AcDb2dPolyline
 66
     1
 10
0.0
 20
0.0
 30
0.0
  0
VERTEX
  5
6A
330
69
100
AcDbEntity
  8
_U+30EC_U+30A4_U+30E4_U+30FC 1
 62
   179
420
  2234388
370
     9
100
AcDbVertex
100
AcDb2dVertex
 10
99.88983661826462
 20
-136.0550999659861
 30
0.0
  0
VERTEX
  5
6B
330
69
100
AcDbEntity
  8
_U+30EC_U+30A4_U+30E4_U+30FC 1
 62
   179
420
  2234388
370
     9
100
AcDbVertex
100
AcDb2dVertex
 10
99.88983661826462
 20
-138.5155838542597
 30
0.0
  0
SEQEND
  5
6C
330
69
100
AcDbEntity
  8
_U+30EC_U+30A4_U+30E4_U+30FC 1
 62
   179
420
  2234388
370
     9
  0
INSERT
  5
6E
330
1F
100
AcDbEntity
  8
_U+30EC_U+30A4_U+30E4_U+30FC 1
100
AcDbBlockReference
  2
block 3
 10
0.0
 20
0.0
 30
0.0
  0
POLYLINE
  5
77
330
1F
100
AcDbEntity
  8
_U+30EC_U+30A4_U+30E4_U+30FC 1
 62
   179
420
  2234388
370
     9
100
AcDb2dPolyline
 66
     1
 10
0.0
 20
0.0
 30
0.0
  0
VERTEX
  5
78
330
77
100
AcDbEntity
  8
_U+30EC_U+30A4_U+30E4_U+30FC 1
 62
   179
420
  2234388
370
     9
100
AcDbVertex
100
AcDb2dVertex
 10
103.8899484606577
 20
-133.5153821888436
 30
0.0
  0
VERTEX
  5
79
330
77
100
AcDbEntity
  8
_U+30EC_U+30A4_U+30E4_U+30FC 1
 62
   179
420
  2234388
370
     9
100
AcDbVertex
100
AcDb2dVertex
 10
103.8899484606577
 20
-138.7732527430843
 30
0.0
  0
SEQEND
  5
7A
330
77
100
AcDbEntity
  8
_U+30EC_U+30A4_U+30E4_U+30FC 1
 62
   179
420
  2234388
370
     9
  0
POLYLINE
  5
7B
330
1F
100
AcDbEntity
  8
_U+30EC_U+30A4_U+30E4_U+30FC 1
 62
   179
420
  2234388
370
     9
100
AcDb2dPolyline
 66
     1
 10
0.0
 20
0.0
 30
0.0
  0
VERTEX
  5
7C
330
7B
100
AcDbEntity
  8
_U+30EC_U+30A4_U+30E4_U+30FC 1
 62
   179
420
  2234388
370
     9
100
AcDbVertex
100
AcDb2dVertex
 10
103.8899484606577
 20
-133.5153821888436
 30
0.0
  0
VERTEX
  5
7D
330
7B
100
AcDbEntity
  8
_U+30EC_U+30A4_U+30E4_U+30FC 1
 62
   179
420
  2234388
370
     9
100
AcDbVertex
100
AcDb2dVertex
 10
103.8899484606577
 20
-132.815329966796
 30
0.0
  0
SEQEND
  5
7E
330
7B
100
AcDbEntity
  8
_U+30EC_U+30A4_U+30E4_U+30FC 1
 62
   179
420
  2234388
370
     9
  0
POLYLINE
  5
7F
330
1F
100
AcDbEntity
  8
_U+30EC_U+30A4_U+30E4_U+30FC 1
 62
   179
420
  2234388
370
     9
100
AcDb2dPolyline
 66
     1
 10
0.0
 20
0.0
 30
0.0
  0
VERTEX
  5
80
330
7F
100
AcDbEntity
  8
_U+30EC_U+30A4_U+30E4_U+30FC 1
 62
   179
420
  2234388
370
     9
100
AcDbVertex
100
AcDb2dVertex
 10
102.4299071090176
 20
-133.5153821888436
 30
0.0
  0
VERTEX
  5
81
330
7F
100
AcDbEntity
  8
_U+30EC_U+30A4_U+30E4_U+30FC 1
 62
   179
420
  2234388
370
     9
100
AcDbVertex
100
AcDb2dVertex
 10
104.8900734351424
 20
-133.5153821888436
 30
0.0
  0
SEQEND
  5
82
330
7F
100
AcDbEntity
  8
_U+30EC_U+30A4_U+30E4_U+30FC 1
 62
   179
420
  2234388
370
     9
  0
POLYLINE
  5
83
330
1F
100
AcDbEntity
  8
_U+30EC_U+30A4_U+30E4_U+30FC 1
 62
   179
420
  2234388
370
     9
100
AcDb2dPolyline
 66
     1
 10
0.0
 20
0.0
 30
0.0
  0
VERTEX
  5
84
330
83
100
AcDbEntity
  8
_U+30EC_U+30A4_U+30E4_U+30FC 1
 62
   179
420
  2234388
370
     9
100
AcDbVertex
100
AcDb2dVertex
 10
102.1749898932988
 20
-132.815329966796
 30
0.0
  0
VERTEX
  5
85
330
83
100
AcDbEntity
  8
_U+30EC_U+30A4_U+30E4_U+30FC 1
 62
   179
420
  2234388
370
     9
100
AcDbVertex
100
AcDb2dVertex
 10
104.8900734351424
 20
-132.815329966796
 30
0.0
  0
SEQEND
  5
86
330
83
100
AcDbEntity
  8
_U+30EC_U+30A4_U+30E4_U+30FC 1
 62
   179
420
  2234388
370
     9
  0
INSERT
  5
88
330
1F
100
AcDbEntity
  8
_U+30EC_U+30A4_U+30E4_U+30FC 1
100
AcDbBlockReference
  2
block 4
 10
0.0
 20
0.0
 30
0.0
  0
POLYLINE
  5
98
330
1F
100
AcDbEntity
  8
_U+30EC_U+30A4_U+30E4_U+30FC 1
 62
   179
420
  2234388
370
     9
100
AcDb2dPolyline
 66
     1
 10
0.0
 20
0.0
 30
0.0
  0
VERTEX
  5
99
330
98
100
AcDbEntity
  8
_U+30EC_U+30A4_U+30E4_U+30FC 1
 62
   179
420
  2234388
370
     9
100
AcDbVertex
100
AcDb2dVertex
 10
81.88991541081421
 20
-129.5149174676212
 30
0.0
  0
VERTEX
  5
9A
330
98
100
AcDbEntity
  8
_U+30EC_U+30A4_U+30E4_U+30FC 1
 62
   179
420
  2234388
370
     9
100
AcDbVertex
100
AcDb2dVertex
 10
78.1196030070029
 20
-129.5149174676212
 30
0.0
  0
SEQEND
  5
9B
330
98
100
AcDbEntity
  8
_U+30EC_U+30A4_U+30E4_U+30FC 1
 62
   179
420
  2234388
370
     9
  0
POLYLINE
  5
9C
330
1F
100
AcDbEntity
  8
_U+30EC_U+30A4_U+30E4_U+30FC 1
 62
   179
420
  2234388
370
     9
100
AcDb2dPolyline
 66
     1
 10
0.0
 20
0.0
 30
0.0
  0
VERTEX
  5
9D
330
9C
100
AcDbEntity
  8
_U+30EC_U+30A4_U+30E4_U+30FC 1
 62
   179
420
  2234388
370
     9
100
AcDbVertex
100
AcDb2dVertex
 10
81.88991541081421
 20
-129.5149174676212
 30
0.0
  0
VERTEX
  5
9E
330
9C
100
AcDbEntity
  8
_U+30EC_U+30A4_U+30E4_U+30FC 1
 62
   179
420
  2234388
370
     9
100
AcDbVertex
100
AcDb2dVertex
 10
83.8898125820148
 20
-129.5149174676212
 30
0.0
  0
SEQEND
  5
9F
330
9C
100
AcDbEntity
  8
_U+30EC_U+30A4_U+30E4_U+30FC 1
 62
   179
420
  2234388
370
     9
  0
INSERT
  5
A1
330
1F
100
AcDbEntity
  8
_U+30EC_U+30A4_U+30E4_U+30FC 1
100
AcDbBlockReference
  2
block 5
 10
0.0
 20
0.0
 30
0.0
  0
POLYLINE
  5
A6
330
1F
100
AcDbEntity
  8
_U+30EC_U+30A4_U+30E4_U+30FC 1
 62
   179
420
  2234388
370
     9
100
AcDb2dPolyline
 66
     1
 10
0.0
 20
0.0
 30
0.0
  0
VERTEX
  5
A7
330
A6
100
AcDbEntity
  8
_U+30EC_U+30A4_U+30E4_U+30FC 1
 62
   179
420
  2234388
370
     9
100
AcDbVertex
100
AcDb2dVertex
 10
103.8899484606577
 20
-126.0152208018294
 30
0.0
  0
VERTEX
  5
A8
330
A6
100
AcDbEntity
  8
_U+30EC_U+30A4_U+30E4_U+30FC 1
 62
   179
420
  2234388
370
     9
100
AcDbVertex
100
AcDb2dVertex
 10
103.8899484606577
 20
-132.5149044113155
 30
0.0
  0
SEQEND
  5
A9
330
A6
100
AcDbEntity
  8
_U+30EC_U+30A4_U+30E4_U+30FC 1
 62
   179
420
  2234388
370
     9
  0
POLYLINE
  5
AA
330
1F
100
AcDbEntity
  8
_U+30EC_U+30A4_U+30E4_U+30FC 1
 62
   179
420
  2234388
370
     9
100
AcDb2dPolyline
 66
     1
 10
0.0
 20
0.0
 30
0.0
  0
VERTEX
  5
AB
330
AA
100
AcDbEntity
  8
_U+30EC_U+30A4_U+30E4_U+30FC 1
 62
   179
420
  2234388
370
     9
100
AcDbVertex
100
AcDb2dVertex
 10
92.79399402151688
 20
-126.0152208018294
 30
0.0
  0
VERTEX
  5
AC
330
AA
100
AcDbEntity
  8
_U+30EC_U+30A4_U+30E4_U+30FC 1
 62
   179
420
  2234388
370
     9
100
AcDbVertex
100
AcDb2dVertex
 10
104.8900734351424
 20
-126.0152208018294
 30
0.0
  0
SEQEND
  5
AD
330
AA
100
AcDbEntity
  8
_U+30EC_U+30A4_U+30E4_U+30FC 1
 62
   179
420
  2234388
370
     9
  0
POLYLINE
  5
AE
330
1F
100
AcDbEntity
  8
_U+30EC_U+30A4_U+30E4_U+30FC 1
 62
   179
420
  2234388
370
     9
100
AcDb2dPolyline
 66
     1
 10
0.0
 20
0.0
 30
0.0
  0
VERTEX
  5
AF
330
AE
100
AcDbEntity
  8
_U+30EC_U+30A4_U+30E4_U+30FC 1
 62
   179
420
  2234388
370
     9
100
AcDbVertex
100
AcDb2dVertex
 10
95.42984367649296
 20
-132.5149044113155
 30
0.0
  0
VERTEX
  5
B0
330
AE
100
AcDbEntity
  8
_U+30EC_U+30A4_U+30E4_U+30FC 1
 62
   179
420
  2234388
370
     9
100
AcDbVertex
100
AcDb2dVertex
 10
104.8900734351424
 20
-132.5149044113155
 30
0.0
  0
SEQEND
  5
B1
330
AE
100
AcDbEntity
  8
_U+30EC_U+30A4_U+30E4_U+30FC 1
 62
   179
420
  2234388
370
     9
  0
INSERT
  5
B3
330
1F
100
AcDbEntity
  8
_U+30EC_U+30A4_U+30E4_U+30FC 1
100
AcDbBlockReference
  2
block 6
 10
0.0
 20
0.0
 30
0.0
  0
POLYLINE
  5
C3
330
1F
100
AcDbEntity
  8
_U+30EC_U+30A4_U+30E4_U+30FC 1
 62
   179
420
  2234388
370
     9
100
AcDb2dPolyline
 66
     1
 10
0.0
 20
0.0
 30
0.0
  0
VERTEX
  5
C4
330
C3
100
AcDbEntity
  8
_U+30EC_U+30A4_U+30E4_U+30FC 1
 62
   179
420
  2234388
370
     9
100
AcDbVertex
100
AcDb2dVertex
 10
92.88977318574001
 20
-129.5149174676212
 30
0.0
  0
VERTEX
  5
C5
330
C3
100
AcDbEntity
  8
_U+30EC_U+30A4_U+30E4_U+30FC 1
 62
   179
420
  2234388
370
     9
100
AcDbVertex
100
AcDb2dVertex
 10
99.88983661826462
 20
-129.5149174676212
 30
0.0
  0
SEQEND
  5
C6
330
C3
100
AcDbEntity
  8
_U+30EC_U+30A4_U+30E4_U+30FC 1
 62
   179
420
  2234388
370
     9
  0
POLYLINE
  5
C7
330
1F
100
AcDbEntity
  8
_U+30EC_U+30A4_U+30E4_U+30FC 1
 62
   179
420
  2234388
370
     9
100
AcDb2dPolyline
 66
     1
 10
0.0
 20
0.0
 30
0.0
  0
VERTEX
  5
C8
330
C7
100
AcDbEntity
  8
_U+30EC_U+30A4_U+30E4_U+30FC 1
 62
   179
420
  2234388
370
     9
100
AcDbVertex
100
AcDb2dVertex
 10
92.88977318574001
 20
-129.975186634173
 30
0.0
  0
VERTEX
  5
C9
330
C7
100
AcDbEntity
  8
_U+30EC_U+30A4_U+30E4_U+30FC 1
 62
   179
420
  2234388
370
     9
100
AcDbVertex
100
AcDb2dVertex
 10
92.88977318574001
 20
-128.5153216345378
 30
0.0
  0
SEQEND
  5
CA
330
C7
100
AcDbEntity
  8
_U+30EC_U+30A4_U+30E4_U+30FC 1
 62
   179
420
  2234388
370
     9
  0
POLYLINE
  5
CB
330
1F
100
AcDbEntity
  8
_U+30EC_U+30A4_U+30E4_U+30FC 1
 62
   179
420
  2234388
370
     9
100
AcDb2dPolyline
 66
     1
 10
0.0
 20
0.0
 30
0.0
  0
VERTEX
  5
CC
330
CB
100
AcDbEntity
  8
_U+30EC_U+30A4_U+30E4_U+30FC 1
 62
   179
420
  2234388
370
     9
100
AcDbVertex
100
AcDb2dVertex
 10
99.88983661826462
 20
-130.9749588561449
 30
0.0
  0
VERTEX
  5
CD
330
CB
100
AcDbEntity
  8
_U+30EC_U+30A4_U+30E4_U+30FC 1
 62
   179
420
  2234388
370
     9
100
AcDbVertex
100
AcDb2dVertex
 10
99.88983661826462
 20
-128.5153216345378
 30
0.0
  0
SEQEND
  5
CE
330
CB
100
AcDbEntity
  8
_U+30EC_U+30A4_U+30E4_U+30FC 1
 62
   179
420
  2234388
370
     9
  0
INSERT
  5
D0
330
1F
100
AcDbEntity
  8
_U+30EC_U+30A4_U+30E4_U+30FC 1
100
AcDbBlockReference
  2
block 7
 10
0.0
 20
0.0
 30
0.0
  0
SPLINE
  5
D5
330
1F
100
AcDbEntity
  8
_U+30EC_U+30A4_U+30E4_U+30FC 1
 62
   254
420
 16050385
370
     9
100
AcDbSpline
210
0.0
220
0.0
230
1.0
 70
    11
 71
     3
 72
    44
 73
    40
 74
     0
 42
0.0000000001
 43
0.0000000001
 12
1.0
 22
0.0
 32
0.0
 13
1.0
 23
0.0
 33
0.0
 40
0.0
 40
0.0
 40
0.0
 40
0.0
 40
1.0
 40
1.0
 40
1.0
 40
2.0
 40
2.0
 40
2.0
 40
3.0
 40
3.0
 40
3.0
 40
4.0
 40
4.0
 40
4.0
 40
5.0
 40
5.0
 40
5.0
 40
6.0
 40
6.0
 40
6.0
 40
7.0
 40
7.0
 40
7.0
 40
8.0
 40
8.0
 40
8.0
 40
9.0
 40
9.0
 40
9.0
 40
10.0
 40
10.0
 40
10.0
 40
11.0
 40
11.0
 40
11.0
 40
12.0
 40
12.0
 40
12.0
 40
13.0
 40
13.0
 40
13.0
 40
13.0
 10
89.43293910726453
 20
-125.147387468713
 30
0.0
 10
89.43293910726453
 20
-125.147387468713
 30
0.0
 10
89.7008055331305
 20
-125.8829291351959
 30
0.0
 10
89.7008055331305
 20
-125.8829291351959
 30
0.0
 10
89.7008055331305
 20
-125.8829291351959
 30
0.0
 10
82.89004038529889
 20
-125.8829291351959
 30
0.0
 10
82.89004038529889
 20
-125.8829291351959
 30
0.0
 10
82.81698010938504
 20
-125.8829291351959
 30
0.0
 10
82.75774872200726
 20
-125.9421958018479
 30
0.0
 10
82.75774872200726
 20
-126.0152208018294
 30
0.0
 10
82.75774872200726
 20
-126.0152208018294
 30
0.0
 10
82.75774872200726
 20
-132.5149044113155
 30
0.0
 10
82.75774872200726
 20
-132.5149044113155
 30
0.0
 10
82.75774872200726
 20
-132.5879294112974
 30
0.0
 10
82.81698010938504
 20
-132.6471960779491
 30
0.0
 10
82.89004038529889
 20
-132.6471960779491
 30
0.0
 10
82.89004038529889
 20
-132.6471960779491
 30
0.0
 10
92.83498679824883
 20
-132.6471960779491
 30
0.0
 10
92.83498679824883
 20
-132.6471960779491
 30
0.0
 10
92.83498679824883
 20
-132.6471960779491
 30
0.0
 10
93.09611290269807
 20
-132.9086749667728
 30
0.0
 10
93.09611290269807
 20
-132.9086749667728
 30
0.0
 10
93.12024290208247
 20
-132.932452188989
 30
0.0
 10
93.15329817901693
 20
-132.9476216334295
 30
0.0
 10
93.1898459558623
 20
-132.9476216334295
 30
0.0
 10
93.1898459558623
 20
-132.9476216334295
 30
0.0
 10
99.54259997511424
 20
-132.9476216334295
 30
0.0
 10
99.54259997511424
 20
-132.9476216334295
 30
0.0
 10
99.54259997511424
 20
-132.9476216334295
 30
0.0
 10
99.7010652341917
 20
-133.38309052221
 30
0.0
 10
99.7010652341917
 20
-133.38309052221
 30
0.0
 10
99.7010652341917
 20
-133.38309052221
 30
0.0
 10
82.02220707410584
 20
-133.38309052221
 30
0.0
 10
82.02220707410584
 20
-133.38309052221
 30
0.0
 10
82.02220707410584
 20
-133.38309052221
 30
0.0
 10
82.02220707410584
 20
-125.147387468713
 30
0.0
 10
82.02220707410584
 20
-125.147387468713
 30
0.0
 10
82.02220707410584
 20
-125.147387468713
 30
0.0
 10
89.43293910726453
 20
-125.147387468713
 30
0.0
 10
89.43293910726453
 20
-125.147387468713
 30
0.0
  0
HATCH
  5
D6
330
1F
100
AcDbEntity
  8
_U+30EC_U+30A4_U+30E4_U+30FC 1
 62
   254
420
 16050385
100
AcDbHatch
 10
0.0
 20
0.0
 30
0.0
210
0.0
220
0.0
230
1.0
  2
SOLID
 70
     1
 71
     0
 91
        1
 92
        1
 93
        1
 72
     4
 94
        3
 73
     0
 74
     1
 95
       44
 96
       40
 40
0.0
 40
0.0
 40
0.0
 40
0.0
 40
1.0
 40
1.0
 40
1.0
 40
2.0
 40
2.0
 40
2.0
 40
3.0
 40
3.0
 40
3.0
 40
4.0
 40
4.0
 40
4.0
 40
5.0
 40
5.0
 40
5.0
 40
6.0
 40
6.0
 40
6.0
 40
7.0
 40
7.0
 40
7.0
 40
8.0
 40
8.0
 40
8.0
 40
9.0
 40
9.0
 40
9.0
 40
10.0
 40
10.0
 40
10.0
 40
11.0
 40
11.0
 40
11.0
 40
12.0
 40
12.0
 40
12.0
 40
13.0
 40
13.0
 40
13.0
 40
13.0
 10
89.43293910726453
 20
-125.147387468713
 10
89.43293910726453
 20
-125.147387468713
 10
89.7008055331305
 20
-125.8829291351959
 10
89.7008055331305
 20
-125.8829291351959
 10
89.7008055331305
 20
-125.8829291351959
 10
82.89004038529889
 20
-125.8829291351959
 10
82.89004038529889
 20
-125.8829291351959
 10
82.81698010938504
 20
-125.8829291351959
 10
82.75774872200726
 20
-125.9421958018479
 10
82.75774872200726
 20
-126.0152208018294
 10
82.75774872200726
 20
-126.0152208018294
 10
82.75774872200726
 20
-132.5149044113155
 10
82.75774872200726
 20
-132.5149044113155
 10
82.75774872200726
 20
-132.5879294112974
 10
82.81698010938504
 20
-132.6471960779491
 10
82.89004038529889
 20
-132.6471960779491
 10
82.89004038529889
 20
-132.6471960779491
 10
92.83498679824883
 20
-132.6471960779491
 10
92.83498679824883
 20
-132.6471960779491
 10
92.83498679824883
 20
-132.6471960779491
 10
93.09611290269807
 20
-132.9086749667728
 10
93.09611290269807
 20
-132.9086749667728
 10
93.12024290208247
 20
-132.932452188989
 10
93.15329817901693
 20
-132.9476216334295
 10
93.1898459558623
 20
-132.9476216334295
 10
93.1898459558623
 20
-132.9476216334295
 10
99.54259997511424
 20
-132.9476216334295
 10
99.54259997511424
 20
-132.9476216334295
 10
99.54259997511424
 20
-132.9476216334295
 10
99.7010652341917
 20
-133.38309052221
 10
99.7010652341917
 20
-133.38309052221
 10
99.7010652341917
 20
-133.38309052221
 10
82.02220707410584
 20
-133.38309052221
 10
82.02220707410584
 20
-133.38309052221
 10
82.02220707410584
 20
-133.38309052221
 10
82.02220707410584
 20
-125.147387468713
 10
82.02220707410584
 20
-125.147387468713
 10
82.02220707410584
 20
-125.147387468713
 10
89.43293910726453
 20
-125.147387468713
 10
89.43293910726453
 20
-125.147387468713
 97
        0
 97
        0
 75
     2
 76
     1
 98
        0
  0
POLYLINE
  5
D7
330
1F
100
AcDbEntity
  8
_U+30EC_U+30A4_U+30E4_U+30FC 1
 62
   179
420
  2234388
370
    25
100
AcDb2dPolyline
 66
     1
 10
0.0
 20
0.0
 30
0.0
  0
VERTEX
  5
D8
330
D7
100
AcDbEntity
  8
_U+30EC_U+30A4_U+30E4_U+30FC 1
 62
   179
420
  2234388
370
    25
100
AcDbVertex
100
AcDb2dVertex
 10
81.88991541081421
 20
-125.0150958020795
 30
0.0
  0
VERTEX
  5
D9
330
D7
100
AcDbEntity
  8
_U+30EC_U+30A4_U+30E4_U+30FC 1
 62
   179
420
  2234388
370
    25
100
AcDbVertex
100
AcDb2dVertex
 10
81.88991541081421
 20
-133.5153821888436
 30
0.0
  0
SEQEND
  5
DA
330
D7
100
AcDbEntity
  8
_U+30EC_U+30A4_U+30E4_U+30FC 1
 62
   179
420
  2234388
370
    25
  0
POLYLINE
  5
DB
330
1F
100
AcDbEntity
  8
_U+30EC_U+30A4_U+30E4_U+30FC 1
 62
   179
420
  2234388
370
    25
100
AcDb2dPolyline
 66
     1
 10
0.0
 20
0.0
 30
0.0
  0
VERTEX
  5
DC
330
DB
100
AcDbEntity
  8
_U+30EC_U+30A4_U+30E4_U+30FC 1
 62
   179
420
  2234388
370
    25
100
AcDbVertex
100
AcDb2dVertex
 10
82.89004038529889
 20
-132.5149044113155
 30
0.0
  0
VERTEX
  5
DD
330
DB
100
AcDbEntity
  8
_U+30EC_U+30A4_U+30E4_U+30FC 1
 62
   179
420
  2234388
370
    25
100
AcDbVertex
100
AcDb2dVertex
 10
92.88977318574001
 20
-132.5149044113155
 30
0.0
  0
SEQEND
  5
DE
330
DB
100
AcDbEntity
  8
_U+30EC_U+30A4_U+30E4_U+30FC 1
 62
   179
420
  2234388
370
    25
  0
POLYLINE
  5
DF
330
1F
100
AcDbEntity
  8
_U+30EC_U+30A4_U+30E4_U+30FC 1
 62
   179
420
  2234388
370
    25
100
AcDb2dPolyline
 66
     1
 10
0.0
 20
0.0
 30
0.0
  0
VERTEX
  5
E0
330
DF
100
AcDbEntity
  8
_U+30EC_U+30A4_U+30E4_U+30FC 1
 62
   179
420
  2234388
370
    25
100
AcDbVertex
100
AcDb2dVertex
 10
82.89004038529889
 20
-126.0152208018294
 30
0.0
  0
VERTEX
  5
E1
330
DF
100
AcDbEntity
  8
_U+30EC_U+30A4_U+30E4_U+30FC 1
 62
   179
420
  2234388
370
    25
100
AcDbVertex
100
AcDb2dVertex
 10
89.88978631783161
 20
-126.0152208018294
 30
0.0
  0
SEQEND
  5
E2
330
DF
100
AcDbEntity
  8
_U+30EC_U+30A4_U+30E4_U+30FC 1
 62
   179
420
  2234388
370
    25
  0
POLYLINE
  5
E3
330
1F
100
AcDbEntity
  8
_U+30EC_U+30A4_U+30E4_U+30FC 1
 62
   179
420
  2234388
370
    25
100
AcDb2dPolyline
 66
     1
 10
0.0
 20
0.0
 30
0.0
  0
VERTEX
  5
E4
330
E3
100
AcDbEntity
  8
_U+30EC_U+30A4_U+30E4_U+30FC 1
 62
   179
420
  2234388
370
    25
100
AcDbVertex
100
AcDb2dVertex
 10
81.88991541081421
 20
-125.0150958020795
 30
0.0
  0
VERTEX
  5
E5
330
E3
100
AcDbEntity
  8
_U+30EC_U+30A4_U+30E4_U+30FC 1
 62
   179
420
  2234388
370
    25
100
AcDbVertex
100
AcDb2dVertex
 10
89.52561382712243
 20
-125.0150958020795
 30
0.0
  0
SEQEND
  5
E6
330
E3
100
AcDbEntity
  8
_U+30EC_U+30A4_U+30E4_U+30FC 1
 62
   179
420
  2234388
370
    25
  0
POLYLINE
  5
E7
330
1F
100
AcDbEntity
  8
_U+30EC_U+30A4_U+30E4_U+30FC 1
 62
   179
420
  2234388
370
    25
100
AcDb2dPolyline
 66
     1
 10
0.0
 20
0.0
 30
0.0
  0
VERTEX
  5
E8
330
E7
100
AcDbEntity
  8
_U+30EC_U+30A4_U+30E4_U+30FC 1
 62
   179
420
  2234388
370
    25
100
AcDbVertex
100
AcDb2dVertex
 10
81.88991541081421
 20
-133.5153821888436
 30
0.0
  0
VERTEX
  5
E9
330
E7
100
AcDbEntity
  8
_U+30EC_U+30A4_U+30E4_U+30FC 1
 62
   179
420
  2234388
370
    25
100
AcDbVertex
100
AcDb2dVertex
 10
99.88983661826462
 20
-133.5153821888436
 30
0.0
  0
SEQEND
  5
EA
330
E7
100
AcDbEntity
  8
_U+30EC_U+30A4_U+30E4_U+30FC 1
 62
   179
420
  2234388
370
    25
  0
POLYLINE
  5
EB
330
1F
100
AcDbEntity
  8
_U+30EC_U+30A4_U+30E4_U+30FC 1
 62
   179
420
  2234388
370
    25
100
AcDb2dPolyline
 66
     1
 10
0.0
 20
0.0
 30
0.0
  0
VERTEX
  5
EC
330
EB
100
AcDbEntity
  8
_U+30EC_U+30A4_U+30E4_U+30FC 1
 62
   179
420
  2234388
370
    25
100
AcDbVertex
100
AcDb2dVertex
 10
82.89004038529889
 20
-126.0152208018294
 30
0.0
  0
VERTEX
  5
ED
330
EB
100
AcDbEntity
  8
_U+30EC_U+30A4_U+30E4_U+30FC 1
 62
   179
420
  2234388
370
    25
100
AcDbVertex
100
AcDb2dVertex
 10
82.89004038529889
 20
-132.5149044113155
 30
0.0
  0
SEQEND
  5
EE
330
EB
100
AcDbEntity
  8
_U+30EC_U+30A4_U+30E4_U+30FC 1
 62
   179
420
  2234388
370
    25
  0
POLYLINE
  5
EF
330
1F
100
AcDbEntity
  8
_U+30EC_U+30A4_U+30E4_U+30FC 1
 62
   179
420
  2234388
370
    25
100
AcDb2dPolyline
 66
     1
 10
0.0
 20
0.0
 30
0.0
  0
VERTEX
  5
F0
330
EF
100
AcDbEntity
  8
_U+30EC_U+30A4_U+30E4_U+30FC 1
 62
   179
420
  2234388
370
    25
100
AcDbVertex
100
AcDb2dVertex
 10
93.1898459558623
 20
-132.815329966796
 30
0.0
  0
VERTEX
  5
F1
330
EF
100
AcDbEntity
  8
_U+30EC_U+30A4_U+30E4_U+30FC 1
 62
   179
420
  2234388
370
    25
100
AcDbVertex
100
AcDb2dVertex
 10
99.63527218031466
 20
-132.815329966796
 30
0.0
  0
SEQEND
  5
F2
330
EF
100
AcDbEntity
  8
_U+30EC_U+30A4_U+30E4_U+30FC 1
 62
   179
420
  2234388
370
    25
  0
POLYLINE
  5
F3
330
1F
100
AcDbEntity
  8
_U+30EC_U+30A4_U+30E4_U+30FC 1
 62
   179
420
  2234388
370
    25
100
AcDb2dPolyline
 66
     1
 10
0.0
 20
0.0
 30
0.0
  0
VERTEX
  5
F4
330
F3
100
AcDbEntity
  8
_U+30EC_U+30A4_U+30E4_U+30FC 1
 62
   179
420
  2234388
370
    25
100
AcDbVertex
100
AcDb2dVertex
 10
89.52561382712243
 20
-125.0150958020795
 30
0.0
  0
VERTEX
  5
F5
330
F3
100
AcDbEntity
  8
_U+30EC_U+30A4_U+30E4_U+30FC 1
 62
   179
420
  2234388
370
    25
100
AcDbVertex
100
AcDb2dVertex
 10
89.88978631783161
 20
-126.0152208018294
 30
0.0
  0
SEQEND
  5
F6
330
F3
100
AcDbEntity
  8
_U+30EC_U+30A4_U+30E4_U+30FC 1
 62
   179
420
  2234388
370
    25
  0
POLYLINE
  5
F7
330
1F
100
AcDbEntity
  8
_U+30EC_U+30A4_U+30E4_U+30FC 1
 62
   179
420
  2234388
370
    25
100
AcDb2dPolyline
 66
     1
 10
0.0
 20
0.0
 30
0.0
  0
VERTEX
  5
F8
330
F7
100
AcDbEntity
  8
_U+30EC_U+30A4_U+30E4_U+30FC 1
 62
   179
420
  2234388
370
    25
100
AcDbVertex
100
AcDb2dVertex
 10
99.63527218031466
 20
-132.815329966796
 30
0.0
  0
VERTEX
  5
F9
330
F7
100
AcDbEntity
  8
_U+30EC_U+30A4_U+30E4_U+30FC 1
 62
   179
420
  2234388
370
    25
100
AcDbVertex
100
AcDb2dVertex
 10
99.88983661826462
 20
-133.5153821888436
 30
0.0
  0
SEQEND
  5
FA
330
F7
100
AcDbEntity
  8
_U+30EC_U+30A4_U+30E4_U+30FC 1
 62
   179
420
  2234388
370
    25
  0
POLYLINE
  5
FB
330
1F
100
AcDbEntity
  8
_U+30EC_U+30A4_U+30E4_U+30FC 1
 62
   179
420
  2234388
370
    25
100
AcDb2dPolyline
 66
     1
 10
0.0
 20
0.0
 30
0.0
  0
VERTEX
  5
FC
330
FB
100
AcDbEntity
  8
_U+30EC_U+30A4_U+30E4_U+30FC 1
 62
   179
420
  2234388
370
    25
100
AcDbVertex
100
AcDb2dVertex
 10
92.88977318574001
 20
-132.5149044113155
 30
0.0
  0
VERTEX
  5
FD
330
FB
100
AcDbEntity
  8
_U+30EC_U+30A4_U+30E4_U+30FC 1
 62
   179
420
  2234388
370
    25
100
AcDbVertex
100
AcDb2dVertex
 10
93.1898459558623
 20
-132.815329966796
 30
0.0
  0
SEQEND
  5
FE
330
FB
100
AcDbEntity
  8
_U+30EC_U+30A4_U+30E4_U+30FC 1
 62
   179
420
  2234388
370
    25
  0
ENDSEC
  0
SECTION
  2
OBJECTS
  0
DICTIONARY
  5
C
330
0
100
AcDbDictionary
281
     1
  3
ACAD_GROUP
350
D
  3
ACAD_LAYOUT
350
1A
  3
ACAD_MATERIAL
350
3B
  3
ACAD_MLEADERSTYLE
350
100
  3
ACAD_MLINESTYLE
350
17
  3
ACAD_PLOTSETTINGS
350
19
  3
ACAD_PLOTSTYLENAME
350
E
  3
ACAD_TABLESTYLE
350
FF
  3
ACAD_VISUALSTYLE
350
2A
  0
SUN
  5
3F
330
29
100
AcDbSun
 90
        1
290
     0
 63
     7
421
 16777215
 40
1.0
291
     1
 91
  2455826
 92
 54000000
292
     0
 70
     2
 71
   256
280
     1
  0
DICTIONARY
  5
D
102
{ACAD_REACTORS
330
C
102
}
330
C
100
AcDbDictionary
281
     1
  0
DICTIONARY
  5
1A
102
{ACAD_REACTORS
330
C
102
}
330
C
100
AcDbDictionary
281
     1
  3
Layout1
350
1E
  3
Layout2
350
26
  3
Model
350
22
  0
DICTIONARY
  5
3B
102
{ACAD_REACTORS
330
C
102
}
330
C
100
AcDbDictionary
281
     1
  3
ByBlock
350
3D
  3
ByLayer
350
3C
  3
Global
350
3E
  0
DICTIONARY
  5
100
102
{ACAD_REACTORS
330
C
102
}
330
C
100
AcDbDictionary
281
     1
  0
DICTIONARY
  5
17
102
{ACAD_REACTORS
330
C
102
}
330
C
100
AcDbDictionary
281
     1
  3
Standard
350
18
  0
DICTIONARY
  5
19
102
{ACAD_REACTORS
330
C
102
}
330
C
100
AcDbDictionary
281
     1
  0
ACDBDICTIONARYWDFLT
  5
E
102
{ACAD_REACTORS
330
C
102
}
330
C
100
AcDbDictionary
281
     1
  3
Normal
350
F
100
AcDbDictionaryWithDefault
340
F
  0
DICTIONARY
  5
FF
102
{ACAD_REACTORS
330
C
102
}
330
C
100
AcDbDictionary
281
     1
  0
DICTIONARY
  5
2A
102
{ACAD_REACTORS
330
C
102
}
330
C
100
AcDbDictionary
281
     1
  3
2dWireframe
350
2F
  3
3D Hidden
350
31
  3
3dWireframe
350
30
  3
Basic
350
32
  3
Brighten
350
36
  3
ColorChange
350
3A
  3
Conceptual
350
34
  3
Dim
350
35
  3
Facepattern
350
39
  3
Flat
350
2B
  3
FlatWithEdges
350
2C
  3
Gouraud
350
2D
  3
GouraudWithEdges
350
2E
  3
Linepattern
350
38
  3
Realistic
350
33
  3
Thicken
350
37
  0
LAYOUT
  5
1E
102
{ACAD_REACTORS
330
1A
102
}
330
1A
100
AcDbPlotSettings
  1

  2
none_device
  4

  6

 40
0.0
 41
0.0
 42
0.0
 43
0.0
 44
0.0
 45
0.0
 46
0.0
 47
0.0
 48
0.0
 49
0.0
140
0.0
141
0.0
142
1.0
143
1.0
 70
   688
 72
     0
 73
     0
 74
     5
  7

 75
    16
 76
     0
 77
     2
 78
   300
147
1.0
148
0.0
149
0.0
100
AcDbLayout
  1
Layout1
 70
     1
 71
     1
 10
0.0
 20
0.0
 11
12.0
 21
9.0
 12
0.0
 22
0.0
 32
0.0
 14
1.000000000000000E+20
 24
1.000000000000000E+20
 34
1.000000000000000E+20
 15
-1.000000000000000E+20
 25
-1.000000000000000E+20
 35
-1.000000000000000E+20
146
0.0
 13
0.0
 23
0.0
 33
0.0
 16
1.0
 26
0.0
 36
0.0
 17
0.0
 27
1.0
 37
0.0
 76
     0
330
1B
  0
LAYOUT
  5
26
102
{ACAD_REACTORS
330
1A
102
}
330
1A
100
AcDbPlotSettings
  1

  2
none_device
  4

  6

 40
0.0
 41
0.0
 42
0.0
 43
0.0
 44
0.0
 45
0.0
 46
0.0
 47
0.0
 48
0.0
 49
0.0
140
0.0
141
0.0
142
1.0
143
1.0
 70
   688
 72
     0
 73
     0
 74
     5
  7

 75
    16
 76
     0
 77
     2
 78
   300
147
1.0
148
0.0
149
0.0
100
AcDbLayout
  1
Layout2
 70
     1
 71
     2
 10
0.0
 20
0.0
 11
0.0
 21
0.0
 12
0.0
 22
0.0
 32
0.0
 14
0.0
 24
0.0
 34
0.0
 15
0.0
 25
0.0
 35
0.0
146
0.0
 13
0.0
 23
0.0
 33
0.0
 16
1.0
 26
0.0
 36
0.0
 17
0.0
 27
1.0
 37
0.0
 76
     0
330
23
  0
LAYOUT
  5
22
102
{ACAD_REACTORS
330
1A
102
}
330
1A
100
AcDbPlotSettings
  1

  2
none_device
  4

  6

 40
0.0
 41
0.0
 42
0.0
 43
0.0
 44
0.0
 45
0.0
 46
0.0
 47
0.0
 48
0.0
 49
0.0
140
0.0
141
0.0
142
1.0
143
1.0
 70
  1712
 72
     0
 73
     0
 74
     0
  7

 75
     0
 76
     0
 77
     2
 78
   300
147
1.0
148
0.0
149
0.0
100
AcDbLayout
  1
Model
 70
     1
 71
     0
 10
0.0
 20
0.0
 11
12.0
 21
9.0
 12
0.0
 22
0.0
 32
0.0
 14
1.000000000000000E+20
 24
1.000000000000000E+20
 34
1.000000000000000E+20
 15
-1.000000000000000E+20
 25
-1.000000000000000E+20
 35
-1.000000000000000E+20
146
0.0
 13
0.0
 23
0.0
 33
0.0
 16
1.0
 26
0.0
 36
0.0
 17
0.0
 27
1.0
 37
0.0
 76
     0
330
1F
331
29
  0
MATERIAL
  5
3D
102
{ACAD_REACTORS
330
3B
102
}
330
3B
100
AcDbMaterial
  1
ByBlock
 72
     1
 94
      127
  0
MATERIAL
  5
3C
102
{ACAD_REACTORS
330
3B
102
}
330
3B
100
AcDbMaterial
  1
ByLayer
 72
     1
 94
      127
  0
MATERIAL
  5
3E
102
{ACAD_REACTORS
330
3B
102
}
330
3B
100
AcDbMaterial
  1
Global
 72
     1
 94
      127
  0
MLINESTYLE
  5
18
102
{ACAD_REACTORS
330
17
102
}
330
17
100
AcDbMlineStyle
  2
Standard
 70
     0
  3

 62
   256
 51
90.0
 52
90.0
 71
     2
 49
0.5
 62
   256
  6
BYLAYER
 49
-0.5
 62
   256
  6
BYLAYER
  0
ACDBPLACEHOLDER
  5
F
102
{ACAD_REACTORS
330
E
102
}
330
E
  0
VISUALSTYLE
  5
2F
102
{ACAD_REACTORS
330
2A
102
}
330
2A
100
AcDbVisualStyle
  2
2dWireframe
 70
     4
177
     2
291
     0
 71
     0
176
     1
 72
     2
176
     1
 73
     0
176
     1
 90
        0
176
     1
 40
-0.6
176
     1
 41
-30.0
176
     1
 62
     5
 63
     7
421
 16777215
176
     1
 74
     1
176
     1
 91
        4
176
     1
 64
     7
176
     1
 65
   257
176
     1
 75
     1
176
     1
175
     1
176
     1
 42
1.0
176
     1
 92
        0
176
     1
 66
   257
176
     1
 43
1.0
176
     1
 76
     1
176
     1
 77
     6
176
     1
 78
     2
176
     1
 67
     7
176
     1
 79
     5
176
     1
170
     0
176
     1
171
     0
176
     1
290
     0
176
     1
 93
        1
176
     1
 44
0.0
176
     1
173
     0
176
     1
  0
VISUALSTYLE
  5
31
102
{ACAD_REACTORS
330
2A
102
}
330
2A
100
AcDbVisualStyle
  2
3D Hidden
 70
     6
177
     2
291
     0
 71
     1
176
     1
 72
     2
176
     1
 73
     2
176
     1
 90
        0
176
     1
 40
-0.6
176
     1
 41
-30.0
176
     1
 62
     5
 63
     7
421
 16777215
176
     1
 74
     2
176
     1
 91
        2
176
     1
 64
     7
176
     1
 65
   257
176
     1
 75
     2
176
     1
175
     1
176
     1
 42
40.0
176
     1
 92
        0
176
     1
 66
   257
176
     1
 43
1.0
176
     1
 76
     1
176
     1
 77
     6
176
     1
 78
     2
176
     1
 67
     7
176
     1
 79
     3
176
     1
170
     0
176
     1
171
     0
176
     1
290
     0
176
     1
 93
        1
176
     1
 44
0.0
176
     1
173
     0
176
     1
  0
VISUALSTYLE
  5
30
102
{ACAD_REACTORS
330
2A
102
}
330
2A
100
AcDbVisualStyle
  2
3dWireframe
 70
     5
177
     2
291
     0
 71
     0
176
     1
 72
     2
176
     1
 73
     0
176
     1
 90
        0
176
     1
 40
-0.6
176
     1
 41
-30.0
176
     1
 62
     5
 63
     7
421
 16777215
176
     1
 74
     1
176
     1
 91
        4
176
     1
 64
     7
176
     1
 65
   257
176
     1
 75
     1
176
     1
175
     1
176
     1
 42
1.0
176
     1
 92
        0
176
     1
 66
   257
176
     1
 43
1.0
176
     1
 76
     1
176
     1
 77
     6
176
     1
 78
     2
176
     1
 67
     7
176
     1
 79
     5
176
     1
170
     0
176
     1
171
     0
176
     1
290
     0
176
     1
 93
        1
176
     1
 44
0.0
176
     1
173
     0
176
     1
  0
VISUALSTYLE
  5
32
102
{ACAD_REACTORS
330
2A
102
}
330
2A
100
AcDbVisualStyle
  2
Basic
 70
     7
177
     2
291
     1
 71
     1
176
     1
 72
     0
176
     1
 73
     1
176
     1
 90
        0
176
     1
 40
-0.6
176
     1
 41
-30.0
176
     1
 62
     5
 63
     7
421
 16777215
176
     1
 74
     0
176
     1
 91
        4
176
     1
 64
     7
176
     1
 65
   257
176
     1
 75
     1
176
     1
175
     1
176
     1
 42
1.0
176
     1
 92
        8
176
     1
 66
     7
176
     1
 43
1.0
176
     1
 76
     1
176
     1
 77
     6
176
     1
 78
     2
176
     1
 67
     7
176
     1
 79
     5
176
     1
170
     0
176
     1
171
     0
176
     1
290
     0
176
     1
 93
        1
176
     1
 44
0.0
176
     1
173
     0
176
     1
  0
VISUALSTYLE
  5
36
102
{ACAD_REACTORS
330
2A
102
}
330
2A
100
AcDbVisualStyle
  2
Brighten
 70
    12
177
     2
291
     1
 71
     2
176
     1
 72
     2
176
     1
 73
     0
176
     1
 90
        0
176
     1
 40
-0.6
176
     1
 41
-30.0
176
     1
 62
     5
 63
     7
421
 16777215
176
     1
 74
     1
176
     1
 91
        4
176
     1
 64
     7
176
     1
 65
   257
176
     1
 75
     1
176
     1
175
     1
176
     1
 42
1.0
176
     1
 92
        8
176
     1
 66
     7
176
     1
 43
1.0
176
     1
 76
     1
176
     1
 77
     6
176
     1
 78
     2
176
     1
 67
     7
176
     1
 79
     5
176
     1
170
     0
176
     1
171
     0
176
     1
290
     0
176
     1
 93
        1
176
     1
 44
50.0
176
     1
173
     0
176
     1
  0
VISUALSTYLE
  5
3A
102
{ACAD_REACTORS
330
2A
102
}
330
2A
100
AcDbVisualStyle
  2
ColorChange
 70
    16
177
     2
291
     1
 71
     2
176
     1
 72
     2
176
     1
 73
     3
176
     1
 90
        0
176
     1
 40
-0.6
176
     1
 41
-30.0
176
     1
 62
     5
 63
     8
421
  8421504
176
     1
 74
     1
176
     1
 91
        4
176
     1
 64
     7
176
     1
 65
   257
176
     1
 75
     1
176
     1
175
     1
176
     1
 42
1.0
176
     1
 92
        8
176
     1
 66
     8
424
  8421504
176
     1
 43
1.0
176
     1
 76
     1
176
     1
 77
     6
176
     1
 78
     2
176
     1
 67
     7
176
     1
 79
     5
176
     1
170
     0
176
     1
171
     0
176
     1
290
     0
176
     1
 93
        1
176
     1
 44
0.0
176
     1
173
     0
176
     1
  0
VISUALSTYLE
  5
34
102
{ACAD_REACTORS
330
2A
102
}
330
2A
100
AcDbVisualStyle
  2
Conceptual
 70
     9
177
     2
291
     0
 71
     3
176
     1
 72
     2
176
     1
 73
     0
176
     1
 90
        0
176
     1
 40
-0.6
176
     1
 41
-30.0
176
     1
 62
     5
 63
     7
421
 16777215
176
     1
 74
     2
176
     1
 91
        2
176
     1
 64
     7
176
     1
 65
   257
176
     1
 75
     1
176
     1
175
     1
176
     1
 42
40.0
176
     1
 92
        8
176
     1
 66
     7
176
     1
 43
1.0
176
     1
 76
     1
176
     1
 77
     6
176
     1
 78
     2
176
     1
 67
     7
176
     1
 79
     3
176
     1
170
     0
176
     1
171
     0
176
     1
290
     0
176
     1
 93
        1
176
     1
 44
0.0
176
     1
173
     0
176
     1
  0
VISUALSTYLE
  5
35
102
{ACAD_REACTORS
330
2A
102
}
330
2A
100
AcDbVisualStyle
  2
Dim
 70
    11
177
     2
291
     1
 71
     2
176
     1
 72
     2
176
     1
 73
     0
176
     1
 90
        0
176
     1
 40
-0.6
176
     1
 41
-30.0
176
     1
 62
     5
 63
     7
421
 16777215
176
     1
 74
     1
176
     1
 91
        4
176
     1
 64
     7
176
     1
 65
   257
176
     1
 75
     1
176
     1
175
     1
176
     1
 42
1.0
176
     1
 92
        8
176
     1
 66
     7
176
     1
 43
1.0
176
     1
 76
     1
176
     1
 77
     6
176
     1
 78
     2
176
     1
 67
     7
176
     1
 79
     5
176
     1
170
     0
176
     1
171
     0
176
     1
290
     0
176
     1
 93
        1
176
     1
 44
-50.0
176
     1
173
     0
176
     1
  0
VISUALSTYLE
  5
39
102
{ACAD_REACTORS
330
2A
102
}
330
2A
100
AcDbVisualStyle
  2
Facepattern
 70
    15
177
     2
291
     1
 71
     2
176
     1
 72
     2
176
     1
 73
     0
176
     1
 90
        0
176
     1
 40
-0.6
176
     1
 41
-30.0
176
     1
 62
     5
 63
     7
421
 16777215
176
     1
 74
     1
176
     1
 91
        4
176
     1
 64
     7
176
     1
 65
   257
176
     1
 75
     1
176
     1
175
     1
176
     1
 42
1.0
176
     1
 92
        8
176
     1
 66
     7
176
     1
 43
1.0
176
     1
 76
     1
176
     1
 77
     6
176
     1
 78
     2
176
     1
 67
     7
176
     1
 79
     5
176
     1
170
     0
176
     1
171
     0
176
     1
290
     0
176
     1
 93
        1
176
     1
 44
0.0
176
     1
173
     0
176
     1
  0
VISUALSTYLE
  5
2B
102
{ACAD_REACTORS
330
2A
102
}
330
2A
100
AcDbVisualStyle
  2
Flat
 70
     0
177
     2
291
     1
 71
     2
176
     1
 72
     1
176
     1
 73
     1
176
     1
 90
        2
176
     1
 40
-0.6
176
     1
 41
30.0
176
     1
 62
     5
 63
     7
421
 16777215
176
     1
 74
     0
176
     1
 91
        4
176
     1
 64
     7
176
     1
 65
   257
176
     1
 75
     1
176
     1
175
     1
176
     1
 42
1.0
176
     1
 92
        8
176
     1
 66
     7
176
     1
 43
1.0
176
     1
 76
     1
176
     1
 77
     6
176
     1
 78
     2
176
     1
 67
     7
176
     1
 79
     5
176
     1
170
     0
176
     1
171
     0
176
     1
290
     0
176
     1
 93
       13
176
     1
 44
0.0
176
     1
173
     0
176
     1
  0
VISUALSTYLE
  5
2C
102
{ACAD_REACTORS
330
2A
102
}
330
2A
100
AcDbVisualStyle
  2
FlatWithEdges
 70
     1
177
     2
291
     1
 71
     2
176
     1
 72
     1
176
     1
 73
     1
176
     1
 90
        2
176
     1
 40
-0.6
176
     1
 41
30.0
176
     1
 62
     5
 63
     7
421
 16777215
176
     1
 74
     1
176
     1
 91
        4
176
     1
 64
     7
176
     1
 65
   257
176
     1
 75
     1
176
     1
175
     1
176
     1
 42
1.0
176
     1
 92
        0
176
     1
 66
   257
176
     1
 43
1.0
176
     1
 76
     1
176
     1
 77
     6
176
     1
 78
     2
176
     1
 67
     7
176
     1
 79
     5
176
     1
170
     0
176
     1
171
     0
176
     1
290
     0
176
     1
 93
       13
176
     1
 44
0.0
176
     1
173
     0
176
     1
  0
VISUALSTYLE
  5
2D
102
{ACAD_REACTORS
330
2A
102
}
330
2A
100
AcDbVisualStyle
  2
Gouraud
 70
     2
177
     2
291
     1
 71
     2
176
     1
 72
     2
176
     1
 73
     1
176
     1
 90
        2
176
     1
 40
-0.6
176
     1
 41
30.0
176
     1
 62
     5
 63
     7
421
 16777215
176
     1
 74
     0
176
     1
 91
        4
176
     1
 64
     7
176
     1
 65
   257
176
     1
 75
     1
176
     1
175
     1
176
     1
 42
1.0
176
     1
 92
        0
176
     1
 66
     7
176
     1
 43
1.0
176
     1
 76
     1
176
     1
 77
     6
176
     1
 78
     2
176
     1
 67
     7
176
     1
 79
     5
176
     1
170
     0
176
     1
171
     0
176
     1
290
     0
176
     1
 93
       13
176
     1
 44
0.0
176
     1
173
     0
176
     1
  0
VISUALSTYLE
  5
2E
102
{ACAD_REACTORS
330
2A
102
}
330
2A
100
AcDbVisualStyle
  2
GouraudWithEdges
 70
     3
177
     2
291
     1
 71
     2
176
     1
 72
     2
176
     1
 73
     1
176
     1
 90
        2
176
     1
 40
-0.6
176
     1
 41
30.0
176
     1
 62
     5
 63
     7
421
 16777215
176
     1
 74
     1
176
     1
 91
        4
176
     1
 64
     7
176
     1
 65
   257
176
     1
 75
     1
176
     1
175
     1
176
     1
 42
1.0
176
     1
 92
        0
176
     1
 66
   257
176
     1
 43
1.0
176
     1
 76
     1
176
     1
 77
     6
176
     1
 78
     2
176
     1
 67
     7
176
     1
 79
     5
176
     1
170
     0
176
     1
171
     0
176
     1
290
     0
176
     1
 93
       13
176
     1
 44
0.0
176
     1
173
     0
176
     1
  0
VISUALSTYLE
  5
38
102
{ACAD_REACTORS
330
2A
102
}
330
2A
100
AcDbVisualStyle
  2
Linepattern
 70
    14
177
     2
291
     1
 71
     2
176
     1
 72
     2
176
     1
 73
     0
176
     1
 90
        0
176
     1
 40
-0.6
176
     1
 41
-30.0
176
     1
 62
     5
 63
     7
421
 16777215
176
     1
 74
     1
176
     1
 91
        4
176
     1
 64
     7
176
     1
 65
   257
176
     1
 75
     7
176
     1
175
     7
176
     1
 42
1.0
176
     1
 92
        8
176
     1
 66
     7
176
     1
 43
1.0
176
     1
 76
     1
176
     1
 77
     6
176
     1
 78
     2
176
     1
 67
     7
176
     1
 79
     5
176
     1
170
     0
176
     1
171
     0
176
     1
290
     0
176
     1
 93
        1
176
     1
 44
0.0
176
     1
173
     0
176
     1
  0
VISUALSTYLE
  5
33
102
{ACAD_REACTORS
330
2A
102
}
330
2A
100
AcDbVisualStyle
  2
Realistic
 70
     8
177
     2
291
     0
 71
     2
176
     1
 72
     2
176
     1
 73
     0
176
     1
 90
        0
176
     1
 40
-0.6
176
     1
 41
-30.0
176
     1
 62
     5
 63
     7
421
 16777215
176
     1
 74
     1
176
     1
 91
        0
176
     1
 64
     7
176
     1
 65
   257
176
     1
 75
     1
176
     1
175
     1
176
     1
 42
1.0
176
     1
 92
        8
176
     1
 66
     8
424
  7895160
176
     1
 43
1.0
176
     1
 76
     1
176
     1
 77
     6
176
     1
 78
     2
176
     1
 67
     7
176
     1
 79
     5
176
     1
170
     0
176
     1
171
     0
176
     1
290
     0
176
     1
 93
       13
176
     1
 44
0.0
176
     1
173
     0
176
     1
  0
VISUALSTYLE
  5
37
102
{ACAD_REACTORS
330
2A
102
}
330
2A
100
AcDbVisualStyle
  2
Thicken
 70
    13
177
     2
291
     1
 71
     2
176
     1
 72
     2
176
     1
 73
     0
176
     1
 90
        0
176
     1
 40
-0.6
176
     1
 41
-30.0
176
     1
 62
     5
 63
     7
421
 16777215
176
     1
 74
     1
176
     1
 91
        4
176
     1
 64
     7
176
     1
 65
   257
176
     1
 75
     1
176
     1
175
     1
176
     1
 42
1.0
176
     1
 92
       12
176
     1
 66
     7
176
     1
 43
1.0
176
     1
 76
     1
176
     1
 77
     6
176
     1
 78
     2
176
     1
 67
     7
176
     1
 79
     5
176
     1
170
     0
176
     1
171
     0
176
     1
290
     0
176
     1
 93
        1
176
     1
 44
0.0
176
     1
173
     0
176
     1
  0
ENDSEC
  0
EOF
