  0
SECTION
  2
HEADER
  9
$ACADVER
  1
AC1024
  9
$ACADMAINTVER
 70
     6
  9
$DWGCODEPAGE
  3
UNDEFINED
  9
$INSBASE
 10
0.0
 20
0.0
 30
0.0
  9
$EXTMIN
 10
1.000000000000000E+20
 20
1.000000000000000E+20
 30
1.000000000000000E+20
  9
$EXTMAX
 10
-1.000000000000000E+20
 20
-1.000000000000000E+20
 30
-1.000000000000000E+20
  9
$LIMMIN
 10
0.0
 20
0.0
  9
$LIMMAX
 10
12.0
 20
9.0
  9
$ORTHOMODE
 70
     0
  9
$REGENMODE
 70
     1
  9
$FILLMODE
 70
     1
  9
$QTEXTMODE
 70
     0
  9
$MIRRTEXT
 70
     1
  9
$LTSCALE
 40
1.0
  9
$ATTMODE
 70
     1
  9
$TEXTSIZE
 40
0.2
  9
$TRACEWID
 40
0.05
  9
$TEXTSTYLE
  7
Standard
  9
$CLAYER
  8
0
  9
$CELTYPE
  6
ByLayer
  9
$CECOLOR
 62
   256
  9
$CELTSCALE
 40
1.0
  9
$DISPSILH
 70
     0
  9
$DIMSCALE
 40
1.0
  9
$DIMASZ
 40
0.18
  9
$DIMEXO
 40
0.0625
  9
$DIMDLI
 40
0.38
  9
$DIMRND
 40
0.0
  9
$DIMDLE
 40
0.0
  9
$DIMEXE
 40
0.18
  9
$DIMTP
 40
0.0
  9
$DIMTM
 40
0.0
  9
$DIMTXT
 40
0.18
  9
$DIMCEN
 40
0.09
  9
$DIMTSZ
 40
0.0
  9
$DIMTOL
 70
     0
  9
$DIMLIM
 70
     0
  9
$DIMTIH
 70
     1
  9
$DIMTOH
 70
     1
  9
$DIMSE1
 70
     0
  9
$DIMSE2
 70
     0
  9
$DIMTAD
 70
     0
  9
$DIMZIN
 70
     0
  9
$DIMBLK
  1

  9
$DIMASO
 70
     1
  9
$DIMSHO
 70
     1
  9
$DIMPOST
  1

  9
$DIMAPOST
  1

  9
$DIMALT
 70
     0
  9
$DIMALTD
 70
     2
  9
$DIMALTF
 40
25.4
  9
$DIMLFAC
 40
1.0
  9
$DIMTOFL
 70
     0
  9
$DIMTVP
 40
0.0
  9
$DIMTIX
 70
     0
  9
$DIMSOXD
 70
     0
  9
$DIMSAH
 70
     0
  9
$DIMBLK1
  1

  9
$DIMBLK2
  1

  9
$DIMSTYLE
  2
Standard
  9
$DIMCLRD
 70
     0
  9
$DIMCLRE
 70
     0
  9
$DIMCLRT
 70
     0
  9
$DIMTFAC
 40
1.0
  9
$DIMGAP
 40
0.09
  9
$DIMJUST
 70
     0
  9
$DIMSD1
 70
     0
  9
$DIMSD2
 70
     0
  9
$DIMTOLJ
 70
     1
  9
$DIMTZIN
 70
     0
  9
$DIMALTZ
 70
     0
  9
$DIMALTTZ
 70
     0
  9
$DIMUPT
 70
     0
  9
$DIMDEC
 70
     4
  9
$DIMTDEC
 70
     4
  9
$DIMALTU
 70
     2
  9
$DIMALTTD
 70
     2
  9
$DIMTXSTY
  7
Standard
  9
$DIMAUNIT
 70
     0
  9
$DIMADEC
 70
     0
  9
$DIMALTRND
 40
0.0
  9
$DIMAZIN
 70
     0
  9
$DIMDSEP
 70
    46
  9
$DIMATFIT
 70
     3
  9
$DIMFRAC
 70
     0
  9
$DIMLDRBLK
  1

  9
$DIMLUNIT
 70
     2
  9
$DIMLWD
 70
    -2
  9
$DIMLWE
 70
    -2
  9
$DIMTMOVE
 70
     0
  9
$DIMFXL
 40
1.0
  9
$DIMFXLON
 70
     0
  9
$DIMJOGANG
 40
0.7853981633974483
  9
$DIMTFILL
 70
     0
  9
$DIMTFILLCLR
 70
     0
  9
$DIMARCSYM
 70
     0
  9
$DIMLTYPE
  6

  9
$DIMLTEX1
  6

  9
$DIMLTEX2
  6

  9
$DIMTXTDIRECTION
 70
     0
  9
$LUNITS
 70
     2
  9
$LUPREC
 70
     4
  9
$SKETCHINC
 40
0.1
  9
$FILLETRAD
 40
0.5
  9
$AUNITS
 70
     0
  9
$AUPREC
 70
     0
  9
$MENU
  1
.
  9
$ELEVATION
 40
0.0
  9
$PELEVATION
 40
0.0
  9
$THICKNESS
 40
0.0
  9
$LIMCHECK
 70
     0
  9
$CHAMFERA
 40
0.5
  9
$CHAMFERB
 40
0.5
  9
$CHAMFERC
 40
1.0
  9
$CHAMFERD
 40
0.0
  9
$SKPOLY
 70
     0
  9
$TDCREATE
 40
2457917.594143519
  9
$TDUCREATE
 40
2457917.219143519
  9
$TDUPDATE
 40
2457917.594143519
  9
$TDUUPDATE
 40
2457917.219143519
  9
$TDINDWG
 40
0.0000000116
  9
$TDUSRTIMER
 40
0.0000000116
  9
$USRTIMER
 70
     1
  9
$ANGBASE
 50
0.0
  9
$ANGDIR
 70
     0
  9
$PDMODE
 70
     0
  9
$PDSIZE
 40
0.0
  9
$PLINEWID
 40
0.0
  9
$SPLFRAME
 70
     0
  9
$SPLINETYPE
 70
     6
  9
$SPLINESEGS
 70
     8
  9
$HANDSEED
  5
101
  9
$SURFTAB1
 70
     6
  9
$SURFTAB2
 70
     6
  9
$SURFTYPE
 70
     6
  9
$SURFU
 70
     6
  9
$SURFV
 70
     6
  9
$UCSBASE
  2

  9
$UCSNAME
  2

  9
$UCSORG
 10
0.0
 20
0.0
 30
0.0
  9
$UCSXDIR
 10
1.0
 20
0.0
 30
0.0
  9
$UCSYDIR
 10
0.0
 20
1.0
 30
0.0
  9
$UCSORTHOREF
  2

  9
$UCSORTHOVIEW
 70
     0
  9
$UCSORGTOP
 10
0.0
 20
0.0
 30
0.0
  9
$UCSORGBOTTOM
 10
0.0
 20
0.0
 30
0.0
  9
$UCSORGLEFT
 10
0.0
 20
0.0
 30
0.0
  9
$UCSORGRIGHT
 10
0.0
 20
0.0
 30
0.0
  9
$UCSORGFRONT
 10
0.0
 20
0.0
 30
0.0
  9
$UCSORGBACK
 10
0.0
 20
0.0
 30
0.0
  9
$PUCSBASE
  2

  9
$PUCSNAME
  2

  9
$PUCSORG
 10
0.0
 20
0.0
 30
0.0
  9
$PUCSXDIR
 10
1.0
 20
0.0
 30
0.0
  9
$PUCSYDIR
 10
0.0
 20
1.0
 30
0.0
  9
$PUCSORTHOREF
  2

  9
$PUCSORTHOVIEW
 70
     0
  9
$PUCSORGTOP
 10
0.0
 20
0.0
 30
0.0
  9
$PUCSORGBOTTOM
 10
0.0
 20
0.0
 30
0.0
  9
$PUCSORGLEFT
 10
0.0
 20
0.0
 30
0.0
  9
$PUCSORGRIGHT
 10
0.0
 20
0.0
 30
0.0
  9
$PUCSORGFRONT
 10
0.0
 20
0.0
 30
0.0
  9
$PUCSORGBACK
 10
0.0
 20
0.0
 30
0.0
  9
$USERI1
 70
     0
  9
$USERI2
 70
     0
  9
$USERI3
 70
     0
  9
$USERI4
 70
     0
  9
$USERI5
 70
     0
  9
$USERR1
 40
0.0
  9
$USERR2
 40
0.0
  9
$USERR3
 40
0.0
  9
$USERR4
 40
0.0
  9
$USERR5
 40
0.0
  9
$WORLDVIEW
 70
     1
  9
$SHADEDGE
 70
     3
  9
$SHADEDIF
 70
    70
  9
$TILEMODE
 70
     1
  9
$MAXACTVP
 70
    64
  9
$PINSBASE
 10
0.0
 20
0.0
 30
0.0
  9
$PLIMCHECK
 70
     0
  9
$PEXTMIN
 10
1.000000000000000E+20
 20
1.000000000000000E+20
 30
1.000000000000000E+20
  9
$PEXTMAX
 10
-1.000000000000000E+20
 20
-1.000000000000000E+20
 30
-1.000000000000000E+20
  9
$PLIMMIN
 10
0.0
 20
0.0
  9
$PLIMMAX
 10
12.0
 20
9.0
  9
$UNITMODE
 70
     0
  9
$VISRETAIN
 70
     1
  9
$PLINEGEN
 70
     0
  9
$PSLTSCALE
 70
     1
  9
$TREEDEPTH
 70
  3020
  9
$CMLSTYLE
  2
Standard
  9
$CMLJUST
 70
     0
  9
$CMLSCALE
 40
1.0
  9
$PROXYGRAPHICS
 70
     1
  9
$MEASUREMENT
 70
     0
  9
$CELWEIGHT
370
    -1
  9
$ENDCAPS
280
     0
  9
$JOINSTYLE
280
     0
  9
$LWDISPLAY
290
     1
  9
$INSUNITS
 70
     1
  9
$HYPERLINKBASE
  1

  9
$STYLESHEET
  1

  9
$XEDIT
290
     1
  9
$CEPSNTYPE
380
     0
  9
$PSTYLEMODE
290
     1
  9
$FINGERPRINTGUID
  2
{837A385D-4BAC-E69C-6C66-B3C8D47D482D}
  9
$VERSIONGUID
  2
{FAEB1C32-E019-11D5-929B-00C0DF256EC4}
  9
$EXTNAMES
290
     1
  9
$PSVPSCALE
 40
0.0
  9
$OLESTARTUP
290
     0
  9
$SORTENTS
280
   127
  9
$INDEXCTL
280
     0
  9
$HIDETEXT
280
     1
  9
$XCLIPFRAME
280
     2
  9
$HALOGAP
280
     0
  9
$OBSCOLOR
 70
   257
  9
$OBSLTYPE
280
     0
  9
$INTERSECTIONDISPLAY
280
     0
  9
$INTERSECTIONCOLOR
 70
   257
  9
$DIMASSOC
280
     2
  9
$PROJECTNAME
  1

  9
$CAMERADISPLAY
290
     0
  9
$LENSLENGTH
 40
50.0
  9
$CAMERAHEIGHT
 40
0.0
  9
$STEPSPERSEC
 40
2.0
  9
$STEPSIZE
 40
6.0
  9
$3DDWFPREC
 40
2.0
  9
$PSOLWIDTH
 40
0.25
  9
$PSOLHEIGHT
 40
4.0
  9
$LOFTANG1
 40
1.570796326794897
  9
$LOFTANG2
 40
1.570796326794897
  9
$LOFTMAG1
 40
0.0
  9
$LOFTMAG2
 40
0.0
  9
$LOFTPARAM
 70
     7
  9
$LOFTNORMALS
280
     1
  9
$LATITUDE
 40
37.795
  9
$LONGITUDE
 40
-122.394
  9
$NORTHDIRECTION
 40
0.0
  9
$TIMEZONE
 70
 -8000
  9
$LIGHTGLYPHDISPLAY
280
     1
  9
$TILEMODELIGHTSYNCH
280
     1
  9
$CMATERIAL
347
3C
  9
$SOLIDHIST
280
     1
  9
$SHOWHIST
280
     1
  9
$DWFFRAME
280
     2
  9
$DGNFRAME
280
     2
  9
$REALWORLDSCALE
290
     1
  9
$INTERFERECOLOR
 62
   256
  9
$CSHADOW
280
     0
  9
$SHADOWPLANELOCATION
 40
0.0
  0
ENDSEC
  0
SECTION
  2
CLASSES
  0
CLASS
  1
ACDBDICTIONARYWDFLT
  2
AcDbDictionaryWithDefault
  3
ObjectDBX Classes
 90
        0
 91
        4
280
     0
281
     0
  0
CLASS
  1
VISUALSTYLE
  2
AcDbVisualStyle
  3
ObjectDBX Classes
 90
     4095
 91
        4
280
     0
281
     0
  0
CLASS
  1
MATERIAL
  2
AcDbMaterial
  3
ObjectDBX Classes
 90
     1153
 91
        4
280
     0
281
     0
  0
CLASS
  1
SUN
  2
AcDbSun
  3
SCENEOE
 90
     1024
 91
        4
280
     0
281
     0
  0
ENDSEC
  0
SECTION
  2
TABLES
  0
TABLE
  2
VPORT
  5
8
330
0
100
AcDbSymbolTable
 70
     1
  0
VPORT
  5
29
330
8
100
AcDbSymbolTableRecord
100
AcDbViewportTableRecord
  2
*Active
 70
     0
 10
0.0
 20
0.0
 11
1.0
 21
1.0
 12
0.0
 22
0.0
 13
0.0
 23
0.0
 14
0.5
 24
0.5
 15
0.5
 25
0.5
 16
0.0
 26
0.0
 36
1.0
 17
91.00082462281999
 27
-128.4993055234307
 37
0.0
 40
256.9986110468615
 41
0.7081814508812795
 42
50.0
 43
0.0
 44
0.0
 50
0.0
 51
0.0
 71
     0
 72
   100
 73
     1
 74
     3
 75
     0
 76
     0
 77
     0
 78
     0
281
     0
 65
     1
110
0.0
120
0.0
130
0.0
111
1.0
121
0.0
131
0.0
112
0.0
122
1.0
132
0.0
 79
     0
146
0.0
 60
     3
 61
     5
292
     1
282
     1
141
0.0
142
0.0
 63
   250
361
3F
  0
ENDTAB
  0
TABLE
  2
LTYPE
  5
5
330
0
100
AcDbSymbolTable
 70
     1
  0
LTYPE
  5
14
330
5
100
AcDbSymbolTableRecord
100
AcDbLinetypeTableRecord
  2
ByBlock
 70
     0
  3

 72
    65
 73
     0
 40
0.0
  0
LTYPE
  5
15
330
5
100
AcDbSymbolTableRecord
100
AcDbLinetypeTableRecord
  2
ByLayer
 70
     0
  3

 72
    65
 73
     0
 40
0.0
  0
LTYPE
  5
16
330
5
100
AcDbSymbolTableRecord
100
AcDbLinetypeTableRecord
  2
Continuous
 70
     0
  3
Solid line
 72
    65
 73
     0
 40
0.0
  0
ENDTAB
  0
TABLE
  2
LAYER
  5
2
330
0
100
AcDbSymbolTable
 70
     2
  0
LAYER
  5
10
330
2
100
AcDbSymbolTableRecord
100
AcDbLayerTableRecord
  2
0
 70
     0
 62
     7
  6
Continuous
370
    -3
390
F
347
3E
  0
LAYER
  5
40
330
2
100
AcDbSymbolTableRecord
100
AcDbLayerTableRecord
  2
_U+30EC_U+30A4_U+30E4_U+30FC 1
 70
     0
 62
     7
  6
Continuous
370
    -3
390
F
347
3E
  0
ENDTAB
  0
TABLE
  2
STYLE
  5
3
330
0
100
AcDbSymbolTable
 70
     1
  0
STYLE
  5
11
330
3
100
AcDbSymbolTableRecord
100
AcDbTextStyleTableRecord
  2
Standard
 70
     0
 40
0.0
 41
1.0
 50
0.0
 71
     0
 42
0.2
  3
txt
  4

  0
ENDTAB
  0
TABLE
  2
VIEW
  5
6
330
0
100
AcDbSymbolTable
 70
     0
  0
ENDTAB
  0
TABLE
  2
UCS
  5
7
330
0
100
AcDbSymbolTable
 70
     0
  0
ENDTAB
  0
TABLE
  2
APPID
  5
9
330
0
100
AcDbSymbolTable
 70
     1
  0
APPID
  5
12
330
9
100
AcDbSymbolTableRecord
100
AcDbRegAppTableRecord
  2
ACAD
 70
     0
  0
ENDTAB
  0
TABLE
  2
DIMSTYLE
  5
A
330
0
100
AcDbSymbolTable
 70
     1
100
AcDbDimStyleTable
  0
DIMSTYLE
105
27
330
A
100
AcDbSymbolTableRecord
100
AcDbDimStyleTableRecord
  2
Standard
 70
     0
178
     0
340
11
  0
ENDTAB
  0
TABLE
  2
BLOCK_RECORD
  5
1
330
0
100
AcDbSymbolTable
 70
     7
  0
BLOCK_RECORD
  5
1F
330
1
100
AcDbSymbolTableRecord
100
AcDbBlockTableRecord
  2
*Model_Space
340
22
 70
     0
280
     1
281
     0
  0
BLOCK_RECORD
  5
1B
330
1
100
AcDbSymbolTableRecord
100
AcDbBlockTableRecord
  2
*Paper_Space
340
1E
 70
     0
280
     1
281
     0
  0
BLOCK_RECORD
  5
23
330
1
100
AcDbSymbolTableRecord
100
AcDbBlockTableRecord
  2
*Paper_Space0
340
26
 70
     0
280
     1
281
     0
  0
BLOCK_RECORD
  5
59
330
1
100
AcDbSymbolTableRecord
100
AcDbBlockTableRecord
  2
block 2
340
0
102
{BLKREFS
331
5A
102
}
 70
     0
280
     1
281
     0
  0
BLOCK_RECORD
  5
6D
330
1
100
AcDbSymbolTableRecord
100
AcDbBlockTableRecord
  2
block 3
340
0
102
{BLKREFS
331
6E
102
}
 70
     0
280
     1
281
     0
  0
BLOCK_RECORD
  5
87
330
1
100
AcDbSymbolTableRecord
100
AcDbBlockTableRecord
  2
block 4
340
0
102
{BLKREFS
331
88
102
}
 70
     0
280
     1
281
     0
  0
BLOCK_RECORD
  5
A8
330
1
100
AcDbSymbolTableRecord
100
AcDbBlockTableRecord
  2
block 5
340
0
102
{BLKREFS
331
A9
102
}
 70
     0
280
     1
281
     0
  0
BLOCK_RECORD
  5
C4
330
1
100
AcDbSymbolTableRecord
100
AcDbBlockTableRecord
  2
block 6
340
0
102
{BLKREFS
331
C5
102
}
 70
     0
280
     1
281
     0
  0
BLOCK_RECORD
  5
D2
330
1
100
AcDbSymbolTableRecord
100
AcDbBlockTableRecord
  2
block 7
340
0
102
{BLKREFS
331
D3
102
}
 70
     0
280
     1
281
     0
  0
ENDTAB
  0
ENDSEC
  0
SECTION
  2
BLOCKS
  0
BLOCK
  5
20
330
1F
100
AcDbEntity
  8
0
100
AcDbBlockBegin
  2
*Model_Space
 70
     0
 10
0.0
 20
0.0
 30
0.0
  3
*Model_Space
  1

  0
ENDBLK
  5
21
330
1F
100
AcDbEntity
  8
0
100
AcDbBlockEnd
  0
BLOCK
  5
1C
330
1B
100
AcDbEntity
 67
     1
  8
0
100
AcDbBlockBegin
  2
*Paper_Space
 70
     0
 10
0.0
 20
0.0
 30
0.0
  3
*Paper_Space
  1

  0
ENDBLK
  5
1D
330
1B
100
AcDbEntity
 67
     1
  8
0
100
AcDbBlockEnd
  0
BLOCK
  5
24
330
23
100
AcDbEntity
  8
0
100
AcDbBlockBegin
  2
*Paper_Space0
 70
     0
 10
0.0
 20
0.0
 30
0.0
  3
*Paper_Space0
  1

  0
ENDBLK
  5
25
330
23
100
AcDbEntity
  8
0
100
AcDbBlockEnd
  0
BLOCK
  5
5B
330
59
100
AcDbEntity
  8
0
100
AcDbBlockBegin
  2
block 2
 70
     0
 10
0.0
 20
0.0
 30
0.0
  3
block 2
  1

  0
SPLINE
  5
5D
330
59
100
AcDbEntity
  8
_U+30EC_U+30A4_U+30E4_U+30FC 1
370
     0
100
AcDbSpline
210
0.0
220
0.0
230
1.0
 70
    11
 71
     3
 72
    29
 73
    25
 74
     0
 42
0.0000000001
 43
0.0000000001
 12
1.0
 22
0.0
 32
0.0
 13
1.0
 23
0.0
 33
0.0
 40
0.0
 40
0.0
 40
0.0
 40
0.0
 40
1.0
 40
1.0
 40
1.0
 40
2.0
 40
2.0
 40
2.0
 40
3.0
 40
3.0
 40
3.0
 40
4.0
 40
4.0
 40
4.0
 40
5.0
 40
5.0
 40
5.0
 40
6.0
 40
6.0
 40
6.0
 40
7.0
 40
7.0
 40
7.0
 40
8.0
 40
8.0
 40
8.0
 40
8.0
 10
85.91017386090093
 20
-121.8123751865608
 30
0.0
 10
85.64369572511686
 20
-121.8123751865608
 30
0.0
 10
85.38979218785394
 20
-121.6747436219251
 30
0.0
 10
85.38979218785394
 20
-121.3257554492693
 30
0.0
 10
85.38979218785394
 20
-121.0697848547152
 30
0.0
 10
85.53155786707198
 20
-120.974527964548
 30
0.0
 10
85.63732229846914
 20
-120.9132052649106
 30
0.0
 10
85.51243758712884
 20
-120.8539496225643
 30
0.0
 10
85.43630097690482
 20
-120.7397447072283
 30
0.0
 10
85.43630097690482
 20
-120.5790310028414
 30
0.0
 10
85.43630097690482
 20
-120.3039401283442
 30
0.0
 10
85.635255241178
 20
-120.1685478757738
 30
0.0
 10
85.91017386090093
 20
-120.1685478757738
 30
0.0
 10
86.19370521933699
 20
-120.1685478757738
 30
0.0
 10
86.38404674489705
 20
-120.312380612283
 30
0.0
 10
86.38404674489705
 20
-120.5790310028414
 30
0.0
 10
86.38404674489705
 20
-120.7397447072283
 30
0.0
 10
86.30584307738188
 20
-120.8539496225643
 30
0.0
 10
86.18095836604157
 20
-120.9132052649106
 30
0.0
 10
86.26984182956102
 20
-120.964020423318
 30
0.0
 10
86.42848847665677
 20
-121.0592773134852
 30
0.0
 10
86.42848847665677
 20
-121.3214490799127
 30
0.0
 10
86.42848847665677
 20
-121.6959309591594
 30
0.0
 10
86.14926348757727
 20
-121.8123751865608
 30
0.0
 10
85.91017386090093
 20
-121.8123751865608
 30
0.0
  0
SPLINE
  5
5E
330
59
100
AcDbEntity
  8
_U+30EC_U+30A4_U+30E4_U+30FC 1
370
     0
100
AcDbSpline
210
0.0
220
0.0
230
1.0
 70
    11
 71
     3
 72
    17
 73
    13
 74
     0
 42
0.0000000001
 43
0.0000000001
 12
1.0
 22
0.0
 32
0.0
 13
1.0
 23
0.0
 33
0.0
 40
0.0
 40
0.0
 40
0.0
 40
0.0
 40
1.0
 40
1.0
 40
1.0
 40
2.0
 40
2.0
 40
2.0
 40
3.0
 40
3.0
 40
3.0
 40
4.0
 40
4.0
 40
4.0
 40
4.0
 10
85.91017386090093
 20
-121.0212090083732
 30
0.0
 10
85.76634112439176
 20
-121.0212090083732
 30
0.0
 10
85.6140679039437
 20
-121.1078531598272
 30
0.0
 10
85.6140679039437
 20
-121.3109415386827
 30
0.0
 10
85.6140679039437
 20
-121.5160969748293
 30
0.0
 10
85.74101967257516
 20
-121.6177272916442
 30
0.0
 10
85.91017386090093
 20
-121.6177272916442
 30
0.0
 10
86.09638127187868
 20
-121.6177272916442
 30
0.0
 10
86.20645207263242
 20
-121.4950818923693
 30
0.0
 10
86.20645207263242
 20
-121.3173149653304
 30
0.0
 10
86.20645207263242
 20
-121.0951063065318
 30
0.0
 10
86.0434990561801
 20
-121.0212090083732
 30
0.0
 10
85.91017386090093
 20
-121.0212090083732
 30
0.0
  0
SPLINE
  5
5F
330
59
100
AcDbEntity
  8
_U+30EC_U+30A4_U+30E4_U+30FC 1
370
     0
100
AcDbSpline
210
0.0
220
0.0
230
1.0
 70
    11
 71
     3
 72
    17
 73
    13
 74
     0
 42
0.0000000001
 43
0.0000000001
 12
1.0
 22
0.0
 32
0.0
 13
1.0
 23
0.0
 33
0.0
 40
0.0
 40
0.0
 40
0.0
 40
0.0
 40
1.0
 40
1.0
 40
1.0
 40
2.0
 40
2.0
 40
2.0
 40
3.0
 40
3.0
 40
3.0
 40
4.0
 40
4.0
 40
4.0
 40
4.0
 10
85.91017386090093
 20
-120.3611287133993
 30
0.0
 10
85.74515378715746
 20
-120.3611287133993
 30
0.0
 10
85.66057669299458
 20
-120.4562133487922
 30
0.0
 10
85.66057669299458
 20
-120.5916056013625
 30
0.0
 10
85.66057669299458
 20
-120.7144232554117
 30
0.0
 10
85.73257918863631
 20
-120.8329345401043
 30
0.0
 10
85.91017386090093
 20
-120.8329345401043
 30
0.0
 10
86.08794078793983
 20
-120.8329345401043
 30
0.0
 10
86.15977102880728
 20
-120.7144232554117
 30
0.0
 10
86.15977102880728
 20
-120.5916056013625
 30
0.0
 10
86.15977102880728
 20
-120.4562133487922
 30
0.0
 10
86.07312687735325
 20
-120.3611287133993
 30
0.0
 10
85.91017386090093
 20
-120.3611287133993
 30
0.0
  0
HATCH
  5
60
330
59
100
AcDbEntity
  8
_U+30EC_U+30A4_U+30E4_U+30FC 1
 62
     7
420
 16777215
100
AcDbHatch
 10
0.0
 20
0.0
 30
0.0
210
0.0
220
0.0
230
1.0
  2
SOLID
 70
     1
 71
     0
 91
        3
 92
        1
 93
        1
 72
     4
 94
        3
 73
     0
 74
     1
 95
       29
 96
       25
 40
0.0
 40
0.0
 40
0.0
 40
0.0
 40
1.0
 40
1.0
 40
1.0
 40
2.0
 40
2.0
 40
2.0
 40
3.0
 40
3.0
 40
3.0
 40
4.0
 40
4.0
 40
4.0
 40
5.0
 40
5.0
 40
5.0
 40
6.0
 40
6.0
 40
6.0
 40
7.0
 40
7.0
 40
7.0
 40
8.0
 40
8.0
 40
8.0
 40
8.0
 10
85.91017386090093
 20
-121.8123751865608
 10
85.64369572511686
 20
-121.8123751865608
 10
85.38979218785394
 20
-121.6747436219251
 10
85.38979218785394
 20
-121.3257554492693
 10
85.38979218785394
 20
-121.0697848547152
 10
85.53155786707198
 20
-120.974527964548
 10
85.63732229846914
 20
-120.9132052649106
 10
85.51243758712884
 20
-120.8539496225643
 10
85.43630097690482
 20
-120.7397447072283
 10
85.43630097690482
 20
-120.5790310028414
 10
85.43630097690482
 20
-120.3039401283442
 10
85.635255241178
 20
-120.1685478757738
 10
85.91017386090093
 20
-120.1685478757738
 10
86.19370521933699
 20
-120.1685478757738
 10
86.38404674489705
 20
-120.312380612283
 10
86.38404674489705
 20
-120.5790310028414
 10
86.38404674489705
 20
-120.7397447072283
 10
86.30584307738188
 20
-120.8539496225643
 10
86.18095836604157
 20
-120.9132052649106
 10
86.26984182956102
 20
-120.964020423318
 10
86.42848847665677
 20
-121.0592773134852
 10
86.42848847665677
 20
-121.3214490799127
 10
86.42848847665677
 20
-121.6959309591594
 10
86.14926348757727
 20
-121.8123751865608
 10
85.91017386090093
 20
-121.8123751865608
 97
        0
 97
        0
 92
        1
 93
        1
 72
     4
 94
        3
 73
     0
 74
     1
 95
       17
 96
       13
 40
0.0
 40
0.0
 40
0.0
 40
0.0
 40
1.0
 40
1.0
 40
1.0
 40
2.0
 40
2.0
 40
2.0
 40
3.0
 40
3.0
 40
3.0
 40
4.0
 40
4.0
 40
4.0
 40
4.0
 10
85.91017386090093
 20
-121.0212090083732
 10
85.76634112439176
 20
-121.0212090083732
 10
85.6140679039437
 20
-121.1078531598272
 10
85.6140679039437
 20
-121.3109415386827
 10
85.6140679039437
 20
-121.5160969748293
 10
85.74101967257516
 20
-121.6177272916442
 10
85.91017386090093
 20
-121.6177272916442
 10
86.09638127187868
 20
-121.6177272916442
 10
86.20645207263242
 20
-121.4950818923693
 10
86.20645207263242
 20
-121.3173149653304
 10
86.20645207263242
 20
-121.0951063065318
 10
86.0434990561801
 20
-121.0212090083732
 10
85.91017386090093
 20
-121.0212090083732
 97
        0
 97
        0
 92
        1
 93
        1
 72
     4
 94
        3
 73
     0
 74
     1
 95
       17
 96
       13
 40
0.0
 40
0.0
 40
0.0
 40
0.0
 40
1.0
 40
1.0
 40
1.0
 40
2.0
 40
2.0
 40
2.0
 40
3.0
 40
3.0
 40
3.0
 40
4.0
 40
4.0
 40
4.0
 40
4.0
 10
85.91017386090093
 20
-120.3611287133993
 10
85.74515378715746
 20
-120.3611287133993
 10
85.66057669299458
 20
-120.4562133487922
 10
85.66057669299458
 20
-120.5916056013625
 10
85.66057669299458
 20
-120.7144232554117
 10
85.73257918863631
 20
-120.8329345401043
 10
85.91017386090093
 20
-120.8329345401043
 10
86.08794078793983
 20
-120.8329345401043
 10
86.15977102880728
 20
-120.7144232554117
 10
86.15977102880728
 20
-120.5916056013625
 10
86.15977102880728
 20
-120.4562133487922
 10
86.07312687735325
 20
-120.3611287133993
 10
85.91017386090093
 20
-120.3611287133993
 97
        0
 97
        0
 75
     2
 76
     1
 98
        0
  0
ENDBLK
  5
5C
330
59
100
AcDbEntity
  8
0
100
AcDbBlockEnd
  0
BLOCK
  5
6F
330
6D
100
AcDbEntity
  8
0
100
AcDbBlockBegin
  2
block 3
 70
     0
 10
0.0
 20
0.0
 30
0.0
  3
block 3
  1

  0
SPLINE
  5
71
330
6D
100
AcDbEntity
  8
_U+30EC_U+30A4_U+30E4_U+30FC 1
370
     0
100
AcDbSpline
210
0.0
220
0.0
230
1.0
 70
    11
 71
     3
 72
    26
 73
    22
 74
     0
 42
0.0000000001
 43
0.0000000001
 12
1.0
 22
0.0
 32
0.0
 13
1.0
 23
0.0
 33
0.0
 40
0.0
 40
0.0
 40
0.0
 40
0.0
 40
1.0
 40
1.0
 40
1.0
 40
2.0
 40
2.0
 40
2.0
 40
3.0
 40
3.0
 40
3.0
 40
4.0
 40
4.0
 40
4.0
 40
5.0
 40
5.0
 40
5.0
 40
6.0
 40
6.0
 40
6.0
 40
7.0
 40
7.0
 40
7.0
 40
7.0
 10
90.19518362545467
 20
-135.335408494812
 30
0.0
 10
90.19518362545467
 20
-135.335408494812
 30
0.0
 10
90.19518362545467
 20
-134.2312553917894
 30
0.0
 10
90.19518362545467
 20
-134.2312553917894
 30
0.0
 10
90.19518362545467
 20
-134.2312553917894
 30
0.0
 10
89.86514347796775
 20
-134.2312553917894
 30
0.0
 10
89.86514347796775
 20
-134.2312553917894
 30
0.0
 10
89.86514347796775
 20
-134.2312553917894
 30
0.0
 10
89.86514347796775
 20
-134.0831162859237
 30
0.0
 10
89.86514347796775
 20
-134.0831162859237
 30
0.0
 10
90.19725068274583
 20
-134.0683023753371
 30
0.0
 10
90.24375947179671
 20
-133.9053493588848
 30
0.0
 10
90.27338729296986
 20
-133.7909721887745
 30
0.0
 10
90.27338729296986
 20
-133.7909721887745
 30
0.0
 10
90.41945934154444
 20
-133.7909721887745
 30
0.0
 10
90.41945934154444
 20
-133.7909721887745
 30
0.0
 10
90.41945934154444
 20
-133.7909721887745
 30
0.0
 10
90.41945934154444
 20
-135.335408494812
 30
0.0
 10
90.41945934154444
 20
-135.335408494812
 30
0.0
 10
90.41945934154444
 20
-135.335408494812
 30
0.0
 10
90.19518362545467
 20
-135.335408494812
 30
0.0
 10
90.19518362545467
 20
-135.335408494812
 30
0.0
  0
HATCH
  5
72
330
6D
100
AcDbEntity
  8
_U+30EC_U+30A4_U+30E4_U+30FC 1
 62
     7
420
 16777215
100
AcDbHatch
 10
0.0
 20
0.0
 30
0.0
210
0.0
220
0.0
230
1.0
  2
SOLID
 70
     1
 71
     0
 91
        1
 92
        1
 93
        1
 72
     4
 94
        3
 73
     0
 74
     1
 95
       26
 96
       22
 40
0.0
 40
0.0
 40
0.0
 40
0.0
 40
1.0
 40
1.0
 40
1.0
 40
2.0
 40
2.0
 40
2.0
 40
3.0
 40
3.0
 40
3.0
 40
4.0
 40
4.0
 40
4.0
 40
5.0
 40
5.0
 40
5.0
 40
6.0
 40
6.0
 40
6.0
 40
7.0
 40
7.0
 40
7.0
 40
7.0
 10
90.19518362545467
 20
-135.335408494812
 10
90.19518362545467
 20
-135.335408494812
 10
90.19518362545467
 20
-134.2312553917894
 10
90.19518362545467
 20
-134.2312553917894
 10
90.19518362545467
 20
-134.2312553917894
 10
89.86514347796775
 20
-134.2312553917894
 10
89.86514347796775
 20
-134.2312553917894
 10
89.86514347796775
 20
-134.2312553917894
 10
89.86514347796775
 20
-134.0831162859237
 10
89.86514347796775
 20
-134.0831162859237
 10
90.19725068274583
 20
-134.0683023753371
 10
90.24375947179671
 20
-133.9053493588848
 10
90.27338729296986
 20
-133.7909721887745
 10
90.27338729296986
 20
-133.7909721887745
 10
90.41945934154444
 20
-133.7909721887745
 10
90.41945934154444
 20
-133.7909721887745
 10
90.41945934154444
 20
-133.7909721887745
 10
90.41945934154444
 20
-135.335408494812
 10
90.41945934154444
 20
-135.335408494812
 10
90.41945934154444
 20
-135.335408494812
 10
90.19518362545467
 20
-135.335408494812
 10
90.19518362545467
 20
-135.335408494812
 97
        0
 97
        0
 75
     2
 76
     1
 98
        0
  0
SPLINE
  5
73
330
6D
100
AcDbEntity
  8
_U+30EC_U+30A4_U+30E4_U+30FC 1
370
     0
100
AcDbSpline
210
0.0
220
0.0
230
1.0
 70
    11
 71
     3
 72
    29
 73
    25
 74
     0
 42
0.0000000001
 43
0.0000000001
 12
1.0
 22
0.0
 32
0.0
 13
1.0
 23
0.0
 33
0.0
 40
0.0
 40
0.0
 40
0.0
 40
0.0
 40
1.0
 40
1.0
 40
1.0
 40
2.0
 40
2.0
 40
2.0
 40
3.0
 40
3.0
 40
3.0
 40
4.0
 40
4.0
 40
4.0
 40
5.0
 40
5.0
 40
5.0
 40
6.0
 40
6.0
 40
6.0
 40
7.0
 40
7.0
 40
7.0
 40
8.0
 40
8.0
 40
8.0
 40
8.0
 10
91.42077634433231
 20
-135.3860513984451
 30
0.0
 10
91.15395369899971
 20
-135.3860513984451
 30
0.0
 10
90.90039467128533
 20
-135.2485920885837
 30
0.0
 10
90.90039467128533
 20
-134.8996039159279
 30
0.0
 10
90.90039467128533
 20
-134.6436333213738
 30
0.0
 10
91.0419880957291
 20
-134.5485486859809
 30
0.0
 10
91.14775252712626
 20
-134.4872259863435
 30
0.0
 10
91.02304007056021
 20
-134.4279703439972
 30
0.0
 10
90.9469034603362
 20
-134.3135931738869
 30
0.0
 10
90.9469034603362
 20
-134.1527072147257
 30
0.0
 10
90.9469034603362
 20
-133.8777885950028
 30
0.0
 10
91.14568546983512
 20
-133.7423963424325
 30
0.0
 10
91.42077634433231
 20
-133.7423963424325
 30
0.0
 10
91.70430770276838
 20
-133.7423963424325
 30
0.0
 10
91.89482148310269
 20
-133.8864013337159
 30
0.0
 10
91.89482148310269
 20
-134.1527072147257
 30
0.0
 10
91.89482148310269
 20
-134.3135931738869
 30
0.0
 10
91.816273306039
 20
-134.4279703439972
 30
0.0
 10
91.69156084947295
 20
-134.4872259863435
 30
0.0
 10
91.78044431299239
 20
-134.5378688899766
 30
0.0
 10
91.93926321486241
 20
-134.6329535253695
 30
0.0
 10
91.93926321486241
 20
-134.8954698013456
 30
0.0
 10
91.93926321486241
 20
-135.2699516805922
 30
0.0
 10
91.65986597100864
 20
-135.3860513984451
 30
0.0
 10
91.42077634433231
 20
-135.3860513984451
 30
0.0
  0
SPLINE
  5
74
330
6D
100
AcDbEntity
  8
_U+30EC_U+30A4_U+30E4_U+30FC 1
370
     0
100
AcDbSpline
210
0.0
220
0.0
230
1.0
 70
    11
 71
     3
 72
    17
 73
    13
 74
     0
 42
0.0000000001
 43
0.0000000001
 12
1.0
 22
0.0
 32
0.0
 13
1.0
 23
0.0
 33
0.0
 40
0.0
 40
0.0
 40
0.0
 40
0.0
 40
1.0
 40
1.0
 40
1.0
 40
2.0
 40
2.0
 40
2.0
 40
3.0
 40
3.0
 40
3.0
 40
4.0
 40
4.0
 40
4.0
 40
4.0
 10
91.42077634433231
 20
-134.5950574750318
 30
0.0
 10
91.27694360782313
 20
-134.5950574750318
 30
0.0
 10
91.12432587782656
 20
-134.6818738812601
 30
0.0
 10
91.12432587782656
 20
-134.8847900053413
 30
0.0
 10
91.12432587782656
 20
-135.0901176962622
 30
0.0
 10
91.25144990123228
 20
-135.1914035035285
 30
0.0
 10
91.42077634433231
 20
-135.1914035035285
 30
0.0
 10
91.6068115005358
 20
-135.1914035035285
 30
0.0
 10
91.7170545560638
 20
-135.0687581042536
 30
0.0
 10
91.7170545560638
 20
-134.8909911772148
 30
0.0
 10
91.7170545560638
 20
-134.6691270279647
 30
0.0
 10
91.55410153961148
 20
-134.5950574750318
 30
0.0
 10
91.42077634433231
 20
-134.5950574750318
 30
0.0
  0
SPLINE
  5
75
330
6D
100
AcDbEntity
  8
_U+30EC_U+30A4_U+30E4_U+30FC 1
370
     0
100
AcDbSpline
210
0.0
220
0.0
230
1.0
 70
    11
 71
     3
 72
    17
 73
    13
 74
     0
 42
0.0000000001
 43
0.0000000001
 12
1.0
 22
0.0
 32
0.0
 13
1.0
 23
0.0
 33
0.0
 40
0.0
 40
0.0
 40
0.0
 40
0.0
 40
1.0
 40
1.0
 40
1.0
 40
2.0
 40
2.0
 40
2.0
 40
3.0
 40
3.0
 40
3.0
 40
4.0
 40
4.0
 40
4.0
 40
4.0
 10
91.42077634433231
 20
-133.9349771800579
 30
0.0
 10
91.25558401581458
 20
-133.9349771800579
 30
0.0
 10
91.17117917642597
 20
-134.0300618154508
 30
0.0
 10
91.17117917642597
 20
-134.1654540680211
 30
0.0
 10
91.17117917642597
 20
-134.288099467296
 30
0.0
 10
91.24283716251915
 20
-134.4066107519886
 30
0.0
 10
91.42077634433231
 20
-134.4066107519886
 30
0.0
 10
91.5985432713712
 20
-134.4066107519886
 30
0.0
 10
91.67054576701292
 20
-134.288099467296
 30
0.0
 10
91.67054576701292
 20
-134.1654540680211
 30
0.0
 10
91.67054576701292
 20
-134.0300618154508
 30
0.0
 10
91.58372936078463
 20
-133.9349771800579
 30
0.0
 10
91.42077634433231
 20
-133.9349771800579
 30
0.0
  0
HATCH
  5
76
330
6D
100
AcDbEntity
  8
_U+30EC_U+30A4_U+30E4_U+30FC 1
 62
     7
420
 16777215
100
AcDbHatch
 10
0.0
 20
0.0
 30
0.0
210
0.0
220
0.0
230
1.0
  2
SOLID
 70
     1
 71
     0
 91
        3
 92
        1
 93
        1
 72
     4
 94
        3
 73
     0
 74
     1
 95
       29
 96
       25
 40
0.0
 40
0.0
 40
0.0
 40
0.0
 40
1.0
 40
1.0
 40
1.0
 40
2.0
 40
2.0
 40
2.0
 40
3.0
 40
3.0
 40
3.0
 40
4.0
 40
4.0
 40
4.0
 40
5.0
 40
5.0
 40
5.0
 40
6.0
 40
6.0
 40
6.0
 40
7.0
 40
7.0
 40
7.0
 40
8.0
 40
8.0
 40
8.0
 40
8.0
 10
91.42077634433231
 20
-135.3860513984451
 10
91.15395369899971
 20
-135.3860513984451
 10
90.90039467128533
 20
-135.2485920885837
 10
90.90039467128533
 20
-134.8996039159279
 10
90.90039467128533
 20
-134.6436333213738
 10
91.0419880957291
 20
-134.5485486859809
 10
91.14775252712626
 20
-134.4872259863435
 10
91.02304007056021
 20
-134.4279703439972
 10
90.9469034603362
 20
-134.3135931738869
 10
90.9469034603362
 20
-134.1527072147257
 10
90.9469034603362
 20
-133.8777885950028
 10
91.14568546983512
 20
-133.7423963424325
 10
91.42077634433231
 20
-133.7423963424325
 10
91.70430770276838
 20
-133.7423963424325
 10
91.89482148310269
 20
-133.8864013337159
 10
91.89482148310269
 20
-134.1527072147257
 10
91.89482148310269
 20
-134.3135931738869
 10
91.816273306039
 20
-134.4279703439972
 10
91.69156084947295
 20
-134.4872259863435
 10
91.78044431299239
 20
-134.5378688899766
 10
91.93926321486241
 20
-134.6329535253695
 10
91.93926321486241
 20
-134.8954698013456
 10
91.93926321486241
 20
-135.2699516805922
 10
91.65986597100864
 20
-135.3860513984451
 10
91.42077634433231
 20
-135.3860513984451
 97
        0
 97
        0
 92
        1
 93
        1
 72
     4
 94
        3
 73
     0
 74
     1
 95
       17
 96
       13
 40
0.0
 40
0.0
 40
0.0
 40
0.0
 40
1.0
 40
1.0
 40
1.0
 40
2.0
 40
2.0
 40
2.0
 40
3.0
 40
3.0
 40
3.0
 40
4.0
 40
4.0
 40
4.0
 40
4.0
 10
91.42077634433231
 20
-134.5950574750318
 10
91.27694360782313
 20
-134.5950574750318
 10
91.12432587782656
 20
-134.6818738812601
 10
91.12432587782656
 20
-134.8847900053413
 10
91.12432587782656
 20
-135.0901176962622
 10
91.25144990123228
 20
-135.1914035035285
 10
91.42077634433231
 20
-135.1914035035285
 10
91.6068115005358
 20
-135.1914035035285
 10
91.7170545560638
 20
-135.0687581042536
 10
91.7170545560638
 20
-134.8909911772148
 10
91.7170545560638
 20
-134.6691270279647
 10
91.55410153961148
 20
-134.5950574750318
 10
91.42077634433231
 20
-134.5950574750318
 97
        0
 97
        0
 92
        1
 93
        1
 72
     4
 94
        3
 73
     0
 74
     1
 95
       17
 96
       13
 40
0.0
 40
0.0
 40
0.0
 40
0.0
 40
1.0
 40
1.0
 40
1.0
 40
2.0
 40
2.0
 40
2.0
 40
3.0
 40
3.0
 40
3.0
 40
4.0
 40
4.0
 40
4.0
 40
4.0
 10
91.42077634433231
 20
-133.9349771800579
 10
91.25558401581458
 20
-133.9349771800579
 10
91.17117917642597
 20
-134.0300618154508
 10
91.17117917642597
 20
-134.1654540680211
 10
91.17117917642597
 20
-134.288099467296
 10
91.24283716251915
 20
-134.4066107519886
 10
91.42077634433231
 20
-134.4066107519886
 10
91.5985432713712
 20
-134.4066107519886
 10
91.67054576701292
 20
-134.288099467296
 10
91.67054576701292
 20
-134.1654540680211
 10
91.67054576701292
 20
-134.0300618154508
 10
91.58372936078463
 20
-133.9349771800579
 10
91.42077634433231
 20
-133.9349771800579
 97
        0
 97
        0
 75
     2
 76
     1
 98
        0
  0
ENDBLK
  5
70
330
6D
100
AcDbEntity
  8
0
100
AcDbBlockEnd
  0
BLOCK
  5
89
330
87
100
AcDbEntity
  8
0
100
AcDbBlockBegin
  2
block 4
 70
     0
 10
0.0
 20
0.0
 30
0.0
  3
block 4
  1

  0
SPLINE
  5
8B
330
87
100
AcDbEntity
  8
_U+30EC_U+30A4_U+30E4_U+30FC 1
370
     0
100
AcDbSpline
210
0.0
220
0.0
230
1.0
 70
    11
 71
     3
 72
    29
 73
    25
 74
     0
 42
0.0000000001
 43
0.0000000001
 12
1.0
 22
0.0
 32
0.0
 13
1.0
 23
0.0
 33
0.0
 40
0.0
 40
0.0
 40
0.0
 40
0.0
 40
1.0
 40
1.0
 40
1.0
 40
2.0
 40
2.0
 40
2.0
 40
3.0
 40
3.0
 40
3.0
 40
4.0
 40
4.0
 40
4.0
 40
5.0
 40
5.0
 40
5.0
 40
6.0
 40
6.0
 40
6.0
 40
7.0
 40
7.0
 40
7.0
 40
8.0
 40
8.0
 40
8.0
 40
8.0
 10
102.7816677260407
 20
-133.5849554787565
 30
0.0
 10
102.9911295315439
 20
-133.6931314769934
 30
0.0
 10
103.0100775567128
 20
-133.8664197799015
 30
0.0
 10
103.0100775567128
 20
-133.9828640073029
 30
0.0
 10
103.0100775567128
 20
-134.1437499664641
 30
0.0
 10
102.9635687676619
 20
-134.2853433909078
 30
0.0
 10
102.7816677260407
 20
-134.3804280263007
 30
0.0
 10
102.5870198311241
 20
-134.4841254004068
 30
0.0
 10
102.3499972617389
 20
-134.5034179351242
 30
0.0
 10
102.1873887548351
 20
-134.5034179351242
 30
0.0
 10
102.0433837635517
 20
-134.5034179351242
 30
0.0
 10
101.7915472835799
 20
-134.4861924576979
 30
0.0
 10
101.592765274081
 20
-134.3804280263007
 30
0.0
 10
101.3898491499998
 20
-134.2725965376124
 30
0.0
 10
101.3664225007001
 20
-134.1117105784512
 30
0.0
 10
101.3664225007001
 20
-133.9828640073029
 30
0.0
 10
101.3664225007001
 20
-133.8240451054329
 30
0.0
 10
101.4108642324598
 20
-133.680384623698
 30
0.0
 10
101.592765274081
 20
-133.5849554787565
 30
0.0
 10
101.7853461117064
 20
-133.4857367287813
 30
0.0
 10
102.0137559423785
 20
-133.4623100794817
 30
0.0
 10
102.1873887548351
 20
-133.4623100794817
 30
0.0
 10
102.358610000452
 20
-133.4623100794817
 30
0.0
 10
102.5890868884152
 20
-133.4836696714902
 30
0.0
 10
102.7816677260407
 20
-133.5849554787565
 30
0.0
  0
SPLINE
  5
8C
330
87
100
AcDbEntity
  8
_U+30EC_U+30A4_U+30E4_U+30FC 1
370
     0
100
AcDbSpline
210
0.0
220
0.0
230
1.0
 70
    11
 71
     3
 72
    17
 73
    13
 74
     0
 42
0.0000000001
 43
0.0000000001
 12
1.0
 22
0.0
 32
0.0
 13
1.0
 23
0.0
 33
0.0
 40
0.0
 40
0.0
 40
0.0
 40
0.0
 40
1.0
 40
1.0
 40
1.0
 40
2.0
 40
2.0
 40
2.0
 40
3.0
 40
3.0
 40
3.0
 40
4.0
 40
4.0
 40
4.0
 40
4.0
 10
101.5590033383255
 20
-133.9828640073029
 30
0.0
 10
101.5590033383255
 20
-134.2326334299835
 30
0.0
 10
101.8425346967616
 20
-134.2791422190344
 30
0.0
 10
102.1873887548351
 20
-134.2791422190344
 30
0.0
 10
102.5067491063178
 20
-134.2791422190344
 30
0.0
 10
102.8154296617961
 20
-134.2429687164393
 30
0.0
 10
102.8154296617961
 20
-133.9828640073029
 30
0.0
 10
102.8154296617961
 20
-133.7351616419134
 30
0.0
 10
102.5343098701998
 20
-133.6865857955714
 30
0.0
 10
102.1873887548351
 20
-133.6865857955714
 30
0.0
 10
101.8676838938039
 20
-133.6865857955714
 30
0.0
 10
101.5590033383255
 20
-133.7248263554577
 30
0.0
 10
101.5590033383255
 20
-133.9828640073029
 30
0.0
  0
HATCH
  5
8D
330
87
100
AcDbEntity
  8
_U+30EC_U+30A4_U+30E4_U+30FC 1
 62
     7
420
 16777215
100
AcDbHatch
 10
0.0
 20
0.0
 30
0.0
210
0.0
220
0.0
230
1.0
  2
SOLID
 70
     1
 71
     0
 91
        2
 92
        1
 93
        1
 72
     4
 94
        3
 73
     0
 74
     1
 95
       29
 96
       25
 40
0.0
 40
0.0
 40
0.0
 40
0.0
 40
1.0
 40
1.0
 40
1.0
 40
2.0
 40
2.0
 40
2.0
 40
3.0
 40
3.0
 40
3.0
 40
4.0
 40
4.0
 40
4.0
 40
5.0
 40
5.0
 40
5.0
 40
6.0
 40
6.0
 40
6.0
 40
7.0
 40
7.0
 40
7.0
 40
8.0
 40
8.0
 40
8.0
 40
8.0
 10
102.7816677260407
 20
-133.5849554787565
 10
102.9911295315439
 20
-133.6931314769934
 10
103.0100775567128
 20
-133.8664197799015
 10
103.0100775567128
 20
-133.9828640073029
 10
103.0100775567128
 20
-134.1437499664641
 10
102.9635687676619
 20
-134.2853433909078
 10
102.7816677260407
 20
-134.3804280263007
 10
102.5870198311241
 20
-134.4841254004068
 10
102.3499972617389
 20
-134.5034179351242
 10
102.1873887548351
 20
-134.5034179351242
 10
102.0433837635517
 20
-134.5034179351242
 10
101.7915472835799
 20
-134.4861924576979
 10
101.592765274081
 20
-134.3804280263007
 10
101.3898491499998
 20
-134.2725965376124
 10
101.3664225007001
 20
-134.1117105784512
 10
101.3664225007001
 20
-133.9828640073029
 10
101.3664225007001
 20
-133.8240451054329
 10
101.4108642324598
 20
-133.680384623698
 10
101.592765274081
 20
-133.5849554787565
 10
101.7853461117064
 20
-133.4857367287813
 10
102.0137559423785
 20
-133.4623100794817
 10
102.1873887548351
 20
-133.4623100794817
 10
102.358610000452
 20
-133.4623100794817
 10
102.5890868884152
 20
-133.4836696714902
 10
102.7816677260407
 20
-133.5849554787565
 97
        0
 97
        0
 92
        1
 93
        1
 72
     4
 94
        3
 73
     0
 74
     1
 95
       17
 96
       13
 40
0.0
 40
0.0
 40
0.0
 40
0.0
 40
1.0
 40
1.0
 40
1.0
 40
2.0
 40
2.0
 40
2.0
 40
3.0
 40
3.0
 40
3.0
 40
4.0
 40
4.0
 40
4.0
 40
4.0
 10
101.5590033383255
 20
-133.9828640073029
 10
101.5590033383255
 20
-134.2326334299835
 10
101.8425346967616
 20
-134.2791422190344
 10
102.1873887548351
 20
-134.2791422190344
 10
102.5067491063178
 20
-134.2791422190344
 10
102.8154296617961
 20
-134.2429687164393
 10
102.8154296617961
 20
-133.9828640073029
 10
102.8154296617961
 20
-133.7351616419134
 10
102.5343098701998
 20
-133.6865857955714
 10
102.1873887548351
 20
-133.6865857955714
 10
101.8676838938039
 20
-133.6865857955714
 10
101.5590033383255
 20
-133.7248263554577
 10
101.5590033383255
 20
-133.9828640073029
 97
        0
 97
        0
 75
     2
 76
     1
 98
        0
  0
POLYLINE
  5
8E
330
87
100
AcDbEntity
  8
_U+30EC_U+30A4_U+30E4_U+30FC 1
370
     0
100
AcDb2dPolyline
 66
     1
 10
0.0
 20
0.0
 30
0.0
  0
VERTEX
  5
8F
330
8E
100
AcDbEntity
  8
_U+30EC_U+30A4_U+30E4_U+30FC 1
370
     0
100
AcDbVertex
100
AcDb2dVertex
 10
102.9594346530796
 20
-133.245958083008
 30
0.0
  0
VERTEX
  5
90
330
8E
100
AcDbEntity
  8
_U+30EC_U+30A4_U+30E4_U+30FC 1
370
     0
100
AcDbVertex
100
AcDb2dVertex
 10
102.7075981731078
 20
-133.245958083008
 30
0.0
  0
VERTEX
  5
91
330
8E
100
AcDbEntity
  8
_U+30EC_U+30A4_U+30E4_U+30FC 1
370
     0
100
AcDbVertex
100
AcDb2dVertex
 10
102.7075981731078
 20
-132.9941216030362
 30
0.0
  0
VERTEX
  5
92
330
8E
100
AcDbEntity
  8
_U+30EC_U+30A4_U+30E4_U+30FC 1
370
     0
100
AcDbVertex
100
AcDb2dVertex
 10
102.9594346530796
 20
-132.9941216030362
 30
0.0
  0
VERTEX
  5
93
330
8E
100
AcDbEntity
  8
_U+30EC_U+30A4_U+30E4_U+30FC 1
370
     0
100
AcDbVertex
100
AcDb2dVertex
 10
102.9594346530796
 20
-133.245958083008
 30
0.0
  0
SEQEND
  5
94
330
8E
100
AcDbEntity
  8
_U+30EC_U+30A4_U+30E4_U+30FC 1
370
     0
  0
HATCH
  5
95
330
87
100
AcDbEntity
  8
_U+30EC_U+30A4_U+30E4_U+30FC 1
 62
     7
420
 16777215
100
AcDbHatch
 10
0.0
 20
0.0
 30
0.0
210
0.0
220
0.0
230
1.0
  2
SOLID
 70
     1
 71
     0
 91
        1
 92
        1
 93
        4
 72
     1
 10
102.9594346530796
 20
-133.245958083008
 11
102.7075981731078
 21
-133.245958083008
 72
     1
 10
102.7075981731078
 20
-133.245958083008
 11
102.7075981731078
 21
-132.9941216030362
 72
     1
 10
102.7075981731078
 20
-132.9941216030362
 11
102.9594346530796
 21
-132.9941216030362
 72
     1
 10
102.9594346530796
 20
-132.9941216030362
 11
102.9594346530796
 21
-133.245958083008
 97
        0
 75
     2
 76
     1
 98
        0
  0
SPLINE
  5
96
330
87
100
AcDbEntity
  8
_U+30EC_U+30A4_U+30E4_U+30FC 1
370
     0
100
AcDbSpline
210
0.0
220
0.0
230
1.0
 70
    11
 71
     3
 72
    26
 73
    22
 74
     0
 42
0.0000000001
 43
0.0000000001
 12
1.0
 22
0.0
 32
0.0
 13
1.0
 23
0.0
 33
0.0
 40
0.0
 40
0.0
 40
0.0
 40
0.0
 40
1.0
 40
1.0
 40
1.0
 40
2.0
 40
2.0
 40
2.0
 40
3.0
 40
3.0
 40
3.0
 40
4.0
 40
4.0
 40
4.0
 40
5.0
 40
5.0
 40
5.0
 40
6.0
 40
6.0
 40
6.0
 40
7.0
 40
7.0
 40
7.0
 40
7.0
 10
102.9594346530796
 20
-132.3467881613578
 30
0.0
 10
102.9594346530796
 20
-132.3467881613578
 30
0.0
 10
102.9594346530796
 20
-132.583810730743
 30
0.0
 10
102.9594346530796
 20
-132.583810730743
 30
0.0
 10
102.6504095880527
 20
-132.5583170241521
 30
0.0
 10
102.1322672270711
 20
-132.3657361865266
 30
0.0
 10
101.6265272098364
 20
-131.9595594288157
 30
0.0
 10
101.6265272098364
 20
-131.9595594288157
 30
0.0
 10
101.6265272098364
 20
-132.7974066508284
 30
0.0
 10
101.6265272098364
 20
-132.7974066508284
 30
0.0
 10
101.6265272098364
 20
-132.7974066508284
 30
0.0
 10
101.4149983470421
 20
-132.7974066508284
 30
0.0
 10
101.4149983470421
 20
-132.7974066508284
 30
0.0
 10
101.4149983470421
 20
-132.7974066508284
 30
0.0
 10
101.4149983470421
 20
-131.7225368594305
 30
0.0
 10
101.4149983470421
 20
-131.7225368594305
 30
0.0
 10
101.4149983470421
 20
-131.7225368594305
 30
0.0
 10
101.6265272098364
 20
-131.7225368594305
 30
0.0
 10
101.6265272098364
 20
-131.7225368594305
 30
0.0
 10
101.9166042496945
 20
-132.046375835044
 30
0.0
 10
102.5088161636089
 20
-132.3130262256023
 30
0.0
 10
102.9594346530796
 20
-132.3467881613578
 30
0.0
  0
HATCH
  5
97
330
87
100
AcDbEntity
  8
_U+30EC_U+30A4_U+30E4_U+30FC 1
 62
     7
420
 16777215
100
AcDbHatch
 10
0.0
 20
0.0
 30
0.0
210
0.0
220
0.0
230
1.0
  2
SOLID
 70
     1
 71
     0
 91
        1
 92
        1
 93
        1
 72
     4
 94
        3
 73
     0
 74
     1
 95
       26
 96
       22
 40
0.0
 40
0.0
 40
0.0
 40
0.0
 40
1.0
 40
1.0
 40
1.0
 40
2.0
 40
2.0
 40
2.0
 40
3.0
 40
3.0
 40
3.0
 40
4.0
 40
4.0
 40
4.0
 40
5.0
 40
5.0
 40
5.0
 40
6.0
 40
6.0
 40
6.0
 40
7.0
 40
7.0
 40
7.0
 40
7.0
 10
102.9594346530796
 20
-132.3467881613578
 10
102.9594346530796
 20
-132.3467881613578
 10
102.9594346530796
 20
-132.583810730743
 10
102.9594346530796
 20
-132.583810730743
 10
102.6504095880527
 20
-132.5583170241521
 10
102.1322672270711
 20
-132.3657361865266
 10
101.6265272098364
 20
-131.9595594288157
 10
101.6265272098364
 20
-131.9595594288157
 10
101.6265272098364
 20
-132.7974066508284
 10
101.6265272098364
 20
-132.7974066508284
 10
101.6265272098364
 20
-132.7974066508284
 10
101.4149983470421
 20
-132.7974066508284
 10
101.4149983470421
 20
-132.7974066508284
 10
101.4149983470421
 20
-132.7974066508284
 10
101.4149983470421
 20
-131.7225368594305
 10
101.4149983470421
 20
-131.7225368594305
 10
101.4149983470421
 20
-131.7225368594305
 10
101.6265272098364
 20
-131.7225368594305
 10
101.6265272098364
 20
-131.7225368594305
 10
101.9166042496945
 20
-132.046375835044
 10
102.5088161636089
 20
-132.3130262256023
 10
102.9594346530796
 20
-132.3467881613578
 97
        0
 97
        0
 75
     2
 76
     1
 98
        0
  0
ENDBLK
  5
8A
330
87
100
AcDbEntity
  8
0
100
AcDbBlockEnd
  0
BLOCK
  5
AA
330
A8
100
AcDbEntity
  8
0
100
AcDbBlockBegin
  2
block 5
 70
     0
 10
0.0
 20
0.0
 30
0.0
  3
block 5
  1

  0
SPLINE
  5
AC
330
A8
100
AcDbEntity
  8
_U+30EC_U+30A4_U+30E4_U+30FC 1
370
     0
100
AcDbSpline
210
0.0
220
0.0
230
1.0
 70
    11
 71
     3
 72
    62
 73
    58
 74
     0
 42
0.0000000001
 43
0.0000000001
 12
1.0
 22
0.0
 32
0.0
 13
1.0
 23
0.0
 33
0.0
 40
0.0
 40
0.0
 40
0.0
 40
0.0
 40
1.0
 40
1.0
 40
1.0
 40
2.0
 40
2.0
 40
2.0
 40
3.0
 40
3.0
 40
3.0
 40
4.0
 40
4.0
 40
4.0
 40
5.0
 40
5.0
 40
5.0
 40
6.0
 40
6.0
 40
6.0
 40
7.0
 40
7.0
 40
7.0
 40
8.0
 40
8.0
 40
8.0
 40
9.0
 40
9.0
 40
9.0
 40
10.0
 40
10.0
 40
10.0
 40
11.0
 40
11.0
 40
11.0
 40
12.0
 40
12.0
 40
12.0
 40
13.0
 40
13.0
 40
13.0
 40
14.0
 40
14.0
 40
14.0
 40
15.0
 40
15.0
 40
15.0
 40
16.0
 40
16.0
 40
16.0
 40
17.0
 40
17.0
 40
17.0
 40
18.0
 40
18.0
 40
18.0
 40
19.0
 40
19.0
 40
19.0
 40
19.0
 10
103.3628553344023
 20
-129.9431450412989
 30
0.0
 10
103.3628553344023
 20
-130.0385741862404
 30
0.0
 10
103.3418402519423
 20
-130.2563042209082
 30
0.0
 10
103.1558050957388
 20
-130.3813611870227
 30
0.0
 10
103.0434949829197
 20
-130.4554307399556
 30
0.0
 10
102.9442762329445
 20
-130.4595648545379
 30
0.0
 10
102.8595268840074
 20
-130.4636989691202
 30
0.0
 10
102.8595268840074
 20
-130.4636989691202
 30
0.0
 10
102.8595268840074
 20
-130.2435573676127
 30
0.0
 10
102.8595268840074
 20
-130.2435573676127
 30
0.0
 10
102.9335964369402
 20
-130.2414903103216
 30
0.0
 10
103.1682074394857
 20
-130.2311550238658
 30
0.0
 10
103.1682074394857
 20
-129.9476236654298
 30
0.0
 10
103.1682074394857
 20
-129.8101643555683
 30
0.0
 10
103.0986165106837
 20
-129.6575466255717
 30
0.0
 10
102.8702066800116
 20
-129.6575466255717
 30
0.0
 10
102.7537624526102
 20
-129.6575466255717
 30
0.0
 10
102.7051866062682
 20
-129.695787185458
 30
0.0
 10
102.6734917278038
 20
-129.7274820639223
 30
0.0
 10
102.599422174871
 20
-129.8015516168552
 30
0.0
 10
102.5866753215756
 20
-129.9179958442566
 30
0.0
 10
102.5866753215756
 20
-129.9727728624721
 30
0.0
 10
102.5866753215756
 20
-129.9920653971895
 30
0.0
 10
102.5887423788667
 20
-130.0278943902361
 30
0.0
 10
102.592876493449
 20
-130.0554551541181
 30
0.0
 10
102.592876493449
 20
-130.0554551541181
 30
0.0
 10
102.3982285985324
 20
-130.0554551541181
 30
0.0
 10
102.3982285985324
 20
-130.0554551541181
 30
0.0
 10
102.4047742799544
 20
-130.0172145942318
 30
0.0
 10
102.4068413372455
 20
-129.9751844293118
 30
0.0
 10
102.4068413372455
 20
-129.9686387478898
 30
0.0
 10
102.4068413372455
 20
-129.9031819336701
 30
0.0
 10
102.385481745237
 20
-129.7043999241711
 30
0.0
 10
102.1488036854003
 20
-129.7043999241711
 30
0.0
 10
101.9710367583614
 20
-129.7043999241711
 30
0.0
 10
101.9159152305974
 20
-129.8353135526106
 30
0.0
 10
101.9159152305974
 20
-129.9455566081386
 30
0.0
 10
101.9159152305974
 20
-130.2097954318573
 30
0.0
 10
102.1488036854003
 20
-130.2184081705704
 30
0.0
 10
102.2204616714935
 20
-130.2225422851527
 30
0.0
 10
102.2204616714935
 20
-130.2225422851527
 30
0.0
 10
102.2204616714935
 20
-130.4258029187824
 30
0.0
 10
102.2204616714935
 20
-130.4258029187824
 30
0.0
 10
102.0957492149275
 20
-130.4171901800693
 30
0.0
 10
101.7192002783896
 20
-130.3896294161873
 30
0.0
 10
101.7192002783896
 20
-129.9328097548432
 30
0.0
 10
101.7192002783896
 20
-129.7085340387534
 30
0.0
 10
101.8463243017954
 20
-129.467377354786
 30
0.0
 10
102.1422580039783
 20
-129.467377354786
 30
0.0
 10
102.3286376697303
 20
-129.467377354786
 30
0.0
 10
102.4109754518278
 20
-129.5624619901788
 30
0.0
 10
102.4722981514653
 20
-129.6620252497026
 30
0.0
 10
102.4998589153473
 20
-129.6007025500651
 30
0.0
 10
102.5801296401536
 20
-129.4188015084439
 30
0.0
 10
102.8574598267162
 20
-129.4188015084439
 30
0.0
 10
103.1957682033677
 20
-129.4188015084439
 30
0.0
 10
103.3628553344023
 20
-129.6661593642849
 30
0.0
 10
103.3628553344023
 20
-129.9431450412989
 30
0.0
  0
HATCH
  5
AD
330
A8
100
AcDbEntity
  8
_U+30EC_U+30A4_U+30E4_U+30FC 1
 62
     7
420
 16777215
100
AcDbHatch
 10
0.0
 20
0.0
 30
0.0
210
0.0
220
0.0
230
1.0
  2
SOLID
 70
     1
 71
     0
 91
        1
 92
        1
 93
        1
 72
     4
 94
        3
 73
     0
 74
     1
 95
       62
 96
       58
 40
0.0
 40
0.0
 40
0.0
 40
0.0
 40
1.0
 40
1.0
 40
1.0
 40
2.0
 40
2.0
 40
2.0
 40
3.0
 40
3.0
 40
3.0
 40
4.0
 40
4.0
 40
4.0
 40
5.0
 40
5.0
 40
5.0
 40
6.0
 40
6.0
 40
6.0
 40
7.0
 40
7.0
 40
7.0
 40
8.0
 40
8.0
 40
8.0
 40
9.0
 40
9.0
 40
9.0
 40
10.0
 40
10.0
 40
10.0
 40
11.0
 40
11.0
 40
11.0
 40
12.0
 40
12.0
 40
12.0
 40
13.0
 40
13.0
 40
13.0
 40
14.0
 40
14.0
 40
14.0
 40
15.0
 40
15.0
 40
15.0
 40
16.0
 40
16.0
 40
16.0
 40
17.0
 40
17.0
 40
17.0
 40
18.0
 40
18.0
 40
18.0
 40
19.0
 40
19.0
 40
19.0
 40
19.0
 10
103.3628553344023
 20
-129.9431450412989
 10
103.3628553344023
 20
-130.0385741862404
 10
103.3418402519423
 20
-130.2563042209082
 10
103.1558050957388
 20
-130.3813611870227
 10
103.0434949829197
 20
-130.4554307399556
 10
102.9442762329445
 20
-130.4595648545379
 10
102.8595268840074
 20
-130.4636989691202
 10
102.8595268840074
 20
-130.4636989691202
 10
102.8595268840074
 20
-130.2435573676127
 10
102.8595268840074
 20
-130.2435573676127
 10
102.9335964369402
 20
-130.2414903103216
 10
103.1682074394857
 20
-130.2311550238658
 10
103.1682074394857
 20
-129.9476236654298
 10
103.1682074394857
 20
-129.8101643555683
 10
103.0986165106837
 20
-129.6575466255717
 10
102.8702066800116
 20
-129.6575466255717
 10
102.7537624526102
 20
-129.6575466255717
 10
102.7051866062682
 20
-129.695787185458
 10
102.6734917278038
 20
-129.7274820639223
 10
102.599422174871
 20
-129.8015516168552
 10
102.5866753215756
 20
-129.9179958442566
 10
102.5866753215756
 20
-129.9727728624721
 10
102.5866753215756
 20
-129.9920653971895
 10
102.5887423788667
 20
-130.0278943902361
 10
102.592876493449
 20
-130.0554551541181
 10
102.592876493449
 20
-130.0554551541181
 10
102.3982285985324
 20
-130.0554551541181
 10
102.3982285985324
 20
-130.0554551541181
 10
102.4047742799544
 20
-130.0172145942318
 10
102.4068413372455
 20
-129.9751844293118
 10
102.4068413372455
 20
-129.9686387478898
 10
102.4068413372455
 20
-129.9031819336701
 10
102.385481745237
 20
-129.7043999241711
 10
102.1488036854003
 20
-129.7043999241711
 10
101.9710367583614
 20
-129.7043999241711
 10
101.9159152305974
 20
-129.8353135526106
 10
101.9159152305974
 20
-129.9455566081386
 10
101.9159152305974
 20
-130.2097954318573
 10
102.1488036854003
 20
-130.2184081705704
 10
102.2204616714935
 20
-130.2225422851527
 10
102.2204616714935
 20
-130.2225422851527
 10
102.2204616714935
 20
-130.4258029187824
 10
102.2204616714935
 20
-130.4258029187824
 10
102.0957492149275
 20
-130.4171901800693
 10
101.7192002783896
 20
-130.3896294161873
 10
101.7192002783896
 20
-129.9328097548432
 10
101.7192002783896
 20
-129.7085340387534
 10
101.8463243017954
 20
-129.467377354786
 10
102.1422580039783
 20
-129.467377354786
 10
102.3286376697303
 20
-129.467377354786
 10
102.4109754518278
 20
-129.5624619901788
 10
102.4722981514653
 20
-129.6620252497026
 10
102.4998589153473
 20
-129.6007025500651
 10
102.5801296401536
 20
-129.4188015084439
 10
102.8574598267162
 20
-129.4188015084439
 10
103.1957682033677
 20
-129.4188015084439
 10
103.3628553344023
 20
-129.6661593642849
 10
103.3628553344023
 20
-129.9431450412989
 97
        0
 97
        0
 75
     2
 76
     1
 98
        0
  0
POLYLINE
  5
AE
330
A8
100
AcDbEntity
  8
_U+30EC_U+30A4_U+30E4_U+30FC 1
370
     0
100
AcDb2dPolyline
 66
     1
 10
0.0
 20
0.0
 30
0.0
  0
VERTEX
  5
AF
330
AE
100
AcDbEntity
  8
_U+30EC_U+30A4_U+30E4_U+30FC 1
370
     0
100
AcDbVertex
100
AcDb2dVertex
 10
103.3122124307692
 20
-129.1979708878394
 30
0.0
  0
VERTEX
  5
B0
330
AE
100
AcDbEntity
  8
_U+30EC_U+30A4_U+30E4_U+30FC 1
370
     0
100
AcDbVertex
100
AcDb2dVertex
 10
103.0603759507974
 20
-129.1979708878394
 30
0.0
  0
VERTEX
  5
B1
330
AE
100
AcDbEntity
  8
_U+30EC_U+30A4_U+30E4_U+30FC 1
370
     0
100
AcDbVertex
100
AcDb2dVertex
 10
103.0603759507974
 20
-128.9461344078676
 30
0.0
  0
VERTEX
  5
B2
330
AE
100
AcDbEntity
  8
_U+30EC_U+30A4_U+30E4_U+30FC 1
370
     0
100
AcDbVertex
100
AcDb2dVertex
 10
103.3122124307692
 20
-128.9461344078676
 30
0.0
  0
VERTEX
  5
B3
330
AE
100
AcDbEntity
  8
_U+30EC_U+30A4_U+30E4_U+30FC 1
370
     0
100
AcDbVertex
100
AcDb2dVertex
 10
103.3122124307692
 20
-129.1979708878394
 30
0.0
  0
SEQEND
  5
B4
330
AE
100
AcDbEntity
  8
_U+30EC_U+30A4_U+30E4_U+30FC 1
370
     0
  0
HATCH
  5
B5
330
A8
100
AcDbEntity
  8
_U+30EC_U+30A4_U+30E4_U+30FC 1
 62
     7
420
 16777215
100
AcDbHatch
 10
0.0
 20
0.0
 30
0.0
210
0.0
220
0.0
230
1.0
  2
SOLID
 70
     1
 71
     0
 91
        1
 92
        1
 93
        4
 72
     1
 10
103.3122124307692
 20
-129.1979708878394
 11
103.0603759507974
 21
-129.1979708878394
 72
     1
 10
103.0603759507974
 20
-129.1979708878394
 11
103.0603759507974
 21
-128.9461344078676
 72
     1
 10
103.0603759507974
 20
-128.9461344078676
 11
103.3122124307692
 21
-128.9461344078676
 72
     1
 10
103.3122124307692
 20
-128.9461344078676
 11
103.3122124307692
 21
-129.1979708878394
 97
        0
 75
     2
 76
     1
 98
        0
  0
SPLINE
  5
B6
330
A8
100
AcDbEntity
  8
_U+30EC_U+30A4_U+30E4_U+30FC 1
370
     0
100
AcDbSpline
210
0.0
220
0.0
230
1.0
 70
    11
 71
     3
 72
    53
 73
    49
 74
     0
 42
0.0000000001
 43
0.0000000001
 12
1.0
 22
0.0
 32
0.0
 13
1.0
 23
0.0
 33
0.0
 40
0.0
 40
0.0
 40
0.0
 40
0.0
 40
1.0
 40
1.0
 40
1.0
 40
2.0
 40
2.0
 40
2.0
 40
3.0
 40
3.0
 40
3.0
 40
4.0
 40
4.0
 40
4.0
 40
5.0
 40
5.0
 40
5.0
 40
6.0
 40
6.0
 40
6.0
 40
7.0
 40
7.0
 40
7.0
 40
8.0
 40
8.0
 40
8.0
 40
9.0
 40
9.0
 40
9.0
 40
10.0
 40
10.0
 40
10.0
 40
11.0
 40
11.0
 40
11.0
 40
12.0
 40
12.0
 40
12.0
 40
13.0
 40
13.0
 40
13.0
 40
14.0
 40
14.0
 40
14.0
 40
15.0
 40
15.0
 40
15.0
 40
16.0
 40
16.0
 40
16.0
 40
16.0
 10
103.3628553344023
 20
-128.2288655278386
 30
0.0
 10
103.3628553344023
 20
-128.3070691953538
 30
0.0
 10
103.3459743665246
 20
-128.4086995121687
 30
0.0
 10
103.282584609596
 20
-128.5103298289835
 30
0.0
 10
103.1726860636166
 20
-128.6836181318916
 30
0.0
 10
103.0414279256285
 20
-128.7049777239002
 30
0.0
 10
102.9335964369402
 20
-128.723925749069
 30
0.0
 10
102.9335964369402
 20
-128.723925749069
 30
0.0
 10
102.9335964369402
 20
-128.5017170902704
 30
0.0
 10
102.9335964369402
 20
-128.5017170902704
 30
0.0
 10
103.1323784464391
 20
-128.4469400720549
 30
0.0
 10
103.1620062676123
 20
-128.3198160486492
 30
0.0
 10
103.1620062676123
 20
-128.2267984705475
 30
0.0
 10
103.1620062676123
 20
-128.0872721033949
 30
0.0
 10
103.0624430080886
 20
-127.9349988829468
 30
0.0
 10
102.8298990628342
 20
-127.9349988829468
 30
0.0
 10
102.5739284682801
 20
-127.9349988829468
 30
0.0
 10
102.5039930299296
 20
-128.1148328672768
 30
0.0
 10
102.5039930299296
 20
-128.2354112092606
 30
0.0
 10
102.5039930299296
 20
-128.2671060877249
 30
0.0
 10
102.5039930299296
 20
-128.4086995121687
 30
0.0
 10
102.6331841106264
 20
-128.4975829756881
 30
0.0
 10
102.6331841106264
 20
-128.4975829756881
 30
0.0
 10
102.6142360854576
 20
-128.6732828454359
 30
0.0
 10
102.6142360854576
 20
-128.6732828454359
 30
0.0
 10
102.6142360854576
 20
-128.6732828454359
 30
0.0
 10
101.7677761247317
 20
-128.5527045034521
 30
0.0
 10
101.7677761247317
 20
-128.5527045034521
 30
0.0
 10
101.7677761247317
 20
-128.5527045034521
 30
0.0
 10
101.7677761247317
 20
-127.7741129237857
 30
0.0
 10
101.7677761247317
 20
-127.7741129237857
 30
0.0
 10
101.7677761247317
 20
-127.7741129237857
 30
0.0
 10
101.9624240196483
 20
-127.7741129237857
 30
0.0
 10
101.9624240196483
 20
-127.7741129237857
 30
0.0
 10
101.9624240196483
 20
-127.7741129237857
 30
0.0
 10
101.9624240196483
 20
-128.3897514869998
 30
0.0
 10
101.9624240196483
 20
-128.3897514869998
 30
0.0
 10
101.9624240196483
 20
-128.3897514869998
 30
0.0
 10
102.385481745237
 20
-128.4552083012195
 30
0.0
 10
102.385481745237
 20
-128.4552083012195
 30
0.0
 10
102.3517198094815
 20
-128.3938856015821
 30
0.0
 10
102.3114121923041
 20
-128.3115478194846
 30
0.0
 10
102.3114121923041
 20
-128.193036534792
 30
0.0
 10
102.3114121923041
 20
-127.9391329975291
 30
0.0
 10
102.4977918580561
 20
-127.7021104281439
 30
0.0
 10
102.8109510376653
 20
-127.7021104281439
 30
0.0
 10
103.1282443318568
 20
-127.7021104281439
 30
0.0
 10
103.3628553344023
 20
-127.9263861442337
 30
0.0
 10
103.3628553344023
 20
-128.2288655278386
 30
0.0
  0
HATCH
  5
B7
330
A8
100
AcDbEntity
  8
_U+30EC_U+30A4_U+30E4_U+30FC 1
 62
     7
420
 16777215
100
AcDbHatch
 10
0.0
 20
0.0
 30
0.0
210
0.0
220
0.0
230
1.0
  2
SOLID
 70
     1
 71
     0
 91
        1
 92
        1
 93
        1
 72
     4
 94
        3
 73
     0
 74
     1
 95
       53
 96
       49
 40
0.0
 40
0.0
 40
0.0
 40
0.0
 40
1.0
 40
1.0
 40
1.0
 40
2.0
 40
2.0
 40
2.0
 40
3.0
 40
3.0
 40
3.0
 40
4.0
 40
4.0
 40
4.0
 40
5.0
 40
5.0
 40
5.0
 40
6.0
 40
6.0
 40
6.0
 40
7.0
 40
7.0
 40
7.0
 40
8.0
 40
8.0
 40
8.0
 40
9.0
 40
9.0
 40
9.0
 40
10.0
 40
10.0
 40
10.0
 40
11.0
 40
11.0
 40
11.0
 40
12.0
 40
12.0
 40
12.0
 40
13.0
 40
13.0
 40
13.0
 40
14.0
 40
14.0
 40
14.0
 40
15.0
 40
15.0
 40
15.0
 40
16.0
 40
16.0
 40
16.0
 40
16.0
 10
103.3628553344023
 20
-128.2288655278386
 10
103.3628553344023
 20
-128.3070691953538
 10
103.3459743665246
 20
-128.4086995121687
 10
103.282584609596
 20
-128.5103298289835
 10
103.1726860636166
 20
-128.6836181318916
 10
103.0414279256285
 20
-128.7049777239002
 10
102.9335964369402
 20
-128.723925749069
 10
102.9335964369402
 20
-128.723925749069
 10
102.9335964369402
 20
-128.5017170902704
 10
102.9335964369402
 20
-128.5017170902704
 10
103.1323784464391
 20
-128.4469400720549
 10
103.1620062676123
 20
-128.3198160486492
 10
103.1620062676123
 20
-128.2267984705475
 10
103.1620062676123
 20
-128.0872721033949
 10
103.0624430080886
 20
-127.9349988829468
 10
102.8298990628342
 20
-127.9349988829468
 10
102.5739284682801
 20
-127.9349988829468
 10
102.5039930299296
 20
-128.1148328672768
 10
102.5039930299296
 20
-128.2354112092606
 10
102.5039930299296
 20
-128.2671060877249
 10
102.5039930299296
 20
-128.4086995121687
 10
102.6331841106264
 20
-128.4975829756881
 10
102.6331841106264
 20
-128.4975829756881
 10
102.6142360854576
 20
-128.6732828454359
 10
102.6142360854576
 20
-128.6732828454359
 10
102.6142360854576
 20
-128.6732828454359
 10
101.7677761247317
 20
-128.5527045034521
 10
101.7677761247317
 20
-128.5527045034521
 10
101.7677761247317
 20
-128.5527045034521
 10
101.7677761247317
 20
-127.7741129237857
 10
101.7677761247317
 20
-127.7741129237857
 10
101.7677761247317
 20
-127.7741129237857
 10
101.9624240196483
 20
-127.7741129237857
 10
101.9624240196483
 20
-127.7741129237857
 10
101.9624240196483
 20
-127.7741129237857
 10
101.9624240196483
 20
-128.3897514869998
 10
101.9624240196483
 20
-128.3897514869998
 10
101.9624240196483
 20
-128.3897514869998
 10
102.385481745237
 20
-128.4552083012195
 10
102.385481745237
 20
-128.4552083012195
 10
102.3517198094815
 20
-128.3938856015821
 10
102.3114121923041
 20
-128.3115478194846
 10
102.3114121923041
 20
-128.193036534792
 10
102.3114121923041
 20
-127.9391329975291
 10
102.4977918580561
 20
-127.7021104281439
 10
102.8109510376653
 20
-127.7021104281439
 10
103.1282443318568
 20
-127.7021104281439
 10
103.3628553344023
 20
-127.9263861442337
 10
103.3628553344023
 20
-128.2288655278386
 97
        0
 97
        0
 75
     2
 76
     1
 98
        0
  0
ENDBLK
  5
AB
330
A8
100
AcDbEntity
  8
0
100
AcDbBlockEnd
  0
BLOCK
  5
C6
330
C4
100
AcDbEntity
  8
0
100
AcDbBlockBegin
  2
block 6
 70
     0
 10
0.0
 20
0.0
 30
0.0
  3
block 6
  1

  0
SPLINE
  5
C8
330
C4
100
AcDbEntity
  8
_U+30EC_U+30A4_U+30E4_U+30FC 1
370
     0
100
AcDbSpline
210
0.0
220
0.0
230
1.0
 70
    11
 71
     3
 72
    26
 73
    22
 74
     0
 42
0.0000000001
 43
0.0000000001
 12
1.0
 22
0.0
 32
0.0
 13
1.0
 23
0.0
 33
0.0
 40
0.0
 40
0.0
 40
0.0
 40
0.0
 40
1.0
 40
1.0
 40
1.0
 40
2.0
 40
2.0
 40
2.0
 40
3.0
 40
3.0
 40
3.0
 40
4.0
 40
4.0
 40
4.0
 40
5.0
 40
5.0
 40
5.0
 40
6.0
 40
6.0
 40
6.0
 40
7.0
 40
7.0
 40
7.0
 40
7.0
 10
96.32176918164873
 20
-125.2283596149603
 30
0.0
 10
96.32176918164873
 20
-125.2283596149603
 30
0.0
 10
96.08474661226354
 20
-125.2283596149603
 30
0.0
 10
96.08474661226354
 20
-125.2283596149603
 30
0.0
 10
96.1102403188544
 20
-124.9195068047076
 30
0.0
 10
96.30282115647985
 20
-124.4011921889518
 30
0.0
 10
96.70899791419082
 20
-123.8956244264914
 30
0.0
 10
96.70899791419082
 20
-123.8956244264914
 30
0.0
 10
95.87115069217805
 20
-123.8956244264914
 30
0.0
 10
95.87115069217805
 20
-123.8956244264914
 30
0.0
 10
95.87115069217805
 20
-123.8956244264914
 30
0.0
 10
95.87115069217805
 20
-123.684095563697
 30
0.0
 10
95.87115069217805
 20
-123.684095563697
 30
0.0
 10
95.87115069217805
 20
-123.684095563697
 30
0.0
 10
96.94602048357599
 20
-123.684095563697
 30
0.0
 10
96.94602048357599
 20
-123.684095563697
 30
0.0
 10
96.94602048357599
 20
-123.684095563697
 30
0.0
 10
96.94602048357599
 20
-123.8956244264914
 30
0.0
 10
96.94602048357599
 20
-123.8956244264914
 30
0.0
 10
96.62218150796251
 20
-124.1853569568009
 30
0.0
 10
96.35553111740418
 20
-124.7777411254896
 30
0.0
 10
96.32176918164873
 20
-125.2283596149603
 30
0.0
  0
HATCH
  5
C9
330
C4
100
AcDbEntity
  8
_U+30EC_U+30A4_U+30E4_U+30FC 1
 62
     7
420
 16777215
100
AcDbHatch
 10
0.0
 20
0.0
 30
0.0
210
0.0
220
0.0
230
1.0
  2
SOLID
 70
     1
 71
     0
 91
        1
 92
        1
 93
        1
 72
     4
 94
        3
 73
     0
 74
     1
 95
       26
 96
       22
 40
0.0
 40
0.0
 40
0.0
 40
0.0
 40
1.0
 40
1.0
 40
1.0
 40
2.0
 40
2.0
 40
2.0
 40
3.0
 40
3.0
 40
3.0
 40
4.0
 40
4.0
 40
4.0
 40
5.0
 40
5.0
 40
5.0
 40
6.0
 40
6.0
 40
6.0
 40
7.0
 40
7.0
 40
7.0
 40
7.0
 10
96.32176918164873
 20
-125.2283596149603
 10
96.32176918164873
 20
-125.2283596149603
 10
96.08474661226354
 20
-125.2283596149603
 10
96.08474661226354
 20
-125.2283596149603
 10
96.1102403188544
 20
-124.9195068047076
 10
96.30282115647985
 20
-124.4011921889518
 10
96.70899791419082
 20
-123.8956244264914
 10
96.70899791419082
 20
-123.8956244264914
 10
95.87115069217805
 20
-123.8956244264914
 10
95.87115069217805
 20
-123.8956244264914
 10
95.87115069217805
 20
-123.8956244264914
 10
95.87115069217805
 20
-123.684095563697
 10
95.87115069217805
 20
-123.684095563697
 10
95.87115069217805
 20
-123.684095563697
 10
96.94602048357599
 20
-123.684095563697
 10
96.94602048357599
 20
-123.684095563697
 10
96.94602048357599
 20
-123.684095563697
 10
96.94602048357599
 20
-123.8956244264914
 10
96.94602048357599
 20
-123.8956244264914
 10
96.62218150796251
 20
-124.1853569568009
 10
96.35553111740418
 20
-124.7777411254896
 10
96.32176918164873
 20
-125.2283596149603
 97
        0
 97
        0
 75
     2
 76
     1
 98
        0
  0
ENDBLK
  5
C7
330
C4
100
AcDbEntity
  8
0
100
AcDbBlockEnd
  0
BLOCK
  5
D4
330
D2
100
AcDbEntity
  8
0
100
AcDbBlockBegin
  2
block 7
 70
     0
 10
0.0
 20
0.0
 30
0.0
  3
block 7
  1

  0
SPLINE
  5
D6
330
D2
100
AcDbEntity
  8
_U+30EC_U+30A4_U+30E4_U+30FC 1
370
     0
100
AcDbSpline
210
0.0
220
0.0
230
1.0
 70
    11
 71
     3
 72
    26
 73
    22
 74
     0
 42
0.0000000001
 43
0.0000000001
 12
1.0
 22
0.0
 32
0.0
 13
1.0
 23
0.0
 33
0.0
 40
0.0
 40
0.0
 40
0.0
 40
0.0
 40
1.0
 40
1.0
 40
1.0
 40
2.0
 40
2.0
 40
2.0
 40
3.0
 40
3.0
 40
3.0
 40
4.0
 40
4.0
 40
4.0
 40
5.0
 40
5.0
 40
5.0
 40
6.0
 40
6.0
 40
6.0
 40
7.0
 40
7.0
 40
7.0
 40
7.0
 10
78.86185300762828
 20
-128.085377300878
 30
0.0
 10
78.86185300762828
 20
-128.085377300878
 30
0.0
 10
78.86185300762828
 20
-126.9810519430811
 30
0.0
 10
78.86185300762828
 20
-126.9810519430811
 30
0.0
 10
78.86185300762828
 20
-126.9810519430811
 30
0.0
 10
78.53181286014136
 20
-126.9810519430811
 30
0.0
 10
78.53181286014136
 20
-126.9810519430811
 30
0.0
 10
78.53181286014136
 20
-126.9810519430811
 30
0.0
 10
78.53181286014136
 20
-126.8329128372154
 30
0.0
 10
78.53181286014136
 20
-126.8329128372154
 30
0.0
 10
78.86392006491944
 20
-126.8182711814031
 30
0.0
 10
78.91042885397032
 20
-126.6553181649508
 30
0.0
 10
78.94005667514347
 20
-126.5411132496147
 30
0.0
 10
78.94005667514347
 20
-126.5411132496147
 30
0.0
 10
79.08612872371805
 20
-126.5411132496147
 30
0.0
 10
79.08612872371805
 20
-126.5411132496147
 30
0.0
 10
79.08612872371805
 20
-126.5411132496147
 30
0.0
 10
79.08612872371805
 20
-128.085377300878
 30
0.0
 10
79.08612872371805
 20
-128.085377300878
 30
0.0
 10
79.08612872371805
 20
-128.085377300878
 30
0.0
 10
78.86185300762828
 20
-128.085377300878
 30
0.0
 10
78.86185300762828
 20
-128.085377300878
 30
0.0
  0
HATCH
  5
D7
330
D2
100
AcDbEntity
  8
_U+30EC_U+30A4_U+30E4_U+30FC 1
 62
     7
420
 16777215
100
AcDbHatch
 10
0.0
 20
0.0
 30
0.0
210
0.0
220
0.0
230
1.0
  2
SOLID
 70
     1
 71
     0
 91
        1
 92
        1
 93
        1
 72
     4
 94
        3
 73
     0
 74
     1
 95
       26
 96
       22
 40
0.0
 40
0.0
 40
0.0
 40
0.0
 40
1.0
 40
1.0
 40
1.0
 40
2.0
 40
2.0
 40
2.0
 40
3.0
 40
3.0
 40
3.0
 40
4.0
 40
4.0
 40
4.0
 40
5.0
 40
5.0
 40
5.0
 40
6.0
 40
6.0
 40
6.0
 40
7.0
 40
7.0
 40
7.0
 40
7.0
 10
78.86185300762828
 20
-128.085377300878
 10
78.86185300762828
 20
-128.085377300878
 10
78.86185300762828
 20
-126.9810519430811
 10
78.86185300762828
 20
-126.9810519430811
 10
78.86185300762828
 20
-126.9810519430811
 10
78.53181286014136
 20
-126.9810519430811
 10
78.53181286014136
 20
-126.9810519430811
 10
78.53181286014136
 20
-126.9810519430811
 10
78.53181286014136
 20
-126.8329128372154
 10
78.53181286014136
 20
-126.8329128372154
 10
78.86392006491944
 20
-126.8182711814031
 10
78.91042885397032
 20
-126.6553181649508
 10
78.94005667514347
 20
-126.5411132496147
 10
78.94005667514347
 20
-126.5411132496147
 10
79.08612872371805
 20
-126.5411132496147
 10
79.08612872371805
 20
-126.5411132496147
 10
79.08612872371805
 20
-126.5411132496147
 10
79.08612872371805
 20
-128.085377300878
 10
79.08612872371805
 20
-128.085377300878
 10
79.08612872371805
 20
-128.085377300878
 10
78.86185300762828
 20
-128.085377300878
 10
78.86185300762828
 20
-128.085377300878
 97
        0
 97
        0
 75
     2
 76
     1
 98
        0
  0
ENDBLK
  5
D5
330
D2
100
AcDbEntity
  8
0
100
AcDbBlockEnd
  0
ENDSEC
  0
SECTION
  2
ENTITIES
  0
SPLINE
  5
41
330
1F
100
AcDbEntity
  8
_U+30EC_U+30A4_U+30E4_U+30FC 1
 62
     7
420
 16777215
370
     9
100
AcDbSpline
210
0.0
220
0.0
230
1.0
 70
    11
 71
     3
 72
    17
 73
    13
 74
     0
 42
0.0000000001
 43
0.0000000001
 12
1.0
 22
0.0
 32
0.0
 13
1.0
 23
0.0
 33
0.0
 40
0.0
 40
0.0
 40
0.0
 40
0.0
 40
1.0
 40
1.0
 40
1.0
 40
2.0
 40
2.0
 40
2.0
 40
3.0
 40
3.0
 40
3.0
 40
4.0
 40
4.0
 40
4.0
 40
4.0
 10
82.00827235223912
 20
-128.6820796900518
 30
0.0
 10
82.00827235223912
 20
-128.6269405233987
 30
0.0
 10
81.96346957560435
 20
-128.5821730234101
 30
0.0
 10
81.9080129103525
 20
-128.5821730234101
 30
0.0
 10
81.85252096732377
 20
-128.5821730234101
 30
0.0
 10
81.80775553510352
 20
-128.6269405233987
 30
0.0
 10
81.80775553510352
 20
-128.6820796900518
 30
0.0
 10
81.80775553510352
 20
-128.7371835789267
 30
0.0
 10
81.85252096732377
 20
-128.7818099678049
 30
0.0
 10
81.9080129103525
 20
-128.7818099678049
 30
0.0
 10
81.96346957560435
 20
-128.7818099678049
 30
0.0
 10
82.00827235223912
 20
-128.7371835789267
 30
0.0
 10
82.00827235223912
 20
-128.6820796900518
 30
0.0
  0
SPLINE
  5
42
330
1F
100
AcDbEntity
  8
_U+30EC_U+30A4_U+30E4_U+30FC 1
 62
     7
420
 16777215
370
     9
100
AcDbSpline
210
0.0
220
0.0
230
1.0
 70
    11
 71
     3
 72
    17
 73
    13
 74
     0
 42
0.0000000001
 43
0.0000000001
 12
1.0
 22
0.0
 32
0.0
 13
1.0
 23
0.0
 33
0.0
 40
0.0
 40
0.0
 40
0.0
 40
0.0
 40
1.0
 40
1.0
 40
1.0
 40
2.0
 40
2.0
 40
2.0
 40
3.0
 40
3.0
 40
3.0
 40
4.0
 40
4.0
 40
4.0
 40
4.0
 10
83.00800927117814
 20
-128.6820796900518
 30
0.0
 10
83.00800927117814
 20
-128.6269405233987
 30
0.0
 10
82.96324177232026
 20
-128.5821730234101
 30
0.0
 10
82.90810260706031
 20
-128.5821730234101
 30
0.0
 10
82.85299871957724
 20
-128.5821730234101
 30
0.0
 10
82.80819594294248
 20
-128.6269405233987
 30
0.0
 10
82.80819594294248
 20
-128.6820796900518
 30
0.0
 10
82.80819594294248
 20
-128.7371835789267
 30
0.0
 10
82.85299871957724
 20
-128.7818099678049
 30
0.0
 10
82.90810260706031
 20
-128.7818099678049
 30
0.0
 10
82.96324177232026
 20
-128.7818099678049
 30
0.0
 10
83.00800927117814
 20
-128.7371835789267
 30
0.0
 10
83.00800927117814
 20
-128.6820796900518
 30
0.0
  0
SPLINE
  5
43
330
1F
100
AcDbEntity
  8
_U+30EC_U+30A4_U+30E4_U+30FC 1
 62
     7
420
 16777215
370
     9
100
AcDbSpline
210
0.0
220
0.0
230
1.0
 70
    11
 71
     3
 72
    17
 73
    13
 74
     0
 42
0.0000000001
 43
0.0000000001
 12
1.0
 22
0.0
 32
0.0
 13
1.0
 23
0.0
 33
0.0
 40
0.0
 40
0.0
 40
0.0
 40
0.0
 40
1.0
 40
1.0
 40
1.0
 40
2.0
 40
2.0
 40
2.0
 40
3.0
 40
3.0
 40
3.0
 40
4.0
 40
4.0
 40
4.0
 40
4.0
 10
82.00827235223912
 20
-122.3582558027439
 30
0.0
 10
82.00827235223912
 20
-122.3024463583134
 30
0.0
 10
81.96346957560435
 20
-122.2583491361022
 30
0.0
 10
81.9080129103525
 20
-122.2583491361022
 30
0.0
 10
81.85252096732377
 20
-122.2583491361022
 30
0.0
 10
81.80775553510352
 20
-122.3024463583134
 30
0.0
 10
81.80775553510352
 20
-122.3582558027439
 30
0.0
 10
81.80775553510352
 20
-122.4133596916188
 30
0.0
 10
81.85252096732377
 20
-122.4581624693855
 30
0.0
 10
81.9080129103525
 20
-122.4581624693855
 30
0.0
 10
81.96346957560435
 20
-122.4581624693855
 30
0.0
 10
82.00827235223912
 20
-122.4133596916188
 30
0.0
 10
82.00827235223912
 20
-122.3582558027439
 30
0.0
  0
SPLINE
  5
44
330
1F
100
AcDbEntity
  8
_U+30EC_U+30A4_U+30E4_U+30FC 1
 62
     7
420
 16777215
370
     9
100
AcDbSpline
210
0.0
220
0.0
230
1.0
 70
    11
 71
     3
 72
    17
 73
    13
 74
     0
 42
0.0000000001
 43
0.0000000001
 12
1.0
 22
0.0
 32
0.0
 13
1.0
 23
0.0
 33
0.0
 40
0.0
 40
0.0
 40
0.0
 40
0.0
 40
1.0
 40
1.0
 40
1.0
 40
2.0
 40
2.0
 40
2.0
 40
3.0
 40
3.0
 40
3.0
 40
4.0
 40
4.0
 40
4.0
 40
4.0
 10
90.00775520371086
 20
-122.3582558027439
 30
0.0
 10
90.00775520371086
 20
-122.3024463583134
 30
0.0
 10
89.96298770485298
 20
-122.2583491361022
 30
0.0
 10
89.90784853959302
 20
-122.2583491361022
 30
0.0
 10
89.85274465210995
 20
-122.2583491361022
 30
0.0
 10
89.8079418754752
 20
-122.3024463583134
 30
0.0
 10
89.8079418754752
 20
-122.3582558027439
 30
0.0
 10
89.8079418754752
 20
-122.4133596916188
 30
0.0
 10
89.85274465210995
 20
-122.4581624693855
 30
0.0
 10
89.90784853959302
 20
-122.4581624693855
 30
0.0
 10
89.96298770485298
 20
-122.4581624693855
 30
0.0
 10
90.00775520371086
 20
-122.4133596916188
 30
0.0
 10
90.00775520371086
 20
-122.3582558027439
 30
0.0
  0
SPLINE
  5
45
330
1F
100
AcDbEntity
  8
_U+30EC_U+30A4_U+30E4_U+30FC 1
 62
     7
420
 16777215
370
     9
100
AcDbSpline
210
0.0
220
0.0
230
1.0
 70
    11
 71
     3
 72
    17
 73
    13
 74
     0
 42
0.0000000001
 43
0.0000000001
 12
1.0
 22
0.0
 32
0.0
 13
1.0
 23
0.0
 33
0.0
 40
0.0
 40
0.0
 40
0.0
 40
0.0
 40
1.0
 40
1.0
 40
1.0
 40
2.0
 40
2.0
 40
2.0
 40
3.0
 40
3.0
 40
3.0
 40
4.0
 40
4.0
 40
4.0
 40
4.0
 10
104.0081290131982
 20
-127.3577871903827
 30
0.0
 10
104.0081290131982
 20
-127.3026480237299
 30
0.0
 10
103.9633262365635
 20
-127.257880523741
 30
0.0
 10
103.9082249740228
 20
-127.257880523741
 30
0.0
 10
103.8530831838204
 20
-127.257880523741
 30
0.0
 10
103.8083156849626
 20
-127.3026480237299
 30
0.0
 10
103.8083156849626
 20
-127.3577871903827
 30
0.0
 10
103.8083156849626
 20
-127.4128910792579
 30
0.0
 10
103.8530831838204
 20
-127.4576938570246
 30
0.0
 10
103.9082249740228
 20
-127.4576938570246
 30
0.0
 10
103.9633262365635
 20
-127.4576938570246
 30
0.0
 10
104.0081290131982
 20
-127.4128910792579
 30
0.0
 10
104.0081290131982
 20
-127.3577871903827
 30
0.0
  0
SPLINE
  5
46
330
1F
100
AcDbEntity
  8
_U+30EC_U+30A4_U+30E4_U+30FC 1
 62
     7
420
 16777215
370
     9
100
AcDbSpline
210
0.0
220
0.0
230
1.0
 70
    11
 71
     3
 72
    17
 73
    13
 74
     0
 42
0.0000000001
 43
0.0000000001
 12
1.0
 22
0.0
 32
0.0
 13
1.0
 23
0.0
 33
0.0
 40
0.0
 40
0.0
 40
0.0
 40
0.0
 40
1.0
 40
1.0
 40
1.0
 40
2.0
 40
2.0
 40
2.0
 40
3.0
 40
3.0
 40
3.0
 40
4.0
 40
4.0
 40
4.0
 40
4.0
 10
104.0081290131982
 20
-130.9315319117117
 30
0.0
 10
104.0081290131982
 20
-130.8764280228368
 30
0.0
 10
103.9633262365635
 20
-130.8316252450701
 30
0.0
 10
103.9082249740228
 20
-130.8316252450701
 30
0.0
 10
103.8530831838204
 20
-130.8316252450701
 30
0.0
 10
103.8083156849626
 20
-130.8764280228368
 30
0.0
 10
103.8083156849626
 20
-130.9315319117117
 30
0.0
 10
103.8083156849626
 20
-130.9873413561421
 30
0.0
 10
103.8530831838204
 20
-131.0321441339088
 30
0.0
 10
103.9082249740228
 20
-131.0321441339088
 30
0.0
 10
103.9633262365635
 20
-131.0321441339088
 30
0.0
 10
104.0081290131982
 20
-130.9873413561421
 30
0.0
 10
104.0081290131982
 20
-130.9315319117117
 30
0.0
  0
SPLINE
  5
47
330
1F
100
AcDbEntity
  8
_U+30EC_U+30A4_U+30E4_U+30FC 1
 62
     7
420
 16777215
370
     9
100
AcDbSpline
210
0.0
220
0.0
230
1.0
 70
    11
 71
     3
 72
    17
 73
    13
 74
     0
 42
0.0000000001
 43
0.0000000001
 12
1.0
 22
0.0
 32
0.0
 13
1.0
 23
0.0
 33
0.0
 40
0.0
 40
0.0
 40
0.0
 40
0.0
 40
1.0
 40
1.0
 40
1.0
 40
2.0
 40
2.0
 40
2.0
 40
3.0
 40
3.0
 40
3.0
 40
4.0
 40
4.0
 40
4.0
 40
4.0
 10
104.0081290131982
 20
-131.2319574671921
 30
0.0
 10
104.0081290131982
 20
-131.1768183005391
 30
0.0
 10
103.9633262365635
 20
-131.1320508005505
 30
0.0
 10
103.9082249740228
 20
-131.1320508005505
 30
0.0
 10
103.8530831838204
 20
-131.1320508005505
 30
0.0
 10
103.8083156849626
 20
-131.1768183005391
 30
0.0
 10
103.8083156849626
 20
-131.2319574671921
 30
0.0
 10
103.8083156849626
 20
-131.287061356067
 30
0.0
 10
103.8530831838204
 20
-131.3318641338338
 30
0.0
 10
103.9082249740228
 20
-131.3318641338338
 30
0.0
 10
103.9633262365635
 20
-131.3318641338338
 30
0.0
 10
104.0081290131982
 20
-131.287061356067
 30
0.0
 10
104.0081290131982
 20
-131.2319574671921
 30
0.0
  0
SPLINE
  5
48
330
1F
100
AcDbEntity
  8
_U+30EC_U+30A4_U+30E4_U+30FC 1
 62
     7
420
 16777215
370
     9
100
AcDbSpline
210
0.0
220
0.0
230
1.0
 70
    11
 71
     3
 72
    17
 73
    13
 74
     0
 42
0.0000000001
 43
0.0000000001
 12
1.0
 22
0.0
 32
0.0
 13
1.0
 23
0.0
 33
0.0
 40
0.0
 40
0.0
 40
0.0
 40
0.0
 40
1.0
 40
1.0
 40
1.0
 40
2.0
 40
2.0
 40
2.0
 40
3.0
 40
3.0
 40
3.0
 40
4.0
 40
4.0
 40
4.0
 40
4.0
 10
104.0081290131982
 20
-131.9320096892391
 30
0.0
 10
104.0081290131982
 20
-131.876870522586
 30
0.0
 10
103.9633262365635
 20
-131.8321030225975
 30
0.0
 10
103.9082249740228
 20
-131.8321030225975
 30
0.0
 10
103.8530831838204
 20
-131.8321030225975
 30
0.0
 10
103.8083156849626
 20
-131.876870522586
 30
0.0
 10
103.8083156849626
 20
-131.9320096892391
 30
0.0
 10
103.8083156849626
 20
-131.987113578114
 30
0.0
 10
103.8530831838204
 20
-132.0319163558808
 30
0.0
 10
103.9082249740228
 20
-132.0319163558808
 30
0.0
 10
103.9633262365635
 20
-132.0319163558808
 30
0.0
 10
104.0081290131982
 20
-131.987113578114
 30
0.0
 10
104.0081290131982
 20
-131.9320096892391
 30
0.0
  0
SPLINE
  5
49
330
1F
100
AcDbEntity
  8
_U+30EC_U+30A4_U+30E4_U+30FC 1
 62
     7
420
 16777215
370
     9
100
AcDbSpline
210
0.0
220
0.0
230
1.0
 70
    11
 71
     3
 72
    17
 73
    13
 74
     0
 42
0.0000000001
 43
0.0000000001
 12
1.0
 22
0.0
 32
0.0
 13
1.0
 23
0.0
 33
0.0
 40
0.0
 40
0.0
 40
0.0
 40
0.0
 40
1.0
 40
1.0
 40
1.0
 40
2.0
 40
2.0
 40
2.0
 40
3.0
 40
3.0
 40
3.0
 40
4.0
 40
4.0
 40
4.0
 40
4.0
 10
100.0076643930364
 20
-135.931768854906
 30
0.0
 10
100.0076643930364
 20
-135.8766296882529
 30
0.0
 10
99.96356717193916
 20
-135.8318621882644
 30
0.0
 10
99.90775772891853
 20
-135.8318621882644
 30
0.0
 10
99.85265384143545
 20
-135.8318621882644
 30
0.0
 10
99.8078510648007
 20
-135.8766296882529
 30
0.0
 10
99.8078510648007
 20
-135.931768854906
 30
0.0
 10
99.8078510648007
 20
-135.9868727437809
 30
0.0
 10
99.85265384143545
 20
-136.0316755215476
 30
0.0
 10
99.90775772891853
 20
-136.0316755215476
 30
0.0
 10
99.96356717193916
 20
-136.0316755215476
 30
0.0
 10
100.0076643930364
 20
-135.9868727437809
 30
0.0
 10
100.0076643930364
 20
-135.931768854906
 30
0.0
  0
SPLINE
  5
4A
330
1F
100
AcDbEntity
  8
_U+30EC_U+30A4_U+30E4_U+30FC 1
 62
     7
420
 16777215
370
     9
100
AcDbSpline
210
0.0
220
0.0
230
1.0
 70
    11
 71
     3
 72
    17
 73
    13
 74
     0
 42
0.0000000001
 43
0.0000000001
 12
1.0
 22
0.0
 32
0.0
 13
1.0
 23
0.0
 33
0.0
 40
0.0
 40
0.0
 40
0.0
 40
0.0
 40
1.0
 40
1.0
 40
1.0
 40
2.0
 40
2.0
 40
2.0
 40
3.0
 40
3.0
 40
3.0
 40
4.0
 40
4.0
 40
4.0
 40
4.0
 10
82.00827235223912
 20
-135.931768854906
 30
0.0
 10
82.00827235223912
 20
-135.8766296882529
 30
0.0
 10
81.96346957560435
 20
-135.8318621882644
 30
0.0
 10
81.9080129103525
 20
-135.8318621882644
 30
0.0
 10
81.85252096732377
 20
-135.8318621882644
 30
0.0
 10
81.80775553510352
 20
-135.8766296882529
 30
0.0
 10
81.80775553510352
 20
-135.931768854906
 30
0.0
 10
81.80775553510352
 20
-135.9868727437809
 30
0.0
 10
81.85252096732377
 20
-136.0316755215476
 30
0.0
 10
81.9080129103525
 20
-136.0316755215476
 30
0.0
 10
81.96346957560435
 20
-136.0316755215476
 30
0.0
 10
82.00827235223912
 20
-135.9868727437809
 30
0.0
 10
82.00827235223912
 20
-135.931768854906
 30
0.0
  0
SPLINE
  5
4B
330
1F
100
AcDbEntity
  8
_U+30EC_U+30A4_U+30E4_U+30FC 1
 62
     7
420
 16777215
370
     9
100
AcDbSpline
210
0.0
220
0.0
230
1.0
 70
    11
 71
     3
 72
    17
 73
    13
 74
     0
 42
0.0000000001
 43
0.0000000001
 12
1.0
 22
0.0
 32
0.0
 13
1.0
 23
0.0
 33
0.0
 40
0.0
 40
0.0
 40
0.0
 40
0.0
 40
1.0
 40
1.0
 40
1.0
 40
2.0
 40
2.0
 40
2.0
 40
3.0
 40
3.0
 40
3.0
 40
4.0
 40
4.0
 40
4.0
 40
4.0
 10
100.0076643930364
 20
-125.8243680240993
 30
0.0
 10
100.0076643930364
 20
-125.7692288574466
 30
0.0
 10
99.96356717193916
 20
-125.7244613574577
 30
0.0
 10
99.90775772891853
 20
-125.7244613574577
 30
0.0
 10
99.85265384143545
 20
-125.7244613574577
 30
0.0
 10
99.8078510648007
 20
-125.7692288574466
 30
0.0
 10
99.8078510648007
 20
-125.8243680240993
 30
0.0
 10
99.8078510648007
 20
-125.8794719129746
 30
0.0
 10
99.85265384143545
 20
-125.9242746907413
 30
0.0
 10
99.90775772891853
 20
-125.9242746907413
 30
0.0
 10
99.96356717193916
 20
-125.9242746907413
 30
0.0
 10
100.0076643930364
 20
-125.8794719129746
 30
0.0
 10
100.0076643930364
 20
-125.8243680240993
 30
0.0
  0
SPLINE
  5
4C
330
1F
100
AcDbEntity
  8
_U+30EC_U+30A4_U+30E4_U+30FC 1
 62
     7
420
 16777215
370
     9
100
AcDbSpline
210
0.0
220
0.0
230
1.0
 70
    11
 71
     3
 72
    17
 73
    13
 74
     0
 42
0.0000000001
 43
0.0000000001
 12
1.0
 22
0.0
 32
0.0
 13
1.0
 23
0.0
 33
0.0
 40
0.0
 40
0.0
 40
0.0
 40
0.0
 40
1.0
 40
1.0
 40
1.0
 40
2.0
 40
2.0
 40
2.0
 40
3.0
 40
3.0
 40
3.0
 40
4.0
 40
4.0
 40
4.0
 40
4.0
 10
93.00791846050365
 20
-125.8243680240993
 30
0.0
 10
93.00791846050365
 20
-125.7692288574466
 30
0.0
 10
92.96315096164577
 20
-125.7244613574577
 30
0.0
 10
92.90801179638582
 20
-125.7244613574577
 30
0.0
 10
92.85290790890275
 20
-125.7244613574577
 30
0.0
 10
92.80810513226798
 20
-125.7692288574466
 30
0.0
 10
92.80810513226798
 20
-125.8243680240993
 30
0.0
 10
92.80810513226798
 20
-125.8794719129746
 30
0.0
 10
92.85290790890275
 20
-125.9242746907413
 30
0.0
 10
92.90801179638582
 20
-125.9242746907413
 30
0.0
 10
92.96315096164577
 20
-125.9242746907413
 30
0.0
 10
93.00791846050365
 20
-125.8794719129746
 30
0.0
 10
93.00791846050365
 20
-125.8243680240993
 30
0.0
  0
POLYLINE
  5
4D
330
1F
100
AcDbEntity
  8
_U+30EC_U+30A4_U+30E4_U+30FC 1
 62
     7
420
 16777215
370
     9
100
AcDb2dPolyline
 66
     1
 10
0.0
 20
0.0
 30
0.0
  0
VERTEX
  5
4E
330
4D
100
AcDbEntity
  8
_U+30EC_U+30A4_U+30E4_U+30FC 1
 62
     7
420
 16777215
370
     9
100
AcDbVertex
100
AcDb2dVertex
 10
81.9080129103525
 20
-122.3582558027439
 30
0.0
  0
VERTEX
  5
4F
330
4D
100
AcDbEntity
  8
_U+30EC_U+30A4_U+30E4_U+30FC 1
 62
     7
420
 16777215
370
     9
100
AcDbVertex
100
AcDb2dVertex
 10
89.90784853959302
 20
-122.3582558027439
 30
0.0
  0
SEQEND
  5
50
330
4D
100
AcDbEntity
  8
_U+30EC_U+30A4_U+30E4_U+30FC 1
 62
     7
420
 16777215
370
     9
  0
POLYLINE
  5
51
330
1F
100
AcDbEntity
  8
_U+30EC_U+30A4_U+30E4_U+30FC 1
 62
     7
420
 16777215
370
     9
100
AcDb2dPolyline
 66
     1
 10
0.0
 20
0.0
 30
0.0
  0
VERTEX
  5
52
330
51
100
AcDbEntity
  8
_U+30EC_U+30A4_U+30E4_U+30FC 1
 62
     7
420
 16777215
370
     9
100
AcDbVertex
100
AcDb2dVertex
 10
81.9080129103525
 20
-123.8182971912676
 30
0.0
  0
VERTEX
  5
53
330
51
100
AcDbEntity
  8
_U+30EC_U+30A4_U+30E4_U+30FC 1
 62
     7
420
 16777215
370
     9
100
AcDbVertex
100
AcDb2dVertex
 10
81.9080129103525
 20
-121.3577780252161
 30
0.0
  0
SEQEND
  5
54
330
51
100
AcDbEntity
  8
_U+30EC_U+30A4_U+30E4_U+30FC 1
 62
     7
420
 16777215
370
     9
  0
POLYLINE
  5
55
330
1F
100
AcDbEntity
  8
_U+30EC_U+30A4_U+30E4_U+30FC 1
 62
     7
420
 16777215
370
     9
100
AcDb2dPolyline
 66
     1
 10
0.0
 20
0.0
 30
0.0
  0
VERTEX
  5
56
330
55
100
AcDbEntity
  8
_U+30EC_U+30A4_U+30E4_U+30FC 1
 62
     7
420
 16777215
370
     9
100
AcDbVertex
100
AcDb2dVertex
 10
89.90784853959302
 20
-123.8182971912676
 30
0.0
  0
VERTEX
  5
57
330
55
100
AcDbEntity
  8
_U+30EC_U+30A4_U+30E4_U+30FC 1
 62
     7
420
 16777215
370
     9
100
AcDbVertex
100
AcDb2dVertex
 10
89.90784853959302
 20
-121.3577780252161
 30
0.0
  0
SEQEND
  5
58
330
55
100
AcDbEntity
  8
_U+30EC_U+30A4_U+30E4_U+30FC 1
 62
     7
420
 16777215
370
     9
  0
INSERT
  5
5A
330
1F
100
AcDbEntity
  8
_U+30EC_U+30A4_U+30E4_U+30FC 1
100
AcDbBlockReference
  2
block 2
 10
0.0
 20
0.0
 30
0.0
  0
POLYLINE
  5
61
330
1F
100
AcDbEntity
  8
_U+30EC_U+30A4_U+30E4_U+30FC 1
 62
     7
420
 16777215
370
     9
100
AcDb2dPolyline
 66
     1
 10
0.0
 20
0.0
 30
0.0
  0
VERTEX
  5
62
330
61
100
AcDbEntity
  8
_U+30EC_U+30A4_U+30E4_U+30FC 1
 62
     7
420
 16777215
370
     9
100
AcDbVertex
100
AcDb2dVertex
 10
81.9080129103525
 20
-135.931768854906
 30
0.0
  0
VERTEX
  5
63
330
61
100
AcDbEntity
  8
_U+30EC_U+30A4_U+30E4_U+30FC 1
 62
     7
420
 16777215
370
     9
100
AcDbVertex
100
AcDb2dVertex
 10
99.90775772891853
 20
-135.931768854906
 30
0.0
  0
SEQEND
  5
64
330
61
100
AcDbEntity
  8
_U+30EC_U+30A4_U+30E4_U+30FC 1
 62
     7
420
 16777215
370
     9
  0
POLYLINE
  5
65
330
1F
100
AcDbEntity
  8
_U+30EC_U+30A4_U+30E4_U+30FC 1
 62
     7
420
 16777215
370
     9
100
AcDb2dPolyline
 66
     1
 10
0.0
 20
0.0
 30
0.0
  0
VERTEX
  5
66
330
65
100
AcDbEntity
  8
_U+30EC_U+30A4_U+30E4_U+30FC 1
 62
     7
420
 16777215
370
     9
100
AcDbVertex
100
AcDb2dVertex
 10
81.9080129103525
 20
-134.4717274663823
 30
0.0
  0
VERTEX
  5
67
330
65
100
AcDbEntity
  8
_U+30EC_U+30A4_U+30E4_U+30FC 1
 62
     7
420
 16777215
370
     9
100
AcDbVertex
100
AcDb2dVertex
 10
81.9080129103525
 20
-136.9322113546559
 30
0.0
  0
SEQEND
  5
68
330
65
100
AcDbEntity
  8
_U+30EC_U+30A4_U+30E4_U+30FC 1
 62
     7
420
 16777215
370
     9
  0
POLYLINE
  5
69
330
1F
100
AcDbEntity
  8
_U+30EC_U+30A4_U+30E4_U+30FC 1
 62
     7
420
 16777215
370
     9
100
AcDb2dPolyline
 66
     1
 10
0.0
 20
0.0
 30
0.0
  0
VERTEX
  5
6A
330
69
100
AcDbEntity
  8
_U+30EC_U+30A4_U+30E4_U+30FC 1
 62
     7
420
 16777215
370
     9
100
AcDbVertex
100
AcDb2dVertex
 10
99.90775772891853
 20
-134.4717274663823
 30
0.0
  0
VERTEX
  5
6B
330
69
100
AcDbEntity
  8
_U+30EC_U+30A4_U+30E4_U+30FC 1
 62
     7
420
 16777215
370
     9
100
AcDbVertex
100
AcDb2dVertex
 10
99.90775772891853
 20
-136.9322113546559
 30
0.0
  0
SEQEND
  5
6C
330
69
100
AcDbEntity
  8
_U+30EC_U+30A4_U+30E4_U+30FC 1
 62
     7
420
 16777215
370
     9
  0
INSERT
  5
6E
330
1F
100
AcDbEntity
  8
_U+30EC_U+30A4_U+30E4_U+30FC 1
100
AcDbBlockReference
  2
block 3
 10
0.0
 20
0.0
 30
0.0
  0
POLYLINE
  5
77
330
1F
100
AcDbEntity
  8
_U+30EC_U+30A4_U+30E4_U+30FC 1
 62
     7
420
 16777215
370
     9
100
AcDb2dPolyline
 66
     1
 10
0.0
 20
0.0
 30
0.0
  0
VERTEX
  5
78
330
77
100
AcDbEntity
  8
_U+30EC_U+30A4_U+30E4_U+30FC 1
 62
     7
420
 16777215
370
     9
100
AcDbVertex
100
AcDb2dVertex
 10
103.9082249740228
 20
-131.9320096892391
 30
0.0
  0
VERTEX
  5
79
330
77
100
AcDbEntity
  8
_U+30EC_U+30A4_U+30E4_U+30FC 1
 62
     7
420
 16777215
370
     9
100
AcDbVertex
100
AcDb2dVertex
 10
103.9082249740228
 20
-137.189915521258
 30
0.0
  0
SEQEND
  5
7A
330
77
100
AcDbEntity
  8
_U+30EC_U+30A4_U+30E4_U+30FC 1
 62
     7
420
 16777215
370
     9
  0
POLYLINE
  5
7B
330
1F
100
AcDbEntity
  8
_U+30EC_U+30A4_U+30E4_U+30FC 1
 62
     7
420
 16777215
370
     9
100
AcDb2dPolyline
 66
     1
 10
0.0
 20
0.0
 30
0.0
  0
VERTEX
  5
7C
330
7B
100
AcDbEntity
  8
_U+30EC_U+30A4_U+30E4_U+30FC 1
 62
     7
420
 16777215
370
     9
100
AcDbVertex
100
AcDb2dVertex
 10
103.9082249740228
 20
-131.9320096892391
 30
0.0
  0
VERTEX
  5
7D
330
7B
100
AcDbEntity
  8
_U+30EC_U+30A4_U+30E4_U+30FC 1
 62
     7
420
 16777215
370
     9
100
AcDbVertex
100
AcDb2dVertex
 10
103.9082249740228
 20
-131.2319574671921
 30
0.0
  0
SEQEND
  5
7E
330
7B
100
AcDbEntity
  8
_U+30EC_U+30A4_U+30E4_U+30FC 1
 62
     7
420
 16777215
370
     9
  0
POLYLINE
  5
7F
330
1F
100
AcDbEntity
  8
_U+30EC_U+30A4_U+30E4_U+30FC 1
 62
     7
420
 16777215
370
     9
100
AcDb2dPolyline
 66
     1
 10
0.0
 20
0.0
 30
0.0
  0
VERTEX
  5
80
330
7F
100
AcDbEntity
  8
_U+30EC_U+30A4_U+30E4_U+30FC 1
 62
     7
420
 16777215
370
     9
100
AcDbVertex
100
AcDb2dVertex
 10
102.4481809974403
 20
-131.9320096892391
 30
0.0
  0
VERTEX
  5
81
330
7F
100
AcDbEntity
  8
_U+30EC_U+30A4_U+30E4_U+30FC 1
 62
     7
420
 16777215
370
     9
100
AcDbVertex
100
AcDb2dVertex
 10
104.9079971959954
 20
-131.9320096892391
 30
0.0
  0
SEQEND
  5
82
330
7F
100
AcDbEntity
  8
_U+30EC_U+30A4_U+30E4_U+30FC 1
 62
     7
420
 16777215
370
     9
  0
POLYLINE
  5
83
330
1F
100
AcDbEntity
  8
_U+30EC_U+30A4_U+30E4_U+30FC 1
 62
     7
420
 16777215
370
     9
100
AcDb2dPolyline
 66
     1
 10
0.0
 20
0.0
 30
0.0
  0
VERTEX
  5
84
330
83
100
AcDbEntity
  8
_U+30EC_U+30A4_U+30E4_U+30FC 1
 62
     7
420
 16777215
370
     9
100
AcDbVertex
100
AcDb2dVertex
 10
102.1932285039447
 20
-131.2319574671921
 30
0.0
  0
VERTEX
  5
85
330
83
100
AcDbEntity
  8
_U+30EC_U+30A4_U+30E4_U+30FC 1
 62
     7
420
 16777215
370
     9
100
AcDbVertex
100
AcDb2dVertex
 10
104.9079971959954
 20
-131.2319574671921
 30
0.0
  0
SEQEND
  5
86
330
83
100
AcDbEntity
  8
_U+30EC_U+30A4_U+30E4_U+30FC 1
 62
     7
420
 16777215
370
     9
  0
INSERT
  5
88
330
1F
100
AcDbEntity
  8
_U+30EC_U+30A4_U+30E4_U+30FC 1
100
AcDbBlockReference
  2
block 4
 10
0.0
 20
0.0
 30
0.0
  0
POLYLINE
  5
98
330
1F
100
AcDbEntity
  8
_U+30EC_U+30A4_U+30E4_U+30FC 1
 62
     7
420
 16777215
370
     9
100
AcDb2dPolyline
 66
     1
 10
0.0
 20
0.0
 30
0.0
  0
VERTEX
  5
99
330
98
100
AcDbEntity
  8
_U+30EC_U+30A4_U+30E4_U+30FC 1
 62
     7
420
 16777215
370
     9
100
AcDbVertex
100
AcDb2dVertex
 10
103.9082249740228
 20
-127.4018844125938
 30
0.0
  0
VERTEX
  5
9A
330
98
100
AcDbEntity
  8
_U+30EC_U+30A4_U+30E4_U+30FC 1
 62
     7
420
 16777215
370
     9
100
AcDbVertex
100
AcDb2dVertex
 10
103.9082249740228
 20
-122.1439785805753
 30
0.0
  0
SEQEND
  5
9B
330
98
100
AcDbEntity
  8
_U+30EC_U+30A4_U+30E4_U+30FC 1
 62
     7
420
 16777215
370
     9
  0
POLYLINE
  5
9C
330
1F
100
AcDbEntity
  8
_U+30EC_U+30A4_U+30E4_U+30FC 1
 62
     7
420
 16777215
370
     9
100
AcDb2dPolyline
 66
     1
 10
0.0
 20
0.0
 30
0.0
  0
VERTEX
  5
9D
330
9C
100
AcDbEntity
  8
_U+30EC_U+30A4_U+30E4_U+30FC 1
 62
     7
420
 16777215
370
     9
100
AcDbVertex
100
AcDb2dVertex
 10
103.9082249740228
 20
-131.9898652447804
 30
0.0
  0
VERTEX
  5
9E
330
9C
100
AcDbEntity
  8
_U+30EC_U+30A4_U+30E4_U+30FC 1
 62
     7
420
 16777215
370
     9
100
AcDbVertex
100
AcDb2dVertex
 10
103.9082249740228
 20
-127.4900788570162
 30
0.0
  0
SEQEND
  5
9F
330
9C
100
AcDbEntity
  8
_U+30EC_U+30A4_U+30E4_U+30FC 1
 62
     7
420
 16777215
370
     9
  0
POLYLINE
  5
A0
330
1F
100
AcDbEntity
  8
_U+30EC_U+30A4_U+30E4_U+30FC 1
 62
     7
420
 16777215
370
     9
100
AcDb2dPolyline
 66
     1
 10
0.0
 20
0.0
 30
0.0
  0
VERTEX
  5
A1
330
A0
100
AcDbEntity
  8
_U+30EC_U+30A4_U+30E4_U+30FC 1
 62
     7
420
 16777215
370
     9
100
AcDbVertex
100
AcDb2dVertex
 10
95.44772950936999
 20
-130.9315319117117
 30
0.0
  0
VERTEX
  5
A2
330
A0
100
AcDbEntity
  8
_U+30EC_U+30A4_U+30E4_U+30FC 1
 62
     7
420
 16777215
370
     9
100
AcDbVertex
100
AcDb2dVertex
 10
104.9079971959954
 20
-130.9315319117117
 30
0.0
  0
SEQEND
  5
A3
330
A0
100
AcDbEntity
  8
_U+30EC_U+30A4_U+30E4_U+30FC 1
 62
     7
420
 16777215
370
     9
  0
POLYLINE
  5
A4
330
1F
100
AcDbEntity
  8
_U+30EC_U+30A4_U+30E4_U+30FC 1
 62
     7
420
 16777215
370
     9
100
AcDb2dPolyline
 66
     1
 10
0.0
 20
0.0
 30
0.0
  0
VERTEX
  5
A5
330
A4
100
AcDbEntity
  8
_U+30EC_U+30A4_U+30E4_U+30FC 1
 62
     7
420
 16777215
370
     9
100
AcDbVertex
100
AcDb2dVertex
 10
92.81223263216268
 20
-127.3577871903827
 30
0.0
  0
VERTEX
  5
A6
330
A4
100
AcDbEntity
  8
_U+30EC_U+30A4_U+30E4_U+30FC 1
 62
     7
420
 16777215
370
     9
100
AcDbVertex
100
AcDb2dVertex
 10
104.9079971959954
 20
-127.3577871903827
 30
0.0
  0
SEQEND
  5
A7
330
A4
100
AcDbEntity
  8
_U+30EC_U+30A4_U+30E4_U+30FC 1
 62
     7
420
 16777215
370
     9
  0
INSERT
  5
A9
330
1F
100
AcDbEntity
  8
_U+30EC_U+30A4_U+30E4_U+30FC 1
100
AcDbBlockReference
  2
block 5
 10
0.0
 20
0.0
 30
0.0
  0
POLYLINE
  5
B8
330
1F
100
AcDbEntity
  8
_U+30EC_U+30A4_U+30E4_U+30FC 1
 62
     7
420
 16777215
370
     9
100
AcDb2dPolyline
 66
     1
 10
0.0
 20
0.0
 30
0.0
  0
VERTEX
  5
B9
330
B8
100
AcDbEntity
  8
_U+30EC_U+30A4_U+30E4_U+30FC 1
 62
     7
420
 16777215
370
     9
100
AcDbVertex
100
AcDb2dVertex
 10
99.90775772891853
 20
-125.8243680240993
 30
0.0
  0
VERTEX
  5
BA
330
B8
100
AcDbEntity
  8
_U+30EC_U+30A4_U+30E4_U+30FC 1
 62
     7
420
 16777215
370
     9
100
AcDbVertex
100
AcDb2dVertex
 10
92.90801179638582
 20
-125.8243680240993
 30
0.0
  0
SEQEND
  5
BB
330
B8
100
AcDbEntity
  8
_U+30EC_U+30A4_U+30E4_U+30FC 1
 62
     7
420
 16777215
370
     9
  0
POLYLINE
  5
BC
330
1F
100
AcDbEntity
  8
_U+30EC_U+30A4_U+30E4_U+30FC 1
 62
     7
420
 16777215
370
     9
100
AcDb2dPolyline
 66
     1
 10
0.0
 20
0.0
 30
0.0
  0
VERTEX
  5
BD
330
BC
100
AcDbEntity
  8
_U+30EC_U+30A4_U+30E4_U+30FC 1
 62
     7
420
 16777215
370
     9
100
AcDbVertex
100
AcDb2dVertex
 10
99.90775772891853
 20
-129.391586356541
 30
0.0
  0
VERTEX
  5
BE
330
BC
100
AcDbEntity
  8
_U+30EC_U+30A4_U+30E4_U+30FC 1
 62
     7
420
 16777215
370
     9
100
AcDbVertex
100
AcDb2dVertex
 10
99.90775772891853
 20
-124.8245958021271
 30
0.0
  0
SEQEND
  5
BF
330
BC
100
AcDbEntity
  8
_U+30EC_U+30A4_U+30E4_U+30FC 1
 62
     7
420
 16777215
370
     9
  0
POLYLINE
  5
C0
330
1F
100
AcDbEntity
  8
_U+30EC_U+30A4_U+30E4_U+30FC 1
 62
     7
420
 16777215
370
     9
100
AcDb2dPolyline
 66
     1
 10
0.0
 20
0.0
 30
0.0
  0
VERTEX
  5
C1
330
C0
100
AcDbEntity
  8
_U+30EC_U+30A4_U+30E4_U+30FC 1
 62
     7
420
 16777215
370
     9
100
AcDbVertex
100
AcDb2dVertex
 10
92.90801179638582
 20
-128.3919905234577
 30
0.0
  0
VERTEX
  5
C2
330
C0
100
AcDbEntity
  8
_U+30EC_U+30A4_U+30E4_U+30FC 1
 62
     7
420
 16777215
370
     9
100
AcDbVertex
100
AcDb2dVertex
 10
92.90801179638582
 20
-124.8245958021271
 30
0.0
  0
SEQEND
  5
C3
330
C0
100
AcDbEntity
  8
_U+30EC_U+30A4_U+30E4_U+30FC 1
 62
     7
420
 16777215
370
     9
  0
INSERT
  5
C5
330
1F
100
AcDbEntity
  8
_U+30EC_U+30A4_U+30E4_U+30FC 1
100
AcDbBlockReference
  2
block 6
 10
0.0
 20
0.0
 30
0.0
  0
POLYLINE
  5
CA
330
1F
100
AcDbEntity
  8
_U+30EC_U+30A4_U+30E4_U+30FC 1
 62
     7
420
 16777215
370
     9
100
AcDb2dPolyline
 66
     1
 10
0.0
 20
0.0
 30
0.0
  0
VERTEX
  5
CB
330
CA
100
AcDbEntity
  8
_U+30EC_U+30A4_U+30E4_U+30FC 1
 62
     7
420
 16777215
370
     9
100
AcDbVertex
100
AcDb2dVertex
 10
81.9080129103525
 20
-128.6820796900518
 30
0.0
  0
VERTEX
  5
CC
330
CA
100
AcDbEntity
  8
_U+30EC_U+30A4_U+30E4_U+30FC 1
 62
     7
420
 16777215
370
     9
100
AcDbVertex
100
AcDb2dVertex
 10
78.13770050654118
 20
-128.6820796900518
 30
0.0
  0
SEQEND
  5
CD
330
CA
100
AcDbEntity
  8
_U+30EC_U+30A4_U+30E4_U+30FC 1
 62
     7
420
 16777215
370
     9
  0
POLYLINE
  5
CE
330
1F
100
AcDbEntity
  8
_U+30EC_U+30A4_U+30E4_U+30FC 1
 62
     7
420
 16777215
370
     9
100
AcDb2dPolyline
 66
     1
 10
0.0
 20
0.0
 30
0.0
  0
VERTEX
  5
CF
330
CE
100
AcDbEntity
  8
_U+30EC_U+30A4_U+30E4_U+30FC 1
 62
     7
420
 16777215
370
     9
100
AcDbVertex
100
AcDb2dVertex
 10
81.9080129103525
 20
-128.6820796900518
 30
0.0
  0
VERTEX
  5
D0
330
CE
100
AcDbEntity
  8
_U+30EC_U+30A4_U+30E4_U+30FC 1
 62
     7
420
 16777215
370
     9
100
AcDbVertex
100
AcDb2dVertex
 10
83.90787480377622
 20
-128.6820796900518
 30
0.0
  0
SEQEND
  5
D1
330
CE
100
AcDbEntity
  8
_U+30EC_U+30A4_U+30E4_U+30FC 1
 62
     7
420
 16777215
370
     9
  0
INSERT
  5
D3
330
1F
100
AcDbEntity
  8
_U+30EC_U+30A4_U+30E4_U+30FC 1
100
AcDbBlockReference
  2
block 7
 10
0.0
 20
0.0
 30
0.0
  0
POLYLINE
  5
D8
330
1F
100
AcDbEntity
  8
_U+30EC_U+30A4_U+30E4_U+30FC 1
370
     0
100
AcDb2dPolyline
 66
     1
 10
0.0
 20
0.0
 30
0.0
  0
VERTEX
  5
D9
330
D8
100
AcDbEntity
  8
_U+30EC_U+30A4_U+30E4_U+30FC 1
370
     0
100
AcDbVertex
100
AcDb2dVertex
 10
89.9082013173618
 20
-127.3577871903827
 30
0.0
  0
VERTEX
  5
DA
330
D8
100
AcDbEntity
  8
_U+30EC_U+30A4_U+30E4_U+30FC 1
370
     0
100
AcDbVertex
100
AcDb2dVertex
 10
89.5440641044295
 20
-126.3580149684104
 30
0.0
  0
VERTEX
  5
DB
330
D8
100
AcDbEntity
  8
_U+30EC_U+30A4_U+30E4_U+30FC 1
370
     0
100
AcDbVertex
100
AcDb2dVertex
 10
81.9080129103525
 20
-126.3580149684104
 30
0.0
  0
VERTEX
  5
DC
330
D8
100
AcDbEntity
  8
_U+30EC_U+30A4_U+30E4_U+30FC 1
370
     0
100
AcDbVertex
100
AcDb2dVertex
 10
81.9080129103525
 20
-131.9320096892391
 30
0.0
  0
VERTEX
  5
DD
330
D8
100
AcDbEntity
  8
_U+30EC_U+30A4_U+30E4_U+30FC 1
370
     0
100
AcDbVertex
100
AcDb2dVertex
 10
99.90775772891853
 20
-131.9320096892391
 30
0.0
  0
VERTEX
  5
DE
330
D8
100
AcDbEntity
  8
_U+30EC_U+30A4_U+30E4_U+30FC 1
370
     0
100
AcDbVertex
100
AcDb2dVertex
 10
99.65351079096047
 20
-131.2319574671921
 30
0.0
  0
VERTEX
  5
DF
330
D8
100
AcDbEntity
  8
_U+30EC_U+30A4_U+30E4_U+30FC 1
370
     0
100
AcDbVertex
100
AcDb2dVertex
 10
93.20773178873932
 20
-131.2319574671921
 30
0.0
  0
VERTEX
  5
E0
330
D8
100
AcDbEntity
  8
_U+30EC_U+30A4_U+30E4_U+30FC 1
370
     0
100
AcDbVertex
100
AcDb2dVertex
 10
92.90801179638582
 20
-130.9315319117117
 30
0.0
  0
VERTEX
  5
E1
330
D8
100
AcDbEntity
  8
_U+30EC_U+30A4_U+30E4_U+30FC 1
370
     0
100
AcDbVertex
100
AcDb2dVertex
 10
82.90810260706031
 20
-130.9315319117117
 30
0.0
  0
VERTEX
  5
E2
330
D8
100
AcDbEntity
  8
_U+30EC_U+30A4_U+30E4_U+30FC 1
370
     0
100
AcDbVertex
100
AcDb2dVertex
 10
82.90810260706031
 20
-127.3577871903827
 30
0.0
  0
VERTEX
  5
E3
330
D8
100
AcDbEntity
  8
_U+30EC_U+30A4_U+30E4_U+30FC 1
370
     0
100
AcDbVertex
100
AcDb2dVertex
 10
89.9082013173618
 20
-127.3577871903827
 30
0.0
  0
SEQEND
  5
E5
330
D8
100
AcDbEntity
  8
_U+30EC_U+30A4_U+30E4_U+30FC 1
370
     0
  0
HATCH
  5
E4
330
1F
100
AcDbEntity
  8
_U+30EC_U+30A4_U+30E4_U+30FC 1
 62
     7
420
 16777215
100
AcDbHatch
 10
0.0
 20
0.0
 30
0.0
210
0.0
220
0.0
230
1.0
  2
SOLID
 70
     1
 71
     0
 91
        1
 92
        1
 93
       10
 72
     1
 10
89.9082013173618
 20
-127.3577871903827
 11
89.5440641044295
 21
-126.3580149684104
 72
     1
 10
89.5440641044295
 20
-126.3580149684104
 11
81.9080129103525
 21
-126.3580149684104
 72
     1
 10
81.9080129103525
 20
-126.3580149684104
 11
81.9080129103525
 21
-131.9320096892391
 72
     1
 10
81.9080129103525
 20
-131.9320096892391
 11
99.90775772891853
 21
-131.9320096892391
 72
     1
 10
99.90775772891853
 20
-131.9320096892391
 11
99.65351079096047
 21
-131.2319574671921
 72
     1
 10
99.65351079096047
 20
-131.2319574671921
 11
93.20773178873932
 21
-131.2319574671921
 72
     1
 10
93.20773178873932
 20
-131.2319574671921
 11
92.90801179638582
 21
-130.9315319117117
 72
     1
 10
92.90801179638582
 20
-130.9315319117117
 11
82.90810260706031
 21
-130.9315319117117
 72
     1
 10
82.90810260706031
 20
-130.9315319117117
 11
82.90810260706031
 21
-127.3577871903827
 72
     1
 10
82.90810260706031
 20
-127.3577871903827
 11
89.9082013173618
 21
-127.3577871903827
 97
        0
 75
     2
 76
     1
 98
        0
  0
POLYLINE
  5
E6
330
1F
100
AcDbEntity
  8
_U+30EC_U+30A4_U+30E4_U+30FC 1
 62
     7
420
 16777215
370
    25
100
AcDb2dPolyline
 66
     1
 10
0.0
 20
0.0
 30
0.0
  0
VERTEX
  5
E7
330
E6
100
AcDbEntity
  8
_U+30EC_U+30A4_U+30E4_U+30FC 1
 62
     7
420
 16777215
370
    25
100
AcDbVertex
100
AcDb2dVertex
 10
82.90810260706031
 20
-127.3577871903827
 30
0.0
  0
VERTEX
  5
E8
330
E6
100
AcDbEntity
  8
_U+30EC_U+30A4_U+30E4_U+30FC 1
 62
     7
420
 16777215
370
    25
100
AcDbVertex
100
AcDb2dVertex
 10
89.9082013173618
 20
-127.3577871903827
 30
0.0
  0
SEQEND
  5
E9
330
E6
100
AcDbEntity
  8
_U+30EC_U+30A4_U+30E4_U+30FC 1
 62
     7
420
 16777215
370
    25
  0
POLYLINE
  5
EA
330
1F
100
AcDbEntity
  8
_U+30EC_U+30A4_U+30E4_U+30FC 1
 62
     7
420
 16777215
370
    25
100
AcDb2dPolyline
 66
     1
 10
0.0
 20
0.0
 30
0.0
  0
VERTEX
  5
EB
330
EA
100
AcDbEntity
  8
_U+30EC_U+30A4_U+30E4_U+30FC 1
 62
     7
420
 16777215
370
    25
100
AcDbVertex
100
AcDb2dVertex
 10
99.90775772891853
 20
-131.9320096892391
 30
0.0
  0
VERTEX
  5
EC
330
EA
100
AcDbEntity
  8
_U+30EC_U+30A4_U+30E4_U+30FC 1
 62
     7
420
 16777215
370
    25
100
AcDbVertex
100
AcDb2dVertex
 10
81.9080129103525
 20
-131.9320096892391
 30
0.0
  0
VERTEX
  5
ED
330
EA
100
AcDbEntity
  8
_U+30EC_U+30A4_U+30E4_U+30FC 1
 62
     7
420
 16777215
370
    25
100
AcDbVertex
100
AcDb2dVertex
 10
81.9080129103525
 20
-126.4320630239474
 30
0.0
  0
SEQEND
  5
EE
330
EA
100
AcDbEntity
  8
_U+30EC_U+30A4_U+30E4_U+30FC 1
 62
     7
420
 16777215
370
    25
  0
POLYLINE
  5
EF
330
1F
100
AcDbEntity
  8
_U+30EC_U+30A4_U+30E4_U+30FC 1
 62
     7
420
 16777215
370
    25
100
AcDb2dPolyline
 66
     1
 10
0.0
 20
0.0
 30
0.0
  0
VERTEX
  5
F0
330
EF
100
AcDbEntity
  8
_U+30EC_U+30A4_U+30E4_U+30FC 1
 62
     7
420
 16777215
370
    25
100
AcDbVertex
100
AcDb2dVertex
 10
89.9082013173618
 20
-127.3577871903827
 30
0.0
  0
VERTEX
  5
F1
330
EF
100
AcDbEntity
  8
_U+30EC_U+30A4_U+30E4_U+30FC 1
 62
     7
420
 16777215
370
    25
100
AcDbVertex
100
AcDb2dVertex
 10
89.5440641044295
 20
-126.3580149684104
 30
0.0
  0
VERTEX
  5
F2
330
EF
100
AcDbEntity
  8
_U+30EC_U+30A4_U+30E4_U+30FC 1
 62
     7
420
 16777215
370
    25
100
AcDbVertex
100
AcDb2dVertex
 10
81.9080129103525
 20
-126.3580149684104
 30
0.0
  0
SEQEND
  5
F3
330
EF
100
AcDbEntity
  8
_U+30EC_U+30A4_U+30E4_U+30FC 1
 62
     7
420
 16777215
370
    25
  0
POLYLINE
  5
F4
330
1F
100
AcDbEntity
  8
_U+30EC_U+30A4_U+30E4_U+30FC 1
 62
     7
420
 16777215
370
    25
100
AcDb2dPolyline
 66
     1
 10
0.0
 20
0.0
 30
0.0
  0
VERTEX
  5
F5
330
F4
100
AcDbEntity
  8
_U+30EC_U+30A4_U+30E4_U+30FC 1
 62
     7
420
 16777215
370
    25
100
AcDbVertex
100
AcDb2dVertex
 10
99.90775772891853
 20
-131.9320096892391
 30
0.0
  0
VERTEX
  5
F6
330
F4
100
AcDbEntity
  8
_U+30EC_U+30A4_U+30E4_U+30FC 1
 62
     7
420
 16777215
370
    25
100
AcDbVertex
100
AcDb2dVertex
 10
99.65351079096047
 20
-131.2319574671921
 30
0.0
  0
VERTEX
  5
F7
330
F4
100
AcDbEntity
  8
_U+30EC_U+30A4_U+30E4_U+30FC 1
 62
     7
420
 16777215
370
    25
100
AcDbVertex
100
AcDb2dVertex
 10
93.20773178873932
 20
-131.2319574671921
 30
0.0
  0
SEQEND
  5
F8
330
F4
100
AcDbEntity
  8
_U+30EC_U+30A4_U+30E4_U+30FC 1
 62
     7
420
 16777215
370
    25
  0
POLYLINE
  5
F9
330
1F
100
AcDbEntity
  8
_U+30EC_U+30A4_U+30E4_U+30FC 1
 62
     7
420
 16777215
370
    25
100
AcDb2dPolyline
 66
     1
 10
0.0
 20
0.0
 30
0.0
  0
VERTEX
  5
FA
330
F9
100
AcDbEntity
  8
_U+30EC_U+30A4_U+30E4_U+30FC 1
 62
     7
420
 16777215
370
    25
100
AcDbVertex
100
AcDb2dVertex
 10
93.20773178873932
 20
-131.2319574671921
 30
0.0
  0
VERTEX
  5
FB
330
F9
100
AcDbEntity
  8
_U+30EC_U+30A4_U+30E4_U+30FC 1
 62
     7
420
 16777215
370
    25
100
AcDbVertex
100
AcDb2dVertex
 10
92.90801179638582
 20
-130.9315319117117
 30
0.0
  0
VERTEX
  5
FC
330
F9
100
AcDbEntity
  8
_U+30EC_U+30A4_U+30E4_U+30FC 1
 62
     7
420
 16777215
370
    25
100
AcDbVertex
100
AcDb2dVertex
 10
82.90810260706031
 20
-130.9315319117117
 30
0.0
  0
VERTEX
  5
FD
330
F9
100
AcDbEntity
  8
_U+30EC_U+30A4_U+30E4_U+30FC 1
 62
     7
420
 16777215
370
    25
100
AcDbVertex
100
AcDb2dVertex
 10
82.90810260706031
 20
-127.43183524592
 30
0.0
  0
SEQEND
  5
FE
330
F9
100
AcDbEntity
  8
_U+30EC_U+30A4_U+30E4_U+30FC 1
 62
     7
420
 16777215
370
    25
  0
ENDSEC
  0
SECTION
  2
OBJECTS
  0
DICTIONARY
  5
C
330
0
100
AcDbDictionary
281
     1
  3
ACAD_GROUP
350
D
  3
ACAD_LAYOUT
350
1A
  3
ACAD_MATERIAL
350
3B
  3
ACAD_MLEADERSTYLE
350
100
  3
ACAD_MLINESTYLE
350
17
  3
ACAD_PLOTSETTINGS
350
19
  3
ACAD_PLOTSTYLENAME
350
E
  3
ACAD_TABLESTYLE
350
FF
  3
ACAD_VISUALSTYLE
350
2A
  0
SUN
  5
3F
330
29
100
AcDbSun
 90
        1
290
     0
 63
     7
421
 16777215
 40
1.0
291
     1
 91
  2455826
 92
 54000000
292
     0
 70
     2
 71
   256
280
     1
  0
DICTIONARY
  5
D
102
{ACAD_REACTORS
330
C
102
}
330
C
100
AcDbDictionary
281
     1
  0
DICTIONARY
  5
1A
102
{ACAD_REACTORS
330
C
102
}
330
C
100
AcDbDictionary
281
     1
  3
Layout1
350
1E
  3
Layout2
350
26
  3
Model
350
22
  0
DICTIONARY
  5
3B
102
{ACAD_REACTORS
330
C
102
}
330
C
100
AcDbDictionary
281
     1
  3
ByBlock
350
3D
  3
ByLayer
350
3C
  3
Global
350
3E
  0
DICTIONARY
  5
100
102
{ACAD_REACTORS
330
C
102
}
330
C
100
AcDbDictionary
281
     1
  0
DICTIONARY
  5
17
102
{ACAD_REACTORS
330
C
102
}
330
C
100
AcDbDictionary
281
     1
  3
Standard
350
18
  0
DICTIONARY
  5
19
102
{ACAD_REACTORS
330
C
102
}
330
C
100
AcDbDictionary
281
     1
  0
ACDBDICTIONARYWDFLT
  5
E
102
{ACAD_REACTORS
330
C
102
}
330
C
100
AcDbDictionary
281
     1
  3
Normal
350
F
100
AcDbDictionaryWithDefault
340
F
  0
DICTIONARY
  5
FF
102
{ACAD_REACTORS
330
C
102
}
330
C
100
AcDbDictionary
281
     1
  0
DICTIONARY
  5
2A
102
{ACAD_REACTORS
330
C
102
}
330
C
100
AcDbDictionary
281
     1
  3
2dWireframe
350
2F
  3
3D Hidden
350
31
  3
3dWireframe
350
30
  3
Basic
350
32
  3
Brighten
350
36
  3
ColorChange
350
3A
  3
Conceptual
350
34
  3
Dim
350
35
  3
Facepattern
350
39
  3
Flat
350
2B
  3
FlatWithEdges
350
2C
  3
Gouraud
350
2D
  3
GouraudWithEdges
350
2E
  3
Linepattern
350
38
  3
Realistic
350
33
  3
Thicken
350
37
  0
LAYOUT
  5
1E
102
{ACAD_REACTORS
330
1A
102
}
330
1A
100
AcDbPlotSettings
  1

  2
none_device
  4

  6

 40
0.0
 41
0.0
 42
0.0
 43
0.0
 44
0.0
 45
0.0
 46
0.0
 47
0.0
 48
0.0
 49
0.0
140
0.0
141
0.0
142
1.0
143
1.0
 70
   688
 72
     0
 73
     0
 74
     5
  7

 75
    16
 76
     0
 77
     2
 78
   300
147
1.0
148
0.0
149
0.0
100
AcDbLayout
  1
Layout1
 70
     1
 71
     1
 10
0.0
 20
0.0
 11
12.0
 21
9.0
 12
0.0
 22
0.0
 32
0.0
 14
1.000000000000000E+20
 24
1.000000000000000E+20
 34
1.000000000000000E+20
 15
-1.000000000000000E+20
 25
-1.000000000000000E+20
 35
-1.000000000000000E+20
146
0.0
 13
0.0
 23
0.0
 33
0.0
 16
1.0
 26
0.0
 36
0.0
 17
0.0
 27
1.0
 37
0.0
 76
     0
330
1B
  0
LAYOUT
  5
26
102
{ACAD_REACTORS
330
1A
102
}
330
1A
100
AcDbPlotSettings
  1

  2
none_device
  4

  6

 40
0.0
 41
0.0
 42
0.0
 43
0.0
 44
0.0
 45
0.0
 46
0.0
 47
0.0
 48
0.0
 49
0.0
140
0.0
141
0.0
142
1.0
143
1.0
 70
   688
 72
     0
 73
     0
 74
     5
  7

 75
    16
 76
     0
 77
     2
 78
   300
147
1.0
148
0.0
149
0.0
100
AcDbLayout
  1
Layout2
 70
     1
 71
     2
 10
0.0
 20
0.0
 11
0.0
 21
0.0
 12
0.0
 22
0.0
 32
0.0
 14
0.0
 24
0.0
 34
0.0
 15
0.0
 25
0.0
 35
0.0
146
0.0
 13
0.0
 23
0.0
 33
0.0
 16
1.0
 26
0.0
 36
0.0
 17
0.0
 27
1.0
 37
0.0
 76
     0
330
23
  0
LAYOUT
  5
22
102
{ACAD_REACTORS
330
1A
102
}
330
1A
100
AcDbPlotSettings
  1

  2
none_device
  4

  6

 40
0.0
 41
0.0
 42
0.0
 43
0.0
 44
0.0
 45
0.0
 46
0.0
 47
0.0
 48
0.0
 49
0.0
140
0.0
141
0.0
142
1.0
143
1.0
 70
  1712
 72
     0
 73
     0
 74
     0
  7

 75
     0
 76
     0
 77
     2
 78
   300
147
1.0
148
0.0
149
0.0
100
AcDbLayout
  1
Model
 70
     1
 71
     0
 10
0.0
 20
0.0
 11
12.0
 21
9.0
 12
0.0
 22
0.0
 32
0.0
 14
1.000000000000000E+20
 24
1.000000000000000E+20
 34
1.000000000000000E+20
 15
-1.000000000000000E+20
 25
-1.000000000000000E+20
 35
-1.000000000000000E+20
146
0.0
 13
0.0
 23
0.0
 33
0.0
 16
1.0
 26
0.0
 36
0.0
 17
0.0
 27
1.0
 37
0.0
 76
     0
330
1F
331
29
  0
MATERIAL
  5
3D
102
{ACAD_REACTORS
330
3B
102
}
330
3B
100
AcDbMaterial
  1
ByBlock
 72
     1
 94
      127
  0
MATERIAL
  5
3C
102
{ACAD_REACTORS
330
3B
102
}
330
3B
100
AcDbMaterial
  1
ByLayer
 72
     1
 94
      127
  0
MATERIAL
  5
3E
102
{ACAD_REACTORS
330
3B
102
}
330
3B
100
AcDbMaterial
  1
Global
 72
     1
 94
      127
  0
MLINESTYLE
  5
18
102
{ACAD_REACTORS
330
17
102
}
330
17
100
AcDbMlineStyle
  2
Standard
 70
     0
  3

 62
   256
 51
90.0
 52
90.0
 71
     2
 49
0.5
 62
   256
  6
BYLAYER
 49
-0.5
 62
   256
  6
BYLAYER
  0
ACDBPLACEHOLDER
  5
F
102
{ACAD_REACTORS
330
E
102
}
330
E
  0
VISUALSTYLE
  5
2F
102
{ACAD_REACTORS
330
2A
102
}
330
2A
100
AcDbVisualStyle
  2
2dWireframe
 70
     4
177
     2
291
     0
 71
     0
176
     1
 72
     2
176
     1
 73
     0
176
     1
 90
        0
176
     1
 40
-0.6
176
     1
 41
-30.0
176
     1
 62
     5
 63
     7
421
 16777215
176
     1
 74
     1
176
     1
 91
        4
176
     1
 64
     7
176
     1
 65
   257
176
     1
 75
     1
176
     1
175
     1
176
     1
 42
1.0
176
     1
 92
        0
176
     1
 66
   257
176
     1
 43
1.0
176
     1
 76
     1
176
     1
 77
     6
176
     1
 78
     2
176
     1
 67
     7
176
     1
 79
     5
176
     1
170
     0
176
     1
171
     0
176
     1
290
     0
176
     1
 93
        1
176
     1
 44
0.0
176
     1
173
     0
176
     1
  0
VISUALSTYLE
  5
31
102
{ACAD_REACTORS
330
2A
102
}
330
2A
100
AcDbVisualStyle
  2
3D Hidden
 70
     6
177
     2
291
     0
 71
     1
176
     1
 72
     2
176
     1
 73
     2
176
     1
 90
        0
176
     1
 40
-0.6
176
     1
 41
-30.0
176
     1
 62
     5
 63
     7
421
 16777215
176
     1
 74
     2
176
     1
 91
        2
176
     1
 64
     7
176
     1
 65
   257
176
     1
 75
     2
176
     1
175
     1
176
     1
 42
40.0
176
     1
 92
        0
176
     1
 66
   257
176
     1
 43
1.0
176
     1
 76
     1
176
     1
 77
     6
176
     1
 78
     2
176
     1
 67
     7
176
     1
 79
     3
176
     1
170
     0
176
     1
171
     0
176
     1
290
     0
176
     1
 93
        1
176
     1
 44
0.0
176
     1
173
     0
176
     1
  0
VISUALSTYLE
  5
30
102
{ACAD_REACTORS
330
2A
102
}
330
2A
100
AcDbVisualStyle
  2
3dWireframe
 70
     5
177
     2
291
     0
 71
     0
176
     1
 72
     2
176
     1
 73
     0
176
     1
 90
        0
176
     1
 40
-0.6
176
     1
 41
-30.0
176
     1
 62
     5
 63
     7
421
 16777215
176
     1
 74
     1
176
     1
 91
        4
176
     1
 64
     7
176
     1
 65
   257
176
     1
 75
     1
176
     1
175
     1
176
     1
 42
1.0
176
     1
 92
        0
176
     1
 66
   257
176
     1
 43
1.0
176
     1
 76
     1
176
     1
 77
     6
176
     1
 78
     2
176
     1
 67
     7
176
     1
 79
     5
176
     1
170
     0
176
     1
171
     0
176
     1
290
     0
176
     1
 93
        1
176
     1
 44
0.0
176
     1
173
     0
176
     1
  0
VISUALSTYLE
  5
32
102
{ACAD_REACTORS
330
2A
102
}
330
2A
100
AcDbVisualStyle
  2
Basic
 70
     7
177
     2
291
     1
 71
     1
176
     1
 72
     0
176
     1
 73
     1
176
     1
 90
        0
176
     1
 40
-0.6
176
     1
 41
-30.0
176
     1
 62
     5
 63
     7
421
 16777215
176
     1
 74
     0
176
     1
 91
        4
176
     1
 64
     7
176
     1
 65
   257
176
     1
 75
     1
176
     1
175
     1
176
     1
 42
1.0
176
     1
 92
        8
176
     1
 66
     7
176
     1
 43
1.0
176
     1
 76
     1
176
     1
 77
     6
176
     1
 78
     2
176
     1
 67
     7
176
     1
 79
     5
176
     1
170
     0
176
     1
171
     0
176
     1
290
     0
176
     1
 93
        1
176
     1
 44
0.0
176
     1
173
     0
176
     1
  0
VISUALSTYLE
  5
36
102
{ACAD_REACTORS
330
2A
102
}
330
2A
100
AcDbVisualStyle
  2
Brighten
 70
    12
177
     2
291
     1
 71
     2
176
     1
 72
     2
176
     1
 73
     0
176
     1
 90
        0
176
     1
 40
-0.6
176
     1
 41
-30.0
176
     1
 62
     5
 63
     7
421
 16777215
176
     1
 74
     1
176
     1
 91
        4
176
     1
 64
     7
176
     1
 65
   257
176
     1
 75
     1
176
     1
175
     1
176
     1
 42
1.0
176
     1
 92
        8
176
     1
 66
     7
176
     1
 43
1.0
176
     1
 76
     1
176
     1
 77
     6
176
     1
 78
     2
176
     1
 67
     7
176
     1
 79
     5
176
     1
170
     0
176
     1
171
     0
176
     1
290
     0
176
     1
 93
        1
176
     1
 44
50.0
176
     1
173
     0
176
     1
  0
VISUALSTYLE
  5
3A
102
{ACAD_REACTORS
330
2A
102
}
330
2A
100
AcDbVisualStyle
  2
ColorChange
 70
    16
177
     2
291
     1
 71
     2
176
     1
 72
     2
176
     1
 73
     3
176
     1
 90
        0
176
     1
 40
-0.6
176
     1
 41
-30.0
176
     1
 62
     5
 63
     8
421
  8421504
176
     1
 74
     1
176
     1
 91
        4
176
     1
 64
     7
176
     1
 65
   257
176
     1
 75
     1
176
     1
175
     1
176
     1
 42
1.0
176
     1
 92
        8
176
     1
 66
     8
424
  8421504
176
     1
 43
1.0
176
     1
 76
     1
176
     1
 77
     6
176
     1
 78
     2
176
     1
 67
     7
176
     1
 79
     5
176
     1
170
     0
176
     1
171
     0
176
     1
290
     0
176
     1
 93
        1
176
     1
 44
0.0
176
     1
173
     0
176
     1
  0
VISUALSTYLE
  5
34
102
{ACAD_REACTORS
330
2A
102
}
330
2A
100
AcDbVisualStyle
  2
Conceptual
 70
     9
177
     2
291
     0
 71
     3
176
     1
 72
     2
176
     1
 73
     0
176
     1
 90
        0
176
     1
 40
-0.6
176
     1
 41
-30.0
176
     1
 62
     5
 63
     7
421
 16777215
176
     1
 74
     2
176
     1
 91
        2
176
     1
 64
     7
176
     1
 65
   257
176
     1
 75
     1
176
     1
175
     1
176
     1
 42
40.0
176
     1
 92
        8
176
     1
 66
     7
176
     1
 43
1.0
176
     1
 76
     1
176
     1
 77
     6
176
     1
 78
     2
176
     1
 67
     7
176
     1
 79
     3
176
     1
170
     0
176
     1
171
     0
176
     1
290
     0
176
     1
 93
        1
176
     1
 44
0.0
176
     1
173
     0
176
     1
  0
VISUALSTYLE
  5
35
102
{ACAD_REACTORS
330
2A
102
}
330
2A
100
AcDbVisualStyle
  2
Dim
 70
    11
177
     2
291
     1
 71
     2
176
     1
 72
     2
176
     1
 73
     0
176
     1
 90
        0
176
     1
 40
-0.6
176
     1
 41
-30.0
176
     1
 62
     5
 63
     7
421
 16777215
176
     1
 74
     1
176
     1
 91
        4
176
     1
 64
     7
176
     1
 65
   257
176
     1
 75
     1
176
     1
175
     1
176
     1
 42
1.0
176
     1
 92
        8
176
     1
 66
     7
176
     1
 43
1.0
176
     1
 76
     1
176
     1
 77
     6
176
     1
 78
     2
176
     1
 67
     7
176
     1
 79
     5
176
     1
170
     0
176
     1
171
     0
176
     1
290
     0
176
     1
 93
        1
176
     1
 44
-50.0
176
     1
173
     0
176
     1
  0
VISUALSTYLE
  5
39
102
{ACAD_REACTORS
330
2A
102
}
330
2A
100
AcDbVisualStyle
  2
Facepattern
 70
    15
177
     2
291
     1
 71
     2
176
     1
 72
     2
176
     1
 73
     0
176
     1
 90
        0
176
     1
 40
-0.6
176
     1
 41
-30.0
176
     1
 62
     5
 63
     7
421
 16777215
176
     1
 74
     1
176
     1
 91
        4
176
     1
 64
     7
176
     1
 65
   257
176
     1
 75
     1
176
     1
175
     1
176
     1
 42
1.0
176
     1
 92
        8
176
     1
 66
     7
176
     1
 43
1.0
176
     1
 76
     1
176
     1
 77
     6
176
     1
 78
     2
176
     1
 67
     7
176
     1
 79
     5
176
     1
170
     0
176
     1
171
     0
176
     1
290
     0
176
     1
 93
        1
176
     1
 44
0.0
176
     1
173
     0
176
     1
  0
VISUALSTYLE
  5
2B
102
{ACAD_REACTORS
330
2A
102
}
330
2A
100
AcDbVisualStyle
  2
Flat
 70
     0
177
     2
291
     1
 71
     2
176
     1
 72
     1
176
     1
 73
     1
176
     1
 90
        2
176
     1
 40
-0.6
176
     1
 41
30.0
176
     1
 62
     5
 63
     7
421
 16777215
176
     1
 74
     0
176
     1
 91
        4
176
     1
 64
     7
176
     1
 65
   257
176
     1
 75
     1
176
     1
175
     1
176
     1
 42
1.0
176
     1
 92
        8
176
     1
 66
     7
176
     1
 43
1.0
176
     1
 76
     1
176
     1
 77
     6
176
     1
 78
     2
176
     1
 67
     7
176
     1
 79
     5
176
     1
170
     0
176
     1
171
     0
176
     1
290
     0
176
     1
 93
       13
176
     1
 44
0.0
176
     1
173
     0
176
     1
  0
VISUALSTYLE
  5
2C
102
{ACAD_REACTORS
330
2A
102
}
330
2A
100
AcDbVisualStyle
  2
FlatWithEdges
 70
     1
177
     2
291
     1
 71
     2
176
     1
 72
     1
176
     1
 73
     1
176
     1
 90
        2
176
     1
 40
-0.6
176
     1
 41
30.0
176
     1
 62
     5
 63
     7
421
 16777215
176
     1
 74
     1
176
     1
 91
        4
176
     1
 64
     7
176
     1
 65
   257
176
     1
 75
     1
176
     1
175
     1
176
     1
 42
1.0
176
     1
 92
        0
176
     1
 66
   257
176
     1
 43
1.0
176
     1
 76
     1
176
     1
 77
     6
176
     1
 78
     2
176
     1
 67
     7
176
     1
 79
     5
176
     1
170
     0
176
     1
171
     0
176
     1
290
     0
176
     1
 93
       13
176
     1
 44
0.0
176
     1
173
     0
176
     1
  0
VISUALSTYLE
  5
2D
102
{ACAD_REACTORS
330
2A
102
}
330
2A
100
AcDbVisualStyle
  2
Gouraud
 70
     2
177
     2
291
     1
 71
     2
176
     1
 72
     2
176
     1
 73
     1
176
     1
 90
        2
176
     1
 40
-0.6
176
     1
 41
30.0
176
     1
 62
     5
 63
     7
421
 16777215
176
     1
 74
     0
176
     1
 91
        4
176
     1
 64
     7
176
     1
 65
   257
176
     1
 75
     1
176
     1
175
     1
176
     1
 42
1.0
176
     1
 92
        0
176
     1
 66
     7
176
     1
 43
1.0
176
     1
 76
     1
176
     1
 77
     6
176
     1
 78
     2
176
     1
 67
     7
176
     1
 79
     5
176
     1
170
     0
176
     1
171
     0
176
     1
290
     0
176
     1
 93
       13
176
     1
 44
0.0
176
     1
173
     0
176
     1
  0
VISUALSTYLE
  5
2E
102
{ACAD_REACTORS
330
2A
102
}
330
2A
100
AcDbVisualStyle
  2
GouraudWithEdges
 70
     3
177
     2
291
     1
 71
     2
176
     1
 72
     2
176
     1
 73
     1
176
     1
 90
        2
176
     1
 40
-0.6
176
     1
 41
30.0
176
     1
 62
     5
 63
     7
421
 16777215
176
     1
 74
     1
176
     1
 91
        4
176
     1
 64
     7
176
     1
 65
   257
176
     1
 75
     1
176
     1
175
     1
176
     1
 42
1.0
176
     1
 92
        0
176
     1
 66
   257
176
     1
 43
1.0
176
     1
 76
     1
176
     1
 77
     6
176
     1
 78
     2
176
     1
 67
     7
176
     1
 79
     5
176
     1
170
     0
176
     1
171
     0
176
     1
290
     0
176
     1
 93
       13
176
     1
 44
0.0
176
     1
173
     0
176
     1
  0
VISUALSTYLE
  5
38
102
{ACAD_REACTORS
330
2A
102
}
330
2A
100
AcDbVisualStyle
  2
Linepattern
 70
    14
177
     2
291
     1
 71
     2
176
     1
 72
     2
176
     1
 73
     0
176
     1
 90
        0
176
     1
 40
-0.6
176
     1
 41
-30.0
176
     1
 62
     5
 63
     7
421
 16777215
176
     1
 74
     1
176
     1
 91
        4
176
     1
 64
     7
176
     1
 65
   257
176
     1
 75
     7
176
     1
175
     7
176
     1
 42
1.0
176
     1
 92
        8
176
     1
 66
     7
176
     1
 43
1.0
176
     1
 76
     1
176
     1
 77
     6
176
     1
 78
     2
176
     1
 67
     7
176
     1
 79
     5
176
     1
170
     0
176
     1
171
     0
176
     1
290
     0
176
     1
 93
        1
176
     1
 44
0.0
176
     1
173
     0
176
     1
  0
VISUALSTYLE
  5
33
102
{ACAD_REACTORS
330
2A
102
}
330
2A
100
AcDbVisualStyle
  2
Realistic
 70
     8
177
     2
291
     0
 71
     2
176
     1
 72
     2
176
     1
 73
     0
176
     1
 90
        0
176
     1
 40
-0.6
176
     1
 41
-30.0
176
     1
 62
     5
 63
     7
421
 16777215
176
     1
 74
     1
176
     1
 91
        0
176
     1
 64
     7
176
     1
 65
   257
176
     1
 75
     1
176
     1
175
     1
176
     1
 42
1.0
176
     1
 92
        8
176
     1
 66
     8
424
  7895160
176
     1
 43
1.0
176
     1
 76
     1
176
     1
 77
     6
176
     1
 78
     2
176
     1
 67
     7
176
     1
 79
     5
176
     1
170
     0
176
     1
171
     0
176
     1
290
     0
176
     1
 93
       13
176
     1
 44
0.0
176
     1
173
     0
176
     1
  0
VISUALSTYLE
  5
37
102
{ACAD_REACTORS
330
2A
102
}
330
2A
100
AcDbVisualStyle
  2
Thicken
 70
    13
177
     2
291
     1
 71
     2
176
     1
 72
     2
176
     1
 73
     0
176
     1
 90
        0
176
     1
 40
-0.6
176
     1
 41
-30.0
176
     1
 62
     5
 63
     7
421
 16777215
176
     1
 74
     1
176
     1
 91
        4
176
     1
 64
     7
176
     1
 65
   257
176
     1
 75
     1
176
     1
175
     1
176
     1
 42
1.0
176
     1
 92
       12
176
     1
 66
     7
176
     1
 43
1.0
176
     1
 76
     1
176
     1
 77
     6
176
     1
 78
     2
176
     1
 67
     7
176
     1
 79
     5
176
     1
170
     0
176
     1
171
     0
176
     1
290
     0
176
     1
 93
        1
176
     1
 44
0.0
176
     1
173
     0
176
     1
  0
ENDSEC
  0
EOF
