  0
SECTION
  2
HEADER
  9
$ACADVER
  1
AC1024
  9
$ACADMAINTVER
 70
     6
  9
$DWGCODEPAGE
  3
UNDEFINED
  9
$INSBASE
 10
0.0
 20
0.0
 30
0.0
  9
$EXTMIN
 10
1.000000000000000E+20
 20
1.000000000000000E+20
 30
1.000000000000000E+20
  9
$EXTMAX
 10
-1.000000000000000E+20
 20
-1.000000000000000E+20
 30
-1.000000000000000E+20
  9
$LIMMIN
 10
0.0
 20
0.0
  9
$LIMMAX
 10
12.0
 20
9.0
  9
$ORTHOMODE
 70
     0
  9
$REGENMODE
 70
     1
  9
$FILLMODE
 70
     1
  9
$QTEXTMODE
 70
     0
  9
$MIRRTEXT
 70
     1
  9
$LTSCALE
 40
1.0
  9
$ATTMODE
 70
     1
  9
$TEXTSIZE
 40
0.2
  9
$TRACEWID
 40
0.05
  9
$TEXTSTYLE
  7
Standard
  9
$CLAYER
  8
0
  9
$CELTYPE
  6
ByLayer
  9
$CECOLOR
 62
   256
  9
$CELTSCALE
 40
1.0
  9
$DISPSILH
 70
     0
  9
$DIMSCALE
 40
1.0
  9
$DIMASZ
 40
0.18
  9
$DIMEXO
 40
0.0625
  9
$DIMDLI
 40
0.38
  9
$DIMRND
 40
0.0
  9
$DIMDLE
 40
0.0
  9
$DIMEXE
 40
0.18
  9
$DIMTP
 40
0.0
  9
$DIMTM
 40
0.0
  9
$DIMTXT
 40
0.18
  9
$DIMCEN
 40
0.09
  9
$DIMTSZ
 40
0.0
  9
$DIMTOL
 70
     0
  9
$DIMLIM
 70
     0
  9
$DIMTIH
 70
     1
  9
$DIMTOH
 70
     1
  9
$DIMSE1
 70
     0
  9
$DIMSE2
 70
     0
  9
$DIMTAD
 70
     0
  9
$DIMZIN
 70
     0
  9
$DIMBLK
  1

  9
$DIMASO
 70
     1
  9
$DIMSHO
 70
     1
  9
$DIMPOST
  1

  9
$DIMAPOST
  1

  9
$DIMALT
 70
     0
  9
$DIMALTD
 70
     2
  9
$DIMALTF
 40
25.4
  9
$DIMLFAC
 40
1.0
  9
$DIMTOFL
 70
     0
  9
$DIMTVP
 40
0.0
  9
$DIMTIX
 70
     0
  9
$DIMSOXD
 70
     0
  9
$DIMSAH
 70
     0
  9
$DIMBLK1
  1

  9
$DIMBLK2
  1

  9
$DIMSTYLE
  2
Standard
  9
$DIMCLRD
 70
     0
  9
$DIMCLRE
 70
     0
  9
$DIMCLRT
 70
     0
  9
$DIMTFAC
 40
1.0
  9
$DIMGAP
 40
0.09
  9
$DIMJUST
 70
     0
  9
$DIMSD1
 70
     0
  9
$DIMSD2
 70
     0
  9
$DIMTOLJ
 70
     1
  9
$DIMTZIN
 70
     0
  9
$DIMALTZ
 70
     0
  9
$DIMALTTZ
 70
     0
  9
$DIMUPT
 70
     0
  9
$DIMDEC
 70
     4
  9
$DIMTDEC
 70
     4
  9
$DIMALTU
 70
     2
  9
$DIMALTTD
 70
     2
  9
$DIMTXSTY
  7
Standard
  9
$DIMAUNIT
 70
     0
  9
$DIMADEC
 70
     0
  9
$DIMALTRND
 40
0.0
  9
$DIMAZIN
 70
     0
  9
$DIMDSEP
 70
    46
  9
$DIMATFIT
 70
     3
  9
$DIMFRAC
 70
     0
  9
$DIMLDRBLK
  1

  9
$DIMLUNIT
 70
     2
  9
$DIMLWD
 70
    -2
  9
$DIMLWE
 70
    -2
  9
$DIMTMOVE
 70
     0
  9
$DIMFXL
 40
1.0
  9
$DIMFXLON
 70
     0
  9
$DIMJOGANG
 40
0.7853981633974483
  9
$DIMTFILL
 70
     0
  9
$DIMTFILLCLR
 70
     0
  9
$DIMARCSYM
 70
     0
  9
$DIMLTYPE
  6

  9
$DIMLTEX1
  6

  9
$DIMLTEX2
  6

  9
$DIMTXTDIRECTION
 70
     0
  9
$LUNITS
 70
     2
  9
$LUPREC
 70
     4
  9
$SKETCHINC
 40
0.1
  9
$FILLETRAD
 40
0.5
  9
$AUNITS
 70
     0
  9
$AUPREC
 70
     0
  9
$MENU
  1
.
  9
$ELEVATION
 40
0.0
  9
$PELEVATION
 40
0.0
  9
$THICKNESS
 40
0.0
  9
$LIMCHECK
 70
     0
  9
$CHAMFERA
 40
0.5
  9
$CHAMFERB
 40
0.5
  9
$CHAMFERC
 40
1.0
  9
$CHAMFERD
 40
0.0
  9
$SKPOLY
 70
     0
  9
$TDCREATE
 40
2457917.594120359
  9
$TDUCREATE
 40
2457917.21912037
  9
$TDUPDATE
 40
2457917.594120359
  9
$TDUUPDATE
 40
2457917.21912037
  9
$TDINDWG
 40
0.0000000116
  9
$TDUSRTIMER
 40
0.0000000116
  9
$USRTIMER
 70
     1
  9
$ANGBASE
 50
0.0
  9
$ANGDIR
 70
     0
  9
$PDMODE
 70
     0
  9
$PDSIZE
 40
0.0
  9
$PLINEWID
 40
0.0
  9
$SPLFRAME
 70
     0
  9
$SPLINETYPE
 70
     6
  9
$SPLINESEGS
 70
     8
  9
$HANDSEED
  5
E6
  9
$SURFTAB1
 70
     6
  9
$SURFTAB2
 70
     6
  9
$SURFTYPE
 70
     6
  9
$SURFU
 70
     6
  9
$SURFV
 70
     6
  9
$UCSBASE
  2

  9
$UCSNAME
  2

  9
$UCSORG
 10
0.0
 20
0.0
 30
0.0
  9
$UCSXDIR
 10
1.0
 20
0.0
 30
0.0
  9
$UCSYDIR
 10
0.0
 20
1.0
 30
0.0
  9
$UCSORTHOREF
  2

  9
$UCSORTHOVIEW
 70
     0
  9
$UCSORGTOP
 10
0.0
 20
0.0
 30
0.0
  9
$UCSORGBOTTOM
 10
0.0
 20
0.0
 30
0.0
  9
$UCSORGLEFT
 10
0.0
 20
0.0
 30
0.0
  9
$UCSORGRIGHT
 10
0.0
 20
0.0
 30
0.0
  9
$UCSORGFRONT
 10
0.0
 20
0.0
 30
0.0
  9
$UCSORGBACK
 10
0.0
 20
0.0
 30
0.0
  9
$PUCSBASE
  2

  9
$PUCSNAME
  2

  9
$PUCSORG
 10
0.0
 20
0.0
 30
0.0
  9
$PUCSXDIR
 10
1.0
 20
0.0
 30
0.0
  9
$PUCSYDIR
 10
0.0
 20
1.0
 30
0.0
  9
$PUCSORTHOREF
  2

  9
$PUCSORTHOVIEW
 70
     0
  9
$PUCSORGTOP
 10
0.0
 20
0.0
 30
0.0
  9
$PUCSORGBOTTOM
 10
0.0
 20
0.0
 30
0.0
  9
$PUCSORGLEFT
 10
0.0
 20
0.0
 30
0.0
  9
$PUCSORGRIGHT
 10
0.0
 20
0.0
 30
0.0
  9
$PUCSORGFRONT
 10
0.0
 20
0.0
 30
0.0
  9
$PUCSORGBACK
 10
0.0
 20
0.0
 30
0.0
  9
$USERI1
 70
     0
  9
$USERI2
 70
     0
  9
$USERI3
 70
     0
  9
$USERI4
 70
     0
  9
$USERI5
 70
     0
  9
$USERR1
 40
0.0
  9
$USERR2
 40
0.0
  9
$USERR3
 40
0.0
  9
$USERR4
 40
0.0
  9
$USERR5
 40
0.0
  9
$WORLDVIEW
 70
     1
  9
$SHADEDGE
 70
     3
  9
$SHADEDIF
 70
    70
  9
$TILEMODE
 70
     1
  9
$MAXACTVP
 70
    64
  9
$PINSBASE
 10
0.0
 20
0.0
 30
0.0
  9
$PLIMCHECK
 70
     0
  9
$PEXTMIN
 10
1.000000000000000E+20
 20
1.000000000000000E+20
 30
1.000000000000000E+20
  9
$PEXTMAX
 10
-1.000000000000000E+20
 20
-1.000000000000000E+20
 30
-1.000000000000000E+20
  9
$PLIMMIN
 10
0.0
 20
0.0
  9
$PLIMMAX
 10
12.0
 20
9.0
  9
$UNITMODE
 70
     0
  9
$VISRETAIN
 70
     1
  9
$PLINEGEN
 70
     0
  9
$PSLTSCALE
 70
     1
  9
$TREEDEPTH
 70
  3020
  9
$CMLSTYLE
  2
Standard
  9
$CMLJUST
 70
     0
  9
$CMLSCALE
 40
1.0
  9
$PROXYGRAPHICS
 70
     1
  9
$MEASUREMENT
 70
     0
  9
$CELWEIGHT
370
    -1
  9
$ENDCAPS
280
     0
  9
$JOINSTYLE
280
     0
  9
$LWDISPLAY
290
     1
  9
$INSUNITS
 70
     1
  9
$HYPERLINKBASE
  1

  9
$STYLESHEET
  1

  9
$XEDIT
290
     1
  9
$CEPSNTYPE
380
     0
  9
$PSTYLEMODE
290
     1
  9
$FINGERPRINTGUID
  2
{39BAD037-78DB-A0D2-5D1E-12C5A9CD57F1}
  9
$VERSIONGUID
  2
{FAEB1C32-E019-11D5-929B-00C0DF256EC4}
  9
$EXTNAMES
290
     1
  9
$PSVPSCALE
 40
0.0
  9
$OLESTARTUP
290
     0
  9
$SORTENTS
280
   127
  9
$INDEXCTL
280
     0
  9
$HIDETEXT
280
     1
  9
$XCLIPFRAME
280
     2
  9
$HALOGAP
280
     0
  9
$OBSCOLOR
 70
   257
  9
$OBSLTYPE
280
     0
  9
$INTERSECTIONDISPLAY
280
     0
  9
$INTERSECTIONCOLOR
 70
   257
  9
$DIMASSOC
280
     2
  9
$PROJECTNAME
  1

  9
$CAMERADISPLAY
290
     0
  9
$LENSLENGTH
 40
50.0
  9
$CAMERAHEIGHT
 40
0.0
  9
$STEPSPERSEC
 40
2.0
  9
$STEPSIZE
 40
6.0
  9
$3DDWFPREC
 40
2.0
  9
$PSOLWIDTH
 40
0.25
  9
$PSOLHEIGHT
 40
4.0
  9
$LOFTANG1
 40
1.570796326794897
  9
$LOFTANG2
 40
1.570796326794897
  9
$LOFTMAG1
 40
0.0
  9
$LOFTMAG2
 40
0.0
  9
$LOFTPARAM
 70
     7
  9
$LOFTNORMALS
280
     1
  9
$LATITUDE
 40
37.795
  9
$LONGITUDE
 40
-122.394
  9
$NORTHDIRECTION
 40
0.0
  9
$TIMEZONE
 70
 -8000
  9
$LIGHTGLYPHDISPLAY
280
     1
  9
$TILEMODELIGHTSYNCH
280
     1
  9
$CMATERIAL
347
3C
  9
$SOLIDHIST
280
     1
  9
$SHOWHIST
280
     1
  9
$DWFFRAME
280
     2
  9
$DGNFRAME
280
     2
  9
$REALWORLDSCALE
290
     1
  9
$INTERFERECOLOR
 62
   256
  9
$CSHADOW
280
     0
  9
$SHADOWPLANELOCATION
 40
0.0
  0
ENDSEC
  0
SECTION
  2
CLASSES
  0
CLASS
  1
ACDBDICTIONARYWDFLT
  2
AcDbDictionaryWithDefault
  3
ObjectDBX Classes
 90
        0
 91
        4
280
     0
281
     0
  0
CLASS
  1
VISUALSTYLE
  2
AcDbVisualStyle
  3
ObjectDBX Classes
 90
     4095
 91
        4
280
     0
281
     0
  0
CLASS
  1
MATERIAL
  2
AcDbMaterial
  3
ObjectDBX Classes
 90
     1153
 91
        4
280
     0
281
     0
  0
CLASS
  1
SUN
  2
AcDbSun
  3
SCENEOE
 90
     1024
 91
        4
280
     0
281
     0
  0
ENDSEC
  0
SECTION
  2
TABLES
  0
TABLE
  2
VPORT
  5
8
330
0
100
AcDbSymbolTable
 70
     1
  0
VPORT
  5
29
330
8
100
AcDbSymbolTableRecord
100
AcDbViewportTableRecord
  2
*Active
 70
     0
 10
0.0
 20
0.0
 11
1.0
 21
1.0
 12
0.0
 22
0.0
 13
0.0
 23
0.0
 14
0.5
 24
0.5
 15
0.5
 25
0.5
 16
0.0
 26
0.0
 36
1.0
 17
91.00082462281999
 27
-128.4993055234307
 37
0.0
 40
256.9986110468615
 41
0.7081814508812795
 42
50.0
 43
0.0
 44
0.0
 50
0.0
 51
0.0
 71
     0
 72
   100
 73
     1
 74
     3
 75
     0
 76
     0
 77
     0
 78
     0
281
     0
 65
     1
110
0.0
120
0.0
130
0.0
111
1.0
121
0.0
131
0.0
112
0.0
122
1.0
132
0.0
 79
     0
146
0.0
 60
     3
 61
     5
292
     1
282
     1
141
0.0
142
0.0
 63
   250
361
3F
  0
ENDTAB
  0
TABLE
  2
LTYPE
  5
5
330
0
100
AcDbSymbolTable
 70
     1
  0
LTYPE
  5
14
330
5
100
AcDbSymbolTableRecord
100
AcDbLinetypeTableRecord
  2
ByBlock
 70
     0
  3

 72
    65
 73
     0
 40
0.0
  0
LTYPE
  5
15
330
5
100
AcDbSymbolTableRecord
100
AcDbLinetypeTableRecord
  2
ByLayer
 70
     0
  3

 72
    65
 73
     0
 40
0.0
  0
LTYPE
  5
16
330
5
100
AcDbSymbolTableRecord
100
AcDbLinetypeTableRecord
  2
Continuous
 70
     0
  3
Solid line
 72
    65
 73
     0
 40
0.0
  0
ENDTAB
  0
TABLE
  2
LAYER
  5
2
330
0
100
AcDbSymbolTable
 70
     2
  0
LAYER
  5
10
330
2
100
AcDbSymbolTableRecord
100
AcDbLayerTableRecord
  2
0
 70
     0
 62
     7
  6
Continuous
370
    -3
390
F
347
3E
  0
LAYER
  5
40
330
2
100
AcDbSymbolTableRecord
100
AcDbLayerTableRecord
  2
_U+30EC_U+30A4_U+30E4_U+30FC 1
 70
     0
 62
     7
  6
Continuous
370
    -3
390
F
347
3E
  0
ENDTAB
  0
TABLE
  2
STYLE
  5
3
330
0
100
AcDbSymbolTable
 70
     1
  0
STYLE
  5
11
330
3
100
AcDbSymbolTableRecord
100
AcDbTextStyleTableRecord
  2
Standard
 70
     0
 40
0.0
 41
1.0
 50
0.0
 71
     0
 42
0.2
  3
txt
  4

  0
ENDTAB
  0
TABLE
  2
VIEW
  5
6
330
0
100
AcDbSymbolTable
 70
     0
  0
ENDTAB
  0
TABLE
  2
UCS
  5
7
330
0
100
AcDbSymbolTable
 70
     0
  0
ENDTAB
  0
TABLE
  2
APPID
  5
9
330
0
100
AcDbSymbolTable
 70
     1
  0
APPID
  5
12
330
9
100
AcDbSymbolTableRecord
100
AcDbRegAppTableRecord
  2
ACAD
 70
     0
  0
ENDTAB
  0
TABLE
  2
DIMSTYLE
  5
A
330
0
100
AcDbSymbolTable
 70
     1
100
AcDbDimStyleTable
  0
DIMSTYLE
105
27
330
A
100
AcDbSymbolTableRecord
100
AcDbDimStyleTableRecord
  2
Standard
 70
     0
178
     0
340
11
  0
ENDTAB
  0
TABLE
  2
BLOCK_RECORD
  5
1
330
0
100
AcDbSymbolTable
 70
     7
  0
BLOCK_RECORD
  5
1F
330
1
100
AcDbSymbolTableRecord
100
AcDbBlockTableRecord
  2
*Model_Space
340
22
 70
     0
280
     1
281
     0
  0
BLOCK_RECORD
  5
1B
330
1
100
AcDbSymbolTableRecord
100
AcDbBlockTableRecord
  2
*Paper_Space
340
1E
 70
     0
280
     1
281
     0
  0
BLOCK_RECORD
  5
23
330
1
100
AcDbSymbolTableRecord
100
AcDbBlockTableRecord
  2
*Paper_Space0
340
26
 70
     0
280
     1
281
     0
  0
BLOCK_RECORD
  5
67
330
1
100
AcDbSymbolTableRecord
100
AcDbBlockTableRecord
  2
block 2
340
0
102
{BLKREFS
331
68
102
}
 70
     0
280
     1
281
     0
  0
BLOCK_RECORD
  5
7B
330
1
100
AcDbSymbolTableRecord
100
AcDbBlockTableRecord
  2
block 3
340
0
102
{BLKREFS
331
7C
102
}
 70
     0
280
     1
281
     0
  0
BLOCK_RECORD
  5
95
330
1
100
AcDbSymbolTableRecord
100
AcDbBlockTableRecord
  2
block 4
340
0
102
{BLKREFS
331
96
102
}
 70
     0
280
     1
281
     0
  0
BLOCK_RECORD
  5
AE
330
1
100
AcDbSymbolTableRecord
100
AcDbBlockTableRecord
  2
block 5
340
0
102
{BLKREFS
331
AF
102
}
 70
     0
280
     1
281
     0
  0
BLOCK_RECORD
  5
C0
330
1
100
AcDbSymbolTableRecord
100
AcDbBlockTableRecord
  2
block 6
340
0
102
{BLKREFS
331
C1
102
}
 70
     0
280
     1
281
     0
  0
BLOCK_RECORD
  5
D2
330
1
100
AcDbSymbolTableRecord
100
AcDbBlockTableRecord
  2
block 7
340
0
102
{BLKREFS
331
D3
102
}
 70
     0
280
     1
281
     0
  0
ENDTAB
  0
ENDSEC
  0
SECTION
  2
BLOCKS
  0
BLOCK
  5
20
330
1F
100
AcDbEntity
  8
0
100
AcDbBlockBegin
  2
*Model_Space
 70
     0
 10
0.0
 20
0.0
 30
0.0
  3
*Model_Space
  1

  0
ENDBLK
  5
21
330
1F
100
AcDbEntity
  8
0
100
AcDbBlockEnd
  0
BLOCK
  5
1C
330
1B
100
AcDbEntity
 67
     1
  8
0
100
AcDbBlockBegin
  2
*Paper_Space
 70
     0
 10
0.0
 20
0.0
 30
0.0
  3
*Paper_Space
  1

  0
ENDBLK
  5
1D
330
1B
100
AcDbEntity
 67
     1
  8
0
100
AcDbBlockEnd
  0
BLOCK
  5
24
330
23
100
AcDbEntity
  8
0
100
AcDbBlockBegin
  2
*Paper_Space0
 70
     0
 10
0.0
 20
0.0
 30
0.0
  3
*Paper_Space0
  1

  0
ENDBLK
  5
25
330
23
100
AcDbEntity
  8
0
100
AcDbBlockEnd
  0
BLOCK
  5
69
330
67
100
AcDbEntity
  8
0
100
AcDbBlockBegin
  2
block 2
 70
     0
 10
0.0
 20
0.0
 30
0.0
  3
block 2
  1

  0
SPLINE
  5
6B
330
67
100
AcDbEntity
  8
_U+30EC_U+30A4_U+30E4_U+30FC 1
370
     0
100
AcDbSpline
210
0.0
220
0.0
230
1.0
 70
    11
 71
     3
 72
    29
 73
    25
 74
     0
 42
0.0000000001
 43
0.0000000001
 12
1.0
 22
0.0
 32
0.0
 13
1.0
 23
0.0
 33
0.0
 40
0.0
 40
0.0
 40
0.0
 40
0.0
 40
1.0
 40
1.0
 40
1.0
 40
2.0
 40
2.0
 40
2.0
 40
3.0
 40
3.0
 40
3.0
 40
4.0
 40
4.0
 40
4.0
 40
5.0
 40
5.0
 40
5.0
 40
6.0
 40
6.0
 40
6.0
 40
7.0
 40
7.0
 40
7.0
 40
8.0
 40
8.0
 40
8.0
 40
8.0
 10
85.72448321424596
 20
-119.2015095730642
 30
0.0
 10
85.4580050784619
 20
-119.2015095730642
 30
0.0
 10
85.20410154119898
 20
-119.0638780084285
 30
0.0
 10
85.20410154119898
 20
-118.7148898357727
 30
0.0
 10
85.20410154119898
 20
-118.4589192412186
 30
0.0
 10
85.345867220417
 20
-118.3636623510514
 30
0.0
 10
85.45163165181418
 20
-118.302339651414
 30
0.0
 10
85.32674694047387
 20
-118.2430840090677
 30
0.0
 10
85.25061033024986
 20
-118.1288790937317
 30
0.0
 10
85.25061033024986
 20
-117.9681653893448
 30
0.0
 10
85.25061033024986
 20
-117.6930745148476
 30
0.0
 10
85.44956459452303
 20
-117.5576822622773
 30
0.0
 10
85.72448321424596
 20
-117.5576822622773
 30
0.0
 10
86.00801457268203
 20
-117.5576822622773
 30
0.0
 10
86.19835609824209
 20
-117.7015149987864
 30
0.0
 10
86.19835609824209
 20
-117.9681653893448
 30
0.0
 10
86.19835609824209
 20
-118.1288790937317
 30
0.0
 10
86.1201524307269
 20
-118.2430840090677
 30
0.0
 10
85.9952677193866
 20
-118.302339651414
 30
0.0
 10
86.08415118290606
 20
-118.3531548098214
 30
0.0
 10
86.2427978300018
 20
-118.4484116999886
 30
0.0
 10
86.2427978300018
 20
-118.7107557211904
 30
0.0
 10
86.2427978300018
 20
-119.0850653456628
 30
0.0
 10
85.96357284092231
 20
-119.2015095730642
 30
0.0
 10
85.72448321424596
 20
-119.2015095730642
 30
0.0
  0
SPLINE
  5
6C
330
67
100
AcDbEntity
  8
_U+30EC_U+30A4_U+30E4_U+30FC 1
370
     0
100
AcDbSpline
210
0.0
220
0.0
230
1.0
 70
    11
 71
     3
 72
    17
 73
    13
 74
     0
 42
0.0000000001
 43
0.0000000001
 12
1.0
 22
0.0
 32
0.0
 13
1.0
 23
0.0
 33
0.0
 40
0.0
 40
0.0
 40
0.0
 40
0.0
 40
1.0
 40
1.0
 40
1.0
 40
2.0
 40
2.0
 40
2.0
 40
3.0
 40
3.0
 40
3.0
 40
4.0
 40
4.0
 40
4.0
 40
4.0
 10
85.72448321424596
 20
-118.4103433948766
 30
0.0
 10
85.58065047773678
 20
-118.4103433948766
 30
0.0
 10
85.42837725728874
 20
-118.4969875463306
 30
0.0
 10
85.42837725728874
 20
-118.7000759251861
 30
0.0
 10
85.42837725728874
 20
-118.9052313613327
 30
0.0
 10
85.5553290259202
 20
-119.0068616781476
 30
0.0
 10
85.72448321424596
 20
-119.0068616781476
 30
0.0
 10
85.91069062522372
 20
-119.0068616781476
 30
0.0
 10
86.02076142597745
 20
-118.8842162788727
 30
0.0
 10
86.02076142597745
 20
-118.7064493518338
 30
0.0
 10
86.02076142597745
 20
-118.4842406930352
 30
0.0
 10
85.85780840952513
 20
-118.4103433948766
 30
0.0
 10
85.72448321424596
 20
-118.4103433948766
 30
0.0
  0
SPLINE
  5
6D
330
67
100
AcDbEntity
  8
_U+30EC_U+30A4_U+30E4_U+30FC 1
370
     0
100
AcDbSpline
210
0.0
220
0.0
230
1.0
 70
    11
 71
     3
 72
    17
 73
    13
 74
     0
 42
0.0000000001
 43
0.0000000001
 12
1.0
 22
0.0
 32
0.0
 13
1.0
 23
0.0
 33
0.0
 40
0.0
 40
0.0
 40
0.0
 40
0.0
 40
1.0
 40
1.0
 40
1.0
 40
2.0
 40
2.0
 40
2.0
 40
3.0
 40
3.0
 40
3.0
 40
4.0
 40
4.0
 40
4.0
 40
4.0
 10
85.72448321424596
 20
-117.7502630999027
 30
0.0
 10
85.5594631405025
 20
-117.7502630999027
 30
0.0
 10
85.47488604633962
 20
-117.8453477352956
 30
0.0
 10
85.47488604633962
 20
-117.9807399878659
 30
0.0
 10
85.47488604633962
 20
-118.1035576419151
 30
0.0
 10
85.54688854198133
 20
-118.2220689266077
 30
0.0
 10
85.72448321424596
 20
-118.2220689266077
 30
0.0
 10
85.90225014128485
 20
-118.2220689266077
 30
0.0
 10
85.97408038215232
 20
-118.1035576419151
 30
0.0
 10
85.97408038215232
 20
-117.9807399878659
 30
0.0
 10
85.97408038215232
 20
-117.8453477352956
 30
0.0
 10
85.88743623069828
 20
-117.7502630999027
 30
0.0
 10
85.72448321424596
 20
-117.7502630999027
 30
0.0
  0
HATCH
  5
6E
330
67
100
AcDbEntity
  8
_U+30EC_U+30A4_U+30E4_U+30FC 1
 62
   179
420
  2234388
100
AcDbHatch
 10
0.0
 20
0.0
 30
0.0
210
0.0
220
0.0
230
1.0
  2
SOLID
 70
     1
 71
     0
 91
        3
 92
        1
 93
        1
 72
     4
 94
        3
 73
     0
 74
     1
 95
       29
 96
       25
 40
0.0
 40
0.0
 40
0.0
 40
0.0
 40
1.0
 40
1.0
 40
1.0
 40
2.0
 40
2.0
 40
2.0
 40
3.0
 40
3.0
 40
3.0
 40
4.0
 40
4.0
 40
4.0
 40
5.0
 40
5.0
 40
5.0
 40
6.0
 40
6.0
 40
6.0
 40
7.0
 40
7.0
 40
7.0
 40
8.0
 40
8.0
 40
8.0
 40
8.0
 10
85.72448321424596
 20
-119.2015095730642
 10
85.4580050784619
 20
-119.2015095730642
 10
85.20410154119898
 20
-119.0638780084285
 10
85.20410154119898
 20
-118.7148898357727
 10
85.20410154119898
 20
-118.4589192412186
 10
85.345867220417
 20
-118.3636623510514
 10
85.45163165181418
 20
-118.302339651414
 10
85.32674694047387
 20
-118.2430840090677
 10
85.25061033024986
 20
-118.1288790937317
 10
85.25061033024986
 20
-117.9681653893448
 10
85.25061033024986
 20
-117.6930745148476
 10
85.44956459452303
 20
-117.5576822622773
 10
85.72448321424596
 20
-117.5576822622773
 10
86.00801457268203
 20
-117.5576822622773
 10
86.19835609824209
 20
-117.7015149987864
 10
86.19835609824209
 20
-117.9681653893448
 10
86.19835609824209
 20
-118.1288790937317
 10
86.1201524307269
 20
-118.2430840090677
 10
85.9952677193866
 20
-118.302339651414
 10
86.08415118290606
 20
-118.3531548098214
 10
86.2427978300018
 20
-118.4484116999886
 10
86.2427978300018
 20
-118.7107557211904
 10
86.2427978300018
 20
-119.0850653456628
 10
85.96357284092231
 20
-119.2015095730642
 10
85.72448321424596
 20
-119.2015095730642
 97
        0
 97
        0
 92
        1
 93
        1
 72
     4
 94
        3
 73
     0
 74
     1
 95
       17
 96
       13
 40
0.0
 40
0.0
 40
0.0
 40
0.0
 40
1.0
 40
1.0
 40
1.0
 40
2.0
 40
2.0
 40
2.0
 40
3.0
 40
3.0
 40
3.0
 40
4.0
 40
4.0
 40
4.0
 40
4.0
 10
85.72448321424596
 20
-118.4103433948766
 10
85.58065047773678
 20
-118.4103433948766
 10
85.42837725728874
 20
-118.4969875463306
 10
85.42837725728874
 20
-118.7000759251861
 10
85.42837725728874
 20
-118.9052313613327
 10
85.5553290259202
 20
-119.0068616781476
 10
85.72448321424596
 20
-119.0068616781476
 10
85.91069062522372
 20
-119.0068616781476
 10
86.02076142597745
 20
-118.8842162788727
 10
86.02076142597745
 20
-118.7064493518338
 10
86.02076142597745
 20
-118.4842406930352
 10
85.85780840952513
 20
-118.4103433948766
 10
85.72448321424596
 20
-118.4103433948766
 97
        0
 97
        0
 92
        1
 93
        1
 72
     4
 94
        3
 73
     0
 74
     1
 95
       17
 96
       13
 40
0.0
 40
0.0
 40
0.0
 40
0.0
 40
1.0
 40
1.0
 40
1.0
 40
2.0
 40
2.0
 40
2.0
 40
3.0
 40
3.0
 40
3.0
 40
4.0
 40
4.0
 40
4.0
 40
4.0
 10
85.72448321424596
 20
-117.7502630999027
 10
85.5594631405025
 20
-117.7502630999027
 10
85.47488604633962
 20
-117.8453477352956
 10
85.47488604633962
 20
-117.9807399878659
 10
85.47488604633962
 20
-118.1035576419151
 10
85.54688854198133
 20
-118.2220689266077
 10
85.72448321424596
 20
-118.2220689266077
 10
85.90225014128485
 20
-118.2220689266077
 10
85.97408038215232
 20
-118.1035576419151
 10
85.97408038215232
 20
-117.9807399878659
 10
85.97408038215232
 20
-117.8453477352956
 10
85.88743623069828
 20
-117.7502630999027
 10
85.72448321424596
 20
-117.7502630999027
 97
        0
 97
        0
 75
     2
 76
     1
 98
        0
  0
ENDBLK
  5
6A
330
67
100
AcDbEntity
  8
0
100
AcDbBlockEnd
  0
BLOCK
  5
7D
330
7B
100
AcDbEntity
  8
0
100
AcDbBlockBegin
  2
block 3
 70
     0
 10
0.0
 20
0.0
 30
0.0
  3
block 3
  1

  0
SPLINE
  5
7F
330
7B
100
AcDbEntity
  8
_U+30EC_U+30A4_U+30E4_U+30FC 1
370
     0
100
AcDbSpline
210
0.0
220
0.0
230
1.0
 70
    11
 71
     3
 72
    26
 73
    22
 74
     0
 42
0.0000000001
 43
0.0000000001
 12
1.0
 22
0.0
 32
0.0
 13
1.0
 23
0.0
 33
0.0
 40
0.0
 40
0.0
 40
0.0
 40
0.0
 40
1.0
 40
1.0
 40
1.0
 40
2.0
 40
2.0
 40
2.0
 40
3.0
 40
3.0
 40
3.0
 40
4.0
 40
4.0
 40
4.0
 40
5.0
 40
5.0
 40
5.0
 40
6.0
 40
6.0
 40
6.0
 40
7.0
 40
7.0
 40
7.0
 40
7.0
 10
90.01018199789677
 20
-137.7576551304911
 30
0.0
 10
90.01018199789677
 20
-137.7576551304911
 30
0.0
 10
90.01018199789677
 20
-136.6535020274686
 30
0.0
 10
90.01018199789677
 20
-136.6535020274686
 30
0.0
 10
90.01018199789677
 20
-136.6535020274686
 30
0.0
 10
89.68014185040983
 20
-136.6535020274686
 30
0.0
 10
89.68014185040983
 20
-136.6535020274686
 30
0.0
 10
89.68014185040983
 20
-136.6535020274686
 30
0.0
 10
89.68014185040983
 20
-136.5053629216028
 30
0.0
 10
89.68014185040983
 20
-136.5053629216028
 30
0.0
 10
90.01224905518791
 20
-136.4905490110163
 30
0.0
 10
90.05875784423878
 20
-136.3275959945639
 30
0.0
 10
90.08838566541193
 20
-136.2132188244536
 30
0.0
 10
90.08838566541193
 20
-136.2132188244536
 30
0.0
 10
90.23445771398653
 20
-136.2132188244536
 30
0.0
 10
90.23445771398653
 20
-136.2132188244536
 30
0.0
 10
90.23445771398653
 20
-136.2132188244536
 30
0.0
 10
90.23445771398653
 20
-137.7576551304911
 30
0.0
 10
90.23445771398653
 20
-137.7576551304911
 30
0.0
 10
90.23445771398653
 20
-137.7576551304911
 30
0.0
 10
90.01018199789677
 20
-137.7576551304911
 30
0.0
 10
90.01018199789677
 20
-137.7576551304911
 30
0.0
  0
HATCH
  5
80
330
7B
100
AcDbEntity
  8
_U+30EC_U+30A4_U+30E4_U+30FC 1
 62
   179
420
  2234388
100
AcDbHatch
 10
0.0
 20
0.0
 30
0.0
210
0.0
220
0.0
230
1.0
  2
SOLID
 70
     1
 71
     0
 91
        1
 92
        1
 93
        1
 72
     4
 94
        3
 73
     0
 74
     1
 95
       26
 96
       22
 40
0.0
 40
0.0
 40
0.0
 40
0.0
 40
1.0
 40
1.0
 40
1.0
 40
2.0
 40
2.0
 40
2.0
 40
3.0
 40
3.0
 40
3.0
 40
4.0
 40
4.0
 40
4.0
 40
5.0
 40
5.0
 40
5.0
 40
6.0
 40
6.0
 40
6.0
 40
7.0
 40
7.0
 40
7.0
 40
7.0
 10
90.01018199789677
 20
-137.7576551304911
 10
90.01018199789677
 20
-137.7576551304911
 10
90.01018199789677
 20
-136.6535020274686
 10
90.01018199789677
 20
-136.6535020274686
 10
90.01018199789677
 20
-136.6535020274686
 10
89.68014185040983
 20
-136.6535020274686
 10
89.68014185040983
 20
-136.6535020274686
 10
89.68014185040983
 20
-136.6535020274686
 10
89.68014185040983
 20
-136.5053629216028
 10
89.68014185040983
 20
-136.5053629216028
 10
90.01224905518791
 20
-136.4905490110163
 10
90.05875784423878
 20
-136.3275959945639
 10
90.08838566541193
 20
-136.2132188244536
 10
90.08838566541193
 20
-136.2132188244536
 10
90.23445771398653
 20
-136.2132188244536
 10
90.23445771398653
 20
-136.2132188244536
 10
90.23445771398653
 20
-136.2132188244536
 10
90.23445771398653
 20
-137.7576551304911
 10
90.23445771398653
 20
-137.7576551304911
 10
90.23445771398653
 20
-137.7576551304911
 10
90.01018199789677
 20
-137.7576551304911
 10
90.01018199789677
 20
-137.7576551304911
 97
        0
 97
        0
 75
     2
 76
     1
 98
        0
  0
SPLINE
  5
81
330
7B
100
AcDbEntity
  8
_U+30EC_U+30A4_U+30E4_U+30FC 1
370
     0
100
AcDbSpline
210
0.0
220
0.0
230
1.0
 70
    11
 71
     3
 72
    29
 73
    25
 74
     0
 42
0.0000000001
 43
0.0000000001
 12
1.0
 22
0.0
 32
0.0
 13
1.0
 23
0.0
 33
0.0
 40
0.0
 40
0.0
 40
0.0
 40
0.0
 40
1.0
 40
1.0
 40
1.0
 40
2.0
 40
2.0
 40
2.0
 40
3.0
 40
3.0
 40
3.0
 40
4.0
 40
4.0
 40
4.0
 40
5.0
 40
5.0
 40
5.0
 40
6.0
 40
6.0
 40
6.0
 40
7.0
 40
7.0
 40
7.0
 40
8.0
 40
8.0
 40
8.0
 40
8.0
 10
91.23560246200013
 20
-137.8082980341243
 30
0.0
 10
90.96895207144179
 20
-137.8082980341243
 30
0.0
 10
90.7153930437274
 20
-137.6708387242629
 30
0.0
 10
90.7153930437274
 20
-137.321850551607
 30
0.0
 10
90.7153930437274
 20
-137.065879957053
 30
0.0
 10
90.85698646817117
 20
-136.9707953216601
 30
0.0
 10
90.96275089956835
 20
-136.9094726220226
 30
0.0
 10
90.8380384430023
 20
-136.8502169796763
 30
0.0
 10
90.76190183277828
 20
-136.735839809566
 30
0.0
 10
90.76190183277828
 20
-136.5749538504049
 30
0.0
 10
90.76190183277828
 20
-136.3000352306819
 30
0.0
 10
90.96068384227719
 20
-136.1646429781116
 30
0.0
 10
91.23560246200013
 20
-136.1646429781116
 30
0.0
 10
91.51896156566193
 20
-136.1646429781116
 30
0.0
 10
91.70947534599625
 20
-136.3086479693951
 30
0.0
 10
91.70947534599625
 20
-136.5749538504049
 30
0.0
 10
91.70947534599625
 20
-136.735839809566
 30
0.0
 10
91.63092716893254
 20
-136.8502169796763
 30
0.0
 10
91.5062147123665
 20
-136.9094726220226
 30
0.0
 10
91.59509817588595
 20
-136.9601155256558
 30
0.0
 10
91.75391707775597
 20
-137.0552001610487
 30
0.0
 10
91.75391707775597
 20
-137.3177164370248
 30
0.0
 10
91.75391707775597
 20
-137.6921983162714
 30
0.0
 10
91.4745198339022
 20
-137.8082980341243
 30
0.0
 10
91.23560246200013
 20
-137.8082980341243
 30
0.0
  0
SPLINE
  5
82
330
7B
100
AcDbEntity
  8
_U+30EC_U+30A4_U+30E4_U+30FC 1
370
     0
100
AcDbSpline
210
0.0
220
0.0
230
1.0
 70
    11
 71
     3
 72
    17
 73
    13
 74
     0
 42
0.0000000001
 43
0.0000000001
 12
1.0
 22
0.0
 32
0.0
 13
1.0
 23
0.0
 33
0.0
 40
0.0
 40
0.0
 40
0.0
 40
0.0
 40
1.0
 40
1.0
 40
1.0
 40
2.0
 40
2.0
 40
2.0
 40
3.0
 40
3.0
 40
3.0
 40
4.0
 40
4.0
 40
4.0
 40
4.0
 10
91.23560246200013
 20
-137.017304110711
 30
0.0
 10
91.09194198026522
 20
-137.017304110711
 30
0.0
 10
90.93932425026864
 20
-137.1041205169392
 30
0.0
 10
90.93932425026864
 20
-137.3070366410205
 30
0.0
 10
90.93932425026864
 20
-137.5123643319414
 30
0.0
 10
91.06644827367437
 20
-137.6136501392077
 30
0.0
 10
91.23560246200013
 20
-137.6136501392077
 30
0.0
 10
91.42146536342936
 20
-137.6136501392077
 30
0.0
 10
91.53170841895735
 20
-137.4910047399328
 30
0.0
 10
91.53170841895735
 20
-137.3132378128939
 30
0.0
 10
91.53170841895735
 20
-137.0913736636438
 30
0.0
 10
91.3689276572793
 20
-137.017304110711
 30
0.0
 10
91.23560246200013
 20
-137.017304110711
 30
0.0
  0
SPLINE
  5
83
330
7B
100
AcDbEntity
  8
_U+30EC_U+30A4_U+30E4_U+30FC 1
370
     0
100
AcDbSpline
210
0.0
220
0.0
230
1.0
 70
    11
 71
     3
 72
    17
 73
    13
 74
     0
 42
0.0000000001
 43
0.0000000001
 12
1.0
 22
0.0
 32
0.0
 13
1.0
 23
0.0
 33
0.0
 40
0.0
 40
0.0
 40
0.0
 40
0.0
 40
1.0
 40
1.0
 40
1.0
 40
2.0
 40
2.0
 40
2.0
 40
3.0
 40
3.0
 40
3.0
 40
4.0
 40
4.0
 40
4.0
 40
4.0
 10
91.23560246200013
 20
-136.3572238157371
 30
0.0
 10
91.07058238825667
 20
-136.3572238157371
 30
0.0
 10
90.98617754886804
 20
-136.45230845113
 30
0.0
 10
90.98617754886804
 20
-136.5877007037003
 30
0.0
 10
90.98617754886804
 20
-136.7103461029752
 30
0.0
 10
91.05783553496124
 20
-136.8288573876678
 30
0.0
 10
91.23560246200013
 20
-136.8288573876678
 30
0.0
 10
91.41319713426476
 20
-136.8288573876678
 30
0.0
 10
91.48519962990648
 20
-136.7103461029752
 30
0.0
 10
91.48519962990648
 20
-136.5877007037003
 30
0.0
 10
91.48519962990648
 20
-136.45230845113
 30
0.0
 10
91.39838322367818
 20
-136.3572238157371
 30
0.0
 10
91.23560246200013
 20
-136.3572238157371
 30
0.0
  0
HATCH
  5
84
330
7B
100
AcDbEntity
  8
_U+30EC_U+30A4_U+30E4_U+30FC 1
 62
   179
420
  2234388
100
AcDbHatch
 10
0.0
 20
0.0
 30
0.0
210
0.0
220
0.0
230
1.0
  2
SOLID
 70
     1
 71
     0
 91
        3
 92
        1
 93
        1
 72
     4
 94
        3
 73
     0
 74
     1
 95
       29
 96
       25
 40
0.0
 40
0.0
 40
0.0
 40
0.0
 40
1.0
 40
1.0
 40
1.0
 40
2.0
 40
2.0
 40
2.0
 40
3.0
 40
3.0
 40
3.0
 40
4.0
 40
4.0
 40
4.0
 40
5.0
 40
5.0
 40
5.0
 40
6.0
 40
6.0
 40
6.0
 40
7.0
 40
7.0
 40
7.0
 40
8.0
 40
8.0
 40
8.0
 40
8.0
 10
91.23560246200013
 20
-137.8082980341243
 10
90.96895207144179
 20
-137.8082980341243
 10
90.7153930437274
 20
-137.6708387242629
 10
90.7153930437274
 20
-137.321850551607
 10
90.7153930437274
 20
-137.065879957053
 10
90.85698646817117
 20
-136.9707953216601
 10
90.96275089956835
 20
-136.9094726220226
 10
90.8380384430023
 20
-136.8502169796763
 10
90.76190183277828
 20
-136.735839809566
 10
90.76190183277828
 20
-136.5749538504049
 10
90.76190183277828
 20
-136.3000352306819
 10
90.96068384227719
 20
-136.1646429781116
 10
91.23560246200013
 20
-136.1646429781116
 10
91.51896156566193
 20
-136.1646429781116
 10
91.70947534599625
 20
-136.3086479693951
 10
91.70947534599625
 20
-136.5749538504049
 10
91.70947534599625
 20
-136.735839809566
 10
91.63092716893254
 20
-136.8502169796763
 10
91.5062147123665
 20
-136.9094726220226
 10
91.59509817588595
 20
-136.9601155256558
 10
91.75391707775597
 20
-137.0552001610487
 10
91.75391707775597
 20
-137.3177164370248
 10
91.75391707775597
 20
-137.6921983162714
 10
91.4745198339022
 20
-137.8082980341243
 10
91.23560246200013
 20
-137.8082980341243
 97
        0
 97
        0
 92
        1
 93
        1
 72
     4
 94
        3
 73
     0
 74
     1
 95
       17
 96
       13
 40
0.0
 40
0.0
 40
0.0
 40
0.0
 40
1.0
 40
1.0
 40
1.0
 40
2.0
 40
2.0
 40
2.0
 40
3.0
 40
3.0
 40
3.0
 40
4.0
 40
4.0
 40
4.0
 40
4.0
 10
91.23560246200013
 20
-137.017304110711
 10
91.09194198026522
 20
-137.017304110711
 10
90.93932425026864
 20
-137.1041205169392
 10
90.93932425026864
 20
-137.3070366410205
 10
90.93932425026864
 20
-137.5123643319414
 10
91.06644827367437
 20
-137.6136501392077
 10
91.23560246200013
 20
-137.6136501392077
 10
91.42146536342936
 20
-137.6136501392077
 10
91.53170841895735
 20
-137.4910047399328
 10
91.53170841895735
 20
-137.3132378128939
 10
91.53170841895735
 20
-137.0913736636438
 10
91.3689276572793
 20
-137.017304110711
 10
91.23560246200013
 20
-137.017304110711
 97
        0
 97
        0
 92
        1
 93
        1
 72
     4
 94
        3
 73
     0
 74
     1
 95
       17
 96
       13
 40
0.0
 40
0.0
 40
0.0
 40
0.0
 40
1.0
 40
1.0
 40
1.0
 40
2.0
 40
2.0
 40
2.0
 40
3.0
 40
3.0
 40
3.0
 40
4.0
 40
4.0
 40
4.0
 40
4.0
 10
91.23560246200013
 20
-136.3572238157371
 10
91.07058238825667
 20
-136.3572238157371
 10
90.98617754886804
 20
-136.45230845113
 10
90.98617754886804
 20
-136.5877007037003
 10
90.98617754886804
 20
-136.7103461029752
 10
91.05783553496124
 20
-136.8288573876678
 10
91.23560246200013
 20
-136.8288573876678
 10
91.41319713426476
 20
-136.8288573876678
 10
91.48519962990648
 20
-136.7103461029752
 10
91.48519962990648
 20
-136.5877007037003
 10
91.48519962990648
 20
-136.45230845113
 10
91.39838322367818
 20
-136.3572238157371
 10
91.23560246200013
 20
-136.3572238157371
 97
        0
 97
        0
 75
     2
 76
     1
 98
        0
  0
ENDBLK
  5
7E
330
7B
100
AcDbEntity
  8
0
100
AcDbBlockEnd
  0
BLOCK
  5
97
330
95
100
AcDbEntity
  8
0
100
AcDbBlockBegin
  2
block 4
 70
     0
 10
0.0
 20
0.0
 30
0.0
  3
block 4
  1

  0
SPLINE
  5
99
330
95
100
AcDbEntity
  8
_U+30EC_U+30A4_U+30E4_U+30FC 1
370
     0
100
AcDbSpline
210
0.0
220
0.0
230
1.0
 70
    11
 71
     3
 72
    29
 73
    25
 74
     0
 42
0.0000000001
 43
0.0000000001
 12
1.0
 22
0.0
 32
0.0
 13
1.0
 23
0.0
 33
0.0
 40
0.0
 40
0.0
 40
0.0
 40
0.0
 40
1.0
 40
1.0
 40
1.0
 40
2.0
 40
2.0
 40
2.0
 40
3.0
 40
3.0
 40
3.0
 40
4.0
 40
4.0
 40
4.0
 40
5.0
 40
5.0
 40
5.0
 40
6.0
 40
6.0
 40
6.0
 40
7.0
 40
7.0
 40
7.0
 40
8.0
 40
8.0
 40
8.0
 40
8.0
 10
102.4788438328872
 20
-136.0068576048872
 30
0.0
 10
102.6883056383904
 20
-136.115033603124
 30
0.0
 10
102.7072536635593
 20
-136.2879773964836
 30
0.0
 10
102.7072536635593
 20
-136.404421623885
 30
0.0
 10
102.7072536635593
 20
-136.5656520925947
 30
0.0
 10
102.6607448745084
 20
-136.70690100749
 30
0.0
 10
102.4788438328872
 20
-136.8019856428828
 30
0.0
 10
102.2841959379706
 20
-136.9060275265374
 30
0.0
 10
102.0471733685854
 20
-136.9253200612548
 30
0.0
 10
101.8845648616816
 20
-136.9253200612548
 30
0.0
 10
101.7405598703982
 20
-136.9253200612548
 30
0.0
 10
101.4887233904264
 20
-136.9080945838285
 30
0.0
 10
101.2899413809275
 20
-136.8019856428828
 30
0.0
 10
101.0870252568463
 20
-136.694498663743
 30
0.0
 10
101.0635986075466
 20
-136.5332681950333
 30
0.0
 10
101.0635986075466
 20
-136.404421623885
 30
0.0
 10
101.0635986075466
 20
-136.2459472315635
 30
0.0
 10
101.1080403393063
 20
-136.1019422402801
 30
0.0
 10
101.2899413809275
 20
-136.0068576048872
 30
0.0
 10
101.482522218553
 20
-135.907638854912
 30
0.0
 10
101.7109320492251
 20
-135.8842122056123
 30
0.0
 10
101.8845648616816
 20
-135.8842122056123
 30
0.0
 10
102.0557861072986
 20
-135.8842122056123
 30
0.0
 10
102.2862629952618
 20
-135.9055717976208
 30
0.0
 10
102.4788438328872
 20
-136.0068576048872
 30
0.0
  0
SPLINE
  5
9A
330
95
100
AcDbEntity
  8
_U+30EC_U+30A4_U+30E4_U+30FC 1
370
     0
100
AcDbSpline
210
0.0
220
0.0
230
1.0
 70
    11
 71
     3
 72
    17
 73
    13
 74
     0
 42
0.0000000001
 43
0.0000000001
 12
1.0
 22
0.0
 32
0.0
 13
1.0
 23
0.0
 33
0.0
 40
0.0
 40
0.0
 40
0.0
 40
0.0
 40
1.0
 40
1.0
 40
1.0
 40
2.0
 40
2.0
 40
2.0
 40
3.0
 40
3.0
 40
3.0
 40
4.0
 40
4.0
 40
4.0
 40
4.0
 10
101.2561794451721
 20
-136.404421623885
 30
0.0
 10
101.2561794451721
 20
-136.6545355561142
 30
0.0
 10
101.5397108036081
 20
-136.7006998356165
 30
0.0
 10
101.8845648616816
 20
-136.7006998356165
 30
0.0
 10
102.2039252131643
 20
-136.7006998356165
 30
0.0
 10
102.5126057686427
 20
-136.6648708425699
 30
0.0
 10
102.5126057686427
 20
-136.404421623885
 30
0.0
 10
102.5126057686427
 20
-136.1570637680441
 30
0.0
 10
102.2314859770463
 20
-136.1081434121535
 30
0.0
 10
101.8845648616816
 20
-136.1081434121535
 30
0.0
 10
101.5648600006505
 20
-136.1081434121535
 30
0.0
 10
101.2561794451721
 20
-136.1467284815883
 30
0.0
 10
101.2561794451721
 20
-136.404421623885
 30
0.0
  0
HATCH
  5
9B
330
95
100
AcDbEntity
  8
_U+30EC_U+30A4_U+30E4_U+30FC 1
 62
   179
420
  2234388
100
AcDbHatch
 10
0.0
 20
0.0
 30
0.0
210
0.0
220
0.0
230
1.0
  2
SOLID
 70
     1
 71
     0
 91
        2
 92
        1
 93
        1
 72
     4
 94
        3
 73
     0
 74
     1
 95
       29
 96
       25
 40
0.0
 40
0.0
 40
0.0
 40
0.0
 40
1.0
 40
1.0
 40
1.0
 40
2.0
 40
2.0
 40
2.0
 40
3.0
 40
3.0
 40
3.0
 40
4.0
 40
4.0
 40
4.0
 40
5.0
 40
5.0
 40
5.0
 40
6.0
 40
6.0
 40
6.0
 40
7.0
 40
7.0
 40
7.0
 40
8.0
 40
8.0
 40
8.0
 40
8.0
 10
102.4788438328872
 20
-136.0068576048872
 10
102.6883056383904
 20
-136.115033603124
 10
102.7072536635593
 20
-136.2879773964836
 10
102.7072536635593
 20
-136.404421623885
 10
102.7072536635593
 20
-136.5656520925947
 10
102.6607448745084
 20
-136.70690100749
 10
102.4788438328872
 20
-136.8019856428828
 10
102.2841959379706
 20
-136.9060275265374
 10
102.0471733685854
 20
-136.9253200612548
 10
101.8845648616816
 20
-136.9253200612548
 10
101.7405598703982
 20
-136.9253200612548
 10
101.4887233904264
 20
-136.9080945838285
 10
101.2899413809275
 20
-136.8019856428828
 10
101.0870252568463
 20
-136.694498663743
 10
101.0635986075466
 20
-136.5332681950333
 10
101.0635986075466
 20
-136.404421623885
 10
101.0635986075466
 20
-136.2459472315635
 10
101.1080403393063
 20
-136.1019422402801
 10
101.2899413809275
 20
-136.0068576048872
 10
101.482522218553
 20
-135.907638854912
 10
101.7109320492251
 20
-135.8842122056123
 10
101.8845648616816
 20
-135.8842122056123
 10
102.0557861072986
 20
-135.8842122056123
 10
102.2862629952618
 20
-135.9055717976208
 10
102.4788438328872
 20
-136.0068576048872
 97
        0
 97
        0
 92
        1
 93
        1
 72
     4
 94
        3
 73
     0
 74
     1
 95
       17
 96
       13
 40
0.0
 40
0.0
 40
0.0
 40
0.0
 40
1.0
 40
1.0
 40
1.0
 40
2.0
 40
2.0
 40
2.0
 40
3.0
 40
3.0
 40
3.0
 40
4.0
 40
4.0
 40
4.0
 40
4.0
 10
101.2561794451721
 20
-136.404421623885
 10
101.2561794451721
 20
-136.6545355561142
 10
101.5397108036081
 20
-136.7006998356165
 10
101.8845648616816
 20
-136.7006998356165
 10
102.2039252131643
 20
-136.7006998356165
 10
102.5126057686427
 20
-136.6648708425699
 10
102.5126057686427
 20
-136.404421623885
 10
102.5126057686427
 20
-136.1570637680441
 10
102.2314859770463
 20
-136.1081434121535
 10
101.8845648616816
 20
-136.1081434121535
 10
101.5648600006505
 20
-136.1081434121535
 10
101.2561794451721
 20
-136.1467284815883
 10
101.2561794451721
 20
-136.404421623885
 97
        0
 97
        0
 75
     2
 76
     1
 98
        0
  0
POLYLINE
  5
9C
330
95
100
AcDbEntity
  8
_U+30EC_U+30A4_U+30E4_U+30FC 1
370
     0
100
AcDb2dPolyline
 66
     1
 10
0.0
 20
0.0
 30
0.0
  0
VERTEX
  5
9D
330
9C
100
AcDbEntity
  8
_U+30EC_U+30A4_U+30E4_U+30FC 1
370
     0
100
AcDbVertex
100
AcDb2dVertex
 10
102.6566107599261
 20
-135.6678602091386
 30
0.0
  0
VERTEX
  5
9E
330
9C
100
AcDbEntity
  8
_U+30EC_U+30A4_U+30E4_U+30FC 1
370
     0
100
AcDbVertex
100
AcDb2dVertex
 10
102.4047742799544
 20
-135.6678602091386
 30
0.0
  0
VERTEX
  5
9F
330
9C
100
AcDbEntity
  8
_U+30EC_U+30A4_U+30E4_U+30FC 1
370
     0
100
AcDbVertex
100
AcDb2dVertex
 10
102.4047742799544
 20
-135.4156792196183
 30
0.0
  0
VERTEX
  5
A0
330
9C
100
AcDbEntity
  8
_U+30EC_U+30A4_U+30E4_U+30FC 1
370
     0
100
AcDbVertex
100
AcDb2dVertex
 10
102.6566107599261
 20
-135.4156792196183
 30
0.0
  0
VERTEX
  5
A1
330
9C
100
AcDbEntity
  8
_U+30EC_U+30A4_U+30E4_U+30FC 1
370
     0
100
AcDbVertex
100
AcDb2dVertex
 10
102.6566107599261
 20
-135.6678602091386
 30
0.0
  0
SEQEND
  5
A2
330
9C
100
AcDbEntity
  8
_U+30EC_U+30A4_U+30E4_U+30FC 1
370
     0
  0
HATCH
  5
A3
330
95
100
AcDbEntity
  8
_U+30EC_U+30A4_U+30E4_U+30FC 1
 62
   179
420
  2234388
100
AcDbHatch
 10
0.0
 20
0.0
 30
0.0
210
0.0
220
0.0
230
1.0
  2
SOLID
 70
     1
 71
     0
 91
        1
 92
        1
 93
        4
 72
     1
 10
102.6566107599261
 20
-135.6678602091386
 11
102.4047742799544
 21
-135.6678602091386
 72
     1
 10
102.4047742799544
 20
-135.6678602091386
 11
102.4047742799544
 21
-135.4156792196183
 72
     1
 10
102.4047742799544
 20
-135.4156792196183
 11
102.6566107599261
 21
-135.4156792196183
 72
     1
 10
102.6566107599261
 20
-135.4156792196183
 11
102.6566107599261
 21
-135.6678602091386
 97
        0
 75
     2
 76
     1
 98
        0
  0
SPLINE
  5
A4
330
95
100
AcDbEntity
  8
_U+30EC_U+30A4_U+30E4_U+30FC 1
370
     0
100
AcDbSpline
210
0.0
220
0.0
230
1.0
 70
    11
 71
     3
 72
    26
 73
    22
 74
     0
 42
0.0000000001
 43
0.0000000001
 12
1.0
 22
0.0
 32
0.0
 13
1.0
 23
0.0
 33
0.0
 40
0.0
 40
0.0
 40
0.0
 40
0.0
 40
1.0
 40
1.0
 40
1.0
 40
2.0
 40
2.0
 40
2.0
 40
3.0
 40
3.0
 40
3.0
 40
4.0
 40
4.0
 40
4.0
 40
5.0
 40
5.0
 40
5.0
 40
6.0
 40
6.0
 40
6.0
 40
7.0
 40
7.0
 40
7.0
 40
7.0
 10
102.6566107599261
 20
-134.7686902874884
 30
0.0
 10
102.6566107599261
 20
-134.7686902874884
 30
0.0
 10
102.6566107599261
 20
-135.0057128568736
 30
0.0
 10
102.6566107599261
 20
-135.0057128568736
 30
0.0
 10
102.3475856948992
 20
-134.9802191502827
 30
0.0
 10
101.8294433339176
 20
-134.7872938031087
 30
0.0
 10
101.323703316683
 20
-134.3814615549463
 30
0.0
 10
101.323703316683
 20
-134.3814615549463
 30
0.0
 10
101.323703316683
 20
-135.2193087769591
 30
0.0
 10
101.323703316683
 20
-135.2193087769591
 30
0.0
 10
101.323703316683
 20
-135.2193087769591
 30
0.0
 10
101.1121744538886
 20
-135.2193087769591
 30
0.0
 10
101.1121744538886
 20
-135.2193087769591
 30
0.0
 10
101.1121744538886
 20
-135.2193087769591
 30
0.0
 10
101.1121744538886
 20
-134.1444389855611
 30
0.0
 10
101.1121744538886
 20
-134.1444389855611
 30
0.0
 10
101.1121744538886
 20
-134.1444389855611
 30
0.0
 10
101.323703316683
 20
-134.1444389855611
 30
0.0
 10
101.323703316683
 20
-134.1444389855611
 30
0.0
 10
101.613780356541
 20
-134.4682779611746
 30
0.0
 10
102.2059922704555
 20
-134.7349283517329
 30
0.0
 10
102.6566107599261
 20
-134.7686902874884
 30
0.0
  0
HATCH
  5
A5
330
95
100
AcDbEntity
  8
_U+30EC_U+30A4_U+30E4_U+30FC 1
 62
   179
420
  2234388
100
AcDbHatch
 10
0.0
 20
0.0
 30
0.0
210
0.0
220
0.0
230
1.0
  2
SOLID
 70
     1
 71
     0
 91
        1
 92
        1
 93
        1
 72
     4
 94
        3
 73
     0
 74
     1
 95
       26
 96
       22
 40
0.0
 40
0.0
 40
0.0
 40
0.0
 40
1.0
 40
1.0
 40
1.0
 40
2.0
 40
2.0
 40
2.0
 40
3.0
 40
3.0
 40
3.0
 40
4.0
 40
4.0
 40
4.0
 40
5.0
 40
5.0
 40
5.0
 40
6.0
 40
6.0
 40
6.0
 40
7.0
 40
7.0
 40
7.0
 40
7.0
 10
102.6566107599261
 20
-134.7686902874884
 10
102.6566107599261
 20
-134.7686902874884
 10
102.6566107599261
 20
-135.0057128568736
 10
102.6566107599261
 20
-135.0057128568736
 10
102.3475856948992
 20
-134.9802191502827
 10
101.8294433339176
 20
-134.7872938031087
 10
101.323703316683
 20
-134.3814615549463
 10
101.323703316683
 20
-134.3814615549463
 10
101.323703316683
 20
-135.2193087769591
 10
101.323703316683
 20
-135.2193087769591
 10
101.323703316683
 20
-135.2193087769591
 10
101.1121744538886
 20
-135.2193087769591
 10
101.1121744538886
 20
-135.2193087769591
 10
101.1121744538886
 20
-135.2193087769591
 10
101.1121744538886
 20
-134.1444389855611
 10
101.1121744538886
 20
-134.1444389855611
 10
101.1121744538886
 20
-134.1444389855611
 10
101.323703316683
 20
-134.1444389855611
 10
101.323703316683
 20
-134.1444389855611
 10
101.613780356541
 20
-134.4682779611746
 10
102.2059922704555
 20
-134.7349283517329
 10
102.6566107599261
 20
-134.7686902874884
 97
        0
 97
        0
 75
     2
 76
     1
 98
        0
  0
ENDBLK
  5
98
330
95
100
AcDbEntity
  8
0
100
AcDbBlockEnd
  0
BLOCK
  5
B0
330
AE
100
AcDbEntity
  8
0
100
AcDbBlockBegin
  2
block 5
 70
     0
 10
0.0
 20
0.0
 30
0.0
  3
block 5
  1

  0
SPLINE
  5
B2
330
AE
100
AcDbEntity
  8
_U+30EC_U+30A4_U+30E4_U+30FC 1
370
     0
100
AcDbSpline
210
0.0
220
0.0
230
1.0
 70
    11
 71
     3
 72
    26
 73
    22
 74
     0
 42
0.0000000001
 43
0.0000000001
 12
1.0
 22
0.0
 32
0.0
 13
1.0
 23
0.0
 33
0.0
 40
0.0
 40
0.0
 40
0.0
 40
0.0
 40
1.0
 40
1.0
 40
1.0
 40
2.0
 40
2.0
 40
2.0
 40
3.0
 40
3.0
 40
3.0
 40
4.0
 40
4.0
 40
4.0
 40
5.0
 40
5.0
 40
5.0
 40
6.0
 40
6.0
 40
6.0
 40
7.0
 40
7.0
 40
7.0
 40
7.0
 10
78.67616236097332
 20
-131.150651008879
 30
0.0
 10
78.67616236097332
 20
-131.150651008879
 30
0.0
 10
78.67616236097332
 20
-130.0464979058564
 30
0.0
 10
78.67616236097332
 20
-130.0464979058564
 30
0.0
 10
78.67616236097332
 20
-130.0464979058564
 30
0.0
 10
78.3461222134864
 20
-130.0464979058564
 30
0.0
 10
78.3461222134864
 20
-130.0464979058564
 30
0.0
 10
78.3461222134864
 20
-130.0464979058564
 30
0.0
 10
78.3461222134864
 20
-129.8983587999907
 30
0.0
 10
78.3461222134864
 20
-129.8983587999907
 30
0.0
 10
78.67822941826448
 20
-129.8835448894041
 30
0.0
 10
78.72473820731534
 20
-129.7205918729518
 30
0.0
 10
78.75436602848849
 20
-129.6062147028415
 30
0.0
 10
78.75436602848849
 20
-129.6062147028415
 30
0.0
 10
78.90043807706309
 20
-129.6062147028415
 30
0.0
 10
78.90043807706309
 20
-129.6062147028415
 30
0.0
 10
78.90043807706309
 20
-129.6062147028415
 30
0.0
 10
78.90043807706309
 20
-131.150651008879
 30
0.0
 10
78.90043807706309
 20
-131.150651008879
 30
0.0
 10
78.90043807706309
 20
-131.150651008879
 30
0.0
 10
78.67616236097332
 20
-131.150651008879
 30
0.0
 10
78.67616236097332
 20
-131.150651008879
 30
0.0
  0
HATCH
  5
B3
330
AE
100
AcDbEntity
  8
_U+30EC_U+30A4_U+30E4_U+30FC 1
 62
   179
420
  2234388
100
AcDbHatch
 10
0.0
 20
0.0
 30
0.0
210
0.0
220
0.0
230
1.0
  2
SOLID
 70
     1
 71
     0
 91
        1
 92
        1
 93
        1
 72
     4
 94
        3
 73
     0
 74
     1
 95
       26
 96
       22
 40
0.0
 40
0.0
 40
0.0
 40
0.0
 40
1.0
 40
1.0
 40
1.0
 40
2.0
 40
2.0
 40
2.0
 40
3.0
 40
3.0
 40
3.0
 40
4.0
 40
4.0
 40
4.0
 40
5.0
 40
5.0
 40
5.0
 40
6.0
 40
6.0
 40
6.0
 40
7.0
 40
7.0
 40
7.0
 40
7.0
 10
78.67616236097332
 20
-131.150651008879
 10
78.67616236097332
 20
-131.150651008879
 10
78.67616236097332
 20
-130.0464979058564
 10
78.67616236097332
 20
-130.0464979058564
 10
78.67616236097332
 20
-130.0464979058564
 10
78.3461222134864
 20
-130.0464979058564
 10
78.3461222134864
 20
-130.0464979058564
 10
78.3461222134864
 20
-130.0464979058564
 10
78.3461222134864
 20
-129.8983587999907
 10
78.3461222134864
 20
-129.8983587999907
 10
78.67822941826448
 20
-129.8835448894041
 10
78.72473820731534
 20
-129.7205918729518
 10
78.75436602848849
 20
-129.6062147028415
 10
78.75436602848849
 20
-129.6062147028415
 10
78.90043807706309
 20
-129.6062147028415
 10
78.90043807706309
 20
-129.6062147028415
 10
78.90043807706309
 20
-129.6062147028415
 10
78.90043807706309
 20
-131.150651008879
 10
78.90043807706309
 20
-131.150651008879
 10
78.90043807706309
 20
-131.150651008879
 10
78.67616236097332
 20
-131.150651008879
 10
78.67616236097332
 20
-131.150651008879
 97
        0
 97
        0
 75
     2
 76
     1
 98
        0
  0
ENDBLK
  5
B1
330
AE
100
AcDbEntity
  8
0
100
AcDbBlockEnd
  0
BLOCK
  5
C2
330
C0
100
AcDbEntity
  8
0
100
AcDbBlockBegin
  2
block 6
 70
     0
 10
0.0
 20
0.0
 30
0.0
  3
block 6
  1

  0
SPLINE
  5
C4
330
C0
100
AcDbEntity
  8
_U+30EC_U+30A4_U+30E4_U+30FC 1
370
     0
100
AcDbSpline
210
0.0
220
0.0
230
1.0
 70
    11
 71
     3
 72
    26
 73
    22
 74
     0
 42
0.0000000001
 43
0.0000000001
 12
1.0
 22
0.0
 32
0.0
 13
1.0
 23
0.0
 33
0.0
 40
0.0
 40
0.0
 40
0.0
 40
0.0
 40
1.0
 40
1.0
 40
1.0
 40
2.0
 40
2.0
 40
2.0
 40
3.0
 40
3.0
 40
3.0
 40
4.0
 40
4.0
 40
4.0
 40
5.0
 40
5.0
 40
5.0
 40
6.0
 40
6.0
 40
6.0
 40
7.0
 40
7.0
 40
7.0
 40
7.0
 10
96.13642304454228
 20
-131.150651008879
 30
0.0
 10
96.13642304454228
 20
-131.150651008879
 30
0.0
 10
95.8994004751571
 20
-131.150651008879
 30
0.0
 10
95.8994004751571
 20
-131.150651008879
 30
0.0
 10
95.92489418174794
 20
-130.8416259438521
 30
0.0
 10
96.11747501937342
 20
-130.3234835828705
 30
0.0
 10
96.52365177708437
 20
-129.8177435656359
 30
0.0
 10
96.52365177708437
 20
-129.8177435656359
 30
0.0
 10
95.68580455507161
 20
-129.8177435656359
 30
0.0
 10
95.68580455507161
 20
-129.8177435656359
 30
0.0
 10
95.68580455507161
 20
-129.8177435656359
 30
0.0
 10
95.68580455507161
 20
-129.6062147028415
 30
0.0
 10
95.68580455507161
 20
-129.6062147028415
 30
0.0
 10
95.68580455507161
 20
-129.6062147028415
 30
0.0
 10
96.76067434646956
 20
-129.6062147028415
 30
0.0
 10
96.76067434646956
 20
-129.6062147028415
 30
0.0
 10
96.76067434646956
 20
-129.6062147028415
 30
0.0
 10
96.76067434646956
 20
-129.8177435656359
 30
0.0
 10
96.76067434646956
 20
-129.8177435656359
 30
0.0
 10
96.43683537085607
 20
-130.1078206054939
 30
0.0
 10
96.17018498029773
 20
-130.7000325194083
 30
0.0
 10
96.13642304454228
 20
-131.150651008879
 30
0.0
  0
HATCH
  5
C5
330
C0
100
AcDbEntity
  8
_U+30EC_U+30A4_U+30E4_U+30FC 1
 62
   179
420
  2234388
100
AcDbHatch
 10
0.0
 20
0.0
 30
0.0
210
0.0
220
0.0
230
1.0
  2
SOLID
 70
     1
 71
     0
 91
        1
 92
        1
 93
        1
 72
     4
 94
        3
 73
     0
 74
     1
 95
       26
 96
       22
 40
0.0
 40
0.0
 40
0.0
 40
0.0
 40
1.0
 40
1.0
 40
1.0
 40
2.0
 40
2.0
 40
2.0
 40
3.0
 40
3.0
 40
3.0
 40
4.0
 40
4.0
 40
4.0
 40
5.0
 40
5.0
 40
5.0
 40
6.0
 40
6.0
 40
6.0
 40
7.0
 40
7.0
 40
7.0
 40
7.0
 10
96.13642304454228
 20
-131.150651008879
 10
96.13642304454228
 20
-131.150651008879
 10
95.8994004751571
 20
-131.150651008879
 10
95.8994004751571
 20
-131.150651008879
 10
95.92489418174794
 20
-130.8416259438521
 10
96.11747501937342
 20
-130.3234835828705
 10
96.52365177708437
 20
-129.8177435656359
 10
96.52365177708437
 20
-129.8177435656359
 10
95.68580455507161
 20
-129.8177435656359
 10
95.68580455507161
 20
-129.8177435656359
 10
95.68580455507161
 20
-129.8177435656359
 10
95.68580455507161
 20
-129.6062147028415
 10
95.68580455507161
 20
-129.6062147028415
 10
95.68580455507161
 20
-129.6062147028415
 10
96.76067434646956
 20
-129.6062147028415
 10
96.76067434646956
 20
-129.6062147028415
 10
96.76067434646956
 20
-129.6062147028415
 10
96.76067434646956
 20
-129.8177435656359
 10
96.76067434646956
 20
-129.8177435656359
 10
96.43683537085607
 20
-130.1078206054939
 10
96.17018498029773
 20
-130.7000325194083
 10
96.13642304454228
 20
-131.150651008879
 97
        0
 97
        0
 75
     2
 76
     1
 98
        0
  0
ENDBLK
  5
C3
330
C0
100
AcDbEntity
  8
0
100
AcDbBlockEnd
  0
BLOCK
  5
D4
330
D2
100
AcDbEntity
  8
0
100
AcDbBlockBegin
  2
block 7
 70
     0
 10
0.0
 20
0.0
 30
0.0
  3
block 7
  1

  0
SPLINE
  5
D6
330
D2
100
AcDbEntity
  8
_U+30EC_U+30A4_U+30E4_U+30FC 1
370
     0
100
AcDbSpline
210
0.0
220
0.0
230
1.0
 70
    11
 71
     3
 72
    29
 73
    25
 74
     0
 42
0.0000000001
 43
0.0000000001
 12
1.0
 22
0.0
 32
0.0
 13
1.0
 23
0.0
 33
0.0
 40
0.0
 40
0.0
 40
0.0
 40
0.0
 40
1.0
 40
1.0
 40
1.0
 40
2.0
 40
2.0
 40
2.0
 40
3.0
 40
3.0
 40
3.0
 40
4.0
 40
4.0
 40
4.0
 40
5.0
 40
5.0
 40
5.0
 40
6.0
 40
6.0
 40
6.0
 40
7.0
 40
7.0
 40
7.0
 40
8.0
 40
8.0
 40
8.0
 40
8.0
 10
103.1775091972959
 20
-130.4113335177444
 30
0.0
 10
103.1775091972959
 20
-130.6779839083027
 30
0.0
 10
103.0400498874344
 20
-130.9318874455656
 30
0.0
 10
102.6910617147786
 20
-130.9318874455656
 30
0.0
 10
102.4350911202246
 20
-130.9318874455656
 30
0.0
 10
102.3400064848317
 20
-130.7899495115734
 30
0.0
 10
102.2786837851942
 20
-130.6841850801762
 30
0.0
 10
102.2194281428479
 20
-130.8088975367422
 30
0.0
 10
102.1050509727376
 20
-130.8850341469662
 30
0.0
 10
101.9441650135765
 20
-130.8850341469662
 30
0.0
 10
101.6692463938535
 20
-130.8850341469662
 30
0.0
 10
101.5338541412832
 20
-130.6862521374673
 30
0.0
 10
101.5338541412832
 20
-130.4113335177444
 30
0.0
 10
101.5338541412832
 20
-130.1278021593083
 30
0.0
 10
101.6778591325667
 20
-129.937288378974
 30
0.0
 10
101.9441650135765
 20
-129.937288378974
 30
0.0
 10
102.1050509727376
 20
-129.937288378974
 30
0.0
 10
102.2194281428479
 20
-130.0158365560377
 30
0.0
 10
102.2786837851942
 20
-130.1405490126038
 30
0.0
 10
102.3293266888274
 20
-130.0516655490843
 30
0.0
 10
102.4244113242203
 20
-129.8928466472143
 30
0.0
 10
102.6869276001963
 20
-129.8928466472143
 30
0.0
 10
103.061409479443
 20
-129.8928466472143
 30
0.0
 10
103.1775091972959
 20
-130.1722438910681
 30
0.0
 10
103.1775091972959
 20
-130.4113335177444
 30
0.0
  0
SPLINE
  5
D7
330
D2
100
AcDbEntity
  8
_U+30EC_U+30A4_U+30E4_U+30FC 1
370
     0
100
AcDbSpline
210
0.0
220
0.0
230
1.0
 70
    11
 71
     3
 72
    17
 73
    13
 74
     0
 42
0.0000000001
 43
0.0000000001
 12
1.0
 22
0.0
 32
0.0
 13
1.0
 23
0.0
 33
0.0
 40
0.0
 40
0.0
 40
0.0
 40
0.0
 40
1.0
 40
1.0
 40
1.0
 40
2.0
 40
2.0
 40
2.0
 40
3.0
 40
3.0
 40
3.0
 40
4.0
 40
4.0
 40
4.0
 40
4.0
 10
101.7264349789087
 20
-130.4113335177444
 30
0.0
 10
101.7264349789087
 20
-130.5763535914879
 30
0.0
 10
101.8215196143016
 20
-130.661102940425
 30
0.0
 10
101.9569118668719
 20
-130.661102940425
 30
0.0
 10
102.0795572661468
 20
-130.661102940425
 30
0.0
 10
102.1980685508394
 20
-130.5891004447833
 30
0.0
 10
102.1980685508394
 20
-130.4113335177444
 30
0.0
 10
102.1980685508394
 20
-130.2335665907055
 30
0.0
 10
102.0795572661468
 20
-130.1615640950638
 30
0.0
 10
101.9569118668719
 20
-130.1615640950638
 30
0.0
 10
101.8215196143016
 20
-130.1615640950638
 30
0.0
 10
101.7264349789087
 20
-130.2483805012921
 30
0.0
 10
101.7264349789087
 20
-130.4113335177444
 30
0.0
  0
SPLINE
  5
D8
330
D2
100
AcDbEntity
  8
_U+30EC_U+30A4_U+30E4_U+30FC 1
370
     0
100
AcDbSpline
210
0.0
220
0.0
230
1.0
 70
    11
 71
     3
 72
    17
 73
    13
 74
     0
 42
0.0000000001
 43
0.0000000001
 12
1.0
 22
0.0
 32
0.0
 13
1.0
 23
0.0
 33
0.0
 40
0.0
 40
0.0
 40
0.0
 40
0.0
 40
1.0
 40
1.0
 40
1.0
 40
2.0
 40
2.0
 40
2.0
 40
3.0
 40
3.0
 40
3.0
 40
4.0
 40
4.0
 40
4.0
 40
4.0
 10
102.3865152738825
 20
-130.4113335177444
 30
0.0
 10
102.3865152738825
 20
-130.5549939994793
 30
0.0
 10
102.4733316801108
 20
-130.7076117294759
 30
0.0
 10
102.6762478041921
 20
-130.7076117294759
 30
0.0
 10
102.8815754951129
 20
-130.7076117294759
 30
0.0
 10
102.9828613023793
 20
-130.5804877060702
 30
0.0
 10
102.9828613023793
 20
-130.4113335177444
 30
0.0
 10
102.9828613023793
 20
-130.2252983615409
 30
0.0
 10
102.8602159031044
 20
-130.1150553060129
 30
0.0
 10
102.6824489760655
 20
-130.1150553060129
 30
0.0
 10
102.4605848268154
 20
-130.1150553060129
 30
0.0
 10
102.3865152738825
 20
-130.2780083224652
 30
0.0
 10
102.3865152738825
 20
-130.4113335177444
 30
0.0
  0
HATCH
  5
D9
330
D2
100
AcDbEntity
  8
_U+30EC_U+30A4_U+30E4_U+30FC 1
 62
   179
420
  2234388
100
AcDbHatch
 10
0.0
 20
0.0
 30
0.0
210
0.0
220
0.0
230
1.0
  2
SOLID
 70
     1
 71
     0
 91
        3
 92
        1
 93
        1
 72
     4
 94
        3
 73
     0
 74
     1
 95
       29
 96
       25
 40
0.0
 40
0.0
 40
0.0
 40
0.0
 40
1.0
 40
1.0
 40
1.0
 40
2.0
 40
2.0
 40
2.0
 40
3.0
 40
3.0
 40
3.0
 40
4.0
 40
4.0
 40
4.0
 40
5.0
 40
5.0
 40
5.0
 40
6.0
 40
6.0
 40
6.0
 40
7.0
 40
7.0
 40
7.0
 40
8.0
 40
8.0
 40
8.0
 40
8.0
 10
103.1775091972959
 20
-130.4113335177444
 10
103.1775091972959
 20
-130.6779839083027
 10
103.0400498874344
 20
-130.9318874455656
 10
102.6910617147786
 20
-130.9318874455656
 10
102.4350911202246
 20
-130.9318874455656
 10
102.3400064848317
 20
-130.7899495115734
 10
102.2786837851942
 20
-130.6841850801762
 10
102.2194281428479
 20
-130.8088975367422
 10
102.1050509727376
 20
-130.8850341469662
 10
101.9441650135765
 20
-130.8850341469662
 10
101.6692463938535
 20
-130.8850341469662
 10
101.5338541412832
 20
-130.6862521374673
 10
101.5338541412832
 20
-130.4113335177444
 10
101.5338541412832
 20
-130.1278021593083
 10
101.6778591325667
 20
-129.937288378974
 10
101.9441650135765
 20
-129.937288378974
 10
102.1050509727376
 20
-129.937288378974
 10
102.2194281428479
 20
-130.0158365560377
 10
102.2786837851942
 20
-130.1405490126038
 10
102.3293266888274
 20
-130.0516655490843
 10
102.4244113242203
 20
-129.8928466472143
 10
102.6869276001963
 20
-129.8928466472143
 10
103.061409479443
 20
-129.8928466472143
 10
103.1775091972959
 20
-130.1722438910681
 10
103.1775091972959
 20
-130.4113335177444
 97
        0
 97
        0
 92
        1
 93
        1
 72
     4
 94
        3
 73
     0
 74
     1
 95
       17
 96
       13
 40
0.0
 40
0.0
 40
0.0
 40
0.0
 40
1.0
 40
1.0
 40
1.0
 40
2.0
 40
2.0
 40
2.0
 40
3.0
 40
3.0
 40
3.0
 40
4.0
 40
4.0
 40
4.0
 40
4.0
 10
101.7264349789087
 20
-130.4113335177444
 10
101.7264349789087
 20
-130.5763535914879
 10
101.8215196143016
 20
-130.661102940425
 10
101.9569118668719
 20
-130.661102940425
 10
102.0795572661468
 20
-130.661102940425
 10
102.1980685508394
 20
-130.5891004447833
 10
102.1980685508394
 20
-130.4113335177444
 10
102.1980685508394
 20
-130.2335665907055
 10
102.0795572661468
 20
-130.1615640950638
 10
101.9569118668719
 20
-130.1615640950638
 10
101.8215196143016
 20
-130.1615640950638
 10
101.7264349789087
 20
-130.2483805012921
 10
101.7264349789087
 20
-130.4113335177444
 97
        0
 97
        0
 92
        1
 93
        1
 72
     4
 94
        3
 73
     0
 74
     1
 95
       17
 96
       13
 40
0.0
 40
0.0
 40
0.0
 40
0.0
 40
1.0
 40
1.0
 40
1.0
 40
2.0
 40
2.0
 40
2.0
 40
3.0
 40
3.0
 40
3.0
 40
4.0
 40
4.0
 40
4.0
 40
4.0
 10
102.3865152738825
 20
-130.4113335177444
 10
102.3865152738825
 20
-130.5549939994793
 10
102.4733316801108
 20
-130.7076117294759
 10
102.6762478041921
 20
-130.7076117294759
 10
102.8815754951129
 20
-130.7076117294759
 10
102.9828613023793
 20
-130.5804877060702
 10
102.9828613023793
 20
-130.4113335177444
 10
102.9828613023793
 20
-130.2252983615409
 10
102.8602159031044
 20
-130.1150553060129
 10
102.6824489760655
 20
-130.1150553060129
 10
102.4605848268154
 20
-130.1150553060129
 10
102.3865152738825
 20
-130.2780083224652
 10
102.3865152738825
 20
-130.4113335177444
 97
        0
 97
        0
 75
     2
 76
     1
 98
        0
  0
POLYLINE
  5
DA
330
D2
100
AcDbEntity
  8
_U+30EC_U+30A4_U+30E4_U+30FC 1
370
     0
100
AcDb2dPolyline
 66
     1
 10
0.0
 20
0.0
 30
0.0
  0
VERTEX
  5
DB
330
DA
100
AcDbEntity
  8
_U+30EC_U+30A4_U+30E4_U+30FC 1
370
     0
100
AcDbVertex
100
AcDb2dVertex
 10
103.1268662936627
 20
-129.6744275934495
 30
0.0
  0
VERTEX
  5
DC
330
DA
100
AcDbEntity
  8
_U+30EC_U+30A4_U+30E4_U+30FC 1
370
     0
100
AcDbVertex
100
AcDb2dVertex
 10
102.875029813691
 20
-129.6744275934495
 30
0.0
  0
VERTEX
  5
DD
330
DA
100
AcDbEntity
  8
_U+30EC_U+30A4_U+30E4_U+30FC 1
370
     0
100
AcDbVertex
100
AcDb2dVertex
 10
102.875029813691
 20
-129.4225911134777
 30
0.0
  0
VERTEX
  5
DE
330
DA
100
AcDbEntity
  8
_U+30EC_U+30A4_U+30E4_U+30FC 1
370
     0
100
AcDbVertex
100
AcDb2dVertex
 10
103.1268662936627
 20
-129.4225911134777
 30
0.0
  0
VERTEX
  5
DF
330
DA
100
AcDbEntity
  8
_U+30EC_U+30A4_U+30E4_U+30FC 1
370
     0
100
AcDbVertex
100
AcDb2dVertex
 10
103.1268662936627
 20
-129.6744275934495
 30
0.0
  0
SEQEND
  5
E0
330
DA
100
AcDbEntity
  8
_U+30EC_U+30A4_U+30E4_U+30FC 1
370
     0
  0
HATCH
  5
E1
330
D2
100
AcDbEntity
  8
_U+30EC_U+30A4_U+30E4_U+30FC 1
 62
   179
420
  2234388
100
AcDbHatch
 10
0.0
 20
0.0
 30
0.0
210
0.0
220
0.0
230
1.0
  2
SOLID
 70
     1
 71
     0
 91
        1
 92
        1
 93
        4
 72
     1
 10
103.1268662936627
 20
-129.6744275934495
 11
102.875029813691
 21
-129.6744275934495
 72
     1
 10
102.875029813691
 20
-129.6744275934495
 11
102.875029813691
 21
-129.4225911134777
 72
     1
 10
102.875029813691
 20
-129.4225911134777
 11
103.1268662936627
 21
-129.4225911134777
 72
     1
 10
103.1268662936627
 20
-129.4225911134777
 11
103.1268662936627
 21
-129.6744275934495
 97
        0
 75
     2
 76
     1
 98
        0
  0
SPLINE
  5
E2
330
D2
100
AcDbEntity
  8
_U+30EC_U+30A4_U+30E4_U+30FC 1
370
     0
100
AcDbSpline
210
0.0
220
0.0
230
1.0
 70
    11
 71
     3
 72
    53
 73
    49
 74
     0
 42
0.0000000001
 43
0.0000000001
 12
1.0
 22
0.0
 32
0.0
 13
1.0
 23
0.0
 33
0.0
 40
0.0
 40
0.0
 40
0.0
 40
0.0
 40
1.0
 40
1.0
 40
1.0
 40
2.0
 40
2.0
 40
2.0
 40
3.0
 40
3.0
 40
3.0
 40
4.0
 40
4.0
 40
4.0
 40
5.0
 40
5.0
 40
5.0
 40
6.0
 40
6.0
 40
6.0
 40
7.0
 40
7.0
 40
7.0
 40
8.0
 40
8.0
 40
8.0
 40
9.0
 40
9.0
 40
9.0
 40
10.0
 40
10.0
 40
10.0
 40
11.0
 40
11.0
 40
11.0
 40
12.0
 40
12.0
 40
12.0
 40
13.0
 40
13.0
 40
13.0
 40
14.0
 40
14.0
 40
14.0
 40
15.0
 40
15.0
 40
15.0
 40
16.0
 40
16.0
 40
16.0
 40
16.0
 10
103.1775091972959
 20
-128.7054944882229
 30
0.0
 10
103.1775091972959
 20
-128.7835259009638
 30
0.0
 10
103.1606282294182
 20
-128.8851562177787
 30
0.0
 10
103.0972384724896
 20
-128.9867865345936
 30
0.0
 10
102.9873399265101
 20
-129.1600748375017
 30
0.0
 10
102.8560817885221
 20
-129.1814344295102
 30
0.0
 10
102.7482502998338
 20
-129.2003824546791
 30
0.0
 10
102.7482502998338
 20
-129.2003824546791
 30
0.0
 10
102.7482502998338
 20
-128.9781737958805
 30
0.0
 10
102.7482502998338
 20
-128.9781737958805
 30
0.0
 10
102.9470323093327
 20
-128.923396777665
 30
0.0
 10
102.9766601305058
 20
-128.7962727542593
 30
0.0
 10
102.9766601305058
 20
-128.7034274309318
 30
0.0
 10
102.9766601305058
 20
-128.5639010637792
 30
0.0
 10
102.8770968709821
 20
-128.4116278433311
 30
0.0
 10
102.6445529257278
 20
-128.4116278433311
 30
0.0
 10
102.3885823311737
 20
-128.4116278433311
 30
0.0
 10
102.3186468928231
 20
-128.5914618276612
 30
0.0
 10
102.3186468928231
 20
-128.7120401696449
 30
0.0
 10
102.3186468928231
 20
-128.7437350481092
 30
0.0
 10
102.3186468928231
 20
-128.8851562177787
 30
0.0
 10
102.44783797352
 20
-128.9740396812982
 30
0.0
 10
102.44783797352
 20
-128.9740396812982
 30
0.0
 10
102.4288899483511
 20
-129.1497395510459
 30
0.0
 10
102.4288899483511
 20
-129.1497395510459
 30
0.0
 10
102.4288899483511
 20
-129.1497395510459
 30
0.0
 10
101.5824299876252
 20
-129.0291612090622
 30
0.0
 10
101.5824299876252
 20
-129.0291612090622
 30
0.0
 10
101.5824299876252
 20
-129.0291612090622
 30
0.0
 10
101.5824299876252
 20
-128.25074188417
 30
0.0
 10
101.5824299876252
 20
-128.25074188417
 30
0.0
 10
101.5824299876252
 20
-128.25074188417
 30
0.0
 10
101.7770778825418
 20
-128.25074188417
 30
0.0
 10
101.7770778825418
 20
-128.25074188417
 30
0.0
 10
101.7770778825418
 20
-128.25074188417
 30
0.0
 10
101.7770778825418
 20
-128.8662081926098
 30
0.0
 10
101.7770778825418
 20
-128.8662081926098
 30
0.0
 10
101.7770778825418
 20
-128.8662081926098
 30
0.0
 10
102.2001356081305
 20
-128.9316650068296
 30
0.0
 10
102.2001356081305
 20
-128.9316650068296
 30
0.0
 10
102.1663736723751
 20
-128.8703423071921
 30
0.0
 10
102.1260660551977
 20
-128.7880045250947
 30
0.0
 10
102.1260660551977
 20
-128.6696654951763
 30
0.0
 10
102.1260660551977
 20
-128.4157619579134
 30
0.0
 10
102.3124457209497
 20
-128.1787393885282
 30
0.0
 10
102.6256049005589
 20
-128.1787393885282
 30
0.0
 10
102.9428981947504
 20
-128.1787393885282
 30
0.0
 10
103.1775091972959
 20
-128.403015104618
 30
0.0
 10
103.1775091972959
 20
-128.7054944882229
 30
0.0
  0
HATCH
  5
E3
330
D2
100
AcDbEntity
  8
_U+30EC_U+30A4_U+30E4_U+30FC 1
 62
   179
420
  2234388
100
AcDbHatch
 10
0.0
 20
0.0
 30
0.0
210
0.0
220
0.0
230
1.0
  2
SOLID
 70
     1
 71
     0
 91
        1
 92
        1
 93
        1
 72
     4
 94
        3
 73
     0
 74
     1
 95
       53
 96
       49
 40
0.0
 40
0.0
 40
0.0
 40
0.0
 40
1.0
 40
1.0
 40
1.0
 40
2.0
 40
2.0
 40
2.0
 40
3.0
 40
3.0
 40
3.0
 40
4.0
 40
4.0
 40
4.0
 40
5.0
 40
5.0
 40
5.0
 40
6.0
 40
6.0
 40
6.0
 40
7.0
 40
7.0
 40
7.0
 40
8.0
 40
8.0
 40
8.0
 40
9.0
 40
9.0
 40
9.0
 40
10.0
 40
10.0
 40
10.0
 40
11.0
 40
11.0
 40
11.0
 40
12.0
 40
12.0
 40
12.0
 40
13.0
 40
13.0
 40
13.0
 40
14.0
 40
14.0
 40
14.0
 40
15.0
 40
15.0
 40
15.0
 40
16.0
 40
16.0
 40
16.0
 40
16.0
 10
103.1775091972959
 20
-128.7054944882229
 10
103.1775091972959
 20
-128.7835259009638
 10
103.1606282294182
 20
-128.8851562177787
 10
103.0972384724896
 20
-128.9867865345936
 10
102.9873399265101
 20
-129.1600748375017
 10
102.8560817885221
 20
-129.1814344295102
 10
102.7482502998338
 20
-129.2003824546791
 10
102.7482502998338
 20
-129.2003824546791
 10
102.7482502998338
 20
-128.9781737958805
 10
102.7482502998338
 20
-128.9781737958805
 10
102.9470323093327
 20
-128.923396777665
 10
102.9766601305058
 20
-128.7962727542593
 10
102.9766601305058
 20
-128.7034274309318
 10
102.9766601305058
 20
-128.5639010637792
 10
102.8770968709821
 20
-128.4116278433311
 10
102.6445529257278
 20
-128.4116278433311
 10
102.3885823311737
 20
-128.4116278433311
 10
102.3186468928231
 20
-128.5914618276612
 10
102.3186468928231
 20
-128.7120401696449
 10
102.3186468928231
 20
-128.7437350481092
 10
102.3186468928231
 20
-128.8851562177787
 10
102.44783797352
 20
-128.9740396812982
 10
102.44783797352
 20
-128.9740396812982
 10
102.4288899483511
 20
-129.1497395510459
 10
102.4288899483511
 20
-129.1497395510459
 10
102.4288899483511
 20
-129.1497395510459
 10
101.5824299876252
 20
-129.0291612090622
 10
101.5824299876252
 20
-129.0291612090622
 10
101.5824299876252
 20
-129.0291612090622
 10
101.5824299876252
 20
-128.25074188417
 10
101.5824299876252
 20
-128.25074188417
 10
101.5824299876252
 20
-128.25074188417
 10
101.7770778825418
 20
-128.25074188417
 10
101.7770778825418
 20
-128.25074188417
 10
101.7770778825418
 20
-128.25074188417
 10
101.7770778825418
 20
-128.8662081926098
 10
101.7770778825418
 20
-128.8662081926098
 10
101.7770778825418
 20
-128.8662081926098
 10
102.2001356081305
 20
-128.9316650068296
 10
102.2001356081305
 20
-128.9316650068296
 10
102.1663736723751
 20
-128.8703423071921
 10
102.1260660551977
 20
-128.7880045250947
 10
102.1260660551977
 20
-128.6696654951763
 10
102.1260660551977
 20
-128.4157619579134
 10
102.3124457209497
 20
-128.1787393885282
 10
102.6256049005589
 20
-128.1787393885282
 10
102.9428981947504
 20
-128.1787393885282
 10
103.1775091972959
 20
-128.403015104618
 10
103.1775091972959
 20
-128.7054944882229
 97
        0
 97
        0
 75
     2
 76
     1
 98
        0
  0
ENDBLK
  5
D5
330
D2
100
AcDbEntity
  8
0
100
AcDbBlockEnd
  0
ENDSEC
  0
SECTION
  2
ENTITIES
  0
POLYLINE
  5
41
330
1F
100
AcDbEntity
  8
_U+30EC_U+30A4_U+30E4_U+30FC 1
 62
   179
420
  2234388
370
    25
100
AcDb2dPolyline
 66
     1
 10
0.0
 20
0.0
 30
0.0
  0
VERTEX
  5
42
330
41
100
AcDbEntity
  8
_U+30EC_U+30A4_U+30E4_U+30FC 1
 62
   179
420
  2234388
370
    25
100
AcDbVertex
100
AcDb2dVertex
 10
99.72378412250097
 20
-134.3538996886337
 30
0.0
  0
VERTEX
  5
43
330
41
100
AcDbEntity
  8
_U+30EC_U+30A4_U+30E4_U+30FC 1
 62
   179
420
  2234388
370
    25
100
AcDbVertex
100
AcDb2dVertex
 10
81.72301624840549
 20
-134.3538996886337
 30
0.0
  0
VERTEX
  5
44
330
41
100
AcDbEntity
  8
_U+30EC_U+30A4_U+30E4_U+30FC 1
 62
   179
420
  2234388
370
    25
100
AcDbVertex
100
AcDb2dVertex
 10
81.72301624840549
 20
-123.7469655246188
 30
0.0
  0
VERTEX
  5
45
330
41
100
AcDbEntity
  8
_U+30EC_U+30A4_U+30E4_U+30FC 1
 62
   179
420
  2234388
370
    25
100
AcDbVertex
100
AcDb2dVertex
 10
89.35973772024316
 20
-123.7469655246188
 30
0.0
  0
VERTEX
  5
46
330
41
100
AcDbEntity
  8
_U+30EC_U+30A4_U+30E4_U+30FC 1
 62
   179
420
  2234388
370
    25
100
AcDbVertex
100
AcDb2dVertex
 10
89.72355743318357
 20
-124.7470905243688
 30
0.0
  0
VERTEX
  5
47
330
41
100
AcDbEntity
  8
_U+30EC_U+30A4_U+30E4_U+30FC 1
 62
   179
420
  2234388
370
    25
100
AcDbVertex
100
AcDb2dVertex
 10
82.72345872288207
 20
-124.7470905243688
 30
0.0
  0
VERTEX
  5
48
330
41
100
AcDbEntity
  8
_U+30EC_U+30A4_U+30E4_U+30FC 1
 62
   179
420
  2234388
370
    25
100
AcDbVertex
100
AcDb2dVertex
 10
82.72345872288207
 20
-133.3534571888838
 30
0.0
  0
VERTEX
  5
49
330
41
100
AcDbEntity
  8
_U+30EC_U+30A4_U+30E4_U+30FC 1
 62
   179
420
  2234388
370
    25
100
AcDbVertex
100
AcDb2dVertex
 10
92.72336791220758
 20
-133.3534571888838
 30
0.0
  0
VERTEX
  5
4A
330
41
100
AcDbEntity
  8
_U+30EC_U+30A4_U+30E4_U+30FC 1
 62
   179
420
  2234388
370
    25
100
AcDbVertex
100
AcDb2dVertex
 10
93.0230879045611
 20
-133.6538474665867
 30
0.0
  0
VERTEX
  5
4B
330
41
100
AcDbEntity
  8
_U+30EC_U+30A4_U+30E4_U+30FC 1
 62
   179
420
  2234388
370
    25
100
AcDbVertex
100
AcDb2dVertex
 10
99.46886941957749
 20
-133.6538474665867
 30
0.0
  0
VERTEX
  5
4C
330
41
100
AcDbEntity
  8
_U+30EC_U+30A4_U+30E4_U+30FC 1
 62
   179
420
  2234388
370
    25
100
AcDbVertex
100
AcDb2dVertex
 10
99.72378412250097
 20
-134.3538996886337
 30
0.0
  0
SEQEND
  5
4E
330
41
100
AcDbEntity
  8
_U+30EC_U+30A4_U+30E4_U+30FC 1
 62
   179
420
  2234388
370
    25
  0
HATCH
  5
4D
330
1F
100
AcDbEntity
  8
_U+30EC_U+30A4_U+30E4_U+30FC 1
 62
   179
420
  2234388
100
AcDbHatch
 10
0.0
 20
0.0
 30
0.0
210
0.0
220
0.0
230
1.0
  2
SOLID
 70
     1
 71
     0
 91
        1
 92
        1
 93
       10
 72
     1
 10
99.72378412250097
 20
-134.3538996886337
 11
81.72301624840549
 21
-134.3538996886337
 72
     1
 10
81.72301624840549
 20
-134.3538996886337
 11
81.72301624840549
 21
-123.7469655246188
 72
     1
 10
81.72301624840549
 20
-123.7469655246188
 11
89.35973772024316
 21
-123.7469655246188
 72
     1
 10
89.35973772024316
 20
-123.7469655246188
 11
89.72355743318357
 21
-124.7470905243688
 72
     1
 10
89.72355743318357
 20
-124.7470905243688
 11
82.72345872288207
 21
-124.7470905243688
 72
     1
 10
82.72345872288207
 20
-124.7470905243688
 11
82.72345872288207
 21
-133.3534571888838
 72
     1
 10
82.72345872288207
 20
-133.3534571888838
 11
92.72336791220758
 21
-133.3534571888838
 72
     1
 10
92.72336791220758
 20
-133.3534571888838
 11
93.0230879045611
 21
-133.6538474665867
 72
     1
 10
93.0230879045611
 20
-133.6538474665867
 11
99.46886941957749
 21
-133.6538474665867
 72
     1
 10
99.46886941957749
 20
-133.6538474665867
 11
99.72378412250097
 21
-134.3538996886337
 97
        0
 75
     2
 76
     1
 98
        0
  0
SPLINE
  5
4F
330
1F
100
AcDbEntity
  8
_U+30EC_U+30A4_U+30E4_U+30FC 1
 62
   179
420
  2234388
370
     9
100
AcDbSpline
210
0.0
220
0.0
230
1.0
 70
    11
 71
     3
 72
    17
 73
    13
 74
     0
 42
0.0000000001
 43
0.0000000001
 12
1.0
 22
0.0
 32
0.0
 13
1.0
 23
0.0
 33
0.0
 40
0.0
 40
0.0
 40
0.0
 40
0.0
 40
1.0
 40
1.0
 40
1.0
 40
2.0
 40
2.0
 40
2.0
 40
3.0
 40
3.0
 40
3.0
 40
4.0
 40
4.0
 40
4.0
 40
4.0
 10
81.823593190284
 20
-131.7466602448409
 30
0.0
 10
81.823593190284
 20
-131.6915210781884
 30
0.0
 10
81.77882775733318
 20
-131.6467535781992
 30
0.0
 10
81.72301624840549
 20
-131.6467535781992
 30
0.0
 10
81.66787708314554
 20
-131.6467535781992
 30
0.0
 10
81.62310958428766
 20
-131.6915210781884
 30
0.0
 10
81.62310958428766
 20
-131.7466602448409
 30
0.0
 10
81.62310958428766
 20
-131.8024696892719
 30
0.0
 10
81.66787708314554
 20
-131.8465669114831
 30
0.0
 10
81.72301624840549
 20
-131.8465669114831
 30
0.0
 10
81.77882775733318
 20
-131.8465669114831
 30
0.0
 10
81.823593190284
 20
-131.8024696892719
 30
0.0
 10
81.823593190284
 20
-131.7466602448409
 30
0.0
  0
SPLINE
  5
50
330
1F
100
AcDbEntity
  8
_U+30EC_U+30A4_U+30E4_U+30FC 1
 62
   179
420
  2234388
370
     9
100
AcDbSpline
210
0.0
220
0.0
230
1.0
 70
    11
 71
     3
 72
    17
 73
    13
 74
     0
 42
0.0000000001
 43
0.0000000001
 12
1.0
 22
0.0
 32
0.0
 13
1.0
 23
0.0
 33
0.0
 40
0.0
 40
0.0
 40
0.0
 40
0.0
 40
1.0
 40
1.0
 40
1.0
 40
2.0
 40
2.0
 40
2.0
 40
3.0
 40
3.0
 40
3.0
 40
4.0
 40
4.0
 40
4.0
 40
4.0
 10
82.82336538699991
 20
-131.7466602448409
 30
0.0
 10
82.82336538699991
 20
-131.6915210781884
 30
0.0
 10
82.77856261036516
 20
-131.6467535781992
 30
0.0
 10
82.72345872288207
 20
-131.6467535781992
 30
0.0
 10
82.66831955762213
 20
-131.6467535781992
 30
0.0
 10
82.62355205876425
 20
-131.6915210781884
 30
0.0
 10
82.62355205876425
 20
-131.7466602448409
 30
0.0
 10
82.62355205876425
 20
-131.8024696892719
 30
0.0
 10
82.66831955762213
 20
-131.8465669114831
 30
0.0
 10
82.72345872288207
 20
-131.8465669114831
 30
0.0
 10
82.77856261036516
 20
-131.8465669114831
 30
0.0
 10
82.82336538699991
 20
-131.8024696892719
 30
0.0
 10
82.82336538699991
 20
-131.7466602448409
 30
0.0
  0
SPLINE
  5
51
330
1F
100
AcDbEntity
  8
_U+30EC_U+30A4_U+30E4_U+30FC 1
 62
   179
420
  2234388
370
     9
100
AcDbSpline
210
0.0
220
0.0
230
1.0
 70
    11
 71
     3
 72
    17
 73
    13
 74
     0
 42
0.0000000001
 43
0.0000000001
 12
1.0
 22
0.0
 32
0.0
 13
1.0
 23
0.0
 33
0.0
 40
0.0
 40
0.0
 40
0.0
 40
0.0
 40
1.0
 40
1.0
 40
1.0
 40
2.0
 40
2.0
 40
2.0
 40
3.0
 40
3.0
 40
3.0
 40
4.0
 40
4.0
 40
4.0
 40
4.0
 10
81.823593190284
 20
-119.7468535811745
 30
0.0
 10
81.823593190284
 20
-119.6917496922993
 30
0.0
 10
81.77882775733318
 20
-119.6469469145325
 30
0.0
 10
81.72301624840549
 20
-119.6469469145325
 30
0.0
 10
81.66787708314554
 20
-119.6469469145325
 30
0.0
 10
81.62310958428766
 20
-119.6917496922993
 30
0.0
 10
81.62310958428766
 20
-119.7468535811745
 30
0.0
 10
81.62310958428766
 20
-119.8019927478273
 30
0.0
 10
81.66787708314554
 20
-119.8467602478161
 30
0.0
 10
81.72301624840549
 20
-119.8467602478161
 30
0.0
 10
81.77882775733318
 20
-119.8467602478161
 30
0.0
 10
81.823593190284
 20
-119.8019927478273
 30
0.0
 10
81.823593190284
 20
-119.7468535811745
 30
0.0
  0
SPLINE
  5
52
330
1F
100
AcDbEntity
  8
_U+30EC_U+30A4_U+30E4_U+30FC 1
 62
   179
420
  2234388
370
     9
100
AcDbSpline
210
0.0
220
0.0
230
1.0
 70
    11
 71
     3
 72
    17
 73
    13
 74
     0
 42
0.0000000001
 43
0.0000000001
 12
1.0
 22
0.0
 32
0.0
 13
1.0
 23
0.0
 33
0.0
 40
0.0
 40
0.0
 40
0.0
 40
0.0
 40
1.0
 40
1.0
 40
1.0
 40
2.0
 40
2.0
 40
2.0
 40
3.0
 40
3.0
 40
3.0
 40
4.0
 40
4.0
 40
4.0
 40
4.0
 10
89.82311131953263
 20
-119.7468535811745
 30
0.0
 10
89.82311131953263
 20
-119.6917496922993
 30
0.0
 10
89.77830854289786
 20
-119.6469469145325
 30
0.0
 10
89.72320465541479
 20
-119.6469469145325
 30
0.0
 10
89.66806549015485
 20
-119.6469469145325
 30
0.0
 10
89.62329799129695
 20
-119.6917496922993
 30
0.0
 10
89.62329799129695
 20
-119.7468535811745
 30
0.0
 10
89.62329799129695
 20
-119.8019927478273
 30
0.0
 10
89.66806549015485
 20
-119.8467602478161
 30
0.0
 10
89.72320465541479
 20
-119.8467602478161
 30
0.0
 10
89.77830854289786
 20
-119.8467602478161
 30
0.0
 10
89.82311131953263
 20
-119.8019927478273
 30
0.0
 10
89.82311131953263
 20
-119.7468535811745
 30
0.0
  0
SPLINE
  5
53
330
1F
100
AcDbEntity
  8
_U+30EC_U+30A4_U+30E4_U+30FC 1
 62
   179
420
  2234388
370
     9
100
AcDbSpline
210
0.0
220
0.0
230
1.0
 70
    11
 71
     3
 72
    17
 73
    13
 74
     0
 42
0.0000000001
 43
0.0000000001
 12
1.0
 22
0.0
 32
0.0
 13
1.0
 23
0.0
 33
0.0
 40
0.0
 40
0.0
 40
0.0
 40
0.0
 40
1.0
 40
1.0
 40
1.0
 40
2.0
 40
2.0
 40
2.0
 40
3.0
 40
3.0
 40
3.0
 40
4.0
 40
4.0
 40
4.0
 40
4.0
 10
103.8234498512431
 20
-124.7470905243688
 30
0.0
 10
103.8234498512431
 20
-124.6919513577161
 30
0.0
 10
103.7786823523852
 20
-124.6471838577272
 30
0.0
 10
103.7235431871253
 20
-124.6471838577272
 30
0.0
 10
103.6684392996422
 20
-124.6471838577272
 30
0.0
 10
103.6236365230074
 20
-124.6919513577161
 30
0.0
 10
103.6236365230074
 20
-124.7470905243688
 30
0.0
 10
103.6236365230074
 20
-124.8021944132441
 30
0.0
 10
103.6684392996422
 20
-124.8469971910105
 30
0.0
 10
103.7235431871253
 20
-124.8469971910105
 30
0.0
 10
103.7786823523852
 20
-124.8469971910105
 30
0.0
 10
103.8234498512431
 20
-124.8021944132441
 30
0.0
 10
103.8234498512431
 20
-124.7470905243688
 30
0.0
  0
SPLINE
  5
54
330
1F
100
AcDbEntity
  8
_U+30EC_U+30A4_U+30E4_U+30FC 1
 62
   179
420
  2234388
370
     9
100
AcDbSpline
210
0.0
220
0.0
230
1.0
 70
    11
 71
     3
 72
    17
 73
    13
 74
     0
 42
0.0000000001
 43
0.0000000001
 12
1.0
 22
0.0
 32
0.0
 13
1.0
 23
0.0
 33
0.0
 40
0.0
 40
0.0
 40
0.0
 40
0.0
 40
1.0
 40
1.0
 40
1.0
 40
2.0
 40
2.0
 40
2.0
 40
3.0
 40
3.0
 40
3.0
 40
4.0
 40
4.0
 40
4.0
 40
4.0
 10
103.8234498512431
 20
-133.3534571888838
 30
0.0
 10
103.8234498512431
 20
-133.2983180222307
 30
0.0
 10
103.7786823523852
 20
-133.2535505222422
 30
0.0
 10
103.7235431871253
 20
-133.2535505222422
 30
0.0
 10
103.6684392996422
 20
-133.2535505222422
 30
0.0
 10
103.6236365230074
 20
-133.2983180222307
 30
0.0
 10
103.6236365230074
 20
-133.3534571888838
 30
0.0
 10
103.6236365230074
 20
-133.4092666333142
 30
0.0
 10
103.6684392996422
 20
-133.4540341333035
 30
0.0
 10
103.7235431871253
 20
-133.4540341333035
 30
0.0
 10
103.7786823523852
 20
-133.4540341333035
 30
0.0
 10
103.8234498512431
 20
-133.4092666333142
 30
0.0
 10
103.8234498512431
 20
-133.3534571888838
 30
0.0
  0
SPLINE
  5
55
330
1F
100
AcDbEntity
  8
_U+30EC_U+30A4_U+30E4_U+30FC 1
 62
   179
420
  2234388
370
     9
100
AcDbSpline
210
0.0
220
0.0
230
1.0
 70
    11
 71
     3
 72
    17
 73
    13
 74
     0
 42
0.0000000001
 43
0.0000000001
 12
1.0
 22
0.0
 32
0.0
 13
1.0
 23
0.0
 33
0.0
 40
0.0
 40
0.0
 40
0.0
 40
0.0
 40
1.0
 40
1.0
 40
1.0
 40
2.0
 40
2.0
 40
2.0
 40
3.0
 40
3.0
 40
3.0
 40
4.0
 40
4.0
 40
4.0
 40
4.0
 10
103.8234498512431
 20
-133.6538474665867
 30
0.0
 10
103.8234498512431
 20
-133.5987435777112
 30
0.0
 10
103.7786823523852
 20
-133.5539407999451
 30
0.0
 10
103.7235431871253
 20
-133.5539407999451
 30
0.0
 10
103.6684392996422
 20
-133.5539407999451
 30
0.0
 10
103.6236365230074
 20
-133.5987435777112
 30
0.0
 10
103.6236365230074
 20
-133.6538474665867
 30
0.0
 10
103.6236365230074
 20
-133.7089866332392
 30
0.0
 10
103.6684392996422
 20
-133.7537541332283
 30
0.0
 10
103.7235431871253
 20
-133.7537541332283
 30
0.0
 10
103.7786823523852
 20
-133.7537541332283
 30
0.0
 10
103.8234498512431
 20
-133.7089866332392
 30
0.0
 10
103.8234498512431
 20
-133.6538474665867
 30
0.0
  0
SPLINE
  5
56
330
1F
100
AcDbEntity
  8
_U+30EC_U+30A4_U+30E4_U+30FC 1
 62
   179
420
  2234388
370
     9
100
AcDbSpline
210
0.0
220
0.0
230
1.0
 70
    11
 71
     3
 72
    17
 73
    13
 74
     0
 42
0.0000000001
 43
0.0000000001
 12
1.0
 22
0.0
 32
0.0
 13
1.0
 23
0.0
 33
0.0
 40
0.0
 40
0.0
 40
0.0
 40
0.0
 40
1.0
 40
1.0
 40
1.0
 40
2.0
 40
2.0
 40
2.0
 40
3.0
 40
3.0
 40
3.0
 40
4.0
 40
4.0
 40
4.0
 40
4.0
 10
103.8234498512431
 20
-134.3538996886337
 30
0.0
 10
103.8234498512431
 20
-134.2987957997588
 30
0.0
 10
103.7786823523852
 20
-134.2539930219921
 30
0.0
 10
103.7235431871253
 20
-134.2539930219921
 30
0.0
 10
103.6684392996422
 20
-134.2539930219921
 30
0.0
 10
103.6236365230074
 20
-134.2987957997588
 30
0.0
 10
103.6236365230074
 20
-134.3538996886337
 30
0.0
 10
103.6236365230074
 20
-134.4090388552868
 30
0.0
 10
103.6684392996422
 20
-134.4538063552753
 30
0.0
 10
103.7235431871253
 20
-134.4538063552753
 30
0.0
 10
103.7786823523852
 20
-134.4538063552753
 30
0.0
 10
103.8234498512431
 20
-134.4090388552868
 30
0.0
 10
103.8234498512431
 20
-134.3538996886337
 30
0.0
  0
SPLINE
  5
57
330
1F
100
AcDbEntity
  8
_U+30EC_U+30A4_U+30E4_U+30FC 1
 62
   179
420
  2234388
370
     9
100
AcDbSpline
210
0.0
220
0.0
230
1.0
 70
    11
 71
     3
 72
    17
 73
    13
 74
     0
 42
0.0000000001
 43
0.0000000001
 12
1.0
 22
0.0
 32
0.0
 13
1.0
 23
0.0
 33
0.0
 40
0.0
 40
0.0
 40
0.0
 40
0.0
 40
1.0
 40
1.0
 40
1.0
 40
2.0
 40
2.0
 40
2.0
 40
3.0
 40
3.0
 40
3.0
 40
4.0
 40
4.0
 40
4.0
 40
4.0
 10
99.82369078661881
 20
-138.3536588543006
 30
0.0
 10
99.82369078661881
 20
-138.2985196876475
 30
0.0
 10
99.77892328776093
 20
-138.253752187659
 30
0.0
 10
99.72378412250097
 20
-138.253752187659
 30
0.0
 10
99.6686802350179
 20
-138.253752187659
 30
0.0
 10
99.62387745838315
 20
-138.2985196876475
 30
0.0
 10
99.62387745838315
 20
-138.3536588543006
 30
0.0
 10
99.62387745838315
 20
-138.4087627431755
 30
0.0
 10
99.6686802350179
 20
-138.4535655209422
 30
0.0
 10
99.72378412250097
 20
-138.4535655209422
 30
0.0
 10
99.77892328776093
 20
-138.4535655209422
 30
0.0
 10
99.82369078661881
 20
-138.4087627431755
 30
0.0
 10
99.82369078661881
 20
-138.3536588543006
 30
0.0
  0
SPLINE
  5
58
330
1F
100
AcDbEntity
  8
_U+30EC_U+30A4_U+30E4_U+30FC 1
 62
   179
420
  2234388
370
     9
100
AcDbSpline
210
0.0
220
0.0
230
1.0
 70
    11
 71
     3
 72
    17
 73
    13
 74
     0
 42
0.0000000001
 43
0.0000000001
 12
1.0
 22
0.0
 32
0.0
 13
1.0
 23
0.0
 33
0.0
 40
0.0
 40
0.0
 40
0.0
 40
0.0
 40
1.0
 40
1.0
 40
1.0
 40
2.0
 40
2.0
 40
2.0
 40
3.0
 40
3.0
 40
3.0
 40
4.0
 40
4.0
 40
4.0
 40
4.0
 10
81.823593190284
 20
-138.3536588543006
 30
0.0
 10
81.823593190284
 20
-138.2985196876475
 30
0.0
 10
81.77882775733318
 20
-138.253752187659
 30
0.0
 10
81.72301624840549
 20
-138.253752187659
 30
0.0
 10
81.66787708314554
 20
-138.253752187659
 30
0.0
 10
81.62310958428766
 20
-138.2985196876475
 30
0.0
 10
81.62310958428766
 20
-138.3536588543006
 30
0.0
 10
81.62310958428766
 20
-138.4087627431755
 30
0.0
 10
81.66787708314554
 20
-138.4535655209422
 30
0.0
 10
81.72301624840549
 20
-138.4535655209422
 30
0.0
 10
81.77882775733318
 20
-138.4535655209422
 30
0.0
 10
81.823593190284
 20
-138.4087627431755
 30
0.0
 10
81.823593190284
 20
-138.3536588543006
 30
0.0
  0
SPLINE
  5
59
330
1F
100
AcDbEntity
  8
_U+30EC_U+30A4_U+30E4_U+30FC 1
 62
   179
420
  2234388
370
     9
100
AcDbSpline
210
0.0
220
0.0
230
1.0
 70
    11
 71
     3
 72
    17
 73
    13
 74
     0
 42
0.0000000001
 43
0.0000000001
 12
1.0
 22
0.0
 32
0.0
 13
1.0
 23
0.0
 33
0.0
 40
0.0
 40
0.0
 40
0.0
 40
0.0
 40
1.0
 40
1.0
 40
1.0
 40
2.0
 40
2.0
 40
2.0
 40
3.0
 40
3.0
 40
3.0
 40
4.0
 40
4.0
 40
4.0
 40
4.0
 10
99.82369078661881
 20
-131.7466602448409
 30
0.0
 10
99.82369078661881
 20
-131.6915210781884
 30
0.0
 10
99.77892328776093
 20
-131.6467535781992
 30
0.0
 10
99.72378412250097
 20
-131.6467535781992
 30
0.0
 10
99.6686802350179
 20
-131.6467535781992
 30
0.0
 10
99.62387745838315
 20
-131.6915210781884
 30
0.0
 10
99.62387745838315
 20
-131.7466602448409
 30
0.0
 10
99.62387745838315
 20
-131.8024696892719
 30
0.0
 10
99.6686802350179
 20
-131.8465669114831
 30
0.0
 10
99.72378412250097
 20
-131.8465669114831
 30
0.0
 10
99.77892328776093
 20
-131.8465669114831
 30
0.0
 10
99.82369078661881
 20
-131.8024696892719
 30
0.0
 10
99.82369078661881
 20
-131.7466602448409
 30
0.0
  0
SPLINE
  5
5A
330
1F
100
AcDbEntity
  8
_U+30EC_U+30A4_U+30E4_U+30FC 1
 62
   179
420
  2234388
370
     9
100
AcDbSpline
210
0.0
220
0.0
230
1.0
 70
    11
 71
     3
 72
    17
 73
    13
 74
     0
 42
0.0000000001
 43
0.0000000001
 12
1.0
 22
0.0
 32
0.0
 13
1.0
 23
0.0
 33
0.0
 40
0.0
 40
0.0
 40
0.0
 40
0.0
 40
1.0
 40
1.0
 40
1.0
 40
2.0
 40
2.0
 40
2.0
 40
3.0
 40
3.0
 40
3.0
 40
4.0
 40
4.0
 40
4.0
 40
4.0
 10
92.82327457632542
 20
-131.7466602448409
 30
0.0
 10
92.82327457632542
 20
-131.6915210781884
 30
0.0
 10
92.77847179969065
 20
-131.6467535781992
 30
0.0
 10
92.72336791220758
 20
-131.6467535781992
 30
0.0
 10
92.66822874694763
 20
-131.6467535781992
 30
0.0
 10
92.62346124808975
 20
-131.6915210781884
 30
0.0
 10
92.62346124808975
 20
-131.7466602448409
 30
0.0
 10
92.62346124808975
 20
-131.8024696892719
 30
0.0
 10
92.66822874694763
 20
-131.8465669114831
 30
0.0
 10
92.72336791220758
 20
-131.8465669114831
 30
0.0
 10
92.77847179969065
 20
-131.8465669114831
 30
0.0
 10
92.82327457632542
 20
-131.8024696892719
 30
0.0
 10
92.82327457632542
 20
-131.7466602448409
 30
0.0
  0
POLYLINE
  5
5B
330
1F
100
AcDbEntity
  8
_U+30EC_U+30A4_U+30E4_U+30FC 1
 62
   179
420
  2234388
370
     9
100
AcDb2dPolyline
 66
     1
 10
0.0
 20
0.0
 30
0.0
  0
VERTEX
  5
5C
330
5B
100
AcDbEntity
  8
_U+30EC_U+30A4_U+30E4_U+30FC 1
 62
   179
420
  2234388
370
     9
100
AcDbVertex
100
AcDb2dVertex
 10
81.72301624840549
 20
-119.7468535811745
 30
0.0
  0
VERTEX
  5
5D
330
5B
100
AcDbEntity
  8
_U+30EC_U+30A4_U+30E4_U+30FC 1
 62
   179
420
  2234388
370
     9
100
AcDbVertex
100
AcDb2dVertex
 10
89.72320465541479
 20
-119.7468535811745
 30
0.0
  0
SEQEND
  5
5E
330
5B
100
AcDbEntity
  8
_U+30EC_U+30A4_U+30E4_U+30FC 1
 62
   179
420
  2234388
370
     9
  0
POLYLINE
  5
5F
330
1F
100
AcDbEntity
  8
_U+30EC_U+30A4_U+30E4_U+30FC 1
 62
   179
420
  2234388
370
     9
100
AcDb2dPolyline
 66
     1
 10
0.0
 20
0.0
 30
0.0
  0
VERTEX
  5
60
330
5F
100
AcDbEntity
  8
_U+30EC_U+30A4_U+30E4_U+30FC 1
 62
   179
420
  2234388
370
     9
100
AcDbVertex
100
AcDb2dVertex
 10
81.72301624840549
 20
-121.2068949696982
 30
0.0
  0
VERTEX
  5
61
330
5F
100
AcDbEntity
  8
_U+30EC_U+30A4_U+30E4_U+30FC 1
 62
   179
420
  2234388
370
     9
100
AcDbVertex
100
AcDb2dVertex
 10
81.72301624840549
 20
-118.7471166369798
 30
0.0
  0
SEQEND
  5
62
330
5F
100
AcDbEntity
  8
_U+30EC_U+30A4_U+30E4_U+30FC 1
 62
   179
420
  2234388
370
     9
  0
POLYLINE
  5
63
330
1F
100
AcDbEntity
  8
_U+30EC_U+30A4_U+30E4_U+30FC 1
 62
   179
420
  2234388
370
     9
100
AcDb2dPolyline
 66
     1
 10
0.0
 20
0.0
 30
0.0
  0
VERTEX
  5
64
330
63
100
AcDbEntity
  8
_U+30EC_U+30A4_U+30E4_U+30FC 1
 62
   179
420
  2234388
370
     9
100
AcDbVertex
100
AcDb2dVertex
 10
89.72320465541479
 20
-121.2068949696982
 30
0.0
  0
VERTEX
  5
65
330
63
100
AcDbEntity
  8
_U+30EC_U+30A4_U+30E4_U+30FC 1
 62
   179
420
  2234388
370
     9
100
AcDbVertex
100
AcDb2dVertex
 10
89.72320465541479
 20
-118.7471166369798
 30
0.0
  0
SEQEND
  5
66
330
63
100
AcDbEntity
  8
_U+30EC_U+30A4_U+30E4_U+30FC 1
 62
   179
420
  2234388
370
     9
  0
INSERT
  5
68
330
1F
100
AcDbEntity
  8
_U+30EC_U+30A4_U+30E4_U+30FC 1
100
AcDbBlockReference
  2
block 2
 10
0.0
 20
0.0
 30
0.0
  0
POLYLINE
  5
6F
330
1F
100
AcDbEntity
  8
_U+30EC_U+30A4_U+30E4_U+30FC 1
 62
   179
420
  2234388
370
     9
100
AcDb2dPolyline
 66
     1
 10
0.0
 20
0.0
 30
0.0
  0
VERTEX
  5
70
330
6F
100
AcDbEntity
  8
_U+30EC_U+30A4_U+30E4_U+30FC 1
 62
   179
420
  2234388
370
     9
100
AcDbVertex
100
AcDb2dVertex
 10
81.72301624840549
 20
-138.3536588543006
 30
0.0
  0
VERTEX
  5
71
330
6F
100
AcDbEntity
  8
_U+30EC_U+30A4_U+30E4_U+30FC 1
 62
   179
420
  2234388
370
     9
100
AcDbVertex
100
AcDb2dVertex
 10
99.72378412250097
 20
-138.3536588543006
 30
0.0
  0
SEQEND
  5
72
330
6F
100
AcDbEntity
  8
_U+30EC_U+30A4_U+30E4_U+30FC 1
 62
   179
420
  2234388
370
     9
  0
POLYLINE
  5
73
330
1F
100
AcDbEntity
  8
_U+30EC_U+30A4_U+30E4_U+30FC 1
 62
   179
420
  2234388
370
     9
100
AcDb2dPolyline
 66
     1
 10
0.0
 20
0.0
 30
0.0
  0
VERTEX
  5
74
330
73
100
AcDbEntity
  8
_U+30EC_U+30A4_U+30E4_U+30FC 1
 62
   179
420
  2234388
370
     9
100
AcDbVertex
100
AcDb2dVertex
 10
81.72301624840549
 20
-136.8936174657769
 30
0.0
  0
VERTEX
  5
75
330
73
100
AcDbEntity
  8
_U+30EC_U+30A4_U+30E4_U+30FC 1
 62
   179
420
  2234388
370
     9
100
AcDbVertex
100
AcDb2dVertex
 10
81.72301624840549
 20
-139.3541013540505
 30
0.0
  0
SEQEND
  5
76
330
73
100
AcDbEntity
  8
_U+30EC_U+30A4_U+30E4_U+30FC 1
 62
   179
420
  2234388
370
     9
  0
POLYLINE
  5
77
330
1F
100
AcDbEntity
  8
_U+30EC_U+30A4_U+30E4_U+30FC 1
 62
   179
420
  2234388
370
     9
100
AcDb2dPolyline
 66
     1
 10
0.0
 20
0.0
 30
0.0
  0
VERTEX
  5
78
330
77
100
AcDbEntity
  8
_U+30EC_U+30A4_U+30E4_U+30FC 1
 62
   179
420
  2234388
370
     9
100
AcDbVertex
100
AcDb2dVertex
 10
99.72378412250097
 20
-136.8936174657769
 30
0.0
  0
VERTEX
  5
79
330
77
100
AcDbEntity
  8
_U+30EC_U+30A4_U+30E4_U+30FC 1
 62
   179
420
  2234388
370
     9
100
AcDbVertex
100
AcDb2dVertex
 10
99.72378412250097
 20
-139.3541013540505
 30
0.0
  0
SEQEND
  5
7A
330
77
100
AcDbEntity
  8
_U+30EC_U+30A4_U+30E4_U+30FC 1
 62
   179
420
  2234388
370
     9
  0
INSERT
  5
7C
330
1F
100
AcDbEntity
  8
_U+30EC_U+30A4_U+30E4_U+30FC 1
100
AcDbBlockReference
  2
block 3
 10
0.0
 20
0.0
 30
0.0
  0
POLYLINE
  5
85
330
1F
100
AcDbEntity
  8
_U+30EC_U+30A4_U+30E4_U+30FC 1
 62
   179
420
  2234388
370
     9
100
AcDb2dPolyline
 66
     1
 10
0.0
 20
0.0
 30
0.0
  0
VERTEX
  5
86
330
85
100
AcDbEntity
  8
_U+30EC_U+30A4_U+30E4_U+30FC 1
 62
   179
420
  2234388
370
     9
100
AcDbVertex
100
AcDb2dVertex
 10
103.7235431871253
 20
-134.3538996886337
 30
0.0
  0
VERTEX
  5
87
330
85
100
AcDbEntity
  8
_U+30EC_U+30A4_U+30E4_U+30FC 1
 62
   179
420
  2234388
370
     9
100
AcDbVertex
100
AcDb2dVertex
 10
103.7235431871253
 20
-139.6118055206526
 30
0.0
  0
SEQEND
  5
88
330
85
100
AcDbEntity
  8
_U+30EC_U+30A4_U+30E4_U+30FC 1
 62
   179
420
  2234388
370
     9
  0
POLYLINE
  5
89
330
1F
100
AcDbEntity
  8
_U+30EC_U+30A4_U+30E4_U+30FC 1
 62
   179
420
  2234388
370
     9
100
AcDb2dPolyline
 66
     1
 10
0.0
 20
0.0
 30
0.0
  0
VERTEX
  5
8A
330
89
100
AcDbEntity
  8
_U+30EC_U+30A4_U+30E4_U+30FC 1
 62
   179
420
  2234388
370
     9
100
AcDbVertex
100
AcDb2dVertex
 10
103.7235431871253
 20
-134.3538996886337
 30
0.0
  0
VERTEX
  5
8B
330
89
100
AcDbEntity
  8
_U+30EC_U+30A4_U+30E4_U+30FC 1
 62
   179
420
  2234388
370
     9
100
AcDbVertex
100
AcDb2dVertex
 10
103.7235431871253
 20
-133.6538474665867
 30
0.0
  0
SEQEND
  5
8C
330
89
100
AcDbEntity
  8
_U+30EC_U+30A4_U+30E4_U+30FC 1
 62
   179
420
  2234388
370
     9
  0
POLYLINE
  5
8D
330
1F
100
AcDbEntity
  8
_U+30EC_U+30A4_U+30E4_U+30FC 1
 62
   179
420
  2234388
370
     9
100
AcDb2dPolyline
 66
     1
 10
0.0
 20
0.0
 30
0.0
  0
VERTEX
  5
8E
330
8D
100
AcDbEntity
  8
_U+30EC_U+30A4_U+30E4_U+30FC 1
 62
   179
420
  2234388
370
     9
100
AcDbVertex
100
AcDb2dVertex
 10
102.263537113262
 20
-134.3538996886337
 30
0.0
  0
VERTEX
  5
8F
330
8D
100
AcDbEntity
  8
_U+30EC_U+30A4_U+30E4_U+30FC 1
 62
   179
420
  2234388
370
     9
100
AcDbVertex
100
AcDb2dVertex
 10
104.7240209393787
 20
-134.3538996886337
 30
0.0
  0
SEQEND
  5
90
330
8D
100
AcDbEntity
  8
_U+30EC_U+30A4_U+30E4_U+30FC 1
 62
   179
420
  2234388
370
     9
  0
POLYLINE
  5
91
330
1F
100
AcDbEntity
  8
_U+30EC_U+30A4_U+30E4_U+30FC 1
 62
   179
420
  2234388
370
     9
100
AcDb2dPolyline
 66
     1
 10
0.0
 20
0.0
 30
0.0
  0
VERTEX
  5
92
330
91
100
AcDbEntity
  8
_U+30EC_U+30A4_U+30E4_U+30FC 1
 62
   179
420
  2234388
370
     9
100
AcDbVertex
100
AcDb2dVertex
 10
102.0085846197664
 20
-133.6538474665867
 30
0.0
  0
VERTEX
  5
93
330
91
100
AcDbEntity
  8
_U+30EC_U+30A4_U+30E4_U+30FC 1
 62
   179
420
  2234388
370
     9
100
AcDbVertex
100
AcDb2dVertex
 10
104.7240209393787
 20
-133.6538474665867
 30
0.0
  0
SEQEND
  5
94
330
91
100
AcDbEntity
  8
_U+30EC_U+30A4_U+30E4_U+30FC 1
 62
   179
420
  2234388
370
     9
  0
INSERT
  5
96
330
1F
100
AcDbEntity
  8
_U+30EC_U+30A4_U+30E4_U+30FC 1
100
AcDbBlockReference
  2
block 4
 10
0.0
 20
0.0
 30
0.0
  0
POLYLINE
  5
A6
330
1F
100
AcDbEntity
  8
_U+30EC_U+30A4_U+30E4_U+30FC 1
 62
   179
420
  2234388
370
     9
100
AcDb2dPolyline
 66
     1
 10
0.0
 20
0.0
 30
0.0
  0
VERTEX
  5
A7
330
A6
100
AcDbEntity
  8
_U+30EC_U+30A4_U+30E4_U+30FC 1
 62
   179
420
  2234388
370
     9
100
AcDbVertex
100
AcDb2dVertex
 10
81.72301624840549
 20
-131.7466602448409
 30
0.0
  0
VERTEX
  5
A8
330
A6
100
AcDbEntity
  8
_U+30EC_U+30A4_U+30E4_U+30FC 1
 62
   179
420
  2234388
370
     9
100
AcDbVertex
100
AcDb2dVertex
 10
77.95270384459417
 20
-131.7466602448409
 30
0.0
  0
SEQEND
  5
A9
330
A6
100
AcDbEntity
  8
_U+30EC_U+30A4_U+30E4_U+30FC 1
 62
   179
420
  2234388
370
     9
  0
POLYLINE
  5
AA
330
1F
100
AcDbEntity
  8
_U+30EC_U+30A4_U+30E4_U+30FC 1
 62
   179
420
  2234388
370
     9
100
AcDb2dPolyline
 66
     1
 10
0.0
 20
0.0
 30
0.0
  0
VERTEX
  5
AB
330
AA
100
AcDbEntity
  8
_U+30EC_U+30A4_U+30E4_U+30FC 1
 62
   179
420
  2234388
370
     9
100
AcDbVertex
100
AcDb2dVertex
 10
81.72301624840549
 20
-131.7466602448409
 30
0.0
  0
VERTEX
  5
AC
330
AA
100
AcDbEntity
  8
_U+30EC_U+30A4_U+30E4_U+30FC 1
 62
   179
420
  2234388
370
     9
100
AcDbVertex
100
AcDb2dVertex
 10
83.72323091959798
 20
-131.7466602448409
 30
0.0
  0
SEQEND
  5
AD
330
AA
100
AcDbEntity
  8
_U+30EC_U+30A4_U+30E4_U+30FC 1
 62
   179
420
  2234388
370
     9
  0
INSERT
  5
AF
330
1F
100
AcDbEntity
  8
_U+30EC_U+30A4_U+30E4_U+30FC 1
100
AcDbBlockReference
  2
block 5
 10
0.0
 20
0.0
 30
0.0
  0
POLYLINE
  5
B4
330
1F
100
AcDbEntity
  8
_U+30EC_U+30A4_U+30E4_U+30FC 1
 62
   179
420
  2234388
370
     9
100
AcDb2dPolyline
 66
     1
 10
0.0
 20
0.0
 30
0.0
  0
VERTEX
  5
B5
330
B4
100
AcDbEntity
  8
_U+30EC_U+30A4_U+30E4_U+30FC 1
 62
   179
420
  2234388
370
     9
100
AcDbVertex
100
AcDb2dVertex
 10
92.72336791220758
 20
-131.7466602448409
 30
0.0
  0
VERTEX
  5
B6
330
B4
100
AcDbEntity
  8
_U+30EC_U+30A4_U+30E4_U+30FC 1
 62
   179
420
  2234388
370
     9
100
AcDbVertex
100
AcDb2dVertex
 10
99.72378412250097
 20
-131.7466602448409
 30
0.0
  0
SEQEND
  5
B7
330
B4
100
AcDbEntity
  8
_U+30EC_U+30A4_U+30E4_U+30FC 1
 62
   179
420
  2234388
370
     9
  0
POLYLINE
  5
B8
330
1F
100
AcDbEntity
  8
_U+30EC_U+30A4_U+30E4_U+30FC 1
 62
   179
420
  2234388
370
     9
100
AcDb2dPolyline
 66
     1
 10
0.0
 20
0.0
 30
0.0
  0
VERTEX
  5
B9
330
B8
100
AcDbEntity
  8
_U+30EC_U+30A4_U+30E4_U+30FC 1
 62
   179
420
  2234388
370
     9
100
AcDbVertex
100
AcDb2dVertex
 10
92.72336791220758
 20
-132.2069294113927
 30
0.0
  0
VERTEX
  5
BA
330
B8
100
AcDbEntity
  8
_U+30EC_U+30A4_U+30E4_U+30FC 1
 62
   179
420
  2234388
370
     9
100
AcDbVertex
100
AcDb2dVertex
 10
92.72336791220758
 20
-130.7468880228689
 30
0.0
  0
SEQEND
  5
BB
330
B8
100
AcDbEntity
  8
_U+30EC_U+30A4_U+30E4_U+30FC 1
 62
   179
420
  2234388
370
     9
  0
POLYLINE
  5
BC
330
1F
100
AcDbEntity
  8
_U+30EC_U+30A4_U+30E4_U+30FC 1
 62
   179
420
  2234388
370
     9
100
AcDb2dPolyline
 66
     1
 10
0.0
 20
0.0
 30
0.0
  0
VERTEX
  5
BD
330
BC
100
AcDbEntity
  8
_U+30EC_U+30A4_U+30E4_U+30FC 1
 62
   179
420
  2234388
370
     9
100
AcDbVertex
100
AcDb2dVertex
 10
99.72378412250097
 20
-133.2067016333652
 30
0.0
  0
VERTEX
  5
BE
330
BC
100
AcDbEntity
  8
_U+30EC_U+30A4_U+30E4_U+30FC 1
 62
   179
420
  2234388
370
     9
100
AcDbVertex
100
AcDb2dVertex
 10
99.72378412250097
 20
-130.7468880228689
 30
0.0
  0
SEQEND
  5
BF
330
BC
100
AcDbEntity
  8
_U+30EC_U+30A4_U+30E4_U+30FC 1
 62
   179
420
  2234388
370
     9
  0
INSERT
  5
C1
330
1F
100
AcDbEntity
  8
_U+30EC_U+30A4_U+30E4_U+30FC 1
100
AcDbBlockReference
  2
block 6
 10
0.0
 20
0.0
 30
0.0
  0
POLYLINE
  5
C6
330
1F
100
AcDbEntity
  8
_U+30EC_U+30A4_U+30E4_U+30FC 1
 62
   179
420
  2234388
370
     9
100
AcDb2dPolyline
 66
     1
 10
0.0
 20
0.0
 30
0.0
  0
VERTEX
  5
C7
330
C6
100
AcDbEntity
  8
_U+30EC_U+30A4_U+30E4_U+30FC 1
 62
   179
420
  2234388
370
     9
100
AcDbVertex
100
AcDb2dVertex
 10
103.7235431871253
 20
-124.7470905243688
 30
0.0
  0
VERTEX
  5
C8
330
C6
100
AcDbEntity
  8
_U+30EC_U+30A4_U+30E4_U+30FC 1
 62
   179
420
  2234388
370
     9
100
AcDbVertex
100
AcDb2dVertex
 10
103.7235431871253
 20
-133.2469888555773
 30
0.0
  0
SEQEND
  5
C9
330
C6
100
AcDbEntity
  8
_U+30EC_U+30A4_U+30E4_U+30FC 1
 62
   179
420
  2234388
370
     9
  0
POLYLINE
  5
CA
330
1F
100
AcDbEntity
  8
_U+30EC_U+30A4_U+30E4_U+30FC 1
 62
   179
420
  2234388
370
     9
100
AcDb2dPolyline
 66
     1
 10
0.0
 20
0.0
 30
0.0
  0
VERTEX
  5
CB
330
CA
100
AcDbEntity
  8
_U+30EC_U+30A4_U+30E4_U+30FC 1
 62
   179
420
  2234388
370
     9
100
AcDbVertex
100
AcDb2dVertex
 10
92.62758874798445
 20
-124.7470905243688
 30
0.0
  0
VERTEX
  5
CC
330
CA
100
AcDbEntity
  8
_U+30EC_U+30A4_U+30E4_U+30FC 1
 62
   179
420
  2234388
370
     9
100
AcDbVertex
100
AcDb2dVertex
 10
104.7240209393787
 20
-124.7470905243688
 30
0.0
  0
SEQEND
  5
CD
330
CA
100
AcDbEntity
  8
_U+30EC_U+30A4_U+30E4_U+30FC 1
 62
   179
420
  2234388
370
     9
  0
POLYLINE
  5
CE
330
1F
100
AcDbEntity
  8
_U+30EC_U+30A4_U+30E4_U+30FC 1
 62
   179
420
  2234388
370
     9
100
AcDb2dPolyline
 66
     1
 10
0.0
 20
0.0
 30
0.0
  0
VERTEX
  5
CF
330
CE
100
AcDbEntity
  8
_U+30EC_U+30A4_U+30E4_U+30FC 1
 62
   179
420
  2234388
370
     9
100
AcDbVertex
100
AcDb2dVertex
 10
95.26308562519176
 20
-133.3534571888838
 30
0.0
  0
VERTEX
  5
D0
330
CE
100
AcDbEntity
  8
_U+30EC_U+30A4_U+30E4_U+30FC 1
 62
   179
420
  2234388
370
     9
100
AcDbVertex
100
AcDb2dVertex
 10
104.7240209393787
 20
-133.3534571888838
 30
0.0
  0
SEQEND
  5
D1
330
CE
100
AcDbEntity
  8
_U+30EC_U+30A4_U+30E4_U+30FC 1
 62
   179
420
  2234388
370
     9
  0
INSERT
  5
D3
330
1F
100
AcDbEntity
  8
_U+30EC_U+30A4_U+30E4_U+30FC 1
100
AcDbBlockReference
  2
block 7
 10
0.0
 20
0.0
 30
0.0
  0
ENDSEC
  0
SECTION
  2
OBJECTS
  0
DICTIONARY
  5
C
330
0
100
AcDbDictionary
281
     1
  3
ACAD_GROUP
350
D
  3
ACAD_LAYOUT
350
1A
  3
ACAD_MATERIAL
350
3B
  3
ACAD_MLEADERSTYLE
350
E5
  3
ACAD_MLINESTYLE
350
17
  3
ACAD_PLOTSETTINGS
350
19
  3
ACAD_PLOTSTYLENAME
350
E
  3
ACAD_TABLESTYLE
350
E4
  3
ACAD_VISUALSTYLE
350
2A
  0
SUN
  5
3F
330
29
100
AcDbSun
 90
        1
290
     0
 63
     7
421
 16777215
 40
1.0
291
     1
 91
  2455826
 92
 54000000
292
     0
 70
     2
 71
   256
280
     1
  0
DICTIONARY
  5
D
102
{ACAD_REACTORS
330
C
102
}
330
C
100
AcDbDictionary
281
     1
  0
DICTIONARY
  5
1A
102
{ACAD_REACTORS
330
C
102
}
330
C
100
AcDbDictionary
281
     1
  3
Layout1
350
1E
  3
Layout2
350
26
  3
Model
350
22
  0
DICTIONARY
  5
3B
102
{ACAD_REACTORS
330
C
102
}
330
C
100
AcDbDictionary
281
     1
  3
ByBlock
350
3D
  3
ByLayer
350
3C
  3
Global
350
3E
  0
DICTIONARY
  5
E5
102
{ACAD_REACTORS
330
C
102
}
330
C
100
AcDbDictionary
281
     1
  0
DICTIONARY
  5
17
102
{ACAD_REACTORS
330
C
102
}
330
C
100
AcDbDictionary
281
     1
  3
Standard
350
18
  0
DICTIONARY
  5
19
102
{ACAD_REACTORS
330
C
102
}
330
C
100
AcDbDictionary
281
     1
  0
ACDBDICTIONARYWDFLT
  5
E
102
{ACAD_REACTORS
330
C
102
}
330
C
100
AcDbDictionary
281
     1
  3
Normal
350
F
100
AcDbDictionaryWithDefault
340
F
  0
DICTIONARY
  5
E4
102
{ACAD_REACTORS
330
C
102
}
330
C
100
AcDbDictionary
281
     1
  0
DICTIONARY
  5
2A
102
{ACAD_REACTORS
330
C
102
}
330
C
100
AcDbDictionary
281
     1
  3
2dWireframe
350
2F
  3
3D Hidden
350
31
  3
3dWireframe
350
30
  3
Basic
350
32
  3
Brighten
350
36
  3
ColorChange
350
3A
  3
Conceptual
350
34
  3
Dim
350
35
  3
Facepattern
350
39
  3
Flat
350
2B
  3
FlatWithEdges
350
2C
  3
Gouraud
350
2D
  3
GouraudWithEdges
350
2E
  3
Linepattern
350
38
  3
Realistic
350
33
  3
Thicken
350
37
  0
LAYOUT
  5
1E
102
{ACAD_REACTORS
330
1A
102
}
330
1A
100
AcDbPlotSettings
  1

  2
none_device
  4

  6

 40
0.0
 41
0.0
 42
0.0
 43
0.0
 44
0.0
 45
0.0
 46
0.0
 47
0.0
 48
0.0
 49
0.0
140
0.0
141
0.0
142
1.0
143
1.0
 70
   688
 72
     0
 73
     0
 74
     5
  7

 75
    16
 76
     0
 77
     2
 78
   300
147
1.0
148
0.0
149
0.0
100
AcDbLayout
  1
Layout1
 70
     1
 71
     1
 10
0.0
 20
0.0
 11
12.0
 21
9.0
 12
0.0
 22
0.0
 32
0.0
 14
1.000000000000000E+20
 24
1.000000000000000E+20
 34
1.000000000000000E+20
 15
-1.000000000000000E+20
 25
-1.000000000000000E+20
 35
-1.000000000000000E+20
146
0.0
 13
0.0
 23
0.0
 33
0.0
 16
1.0
 26
0.0
 36
0.0
 17
0.0
 27
1.0
 37
0.0
 76
     0
330
1B
  0
LAYOUT
  5
26
102
{ACAD_REACTORS
330
1A
102
}
330
1A
100
AcDbPlotSettings
  1

  2
none_device
  4

  6

 40
0.0
 41
0.0
 42
0.0
 43
0.0
 44
0.0
 45
0.0
 46
0.0
 47
0.0
 48
0.0
 49
0.0
140
0.0
141
0.0
142
1.0
143
1.0
 70
   688
 72
     0
 73
     0
 74
     5
  7

 75
    16
 76
     0
 77
     2
 78
   300
147
1.0
148
0.0
149
0.0
100
AcDbLayout
  1
Layout2
 70
     1
 71
     2
 10
0.0
 20
0.0
 11
0.0
 21
0.0
 12
0.0
 22
0.0
 32
0.0
 14
0.0
 24
0.0
 34
0.0
 15
0.0
 25
0.0
 35
0.0
146
0.0
 13
0.0
 23
0.0
 33
0.0
 16
1.0
 26
0.0
 36
0.0
 17
0.0
 27
1.0
 37
0.0
 76
     0
330
23
  0
LAYOUT
  5
22
102
{ACAD_REACTORS
330
1A
102
}
330
1A
100
AcDbPlotSettings
  1

  2
none_device
  4

  6

 40
0.0
 41
0.0
 42
0.0
 43
0.0
 44
0.0
 45
0.0
 46
0.0
 47
0.0
 48
0.0
 49
0.0
140
0.0
141
0.0
142
1.0
143
1.0
 70
  1712
 72
     0
 73
     0
 74
     0
  7

 75
     0
 76
     0
 77
     2
 78
   300
147
1.0
148
0.0
149
0.0
100
AcDbLayout
  1
Model
 70
     1
 71
     0
 10
0.0
 20
0.0
 11
12.0
 21
9.0
 12
0.0
 22
0.0
 32
0.0
 14
1.000000000000000E+20
 24
1.000000000000000E+20
 34
1.000000000000000E+20
 15
-1.000000000000000E+20
 25
-1.000000000000000E+20
 35
-1.000000000000000E+20
146
0.0
 13
0.0
 23
0.0
 33
0.0
 16
1.0
 26
0.0
 36
0.0
 17
0.0
 27
1.0
 37
0.0
 76
     0
330
1F
331
29
  0
MATERIAL
  5
3D
102
{ACAD_REACTORS
330
3B
102
}
330
3B
100
AcDbMaterial
  1
ByBlock
 72
     1
 94
      127
  0
MATERIAL
  5
3C
102
{ACAD_REACTORS
330
3B
102
}
330
3B
100
AcDbMaterial
  1
ByLayer
 72
     1
 94
      127
  0
MATERIAL
  5
3E
102
{ACAD_REACTORS
330
3B
102
}
330
3B
100
AcDbMaterial
  1
Global
 72
     1
 94
      127
  0
MLINESTYLE
  5
18
102
{ACAD_REACTORS
330
17
102
}
330
17
100
AcDbMlineStyle
  2
Standard
 70
     0
  3

 62
   256
 51
90.0
 52
90.0
 71
     2
 49
0.5
 62
   256
  6
BYLAYER
 49
-0.5
 62
   256
  6
BYLAYER
  0
ACDBPLACEHOLDER
  5
F
102
{ACAD_REACTORS
330
E
102
}
330
E
  0
VISUALSTYLE
  5
2F
102
{ACAD_REACTORS
330
2A
102
}
330
2A
100
AcDbVisualStyle
  2
2dWireframe
 70
     4
177
     2
291
     0
 71
     0
176
     1
 72
     2
176
     1
 73
     0
176
     1
 90
        0
176
     1
 40
-0.6
176
     1
 41
-30.0
176
     1
 62
     5
 63
     7
421
 16777215
176
     1
 74
     1
176
     1
 91
        4
176
     1
 64
     7
176
     1
 65
   257
176
     1
 75
     1
176
     1
175
     1
176
     1
 42
1.0
176
     1
 92
        0
176
     1
 66
   257
176
     1
 43
1.0
176
     1
 76
     1
176
     1
 77
     6
176
     1
 78
     2
176
     1
 67
     7
176
     1
 79
     5
176
     1
170
     0
176
     1
171
     0
176
     1
290
     0
176
     1
 93
        1
176
     1
 44
0.0
176
     1
173
     0
176
     1
  0
VISUALSTYLE
  5
31
102
{ACAD_REACTORS
330
2A
102
}
330
2A
100
AcDbVisualStyle
  2
3D Hidden
 70
     6
177
     2
291
     0
 71
     1
176
     1
 72
     2
176
     1
 73
     2
176
     1
 90
        0
176
     1
 40
-0.6
176
     1
 41
-30.0
176
     1
 62
     5
 63
     7
421
 16777215
176
     1
 74
     2
176
     1
 91
        2
176
     1
 64
     7
176
     1
 65
   257
176
     1
 75
     2
176
     1
175
     1
176
     1
 42
40.0
176
     1
 92
        0
176
     1
 66
   257
176
     1
 43
1.0
176
     1
 76
     1
176
     1
 77
     6
176
     1
 78
     2
176
     1
 67
     7
176
     1
 79
     3
176
     1
170
     0
176
     1
171
     0
176
     1
290
     0
176
     1
 93
        1
176
     1
 44
0.0
176
     1
173
     0
176
     1
  0
VISUALSTYLE
  5
30
102
{ACAD_REACTORS
330
2A
102
}
330
2A
100
AcDbVisualStyle
  2
3dWireframe
 70
     5
177
     2
291
     0
 71
     0
176
     1
 72
     2
176
     1
 73
     0
176
     1
 90
        0
176
     1
 40
-0.6
176
     1
 41
-30.0
176
     1
 62
     5
 63
     7
421
 16777215
176
     1
 74
     1
176
     1
 91
        4
176
     1
 64
     7
176
     1
 65
   257
176
     1
 75
     1
176
     1
175
     1
176
     1
 42
1.0
176
     1
 92
        0
176
     1
 66
   257
176
     1
 43
1.0
176
     1
 76
     1
176
     1
 77
     6
176
     1
 78
     2
176
     1
 67
     7
176
     1
 79
     5
176
     1
170
     0
176
     1
171
     0
176
     1
290
     0
176
     1
 93
        1
176
     1
 44
0.0
176
     1
173
     0
176
     1
  0
VISUALSTYLE
  5
32
102
{ACAD_REACTORS
330
2A
102
}
330
2A
100
AcDbVisualStyle
  2
Basic
 70
     7
177
     2
291
     1
 71
     1
176
     1
 72
     0
176
     1
 73
     1
176
     1
 90
        0
176
     1
 40
-0.6
176
     1
 41
-30.0
176
     1
 62
     5
 63
     7
421
 16777215
176
     1
 74
     0
176
     1
 91
        4
176
     1
 64
     7
176
     1
 65
   257
176
     1
 75
     1
176
     1
175
     1
176
     1
 42
1.0
176
     1
 92
        8
176
     1
 66
     7
176
     1
 43
1.0
176
     1
 76
     1
176
     1
 77
     6
176
     1
 78
     2
176
     1
 67
     7
176
     1
 79
     5
176
     1
170
     0
176
     1
171
     0
176
     1
290
     0
176
     1
 93
        1
176
     1
 44
0.0
176
     1
173
     0
176
     1
  0
VISUALSTYLE
  5
36
102
{ACAD_REACTORS
330
2A
102
}
330
2A
100
AcDbVisualStyle
  2
Brighten
 70
    12
177
     2
291
     1
 71
     2
176
     1
 72
     2
176
     1
 73
     0
176
     1
 90
        0
176
     1
 40
-0.6
176
     1
 41
-30.0
176
     1
 62
     5
 63
     7
421
 16777215
176
     1
 74
     1
176
     1
 91
        4
176
     1
 64
     7
176
     1
 65
   257
176
     1
 75
     1
176
     1
175
     1
176
     1
 42
1.0
176
     1
 92
        8
176
     1
 66
     7
176
     1
 43
1.0
176
     1
 76
     1
176
     1
 77
     6
176
     1
 78
     2
176
     1
 67
     7
176
     1
 79
     5
176
     1
170
     0
176
     1
171
     0
176
     1
290
     0
176
     1
 93
        1
176
     1
 44
50.0
176
     1
173
     0
176
     1
  0
VISUALSTYLE
  5
3A
102
{ACAD_REACTORS
330
2A
102
}
330
2A
100
AcDbVisualStyle
  2
ColorChange
 70
    16
177
     2
291
     1
 71
     2
176
     1
 72
     2
176
     1
 73
     3
176
     1
 90
        0
176
     1
 40
-0.6
176
     1
 41
-30.0
176
     1
 62
     5
 63
     8
421
  8421504
176
     1
 74
     1
176
     1
 91
        4
176
     1
 64
     7
176
     1
 65
   257
176
     1
 75
     1
176
     1
175
     1
176
     1
 42
1.0
176
     1
 92
        8
176
     1
 66
     8
424
  8421504
176
     1
 43
1.0
176
     1
 76
     1
176
     1
 77
     6
176
     1
 78
     2
176
     1
 67
     7
176
     1
 79
     5
176
     1
170
     0
176
     1
171
     0
176
     1
290
     0
176
     1
 93
        1
176
     1
 44
0.0
176
     1
173
     0
176
     1
  0
VISUALSTYLE
  5
34
102
{ACAD_REACTORS
330
2A
102
}
330
2A
100
AcDbVisualStyle
  2
Conceptual
 70
     9
177
     2
291
     0
 71
     3
176
     1
 72
     2
176
     1
 73
     0
176
     1
 90
        0
176
     1
 40
-0.6
176
     1
 41
-30.0
176
     1
 62
     5
 63
     7
421
 16777215
176
     1
 74
     2
176
     1
 91
        2
176
     1
 64
     7
176
     1
 65
   257
176
     1
 75
     1
176
     1
175
     1
176
     1
 42
40.0
176
     1
 92
        8
176
     1
 66
     7
176
     1
 43
1.0
176
     1
 76
     1
176
     1
 77
     6
176
     1
 78
     2
176
     1
 67
     7
176
     1
 79
     3
176
     1
170
     0
176
     1
171
     0
176
     1
290
     0
176
     1
 93
        1
176
     1
 44
0.0
176
     1
173
     0
176
     1
  0
VISUALSTYLE
  5
35
102
{ACAD_REACTORS
330
2A
102
}
330
2A
100
AcDbVisualStyle
  2
Dim
 70
    11
177
     2
291
     1
 71
     2
176
     1
 72
     2
176
     1
 73
     0
176
     1
 90
        0
176
     1
 40
-0.6
176
     1
 41
-30.0
176
     1
 62
     5
 63
     7
421
 16777215
176
     1
 74
     1
176
     1
 91
        4
176
     1
 64
     7
176
     1
 65
   257
176
     1
 75
     1
176
     1
175
     1
176
     1
 42
1.0
176
     1
 92
        8
176
     1
 66
     7
176
     1
 43
1.0
176
     1
 76
     1
176
     1
 77
     6
176
     1
 78
     2
176
     1
 67
     7
176
     1
 79
     5
176
     1
170
     0
176
     1
171
     0
176
     1
290
     0
176
     1
 93
        1
176
     1
 44
-50.0
176
     1
173
     0
176
     1
  0
VISUALSTYLE
  5
39
102
{ACAD_REACTORS
330
2A
102
}
330
2A
100
AcDbVisualStyle
  2
Facepattern
 70
    15
177
     2
291
     1
 71
     2
176
     1
 72
     2
176
     1
 73
     0
176
     1
 90
        0
176
     1
 40
-0.6
176
     1
 41
-30.0
176
     1
 62
     5
 63
     7
421
 16777215
176
     1
 74
     1
176
     1
 91
        4
176
     1
 64
     7
176
     1
 65
   257
176
     1
 75
     1
176
     1
175
     1
176
     1
 42
1.0
176
     1
 92
        8
176
     1
 66
     7
176
     1
 43
1.0
176
     1
 76
     1
176
     1
 77
     6
176
     1
 78
     2
176
     1
 67
     7
176
     1
 79
     5
176
     1
170
     0
176
     1
171
     0
176
     1
290
     0
176
     1
 93
        1
176
     1
 44
0.0
176
     1
173
     0
176
     1
  0
VISUALSTYLE
  5
2B
102
{ACAD_REACTORS
330
2A
102
}
330
2A
100
AcDbVisualStyle
  2
Flat
 70
     0
177
     2
291
     1
 71
     2
176
     1
 72
     1
176
     1
 73
     1
176
     1
 90
        2
176
     1
 40
-0.6
176
     1
 41
30.0
176
     1
 62
     5
 63
     7
421
 16777215
176
     1
 74
     0
176
     1
 91
        4
176
     1
 64
     7
176
     1
 65
   257
176
     1
 75
     1
176
     1
175
     1
176
     1
 42
1.0
176
     1
 92
        8
176
     1
 66
     7
176
     1
 43
1.0
176
     1
 76
     1
176
     1
 77
     6
176
     1
 78
     2
176
     1
 67
     7
176
     1
 79
     5
176
     1
170
     0
176
     1
171
     0
176
     1
290
     0
176
     1
 93
       13
176
     1
 44
0.0
176
     1
173
     0
176
     1
  0
VISUALSTYLE
  5
2C
102
{ACAD_REACTORS
330
2A
102
}
330
2A
100
AcDbVisualStyle
  2
FlatWithEdges
 70
     1
177
     2
291
     1
 71
     2
176
     1
 72
     1
176
     1
 73
     1
176
     1
 90
        2
176
     1
 40
-0.6
176
     1
 41
30.0
176
     1
 62
     5
 63
     7
421
 16777215
176
     1
 74
     1
176
     1
 91
        4
176
     1
 64
     7
176
     1
 65
   257
176
     1
 75
     1
176
     1
175
     1
176
     1
 42
1.0
176
     1
 92
        0
176
     1
 66
   257
176
     1
 43
1.0
176
     1
 76
     1
176
     1
 77
     6
176
     1
 78
     2
176
     1
 67
     7
176
     1
 79
     5
176
     1
170
     0
176
     1
171
     0
176
     1
290
     0
176
     1
 93
       13
176
     1
 44
0.0
176
     1
173
     0
176
     1
  0
VISUALSTYLE
  5
2D
102
{ACAD_REACTORS
330
2A
102
}
330
2A
100
AcDbVisualStyle
  2
Gouraud
 70
     2
177
     2
291
     1
 71
     2
176
     1
 72
     2
176
     1
 73
     1
176
     1
 90
        2
176
     1
 40
-0.6
176
     1
 41
30.0
176
     1
 62
     5
 63
     7
421
 16777215
176
     1
 74
     0
176
     1
 91
        4
176
     1
 64
     7
176
     1
 65
   257
176
     1
 75
     1
176
     1
175
     1
176
     1
 42
1.0
176
     1
 92
        0
176
     1
 66
     7
176
     1
 43
1.0
176
     1
 76
     1
176
     1
 77
     6
176
     1
 78
     2
176
     1
 67
     7
176
     1
 79
     5
176
     1
170
     0
176
     1
171
     0
176
     1
290
     0
176
     1
 93
       13
176
     1
 44
0.0
176
     1
173
     0
176
     1
  0
VISUALSTYLE
  5
2E
102
{ACAD_REACTORS
330
2A
102
}
330
2A
100
AcDbVisualStyle
  2
GouraudWithEdges
 70
     3
177
     2
291
     1
 71
     2
176
     1
 72
     2
176
     1
 73
     1
176
     1
 90
        2
176
     1
 40
-0.6
176
     1
 41
30.0
176
     1
 62
     5
 63
     7
421
 16777215
176
     1
 74
     1
176
     1
 91
        4
176
     1
 64
     7
176
     1
 65
   257
176
     1
 75
     1
176
     1
175
     1
176
     1
 42
1.0
176
     1
 92
        0
176
     1
 66
   257
176
     1
 43
1.0
176
     1
 76
     1
176
     1
 77
     6
176
     1
 78
     2
176
     1
 67
     7
176
     1
 79
     5
176
     1
170
     0
176
     1
171
     0
176
     1
290
     0
176
     1
 93
       13
176
     1
 44
0.0
176
     1
173
     0
176
     1
  0
VISUALSTYLE
  5
38
102
{ACAD_REACTORS
330
2A
102
}
330
2A
100
AcDbVisualStyle
  2
Linepattern
 70
    14
177
     2
291
     1
 71
     2
176
     1
 72
     2
176
     1
 73
     0
176
     1
 90
        0
176
     1
 40
-0.6
176
     1
 41
-30.0
176
     1
 62
     5
 63
     7
421
 16777215
176
     1
 74
     1
176
     1
 91
        4
176
     1
 64
     7
176
     1
 65
   257
176
     1
 75
     7
176
     1
175
     7
176
     1
 42
1.0
176
     1
 92
        8
176
     1
 66
     7
176
     1
 43
1.0
176
     1
 76
     1
176
     1
 77
     6
176
     1
 78
     2
176
     1
 67
     7
176
     1
 79
     5
176
     1
170
     0
176
     1
171
     0
176
     1
290
     0
176
     1
 93
        1
176
     1
 44
0.0
176
     1
173
     0
176
     1
  0
VISUALSTYLE
  5
33
102
{ACAD_REACTORS
330
2A
102
}
330
2A
100
AcDbVisualStyle
  2
Realistic
 70
     8
177
     2
291
     0
 71
     2
176
     1
 72
     2
176
     1
 73
     0
176
     1
 90
        0
176
     1
 40
-0.6
176
     1
 41
-30.0
176
     1
 62
     5
 63
     7
421
 16777215
176
     1
 74
     1
176
     1
 91
        0
176
     1
 64
     7
176
     1
 65
   257
176
     1
 75
     1
176
     1
175
     1
176
     1
 42
1.0
176
     1
 92
        8
176
     1
 66
     8
424
  7895160
176
     1
 43
1.0
176
     1
 76
     1
176
     1
 77
     6
176
     1
 78
     2
176
     1
 67
     7
176
     1
 79
     5
176
     1
170
     0
176
     1
171
     0
176
     1
290
     0
176
     1
 93
       13
176
     1
 44
0.0
176
     1
173
     0
176
     1
  0
VISUALSTYLE
  5
37
102
{ACAD_REACTORS
330
2A
102
}
330
2A
100
AcDbVisualStyle
  2
Thicken
 70
    13
177
     2
291
     1
 71
     2
176
     1
 72
     2
176
     1
 73
     0
176
     1
 90
        0
176
     1
 40
-0.6
176
     1
 41
-30.0
176
     1
 62
     5
 63
     7
421
 16777215
176
     1
 74
     1
176
     1
 91
        4
176
     1
 64
     7
176
     1
 65
   257
176
     1
 75
     1
176
     1
175
     1
176
     1
 42
1.0
176
     1
 92
       12
176
     1
 66
     7
176
     1
 43
1.0
176
     1
 76
     1
176
     1
 77
     6
176
     1
 78
     2
176
     1
 67
     7
176
     1
 79
     5
176
     1
170
     0
176
     1
171
     0
176
     1
290
     0
176
     1
 93
        1
176
     1
 44
0.0
176
     1
173
     0
176
     1
  0
ENDSEC
  0
EOF
