  0
SECTION
  2
HEADER
  9
$ACADVER
  1
AC1024
  9
$ACADMAINTVER
 70
     6
  9
$DWGCODEPAGE
  3
UNDEFINED
  9
$INSBASE
 10
0.0
 20
0.0
 30
0.0
  9
$EXTMIN
 10
1.000000000000000E+20
 20
1.000000000000000E+20
 30
1.000000000000000E+20
  9
$EXTMAX
 10
-1.000000000000000E+20
 20
-1.000000000000000E+20
 30
-1.000000000000000E+20
  9
$LIMMIN
 10
0.0
 20
0.0
  9
$LIMMAX
 10
12.0
 20
9.0
  9
$ORTHOMODE
 70
     0
  9
$REGENMODE
 70
     1
  9
$FILLMODE
 70
     1
  9
$QTEXTMODE
 70
     0
  9
$MIRRTEXT
 70
     1
  9
$LTSCALE
 40
1.0
  9
$ATTMODE
 70
     1
  9
$TEXTSIZE
 40
0.2
  9
$TRACEWID
 40
0.05
  9
$TEXTSTYLE
  7
Standard
  9
$CLAYER
  8
0
  9
$CELTYPE
  6
ByLayer
  9
$CECOLOR
 62
   256
  9
$CELTSCALE
 40
1.0
  9
$DISPSILH
 70
     0
  9
$DIMSCALE
 40
1.0
  9
$DIMASZ
 40
0.18
  9
$DIMEXO
 40
0.0625
  9
$DIMDLI
 40
0.38
  9
$DIMRND
 40
0.0
  9
$DIMDLE
 40
0.0
  9
$DIMEXE
 40
0.18
  9
$DIMTP
 40
0.0
  9
$DIMTM
 40
0.0
  9
$DIMTXT
 40
0.18
  9
$DIMCEN
 40
0.09
  9
$DIMTSZ
 40
0.0
  9
$DIMTOL
 70
     0
  9
$DIMLIM
 70
     0
  9
$DIMTIH
 70
     1
  9
$DIMTOH
 70
     1
  9
$DIMSE1
 70
     0
  9
$DIMSE2
 70
     0
  9
$DIMTAD
 70
     0
  9
$DIMZIN
 70
     0
  9
$DIMBLK
  1

  9
$DIMASO
 70
     1
  9
$DIMSHO
 70
     1
  9
$DIMPOST
  1

  9
$DIMAPOST
  1

  9
$DIMALT
 70
     0
  9
$DIMALTD
 70
     2
  9
$DIMALTF
 40
25.4
  9
$DIMLFAC
 40
1.0
  9
$DIMTOFL
 70
     0
  9
$DIMTVP
 40
0.0
  9
$DIMTIX
 70
     0
  9
$DIMSOXD
 70
     0
  9
$DIMSAH
 70
     0
  9
$DIMBLK1
  1

  9
$DIMBLK2
  1

  9
$DIMSTYLE
  2
Standard
  9
$DIMCLRD
 70
     0
  9
$DIMCLRE
 70
     0
  9
$DIMCLRT
 70
     0
  9
$DIMTFAC
 40
1.0
  9
$DIMGAP
 40
0.09
  9
$DIMJUST
 70
     0
  9
$DIMSD1
 70
     0
  9
$DIMSD2
 70
     0
  9
$DIMTOLJ
 70
     1
  9
$DIMTZIN
 70
     0
  9
$DIMALTZ
 70
     0
  9
$DIMALTTZ
 70
     0
  9
$DIMUPT
 70
     0
  9
$DIMDEC
 70
     4
  9
$DIMTDEC
 70
     4
  9
$DIMALTU
 70
     2
  9
$DIMALTTD
 70
     2
  9
$DIMTXSTY
  7
Standard
  9
$DIMAUNIT
 70
     0
  9
$DIMADEC
 70
     0
  9
$DIMALTRND
 40
0.0
  9
$DIMAZIN
 70
     0
  9
$DIMDSEP
 70
    46
  9
$DIMATFIT
 70
     3
  9
$DIMFRAC
 70
     0
  9
$DIMLDRBLK
  1

  9
$DIMLUNIT
 70
     2
  9
$DIMLWD
 70
    -2
  9
$DIMLWE
 70
    -2
  9
$DIMTMOVE
 70
     0
  9
$DIMFXL
 40
1.0
  9
$DIMFXLON
 70
     0
  9
$DIMJOGANG
 40
0.7853981633974483
  9
$DIMTFILL
 70
     0
  9
$DIMTFILLCLR
 70
     0
  9
$DIMARCSYM
 70
     0
  9
$DIMLTYPE
  6

  9
$DIMLTEX1
  6

  9
$DIMLTEX2
  6

  9
$DIMTXTDIRECTION
 70
     0
  9
$LUNITS
 70
     2
  9
$LUPREC
 70
     4
  9
$SKETCHINC
 40
0.1
  9
$FILLETRAD
 40
0.5
  9
$AUNITS
 70
     0
  9
$AUPREC
 70
     0
  9
$MENU
  1
.
  9
$ELEVATION
 40
0.0
  9
$PELEVATION
 40
0.0
  9
$THICKNESS
 40
0.0
  9
$LIMCHECK
 70
     0
  9
$CHAMFERA
 40
0.5
  9
$CHAMFERB
 40
0.5
  9
$CHAMFERC
 40
1.0
  9
$CHAMFERD
 40
0.0
  9
$SKPOLY
 70
     0
  9
$TDCREATE
 40
2457917.5940625
  9
$TDUCREATE
 40
2457917.2190625
  9
$TDUPDATE
 40
2457917.5940625
  9
$TDUUPDATE
 40
2457917.2190625
  9
$TDINDWG
 40
0.0000000116
  9
$TDUSRTIMER
 40
0.0000000116
  9
$USRTIMER
 70
     1
  9
$ANGBASE
 50
0.0
  9
$ANGDIR
 70
     0
  9
$PDMODE
 70
     0
  9
$PDSIZE
 40
0.0
  9
$PLINEWID
 40
0.0
  9
$SPLFRAME
 70
     0
  9
$SPLINETYPE
 70
     6
  9
$SPLINESEGS
 70
     8
  9
$HANDSEED
  5
10F
  9
$SURFTAB1
 70
     6
  9
$SURFTAB2
 70
     6
  9
$SURFTYPE
 70
     6
  9
$SURFU
 70
     6
  9
$SURFV
 70
     6
  9
$UCSBASE
  2

  9
$UCSNAME
  2

  9
$UCSORG
 10
0.0
 20
0.0
 30
0.0
  9
$UCSXDIR
 10
1.0
 20
0.0
 30
0.0
  9
$UCSYDIR
 10
0.0
 20
1.0
 30
0.0
  9
$UCSORTHOREF
  2

  9
$UCSORTHOVIEW
 70
     0
  9
$UCSORGTOP
 10
0.0
 20
0.0
 30
0.0
  9
$UCSORGBOTTOM
 10
0.0
 20
0.0
 30
0.0
  9
$UCSORGLEFT
 10
0.0
 20
0.0
 30
0.0
  9
$UCSORGRIGHT
 10
0.0
 20
0.0
 30
0.0
  9
$UCSORGFRONT
 10
0.0
 20
0.0
 30
0.0
  9
$UCSORGBACK
 10
0.0
 20
0.0
 30
0.0
  9
$PUCSBASE
  2

  9
$PUCSNAME
  2

  9
$PUCSORG
 10
0.0
 20
0.0
 30
0.0
  9
$PUCSXDIR
 10
1.0
 20
0.0
 30
0.0
  9
$PUCSYDIR
 10
0.0
 20
1.0
 30
0.0
  9
$PUCSORTHOREF
  2

  9
$PUCSORTHOVIEW
 70
     0
  9
$PUCSORGTOP
 10
0.0
 20
0.0
 30
0.0
  9
$PUCSORGBOTTOM
 10
0.0
 20
0.0
 30
0.0
  9
$PUCSORGLEFT
 10
0.0
 20
0.0
 30
0.0
  9
$PUCSORGRIGHT
 10
0.0
 20
0.0
 30
0.0
  9
$PUCSORGFRONT
 10
0.0
 20
0.0
 30
0.0
  9
$PUCSORGBACK
 10
0.0
 20
0.0
 30
0.0
  9
$USERI1
 70
     0
  9
$USERI2
 70
     0
  9
$USERI3
 70
     0
  9
$USERI4
 70
     0
  9
$USERI5
 70
     0
  9
$USERR1
 40
0.0
  9
$USERR2
 40
0.0
  9
$USERR3
 40
0.0
  9
$USERR4
 40
0.0
  9
$USERR5
 40
0.0
  9
$WORLDVIEW
 70
     1
  9
$SHADEDGE
 70
     3
  9
$SHADEDIF
 70
    70
  9
$TILEMODE
 70
     1
  9
$MAXACTVP
 70
    64
  9
$PINSBASE
 10
0.0
 20
0.0
 30
0.0
  9
$PLIMCHECK
 70
     0
  9
$PEXTMIN
 10
1.000000000000000E+20
 20
1.000000000000000E+20
 30
1.000000000000000E+20
  9
$PEXTMAX
 10
-1.000000000000000E+20
 20
-1.000000000000000E+20
 30
-1.000000000000000E+20
  9
$PLIMMIN
 10
0.0
 20
0.0
  9
$PLIMMAX
 10
12.0
 20
9.0
  9
$UNITMODE
 70
     0
  9
$VISRETAIN
 70
     1
  9
$PLINEGEN
 70
     0
  9
$PSLTSCALE
 70
     1
  9
$TREEDEPTH
 70
  3020
  9
$CMLSTYLE
  2
Standard
  9
$CMLJUST
 70
     0
  9
$CMLSCALE
 40
1.0
  9
$PROXYGRAPHICS
 70
     1
  9
$MEASUREMENT
 70
     0
  9
$CELWEIGHT
370
    -1
  9
$ENDCAPS
280
     0
  9
$JOINSTYLE
280
     0
  9
$LWDISPLAY
290
     1
  9
$INSUNITS
 70
     1
  9
$HYPERLINKBASE
  1

  9
$STYLESHEET
  1

  9
$XEDIT
290
     1
  9
$CEPSNTYPE
380
     0
  9
$PSTYLEMODE
290
     1
  9
$FINGERPRINTGUID
  2
{C13319E7-3C68-0A0A-D1FB-3703938D51CD}
  9
$VERSIONGUID
  2
{FAEB1C32-E019-11D5-929B-00C0DF256EC4}
  9
$EXTNAMES
290
     1
  9
$PSVPSCALE
 40
0.0
  9
$OLESTARTUP
290
     0
  9
$SORTENTS
280
   127
  9
$INDEXCTL
280
     0
  9
$HIDETEXT
280
     1
  9
$XCLIPFRAME
280
     2
  9
$HALOGAP
280
     0
  9
$OBSCOLOR
 70
   257
  9
$OBSLTYPE
280
     0
  9
$INTERSECTIONDISPLAY
280
     0
  9
$INTERSECTIONCOLOR
 70
   257
  9
$DIMASSOC
280
     2
  9
$PROJECTNAME
  1

  9
$CAMERADISPLAY
290
     0
  9
$LENSLENGTH
 40
50.0
  9
$CAMERAHEIGHT
 40
0.0
  9
$STEPSPERSEC
 40
2.0
  9
$STEPSIZE
 40
6.0
  9
$3DDWFPREC
 40
2.0
  9
$PSOLWIDTH
 40
0.25
  9
$PSOLHEIGHT
 40
4.0
  9
$LOFTANG1
 40
1.570796326794897
  9
$LOFTANG2
 40
1.570796326794897
  9
$LOFTMAG1
 40
0.0
  9
$LOFTMAG2
 40
0.0
  9
$LOFTPARAM
 70
     7
  9
$LOFTNORMALS
280
     1
  9
$LATITUDE
 40
37.795
  9
$LONGITUDE
 40
-122.394
  9
$NORTHDIRECTION
 40
0.0
  9
$TIMEZONE
 70
 -8000
  9
$LIGHTGLYPHDISPLAY
280
     1
  9
$TILEMODELIGHTSYNCH
280
     1
  9
$CMATERIAL
347
3C
  9
$SOLIDHIST
280
     1
  9
$SHOWHIST
280
     1
  9
$DWFFRAME
280
     2
  9
$DGNFRAME
280
     2
  9
$REALWORLDSCALE
290
     1
  9
$INTERFERECOLOR
 62
   256
  9
$CSHADOW
280
     0
  9
$SHADOWPLANELOCATION
 40
0.0
  0
ENDSEC
  0
SECTION
  2
CLASSES
  0
CLASS
  1
ACDBDICTIONARYWDFLT
  2
AcDbDictionaryWithDefault
  3
ObjectDBX Classes
 90
        0
 91
        4
280
     0
281
     0
  0
CLASS
  1
VISUALSTYLE
  2
AcDbVisualStyle
  3
ObjectDBX Classes
 90
     4095
 91
        4
280
     0
281
     0
  0
CLASS
  1
MATERIAL
  2
AcDbMaterial
  3
ObjectDBX Classes
 90
     1153
 91
        4
280
     0
281
     0
  0
CLASS
  1
SUN
  2
AcDbSun
  3
SCENEOE
 90
     1024
 91
        4
280
     0
281
     0
  0
ENDSEC
  0
SECTION
  2
TABLES
  0
TABLE
  2
VPORT
  5
8
330
0
100
AcDbSymbolTable
 70
     1
  0
VPORT
  5
29
330
8
100
AcDbSymbolTableRecord
100
AcDbViewportTableRecord
  2
*Active
 70
     0
 10
0.0
 20
0.0
 11
1.0
 21
1.0
 12
0.0
 22
0.0
 13
0.0
 23
0.0
 14
0.5
 24
0.5
 15
0.5
 25
0.5
 16
0.0
 26
0.0
 36
1.0
 17
91.00082462281999
 27
-128.4993055234307
 37
0.0
 40
256.9986110468615
 41
0.7081814508812795
 42
50.0
 43
0.0
 44
0.0
 50
0.0
 51
0.0
 71
     0
 72
   100
 73
     1
 74
     3
 75
     0
 76
     0
 77
     0
 78
     0
281
     0
 65
     1
110
0.0
120
0.0
130
0.0
111
1.0
121
0.0
131
0.0
112
0.0
122
1.0
132
0.0
 79
     0
146
0.0
 60
     3
 61
     5
292
     1
282
     1
141
0.0
142
0.0
 63
   250
361
3F
  0
ENDTAB
  0
TABLE
  2
LTYPE
  5
5
330
0
100
AcDbSymbolTable
 70
     1
  0
LTYPE
  5
14
330
5
100
AcDbSymbolTableRecord
100
AcDbLinetypeTableRecord
  2
ByBlock
 70
     0
  3

 72
    65
 73
     0
 40
0.0
  0
LTYPE
  5
15
330
5
100
AcDbSymbolTableRecord
100
AcDbLinetypeTableRecord
  2
ByLayer
 70
     0
  3

 72
    65
 73
     0
 40
0.0
  0
LTYPE
  5
16
330
5
100
AcDbSymbolTableRecord
100
AcDbLinetypeTableRecord
  2
Continuous
 70
     0
  3
Solid line
 72
    65
 73
     0
 40
0.0
  0
ENDTAB
  0
TABLE
  2
LAYER
  5
2
330
0
100
AcDbSymbolTable
 70
     2
  0
LAYER
  5
10
330
2
100
AcDbSymbolTableRecord
100
AcDbLayerTableRecord
  2
0
 70
     0
 62
     7
  6
Continuous
370
    -3
390
F
347
3E
  0
LAYER
  5
40
330
2
100
AcDbSymbolTableRecord
100
AcDbLayerTableRecord
  2
_U+30EC_U+30A4_U+30E4_U+30FC 1
 70
     0
 62
     7
  6
Continuous
370
    -3
390
F
347
3E
  0
ENDTAB
  0
TABLE
  2
STYLE
  5
3
330
0
100
AcDbSymbolTable
 70
     1
  0
STYLE
  5
11
330
3
100
AcDbSymbolTableRecord
100
AcDbTextStyleTableRecord
  2
Standard
 70
     0
 40
0.0
 41
1.0
 50
0.0
 71
     0
 42
0.2
  3
txt
  4

  0
ENDTAB
  0
TABLE
  2
VIEW
  5
6
330
0
100
AcDbSymbolTable
 70
     0
  0
ENDTAB
  0
TABLE
  2
UCS
  5
7
330
0
100
AcDbSymbolTable
 70
     0
  0
ENDTAB
  0
TABLE
  2
APPID
  5
9
330
0
100
AcDbSymbolTable
 70
     1
  0
APPID
  5
12
330
9
100
AcDbSymbolTableRecord
100
AcDbRegAppTableRecord
  2
ACAD
 70
     0
  0
ENDTAB
  0
TABLE
  2
DIMSTYLE
  5
A
330
0
100
AcDbSymbolTable
 70
     1
100
AcDbDimStyleTable
  0
DIMSTYLE
105
27
330
A
100
AcDbSymbolTableRecord
100
AcDbDimStyleTableRecord
  2
Standard
 70
     0
178
     0
340
11
  0
ENDTAB
  0
TABLE
  2
BLOCK_RECORD
  5
1
330
0
100
AcDbSymbolTable
 70
     7
  0
BLOCK_RECORD
  5
1F
330
1
100
AcDbSymbolTableRecord
100
AcDbBlockTableRecord
  2
*Model_Space
340
22
 70
     0
280
     1
281
     0
  0
BLOCK_RECORD
  5
1B
330
1
100
AcDbSymbolTableRecord
100
AcDbBlockTableRecord
  2
*Paper_Space
340
1E
 70
     0
280
     1
281
     0
  0
BLOCK_RECORD
  5
23
330
1
100
AcDbSymbolTableRecord
100
AcDbBlockTableRecord
  2
*Paper_Space0
340
26
 70
     0
280
     1
281
     0
  0
BLOCK_RECORD
  5
51
330
1
100
AcDbSymbolTableRecord
100
AcDbBlockTableRecord
  2
block 2
340
0
102
{BLKREFS
331
52
102
}
 70
     0
280
     1
281
     0
  0
BLOCK_RECORD
  5
6A
330
1
100
AcDbSymbolTableRecord
100
AcDbBlockTableRecord
  2
block 3
340
0
102
{BLKREFS
331
6B
102
}
 70
     0
280
     1
281
     0
  0
BLOCK_RECORD
  5
86
330
1
100
AcDbSymbolTableRecord
100
AcDbBlockTableRecord
  2
block 4
340
0
102
{BLKREFS
331
87
102
}
 70
     0
280
     1
281
     0
  0
BLOCK_RECORD
  5
C9
330
1
100
AcDbSymbolTableRecord
100
AcDbBlockTableRecord
  2
block 5
340
0
102
{BLKREFS
331
CA
102
}
 70
     0
280
     1
281
     0
  0
BLOCK_RECORD
  5
DD
330
1
100
AcDbSymbolTableRecord
100
AcDbBlockTableRecord
  2
block 6
340
0
102
{BLKREFS
331
DE
102
}
 70
     0
280
     1
281
     0
  0
BLOCK_RECORD
  5
107
330
1
100
AcDbSymbolTableRecord
100
AcDbBlockTableRecord
  2
block 7
340
0
102
{BLKREFS
331
108
102
}
 70
     0
280
     1
281
     0
  0
ENDTAB
  0
ENDSEC
  0
SECTION
  2
BLOCKS
  0
BLOCK
  5
20
330
1F
100
AcDbEntity
  8
0
100
AcDbBlockBegin
  2
*Model_Space
 70
     0
 10
0.0
 20
0.0
 30
0.0
  3
*Model_Space
  1

  0
ENDBLK
  5
21
330
1F
100
AcDbEntity
  8
0
100
AcDbBlockEnd
  0
BLOCK
  5
1C
330
1B
100
AcDbEntity
 67
     1
  8
0
100
AcDbBlockBegin
  2
*Paper_Space
 70
     0
 10
0.0
 20
0.0
 30
0.0
  3
*Paper_Space
  1

  0
ENDBLK
  5
1D
330
1B
100
AcDbEntity
 67
     1
  8
0
100
AcDbBlockEnd
  0
BLOCK
  5
24
330
23
100
AcDbEntity
  8
0
100
AcDbBlockBegin
  2
*Paper_Space0
 70
     0
 10
0.0
 20
0.0
 30
0.0
  3
*Paper_Space0
  1

  0
ENDBLK
  5
25
330
23
100
AcDbEntity
  8
0
100
AcDbBlockEnd
  0
BLOCK
  5
53
330
51
100
AcDbEntity
  8
0
100
AcDbBlockBegin
  2
block 2
 70
     0
 10
0.0
 20
0.0
 30
0.0
  3
block 2
  1

  0
SPLINE
  5
55
330
51
100
AcDbEntity
  8
_U+30EC_U+30A4_U+30E4_U+30FC 1
370
     0
100
AcDbSpline
210
0.0
220
0.0
230
1.0
 70
    11
 71
     3
 72
    29
 73
    25
 74
     0
 42
0.0000000001
 43
0.0000000001
 12
1.0
 22
0.0
 32
0.0
 13
1.0
 23
0.0
 33
0.0
 40
0.0
 40
0.0
 40
0.0
 40
0.0
 40
1.0
 40
1.0
 40
1.0
 40
2.0
 40
2.0
 40
2.0
 40
3.0
 40
3.0
 40
3.0
 40
4.0
 40
4.0
 40
4.0
 40
5.0
 40
5.0
 40
5.0
 40
6.0
 40
6.0
 40
6.0
 40
7.0
 40
7.0
 40
7.0
 40
8.0
 40
8.0
 40
8.0
 40
8.0
 10
102.379625082912
 20
-132.9155734259725
 30
0.0
 10
102.5890868884152
 20
-133.0237494242093
 30
0.0
 10
102.6080349135841
 20
-133.1970377271174
 30
0.0
 10
102.6080349135841
 20
-133.3134819545189
 30
0.0
 10
102.6080349135841
 20
-133.47436791368
 30
0.0
 10
102.5615261245332
 20
-133.6159613381238
 30
0.0
 10
102.379625082912
 20
-133.7110459735167
 30
0.0
 10
102.1849771879954
 20
-133.8147433476227
 30
0.0
 10
101.9479546186102
 20
-133.8340358823401
 30
0.0
 10
101.7853461117064
 20
-133.8340358823401
 30
0.0
 10
101.641341120423
 20
-133.8340358823401
 30
0.0
 10
101.3895046404512
 20
-133.8168104049139
 30
0.0
 10
101.1907226309523
 20
-133.7110459735167
 30
0.0
 10
100.9878065068711
 20
-133.6032144848284
 30
0.0
 10
100.9643798575714
 20
-133.4423285256672
 30
0.0
 10
100.9643798575714
 20
-133.3134819545189
 30
0.0
 10
100.9643798575714
 20
-133.1546630526488
 30
0.0
 10
101.0088215893311
 20
-133.0110025709139
 30
0.0
 10
101.1907226309523
 20
-132.9155734259725
 30
0.0
 10
101.3833034685778
 20
-132.8163546759973
 30
0.0
 10
101.6117132992499
 20
-132.7929280266976
 30
0.0
 10
101.7853461117064
 20
-132.7929280266976
 30
0.0
 10
101.9565673573234
 20
-132.7929280266976
 30
0.0
 10
102.1870442452866
 20
-132.8142876187061
 30
0.0
 10
102.379625082912
 20
-132.9155734259725
 30
0.0
  0
SPLINE
  5
56
330
51
100
AcDbEntity
  8
_U+30EC_U+30A4_U+30E4_U+30FC 1
370
     0
100
AcDbSpline
210
0.0
220
0.0
230
1.0
 70
    11
 71
     3
 72
    17
 73
    13
 74
     0
 42
0.0000000001
 43
0.0000000001
 12
1.0
 22
0.0
 32
0.0
 13
1.0
 23
0.0
 33
0.0
 40
0.0
 40
0.0
 40
0.0
 40
0.0
 40
1.0
 40
1.0
 40
1.0
 40
2.0
 40
2.0
 40
2.0
 40
3.0
 40
3.0
 40
3.0
 40
4.0
 40
4.0
 40
4.0
 40
4.0
 10
101.1569606951969
 20
-133.3134819545189
 30
0.0
 10
101.1569606951969
 20
-133.5632513771995
 30
0.0
 10
101.4404920536329
 20
-133.6097601662503
 30
0.0
 10
101.7853461117064
 20
-133.6097601662503
 30
0.0
 10
102.1047064631891
 20
-133.6097601662503
 30
0.0
 10
102.4133870186675
 20
-133.5735866636552
 30
0.0
 10
102.4133870186675
 20
-133.3134819545189
 30
0.0
 10
102.4133870186675
 20
-133.0657795891294
 30
0.0
 10
102.1322672270711
 20
-133.0172037427874
 30
0.0
 10
101.7853461117064
 20
-133.0172037427874
 30
0.0
 10
101.4656412506753
 20
-133.0172037427874
 30
0.0
 10
101.1569606951969
 20
-133.0554443026736
 30
0.0
 10
101.1569606951969
 20
-133.3134819545189
 30
0.0
  0
HATCH
  5
57
330
51
100
AcDbEntity
  8
_U+30EC_U+30A4_U+30E4_U+30FC 1
 62
     7
420
 16777215
100
AcDbHatch
 10
0.0
 20
0.0
 30
0.0
210
0.0
220
0.0
230
1.0
  2
SOLID
 70
     1
 71
     0
 91
        2
 92
        1
 93
        1
 72
     4
 94
        3
 73
     0
 74
     1
 95
       29
 96
       25
 40
0.0
 40
0.0
 40
0.0
 40
0.0
 40
1.0
 40
1.0
 40
1.0
 40
2.0
 40
2.0
 40
2.0
 40
3.0
 40
3.0
 40
3.0
 40
4.0
 40
4.0
 40
4.0
 40
5.0
 40
5.0
 40
5.0
 40
6.0
 40
6.0
 40
6.0
 40
7.0
 40
7.0
 40
7.0
 40
8.0
 40
8.0
 40
8.0
 40
8.0
 10
102.379625082912
 20
-132.9155734259725
 10
102.5890868884152
 20
-133.0237494242093
 10
102.6080349135841
 20
-133.1970377271174
 10
102.6080349135841
 20
-133.3134819545189
 10
102.6080349135841
 20
-133.47436791368
 10
102.5615261245332
 20
-133.6159613381238
 10
102.379625082912
 20
-133.7110459735167
 10
102.1849771879954
 20
-133.8147433476227
 10
101.9479546186102
 20
-133.8340358823401
 10
101.7853461117064
 20
-133.8340358823401
 10
101.641341120423
 20
-133.8340358823401
 10
101.3895046404512
 20
-133.8168104049139
 10
101.1907226309523
 20
-133.7110459735167
 10
100.9878065068711
 20
-133.6032144848284
 10
100.9643798575714
 20
-133.4423285256672
 10
100.9643798575714
 20
-133.3134819545189
 10
100.9643798575714
 20
-133.1546630526488
 10
101.0088215893311
 20
-133.0110025709139
 10
101.1907226309523
 20
-132.9155734259725
 10
101.3833034685778
 20
-132.8163546759973
 10
101.6117132992499
 20
-132.7929280266976
 10
101.7853461117064
 20
-132.7929280266976
 10
101.9565673573234
 20
-132.7929280266976
 10
102.1870442452866
 20
-132.8142876187061
 10
102.379625082912
 20
-132.9155734259725
 97
        0
 97
        0
 92
        1
 93
        1
 72
     4
 94
        3
 73
     0
 74
     1
 95
       17
 96
       13
 40
0.0
 40
0.0
 40
0.0
 40
0.0
 40
1.0
 40
1.0
 40
1.0
 40
2.0
 40
2.0
 40
2.0
 40
3.0
 40
3.0
 40
3.0
 40
4.0
 40
4.0
 40
4.0
 40
4.0
 10
101.1569606951969
 20
-133.3134819545189
 10
101.1569606951969
 20
-133.5632513771995
 10
101.4404920536329
 20
-133.6097601662503
 10
101.7853461117064
 20
-133.6097601662503
 10
102.1047064631891
 20
-133.6097601662503
 10
102.4133870186675
 20
-133.5735866636552
 10
102.4133870186675
 20
-133.3134819545189
 10
102.4133870186675
 20
-133.0657795891294
 10
102.1322672270711
 20
-133.0172037427874
 10
101.7853461117064
 20
-133.0172037427874
 10
101.4656412506753
 20
-133.0172037427874
 10
101.1569606951969
 20
-133.0554443026736
 10
101.1569606951969
 20
-133.3134819545189
 97
        0
 97
        0
 75
     2
 76
     1
 98
        0
  0
POLYLINE
  5
58
330
51
100
AcDbEntity
  8
_U+30EC_U+30A4_U+30E4_U+30FC 1
370
     0
100
AcDb2dPolyline
 66
     1
 10
0.0
 20
0.0
 30
0.0
  0
VERTEX
  5
59
330
58
100
AcDbEntity
  8
_U+30EC_U+30A4_U+30E4_U+30FC 1
370
     0
100
AcDbVertex
100
AcDb2dVertex
 10
102.5573920099509
 20
-132.5765760302239
 30
0.0
  0
VERTEX
  5
5A
330
58
100
AcDbEntity
  8
_U+30EC_U+30A4_U+30E4_U+30FC 1
370
     0
100
AcDbVertex
100
AcDb2dVertex
 10
102.3055555299792
 20
-132.5765760302239
 30
0.0
  0
VERTEX
  5
5B
330
58
100
AcDbEntity
  8
_U+30EC_U+30A4_U+30E4_U+30FC 1
370
     0
100
AcDbVertex
100
AcDb2dVertex
 10
102.3055555299792
 20
-132.3247395502522
 30
0.0
  0
VERTEX
  5
5C
330
58
100
AcDbEntity
  8
_U+30EC_U+30A4_U+30E4_U+30FC 1
370
     0
100
AcDbVertex
100
AcDb2dVertex
 10
102.5573920099509
 20
-132.3247395502522
 30
0.0
  0
VERTEX
  5
5D
330
58
100
AcDbEntity
  8
_U+30EC_U+30A4_U+30E4_U+30FC 1
370
     0
100
AcDbVertex
100
AcDb2dVertex
 10
102.5573920099509
 20
-132.5765760302239
 30
0.0
  0
SEQEND
  5
5E
330
58
100
AcDbEntity
  8
_U+30EC_U+30A4_U+30E4_U+30FC 1
370
     0
  0
HATCH
  5
5F
330
51
100
AcDbEntity
  8
_U+30EC_U+30A4_U+30E4_U+30FC 1
 62
     7
420
 16777215
100
AcDbHatch
 10
0.0
 20
0.0
 30
0.0
210
0.0
220
0.0
230
1.0
  2
SOLID
 70
     1
 71
     0
 91
        1
 92
        1
 93
        4
 72
     1
 10
102.5573920099509
 20
-132.5765760302239
 11
102.3055555299792
 21
-132.5765760302239
 72
     1
 10
102.3055555299792
 20
-132.5765760302239
 11
102.3055555299792
 21
-132.3247395502522
 72
     1
 10
102.3055555299792
 20
-132.3247395502522
 11
102.5573920099509
 21
-132.3247395502522
 72
     1
 10
102.5573920099509
 20
-132.3247395502522
 11
102.5573920099509
 21
-132.5765760302239
 97
        0
 75
     2
 76
     1
 98
        0
  0
SPLINE
  5
60
330
51
100
AcDbEntity
  8
_U+30EC_U+30A4_U+30E4_U+30FC 1
370
     0
100
AcDbSpline
210
0.0
220
0.0
230
1.0
 70
    11
 71
     3
 72
    26
 73
    22
 74
     0
 42
0.0000000001
 43
0.0000000001
 12
1.0
 22
0.0
 32
0.0
 13
1.0
 23
0.0
 33
0.0
 40
0.0
 40
0.0
 40
0.0
 40
0.0
 40
1.0
 40
1.0
 40
1.0
 40
2.0
 40
2.0
 40
2.0
 40
3.0
 40
3.0
 40
3.0
 40
4.0
 40
4.0
 40
4.0
 40
5.0
 40
5.0
 40
5.0
 40
6.0
 40
6.0
 40
6.0
 40
7.0
 40
7.0
 40
7.0
 40
7.0
 10
102.5573920099509
 20
-131.6774061085737
 30
0.0
 10
102.5573920099509
 20
-131.6774061085737
 30
0.0
 10
102.5573920099509
 20
-131.9144286779589
 30
0.0
 10
102.5573920099509
 20
-131.9144286779589
 30
0.0
 10
102.248366944924
 20
-131.8889349713681
 30
0.0
 10
101.7302245839424
 20
-131.6963541337426
 30
0.0
 10
101.2244845667078
 20
-131.2901773760316
 30
0.0
 10
101.2244845667078
 20
-131.2901773760316
 30
0.0
 10
101.2244845667078
 20
-132.1280245980444
 30
0.0
 10
101.2244845667078
 20
-132.1280245980444
 30
0.0
 10
101.2244845667078
 20
-132.1280245980444
 30
0.0
 10
101.0129557039134
 20
-132.1280245980444
 30
0.0
 10
101.0129557039134
 20
-132.1280245980444
 30
0.0
 10
101.0129557039134
 20
-132.1280245980444
 30
0.0
 10
101.0129557039134
 20
-131.0531548066464
 30
0.0
 10
101.0129557039134
 20
-131.0531548066464
 30
0.0
 10
101.0129557039134
 20
-131.0531548066464
 30
0.0
 10
101.2244845667078
 20
-131.0531548066464
 30
0.0
 10
101.2244845667078
 20
-131.0531548066464
 30
0.0
 10
101.5145616065658
 20
-131.3769937822599
 30
0.0
 10
102.1067735204803
 20
-131.6436441728183
 30
0.0
 10
102.5573920099509
 20
-131.6774061085737
 30
0.0
  0
HATCH
  5
61
330
51
100
AcDbEntity
  8
_U+30EC_U+30A4_U+30E4_U+30FC 1
 62
     7
420
 16777215
100
AcDbHatch
 10
0.0
 20
0.0
 30
0.0
210
0.0
220
0.0
230
1.0
  2
SOLID
 70
     1
 71
     0
 91
        1
 92
        1
 93
        1
 72
     4
 94
        3
 73
     0
 74
     1
 95
       26
 96
       22
 40
0.0
 40
0.0
 40
0.0
 40
0.0
 40
1.0
 40
1.0
 40
1.0
 40
2.0
 40
2.0
 40
2.0
 40
3.0
 40
3.0
 40
3.0
 40
4.0
 40
4.0
 40
4.0
 40
5.0
 40
5.0
 40
5.0
 40
6.0
 40
6.0
 40
6.0
 40
7.0
 40
7.0
 40
7.0
 40
7.0
 10
102.5573920099509
 20
-131.6774061085737
 10
102.5573920099509
 20
-131.6774061085737
 10
102.5573920099509
 20
-131.9144286779589
 10
102.5573920099509
 20
-131.9144286779589
 10
102.248366944924
 20
-131.8889349713681
 10
101.7302245839424
 20
-131.6963541337426
 10
101.2244845667078
 20
-131.2901773760316
 10
101.2244845667078
 20
-131.2901773760316
 10
101.2244845667078
 20
-132.1280245980444
 10
101.2244845667078
 20
-132.1280245980444
 10
101.2244845667078
 20
-132.1280245980444
 10
101.0129557039134
 20
-132.1280245980444
 10
101.0129557039134
 20
-132.1280245980444
 10
101.0129557039134
 20
-132.1280245980444
 10
101.0129557039134
 20
-131.0531548066464
 10
101.0129557039134
 20
-131.0531548066464
 10
101.0129557039134
 20
-131.0531548066464
 10
101.2244845667078
 20
-131.0531548066464
 10
101.2244845667078
 20
-131.0531548066464
 10
101.5145616065658
 20
-131.3769937822599
 10
102.1067735204803
 20
-131.6436441728183
 10
102.5573920099509
 20
-131.6774061085737
 97
        0
 97
        0
 75
     2
 76
     1
 98
        0
  0
ENDBLK
  5
54
330
51
100
AcDbEntity
  8
0
100
AcDbBlockEnd
  0
BLOCK
  5
6C
330
6A
100
AcDbEntity
  8
0
100
AcDbBlockBegin
  2
block 3
 70
     0
 10
0.0
 20
0.0
 30
0.0
  3
block 3
  1

  0
SPLINE
  5
6E
330
6A
100
AcDbEntity
  8
_U+30EC_U+30A4_U+30E4_U+30FC 1
370
     0
100
AcDbSpline
210
0.0
220
0.0
230
1.0
 70
    11
 71
     3
 72
    44
 73
    40
 74
     0
 42
0.0000000001
 43
0.0000000001
 12
1.0
 22
0.0
 32
0.0
 13
1.0
 23
0.0
 33
0.0
 40
0.0
 40
0.0
 40
0.0
 40
0.0
 40
1.0
 40
1.0
 40
1.0
 40
2.0
 40
2.0
 40
2.0
 40
3.0
 40
3.0
 40
3.0
 40
4.0
 40
4.0
 40
4.0
 40
5.0
 40
5.0
 40
5.0
 40
6.0
 40
6.0
 40
6.0
 40
7.0
 40
7.0
 40
7.0
 40
8.0
 40
8.0
 40
8.0
 40
9.0
 40
9.0
 40
9.0
 40
10.0
 40
10.0
 40
10.0
 40
11.0
 40
11.0
 40
11.0
 40
12.0
 40
12.0
 40
12.0
 40
13.0
 40
13.0
 40
13.0
 40
13.0
 10
102.3282931601818
 20
-129.6310193903353
 30
0.0
 10
102.4871120620518
 20
-129.8056857314375
 30
0.0
 10
102.5611816149847
 20
-129.8804443034674
 30
0.0
 10
102.7048420967196
 20
-129.9193738824507
 30
0.0
 10
102.7048420967196
 20
-129.9193738824507
 30
0.0
 10
102.7048420967196
 20
-129.295467090072
 30
0.0
 10
102.7048420967196
 20
-129.295467090072
 30
0.0
 10
102.7048420967196
 20
-129.295467090072
 30
0.0
 10
102.9101697876405
 20
-129.295467090072
 30
0.0
 10
102.9101697876405
 20
-129.295467090072
 30
0.0
 10
102.9101697876405
 20
-129.295467090072
 30
0.0
 10
102.9101697876405
 20
-130.1195339301437
 30
0.0
 10
102.9101697876405
 20
-130.1195339301437
 30
0.0
 10
102.5525688762716
 20
-130.0940402235529
 30
0.0
 10
102.4743652087564
 20
-130.0413302626285
 30
0.0
 10
102.1760199397338
 20
-129.7326497071502
 30
0.0
 10
101.9772379302349
 20
-129.5276665257778
 30
0.0
 10
101.9093695491754
 20
-129.4749565648535
 30
0.0
 10
101.771910239314
 20
-129.4749565648535
 30
0.0
 10
101.6533989546214
 20
-129.4749565648535
 30
0.0
 10
101.5224853261819
 20
-129.5328341690057
 30
0.0
 10
101.5224853261819
 20
-129.6902750326816
 30
0.0
 10
101.5224853261819
 20
-129.8990478190877
 30
0.0
 10
101.7529622141451
 20
-129.9055935005097
 30
0.0
 10
101.8694064415465
 20
-129.909038595995
 30
0.0
 10
101.8694064415465
 20
-129.909038595995
 30
0.0
 10
101.8694064415465
 20
-130.088872580325
 30
0.0
 10
101.8694064415465
 20
-130.088872580325
 30
0.0
 10
101.7422824181408
 20
-130.0819823893545
 30
0.0
 10
101.6303168148702
 20
-130.0737141601899
 30
0.0
 10
101.5118055301776
 20
-130.0092908746157
 30
0.0
 10
101.3509195710164
 20
-129.9210964301933
 30
0.0
 10
101.317157635261
 20
-129.771923795682
 30
0.0
 10
101.317157635261
 20
-129.6785617080318
 30
0.0
 10
101.317157635261
 20
-129.4563530492331
 30
0.0
 10
101.5011257341733
 20
-129.2902994468441
 30
0.0
 10
101.7739772966051
 20
-129.2902994468441
 30
0.0
 10
102.0027316368257
 20
-129.2902994468441
 30
0.0
 10
102.1019503868009
 20
-129.3836615344944
 30
0.0
 10
102.3282931601818
 20
-129.6310193903353
 30
0.0
  0
HATCH
  5
6F
330
6A
100
AcDbEntity
  8
_U+30EC_U+30A4_U+30E4_U+30FC 1
 62
     7
420
 16777215
100
AcDbHatch
 10
0.0
 20
0.0
 30
0.0
210
0.0
220
0.0
230
1.0
  2
SOLID
 70
     1
 71
     0
 91
        1
 92
        1
 93
        1
 72
     4
 94
        3
 73
     0
 74
     1
 95
       44
 96
       40
 40
0.0
 40
0.0
 40
0.0
 40
0.0
 40
1.0
 40
1.0
 40
1.0
 40
2.0
 40
2.0
 40
2.0
 40
3.0
 40
3.0
 40
3.0
 40
4.0
 40
4.0
 40
4.0
 40
5.0
 40
5.0
 40
5.0
 40
6.0
 40
6.0
 40
6.0
 40
7.0
 40
7.0
 40
7.0
 40
8.0
 40
8.0
 40
8.0
 40
9.0
 40
9.0
 40
9.0
 40
10.0
 40
10.0
 40
10.0
 40
11.0
 40
11.0
 40
11.0
 40
12.0
 40
12.0
 40
12.0
 40
13.0
 40
13.0
 40
13.0
 40
13.0
 10
102.3282931601818
 20
-129.6310193903353
 10
102.4871120620518
 20
-129.8056857314375
 10
102.5611816149847
 20
-129.8804443034674
 10
102.7048420967196
 20
-129.9193738824507
 10
102.7048420967196
 20
-129.9193738824507
 10
102.7048420967196
 20
-129.295467090072
 10
102.7048420967196
 20
-129.295467090072
 10
102.7048420967196
 20
-129.295467090072
 10
102.9101697876405
 20
-129.295467090072
 10
102.9101697876405
 20
-129.295467090072
 10
102.9101697876405
 20
-129.295467090072
 10
102.9101697876405
 20
-130.1195339301437
 10
102.9101697876405
 20
-130.1195339301437
 10
102.5525688762716
 20
-130.0940402235529
 10
102.4743652087564
 20
-130.0413302626285
 10
102.1760199397338
 20
-129.7326497071502
 10
101.9772379302349
 20
-129.5276665257778
 10
101.9093695491754
 20
-129.4749565648535
 10
101.771910239314
 20
-129.4749565648535
 10
101.6533989546214
 20
-129.4749565648535
 10
101.5224853261819
 20
-129.5328341690057
 10
101.5224853261819
 20
-129.6902750326816
 10
101.5224853261819
 20
-129.8990478190877
 10
101.7529622141451
 20
-129.9055935005097
 10
101.8694064415465
 20
-129.909038595995
 10
101.8694064415465
 20
-129.909038595995
 10
101.8694064415465
 20
-130.088872580325
 10
101.8694064415465
 20
-130.088872580325
 10
101.7422824181408
 20
-130.0819823893545
 10
101.6303168148702
 20
-130.0737141601899
 10
101.5118055301776
 20
-130.0092908746157
 10
101.3509195710164
 20
-129.9210964301933
 10
101.317157635261
 20
-129.771923795682
 10
101.317157635261
 20
-129.6785617080318
 10
101.317157635261
 20
-129.4563530492331
 10
101.5011257341733
 20
-129.2902994468441
 10
101.7739772966051
 20
-129.2902994468441
 10
102.0027316368257
 20
-129.2902994468441
 10
102.1019503868009
 20
-129.3836615344944
 10
102.3282931601818
 20
-129.6310193903353
 97
        0
 97
        0
 75
     2
 76
     1
 98
        0
  0
POLYLINE
  5
70
330
6A
100
AcDbEntity
  8
_U+30EC_U+30A4_U+30E4_U+30FC 1
370
     0
100
AcDb2dPolyline
 66
     1
 10
0.0
 20
0.0
 30
0.0
  0
VERTEX
  5
71
330
70
100
AcDbEntity
  8
_U+30EC_U+30A4_U+30E4_U+30FC 1
370
     0
100
AcDbVertex
100
AcDb2dVertex
 10
102.9101697876405
 20
-129.1166666343875
 30
0.0
  0
VERTEX
  5
72
330
70
100
AcDbEntity
  8
_U+30EC_U+30A4_U+30E4_U+30FC 1
370
     0
100
AcDbVertex
100
AcDb2dVertex
 10
102.6583333076688
 20
-129.1166666343875
 30
0.0
  0
VERTEX
  5
73
330
70
100
AcDbEntity
  8
_U+30EC_U+30A4_U+30E4_U+30FC 1
370
     0
100
AcDbVertex
100
AcDb2dVertex
 10
102.6583333076688
 20
-128.9151285485004
 30
0.0
  0
VERTEX
  5
74
330
70
100
AcDbEntity
  8
_U+30EC_U+30A4_U+30E4_U+30FC 1
370
     0
100
AcDbVertex
100
AcDb2dVertex
 10
102.9101697876405
 20
-128.9151285485004
 30
0.0
  0
VERTEX
  5
75
330
70
100
AcDbEntity
  8
_U+30EC_U+30A4_U+30E4_U+30FC 1
370
     0
100
AcDbVertex
100
AcDb2dVertex
 10
102.9101697876405
 20
-129.1166666343875
 30
0.0
  0
SEQEND
  5
76
330
70
100
AcDbEntity
  8
_U+30EC_U+30A4_U+30E4_U+30FC 1
370
     0
  0
HATCH
  5
77
330
6A
100
AcDbEntity
  8
_U+30EC_U+30A4_U+30E4_U+30FC 1
 62
     7
420
 16777215
100
AcDbHatch
 10
0.0
 20
0.0
 30
0.0
210
0.0
220
0.0
230
1.0
  2
SOLID
 70
     1
 71
     0
 91
        1
 92
        1
 93
        4
 72
     1
 10
102.9101697876405
 20
-129.1166666343875
 11
102.6583333076688
 21
-129.1166666343875
 72
     1
 10
102.6583333076688
 20
-129.1166666343875
 11
102.6583333076688
 21
-128.9151285485004
 72
     1
 10
102.6583333076688
 20
-128.9151285485004
 11
102.9101697876405
 21
-128.9151285485004
 72
     1
 10
102.9101697876405
 20
-128.9151285485004
 11
102.9101697876405
 21
-129.1166666343875
 97
        0
 75
     2
 76
     1
 98
        0
  0
SPLINE
  5
78
330
6A
100
AcDbEntity
  8
_U+30EC_U+30A4_U+30E4_U+30FC 1
370
     0
100
AcDbSpline
210
0.0
220
0.0
230
1.0
 70
    11
 71
     3
 72
    53
 73
    49
 74
     0
 42
0.0000000001
 43
0.0000000001
 12
1.0
 22
0.0
 32
0.0
 13
1.0
 23
0.0
 33
0.0
 40
0.0
 40
0.0
 40
0.0
 40
0.0
 40
1.0
 40
1.0
 40
1.0
 40
2.0
 40
2.0
 40
2.0
 40
3.0
 40
3.0
 40
3.0
 40
4.0
 40
4.0
 40
4.0
 40
5.0
 40
5.0
 40
5.0
 40
6.0
 40
6.0
 40
6.0
 40
7.0
 40
7.0
 40
7.0
 40
8.0
 40
8.0
 40
8.0
 40
9.0
 40
9.0
 40
9.0
 40
10.0
 40
10.0
 40
10.0
 40
11.0
 40
11.0
 40
11.0
 40
12.0
 40
12.0
 40
12.0
 40
13.0
 40
13.0
 40
13.0
 40
14.0
 40
14.0
 40
14.0
 40
15.0
 40
15.0
 40
15.0
 40
16.0
 40
16.0
 40
16.0
 40
16.0
 10
102.9608126912737
 20
-128.340658876335
 30
0.0
 10
102.9608126912737
 20
-128.4033596141665
 30
0.0
 10
102.943931723396
 20
-128.4846638676184
 30
0.0
 10
102.8805419664674
 20
-128.5663126306189
 30
0.0
 10
102.7706434204879
 20
-128.7051499786744
 30
0.0
 10
102.6393852824999
 20
-128.7220309465521
 30
0.0
 10
102.5315537938116
 20
-128.7375338762358
 30
0.0
 10
102.5315537938116
 20
-128.7375338762358
 30
0.0
 10
102.5315537938116
 20
-128.5594224396484
 30
0.0
 10
102.5315537938116
 20
-128.5594224396484
 30
0.0
 10
102.7303358033105
 20
-128.5153252174372
 30
0.0
 10
102.7599636244836
 20
-128.4136949006223
 30
0.0
 10
102.7599636244836
 20
-128.3389363285924
 30
0.0
 10
102.7599636244836
 20
-128.2269707253217
 30
0.0
 10
102.6604003649599
 20
-128.1050143451439
 30
0.0
 10
102.4278564197055
 20
-128.1050143451439
 30
0.0
 10
102.1718858251515
 20
-128.1050143451439
 30
0.0
 10
102.1019503868009
 20
-128.2490193364273
 30
0.0
 10
102.1019503868009
 20
-128.3458265195628
 30
0.0
 10
102.1019503868009
 20
-128.3713202261537
 30
0.0
 10
102.1019503868009
 20
-128.4846638676184
 30
0.0
 10
102.2311414674978
 20
-128.5559773441631
 30
0.0
 10
102.2311414674978
 20
-128.5559773441631
 30
0.0
 10
102.2121934423289
 20
-128.6968817495098
 30
0.0
 10
102.2121934423289
 20
-128.6968817495098
 30
0.0
 10
102.2121934423289
 20
-128.6968817495098
 30
0.0
 10
101.365733481603
 20
-128.6000745663743
 30
0.0
 10
101.365733481603
 20
-128.6000745663743
 30
0.0
 10
101.365733481603
 20
-128.6000745663743
 30
0.0
 10
101.365733481603
 20
-127.9761677739955
 30
0.0
 10
101.365733481603
 20
-127.9761677739955
 30
0.0
 10
101.365733481603
 20
-127.9761677739955
 30
0.0
 10
101.5603813765196
 20
-127.9761677739955
 30
0.0
 10
101.5603813765196
 20
-127.9761677739955
 30
0.0
 10
101.5603813765196
 20
-127.9761677739955
 30
0.0
 10
101.5603813765196
 20
-128.4695054474833
 30
0.0
 10
101.5603813765196
 20
-128.4695054474833
 30
0.0
 10
101.5603813765196
 20
-128.4695054474833
 30
0.0
 10
101.9834391021083
 20
-128.5222154084076
 30
0.0
 10
101.9834391021083
 20
-128.5222154084076
 30
0.0
 10
101.9496771663529
 20
-128.4729505429686
 30
0.0
 10
101.9093695491754
 20
-128.4068047096518
 30
0.0
 10
101.9093695491754
 20
-128.3117200742589
 30
0.0
 10
101.9093695491754
 20
-128.1084594406291
 30
0.0
 10
102.0957492149275
 20
-127.9182901698433
 30
0.0
 10
102.4089083945367
 20
-127.9182901698433
 30
0.0
 10
102.7262016887282
 20
-127.9182901698433
 30
0.0
 10
102.9608126912737
 20
-128.0981241541734
 30
0.0
 10
102.9608126912737
 20
-128.340658876335
 30
0.0
  0
HATCH
  5
79
330
6A
100
AcDbEntity
  8
_U+30EC_U+30A4_U+30E4_U+30FC 1
 62
     7
420
 16777215
100
AcDbHatch
 10
0.0
 20
0.0
 30
0.0
210
0.0
220
0.0
230
1.0
  2
SOLID
 70
     1
 71
     0
 91
        1
 92
        1
 93
        1
 72
     4
 94
        3
 73
     0
 74
     1
 95
       53
 96
       49
 40
0.0
 40
0.0
 40
0.0
 40
0.0
 40
1.0
 40
1.0
 40
1.0
 40
2.0
 40
2.0
 40
2.0
 40
3.0
 40
3.0
 40
3.0
 40
4.0
 40
4.0
 40
4.0
 40
5.0
 40
5.0
 40
5.0
 40
6.0
 40
6.0
 40
6.0
 40
7.0
 40
7.0
 40
7.0
 40
8.0
 40
8.0
 40
8.0
 40
9.0
 40
9.0
 40
9.0
 40
10.0
 40
10.0
 40
10.0
 40
11.0
 40
11.0
 40
11.0
 40
12.0
 40
12.0
 40
12.0
 40
13.0
 40
13.0
 40
13.0
 40
14.0
 40
14.0
 40
14.0
 40
15.0
 40
15.0
 40
15.0
 40
16.0
 40
16.0
 40
16.0
 40
16.0
 10
102.9608126912737
 20
-128.340658876335
 10
102.9608126912737
 20
-128.4033596141665
 10
102.943931723396
 20
-128.4846638676184
 10
102.8805419664674
 20
-128.5663126306189
 10
102.7706434204879
 20
-128.7051499786744
 10
102.6393852824999
 20
-128.7220309465521
 10
102.5315537938116
 20
-128.7375338762358
 10
102.5315537938116
 20
-128.7375338762358
 10
102.5315537938116
 20
-128.5594224396484
 10
102.5315537938116
 20
-128.5594224396484
 10
102.7303358033105
 20
-128.5153252174372
 10
102.7599636244836
 20
-128.4136949006223
 10
102.7599636244836
 20
-128.3389363285924
 10
102.7599636244836
 20
-128.2269707253217
 10
102.6604003649599
 20
-128.1050143451439
 10
102.4278564197055
 20
-128.1050143451439
 10
102.1718858251515
 20
-128.1050143451439
 10
102.1019503868009
 20
-128.2490193364273
 10
102.1019503868009
 20
-128.3458265195628
 10
102.1019503868009
 20
-128.3713202261537
 10
102.1019503868009
 20
-128.4846638676184
 10
102.2311414674978
 20
-128.5559773441631
 10
102.2311414674978
 20
-128.5559773441631
 10
102.2121934423289
 20
-128.6968817495098
 10
102.2121934423289
 20
-128.6968817495098
 10
102.2121934423289
 20
-128.6968817495098
 10
101.365733481603
 20
-128.6000745663743
 10
101.365733481603
 20
-128.6000745663743
 10
101.365733481603
 20
-128.6000745663743
 10
101.365733481603
 20
-127.9761677739955
 10
101.365733481603
 20
-127.9761677739955
 10
101.365733481603
 20
-127.9761677739955
 10
101.5603813765196
 20
-127.9761677739955
 10
101.5603813765196
 20
-127.9761677739955
 10
101.5603813765196
 20
-127.9761677739955
 10
101.5603813765196
 20
-128.4695054474833
 10
101.5603813765196
 20
-128.4695054474833
 10
101.5603813765196
 20
-128.4695054474833
 10
101.9834391021083
 20
-128.5222154084076
 10
101.9834391021083
 20
-128.5222154084076
 10
101.9496771663529
 20
-128.4729505429686
 10
101.9093695491754
 20
-128.4068047096518
 10
101.9093695491754
 20
-128.3117200742589
 10
101.9093695491754
 20
-128.1084594406291
 10
102.0957492149275
 20
-127.9182901698433
 10
102.4089083945367
 20
-127.9182901698433
 10
102.7262016887282
 20
-127.9182901698433
 10
102.9608126912737
 20
-128.0981241541734
 10
102.9608126912737
 20
-128.340658876335
 97
        0
 97
        0
 75
     2
 76
     1
 98
        0
  0
ENDBLK
  5
6D
330
6A
100
AcDbEntity
  8
0
100
AcDbBlockEnd
  0
BLOCK
  5
88
330
86
100
AcDbEntity
  8
0
100
AcDbBlockBegin
  2
block 4
 70
     0
 10
0.0
 20
0.0
 30
0.0
  3
block 4
  1

  0
SPLINE
  5
8A
330
86
100
AcDbEntity
  8
_U+30EC_U+30A4_U+30E4_U+30FC 1
370
     0
100
AcDbSpline
210
0.0
220
0.0
230
1.0
 70
    11
 71
     3
 72
    26
 73
    22
 74
     0
 42
0.0000000001
 43
0.0000000001
 12
1.0
 22
0.0
 32
0.0
 13
1.0
 23
0.0
 33
0.0
 40
0.0
 40
0.0
 40
0.0
 40
0.0
 40
1.0
 40
1.0
 40
1.0
 40
2.0
 40
2.0
 40
2.0
 40
3.0
 40
3.0
 40
3.0
 40
4.0
 40
4.0
 40
4.0
 40
5.0
 40
5.0
 40
5.0
 40
6.0
 40
6.0
 40
6.0
 40
7.0
 40
7.0
 40
7.0
 40
7.0
 10
95.91972653852007
 20
-122.166186492896
 30
0.0
 10
95.91972653852007
 20
-122.166186492896
 30
0.0
 10
95.68270396913488
 20
-122.166186492896
 30
0.0
 10
95.68270396913488
 20
-122.166186492896
 30
0.0
 10
95.70819767572573
 20
-121.8573336826433
 30
0.0
 10
95.9007785133512
 20
-121.3390190668875
 30
0.0
 10
96.30695527106215
 20
-120.8334513044271
 30
0.0
 10
96.30695527106215
 20
-120.8334513044271
 30
0.0
 10
95.4691080490494
 20
-120.8334513044271
 30
0.0
 10
95.4691080490494
 20
-120.8334513044271
 30
0.0
 10
95.4691080490494
 20
-120.8334513044271
 30
0.0
 10
95.4691080490494
 20
-120.6219224416327
 30
0.0
 10
95.4691080490494
 20
-120.6219224416327
 30
0.0
 10
95.4691080490494
 20
-120.6219224416327
 30
0.0
 10
96.54397784044734
 20
-120.6219224416327
 30
0.0
 10
96.54397784044734
 20
-120.6219224416327
 30
0.0
 10
96.54397784044734
 20
-120.6219224416327
 30
0.0
 10
96.54397784044734
 20
-120.8334513044271
 30
0.0
 10
96.54397784044734
 20
-120.8334513044271
 30
0.0
 10
96.22013886483386
 20
-121.1231838347366
 30
0.0
 10
95.95348847427552
 20
-121.7155680034253
 30
0.0
 10
95.91972653852007
 20
-122.166186492896
 30
0.0
  0
HATCH
  5
8B
330
86
100
AcDbEntity
  8
_U+30EC_U+30A4_U+30E4_U+30FC 1
 62
     7
420
 16777215
100
AcDbHatch
 10
0.0
 20
0.0
 30
0.0
210
0.0
220
0.0
230
1.0
  2
SOLID
 70
     1
 71
     0
 91
        1
 92
        1
 93
        1
 72
     4
 94
        3
 73
     0
 74
     1
 95
       26
 96
       22
 40
0.0
 40
0.0
 40
0.0
 40
0.0
 40
1.0
 40
1.0
 40
1.0
 40
2.0
 40
2.0
 40
2.0
 40
3.0
 40
3.0
 40
3.0
 40
4.0
 40
4.0
 40
4.0
 40
5.0
 40
5.0
 40
5.0
 40
6.0
 40
6.0
 40
6.0
 40
7.0
 40
7.0
 40
7.0
 40
7.0
 10
95.91972653852007
 20
-122.166186492896
 10
95.91972653852007
 20
-122.166186492896
 10
95.68270396913488
 20
-122.166186492896
 10
95.68270396913488
 20
-122.166186492896
 10
95.70819767572573
 20
-121.8573336826433
 10
95.9007785133512
 20
-121.3390190668875
 10
96.30695527106215
 20
-120.8334513044271
 10
96.30695527106215
 20
-120.8334513044271
 10
95.4691080490494
 20
-120.8334513044271
 10
95.4691080490494
 20
-120.8334513044271
 10
95.4691080490494
 20
-120.8334513044271
 10
95.4691080490494
 20
-120.6219224416327
 10
95.4691080490494
 20
-120.6219224416327
 10
95.4691080490494
 20
-120.6219224416327
 10
96.54397784044734
 20
-120.6219224416327
 10
96.54397784044734
 20
-120.6219224416327
 10
96.54397784044734
 20
-120.6219224416327
 10
96.54397784044734
 20
-120.8334513044271
 10
96.54397784044734
 20
-120.8334513044271
 10
96.22013886483386
 20
-121.1231838347366
 10
95.95348847427552
 20
-121.7155680034253
 10
95.91972653852007
 20
-122.166186492896
 97
        0
 97
        0
 75
     2
 76
     1
 98
        0
  0
ENDBLK
  5
89
330
86
100
AcDbEntity
  8
0
100
AcDbBlockEnd
  0
BLOCK
  5
CB
330
C9
100
AcDbEntity
  8
0
100
AcDbBlockBegin
  2
block 5
 70
     0
 10
0.0
 20
0.0
 30
0.0
  3
block 5
  1

  0
SPLINE
  5
CD
330
C9
100
AcDbEntity
  8
_U+30EC_U+30A4_U+30E4_U+30FC 1
370
     0
100
AcDbSpline
210
0.0
220
0.0
230
1.0
 70
    11
 71
     3
 72
    29
 73
    25
 74
     0
 42
0.0000000001
 43
0.0000000001
 12
1.0
 22
0.0
 32
0.0
 13
1.0
 23
0.0
 33
0.0
 40
0.0
 40
0.0
 40
0.0
 40
0.0
 40
1.0
 40
1.0
 40
1.0
 40
2.0
 40
2.0
 40
2.0
 40
3.0
 40
3.0
 40
3.0
 40
4.0
 40
4.0
 40
4.0
 40
5.0
 40
5.0
 40
5.0
 40
6.0
 40
6.0
 40
6.0
 40
7.0
 40
7.0
 40
7.0
 40
8.0
 40
8.0
 40
8.0
 40
8.0
 10
85.50795896299802
 20
-122.2223415493055
 30
0.0
 10
85.24148082721393
 20
-122.2223415493055
 30
0.0
 10
84.98757728995102
 20
-122.0847099846698
 30
0.0
 10
84.98757728995102
 20
-121.735721812014
 30
0.0
 10
84.98757728995102
 20
-121.4797512174599
 30
0.0
 10
85.12934296916906
 20
-121.3844943272928
 30
0.0
 10
85.23510740056622
 20
-121.3231716276553
 30
0.0
 10
85.11022268922592
 20
-121.263915985309
 30
0.0
 10
85.0340860790019
 20
-121.149711069973
 30
0.0
 10
85.0340860790019
 20
-120.9889973655861
 30
0.0
 10
85.0340860790019
 20
-120.7139064910889
 30
0.0
 10
85.23304034327508
 20
-120.5785142385186
 30
0.0
 10
85.50795896299802
 20
-120.5785142385186
 30
0.0
 10
85.79149032143408
 20
-120.5785142385186
 30
0.0
 10
85.98183184699413
 20
-120.7223469750277
 30
0.0
 10
85.98183184699413
 20
-120.9889973655861
 30
0.0
 10
85.98183184699413
 20
-121.149711069973
 30
0.0
 10
85.90362817947896
 20
-121.263915985309
 30
0.0
 10
85.77874346813866
 20
-121.3231716276553
 30
0.0
 10
85.8676269316581
 20
-121.3739867860628
 30
0.0
 10
86.02627357875386
 20
-121.4692436762299
 30
0.0
 10
86.02627357875386
 20
-121.7314154426574
 30
0.0
 10
86.02627357875386
 20
-122.1058973219041
 30
0.0
 10
85.74704858967435
 20
-122.2223415493055
 30
0.0
 10
85.50795896299802
 20
-122.2223415493055
 30
0.0
  0
SPLINE
  5
CE
330
C9
100
AcDbEntity
  8
_U+30EC_U+30A4_U+30E4_U+30FC 1
370
     0
100
AcDbSpline
210
0.0
220
0.0
230
1.0
 70
    11
 71
     3
 72
    17
 73
    13
 74
     0
 42
0.0000000001
 43
0.0000000001
 12
1.0
 22
0.0
 32
0.0
 13
1.0
 23
0.0
 33
0.0
 40
0.0
 40
0.0
 40
0.0
 40
0.0
 40
1.0
 40
1.0
 40
1.0
 40
2.0
 40
2.0
 40
2.0
 40
3.0
 40
3.0
 40
3.0
 40
4.0
 40
4.0
 40
4.0
 40
4.0
 10
85.50795896299802
 20
-121.4311753711179
 30
0.0
 10
85.36412622648884
 20
-121.4311753711179
 30
0.0
 10
85.2118530060408
 20
-121.5178195225719
 30
0.0
 10
85.2118530060408
 20
-121.7209079014274
 30
0.0
 10
85.2118530060408
 20
-121.926063337574
 30
0.0
 10
85.33880477467224
 20
-122.0276936543889
 30
0.0
 10
85.50795896299802
 20
-122.0276936543889
 30
0.0
 10
85.69416637397576
 20
-122.0276936543889
 30
0.0
 10
85.8042371747295
 20
-121.905048255114
 30
0.0
 10
85.8042371747295
 20
-121.7272813280751
 30
0.0
 10
85.8042371747295
 20
-121.5050726692765
 30
0.0
 10
85.64128415827719
 20
-121.4311753711179
 30
0.0
 10
85.50795896299802
 20
-121.4311753711179
 30
0.0
  0
SPLINE
  5
CF
330
C9
100
AcDbEntity
  8
_U+30EC_U+30A4_U+30E4_U+30FC 1
370
     0
100
AcDbSpline
210
0.0
220
0.0
230
1.0
 70
    11
 71
     3
 72
    17
 73
    13
 74
     0
 42
0.0000000001
 43
0.0000000001
 12
1.0
 22
0.0
 32
0.0
 13
1.0
 23
0.0
 33
0.0
 40
0.0
 40
0.0
 40
0.0
 40
0.0
 40
1.0
 40
1.0
 40
1.0
 40
2.0
 40
2.0
 40
2.0
 40
3.0
 40
3.0
 40
3.0
 40
4.0
 40
4.0
 40
4.0
 40
4.0
 10
85.50795896299802
 20
-120.771095076144
 30
0.0
 10
85.34293888925454
 20
-120.771095076144
 30
0.0
 10
85.25836179509166
 20
-120.8661797115369
 30
0.0
 10
85.25836179509166
 20
-121.0015719641073
 30
0.0
 10
85.25836179509166
 20
-121.1243896181564
 30
0.0
 10
85.33019203595913
 20
-121.242900902849
 30
0.0
 10
85.50795896299802
 20
-121.242900902849
 30
0.0
 10
85.6857258900369
 20
-121.242900902849
 30
0.0
 10
85.75755613090436
 20
-121.1243896181564
 30
0.0
 10
85.75755613090436
 20
-121.0015719641073
 30
0.0
 10
85.75755613090436
 20
-120.8661797115369
 30
0.0
 10
85.67091197945034
 20
-120.771095076144
 30
0.0
 10
85.50795896299802
 20
-120.771095076144
 30
0.0
  0
HATCH
  5
D0
330
C9
100
AcDbEntity
  8
_U+30EC_U+30A4_U+30E4_U+30FC 1
 62
     7
420
 16777215
100
AcDbHatch
 10
0.0
 20
0.0
 30
0.0
210
0.0
220
0.0
230
1.0
  2
SOLID
 70
     1
 71
     0
 91
        3
 92
        1
 93
        1
 72
     4
 94
        3
 73
     0
 74
     1
 95
       29
 96
       25
 40
0.0
 40
0.0
 40
0.0
 40
0.0
 40
1.0
 40
1.0
 40
1.0
 40
2.0
 40
2.0
 40
2.0
 40
3.0
 40
3.0
 40
3.0
 40
4.0
 40
4.0
 40
4.0
 40
5.0
 40
5.0
 40
5.0
 40
6.0
 40
6.0
 40
6.0
 40
7.0
 40
7.0
 40
7.0
 40
8.0
 40
8.0
 40
8.0
 40
8.0
 10
85.50795896299802
 20
-122.2223415493055
 10
85.24148082721393
 20
-122.2223415493055
 10
84.98757728995102
 20
-122.0847099846698
 10
84.98757728995102
 20
-121.735721812014
 10
84.98757728995102
 20
-121.4797512174599
 10
85.12934296916906
 20
-121.3844943272928
 10
85.23510740056622
 20
-121.3231716276553
 10
85.11022268922592
 20
-121.263915985309
 10
85.0340860790019
 20
-121.149711069973
 10
85.0340860790019
 20
-120.9889973655861
 10
85.0340860790019
 20
-120.7139064910889
 10
85.23304034327508
 20
-120.5785142385186
 10
85.50795896299802
 20
-120.5785142385186
 10
85.79149032143408
 20
-120.5785142385186
 10
85.98183184699413
 20
-120.7223469750277
 10
85.98183184699413
 20
-120.9889973655861
 10
85.98183184699413
 20
-121.149711069973
 10
85.90362817947896
 20
-121.263915985309
 10
85.77874346813866
 20
-121.3231716276553
 10
85.8676269316581
 20
-121.3739867860628
 10
86.02627357875386
 20
-121.4692436762299
 10
86.02627357875386
 20
-121.7314154426574
 10
86.02627357875386
 20
-122.1058973219041
 10
85.74704858967435
 20
-122.2223415493055
 10
85.50795896299802
 20
-122.2223415493055
 97
        0
 97
        0
 92
        1
 93
        1
 72
     4
 94
        3
 73
     0
 74
     1
 95
       17
 96
       13
 40
0.0
 40
0.0
 40
0.0
 40
0.0
 40
1.0
 40
1.0
 40
1.0
 40
2.0
 40
2.0
 40
2.0
 40
3.0
 40
3.0
 40
3.0
 40
4.0
 40
4.0
 40
4.0
 40
4.0
 10
85.50795896299802
 20
-121.4311753711179
 10
85.36412622648884
 20
-121.4311753711179
 10
85.2118530060408
 20
-121.5178195225719
 10
85.2118530060408
 20
-121.7209079014274
 10
85.2118530060408
 20
-121.926063337574
 10
85.33880477467224
 20
-122.0276936543889
 10
85.50795896299802
 20
-122.0276936543889
 10
85.69416637397576
 20
-122.0276936543889
 10
85.8042371747295
 20
-121.905048255114
 10
85.8042371747295
 20
-121.7272813280751
 10
85.8042371747295
 20
-121.5050726692765
 10
85.64128415827719
 20
-121.4311753711179
 10
85.50795896299802
 20
-121.4311753711179
 97
        0
 97
        0
 92
        1
 93
        1
 72
     4
 94
        3
 73
     0
 74
     1
 95
       17
 96
       13
 40
0.0
 40
0.0
 40
0.0
 40
0.0
 40
1.0
 40
1.0
 40
1.0
 40
2.0
 40
2.0
 40
2.0
 40
3.0
 40
3.0
 40
3.0
 40
4.0
 40
4.0
 40
4.0
 40
4.0
 10
85.50795896299802
 20
-120.771095076144
 10
85.34293888925454
 20
-120.771095076144
 10
85.25836179509166
 20
-120.8661797115369
 10
85.25836179509166
 20
-121.0015719641073
 10
85.25836179509166
 20
-121.1243896181564
 10
85.33019203595913
 20
-121.242900902849
 10
85.50795896299802
 20
-121.242900902849
 10
85.6857258900369
 20
-121.242900902849
 10
85.75755613090436
 20
-121.1243896181564
 10
85.75755613090436
 20
-121.0015719641073
 10
85.75755613090436
 20
-120.8661797115369
 10
85.67091197945034
 20
-120.771095076144
 10
85.50795896299802
 20
-120.771095076144
 97
        0
 97
        0
 75
     2
 76
     1
 98
        0
  0
ENDBLK
  5
CC
330
C9
100
AcDbEntity
  8
0
100
AcDbBlockEnd
  0
BLOCK
  5
DF
330
DD
100
AcDbEntity
  8
0
100
AcDbBlockBegin
  2
block 6
 70
     0
 10
0.0
 20
0.0
 30
0.0
  3
block 6
  1

  0
SPLINE
  5
E1
330
DD
100
AcDbEntity
  8
_U+30EC_U+30A4_U+30E4_U+30FC 1
370
     0
100
AcDbSpline
210
0.0
220
0.0
230
1.0
 70
    11
 71
     3
 72
    26
 73
    22
 74
     0
 42
0.0000000001
 43
0.0000000001
 12
1.0
 22
0.0
 32
0.0
 13
1.0
 23
0.0
 33
0.0
 40
0.0
 40
0.0
 40
0.0
 40
0.0
 40
1.0
 40
1.0
 40
1.0
 40
2.0
 40
2.0
 40
2.0
 40
3.0
 40
3.0
 40
3.0
 40
4.0
 40
4.0
 40
4.0
 40
5.0
 40
5.0
 40
5.0
 40
6.0
 40
6.0
 40
6.0
 40
7.0
 40
7.0
 40
7.0
 40
7.0
 10
89.79296872755177
 20
-134.6656819324794
 30
0.0
 10
89.79296872755177
 20
-134.6656819324794
 30
0.0
 10
89.79296872755177
 20
-133.5615288294568
 30
0.0
 10
89.79296872755177
 20
-133.5615288294568
 30
0.0
 10
89.79296872755177
 20
-133.5615288294568
 30
0.0
 10
89.46292858006483
 20
-133.5615288294568
 30
0.0
 10
89.46292858006483
 20
-133.5615288294568
 30
0.0
 10
89.46292858006483
 20
-133.5615288294568
 30
0.0
 10
89.46292858006483
 20
-133.4133897235911
 30
0.0
 10
89.46292858006483
 20
-133.4133897235911
 30
0.0
 10
89.79503578484291
 20
-133.3985758130045
 30
0.0
 10
89.84154457389378
 20
-133.2356227965522
 30
0.0
 10
89.87117239506694
 20
-133.1212456264419
 30
0.0
 10
89.87117239506694
 20
-133.1212456264419
 30
0.0
 10
90.01724444364153
 20
-133.1212456264419
 30
0.0
 10
90.01724444364153
 20
-133.1212456264419
 30
0.0
 10
90.01724444364153
 20
-133.1212456264419
 30
0.0
 10
90.01724444364153
 20
-134.6656819324794
 30
0.0
 10
90.01724444364153
 20
-134.6656819324794
 30
0.0
 10
90.01724444364153
 20
-134.6656819324794
 30
0.0
 10
89.79296872755177
 20
-134.6656819324794
 30
0.0
 10
89.79296872755177
 20
-134.6656819324794
 30
0.0
  0
HATCH
  5
E2
330
DD
100
AcDbEntity
  8
_U+30EC_U+30A4_U+30E4_U+30FC 1
 62
     7
420
 16777215
100
AcDbHatch
 10
0.0
 20
0.0
 30
0.0
210
0.0
220
0.0
230
1.0
  2
SOLID
 70
     1
 71
     0
 91
        1
 92
        1
 93
        1
 72
     4
 94
        3
 73
     0
 74
     1
 95
       26
 96
       22
 40
0.0
 40
0.0
 40
0.0
 40
0.0
 40
1.0
 40
1.0
 40
1.0
 40
2.0
 40
2.0
 40
2.0
 40
3.0
 40
3.0
 40
3.0
 40
4.0
 40
4.0
 40
4.0
 40
5.0
 40
5.0
 40
5.0
 40
6.0
 40
6.0
 40
6.0
 40
7.0
 40
7.0
 40
7.0
 40
7.0
 10
89.79296872755177
 20
-134.6656819324794
 10
89.79296872755177
 20
-134.6656819324794
 10
89.79296872755177
 20
-133.5615288294568
 10
89.79296872755177
 20
-133.5615288294568
 10
89.79296872755177
 20
-133.5615288294568
 10
89.46292858006483
 20
-133.5615288294568
 10
89.46292858006483
 20
-133.5615288294568
 10
89.46292858006483
 20
-133.5615288294568
 10
89.46292858006483
 20
-133.4133897235911
 10
89.46292858006483
 20
-133.4133897235911
 10
89.79503578484291
 20
-133.3985758130045
 10
89.84154457389378
 20
-133.2356227965522
 10
89.87117239506694
 20
-133.1212456264419
 10
89.87117239506694
 20
-133.1212456264419
 10
90.01724444364153
 20
-133.1212456264419
 10
90.01724444364153
 20
-133.1212456264419
 10
90.01724444364153
 20
-133.1212456264419
 10
90.01724444364153
 20
-134.6656819324794
 10
90.01724444364153
 20
-134.6656819324794
 10
90.01724444364153
 20
-134.6656819324794
 10
89.79296872755177
 20
-134.6656819324794
 10
89.79296872755177
 20
-134.6656819324794
 97
        0
 97
        0
 75
     2
 76
     1
 98
        0
  0
SPLINE
  5
E3
330
DD
100
AcDbEntity
  8
_U+30EC_U+30A4_U+30E4_U+30FC 1
370
     0
100
AcDbSpline
210
0.0
220
0.0
230
1.0
 70
    11
 71
     3
 72
    29
 73
    25
 74
     0
 42
0.0000000001
 43
0.0000000001
 12
1.0
 22
0.0
 32
0.0
 13
1.0
 23
0.0
 33
0.0
 40
0.0
 40
0.0
 40
0.0
 40
0.0
 40
1.0
 40
1.0
 40
1.0
 40
2.0
 40
2.0
 40
2.0
 40
3.0
 40
3.0
 40
3.0
 40
4.0
 40
4.0
 40
4.0
 40
5.0
 40
5.0
 40
5.0
 40
6.0
 40
6.0
 40
6.0
 40
7.0
 40
7.0
 40
7.0
 40
8.0
 40
8.0
 40
8.0
 40
8.0
 10
91.01838919165513
 20
-134.7163248361126
 30
0.0
 10
90.75173880109679
 20
-134.7163248361126
 30
0.0
 10
90.4981797733824
 20
-134.5788655262511
 30
0.0
 10
90.4981797733824
 20
-134.2298773535953
 30
0.0
 10
90.4981797733824
 20
-133.9739067590413
 30
0.0
 10
90.63977319782617
 20
-133.8788221236483
 30
0.0
 10
90.74553762922334
 20
-133.8174994240109
 30
0.0
 10
90.62082517265729
 20
-133.7582437816646
 30
0.0
 10
90.54468856243328
 20
-133.6438666115543
 30
0.0
 10
90.54468856243328
 20
-133.4829806523931
 30
0.0
 10
90.54468856243328
 20
-133.2080620326702
 30
0.0
 10
90.74347057193219
 20
-133.0726697800999
 30
0.0
 10
91.01838919165513
 20
-133.0726697800999
 30
0.0
 10
91.3019205500912
 20
-133.0726697800999
 30
0.0
 10
91.49243433042551
 20
-133.2166747713833
 30
0.0
 10
91.49243433042551
 20
-133.4829806523931
 30
0.0
 10
91.49243433042551
 20
-133.6438666115543
 30
0.0
 10
91.41388615336182
 20
-133.7582437816646
 30
0.0
 10
91.28917369679577
 20
-133.8174994240109
 30
0.0
 10
91.37805716031521
 20
-133.8681423276441
 30
0.0
 10
91.53687606218523
 20
-133.963226963037
 30
0.0
 10
91.53687606218523
 20
-134.225743239013
 30
0.0
 10
91.53687606218523
 20
-134.6002251182597
 30
0.0
 10
91.25747881833146
 20
-134.7163248361126
 30
0.0
 10
91.01838919165513
 20
-134.7163248361126
 30
0.0
  0
SPLINE
  5
E4
330
DD
100
AcDbEntity
  8
_U+30EC_U+30A4_U+30E4_U+30FC 1
370
     0
100
AcDbSpline
210
0.0
220
0.0
230
1.0
 70
    11
 71
     3
 72
    17
 73
    13
 74
     0
 42
0.0000000001
 43
0.0000000001
 12
1.0
 22
0.0
 32
0.0
 13
1.0
 23
0.0
 33
0.0
 40
0.0
 40
0.0
 40
0.0
 40
0.0
 40
1.0
 40
1.0
 40
1.0
 40
2.0
 40
2.0
 40
2.0
 40
3.0
 40
3.0
 40
3.0
 40
4.0
 40
4.0
 40
4.0
 40
4.0
 10
91.01838919165513
 20
-133.9253309126992
 30
0.0
 10
90.8747287099202
 20
-133.9253309126992
 30
0.0
 10
90.72211097992364
 20
-134.0121473189275
 30
0.0
 10
90.72211097992364
 20
-134.2150634430087
 30
0.0
 10
90.72211097992364
 20
-134.4203911339296
 30
0.0
 10
90.84923500332937
 20
-134.521676941196
 30
0.0
 10
91.01838919165513
 20
-134.521676941196
 30
0.0
 10
91.20442434785862
 20
-134.521676941196
 30
0.0
 10
91.31466740338662
 20
-134.3990315419211
 30
0.0
 10
91.31466740338662
 20
-134.2212646148822
 30
0.0
 10
91.31466740338662
 20
-133.9994004656321
 30
0.0
 10
91.1517143869343
 20
-133.9253309126992
 30
0.0
 10
91.01838919165513
 20
-133.9253309126992
 30
0.0
  0
SPLINE
  5
E5
330
DD
100
AcDbEntity
  8
_U+30EC_U+30A4_U+30E4_U+30FC 1
370
     0
100
AcDbSpline
210
0.0
220
0.0
230
1.0
 70
    11
 71
     3
 72
    17
 73
    13
 74
     0
 42
0.0000000001
 43
0.0000000001
 12
1.0
 22
0.0
 32
0.0
 13
1.0
 23
0.0
 33
0.0
 40
0.0
 40
0.0
 40
0.0
 40
0.0
 40
1.0
 40
1.0
 40
1.0
 40
2.0
 40
2.0
 40
2.0
 40
3.0
 40
3.0
 40
3.0
 40
4.0
 40
4.0
 40
4.0
 40
4.0
 10
91.01838919165513
 20
-133.2652506177254
 30
0.0
 10
90.85336911791167
 20
-133.2652506177254
 30
0.0
 10
90.76896427852304
 20
-133.3603352531183
 30
0.0
 10
90.76896427852304
 20
-133.4957275056886
 30
0.0
 10
90.76896427852304
 20
-133.6183729049635
 30
0.0
 10
90.84062226461624
 20
-133.7368841896561
 30
0.0
 10
91.01838919165513
 20
-133.7368841896561
 30
0.0
 10
91.19615611869402
 20
-133.7368841896561
 30
0.0
 10
91.26815861433575
 20
-133.6183729049635
 30
0.0
 10
91.26815861433575
 20
-133.4957275056886
 30
0.0
 10
91.26815861433575
 20
-133.3603352531183
 30
0.0
 10
91.18134220810745
 20
-133.2652506177254
 30
0.0
 10
91.01838919165513
 20
-133.2652506177254
 30
0.0
  0
HATCH
  5
E6
330
DD
100
AcDbEntity
  8
_U+30EC_U+30A4_U+30E4_U+30FC 1
 62
     7
420
 16777215
100
AcDbHatch
 10
0.0
 20
0.0
 30
0.0
210
0.0
220
0.0
230
1.0
  2
SOLID
 70
     1
 71
     0
 91
        3
 92
        1
 93
        1
 72
     4
 94
        3
 73
     0
 74
     1
 95
       29
 96
       25
 40
0.0
 40
0.0
 40
0.0
 40
0.0
 40
1.0
 40
1.0
 40
1.0
 40
2.0
 40
2.0
 40
2.0
 40
3.0
 40
3.0
 40
3.0
 40
4.0
 40
4.0
 40
4.0
 40
5.0
 40
5.0
 40
5.0
 40
6.0
 40
6.0
 40
6.0
 40
7.0
 40
7.0
 40
7.0
 40
8.0
 40
8.0
 40
8.0
 40
8.0
 10
91.01838919165513
 20
-134.7163248361126
 10
90.75173880109679
 20
-134.7163248361126
 10
90.4981797733824
 20
-134.5788655262511
 10
90.4981797733824
 20
-134.2298773535953
 10
90.4981797733824
 20
-133.9739067590413
 10
90.63977319782617
 20
-133.8788221236483
 10
90.74553762922334
 20
-133.8174994240109
 10
90.62082517265729
 20
-133.7582437816646
 10
90.54468856243328
 20
-133.6438666115543
 10
90.54468856243328
 20
-133.4829806523931
 10
90.54468856243328
 20
-133.2080620326702
 10
90.74347057193219
 20
-133.0726697800999
 10
91.01838919165513
 20
-133.0726697800999
 10
91.3019205500912
 20
-133.0726697800999
 10
91.49243433042551
 20
-133.2166747713833
 10
91.49243433042551
 20
-133.4829806523931
 10
91.49243433042551
 20
-133.6438666115543
 10
91.41388615336182
 20
-133.7582437816646
 10
91.28917369679577
 20
-133.8174994240109
 10
91.37805716031521
 20
-133.8681423276441
 10
91.53687606218523
 20
-133.963226963037
 10
91.53687606218523
 20
-134.225743239013
 10
91.53687606218523
 20
-134.6002251182597
 10
91.25747881833146
 20
-134.7163248361126
 10
91.01838919165513
 20
-134.7163248361126
 97
        0
 97
        0
 92
        1
 93
        1
 72
     4
 94
        3
 73
     0
 74
     1
 95
       17
 96
       13
 40
0.0
 40
0.0
 40
0.0
 40
0.0
 40
1.0
 40
1.0
 40
1.0
 40
2.0
 40
2.0
 40
2.0
 40
3.0
 40
3.0
 40
3.0
 40
4.0
 40
4.0
 40
4.0
 40
4.0
 10
91.01838919165513
 20
-133.9253309126992
 10
90.8747287099202
 20
-133.9253309126992
 10
90.72211097992364
 20
-134.0121473189275
 10
90.72211097992364
 20
-134.2150634430087
 10
90.72211097992364
 20
-134.4203911339296
 10
90.84923500332937
 20
-134.521676941196
 10
91.01838919165513
 20
-134.521676941196
 10
91.20442434785862
 20
-134.521676941196
 10
91.31466740338662
 20
-134.3990315419211
 10
91.31466740338662
 20
-134.2212646148822
 10
91.31466740338662
 20
-133.9994004656321
 10
91.1517143869343
 20
-133.9253309126992
 10
91.01838919165513
 20
-133.9253309126992
 97
        0
 97
        0
 92
        1
 93
        1
 72
     4
 94
        3
 73
     0
 74
     1
 95
       17
 96
       13
 40
0.0
 40
0.0
 40
0.0
 40
0.0
 40
1.0
 40
1.0
 40
1.0
 40
2.0
 40
2.0
 40
2.0
 40
3.0
 40
3.0
 40
3.0
 40
4.0
 40
4.0
 40
4.0
 40
4.0
 10
91.01838919165513
 20
-133.2652506177254
 10
90.85336911791167
 20
-133.2652506177254
 10
90.76896427852304
 20
-133.3603352531183
 10
90.76896427852304
 20
-133.4957275056886
 10
90.76896427852304
 20
-133.6183729049635
 10
90.84062226461624
 20
-133.7368841896561
 10
91.01838919165513
 20
-133.7368841896561
 10
91.19615611869402
 20
-133.7368841896561
 10
91.26815861433575
 20
-133.6183729049635
 10
91.26815861433575
 20
-133.4957275056886
 10
91.26815861433575
 20
-133.3603352531183
 10
91.18134220810745
 20
-133.2652506177254
 10
91.01838919165513
 20
-133.2652506177254
 97
        0
 97
        0
 75
     2
 76
     1
 98
        0
  0
ENDBLK
  5
E0
330
DD
100
AcDbEntity
  8
0
100
AcDbBlockEnd
  0
BLOCK
  5
109
330
107
100
AcDbEntity
  8
0
100
AcDbBlockBegin
  2
block 7
 70
     0
 10
0.0
 20
0.0
 30
0.0
  3
block 7
  1

  0
SPLINE
  5
10B
330
107
100
AcDbEntity
  8
_U+30EC_U+30A4_U+30E4_U+30FC 1
370
     0
100
AcDbSpline
210
0.0
220
0.0
230
1.0
 70
    11
 71
     3
 72
    26
 73
    22
 74
     0
 42
0.0000000001
 43
0.0000000001
 12
1.0
 22
0.0
 32
0.0
 13
1.0
 23
0.0
 33
0.0
 40
0.0
 40
0.0
 40
0.0
 40
0.0
 40
1.0
 40
1.0
 40
1.0
 40
2.0
 40
2.0
 40
2.0
 40
3.0
 40
3.0
 40
3.0
 40
4.0
 40
4.0
 40
4.0
 40
5.0
 40
5.0
 40
5.0
 40
6.0
 40
6.0
 40
6.0
 40
7.0
 40
7.0
 40
7.0
 40
7.0
 10
78.4599826192739
 20
-128.4953436636227
 30
0.0
 10
78.4599826192739
 20
-128.4953436636227
 30
0.0
 10
78.4599826192739
 20
-127.3910183058259
 30
0.0
 10
78.4599826192739
 20
-127.3910183058259
 30
0.0
 10
78.4599826192739
 20
-127.3910183058259
 30
0.0
 10
78.12994247178696
 20
-127.3910183058259
 30
0.0
 10
78.12994247178696
 20
-127.3910183058259
 30
0.0
 10
78.12994247178696
 20
-127.3910183058259
 30
0.0
 10
78.12994247178696
 20
-127.2428791999601
 30
0.0
 10
78.12994247178696
 20
-127.2428791999601
 30
0.0
 10
78.46204967656504
 20
-127.2282375441478
 30
0.0
 10
78.50855846561592
 20
-127.0652845276955
 30
0.0
 10
78.53818628678907
 20
-126.9510796123595
 30
0.0
 10
78.53818628678907
 20
-126.9510796123595
 30
0.0
 10
78.68425833536367
 20
-126.9510796123595
 30
0.0
 10
78.68425833536367
 20
-126.9510796123595
 30
0.0
 10
78.68425833536367
 20
-126.9510796123595
 30
0.0
 10
78.68425833536367
 20
-128.4953436636227
 30
0.0
 10
78.68425833536367
 20
-128.4953436636227
 30
0.0
 10
78.68425833536367
 20
-128.4953436636227
 30
0.0
 10
78.4599826192739
 20
-128.4953436636227
 30
0.0
 10
78.4599826192739
 20
-128.4953436636227
 30
0.0
  0
HATCH
  5
10C
330
107
100
AcDbEntity
  8
_U+30EC_U+30A4_U+30E4_U+30FC 1
 62
     7
420
 16777215
100
AcDbHatch
 10
0.0
 20
0.0
 30
0.0
210
0.0
220
0.0
230
1.0
  2
SOLID
 70
     1
 71
     0
 91
        1
 92
        1
 93
        1
 72
     4
 94
        3
 73
     0
 74
     1
 95
       26
 96
       22
 40
0.0
 40
0.0
 40
0.0
 40
0.0
 40
1.0
 40
1.0
 40
1.0
 40
2.0
 40
2.0
 40
2.0
 40
3.0
 40
3.0
 40
3.0
 40
4.0
 40
4.0
 40
4.0
 40
5.0
 40
5.0
 40
5.0
 40
6.0
 40
6.0
 40
6.0
 40
7.0
 40
7.0
 40
7.0
 40
7.0
 10
78.4599826192739
 20
-128.4953436636227
 10
78.4599826192739
 20
-128.4953436636227
 10
78.4599826192739
 20
-127.3910183058259
 10
78.4599826192739
 20
-127.3910183058259
 10
78.4599826192739
 20
-127.3910183058259
 10
78.12994247178696
 20
-127.3910183058259
 10
78.12994247178696
 20
-127.3910183058259
 10
78.12994247178696
 20
-127.3910183058259
 10
78.12994247178696
 20
-127.2428791999601
 10
78.12994247178696
 20
-127.2428791999601
 10
78.46204967656504
 20
-127.2282375441478
 10
78.50855846561592
 20
-127.0652845276955
 10
78.53818628678907
 20
-126.9510796123595
 10
78.53818628678907
 20
-126.9510796123595
 10
78.68425833536367
 20
-126.9510796123595
 10
78.68425833536367
 20
-126.9510796123595
 10
78.68425833536367
 20
-126.9510796123595
 10
78.68425833536367
 20
-128.4953436636227
 10
78.68425833536367
 20
-128.4953436636227
 10
78.68425833536367
 20
-128.4953436636227
 10
78.4599826192739
 20
-128.4953436636227
 10
78.4599826192739
 20
-128.4953436636227
 97
        0
 97
        0
 75
     2
 76
     1
 98
        0
  0
ENDBLK
  5
10A
330
107
100
AcDbEntity
  8
0
100
AcDbBlockEnd
  0
ENDSEC
  0
SECTION
  2
ENTITIES
  0
SPLINE
  5
41
330
1F
100
AcDbEntity
  8
_U+30EC_U+30A4_U+30E4_U+30FC 1
 62
     7
420
 16777215
370
     9
100
AcDbSpline
210
0.0
220
0.0
230
1.0
 70
    11
 71
     3
 72
    17
 73
    13
 74
     0
 42
0.0000000001
 43
0.0000000001
 12
1.0
 22
0.0
 32
0.0
 13
1.0
 23
0.0
 33
0.0
 40
0.0
 40
0.0
 40
0.0
 40
0.0
 40
1.0
 40
1.0
 40
1.0
 40
2.0
 40
2.0
 40
2.0
 40
3.0
 40
3.0
 40
3.0
 40
4.0
 40
4.0
 40
4.0
 40
4.0
 10
103.6064209678911
 20
-130.5625616340258
 30
0.0
 10
103.6064209678911
 20
-130.5074577451509
 30
0.0
 10
103.5616181912563
 20
-130.4626549673842
 30
0.0
 10
103.5065143037733
 20
-130.4626549673842
 30
0.0
 10
103.4513777519148
 20
-130.4626549673842
 30
0.0
 10
103.4066076396554
 20
-130.5074577451509
 30
0.0
 10
103.4066076396554
 20
-130.5625616340258
 30
0.0
 10
103.4066076396554
 20
-130.6177008006789
 30
0.0
 10
103.4513777519148
 20
-130.6624683006674
 30
0.0
 10
103.5065143037733
 20
-130.6624683006674
 30
0.0
 10
103.5616181912563
 20
-130.6624683006674
 30
0.0
 10
103.6064209678911
 20
-130.6177008006789
 30
0.0
 10
103.6064209678911
 20
-130.5625616340258
 30
0.0
  0
SPLINE
  5
42
330
1F
100
AcDbEntity
  8
_U+30EC_U+30A4_U+30E4_U+30FC 1
 62
     7
420
 16777215
370
     9
100
AcDbSpline
210
0.0
220
0.0
230
1.0
 70
    11
 71
     3
 72
    17
 73
    13
 74
     0
 42
0.0000000001
 43
0.0000000001
 12
1.0
 22
0.0
 32
0.0
 13
1.0
 23
0.0
 33
0.0
 40
0.0
 40
0.0
 40
0.0
 40
0.0
 40
1.0
 40
1.0
 40
1.0
 40
2.0
 40
2.0
 40
2.0
 40
3.0
 40
3.0
 40
3.0
 40
4.0
 40
4.0
 40
4.0
 40
4.0
 10
103.6064209678911
 20
-131.2626138560734
 30
0.0
 10
103.6064209678911
 20
-131.2075099671979
 30
0.0
 10
103.5616181912563
 20
-131.1627071894318
 30
0.0
 10
103.5065143037733
 20
-131.1627071894318
 30
0.0
 10
103.4513777519148
 20
-131.1627071894318
 30
0.0
 10
103.4066076396554
 20
-131.2075099671979
 30
0.0
 10
103.4066076396554
 20
-131.2626138560734
 30
0.0
 10
103.4066076396554
 20
-131.3177530227259
 30
0.0
 10
103.4513777519148
 20
-131.3625205227151
 30
0.0
 10
103.5065143037733
 20
-131.3625205227151
 30
0.0
 10
103.5616181912563
 20
-131.3625205227151
 30
0.0
 10
103.6064209678911
 20
-131.3177530227259
 30
0.0
 10
103.6064209678911
 20
-131.2626138560734
 30
0.0
  0
SPLINE
  5
43
330
1F
100
AcDbEntity
  8
_U+30EC_U+30A4_U+30E4_U+30FC 1
 62
     7
420
 16777215
370
     9
100
AcDbSpline
210
0.0
220
0.0
230
1.0
 70
    11
 71
     3
 72
    17
 73
    13
 74
     0
 42
0.0000000001
 43
0.0000000001
 12
1.0
 22
0.0
 32
0.0
 13
1.0
 23
0.0
 33
0.0
 40
0.0
 40
0.0
 40
0.0
 40
0.0
 40
1.0
 40
1.0
 40
1.0
 40
2.0
 40
2.0
 40
2.0
 40
3.0
 40
3.0
 40
3.0
 40
4.0
 40
4.0
 40
4.0
 40
4.0
 10
99.60630912549802
 20
-122.7621863581983
 30
0.0
 10
99.60630912549802
 20
-122.7070824693234
 30
0.0
 10
99.5618944044089
 20
-122.6622796915566
 30
0.0
 10
99.50640246138018
 20
-122.6622796915566
 30
0.0
 10
99.4512985738971
 20
-122.6622796915566
 30
0.0
 10
99.40649579726234
 20
-122.7070824693234
 30
0.0
 10
99.40649579726234
 20
-122.7621863581983
 30
0.0
 10
99.40649579726234
 20
-122.8173255248513
 30
0.0
 10
99.4512985738971
 20
-122.8620930248399
 30
0.0
 10
99.50640246138018
 20
-122.8620930248399
 30
0.0
 10
99.5618944044089
 20
-122.8620930248399
 30
0.0
 10
99.60630912549802
 20
-122.8173255248513
 30
0.0
 10
99.60630912549802
 20
-122.7621863581983
 30
0.0
  0
SPLINE
  5
44
330
1F
100
AcDbEntity
  8
_U+30EC_U+30A4_U+30E4_U+30FC 1
 62
     7
420
 16777215
370
     9
100
AcDbSpline
210
0.0
220
0.0
230
1.0
 70
    11
 71
     3
 72
    17
 73
    13
 74
     0
 42
0.0000000001
 43
0.0000000001
 12
1.0
 22
0.0
 32
0.0
 13
1.0
 23
0.0
 33
0.0
 40
0.0
 40
0.0
 40
0.0
 40
0.0
 40
1.0
 40
1.0
 40
1.0
 40
2.0
 40
2.0
 40
2.0
 40
3.0
 40
3.0
 40
3.0
 40
4.0
 40
4.0
 40
4.0
 40
4.0
 10
92.6065631929653
 20
-122.7621863581983
 30
0.0
 10
92.6065631929653
 20
-122.7070824693234
 30
0.0
 10
92.56179569410742
 20
-122.6622796915566
 30
0.0
 10
92.50633902885556
 20
-122.6622796915566
 30
0.0
 10
92.45119986359562
 20
-122.6622796915566
 30
0.0
 10
92.40643236473773
 20
-122.7070824693234
 30
0.0
 10
92.40643236473773
 20
-122.7621863581983
 30
0.0
 10
92.40643236473773
 20
-122.8173255248513
 30
0.0
 10
92.45119986359562
 20
-122.8620930248399
 30
0.0
 10
92.50633902885556
 20
-122.8620930248399
 30
0.0
 10
92.56179569410742
 20
-122.8620930248399
 30
0.0
 10
92.6065631929653
 20
-122.8173255248513
 30
0.0
 10
92.6065631929653
 20
-122.7621863581983
 30
0.0
  0
POLYLINE
  5
45
330
1F
100
AcDbEntity
  8
_U+30EC_U+30A4_U+30E4_U+30FC 1
 62
     7
420
 16777215
370
     9
100
AcDb2dPolyline
 66
     1
 10
0.0
 20
0.0
 30
0.0
  0
VERTEX
  5
46
330
45
100
AcDbEntity
  8
_U+30EC_U+30A4_U+30E4_U+30FC 1
 62
     7
420
 16777215
370
     9
100
AcDbVertex
100
AcDb2dVertex
 10
103.5065143037733
 20
-131.2626138560734
 30
0.0
  0
VERTEX
  5
47
330
45
100
AcDbEntity
  8
_U+30EC_U+30A4_U+30E4_U+30FC 1
 62
     7
420
 16777215
370
     9
100
AcDbVertex
100
AcDb2dVertex
 10
103.5065143037733
 20
-136.5205196880923
 30
0.0
  0
SEQEND
  5
48
330
45
100
AcDbEntity
  8
_U+30EC_U+30A4_U+30E4_U+30FC 1
 62
     7
420
 16777215
370
     9
  0
POLYLINE
  5
49
330
1F
100
AcDbEntity
  8
_U+30EC_U+30A4_U+30E4_U+30FC 1
 62
     7
420
 16777215
370
     9
100
AcDb2dPolyline
 66
     1
 10
0.0
 20
0.0
 30
0.0
  0
VERTEX
  5
4A
330
49
100
AcDbEntity
  8
_U+30EC_U+30A4_U+30E4_U+30FC 1
 62
     7
420
 16777215
370
     9
100
AcDbVertex
100
AcDb2dVertex
 10
102.0464729521331
 20
-131.2626138560734
 30
0.0
  0
VERTEX
  5
4B
330
49
100
AcDbEntity
  8
_U+30EC_U+30A4_U+30E4_U+30FC 1
 62
     7
420
 16777215
370
     9
100
AcDbVertex
100
AcDb2dVertex
 10
104.5062865004892
 20
-131.2626138560734
 30
0.0
  0
SEQEND
  5
4C
330
49
100
AcDbEntity
  8
_U+30EC_U+30A4_U+30E4_U+30FC 1
 62
     7
420
 16777215
370
     9
  0
POLYLINE
  5
4D
330
1F
100
AcDbEntity
  8
_U+30EC_U+30A4_U+30E4_U+30FC 1
 62
     7
420
 16777215
370
     9
100
AcDb2dPolyline
 66
     1
 10
0.0
 20
0.0
 30
0.0
  0
VERTEX
  5
4E
330
4D
100
AcDbEntity
  8
_U+30EC_U+30A4_U+30E4_U+30FC 1
 62
     7
420
 16777215
370
     9
100
AcDbVertex
100
AcDb2dVertex
 10
101.7915583078853
 20
-130.5625616340258
 30
0.0
  0
VERTEX
  5
4F
330
4D
100
AcDbEntity
  8
_U+30EC_U+30A4_U+30E4_U+30FC 1
 62
     7
420
 16777215
370
     9
100
AcDbVertex
100
AcDb2dVertex
 10
104.5062865004892
 20
-130.5625616340258
 30
0.0
  0
SEQEND
  5
50
330
4D
100
AcDbEntity
  8
_U+30EC_U+30A4_U+30E4_U+30FC 1
 62
     7
420
 16777215
370
     9
  0
INSERT
  5
52
330
1F
100
AcDbEntity
  8
_U+30EC_U+30A4_U+30E4_U+30FC 1
100
AcDbBlockReference
  2
block 2
 10
0.0
 20
0.0
 30
0.0
  0
POLYLINE
  5
62
330
1F
100
AcDbEntity
  8
_U+30EC_U+30A4_U+30E4_U+30FC 1
 62
     7
420
 16777215
370
     9
100
AcDb2dPolyline
 66
     1
 10
0.0
 20
0.0
 30
0.0
  0
VERTEX
  5
63
330
62
100
AcDbEntity
  8
_U+30EC_U+30A4_U+30E4_U+30FC 1
 62
     7
420
 16777215
370
     9
100
AcDbVertex
100
AcDb2dVertex
 10
95.04640951960852
 20
-130.2621713563235
 30
0.0
  0
VERTEX
  5
64
330
62
100
AcDbEntity
  8
_U+30EC_U+30A4_U+30E4_U+30FC 1
 62
     7
420
 16777215
370
     9
100
AcDbVertex
100
AcDb2dVertex
 10
104.5062865004892
 20
-130.2621713563235
 30
0.0
  0
SEQEND
  5
65
330
62
100
AcDbEntity
  8
_U+30EC_U+30A4_U+30E4_U+30FC 1
 62
     7
420
 16777215
370
     9
  0
POLYLINE
  5
66
330
1F
100
AcDbEntity
  8
_U+30EC_U+30A4_U+30E4_U+30FC 1
 62
     7
420
 16777215
370
     9
100
AcDb2dPolyline
 66
     1
 10
0.0
 20
0.0
 30
0.0
  0
VERTEX
  5
67
330
66
100
AcDbEntity
  8
_U+30EC_U+30A4_U+30E4_U+30FC 1
 62
     7
420
 16777215
370
     9
100
AcDbVertex
100
AcDb2dVertex
 10
92.41055986463243
 20
-127.7680677458358
 30
0.0
  0
VERTEX
  5
68
330
66
100
AcDbEntity
  8
_U+30EC_U+30A4_U+30E4_U+30FC 1
 62
     7
420
 16777215
370
     9
100
AcDbVertex
100
AcDb2dVertex
 10
104.5062865004892
 20
-127.7680677458358
 30
0.0
  0
SEQEND
  5
69
330
66
100
AcDbEntity
  8
_U+30EC_U+30A4_U+30E4_U+30FC 1
 62
     7
420
 16777215
370
     9
  0
INSERT
  5
6B
330
1F
100
AcDbEntity
  8
_U+30EC_U+30A4_U+30E4_U+30FC 1
100
AcDbBlockReference
  2
block 3
 10
0.0
 20
0.0
 30
0.0
  0
POLYLINE
  5
7A
330
1F
100
AcDbEntity
  8
_U+30EC_U+30A4_U+30E4_U+30FC 1
 62
     7
420
 16777215
370
     9
100
AcDb2dPolyline
 66
     1
 10
0.0
 20
0.0
 30
0.0
  0
VERTEX
  5
7B
330
7A
100
AcDbEntity
  8
_U+30EC_U+30A4_U+30E4_U+30FC 1
 62
     7
420
 16777215
370
     9
100
AcDbVertex
100
AcDb2dVertex
 10
99.50640246138018
 20
-122.7621863581983
 30
0.0
  0
VERTEX
  5
7C
330
7A
100
AcDbEntity
  8
_U+30EC_U+30A4_U+30E4_U+30FC 1
 62
     7
420
 16777215
370
     9
100
AcDbVertex
100
AcDb2dVertex
 10
92.50633902885556
 20
-122.7621863581983
 30
0.0
  0
SEQEND
  5
7D
330
7A
100
AcDbEntity
  8
_U+30EC_U+30A4_U+30E4_U+30FC 1
 62
     7
420
 16777215
370
     9
  0
POLYLINE
  5
7E
330
1F
100
AcDbEntity
  8
_U+30EC_U+30A4_U+30E4_U+30FC 1
 62
     7
420
 16777215
370
     9
100
AcDb2dPolyline
 66
     1
 10
0.0
 20
0.0
 30
0.0
  0
VERTEX
  5
7F
330
7E
100
AcDbEntity
  8
_U+30EC_U+30A4_U+30E4_U+30FC 1
 62
     7
420
 16777215
370
     9
100
AcDbVertex
100
AcDb2dVertex
 10
99.50640246138018
 20
-129.3006402454529
 30
0.0
  0
VERTEX
  5
80
330
7E
100
AcDbEntity
  8
_U+30EC_U+30A4_U+30E4_U+30FC 1
 62
     7
420
 16777215
370
     9
100
AcDbVertex
100
AcDb2dVertex
 10
99.50640246138018
 20
-121.7624141362261
 30
0.0
  0
SEQEND
  5
81
330
7E
100
AcDbEntity
  8
_U+30EC_U+30A4_U+30E4_U+30FC 1
 62
     7
420
 16777215
370
     9
  0
POLYLINE
  5
82
330
1F
100
AcDbEntity
  8
_U+30EC_U+30A4_U+30E4_U+30FC 1
 62
     7
420
 16777215
370
     9
100
AcDb2dPolyline
 66
     1
 10
0.0
 20
0.0
 30
0.0
  0
VERTEX
  5
83
330
82
100
AcDbEntity
  8
_U+30EC_U+30A4_U+30E4_U+30FC 1
 62
     7
420
 16777215
370
     9
100
AcDbVertex
100
AcDb2dVertex
 10
92.50633902885556
 20
-128.4626166345509
 30
0.0
  0
VERTEX
  5
84
330
82
100
AcDbEntity
  8
_U+30EC_U+30A4_U+30E4_U+30FC 1
 62
     7
420
 16777215
370
     9
100
AcDbVertex
100
AcDb2dVertex
 10
92.50633902885556
 20
-121.7624141362261
 30
0.0
  0
SEQEND
  5
85
330
82
100
AcDbEntity
  8
_U+30EC_U+30A4_U+30E4_U+30FC 1
 62
     7
420
 16777215
370
     9
  0
INSERT
  5
87
330
1F
100
AcDbEntity
  8
_U+30EC_U+30A4_U+30E4_U+30FC 1
100
AcDbBlockReference
  2
block 4
 10
0.0
 20
0.0
 30
0.0
  0
POLYLINE
  5
8C
330
1F
100
AcDbEntity
  8
_U+30EC_U+30A4_U+30E4_U+30FC 1
 62
     7
420
 16777215
370
    25
100
AcDb2dPolyline
 66
     1
 10
0.0
 20
0.0
 30
0.0
  0
VERTEX
  5
8D
330
8C
100
AcDbEntity
  8
_U+30EC_U+30A4_U+30E4_U+30FC 1
 62
     7
420
 16777215
370
    25
100
AcDbVertex
100
AcDb2dVertex
 10
81.50648331295685
 20
-126.8423788571784
 30
0.0
  0
VERTEX
  5
8E
330
8C
100
AcDbEntity
  8
_U+30EC_U+30A4_U+30E4_U+30FC 1
 62
     7
420
 16777215
370
    25
100
AcDbVertex
100
AcDb2dVertex
 10
81.50648331295685
 20
-131.2626138560734
 30
0.0
  0
SEQEND
  5
8F
330
8C
100
AcDbEntity
  8
_U+30EC_U+30A4_U+30E4_U+30FC 1
 62
     7
420
 16777215
370
    25
  0
POLYLINE
  5
90
330
1F
100
AcDbEntity
  8
_U+30EC_U+30A4_U+30E4_U+30FC 1
 62
     7
420
 16777215
370
    25
100
AcDb2dPolyline
 66
     1
 10
0.0
 20
0.0
 30
0.0
  0
VERTEX
  5
91
330
90
100
AcDbEntity
  8
_U+30EC_U+30A4_U+30E4_U+30FC 1
 62
     7
420
 16777215
370
    25
100
AcDbVertex
100
AcDb2dVertex
 10
82.50660831270683
 20
-130.2621713563235
 30
0.0
  0
VERTEX
  5
92
330
90
100
AcDbEntity
  8
_U+30EC_U+30A4_U+30E4_U+30FC 1
 62
     7
420
 16777215
370
    25
100
AcDbVertex
100
AcDb2dVertex
 10
92.50633902885556
 20
-130.2621713563235
 30
0.0
  0
SEQEND
  5
93
330
90
100
AcDbEntity
  8
_U+30EC_U+30A4_U+30E4_U+30FC 1
 62
     7
420
 16777215
370
    25
  0
POLYLINE
  5
94
330
1F
100
AcDbEntity
  8
_U+30EC_U+30A4_U+30E4_U+30FC 1
 62
     7
420
 16777215
370
    25
100
AcDb2dPolyline
 66
     1
 10
0.0
 20
0.0
 30
0.0
  0
VERTEX
  5
95
330
94
100
AcDbEntity
  8
_U+30EC_U+30A4_U+30E4_U+30FC 1
 62
     7
420
 16777215
370
    25
100
AcDbVertex
100
AcDb2dVertex
 10
82.50660831270683
 20
-127.7680677458358
 30
0.0
  0
VERTEX
  5
96
330
94
100
AcDbEntity
  8
_U+30EC_U+30A4_U+30E4_U+30FC 1
 62
     7
420
 16777215
370
    25
100
AcDbVertex
100
AcDb2dVertex
 10
89.50635216094716
 20
-127.7680677458358
 30
0.0
  0
SEQEND
  5
97
330
94
100
AcDbEntity
  8
_U+30EC_U+30A4_U+30E4_U+30FC 1
 62
     7
420
 16777215
370
    25
  0
POLYLINE
  5
98
330
1F
100
AcDbEntity
  8
_U+30EC_U+30A4_U+30E4_U+30FC 1
 62
     7
420
 16777215
370
    25
100
AcDb2dPolyline
 66
     1
 10
0.0
 20
0.0
 30
0.0
  0
VERTEX
  5
99
330
98
100
AcDbEntity
  8
_U+30EC_U+30A4_U+30E4_U+30FC 1
 62
     7
420
 16777215
370
    25
100
AcDbVertex
100
AcDb2dVertex
 10
81.50648331295685
 20
-126.7683308016414
 30
0.0
  0
VERTEX
  5
9A
330
98
100
AcDbEntity
  8
_U+30EC_U+30A4_U+30E4_U+30FC 1
 62
     7
420
 16777215
370
    25
100
AcDbVertex
100
AcDb2dVertex
 10
89.14217967023798
 20
-126.7683308016414
 30
0.0
  0
SEQEND
  5
9B
330
98
100
AcDbEntity
  8
_U+30EC_U+30A4_U+30E4_U+30FC 1
 62
     7
420
 16777215
370
    25
  0
POLYLINE
  5
9C
330
1F
100
AcDbEntity
  8
_U+30EC_U+30A4_U+30E4_U+30FC 1
 62
     7
420
 16777215
370
    25
100
AcDb2dPolyline
 66
     1
 10
0.0
 20
0.0
 30
0.0
  0
VERTEX
  5
9D
330
9C
100
AcDbEntity
  8
_U+30EC_U+30A4_U+30E4_U+30FC 1
 62
     7
420
 16777215
370
    25
100
AcDbVertex
100
AcDb2dVertex
 10
81.50648331295685
 20
-131.2626138560734
 30
0.0
  0
VERTEX
  5
9E
330
9C
100
AcDbEntity
  8
_U+30EC_U+30A4_U+30E4_U+30FC 1
 62
     7
420
 16777215
370
    25
100
AcDbVertex
100
AcDb2dVertex
 10
99.50640246138018
 20
-131.2626138560734
 30
0.0
  0
SEQEND
  5
9F
330
9C
100
AcDbEntity
  8
_U+30EC_U+30A4_U+30E4_U+30FC 1
 62
     7
420
 16777215
370
    25
  0
POLYLINE
  5
A0
330
1F
100
AcDbEntity
  8
_U+30EC_U+30A4_U+30E4_U+30FC 1
 62
     7
420
 16777215
370
    25
100
AcDb2dPolyline
 66
     1
 10
0.0
 20
0.0
 30
0.0
  0
VERTEX
  5
A1
330
A0
100
AcDbEntity
  8
_U+30EC_U+30A4_U+30E4_U+30FC 1
 62
     7
420
 16777215
370
    25
100
AcDbVertex
100
AcDb2dVertex
 10
82.50660831270683
 20
-127.8421510791506
 30
0.0
  0
VERTEX
  5
A2
330
A0
100
AcDbEntity
  8
_U+30EC_U+30A4_U+30E4_U+30FC 1
 62
     7
420
 16777215
370
    25
100
AcDbVertex
100
AcDb2dVertex
 10
82.50660831270683
 20
-130.2621713563235
 30
0.0
  0
SEQEND
  5
A3
330
A0
100
AcDbEntity
  8
_U+30EC_U+30A4_U+30E4_U+30FC 1
 62
     7
420
 16777215
370
    25
  0
POLYLINE
  5
A4
330
1F
100
AcDbEntity
  8
_U+30EC_U+30A4_U+30E4_U+30FC 1
 62
     7
420
 16777215
370
    25
100
AcDb2dPolyline
 66
     1
 10
0.0
 20
0.0
 30
0.0
  0
VERTEX
  5
A5
330
A4
100
AcDbEntity
  8
_U+30EC_U+30A4_U+30E4_U+30FC 1
 62
     7
420
 16777215
370
    25
100
AcDbVertex
100
AcDb2dVertex
 10
92.80637652120097
 20
-130.5625616340258
 30
0.0
  0
VERTEX
  5
A6
330
A4
100
AcDbEntity
  8
_U+30EC_U+30A4_U+30E4_U+30FC 1
 62
     7
420
 16777215
370
    25
100
AcDbVertex
100
AcDb2dVertex
 10
99.25183802343021
 20
-130.5625616340258
 30
0.0
  0
SEQEND
  5
A7
330
A4
100
AcDbEntity
  8
_U+30EC_U+30A4_U+30E4_U+30FC 1
 62
     7
420
 16777215
370
    25
  0
POLYLINE
  5
A8
330
1F
100
AcDbEntity
  8
_U+30EC_U+30A4_U+30E4_U+30FC 1
 62
     7
420
 16777215
370
    25
100
AcDb2dPolyline
 66
     1
 10
0.0
 20
0.0
 30
0.0
  0
VERTEX
  5
A9
330
A8
100
AcDbEntity
  8
_U+30EC_U+30A4_U+30E4_U+30FC 1
 62
     7
420
 16777215
370
    25
100
AcDbVertex
100
AcDb2dVertex
 10
89.14217967023798
 20
-126.7683308016414
 30
0.0
  0
VERTEX
  5
AA
330
A8
100
AcDbEntity
  8
_U+30EC_U+30A4_U+30E4_U+30FC 1
 62
     7
420
 16777215
370
    25
100
AcDbVertex
100
AcDb2dVertex
 10
89.50635216094716
 20
-127.7680677458358
 30
0.0
  0
SEQEND
  5
AB
330
A8
100
AcDbEntity
  8
_U+30EC_U+30A4_U+30E4_U+30FC 1
 62
     7
420
 16777215
370
    25
  0
POLYLINE
  5
AC
330
1F
100
AcDbEntity
  8
_U+30EC_U+30A4_U+30E4_U+30FC 1
 62
     7
420
 16777215
370
    25
100
AcDb2dPolyline
 66
     1
 10
0.0
 20
0.0
 30
0.0
  0
VERTEX
  5
AD
330
AC
100
AcDbEntity
  8
_U+30EC_U+30A4_U+30E4_U+30FC 1
 62
     7
420
 16777215
370
    25
100
AcDbVertex
100
AcDb2dVertex
 10
99.25183802343021
 20
-130.5625616340258
 30
0.0
  0
VERTEX
  5
AE
330
AC
100
AcDbEntity
  8
_U+30EC_U+30A4_U+30E4_U+30FC 1
 62
     7
420
 16777215
370
    25
100
AcDbVertex
100
AcDb2dVertex
 10
99.50640246138018
 20
-131.2626138560734
 30
0.0
  0
SEQEND
  5
AF
330
AC
100
AcDbEntity
  8
_U+30EC_U+30A4_U+30E4_U+30FC 1
 62
     7
420
 16777215
370
    25
  0
POLYLINE
  5
B0
330
1F
100
AcDbEntity
  8
_U+30EC_U+30A4_U+30E4_U+30FC 1
 62
     7
420
 16777215
370
    25
100
AcDb2dPolyline
 66
     1
 10
0.0
 20
0.0
 30
0.0
  0
VERTEX
  5
B1
330
B0
100
AcDbEntity
  8
_U+30EC_U+30A4_U+30E4_U+30FC 1
 62
     7
420
 16777215
370
    25
100
AcDbVertex
100
AcDb2dVertex
 10
92.50633902885556
 20
-130.2621713563235
 30
0.0
  0
VERTEX
  5
B2
330
B0
100
AcDbEntity
  8
_U+30EC_U+30A4_U+30E4_U+30FC 1
 62
     7
420
 16777215
370
    25
100
AcDbVertex
100
AcDb2dVertex
 10
92.80637652120097
 20
-130.5625616340258
 30
0.0
  0
SEQEND
  5
B3
330
B0
100
AcDbEntity
  8
_U+30EC_U+30A4_U+30E4_U+30FC 1
 62
     7
420
 16777215
370
    25
  0
SPLINE
  5
B4
330
1F
100
AcDbEntity
  8
_U+30EC_U+30A4_U+30E4_U+30FC 1
 62
     7
420
 16777215
370
     9
100
AcDbSpline
210
0.0
220
0.0
230
1.0
 70
    11
 71
     3
 72
    17
 73
    13
 74
     0
 42
0.0000000001
 43
0.0000000001
 12
1.0
 22
0.0
 32
0.0
 13
1.0
 23
0.0
 33
0.0
 40
0.0
 40
0.0
 40
0.0
 40
0.0
 40
1.0
 40
1.0
 40
1.0
 40
2.0
 40
2.0
 40
2.0
 40
3.0
 40
3.0
 40
3.0
 40
4.0
 40
4.0
 40
4.0
 40
4.0
 10
81.60674069581637
 20
-129.0925366343935
 30
0.0
 10
81.60674069581637
 20
-129.0374327455186
 30
0.0
 10
81.5619379191816
 20
-128.9926299677519
 30
0.0
 10
81.50648331295685
 20
-128.9926299677519
 30
0.0
 10
81.45102458867791
 20
-128.9926299677519
 30
0.0
 10
81.40622181204314
 20
-129.0374327455186
 30
0.0
 10
81.40622181204314
 20
-129.0925366343935
 30
0.0
 10
81.40622181204314
 20
-129.1476758010466
 30
0.0
 10
81.45102458867791
 20
-129.1924433010351
 30
0.0
 10
81.50648331295685
 20
-129.1924433010351
 30
0.0
 10
81.5619379191816
 20
-129.1924433010351
 30
0.0
 10
81.60674069581637
 20
-129.1476758010466
 30
0.0
 10
81.60674069581637
 20
-129.0925366343935
 30
0.0
  0
SPLINE
  5
B5
330
1F
100
AcDbEntity
  8
_U+30EC_U+30A4_U+30E4_U+30FC 1
 62
     7
420
 16777215
370
     9
100
AcDbSpline
210
0.0
220
0.0
230
1.0
 70
    11
 71
     3
 72
    17
 73
    13
 74
     0
 42
0.0000000001
 43
0.0000000001
 12
1.0
 22
0.0
 32
0.0
 13
1.0
 23
0.0
 33
0.0
 40
0.0
 40
0.0
 40
0.0
 40
0.0
 40
1.0
 40
1.0
 40
1.0
 40
2.0
 40
2.0
 40
2.0
 40
3.0
 40
3.0
 40
3.0
 40
4.0
 40
4.0
 40
4.0
 40
4.0
 10
82.60651289253228
 20
-129.0925366343935
 30
0.0
 10
82.60651289253228
 20
-129.0374327455186
 30
0.0
 10
82.56171011589751
 20
-128.9926299677519
 30
0.0
 10
82.50660831270683
 20
-128.9926299677519
 30
0.0
 10
82.4514670631545
 20
-128.9926299677519
 30
0.0
 10
82.40669956429662
 20
-129.0374327455186
 30
0.0
 10
82.40669956429662
 20
-129.0925366343935
 30
0.0
 10
82.40669956429662
 20
-129.1476758010466
 30
0.0
 10
82.4514670631545
 20
-129.1924433010351
 30
0.0
 10
82.50660831270683
 20
-129.1924433010351
 30
0.0
 10
82.56171011589751
 20
-129.1924433010351
 30
0.0
 10
82.60651289253228
 20
-129.1476758010466
 30
0.0
 10
82.60651289253228
 20
-129.0925366343935
 30
0.0
  0
SPLINE
  5
B6
330
1F
100
AcDbEntity
  8
_U+30EC_U+30A4_U+30E4_U+30FC 1
 62
     7
420
 16777215
370
     9
100
AcDbSpline
210
0.0
220
0.0
230
1.0
 70
    11
 71
     3
 72
    17
 73
    13
 74
     0
 42
0.0000000001
 43
0.0000000001
 12
1.0
 22
0.0
 32
0.0
 13
1.0
 23
0.0
 33
0.0
 40
0.0
 40
0.0
 40
0.0
 40
0.0
 40
1.0
 40
1.0
 40
1.0
 40
2.0
 40
2.0
 40
2.0
 40
3.0
 40
3.0
 40
3.0
 40
4.0
 40
4.0
 40
4.0
 40
4.0
 10
81.60674069581637
 20
-122.7685716359745
 30
0.0
 10
81.60674069581637
 20
-122.7127621915441
 30
0.0
 10
81.5619379191816
 20
-122.6686649693329
 30
0.0
 10
81.50648331295685
 20
-122.6686649693329
 30
0.0
 10
81.45102458867791
 20
-122.6686649693329
 30
0.0
 10
81.40622181204314
 20
-122.7127621915441
 30
0.0
 10
81.40622181204314
 20
-122.7685716359745
 30
0.0
 10
81.40622181204314
 20
-122.8236755248498
 30
0.0
 10
81.45102458867791
 20
-122.8684783026162
 30
0.0
 10
81.50648331295685
 20
-122.8684783026162
 30
0.0
 10
81.5619379191816
 20
-122.8684783026162
 30
0.0
 10
81.60674069581637
 20
-122.8236755248498
 30
0.0
 10
81.60674069581637
 20
-122.7685716359745
 30
0.0
  0
SPLINE
  5
B7
330
1F
100
AcDbEntity
  8
_U+30EC_U+30A4_U+30E4_U+30FC 1
 62
     7
420
 16777215
370
     9
100
AcDbSpline
210
0.0
220
0.0
230
1.0
 70
    11
 71
     3
 72
    17
 73
    13
 74
     0
 42
0.0000000001
 43
0.0000000001
 12
1.0
 22
0.0
 32
0.0
 13
1.0
 23
0.0
 33
0.0
 40
0.0
 40
0.0
 40
0.0
 40
0.0
 40
1.0
 40
1.0
 40
1.0
 40
2.0
 40
2.0
 40
2.0
 40
3.0
 40
3.0
 40
3.0
 40
4.0
 40
4.0
 40
4.0
 40
4.0
 10
89.60626108870969
 20
-122.7685716359745
 30
0.0
 10
89.60626108870969
 20
-122.7127621915441
 30
0.0
 10
89.56145831094297
 20
-122.6686649693329
 30
0.0
 10
89.50635216094716
 20
-122.6686649693329
 30
0.0
 10
89.45121299568721
 20
-122.6686649693329
 30
0.0
 10
89.40641021905245
 20
-122.7127621915441
 30
0.0
 10
89.40641021905245
 20
-122.7685716359745
 30
0.0
 10
89.40641021905245
 20
-122.8236755248498
 30
0.0
 10
89.45121299568721
 20
-122.8684783026162
 30
0.0
 10
89.50635216094716
 20
-122.8684783026162
 30
0.0
 10
89.56145831094297
 20
-122.8684783026162
 30
0.0
 10
89.60626108870969
 20
-122.8236755248498
 30
0.0
 10
89.60626108870969
 20
-122.7685716359745
 30
0.0
  0
SPLINE
  5
B8
330
1F
100
AcDbEntity
  8
_U+30EC_U+30A4_U+30E4_U+30FC 1
 62
     7
420
 16777215
370
     9
100
AcDbSpline
210
0.0
220
0.0
230
1.0
 70
    11
 71
     3
 72
    17
 73
    13
 74
     0
 42
0.0000000001
 43
0.0000000001
 12
1.0
 22
0.0
 32
0.0
 13
1.0
 23
0.0
 33
0.0
 40
0.0
 40
0.0
 40
0.0
 40
0.0
 40
1.0
 40
1.0
 40
1.0
 40
2.0
 40
2.0
 40
2.0
 40
3.0
 40
3.0
 40
3.0
 40
4.0
 40
4.0
 40
4.0
 40
4.0
 10
103.6064209678911
 20
-127.7680677458358
 30
0.0
 10
103.6064209678911
 20
-127.7129638569606
 30
0.0
 10
103.5616181912563
 20
-127.6681610791942
 30
0.0
 10
103.5065143037733
 20
-127.6681610791942
 30
0.0
 10
103.4513777519148
 20
-127.6681610791942
 30
0.0
 10
103.4066076396554
 20
-127.7129638569606
 30
0.0
 10
103.4066076396554
 20
-127.7680677458358
 30
0.0
 10
103.4066076396554
 20
-127.8232069124886
 30
0.0
 10
103.4513777519148
 20
-127.8679744124774
 30
0.0
 10
103.5065143037733
 20
-127.8679744124774
 30
0.0
 10
103.5616181912563
 20
-127.8679744124774
 30
0.0
 10
103.6064209678911
 20
-127.8232069124886
 30
0.0
 10
103.6064209678911
 20
-127.7680677458358
 30
0.0
  0
SPLINE
  5
B9
330
1F
100
AcDbEntity
  8
_U+30EC_U+30A4_U+30E4_U+30FC 1
 62
     7
420
 16777215
370
     9
100
AcDbSpline
210
0.0
220
0.0
230
1.0
 70
    11
 71
     3
 72
    17
 73
    13
 74
     0
 42
0.0000000001
 43
0.0000000001
 12
1.0
 22
0.0
 32
0.0
 13
1.0
 23
0.0
 33
0.0
 40
0.0
 40
0.0
 40
0.0
 40
0.0
 40
1.0
 40
1.0
 40
1.0
 40
2.0
 40
2.0
 40
2.0
 40
3.0
 40
3.0
 40
3.0
 40
4.0
 40
4.0
 40
4.0
 40
4.0
 10
103.6064209678911
 20
-130.2621713563235
 30
0.0
 10
103.6064209678911
 20
-130.2070321896705
 30
0.0
 10
103.5616181912563
 20
-130.1622646896819
 30
0.0
 10
103.5065143037733
 20
-130.1622646896819
 30
0.0
 10
103.4513777519148
 20
-130.1622646896819
 30
0.0
 10
103.4066076396554
 20
-130.2070321896705
 30
0.0
 10
103.4066076396554
 20
-130.2621713563235
 30
0.0
 10
103.4066076396554
 20
-130.317980800754
 30
0.0
 10
103.4513777519148
 20
-130.3627483007425
 30
0.0
 10
103.5065143037733
 20
-130.3627483007425
 30
0.0
 10
103.5616181912563
 20
-130.3627483007425
 30
0.0
 10
103.6064209678911
 20
-130.317980800754
 30
0.0
 10
103.6064209678911
 20
-130.2621713563235
 30
0.0
  0
SPLINE
  5
BA
330
1F
100
AcDbEntity
  8
_U+30EC_U+30A4_U+30E4_U+30FC 1
 62
     7
420
 16777215
370
     9
100
AcDbSpline
210
0.0
220
0.0
230
1.0
 70
    11
 71
     3
 72
    17
 73
    13
 74
     0
 42
0.0000000001
 43
0.0000000001
 12
1.0
 22
0.0
 32
0.0
 13
1.0
 23
0.0
 33
0.0
 40
0.0
 40
0.0
 40
0.0
 40
0.0
 40
1.0
 40
1.0
 40
1.0
 40
2.0
 40
2.0
 40
2.0
 40
3.0
 40
3.0
 40
3.0
 40
4.0
 40
4.0
 40
4.0
 40
4.0
 10
103.6064209678911
 20
-130.5625616340258
 30
0.0
 10
103.6064209678911
 20
-130.5074577451509
 30
0.0
 10
103.5616181912563
 20
-130.4626549673842
 30
0.0
 10
103.5065143037733
 20
-130.4626549673842
 30
0.0
 10
103.4513777519148
 20
-130.4626549673842
 30
0.0
 10
103.4066076396554
 20
-130.5074577451509
 30
0.0
 10
103.4066076396554
 20
-130.5625616340258
 30
0.0
 10
103.4066076396554
 20
-130.6177008006789
 30
0.0
 10
103.4513777519148
 20
-130.6624683006674
 30
0.0
 10
103.5065143037733
 20
-130.6624683006674
 30
0.0
 10
103.5616181912563
 20
-130.6624683006674
 30
0.0
 10
103.6064209678911
 20
-130.6177008006789
 30
0.0
 10
103.6064209678911
 20
-130.5625616340258
 30
0.0
  0
SPLINE
  5
BB
330
1F
100
AcDbEntity
  8
_U+30EC_U+30A4_U+30E4_U+30FC 1
 62
     7
420
 16777215
370
     9
100
AcDbSpline
210
0.0
220
0.0
230
1.0
 70
    11
 71
     3
 72
    17
 73
    13
 74
     0
 42
0.0000000001
 43
0.0000000001
 12
1.0
 22
0.0
 32
0.0
 13
1.0
 23
0.0
 33
0.0
 40
0.0
 40
0.0
 40
0.0
 40
0.0
 40
1.0
 40
1.0
 40
1.0
 40
2.0
 40
2.0
 40
2.0
 40
3.0
 40
3.0
 40
3.0
 40
4.0
 40
4.0
 40
4.0
 40
4.0
 10
99.60630912549802
 20
-135.2623730217397
 30
0.0
 10
99.60630912549802
 20
-135.2072338550872
 30
0.0
 10
99.5618944044089
 20
-135.162466355098
 30
0.0
 10
99.50640246138018
 20
-135.162466355098
 30
0.0
 10
99.4512985738971
 20
-135.162466355098
 30
0.0
 10
99.40649579726234
 20
-135.2072338550872
 30
0.0
 10
99.40649579726234
 20
-135.2623730217397
 30
0.0
 10
99.40649579726234
 20
-135.3174769106152
 30
0.0
 10
99.4512985738971
 20
-135.362279688382
 30
0.0
 10
99.50640246138018
 20
-135.362279688382
 30
0.0
 10
99.5618944044089
 20
-135.362279688382
 30
0.0
 10
99.60630912549802
 20
-135.3174769106152
 30
0.0
 10
99.60630912549802
 20
-135.2623730217397
 30
0.0
  0
SPLINE
  5
BC
330
1F
100
AcDbEntity
  8
_U+30EC_U+30A4_U+30E4_U+30FC 1
 62
     7
420
 16777215
370
     9
100
AcDbSpline
210
0.0
220
0.0
230
1.0
 70
    11
 71
     3
 72
    17
 73
    13
 74
     0
 42
0.0000000001
 43
0.0000000001
 12
1.0
 22
0.0
 32
0.0
 13
1.0
 23
0.0
 33
0.0
 40
0.0
 40
0.0
 40
0.0
 40
0.0
 40
1.0
 40
1.0
 40
1.0
 40
2.0
 40
2.0
 40
2.0
 40
3.0
 40
3.0
 40
3.0
 40
4.0
 40
4.0
 40
4.0
 40
4.0
 10
81.60674069581637
 20
-135.2623730217397
 30
0.0
 10
81.60674069581637
 20
-135.2072338550872
 30
0.0
 10
81.5619379191816
 20
-135.162466355098
 30
0.0
 10
81.50648331295685
 20
-135.162466355098
 30
0.0
 10
81.45102458867791
 20
-135.162466355098
 30
0.0
 10
81.40622181204314
 20
-135.2072338550872
 30
0.0
 10
81.40622181204314
 20
-135.2623730217397
 30
0.0
 10
81.40622181204314
 20
-135.3174769106152
 30
0.0
 10
81.45102458867791
 20
-135.362279688382
 30
0.0
 10
81.50648331295685
 20
-135.362279688382
 30
0.0
 10
81.5619379191816
 20
-135.362279688382
 30
0.0
 10
81.60674069581637
 20
-135.3174769106152
 30
0.0
 10
81.60674069581637
 20
-135.2623730217397
 30
0.0
  0
POLYLINE
  5
BD
330
1F
100
AcDbEntity
  8
_U+30EC_U+30A4_U+30E4_U+30FC 1
 62
     7
420
 16777215
370
     9
100
AcDb2dPolyline
 66
     1
 10
0.0
 20
0.0
 30
0.0
  0
VERTEX
  5
BE
330
BD
100
AcDbEntity
  8
_U+30EC_U+30A4_U+30E4_U+30FC 1
 62
     7
420
 16777215
370
     9
100
AcDbVertex
100
AcDb2dVertex
 10
81.50648331295685
 20
-122.7685716359745
 30
0.0
  0
VERTEX
  5
BF
330
BD
100
AcDbEntity
  8
_U+30EC_U+30A4_U+30E4_U+30FC 1
 62
     7
420
 16777215
370
     9
100
AcDbVertex
100
AcDb2dVertex
 10
89.50635216094716
 20
-122.7685716359745
 30
0.0
  0
SEQEND
  5
C0
330
BD
100
AcDbEntity
  8
_U+30EC_U+30A4_U+30E4_U+30FC 1
 62
     7
420
 16777215
370
     9
  0
POLYLINE
  5
C1
330
1F
100
AcDbEntity
  8
_U+30EC_U+30A4_U+30E4_U+30FC 1
 62
     7
420
 16777215
370
     9
100
AcDb2dPolyline
 66
     1
 10
0.0
 20
0.0
 30
0.0
  0
VERTEX
  5
C2
330
C1
100
AcDbEntity
  8
_U+30EC_U+30A4_U+30E4_U+30FC 1
 62
     7
420
 16777215
370
     9
100
AcDbVertex
100
AcDb2dVertex
 10
81.50648331295685
 20
-124.2285777467207
 30
0.0
  0
VERTEX
  5
C3
330
C1
100
AcDbEntity
  8
_U+30EC_U+30A4_U+30E4_U+30FC 1
 62
     7
420
 16777215
370
     9
100
AcDbVertex
100
AcDb2dVertex
 10
81.50648331295685
 20
-121.7680938584468
 30
0.0
  0
SEQEND
  5
C4
330
C1
100
AcDbEntity
  8
_U+30EC_U+30A4_U+30E4_U+30FC 1
 62
     7
420
 16777215
370
     9
  0
POLYLINE
  5
C5
330
1F
100
AcDbEntity
  8
_U+30EC_U+30A4_U+30E4_U+30FC 1
 62
     7
420
 16777215
370
     9
100
AcDb2dPolyline
 66
     1
 10
0.0
 20
0.0
 30
0.0
  0
VERTEX
  5
C6
330
C5
100
AcDbEntity
  8
_U+30EC_U+30A4_U+30E4_U+30FC 1
 62
     7
420
 16777215
370
     9
100
AcDbVertex
100
AcDb2dVertex
 10
89.50635216094716
 20
-124.2285777467207
 30
0.0
  0
VERTEX
  5
C7
330
C5
100
AcDbEntity
  8
_U+30EC_U+30A4_U+30E4_U+30FC 1
 62
     7
420
 16777215
370
     9
100
AcDbVertex
100
AcDb2dVertex
 10
89.50635216094716
 20
-121.7680938584468
 30
0.0
  0
SEQEND
  5
C8
330
C5
100
AcDbEntity
  8
_U+30EC_U+30A4_U+30E4_U+30FC 1
 62
     7
420
 16777215
370
     9
  0
INSERT
  5
CA
330
1F
100
AcDbEntity
  8
_U+30EC_U+30A4_U+30E4_U+30FC 1
100
AcDbBlockReference
  2
block 5
 10
0.0
 20
0.0
 30
0.0
  0
POLYLINE
  5
D1
330
1F
100
AcDbEntity
  8
_U+30EC_U+30A4_U+30E4_U+30FC 1
 62
     7
420
 16777215
370
     9
100
AcDb2dPolyline
 66
     1
 10
0.0
 20
0.0
 30
0.0
  0
VERTEX
  5
D2
330
D1
100
AcDbEntity
  8
_U+30EC_U+30A4_U+30E4_U+30FC 1
 62
     7
420
 16777215
370
     9
100
AcDbVertex
100
AcDb2dVertex
 10
81.50648331295685
 20
-135.2623730217397
 30
0.0
  0
VERTEX
  5
D3
330
D1
100
AcDbEntity
  8
_U+30EC_U+30A4_U+30E4_U+30FC 1
 62
     7
420
 16777215
370
     9
100
AcDbVertex
100
AcDb2dVertex
 10
99.50640246138018
 20
-135.2623730217397
 30
0.0
  0
SEQEND
  5
D4
330
D1
100
AcDbEntity
  8
_U+30EC_U+30A4_U+30E4_U+30FC 1
 62
     7
420
 16777215
370
     9
  0
POLYLINE
  5
D5
330
1F
100
AcDbEntity
  8
_U+30EC_U+30A4_U+30E4_U+30FC 1
 62
     7
420
 16777215
370
     9
100
AcDb2dPolyline
 66
     1
 10
0.0
 20
0.0
 30
0.0
  0
VERTEX
  5
D6
330
D5
100
AcDbEntity
  8
_U+30EC_U+30A4_U+30E4_U+30FC 1
 62
     7
420
 16777215
370
     9
100
AcDbVertex
100
AcDb2dVertex
 10
81.50648331295685
 20
-133.802331633216
 30
0.0
  0
VERTEX
  5
D7
330
D5
100
AcDbEntity
  8
_U+30EC_U+30A4_U+30E4_U+30FC 1
 62
     7
420
 16777215
370
     9
100
AcDbVertex
100
AcDb2dVertex
 10
81.50648331295685
 20
-136.2628155214896
 30
0.0
  0
SEQEND
  5
D8
330
D5
100
AcDbEntity
  8
_U+30EC_U+30A4_U+30E4_U+30FC 1
 62
     7
420
 16777215
370
     9
  0
POLYLINE
  5
D9
330
1F
100
AcDbEntity
  8
_U+30EC_U+30A4_U+30E4_U+30FC 1
 62
     7
420
 16777215
370
     9
100
AcDb2dPolyline
 66
     1
 10
0.0
 20
0.0
 30
0.0
  0
VERTEX
  5
DA
330
D9
100
AcDbEntity
  8
_U+30EC_U+30A4_U+30E4_U+30FC 1
 62
     7
420
 16777215
370
     9
100
AcDbVertex
100
AcDb2dVertex
 10
99.50640246138018
 20
-133.802331633216
 30
0.0
  0
VERTEX
  5
DB
330
D9
100
AcDbEntity
  8
_U+30EC_U+30A4_U+30E4_U+30FC 1
 62
     7
420
 16777215
370
     9
100
AcDbVertex
100
AcDb2dVertex
 10
99.50640246138018
 20
-136.2628155214896
 30
0.0
  0
SEQEND
  5
DC
330
D9
100
AcDbEntity
  8
_U+30EC_U+30A4_U+30E4_U+30FC 1
 62
     7
420
 16777215
370
     9
  0
INSERT
  5
DE
330
1F
100
AcDbEntity
  8
_U+30EC_U+30A4_U+30E4_U+30FC 1
100
AcDbBlockReference
  2
block 6
 10
0.0
 20
0.0
 30
0.0
  0
POLYLINE
  5
E7
330
1F
100
AcDbEntity
  8
_U+30EC_U+30A4_U+30E4_U+30FC 1
 62
     7
420
 16777215
370
     9
100
AcDb2dPolyline
 66
     1
 10
0.0
 20
0.0
 30
0.0
  0
VERTEX
  5
E8
330
E7
100
AcDbEntity
  8
_U+30EC_U+30A4_U+30E4_U+30FC 1
 62
     7
420
 16777215
370
     9
100
AcDbVertex
100
AcDb2dVertex
 10
103.5065143037733
 20
-131.2626138560734
 30
0.0
  0
VERTEX
  5
E9
330
E7
100
AcDbEntity
  8
_U+30EC_U+30A4_U+30E4_U+30FC 1
 62
     7
420
 16777215
370
     9
100
AcDbVertex
100
AcDb2dVertex
 10
103.5065143037733
 20
-130.5625616340258
 30
0.0
  0
SEQEND
  5
EA
330
E7
100
AcDbEntity
  8
_U+30EC_U+30A4_U+30E4_U+30FC 1
 62
     7
420
 16777215
370
     9
  0
POLYLINE
  5
EB
330
1F
100
AcDbEntity
  8
_U+30EC_U+30A4_U+30E4_U+30FC 1
 62
     7
420
 16777215
370
     9
100
AcDb2dPolyline
 66
     1
 10
0.0
 20
0.0
 30
0.0
  0
VERTEX
  5
EC
330
EB
100
AcDbEntity
  8
_U+30EC_U+30A4_U+30E4_U+30FC 1
 62
     7
420
 16777215
370
     9
100
AcDbVertex
100
AcDb2dVertex
 10
101.7915583078853
 20
-130.5625616340258
 30
0.0
  0
VERTEX
  5
ED
330
EB
100
AcDbEntity
  8
_U+30EC_U+30A4_U+30E4_U+30FC 1
 62
     7
420
 16777215
370
     9
100
AcDbVertex
100
AcDb2dVertex
 10
104.5066392782579
 20
-130.5625616340258
 30
0.0
  0
SEQEND
  5
EE
330
EB
100
AcDbEntity
  8
_U+30EC_U+30A4_U+30E4_U+30FC 1
 62
     7
420
 16777215
370
     9
  0
POLYLINE
  5
EF
330
1F
100
AcDbEntity
  8
_U+30EC_U+30A4_U+30E4_U+30FC 1
 62
     7
420
 16777215
370
     9
100
AcDb2dPolyline
 66
     1
 10
0.0
 20
0.0
 30
0.0
  0
VERTEX
  5
F0
330
EF
100
AcDbEntity
  8
_U+30EC_U+30A4_U+30E4_U+30FC 1
 62
     7
420
 16777215
370
     9
100
AcDbVertex
100
AcDb2dVertex
 10
103.5065143037733
 20
-127.812164968047
 30
0.0
  0
VERTEX
  5
F1
330
EF
100
AcDbEntity
  8
_U+30EC_U+30A4_U+30E4_U+30FC 1
 62
     7
420
 16777215
370
     9
100
AcDbVertex
100
AcDb2dVertex
 10
103.5065143037733
 20
-122.5542591360281
 30
0.0
  0
SEQEND
  5
F2
330
EF
100
AcDbEntity
  8
_U+30EC_U+30A4_U+30E4_U+30FC 1
 62
     7
420
 16777215
370
     9
  0
POLYLINE
  5
F3
330
1F
100
AcDbEntity
  8
_U+30EC_U+30A4_U+30E4_U+30FC 1
 62
     7
420
 16777215
370
     9
100
AcDb2dPolyline
 66
     1
 10
0.0
 20
0.0
 30
0.0
  0
VERTEX
  5
F4
330
F3
100
AcDbEntity
  8
_U+30EC_U+30A4_U+30E4_U+30FC 1
 62
     7
420
 16777215
370
     9
100
AcDbVertex
100
AcDb2dVertex
 10
103.5065143037733
 20
-131.3205046893923
 30
0.0
  0
VERTEX
  5
F5
330
F3
100
AcDbEntity
  8
_U+30EC_U+30A4_U+30E4_U+30FC 1
 62
     7
420
 16777215
370
     9
100
AcDbVertex
100
AcDb2dVertex
 10
103.5065143037733
 20
-127.9003594124694
 30
0.0
  0
SEQEND
  5
F6
330
F3
100
AcDbEntity
  8
_U+30EC_U+30A4_U+30E4_U+30FC 1
 62
     7
420
 16777215
370
     9
  0
POLYLINE
  5
F7
330
1F
100
AcDbEntity
  8
_U+30EC_U+30A4_U+30E4_U+30FC 1
 62
     7
420
 16777215
370
     9
100
AcDb2dPolyline
 66
     1
 10
0.0
 20
0.0
 30
0.0
  0
VERTEX
  5
F8
330
F7
100
AcDbEntity
  8
_U+30EC_U+30A4_U+30E4_U+30FC 1
 62
     7
420
 16777215
370
     9
100
AcDbVertex
100
AcDb2dVertex
 10
95.04640951960852
 20
-130.2621713563235
 30
0.0
  0
VERTEX
  5
F9
330
F7
100
AcDbEntity
  8
_U+30EC_U+30A4_U+30E4_U+30FC 1
 62
     7
420
 16777215
370
     9
100
AcDbVertex
100
AcDb2dVertex
 10
104.5066392782579
 20
-130.2621713563235
 30
0.0
  0
SEQEND
  5
FA
330
F7
100
AcDbEntity
  8
_U+30EC_U+30A4_U+30E4_U+30FC 1
 62
     7
420
 16777215
370
     9
  0
POLYLINE
  5
FB
330
1F
100
AcDbEntity
  8
_U+30EC_U+30A4_U+30E4_U+30FC 1
 62
     7
420
 16777215
370
     9
100
AcDb2dPolyline
 66
     1
 10
0.0
 20
0.0
 30
0.0
  0
VERTEX
  5
FC
330
FB
100
AcDbEntity
  8
_U+30EC_U+30A4_U+30E4_U+30FC 1
 62
     7
420
 16777215
370
     9
100
AcDbVertex
100
AcDb2dVertex
 10
100.0066413375069
 20
-127.7680677458358
 30
0.0
  0
VERTEX
  5
FD
330
FB
100
AcDbEntity
  8
_U+30EC_U+30A4_U+30E4_U+30FC 1
 62
     7
420
 16777215
370
     9
100
AcDbVertex
100
AcDb2dVertex
 10
104.5066392782579
 20
-127.7680677458358
 30
0.0
  0
SEQEND
  5
FE
330
FB
100
AcDbEntity
  8
_U+30EC_U+30A4_U+30E4_U+30FC 1
 62
     7
420
 16777215
370
     9
  0
POLYLINE
  5
FF
330
1F
100
AcDbEntity
  8
_U+30EC_U+30A4_U+30E4_U+30FC 1
 62
     7
420
 16777215
370
     9
100
AcDb2dPolyline
 66
     1
 10
0.0
 20
0.0
 30
0.0
  0
VERTEX
  5
100
330
FF
100
AcDbEntity
  8
_U+30EC_U+30A4_U+30E4_U+30FC 1
 62
     7
420
 16777215
370
     9
100
AcDbVertex
100
AcDb2dVertex
 10
81.50648331295685
 20
-129.0925366343935
 30
0.0
  0
VERTEX
  5
101
330
FF
100
AcDbEntity
  8
_U+30EC_U+30A4_U+30E4_U+30FC 1
 62
     7
420
 16777215
370
     9
100
AcDbVertex
100
AcDb2dVertex
 10
77.73616885011845
 20
-129.0925366343935
 30
0.0
  0
SEQEND
  5
102
330
FF
100
AcDbEntity
  8
_U+30EC_U+30A4_U+30E4_U+30FC 1
 62
     7
420
 16777215
370
     9
  0
POLYLINE
  5
103
330
1F
100
AcDbEntity
  8
_U+30EC_U+30A4_U+30E4_U+30FC 1
 62
     7
420
 16777215
370
     9
100
AcDb2dPolyline
 66
     1
 10
0.0
 20
0.0
 30
0.0
  0
VERTEX
  5
104
330
103
100
AcDbEntity
  8
_U+30EC_U+30A4_U+30E4_U+30FC 1
 62
     7
420
 16777215
370
     9
100
AcDbVertex
100
AcDb2dVertex
 10
81.50648331295685
 20
-129.0925366343935
 30
0.0
  0
VERTEX
  5
105
330
103
100
AcDbEntity
  8
_U+30EC_U+30A4_U+30E4_U+30FC 1
 62
     7
420
 16777215
370
     9
100
AcDbVertex
100
AcDb2dVertex
 10
83.50634314735348
 20
-129.0925366343935
 30
0.0
  0
SEQEND
  5
106
330
103
100
AcDbEntity
  8
_U+30EC_U+30A4_U+30E4_U+30FC 1
 62
     7
420
 16777215
370
     9
  0
INSERT
  5
108
330
1F
100
AcDbEntity
  8
_U+30EC_U+30A4_U+30E4_U+30FC 1
100
AcDbBlockReference
  2
block 7
 10
0.0
 20
0.0
 30
0.0
  0
ENDSEC
  0
SECTION
  2
OBJECTS
  0
DICTIONARY
  5
C
330
0
100
AcDbDictionary
281
     1
  3
ACAD_GROUP
350
D
  3
ACAD_LAYOUT
350
1A
  3
ACAD_MATERIAL
350
3B
  3
ACAD_MLEADERSTYLE
350
10E
  3
ACAD_MLINESTYLE
350
17
  3
ACAD_PLOTSETTINGS
350
19
  3
ACAD_PLOTSTYLENAME
350
E
  3
ACAD_TABLESTYLE
350
10D
  3
ACAD_VISUALSTYLE
350
2A
  0
SUN
  5
3F
330
29
100
AcDbSun
 90
        1
290
     0
 63
     7
421
 16777215
 40
1.0
291
     1
 91
  2455826
 92
 54000000
292
     0
 70
     2
 71
   256
280
     1
  0
DICTIONARY
  5
D
102
{ACAD_REACTORS
330
C
102
}
330
C
100
AcDbDictionary
281
     1
  0
DICTIONARY
  5
1A
102
{ACAD_REACTORS
330
C
102
}
330
C
100
AcDbDictionary
281
     1
  3
Layout1
350
1E
  3
Layout2
350
26
  3
Model
350
22
  0
DICTIONARY
  5
3B
102
{ACAD_REACTORS
330
C
102
}
330
C
100
AcDbDictionary
281
     1
  3
ByBlock
350
3D
  3
ByLayer
350
3C
  3
Global
350
3E
  0
DICTIONARY
  5
10E
102
{ACAD_REACTORS
330
C
102
}
330
C
100
AcDbDictionary
281
     1
  0
DICTIONARY
  5
17
102
{ACAD_REACTORS
330
C
102
}
330
C
100
AcDbDictionary
281
     1
  3
Standard
350
18
  0
DICTIONARY
  5
19
102
{ACAD_REACTORS
330
C
102
}
330
C
100
AcDbDictionary
281
     1
  0
ACDBDICTIONARYWDFLT
  5
E
102
{ACAD_REACTORS
330
C
102
}
330
C
100
AcDbDictionary
281
     1
  3
Normal
350
F
100
AcDbDictionaryWithDefault
340
F
  0
DICTIONARY
  5
10D
102
{ACAD_REACTORS
330
C
102
}
330
C
100
AcDbDictionary
281
     1
  0
DICTIONARY
  5
2A
102
{ACAD_REACTORS
330
C
102
}
330
C
100
AcDbDictionary
281
     1
  3
2dWireframe
350
2F
  3
3D Hidden
350
31
  3
3dWireframe
350
30
  3
Basic
350
32
  3
Brighten
350
36
  3
ColorChange
350
3A
  3
Conceptual
350
34
  3
Dim
350
35
  3
Facepattern
350
39
  3
Flat
350
2B
  3
FlatWithEdges
350
2C
  3
Gouraud
350
2D
  3
GouraudWithEdges
350
2E
  3
Linepattern
350
38
  3
Realistic
350
33
  3
Thicken
350
37
  0
LAYOUT
  5
1E
102
{ACAD_REACTORS
330
1A
102
}
330
1A
100
AcDbPlotSettings
  1

  2
none_device
  4

  6

 40
0.0
 41
0.0
 42
0.0
 43
0.0
 44
0.0
 45
0.0
 46
0.0
 47
0.0
 48
0.0
 49
0.0
140
0.0
141
0.0
142
1.0
143
1.0
 70
   688
 72
     0
 73
     0
 74
     5
  7

 75
    16
 76
     0
 77
     2
 78
   300
147
1.0
148
0.0
149
0.0
100
AcDbLayout
  1
Layout1
 70
     1
 71
     1
 10
0.0
 20
0.0
 11
12.0
 21
9.0
 12
0.0
 22
0.0
 32
0.0
 14
1.000000000000000E+20
 24
1.000000000000000E+20
 34
1.000000000000000E+20
 15
-1.000000000000000E+20
 25
-1.000000000000000E+20
 35
-1.000000000000000E+20
146
0.0
 13
0.0
 23
0.0
 33
0.0
 16
1.0
 26
0.0
 36
0.0
 17
0.0
 27
1.0
 37
0.0
 76
     0
330
1B
  0
LAYOUT
  5
26
102
{ACAD_REACTORS
330
1A
102
}
330
1A
100
AcDbPlotSettings
  1

  2
none_device
  4

  6

 40
0.0
 41
0.0
 42
0.0
 43
0.0
 44
0.0
 45
0.0
 46
0.0
 47
0.0
 48
0.0
 49
0.0
140
0.0
141
0.0
142
1.0
143
1.0
 70
   688
 72
     0
 73
     0
 74
     5
  7

 75
    16
 76
     0
 77
     2
 78
   300
147
1.0
148
0.0
149
0.0
100
AcDbLayout
  1
Layout2
 70
     1
 71
     2
 10
0.0
 20
0.0
 11
0.0
 21
0.0
 12
0.0
 22
0.0
 32
0.0
 14
0.0
 24
0.0
 34
0.0
 15
0.0
 25
0.0
 35
0.0
146
0.0
 13
0.0
 23
0.0
 33
0.0
 16
1.0
 26
0.0
 36
0.0
 17
0.0
 27
1.0
 37
0.0
 76
     0
330
23
  0
LAYOUT
  5
22
102
{ACAD_REACTORS
330
1A
102
}
330
1A
100
AcDbPlotSettings
  1

  2
none_device
  4

  6

 40
0.0
 41
0.0
 42
0.0
 43
0.0
 44
0.0
 45
0.0
 46
0.0
 47
0.0
 48
0.0
 49
0.0
140
0.0
141
0.0
142
1.0
143
1.0
 70
  1712
 72
     0
 73
     0
 74
     0
  7

 75
     0
 76
     0
 77
     2
 78
   300
147
1.0
148
0.0
149
0.0
100
AcDbLayout
  1
Model
 70
     1
 71
     0
 10
0.0
 20
0.0
 11
12.0
 21
9.0
 12
0.0
 22
0.0
 32
0.0
 14
1.000000000000000E+20
 24
1.000000000000000E+20
 34
1.000000000000000E+20
 15
-1.000000000000000E+20
 25
-1.000000000000000E+20
 35
-1.000000000000000E+20
146
0.0
 13
0.0
 23
0.0
 33
0.0
 16
1.0
 26
0.0
 36
0.0
 17
0.0
 27
1.0
 37
0.0
 76
     0
330
1F
331
29
  0
MATERIAL
  5
3D
102
{ACAD_REACTORS
330
3B
102
}
330
3B
100
AcDbMaterial
  1
ByBlock
 72
     1
 94
      127
  0
MATERIAL
  5
3C
102
{ACAD_REACTORS
330
3B
102
}
330
3B
100
AcDbMaterial
  1
ByLayer
 72
     1
 94
      127
  0
MATERIAL
  5
3E
102
{ACAD_REACTORS
330
3B
102
}
330
3B
100
AcDbMaterial
  1
Global
 72
     1
 94
      127
  0
MLINESTYLE
  5
18
102
{ACAD_REACTORS
330
17
102
}
330
17
100
AcDbMlineStyle
  2
Standard
 70
     0
  3

 62
   256
 51
90.0
 52
90.0
 71
     2
 49
0.5
 62
   256
  6
BYLAYER
 49
-0.5
 62
   256
  6
BYLAYER
  0
ACDBPLACEHOLDER
  5
F
102
{ACAD_REACTORS
330
E
102
}
330
E
  0
VISUALSTYLE
  5
2F
102
{ACAD_REACTORS
330
2A
102
}
330
2A
100
AcDbVisualStyle
  2
2dWireframe
 70
     4
177
     2
291
     0
 71
     0
176
     1
 72
     2
176
     1
 73
     0
176
     1
 90
        0
176
     1
 40
-0.6
176
     1
 41
-30.0
176
     1
 62
     5
 63
     7
421
 16777215
176
     1
 74
     1
176
     1
 91
        4
176
     1
 64
     7
176
     1
 65
   257
176
     1
 75
     1
176
     1
175
     1
176
     1
 42
1.0
176
     1
 92
        0
176
     1
 66
   257
176
     1
 43
1.0
176
     1
 76
     1
176
     1
 77
     6
176
     1
 78
     2
176
     1
 67
     7
176
     1
 79
     5
176
     1
170
     0
176
     1
171
     0
176
     1
290
     0
176
     1
 93
        1
176
     1
 44
0.0
176
     1
173
     0
176
     1
  0
VISUALSTYLE
  5
31
102
{ACAD_REACTORS
330
2A
102
}
330
2A
100
AcDbVisualStyle
  2
3D Hidden
 70
     6
177
     2
291
     0
 71
     1
176
     1
 72
     2
176
     1
 73
     2
176
     1
 90
        0
176
     1
 40
-0.6
176
     1
 41
-30.0
176
     1
 62
     5
 63
     7
421
 16777215
176
     1
 74
     2
176
     1
 91
        2
176
     1
 64
     7
176
     1
 65
   257
176
     1
 75
     2
176
     1
175
     1
176
     1
 42
40.0
176
     1
 92
        0
176
     1
 66
   257
176
     1
 43
1.0
176
     1
 76
     1
176
     1
 77
     6
176
     1
 78
     2
176
     1
 67
     7
176
     1
 79
     3
176
     1
170
     0
176
     1
171
     0
176
     1
290
     0
176
     1
 93
        1
176
     1
 44
0.0
176
     1
173
     0
176
     1
  0
VISUALSTYLE
  5
30
102
{ACAD_REACTORS
330
2A
102
}
330
2A
100
AcDbVisualStyle
  2
3dWireframe
 70
     5
177
     2
291
     0
 71
     0
176
     1
 72
     2
176
     1
 73
     0
176
     1
 90
        0
176
     1
 40
-0.6
176
     1
 41
-30.0
176
     1
 62
     5
 63
     7
421
 16777215
176
     1
 74
     1
176
     1
 91
        4
176
     1
 64
     7
176
     1
 65
   257
176
     1
 75
     1
176
     1
175
     1
176
     1
 42
1.0
176
     1
 92
        0
176
     1
 66
   257
176
     1
 43
1.0
176
     1
 76
     1
176
     1
 77
     6
176
     1
 78
     2
176
     1
 67
     7
176
     1
 79
     5
176
     1
170
     0
176
     1
171
     0
176
     1
290
     0
176
     1
 93
        1
176
     1
 44
0.0
176
     1
173
     0
176
     1
  0
VISUALSTYLE
  5
32
102
{ACAD_REACTORS
330
2A
102
}
330
2A
100
AcDbVisualStyle
  2
Basic
 70
     7
177
     2
291
     1
 71
     1
176
     1
 72
     0
176
     1
 73
     1
176
     1
 90
        0
176
     1
 40
-0.6
176
     1
 41
-30.0
176
     1
 62
     5
 63
     7
421
 16777215
176
     1
 74
     0
176
     1
 91
        4
176
     1
 64
     7
176
     1
 65
   257
176
     1
 75
     1
176
     1
175
     1
176
     1
 42
1.0
176
     1
 92
        8
176
     1
 66
     7
176
     1
 43
1.0
176
     1
 76
     1
176
     1
 77
     6
176
     1
 78
     2
176
     1
 67
     7
176
     1
 79
     5
176
     1
170
     0
176
     1
171
     0
176
     1
290
     0
176
     1
 93
        1
176
     1
 44
0.0
176
     1
173
     0
176
     1
  0
VISUALSTYLE
  5
36
102
{ACAD_REACTORS
330
2A
102
}
330
2A
100
AcDbVisualStyle
  2
Brighten
 70
    12
177
     2
291
     1
 71
     2
176
     1
 72
     2
176
     1
 73
     0
176
     1
 90
        0
176
     1
 40
-0.6
176
     1
 41
-30.0
176
     1
 62
     5
 63
     7
421
 16777215
176
     1
 74
     1
176
     1
 91
        4
176
     1
 64
     7
176
     1
 65
   257
176
     1
 75
     1
176
     1
175
     1
176
     1
 42
1.0
176
     1
 92
        8
176
     1
 66
     7
176
     1
 43
1.0
176
     1
 76
     1
176
     1
 77
     6
176
     1
 78
     2
176
     1
 67
     7
176
     1
 79
     5
176
     1
170
     0
176
     1
171
     0
176
     1
290
     0
176
     1
 93
        1
176
     1
 44
50.0
176
     1
173
     0
176
     1
  0
VISUALSTYLE
  5
3A
102
{ACAD_REACTORS
330
2A
102
}
330
2A
100
AcDbVisualStyle
  2
ColorChange
 70
    16
177
     2
291
     1
 71
     2
176
     1
 72
     2
176
     1
 73
     3
176
     1
 90
        0
176
     1
 40
-0.6
176
     1
 41
-30.0
176
     1
 62
     5
 63
     8
421
  8421504
176
     1
 74
     1
176
     1
 91
        4
176
     1
 64
     7
176
     1
 65
   257
176
     1
 75
     1
176
     1
175
     1
176
     1
 42
1.0
176
     1
 92
        8
176
     1
 66
     8
424
  8421504
176
     1
 43
1.0
176
     1
 76
     1
176
     1
 77
     6
176
     1
 78
     2
176
     1
 67
     7
176
     1
 79
     5
176
     1
170
     0
176
     1
171
     0
176
     1
290
     0
176
     1
 93
        1
176
     1
 44
0.0
176
     1
173
     0
176
     1
  0
VISUALSTYLE
  5
34
102
{ACAD_REACTORS
330
2A
102
}
330
2A
100
AcDbVisualStyle
  2
Conceptual
 70
     9
177
     2
291
     0
 71
     3
176
     1
 72
     2
176
     1
 73
     0
176
     1
 90
        0
176
     1
 40
-0.6
176
     1
 41
-30.0
176
     1
 62
     5
 63
     7
421
 16777215
176
     1
 74
     2
176
     1
 91
        2
176
     1
 64
     7
176
     1
 65
   257
176
     1
 75
     1
176
     1
175
     1
176
     1
 42
40.0
176
     1
 92
        8
176
     1
 66
     7
176
     1
 43
1.0
176
     1
 76
     1
176
     1
 77
     6
176
     1
 78
     2
176
     1
 67
     7
176
     1
 79
     3
176
     1
170
     0
176
     1
171
     0
176
     1
290
     0
176
     1
 93
        1
176
     1
 44
0.0
176
     1
173
     0
176
     1
  0
VISUALSTYLE
  5
35
102
{ACAD_REACTORS
330
2A
102
}
330
2A
100
AcDbVisualStyle
  2
Dim
 70
    11
177
     2
291
     1
 71
     2
176
     1
 72
     2
176
     1
 73
     0
176
     1
 90
        0
176
     1
 40
-0.6
176
     1
 41
-30.0
176
     1
 62
     5
 63
     7
421
 16777215
176
     1
 74
     1
176
     1
 91
        4
176
     1
 64
     7
176
     1
 65
   257
176
     1
 75
     1
176
     1
175
     1
176
     1
 42
1.0
176
     1
 92
        8
176
     1
 66
     7
176
     1
 43
1.0
176
     1
 76
     1
176
     1
 77
     6
176
     1
 78
     2
176
     1
 67
     7
176
     1
 79
     5
176
     1
170
     0
176
     1
171
     0
176
     1
290
     0
176
     1
 93
        1
176
     1
 44
-50.0
176
     1
173
     0
176
     1
  0
VISUALSTYLE
  5
39
102
{ACAD_REACTORS
330
2A
102
}
330
2A
100
AcDbVisualStyle
  2
Facepattern
 70
    15
177
     2
291
     1
 71
     2
176
     1
 72
     2
176
     1
 73
     0
176
     1
 90
        0
176
     1
 40
-0.6
176
     1
 41
-30.0
176
     1
 62
     5
 63
     7
421
 16777215
176
     1
 74
     1
176
     1
 91
        4
176
     1
 64
     7
176
     1
 65
   257
176
     1
 75
     1
176
     1
175
     1
176
     1
 42
1.0
176
     1
 92
        8
176
     1
 66
     7
176
     1
 43
1.0
176
     1
 76
     1
176
     1
 77
     6
176
     1
 78
     2
176
     1
 67
     7
176
     1
 79
     5
176
     1
170
     0
176
     1
171
     0
176
     1
290
     0
176
     1
 93
        1
176
     1
 44
0.0
176
     1
173
     0
176
     1
  0
VISUALSTYLE
  5
2B
102
{ACAD_REACTORS
330
2A
102
}
330
2A
100
AcDbVisualStyle
  2
Flat
 70
     0
177
     2
291
     1
 71
     2
176
     1
 72
     1
176
     1
 73
     1
176
     1
 90
        2
176
     1
 40
-0.6
176
     1
 41
30.0
176
     1
 62
     5
 63
     7
421
 16777215
176
     1
 74
     0
176
     1
 91
        4
176
     1
 64
     7
176
     1
 65
   257
176
     1
 75
     1
176
     1
175
     1
176
     1
 42
1.0
176
     1
 92
        8
176
     1
 66
     7
176
     1
 43
1.0
176
     1
 76
     1
176
     1
 77
     6
176
     1
 78
     2
176
     1
 67
     7
176
     1
 79
     5
176
     1
170
     0
176
     1
171
     0
176
     1
290
     0
176
     1
 93
       13
176
     1
 44
0.0
176
     1
173
     0
176
     1
  0
VISUALSTYLE
  5
2C
102
{ACAD_REACTORS
330
2A
102
}
330
2A
100
AcDbVisualStyle
  2
FlatWithEdges
 70
     1
177
     2
291
     1
 71
     2
176
     1
 72
     1
176
     1
 73
     1
176
     1
 90
        2
176
     1
 40
-0.6
176
     1
 41
30.0
176
     1
 62
     5
 63
     7
421
 16777215
176
     1
 74
     1
176
     1
 91
        4
176
     1
 64
     7
176
     1
 65
   257
176
     1
 75
     1
176
     1
175
     1
176
     1
 42
1.0
176
     1
 92
        0
176
     1
 66
   257
176
     1
 43
1.0
176
     1
 76
     1
176
     1
 77
     6
176
     1
 78
     2
176
     1
 67
     7
176
     1
 79
     5
176
     1
170
     0
176
     1
171
     0
176
     1
290
     0
176
     1
 93
       13
176
     1
 44
0.0
176
     1
173
     0
176
     1
  0
VISUALSTYLE
  5
2D
102
{ACAD_REACTORS
330
2A
102
}
330
2A
100
AcDbVisualStyle
  2
Gouraud
 70
     2
177
     2
291
     1
 71
     2
176
     1
 72
     2
176
     1
 73
     1
176
     1
 90
        2
176
     1
 40
-0.6
176
     1
 41
30.0
176
     1
 62
     5
 63
     7
421
 16777215
176
     1
 74
     0
176
     1
 91
        4
176
     1
 64
     7
176
     1
 65
   257
176
     1
 75
     1
176
     1
175
     1
176
     1
 42
1.0
176
     1
 92
        0
176
     1
 66
     7
176
     1
 43
1.0
176
     1
 76
     1
176
     1
 77
     6
176
     1
 78
     2
176
     1
 67
     7
176
     1
 79
     5
176
     1
170
     0
176
     1
171
     0
176
     1
290
     0
176
     1
 93
       13
176
     1
 44
0.0
176
     1
173
     0
176
     1
  0
VISUALSTYLE
  5
2E
102
{ACAD_REACTORS
330
2A
102
}
330
2A
100
AcDbVisualStyle
  2
GouraudWithEdges
 70
     3
177
     2
291
     1
 71
     2
176
     1
 72
     2
176
     1
 73
     1
176
     1
 90
        2
176
     1
 40
-0.6
176
     1
 41
30.0
176
     1
 62
     5
 63
     7
421
 16777215
176
     1
 74
     1
176
     1
 91
        4
176
     1
 64
     7
176
     1
 65
   257
176
     1
 75
     1
176
     1
175
     1
176
     1
 42
1.0
176
     1
 92
        0
176
     1
 66
   257
176
     1
 43
1.0
176
     1
 76
     1
176
     1
 77
     6
176
     1
 78
     2
176
     1
 67
     7
176
     1
 79
     5
176
     1
170
     0
176
     1
171
     0
176
     1
290
     0
176
     1
 93
       13
176
     1
 44
0.0
176
     1
173
     0
176
     1
  0
VISUALSTYLE
  5
38
102
{ACAD_REACTORS
330
2A
102
}
330
2A
100
AcDbVisualStyle
  2
Linepattern
 70
    14
177
     2
291
     1
 71
     2
176
     1
 72
     2
176
     1
 73
     0
176
     1
 90
        0
176
     1
 40
-0.6
176
     1
 41
-30.0
176
     1
 62
     5
 63
     7
421
 16777215
176
     1
 74
     1
176
     1
 91
        4
176
     1
 64
     7
176
     1
 65
   257
176
     1
 75
     7
176
     1
175
     7
176
     1
 42
1.0
176
     1
 92
        8
176
     1
 66
     7
176
     1
 43
1.0
176
     1
 76
     1
176
     1
 77
     6
176
     1
 78
     2
176
     1
 67
     7
176
     1
 79
     5
176
     1
170
     0
176
     1
171
     0
176
     1
290
     0
176
     1
 93
        1
176
     1
 44
0.0
176
     1
173
     0
176
     1
  0
VISUALSTYLE
  5
33
102
{ACAD_REACTORS
330
2A
102
}
330
2A
100
AcDbVisualStyle
  2
Realistic
 70
     8
177
     2
291
     0
 71
     2
176
     1
 72
     2
176
     1
 73
     0
176
     1
 90
        0
176
     1
 40
-0.6
176
     1
 41
-30.0
176
     1
 62
     5
 63
     7
421
 16777215
176
     1
 74
     1
176
     1
 91
        0
176
     1
 64
     7
176
     1
 65
   257
176
     1
 75
     1
176
     1
175
     1
176
     1
 42
1.0
176
     1
 92
        8
176
     1
 66
     8
424
  7895160
176
     1
 43
1.0
176
     1
 76
     1
176
     1
 77
     6
176
     1
 78
     2
176
     1
 67
     7
176
     1
 79
     5
176
     1
170
     0
176
     1
171
     0
176
     1
290
     0
176
     1
 93
       13
176
     1
 44
0.0
176
     1
173
     0
176
     1
  0
VISUALSTYLE
  5
37
102
{ACAD_REACTORS
330
2A
102
}
330
2A
100
AcDbVisualStyle
  2
Thicken
 70
    13
177
     2
291
     1
 71
     2
176
     1
 72
     2
176
     1
 73
     0
176
     1
 90
        0
176
     1
 40
-0.6
176
     1
 41
-30.0
176
     1
 62
     5
 63
     7
421
 16777215
176
     1
 74
     1
176
     1
 91
        4
176
     1
 64
     7
176
     1
 65
   257
176
     1
 75
     1
176
     1
175
     1
176
     1
 42
1.0
176
     1
 92
       12
176
     1
 66
     7
176
     1
 43
1.0
176
     1
 76
     1
176
     1
 77
     6
176
     1
 78
     2
176
     1
 67
     7
176
     1
 79
     5
176
     1
170
     0
176
     1
171
     0
176
     1
290
     0
176
     1
 93
        1
176
     1
 44
0.0
176
     1
173
     0
176
     1
  0
ENDSEC
  0
EOF
