  0
SECTION
  2
HEADER
  9
$ACADVER
  1
AC1024
  9
$ACADMAINTVER
 70
     6
  9
$DWGCODEPAGE
  3
UNDEFINED
  9
$INSBASE
 10
0.0
 20
0.0
 30
0.0
  9
$EXTMIN
 10
1.000000000000000E+20
 20
1.000000000000000E+20
 30
1.000000000000000E+20
  9
$EXTMAX
 10
-1.000000000000000E+20
 20
-1.000000000000000E+20
 30
-1.000000000000000E+20
  9
$LIMMIN
 10
0.0
 20
0.0
  9
$LIMMAX
 10
12.0
 20
9.0
  9
$ORTHOMODE
 70
     0
  9
$REGENMODE
 70
     1
  9
$FILLMODE
 70
     1
  9
$QTEXTMODE
 70
     0
  9
$MIRRTEXT
 70
     1
  9
$LTSCALE
 40
1.0
  9
$ATTMODE
 70
     1
  9
$TEXTSIZE
 40
0.2
  9
$TRACEWID
 40
0.05
  9
$TEXTSTYLE
  7
Standard
  9
$CLAYER
  8
0
  9
$CELTYPE
  6
ByLayer
  9
$CECOLOR
 62
   256
  9
$CELTSCALE
 40
1.0
  9
$DISPSILH
 70
     0
  9
$DIMSCALE
 40
1.0
  9
$DIMASZ
 40
0.18
  9
$DIMEXO
 40
0.0625
  9
$DIMDLI
 40
0.38
  9
$DIMRND
 40
0.0
  9
$DIMDLE
 40
0.0
  9
$DIMEXE
 40
0.18
  9
$DIMTP
 40
0.0
  9
$DIMTM
 40
0.0
  9
$DIMTXT
 40
0.18
  9
$DIMCEN
 40
0.09
  9
$DIMTSZ
 40
0.0
  9
$DIMTOL
 70
     0
  9
$DIMLIM
 70
     0
  9
$DIMTIH
 70
     1
  9
$DIMTOH
 70
     1
  9
$DIMSE1
 70
     0
  9
$DIMSE2
 70
     0
  9
$DIMTAD
 70
     0
  9
$DIMZIN
 70
     0
  9
$DIMBLK
  1

  9
$DIMASO
 70
     1
  9
$DIMSHO
 70
     1
  9
$DIMPOST
  1

  9
$DIMAPOST
  1

  9
$DIMALT
 70
     0
  9
$DIMALTD
 70
     2
  9
$DIMALTF
 40
25.4
  9
$DIMLFAC
 40
1.0
  9
$DIMTOFL
 70
     0
  9
$DIMTVP
 40
0.0
  9
$DIMTIX
 70
     0
  9
$DIMSOXD
 70
     0
  9
$DIMSAH
 70
     0
  9
$DIMBLK1
  1

  9
$DIMBLK2
  1

  9
$DIMSTYLE
  2
Standard
  9
$DIMCLRD
 70
     0
  9
$DIMCLRE
 70
     0
  9
$DIMCLRT
 70
     0
  9
$DIMTFAC
 40
1.0
  9
$DIMGAP
 40
0.09
  9
$DIMJUST
 70
     0
  9
$DIMSD1
 70
     0
  9
$DIMSD2
 70
     0
  9
$DIMTOLJ
 70
     1
  9
$DIMTZIN
 70
     0
  9
$DIMALTZ
 70
     0
  9
$DIMALTTZ
 70
     0
  9
$DIMUPT
 70
     0
  9
$DIMDEC
 70
     4
  9
$DIMTDEC
 70
     4
  9
$DIMALTU
 70
     2
  9
$DIMALTTD
 70
     2
  9
$DIMTXSTY
  7
Standard
  9
$DIMAUNIT
 70
     0
  9
$DIMADEC
 70
     0
  9
$DIMALTRND
 40
0.0
  9
$DIMAZIN
 70
     0
  9
$DIMDSEP
 70
    46
  9
$DIMATFIT
 70
     3
  9
$DIMFRAC
 70
     0
  9
$DIMLDRBLK
  1

  9
$DIMLUNIT
 70
     2
  9
$DIMLWD
 70
    -2
  9
$DIMLWE
 70
    -2
  9
$DIMTMOVE
 70
     0
  9
$DIMFXL
 40
1.0
  9
$DIMFXLON
 70
     0
  9
$DIMJOGANG
 40
0.7853981633974483
  9
$DIMTFILL
 70
     0
  9
$DIMTFILLCLR
 70
     0
  9
$DIMARCSYM
 70
     0
  9
$DIMLTYPE
  6

  9
$DIMLTEX1
  6

  9
$DIMLTEX2
  6

  9
$DIMTXTDIRECTION
 70
     0
  9
$LUNITS
 70
     2
  9
$LUPREC
 70
     4
  9
$SKETCHINC
 40
0.1
  9
$FILLETRAD
 40
0.5
  9
$AUNITS
 70
     0
  9
$AUPREC
 70
     0
  9
$MENU
  1
.
  9
$ELEVATION
 40
0.0
  9
$PELEVATION
 40
0.0
  9
$THICKNESS
 40
0.0
  9
$LIMCHECK
 70
     0
  9
$CHAMFERA
 40
0.5
  9
$CHAMFERB
 40
0.5
  9
$CHAMFERC
 40
1.0
  9
$CHAMFERD
 40
0.0
  9
$SKPOLY
 70
     0
  9
$TDCREATE
 40
2457917.593946747
  9
$TDUCREATE
 40
2457917.218946759
  9
$TDUPDATE
 40
2457917.593946747
  9
$TDUUPDATE
 40
2457917.218946759
  9
$TDINDWG
 40
0.0000000116
  9
$TDUSRTIMER
 40
0.0000000116
  9
$USRTIMER
 70
     1
  9
$ANGBASE
 50
0.0
  9
$ANGDIR
 70
     0
  9
$PDMODE
 70
     0
  9
$PDSIZE
 40
0.0
  9
$PLINEWID
 40
0.0
  9
$SPLFRAME
 70
     0
  9
$SPLINETYPE
 70
     6
  9
$SPLINESEGS
 70
     8
  9
$HANDSEED
  5
FE
  9
$SURFTAB1
 70
     6
  9
$SURFTAB2
 70
     6
  9
$SURFTYPE
 70
     6
  9
$SURFU
 70
     6
  9
$SURFV
 70
     6
  9
$UCSBASE
  2

  9
$UCSNAME
  2

  9
$UCSORG
 10
0.0
 20
0.0
 30
0.0
  9
$UCSXDIR
 10
1.0
 20
0.0
 30
0.0
  9
$UCSYDIR
 10
0.0
 20
1.0
 30
0.0
  9
$UCSORTHOREF
  2

  9
$UCSORTHOVIEW
 70
     0
  9
$UCSORGTOP
 10
0.0
 20
0.0
 30
0.0
  9
$UCSORGBOTTOM
 10
0.0
 20
0.0
 30
0.0
  9
$UCSORGLEFT
 10
0.0
 20
0.0
 30
0.0
  9
$UCSORGRIGHT
 10
0.0
 20
0.0
 30
0.0
  9
$UCSORGFRONT
 10
0.0
 20
0.0
 30
0.0
  9
$UCSORGBACK
 10
0.0
 20
0.0
 30
0.0
  9
$PUCSBASE
  2

  9
$PUCSNAME
  2

  9
$PUCSORG
 10
0.0
 20
0.0
 30
0.0
  9
$PUCSXDIR
 10
1.0
 20
0.0
 30
0.0
  9
$PUCSYDIR
 10
0.0
 20
1.0
 30
0.0
  9
$PUCSORTHOREF
  2

  9
$PUCSORTHOVIEW
 70
     0
  9
$PUCSORGTOP
 10
0.0
 20
0.0
 30
0.0
  9
$PUCSORGBOTTOM
 10
0.0
 20
0.0
 30
0.0
  9
$PUCSORGLEFT
 10
0.0
 20
0.0
 30
0.0
  9
$PUCSORGRIGHT
 10
0.0
 20
0.0
 30
0.0
  9
$PUCSORGFRONT
 10
0.0
 20
0.0
 30
0.0
  9
$PUCSORGBACK
 10
0.0
 20
0.0
 30
0.0
  9
$USERI1
 70
     0
  9
$USERI2
 70
     0
  9
$USERI3
 70
     0
  9
$USERI4
 70
     0
  9
$USERI5
 70
     0
  9
$USERR1
 40
0.0
  9
$USERR2
 40
0.0
  9
$USERR3
 40
0.0
  9
$USERR4
 40
0.0
  9
$USERR5
 40
0.0
  9
$WORLDVIEW
 70
     1
  9
$SHADEDGE
 70
     3
  9
$SHADEDIF
 70
    70
  9
$TILEMODE
 70
     1
  9
$MAXACTVP
 70
    64
  9
$PINSBASE
 10
0.0
 20
0.0
 30
0.0
  9
$PLIMCHECK
 70
     0
  9
$PEXTMIN
 10
1.000000000000000E+20
 20
1.000000000000000E+20
 30
1.000000000000000E+20
  9
$PEXTMAX
 10
-1.000000000000000E+20
 20
-1.000000000000000E+20
 30
-1.000000000000000E+20
  9
$PLIMMIN
 10
0.0
 20
0.0
  9
$PLIMMAX
 10
12.0
 20
9.0
  9
$UNITMODE
 70
     0
  9
$VISRETAIN
 70
     1
  9
$PLINEGEN
 70
     0
  9
$PSLTSCALE
 70
     1
  9
$TREEDEPTH
 70
  3020
  9
$CMLSTYLE
  2
Standard
  9
$CMLJUST
 70
     0
  9
$CMLSCALE
 40
1.0
  9
$PROXYGRAPHICS
 70
     1
  9
$MEASUREMENT
 70
     0
  9
$CELWEIGHT
370
    -1
  9
$ENDCAPS
280
     0
  9
$JOINSTYLE
280
     0
  9
$LWDISPLAY
290
     1
  9
$INSUNITS
 70
     1
  9
$HYPERLINKBASE
  1

  9
$STYLESHEET
  1

  9
$XEDIT
290
     1
  9
$CEPSNTYPE
380
     0
  9
$PSTYLEMODE
290
     1
  9
$FINGERPRINTGUID
  2
{A974A027-3B46-FB85-EC70-0A6EF49EC533}
  9
$VERSIONGUID
  2
{FAEB1C32-E019-11D5-929B-00C0DF256EC4}
  9
$EXTNAMES
290
     1
  9
$PSVPSCALE
 40
0.0
  9
$OLESTARTUP
290
     0
  9
$SORTENTS
280
   127
  9
$INDEXCTL
280
     0
  9
$HIDETEXT
280
     1
  9
$XCLIPFRAME
280
     2
  9
$HALOGAP
280
     0
  9
$OBSCOLOR
 70
   257
  9
$OBSLTYPE
280
     0
  9
$INTERSECTIONDISPLAY
280
     0
  9
$INTERSECTIONCOLOR
 70
   257
  9
$DIMASSOC
280
     2
  9
$PROJECTNAME
  1

  9
$CAMERADISPLAY
290
     0
  9
$LENSLENGTH
 40
50.0
  9
$CAMERAHEIGHT
 40
0.0
  9
$STEPSPERSEC
 40
2.0
  9
$STEPSIZE
 40
6.0
  9
$3DDWFPREC
 40
2.0
  9
$PSOLWIDTH
 40
0.25
  9
$PSOLHEIGHT
 40
4.0
  9
$LOFTANG1
 40
1.570796326794897
  9
$LOFTANG2
 40
1.570796326794897
  9
$LOFTMAG1
 40
0.0
  9
$LOFTMAG2
 40
0.0
  9
$LOFTPARAM
 70
     7
  9
$LOFTNORMALS
280
     1
  9
$LATITUDE
 40
37.795
  9
$LONGITUDE
 40
-122.394
  9
$NORTHDIRECTION
 40
0.0
  9
$TIMEZONE
 70
 -8000
  9
$LIGHTGLYPHDISPLAY
280
     1
  9
$TILEMODELIGHTSYNCH
280
     1
  9
$CMATERIAL
347
3C
  9
$SOLIDHIST
280
     1
  9
$SHOWHIST
280
     1
  9
$DWFFRAME
280
     2
  9
$DGNFRAME
280
     2
  9
$REALWORLDSCALE
290
     1
  9
$INTERFERECOLOR
 62
   256
  9
$CSHADOW
280
     0
  9
$SHADOWPLANELOCATION
 40
0.0
  0
ENDSEC
  0
SECTION
  2
CLASSES
  0
CLASS
  1
ACDBDICTIONARYWDFLT
  2
AcDbDictionaryWithDefault
  3
ObjectDBX Classes
 90
        0
 91
        4
280
     0
281
     0
  0
CLASS
  1
VISUALSTYLE
  2
AcDbVisualStyle
  3
ObjectDBX Classes
 90
     4095
 91
        4
280
     0
281
     0
  0
CLASS
  1
MATERIAL
  2
AcDbMaterial
  3
ObjectDBX Classes
 90
     1153
 91
        4
280
     0
281
     0
  0
CLASS
  1
SUN
  2
AcDbSun
  3
SCENEOE
 90
     1024
 91
        4
280
     0
281
     0
  0
ENDSEC
  0
SECTION
  2
TABLES
  0
TABLE
  2
VPORT
  5
8
330
0
100
AcDbSymbolTable
 70
     1
  0
VPORT
  5
29
330
8
100
AcDbSymbolTableRecord
100
AcDbViewportTableRecord
  2
*Active
 70
     0
 10
0.0
 20
0.0
 11
1.0
 21
1.0
 12
0.0
 22
0.0
 13
0.0
 23
0.0
 14
0.5
 24
0.5
 15
0.5
 25
0.5
 16
0.0
 26
0.0
 36
1.0
 17
91.00082462281999
 27
-128.4993055234307
 37
0.0
 40
256.9986110468615
 41
0.7081814508812795
 42
50.0
 43
0.0
 44
0.0
 50
0.0
 51
0.0
 71
     0
 72
   100
 73
     1
 74
     3
 75
     0
 76
     0
 77
     0
 78
     0
281
     0
 65
     1
110
0.0
120
0.0
130
0.0
111
1.0
121
0.0
131
0.0
112
0.0
122
1.0
132
0.0
 79
     0
146
0.0
 60
     3
 61
     5
292
     1
282
     1
141
0.0
142
0.0
 63
   250
361
3F
  0
ENDTAB
  0
TABLE
  2
LTYPE
  5
5
330
0
100
AcDbSymbolTable
 70
     1
  0
LTYPE
  5
14
330
5
100
AcDbSymbolTableRecord
100
AcDbLinetypeTableRecord
  2
ByBlock
 70
     0
  3

 72
    65
 73
     0
 40
0.0
  0
LTYPE
  5
15
330
5
100
AcDbSymbolTableRecord
100
AcDbLinetypeTableRecord
  2
ByLayer
 70
     0
  3

 72
    65
 73
     0
 40
0.0
  0
LTYPE
  5
16
330
5
100
AcDbSymbolTableRecord
100
AcDbLinetypeTableRecord
  2
Continuous
 70
     0
  3
Solid line
 72
    65
 73
     0
 40
0.0
  0
ENDTAB
  0
TABLE
  2
LAYER
  5
2
330
0
100
AcDbSymbolTable
 70
     2
  0
LAYER
  5
10
330
2
100
AcDbSymbolTableRecord
100
AcDbLayerTableRecord
  2
0
 70
     0
 62
     7
  6
Continuous
370
    -3
390
F
347
3E
  0
LAYER
  5
40
330
2
100
AcDbSymbolTableRecord
100
AcDbLayerTableRecord
  2
_U+30EC_U+30A4_U+30E4_U+30FC 1
 70
     0
 62
     7
  6
Continuous
370
    -3
390
F
347
3E
  0
ENDTAB
  0
TABLE
  2
STYLE
  5
3
330
0
100
AcDbSymbolTable
 70
     1
  0
STYLE
  5
11
330
3
100
AcDbSymbolTableRecord
100
AcDbTextStyleTableRecord
  2
Standard
 70
     0
 40
0.0
 41
1.0
 50
0.0
 71
     0
 42
0.2
  3
txt
  4

  0
ENDTAB
  0
TABLE
  2
VIEW
  5
6
330
0
100
AcDbSymbolTable
 70
     0
  0
ENDTAB
  0
TABLE
  2
UCS
  5
7
330
0
100
AcDbSymbolTable
 70
     0
  0
ENDTAB
  0
TABLE
  2
APPID
  5
9
330
0
100
AcDbSymbolTable
 70
     1
  0
APPID
  5
12
330
9
100
AcDbSymbolTableRecord
100
AcDbRegAppTableRecord
  2
ACAD
 70
     0
  0
ENDTAB
  0
TABLE
  2
DIMSTYLE
  5
A
330
0
100
AcDbSymbolTable
 70
     1
100
AcDbDimStyleTable
  0
DIMSTYLE
105
27
330
A
100
AcDbSymbolTableRecord
100
AcDbDimStyleTableRecord
  2
Standard
 70
     0
178
     0
340
11
  0
ENDTAB
  0
TABLE
  2
BLOCK_RECORD
  5
1
330
0
100
AcDbSymbolTable
 70
     7
  0
BLOCK_RECORD
  5
1F
330
1
100
AcDbSymbolTableRecord
100
AcDbBlockTableRecord
  2
*Model_Space
340
22
 70
     0
280
     1
281
     0
  0
BLOCK_RECORD
  5
1B
330
1
100
AcDbSymbolTableRecord
100
AcDbBlockTableRecord
  2
*Paper_Space
340
1E
 70
     0
280
     1
281
     0
  0
BLOCK_RECORD
  5
23
330
1
100
AcDbSymbolTableRecord
100
AcDbBlockTableRecord
  2
*Paper_Space0
340
26
 70
     0
280
     1
281
     0
  0
BLOCK_RECORD
  5
81
330
1
100
AcDbSymbolTableRecord
100
AcDbBlockTableRecord
  2
block 2
340
0
102
{BLKREFS
331
82
102
}
 70
     0
280
     1
281
     0
  0
BLOCK_RECORD
  5
95
330
1
100
AcDbSymbolTableRecord
100
AcDbBlockTableRecord
  2
block 3
340
0
102
{BLKREFS
331
96
102
}
 70
     0
280
     1
281
     0
  0
BLOCK_RECORD
  5
AF
330
1
100
AcDbSymbolTableRecord
100
AcDbBlockTableRecord
  2
block 4
340
0
102
{BLKREFS
331
B0
102
}
 70
     0
280
     1
281
     0
  0
BLOCK_RECORD
  5
CC
330
1
100
AcDbSymbolTableRecord
100
AcDbBlockTableRecord
  2
block 5
340
0
102
{BLKREFS
331
CD
102
}
 70
     0
280
     1
281
     0
  0
BLOCK_RECORD
  5
DA
330
1
100
AcDbSymbolTableRecord
100
AcDbBlockTableRecord
  2
block 6
340
0
102
{BLKREFS
331
DB
102
}
 70
     0
280
     1
281
     0
  0
BLOCK_RECORD
  5
EC
330
1
100
AcDbSymbolTableRecord
100
AcDbBlockTableRecord
  2
block 7
340
0
102
{BLKREFS
331
ED
102
}
 70
     0
280
     1
281
     0
  0
ENDTAB
  0
ENDSEC
  0
SECTION
  2
BLOCKS
  0
BLOCK
  5
20
330
1F
100
AcDbEntity
  8
0
100
AcDbBlockBegin
  2
*Model_Space
 70
     0
 10
0.0
 20
0.0
 30
0.0
  3
*Model_Space
  1

  0
ENDBLK
  5
21
330
1F
100
AcDbEntity
  8
0
100
AcDbBlockEnd
  0
BLOCK
  5
1C
330
1B
100
AcDbEntity
 67
     1
  8
0
100
AcDbBlockBegin
  2
*Paper_Space
 70
     0
 10
0.0
 20
0.0
 30
0.0
  3
*Paper_Space
  1

  0
ENDBLK
  5
1D
330
1B
100
AcDbEntity
 67
     1
  8
0
100
AcDbBlockEnd
  0
BLOCK
  5
24
330
23
100
AcDbEntity
  8
0
100
AcDbBlockBegin
  2
*Paper_Space0
 70
     0
 10
0.0
 20
0.0
 30
0.0
  3
*Paper_Space0
  1

  0
ENDBLK
  5
25
330
23
100
AcDbEntity
  8
0
100
AcDbBlockEnd
  0
BLOCK
  5
83
330
81
100
AcDbEntity
  8
0
100
AcDbBlockBegin
  2
block 2
 70
     0
 10
0.0
 20
0.0
 30
0.0
  3
block 2
  1

  0
SPLINE
  5
85
330
81
100
AcDbEntity
  8
_U+30EC_U+30A4_U+30E4_U+30FC 1
370
     0
100
AcDbSpline
210
0.0
220
0.0
230
1.0
 70
    11
 71
     3
 72
    29
 73
    25
 74
     0
 42
0.0000000001
 43
0.0000000001
 12
1.0
 22
0.0
 32
0.0
 13
1.0
 23
0.0
 33
0.0
 40
0.0
 40
0.0
 40
0.0
 40
0.0
 40
1.0
 40
1.0
 40
1.0
 40
2.0
 40
2.0
 40
2.0
 40
3.0
 40
3.0
 40
3.0
 40
4.0
 40
4.0
 40
4.0
 40
5.0
 40
5.0
 40
5.0
 40
6.0
 40
6.0
 40
6.0
 40
7.0
 40
7.0
 40
7.0
 40
8.0
 40
8.0
 40
8.0
 40
8.0
 10
85.4547322377509
 20
-120.8747924502501
 30
0.0
 10
85.18825410196683
 20
-120.8747924502501
 30
0.0
 10
84.93435056470392
 20
-120.7371608856143
 30
0.0
 10
84.93435056470392
 20
-120.3881727129585
 30
0.0
 10
84.93435056470392
 20
-120.1322021184045
 30
0.0
 10
85.07611624392194
 20
-120.0369452282373
 30
0.0
 10
85.18188067531912
 20
-119.9756225285999
 30
0.0
 10
85.0569959639788
 20
-119.9163668862536
 30
0.0
 10
84.9808593537548
 20
-119.8021619709175
 30
0.0
 10
84.9808593537548
 20
-119.6414482665306
 30
0.0
 10
84.9808593537548
 20
-119.3663573920334
 30
0.0
 10
85.17981361802796
 20
-119.2309651394631
 30
0.0
 10
85.4547322377509
 20
-119.2309651394631
 30
0.0
 10
85.73826359618697
 20
-119.2309651394631
 30
0.0
 10
85.92860512174703
 20
-119.3747978759723
 30
0.0
 10
85.92860512174703
 20
-119.6414482665306
 30
0.0
 10
85.92860512174703
 20
-119.8021619709175
 30
0.0
 10
85.85040145423184
 20
-119.9163668862536
 30
0.0
 10
85.72551674289154
 20
-119.9756225285999
 30
0.0
 10
85.814400206411
 20
-120.0264376870073
 30
0.0
 10
85.97304685350674
 20
-120.1216945771744
 30
0.0
 10
85.97304685350674
 20
-120.3840385983762
 30
0.0
 10
85.97304685350674
 20
-120.7583482228486
 30
0.0
 10
85.69382186442725
 20
-120.8747924502501
 30
0.0
 10
85.4547322377509
 20
-120.8747924502501
 30
0.0
  0
SPLINE
  5
86
330
81
100
AcDbEntity
  8
_U+30EC_U+30A4_U+30E4_U+30FC 1
370
     0
100
AcDbSpline
210
0.0
220
0.0
230
1.0
 70
    11
 71
     3
 72
    17
 73
    13
 74
     0
 42
0.0000000001
 43
0.0000000001
 12
1.0
 22
0.0
 32
0.0
 13
1.0
 23
0.0
 33
0.0
 40
0.0
 40
0.0
 40
0.0
 40
0.0
 40
1.0
 40
1.0
 40
1.0
 40
2.0
 40
2.0
 40
2.0
 40
3.0
 40
3.0
 40
3.0
 40
4.0
 40
4.0
 40
4.0
 40
4.0
 10
85.4547322377509
 20
-120.0836262720624
 30
0.0
 10
85.31089950124172
 20
-120.0836262720624
 30
0.0
 10
85.15862628079368
 20
-120.1702704235165
 30
0.0
 10
85.15862628079368
 20
-120.3733588023719
 30
0.0
 10
85.15862628079368
 20
-120.5785142385186
 30
0.0
 10
85.28557804942514
 20
-120.6801445553334
 30
0.0
 10
85.4547322377509
 20
-120.6801445553334
 30
0.0
 10
85.64093964872866
 20
-120.6801445553334
 30
0.0
 10
85.7510104494824
 20
-120.5574991560586
 30
0.0
 10
85.7510104494824
 20
-120.3797322290197
 30
0.0
 10
85.7510104494824
 20
-120.157523570221
 30
0.0
 10
85.58805743303007
 20
-120.0836262720624
 30
0.0
 10
85.4547322377509
 20
-120.0836262720624
 30
0.0
  0
SPLINE
  5
87
330
81
100
AcDbEntity
  8
_U+30EC_U+30A4_U+30E4_U+30FC 1
370
     0
100
AcDbSpline
210
0.0
220
0.0
230
1.0
 70
    11
 71
     3
 72
    17
 73
    13
 74
     0
 42
0.0000000001
 43
0.0000000001
 12
1.0
 22
0.0
 32
0.0
 13
1.0
 23
0.0
 33
0.0
 40
0.0
 40
0.0
 40
0.0
 40
0.0
 40
1.0
 40
1.0
 40
1.0
 40
2.0
 40
2.0
 40
2.0
 40
3.0
 40
3.0
 40
3.0
 40
4.0
 40
4.0
 40
4.0
 40
4.0
 10
85.4547322377509
 20
-119.4235459770886
 30
0.0
 10
85.28971216400744
 20
-119.4235459770886
 30
0.0
 10
85.20513506984456
 20
-119.5186306124815
 30
0.0
 10
85.20513506984456
 20
-119.6540228650518
 30
0.0
 10
85.20513506984456
 20
-119.7768405191009
 30
0.0
 10
85.27713756548627
 20
-119.8953518037935
 30
0.0
 10
85.4547322377509
 20
-119.8953518037935
 30
0.0
 10
85.63249916478979
 20
-119.8953518037935
 30
0.0
 10
85.70432940565726
 20
-119.7768405191009
 30
0.0
 10
85.70432940565726
 20
-119.6540228650518
 30
0.0
 10
85.70432940565726
 20
-119.5186306124815
 30
0.0
 10
85.61768525420322
 20
-119.4235459770886
 30
0.0
 10
85.4547322377509
 20
-119.4235459770886
 30
0.0
  0
HATCH
  5
88
330
81
100
AcDbEntity
  8
_U+30EC_U+30A4_U+30E4_U+30FC 1
 62
   179
420
  2234388
100
AcDbHatch
 10
0.0
 20
0.0
 30
0.0
210
0.0
220
0.0
230
1.0
  2
SOLID
 70
     1
 71
     0
 91
        3
 92
        1
 93
        1
 72
     4
 94
        3
 73
     0
 74
     1
 95
       29
 96
       25
 40
0.0
 40
0.0
 40
0.0
 40
0.0
 40
1.0
 40
1.0
 40
1.0
 40
2.0
 40
2.0
 40
2.0
 40
3.0
 40
3.0
 40
3.0
 40
4.0
 40
4.0
 40
4.0
 40
5.0
 40
5.0
 40
5.0
 40
6.0
 40
6.0
 40
6.0
 40
7.0
 40
7.0
 40
7.0
 40
8.0
 40
8.0
 40
8.0
 40
8.0
 10
85.4547322377509
 20
-120.8747924502501
 10
85.18825410196683
 20
-120.8747924502501
 10
84.93435056470392
 20
-120.7371608856143
 10
84.93435056470392
 20
-120.3881727129585
 10
84.93435056470392
 20
-120.1322021184045
 10
85.07611624392194
 20
-120.0369452282373
 10
85.18188067531912
 20
-119.9756225285999
 10
85.0569959639788
 20
-119.9163668862536
 10
84.9808593537548
 20
-119.8021619709175
 10
84.9808593537548
 20
-119.6414482665306
 10
84.9808593537548
 20
-119.3663573920334
 10
85.17981361802796
 20
-119.2309651394631
 10
85.4547322377509
 20
-119.2309651394631
 10
85.73826359618697
 20
-119.2309651394631
 10
85.92860512174703
 20
-119.3747978759723
 10
85.92860512174703
 20
-119.6414482665306
 10
85.92860512174703
 20
-119.8021619709175
 10
85.85040145423184
 20
-119.9163668862536
 10
85.72551674289154
 20
-119.9756225285999
 10
85.814400206411
 20
-120.0264376870073
 10
85.97304685350674
 20
-120.1216945771744
 10
85.97304685350674
 20
-120.3840385983762
 10
85.97304685350674
 20
-120.7583482228486
 10
85.69382186442725
 20
-120.8747924502501
 10
85.4547322377509
 20
-120.8747924502501
 97
        0
 97
        0
 92
        1
 93
        1
 72
     4
 94
        3
 73
     0
 74
     1
 95
       17
 96
       13
 40
0.0
 40
0.0
 40
0.0
 40
0.0
 40
1.0
 40
1.0
 40
1.0
 40
2.0
 40
2.0
 40
2.0
 40
3.0
 40
3.0
 40
3.0
 40
4.0
 40
4.0
 40
4.0
 40
4.0
 10
85.4547322377509
 20
-120.0836262720624
 10
85.31089950124172
 20
-120.0836262720624
 10
85.15862628079368
 20
-120.1702704235165
 10
85.15862628079368
 20
-120.3733588023719
 10
85.15862628079368
 20
-120.5785142385186
 10
85.28557804942514
 20
-120.6801445553334
 10
85.4547322377509
 20
-120.6801445553334
 10
85.64093964872866
 20
-120.6801445553334
 10
85.7510104494824
 20
-120.5574991560586
 10
85.7510104494824
 20
-120.3797322290197
 10
85.7510104494824
 20
-120.157523570221
 10
85.58805743303007
 20
-120.0836262720624
 10
85.4547322377509
 20
-120.0836262720624
 97
        0
 97
        0
 92
        1
 93
        1
 72
     4
 94
        3
 73
     0
 74
     1
 95
       17
 96
       13
 40
0.0
 40
0.0
 40
0.0
 40
0.0
 40
1.0
 40
1.0
 40
1.0
 40
2.0
 40
2.0
 40
2.0
 40
3.0
 40
3.0
 40
3.0
 40
4.0
 40
4.0
 40
4.0
 40
4.0
 10
85.4547322377509
 20
-119.4235459770886
 10
85.28971216400744
 20
-119.4235459770886
 10
85.20513506984456
 20
-119.5186306124815
 10
85.20513506984456
 20
-119.6540228650518
 10
85.20513506984456
 20
-119.7768405191009
 10
85.27713756548627
 20
-119.8953518037935
 10
85.4547322377509
 20
-119.8953518037935
 10
85.63249916478979
 20
-119.8953518037935
 10
85.70432940565726
 20
-119.7768405191009
 10
85.70432940565726
 20
-119.6540228650518
 10
85.70432940565726
 20
-119.5186306124815
 10
85.61768525420322
 20
-119.4235459770886
 10
85.4547322377509
 20
-119.4235459770886
 97
        0
 97
        0
 75
     2
 76
     1
 98
        0
  0
ENDBLK
  5
84
330
81
100
AcDbEntity
  8
0
100
AcDbBlockEnd
  0
BLOCK
  5
97
330
95
100
AcDbEntity
  8
0
100
AcDbBlockBegin
  2
block 3
 70
     0
 10
0.0
 20
0.0
 30
0.0
  3
block 3
  1

  0
SPLINE
  5
99
330
95
100
AcDbEntity
  8
_U+30EC_U+30A4_U+30E4_U+30FC 1
370
     0
100
AcDbSpline
210
0.0
220
0.0
230
1.0
 70
    11
 71
     3
 72
    26
 73
    22
 74
     0
 42
0.0000000001
 43
0.0000000001
 12
1.0
 22
0.0
 32
0.0
 13
1.0
 23
0.0
 33
0.0
 40
0.0
 40
0.0
 40
0.0
 40
0.0
 40
1.0
 40
1.0
 40
1.0
 40
2.0
 40
2.0
 40
2.0
 40
3.0
 40
3.0
 40
3.0
 40
4.0
 40
4.0
 40
4.0
 40
5.0
 40
5.0
 40
5.0
 40
6.0
 40
6.0
 40
6.0
 40
7.0
 40
7.0
 40
7.0
 40
7.0
 10
89.73974200230465
 20
-136.3238063895302
 30
0.0
 10
89.73974200230465
 20
-136.3238063895302
 30
0.0
 10
89.73974200230465
 20
-135.2199977960561
 30
0.0
 10
89.73974200230465
 20
-135.2199977960561
 30
0.0
 10
89.73974200230465
 20
-135.2199977960561
 30
0.0
 10
89.40970185481771
 20
-135.2199977960561
 30
0.0
 10
89.40970185481771
 20
-135.2199977960561
 30
0.0
 10
89.40970185481771
 20
-135.2199977960561
 30
0.0
 10
89.40970185481771
 20
-135.0718586901904
 30
0.0
 10
89.40970185481771
 20
-135.0718586901904
 30
0.0
 10
89.7418090595958
 20
-135.0567002700553
 30
0.0
 10
89.78831784864667
 20
-134.8940917631515
 30
0.0
 10
89.81794566981982
 20
-134.7797145930412
 30
0.0
 10
89.81794566981982
 20
-134.7797145930412
 30
0.0
 10
89.96401771839442
 20
-134.7797145930412
 30
0.0
 10
89.96401771839442
 20
-134.7797145930412
 30
0.0
 10
89.96401771839442
 20
-134.7797145930412
 30
0.0
 10
89.96401771839442
 20
-136.3238063895302
 30
0.0
 10
89.96401771839442
 20
-136.3238063895302
 30
0.0
 10
89.96401771839442
 20
-136.3238063895302
 30
0.0
 10
89.73974200230465
 20
-136.3238063895302
 30
0.0
 10
89.73974200230465
 20
-136.3238063895302
 30
0.0
  0
HATCH
  5
9A
330
95
100
AcDbEntity
  8
_U+30EC_U+30A4_U+30E4_U+30FC 1
 62
   179
420
  2234388
100
AcDbHatch
 10
0.0
 20
0.0
 30
0.0
210
0.0
220
0.0
230
1.0
  2
SOLID
 70
     1
 71
     0
 91
        1
 92
        1
 93
        1
 72
     4
 94
        3
 73
     0
 74
     1
 95
       26
 96
       22
 40
0.0
 40
0.0
 40
0.0
 40
0.0
 40
1.0
 40
1.0
 40
1.0
 40
2.0
 40
2.0
 40
2.0
 40
3.0
 40
3.0
 40
3.0
 40
4.0
 40
4.0
 40
4.0
 40
5.0
 40
5.0
 40
5.0
 40
6.0
 40
6.0
 40
6.0
 40
7.0
 40
7.0
 40
7.0
 40
7.0
 10
89.73974200230465
 20
-136.3238063895302
 10
89.73974200230465
 20
-136.3238063895302
 10
89.73974200230465
 20
-135.2199977960561
 10
89.73974200230465
 20
-135.2199977960561
 10
89.73974200230465
 20
-135.2199977960561
 10
89.40970185481771
 20
-135.2199977960561
 10
89.40970185481771
 20
-135.2199977960561
 10
89.40970185481771
 20
-135.2199977960561
 10
89.40970185481771
 20
-135.0718586901904
 10
89.40970185481771
 20
-135.0718586901904
 10
89.7418090595958
 20
-135.0567002700553
 10
89.78831784864667
 20
-134.8940917631515
 10
89.81794566981982
 20
-134.7797145930412
 10
89.81794566981982
 20
-134.7797145930412
 10
89.96401771839442
 20
-134.7797145930412
 10
89.96401771839442
 20
-134.7797145930412
 10
89.96401771839442
 20
-134.7797145930412
 10
89.96401771839442
 20
-136.3238063895302
 10
89.96401771839442
 20
-136.3238063895302
 10
89.96401771839442
 20
-136.3238063895302
 10
89.73974200230465
 20
-136.3238063895302
 10
89.73974200230465
 20
-136.3238063895302
 97
        0
 97
        0
 75
     2
 76
     1
 98
        0
  0
SPLINE
  5
9B
330
95
100
AcDbEntity
  8
_U+30EC_U+30A4_U+30E4_U+30FC 1
370
     0
100
AcDbSpline
210
0.0
220
0.0
230
1.0
 70
    11
 71
     3
 72
    29
 73
    25
 74
     0
 42
0.0000000001
 43
0.0000000001
 12
1.0
 22
0.0
 32
0.0
 13
1.0
 23
0.0
 33
0.0
 40
0.0
 40
0.0
 40
0.0
 40
0.0
 40
1.0
 40
1.0
 40
1.0
 40
2.0
 40
2.0
 40
2.0
 40
3.0
 40
3.0
 40
3.0
 40
4.0
 40
4.0
 40
4.0
 40
5.0
 40
5.0
 40
5.0
 40
6.0
 40
6.0
 40
6.0
 40
7.0
 40
7.0
 40
7.0
 40
8.0
 40
8.0
 40
8.0
 40
8.0
 10
90.96516246640802
 20
-136.3747938027118
 30
0.0
 10
90.69851207584968
 20
-136.3747938027118
 30
0.0
 10
90.44495304813529
 20
-136.2369899833019
 30
0.0
 10
90.44495304813529
 20
-135.8883463201946
 30
0.0
 10
90.44495304813529
 20
-135.632031216092
 30
0.0
 10
90.58654647257906
 20
-135.5369465806991
 30
0.0
 10
90.69231090397624
 20
-135.4756238810617
 30
0.0
 10
90.56759844741019
 20
-135.4163682387154
 30
0.0
 10
90.49146183718616
 20
-135.3019910686051
 30
0.0
 10
90.49146183718616
 20
-135.1414496189924
 30
0.0
 10
90.49146183718616
 20
-134.8665309992695
 30
0.0
 10
90.69024384668508
 20
-134.7307942371506
 30
0.0
 10
90.96516246640802
 20
-134.7307942371506
 30
0.0
 10
91.24869382484408
 20
-134.7307942371506
 30
0.0
 10
91.43903535040414
 20
-134.8747992284341
 30
0.0
 10
91.43903535040414
 20
-135.1414496189924
 30
0.0
 10
91.43903535040414
 20
-135.3019910686051
 30
0.0
 10
91.3606594281147
 20
-135.4163682387154
 30
0.0
 10
91.23594697154866
 20
-135.4756238810617
 30
0.0
 10
91.32483043506811
 20
-135.5266112942434
 30
0.0
 10
91.48382159171238
 20
-135.6216959296362
 30
0.0
 10
91.48382159171238
 20
-135.8842122056123
 30
0.0
 10
91.48382159171238
 20
-136.2583495753104
 30
0.0
 10
91.20425209308436
 20
-136.3747938027118
 30
0.0
 10
90.96516246640802
 20
-136.3747938027118
 30
0.0
  0
SPLINE
  5
9C
330
95
100
AcDbEntity
  8
_U+30EC_U+30A4_U+30E4_U+30FC 1
370
     0
100
AcDbSpline
210
0.0
220
0.0
230
1.0
 70
    11
 71
     3
 72
    17
 73
    13
 74
     0
 42
0.0000000001
 43
0.0000000001
 12
1.0
 22
0.0
 32
0.0
 13
1.0
 23
0.0
 33
0.0
 40
0.0
 40
0.0
 40
0.0
 40
0.0
 40
1.0
 40
1.0
 40
1.0
 40
2.0
 40
2.0
 40
2.0
 40
3.0
 40
3.0
 40
3.0
 40
4.0
 40
4.0
 40
4.0
 40
4.0
 10
90.96516246640802
 20
-135.5837998792985
 30
0.0
 10
90.8215019846731
 20
-135.5837998792985
 30
0.0
 10
90.66888425467653
 20
-135.6706162855268
 30
0.0
 10
90.66888425467653
 20
-135.8731879000595
 30
0.0
 10
90.66888425467653
 20
-136.0785155909804
 30
0.0
 10
90.79600827808225
 20
-136.1798013982467
 30
0.0
 10
90.96516246640802
 20
-136.1798013982467
 30
0.0
 10
91.1511976226115
 20
-136.1798013982467
 30
0.0
 10
91.26144067813951
 20
-136.0571559989718
 30
0.0
 10
91.26144067813951
 20
-135.8793890719329
 30
0.0
 10
91.26144067813951
 20
-135.6575249226829
 30
0.0
 10
91.09848766168719
 20
-135.5837998792985
 30
0.0
 10
90.96516246640802
 20
-135.5837998792985
 30
0.0
  0
SPLINE
  5
9D
330
95
100
AcDbEntity
  8
_U+30EC_U+30A4_U+30E4_U+30FC 1
370
     0
100
AcDbSpline
210
0.0
220
0.0
230
1.0
 70
    11
 71
     3
 72
    17
 73
    13
 74
     0
 42
0.0000000001
 43
0.0000000001
 12
1.0
 22
0.0
 32
0.0
 13
1.0
 23
0.0
 33
0.0
 40
0.0
 40
0.0
 40
0.0
 40
0.0
 40
1.0
 40
1.0
 40
1.0
 40
2.0
 40
2.0
 40
2.0
 40
3.0
 40
3.0
 40
3.0
 40
4.0
 40
4.0
 40
4.0
 40
4.0
 10
90.96516246640802
 20
-134.9237195843246
 30
0.0
 10
90.80014239266455
 20
-134.9237195843246
 30
0.0
 10
90.71573755327593
 20
-135.0188042197175
 30
0.0
 10
90.71573755327593
 20
-135.1538519627393
 30
0.0
 10
90.71573755327593
 20
-135.2764973620142
 30
0.0
 10
90.78739553936913
 20
-135.3950086467068
 30
0.0
 10
90.96516246640802
 20
-135.3950086467068
 30
0.0
 10
91.1429293934469
 20
-135.3950086467068
 30
0.0
 10
91.21493188908863
 20
-135.2764973620142
 30
0.0
 10
91.21493188908863
 20
-135.1538519627393
 30
0.0
 10
91.21493188908863
 20
-135.0188042197175
 30
0.0
 10
91.12811548286034
 20
-134.9237195843246
 30
0.0
 10
90.96516246640802
 20
-134.9237195843246
 30
0.0
  0
HATCH
  5
9E
330
95
100
AcDbEntity
  8
_U+30EC_U+30A4_U+30E4_U+30FC 1
 62
   179
420
  2234388
100
AcDbHatch
 10
0.0
 20
0.0
 30
0.0
210
0.0
220
0.0
230
1.0
  2
SOLID
 70
     1
 71
     0
 91
        3
 92
        1
 93
        1
 72
     4
 94
        3
 73
     0
 74
     1
 95
       29
 96
       25
 40
0.0
 40
0.0
 40
0.0
 40
0.0
 40
1.0
 40
1.0
 40
1.0
 40
2.0
 40
2.0
 40
2.0
 40
3.0
 40
3.0
 40
3.0
 40
4.0
 40
4.0
 40
4.0
 40
5.0
 40
5.0
 40
5.0
 40
6.0
 40
6.0
 40
6.0
 40
7.0
 40
7.0
 40
7.0
 40
8.0
 40
8.0
 40
8.0
 40
8.0
 10
90.96516246640802
 20
-136.3747938027118
 10
90.69851207584968
 20
-136.3747938027118
 10
90.44495304813529
 20
-136.2369899833019
 10
90.44495304813529
 20
-135.8883463201946
 10
90.44495304813529
 20
-135.632031216092
 10
90.58654647257906
 20
-135.5369465806991
 10
90.69231090397624
 20
-135.4756238810617
 10
90.56759844741019
 20
-135.4163682387154
 10
90.49146183718616
 20
-135.3019910686051
 10
90.49146183718616
 20
-135.1414496189924
 10
90.49146183718616
 20
-134.8665309992695
 10
90.69024384668508
 20
-134.7307942371506
 10
90.96516246640802
 20
-134.7307942371506
 10
91.24869382484408
 20
-134.7307942371506
 10
91.43903535040414
 20
-134.8747992284341
 10
91.43903535040414
 20
-135.1414496189924
 10
91.43903535040414
 20
-135.3019910686051
 10
91.3606594281147
 20
-135.4163682387154
 10
91.23594697154866
 20
-135.4756238810617
 10
91.32483043506811
 20
-135.5266112942434
 10
91.48382159171238
 20
-135.6216959296362
 10
91.48382159171238
 20
-135.8842122056123
 10
91.48382159171238
 20
-136.2583495753104
 10
91.20425209308436
 20
-136.3747938027118
 10
90.96516246640802
 20
-136.3747938027118
 97
        0
 97
        0
 92
        1
 93
        1
 72
     4
 94
        3
 73
     0
 74
     1
 95
       17
 96
       13
 40
0.0
 40
0.0
 40
0.0
 40
0.0
 40
1.0
 40
1.0
 40
1.0
 40
2.0
 40
2.0
 40
2.0
 40
3.0
 40
3.0
 40
3.0
 40
4.0
 40
4.0
 40
4.0
 40
4.0
 10
90.96516246640802
 20
-135.5837998792985
 10
90.8215019846731
 20
-135.5837998792985
 10
90.66888425467653
 20
-135.6706162855268
 10
90.66888425467653
 20
-135.8731879000595
 10
90.66888425467653
 20
-136.0785155909804
 10
90.79600827808225
 20
-136.1798013982467
 10
90.96516246640802
 20
-136.1798013982467
 10
91.1511976226115
 20
-136.1798013982467
 10
91.26144067813951
 20
-136.0571559989718
 10
91.26144067813951
 20
-135.8793890719329
 10
91.26144067813951
 20
-135.6575249226829
 10
91.09848766168719
 20
-135.5837998792985
 10
90.96516246640802
 20
-135.5837998792985
 97
        0
 97
        0
 92
        1
 93
        1
 72
     4
 94
        3
 73
     0
 74
     1
 95
       17
 96
       13
 40
0.0
 40
0.0
 40
0.0
 40
0.0
 40
1.0
 40
1.0
 40
1.0
 40
2.0
 40
2.0
 40
2.0
 40
3.0
 40
3.0
 40
3.0
 40
4.0
 40
4.0
 40
4.0
 40
4.0
 10
90.96516246640802
 20
-134.9237195843246
 10
90.80014239266455
 20
-134.9237195843246
 10
90.71573755327593
 20
-135.0188042197175
 10
90.71573755327593
 20
-135.1538519627393
 10
90.71573755327593
 20
-135.2764973620142
 10
90.78739553936913
 20
-135.3950086467068
 10
90.96516246640802
 20
-135.3950086467068
 10
91.1429293934469
 20
-135.3950086467068
 10
91.21493188908863
 20
-135.2764973620142
 10
91.21493188908863
 20
-135.1538519627393
 10
91.21493188908863
 20
-135.0188042197175
 10
91.12811548286034
 20
-134.9237195843246
 10
90.96516246640802
 20
-134.9237195843246
 97
        0
 97
        0
 75
     2
 76
     1
 98
        0
  0
ENDBLK
  5
98
330
95
100
AcDbEntity
  8
0
100
AcDbBlockEnd
  0
BLOCK
  5
B1
330
AF
100
AcDbEntity
  8
0
100
AcDbBlockBegin
  2
block 4
 70
     0
 10
0.0
 20
0.0
 30
0.0
  3
block 4
  1

  0
SPLINE
  5
B3
330
AF
100
AcDbEntity
  8
_U+30EC_U+30A4_U+30E4_U+30FC 1
370
     0
100
AcDbSpline
210
0.0
220
0.0
230
1.0
 70
    11
 71
     3
 72
    29
 73
    25
 74
     0
 42
0.0000000001
 43
0.0000000001
 12
1.0
 22
0.0
 32
0.0
 13
1.0
 23
0.0
 33
0.0
 40
0.0
 40
0.0
 40
0.0
 40
0.0
 40
1.0
 40
1.0
 40
1.0
 40
2.0
 40
2.0
 40
2.0
 40
3.0
 40
3.0
 40
3.0
 40
4.0
 40
4.0
 40
4.0
 40
5.0
 40
5.0
 40
5.0
 40
6.0
 40
6.0
 40
6.0
 40
7.0
 40
7.0
 40
7.0
 40
8.0
 40
8.0
 40
8.0
 40
8.0
 10
102.3262261028907
 20
-134.6908311295217
 30
0.0
 10
102.5356879083939
 20
-134.7990071277586
 30
0.0
 10
102.5542914240142
 20
-134.9726399402152
 30
0.0
 10
102.5542914240142
 20
-135.0890841676166
 30
0.0
 10
102.5542914240142
 20
-135.2496256172293
 30
0.0
 10
102.5081271445119
 20
-135.3915635512216
 30
0.0
 10
102.3262261028907
 20
-135.4866481866144
 30
0.0
 10
102.1312336984255
 20
-135.590001051172
 30
0.0
 10
101.8942111290403
 20
-135.6092935858894
 30
0.0
 10
101.7316026221365
 20
-135.6092935858894
 30
0.0
 10
101.5875976308531
 20
-135.6092935858894
 30
0.0
 10
101.3361056604299
 20
-135.5920681084631
 30
0.0
 10
101.1369791413824
 20
-135.4866481866144
 30
0.0
 10
100.9344075268497
 20
-135.3784721883776
 30
0.0
 10
100.91098087755
 20
-135.217930738765
 30
0.0
 10
100.91098087755
 20
-135.0890841676166
 30
0.0
 10
100.91098087755
 20
-134.9299207561981
 30
0.0
 10
100.9550780997612
 20
-134.7866047840117
 30
0.0
 10
101.1369791413824
 20
-134.6908311295217
 30
0.0
 10
101.3299044885564
 20
-134.5916123795465
 30
0.0
 10
101.55796980968
 20
-134.5681857302469
 30
0.0
 10
101.7316026221365
 20
-134.5681857302469
 30
0.0
 10
101.903168377302
 20
-134.5681857302469
 30
0.0
 10
102.1333007557167
 20
-134.5895453222554
 30
0.0
 10
102.3262261028907
 20
-134.6908311295217
 30
0.0
  0
SPLINE
  5
B4
330
AF
100
AcDbEntity
  8
_U+30EC_U+30A4_U+30E4_U+30FC 1
370
     0
100
AcDbSpline
210
0.0
220
0.0
230
1.0
 70
    11
 71
     3
 72
    17
 73
    13
 74
     0
 42
0.0000000001
 43
0.0000000001
 12
1.0
 22
0.0
 32
0.0
 13
1.0
 23
0.0
 33
0.0
 40
0.0
 40
0.0
 40
0.0
 40
0.0
 40
1.0
 40
1.0
 40
1.0
 40
2.0
 40
2.0
 40
2.0
 40
3.0
 40
3.0
 40
3.0
 40
4.0
 40
4.0
 40
4.0
 40
4.0
 10
101.103217205627
 20
-135.0890841676166
 30
0.0
 10
101.103217205627
 20
-135.3385090807487
 30
0.0
 10
101.3870930736116
 20
-135.3853623793481
 30
0.0
 10
101.7316026221365
 20
-135.3853623793481
 30
0.0
 10
102.0513074831677
 20
-135.3853623793481
 30
0.0
 10
102.3599880386461
 20
-135.3488443672045
 30
0.0
 10
102.3599880386461
 20
-135.0890841676166
 30
0.0
 10
102.3599880386461
 20
-134.8410372926786
 30
0.0
 10
102.0788682470497
 20
-134.7928059558851
 30
0.0
 10
101.7316026221365
 20
-134.7928059558851
 30
0.0
 10
101.4118977611054
 20
-134.7928059558851
 30
0.0
 10
101.103217205627
 20
-134.8307020062229
 30
0.0
 10
101.103217205627
 20
-135.0890841676166
 30
0.0
  0
HATCH
  5
B5
330
AF
100
AcDbEntity
  8
_U+30EC_U+30A4_U+30E4_U+30FC 1
 62
   179
420
  2234388
100
AcDbHatch
 10
0.0
 20
0.0
 30
0.0
210
0.0
220
0.0
230
1.0
  2
SOLID
 70
     1
 71
     0
 91
        2
 92
        1
 93
        1
 72
     4
 94
        3
 73
     0
 74
     1
 95
       29
 96
       25
 40
0.0
 40
0.0
 40
0.0
 40
0.0
 40
1.0
 40
1.0
 40
1.0
 40
2.0
 40
2.0
 40
2.0
 40
3.0
 40
3.0
 40
3.0
 40
4.0
 40
4.0
 40
4.0
 40
5.0
 40
5.0
 40
5.0
 40
6.0
 40
6.0
 40
6.0
 40
7.0
 40
7.0
 40
7.0
 40
8.0
 40
8.0
 40
8.0
 40
8.0
 10
102.3262261028907
 20
-134.6908311295217
 10
102.5356879083939
 20
-134.7990071277586
 10
102.5542914240142
 20
-134.9726399402152
 10
102.5542914240142
 20
-135.0890841676166
 10
102.5542914240142
 20
-135.2496256172293
 10
102.5081271445119
 20
-135.3915635512216
 10
102.3262261028907
 20
-135.4866481866144
 10
102.1312336984255
 20
-135.590001051172
 10
101.8942111290403
 20
-135.6092935858894
 10
101.7316026221365
 20
-135.6092935858894
 10
101.5875976308531
 20
-135.6092935858894
 10
101.3361056604299
 20
-135.5920681084631
 10
101.1369791413824
 20
-135.4866481866144
 10
100.9344075268497
 20
-135.3784721883776
 10
100.91098087755
 20
-135.217930738765
 10
100.91098087755
 20
-135.0890841676166
 10
100.91098087755
 20
-134.9299207561981
 10
100.9550780997612
 20
-134.7866047840117
 10
101.1369791413824
 20
-134.6908311295217
 10
101.3299044885564
 20
-134.5916123795465
 10
101.55796980968
 20
-134.5681857302469
 10
101.7316026221365
 20
-134.5681857302469
 10
101.903168377302
 20
-134.5681857302469
 10
102.1333007557167
 20
-134.5895453222554
 10
102.3262261028907
 20
-134.6908311295217
 97
        0
 97
        0
 92
        1
 93
        1
 72
     4
 94
        3
 73
     0
 74
     1
 95
       17
 96
       13
 40
0.0
 40
0.0
 40
0.0
 40
0.0
 40
1.0
 40
1.0
 40
1.0
 40
2.0
 40
2.0
 40
2.0
 40
3.0
 40
3.0
 40
3.0
 40
4.0
 40
4.0
 40
4.0
 40
4.0
 10
101.103217205627
 20
-135.0890841676166
 10
101.103217205627
 20
-135.3385090807487
 10
101.3870930736116
 20
-135.3853623793481
 10
101.7316026221365
 20
-135.3853623793481
 10
102.0513074831677
 20
-135.3853623793481
 10
102.3599880386461
 20
-135.3488443672045
 10
102.3599880386461
 20
-135.0890841676166
 10
102.3599880386461
 20
-134.8410372926786
 10
102.0788682470497
 20
-134.7928059558851
 10
101.7316026221365
 20
-134.7928059558851
 10
101.4118977611054
 20
-134.7928059558851
 10
101.103217205627
 20
-134.8307020062229
 10
101.103217205627
 20
-135.0890841676166
 97
        0
 97
        0
 75
     2
 76
     1
 98
        0
  0
POLYLINE
  5
B6
330
AF
100
AcDbEntity
  8
_U+30EC_U+30A4_U+30E4_U+30FC 1
370
     0
100
AcDb2dPolyline
 66
     1
 10
0.0
 20
0.0
 30
0.0
  0
VERTEX
  5
B7
330
B6
100
AcDbEntity
  8
_U+30EC_U+30A4_U+30E4_U+30FC 1
370
     0
100
AcDbVertex
100
AcDb2dVertex
 10
102.5039930299296
 20
-134.3518337337732
 30
0.0
  0
VERTEX
  5
B8
330
B6
100
AcDbEntity
  8
_U+30EC_U+30A4_U+30E4_U+30FC 1
370
     0
100
AcDbVertex
100
AcDb2dVertex
 10
102.2518120404093
 20
-134.3518337337732
 30
0.0
  0
VERTEX
  5
B9
330
B6
100
AcDbEntity
  8
_U+30EC_U+30A4_U+30E4_U+30FC 1
370
     0
100
AcDbVertex
100
AcDb2dVertex
 10
102.2518120404093
 20
-134.1003417633499
 30
0.0
  0
VERTEX
  5
BA
330
B6
100
AcDbEntity
  8
_U+30EC_U+30A4_U+30E4_U+30FC 1
370
     0
100
AcDbVertex
100
AcDb2dVertex
 10
102.5039930299296
 20
-134.1003417633499
 30
0.0
  0
VERTEX
  5
BB
330
B6
100
AcDbEntity
  8
_U+30EC_U+30A4_U+30E4_U+30FC 1
370
     0
100
AcDbVertex
100
AcDb2dVertex
 10
102.5039930299296
 20
-134.3518337337732
 30
0.0
  0
SEQEND
  5
BC
330
B6
100
AcDbEntity
  8
_U+30EC_U+30A4_U+30E4_U+30FC 1
370
     0
  0
HATCH
  5
BD
330
AF
100
AcDbEntity
  8
_U+30EC_U+30A4_U+30E4_U+30FC 1
 62
   179
420
  2234388
100
AcDbHatch
 10
0.0
 20
0.0
 30
0.0
210
0.0
220
0.0
230
1.0
  2
SOLID
 70
     1
 71
     0
 91
        1
 92
        1
 93
        4
 72
     1
 10
102.5039930299296
 20
-134.3518337337732
 11
102.2518120404093
 21
-134.3518337337732
 72
     1
 10
102.2518120404093
 20
-134.3518337337732
 11
102.2518120404093
 21
-134.1003417633499
 72
     1
 10
102.2518120404093
 20
-134.1003417633499
 11
102.5039930299296
 21
-134.1003417633499
 72
     1
 10
102.5039930299296
 20
-134.1003417633499
 11
102.5039930299296
 21
-134.3518337337732
 97
        0
 75
     2
 76
     1
 98
        0
  0
SPLINE
  5
BE
330
AF
100
AcDbEntity
  8
_U+30EC_U+30A4_U+30E4_U+30FC 1
370
     0
100
AcDbSpline
210
0.0
220
0.0
230
1.0
 70
    11
 71
     3
 72
    26
 73
    22
 74
     0
 42
0.0000000001
 43
0.0000000001
 12
1.0
 22
0.0
 32
0.0
 13
1.0
 23
0.0
 33
0.0
 40
0.0
 40
0.0
 40
0.0
 40
0.0
 40
1.0
 40
1.0
 40
1.0
 40
2.0
 40
2.0
 40
2.0
 40
3.0
 40
3.0
 40
3.0
 40
4.0
 40
4.0
 40
4.0
 40
5.0
 40
5.0
 40
5.0
 40
6.0
 40
6.0
 40
6.0
 40
7.0
 40
7.0
 40
7.0
 40
7.0
 10
102.5039930299296
 20
-133.4526638121229
 30
0.0
 10
102.5039930299296
 20
-133.4526638121229
 30
0.0
 10
102.5039930299296
 20
-133.6896863815082
 30
0.0
 10
102.5039930299296
 20
-133.6896863815082
 30
0.0
 10
102.1946234553541
 20
-133.6641926749173
 30
0.0
 10
101.6764810943725
 20
-133.4719563468404
 30
0.0
 10
101.1707410771379
 20
-133.0654350795809
 30
0.0
 10
101.1707410771379
 20
-133.0654350795809
 30
0.0
 10
101.1707410771379
 20
-133.9032823015936
 30
0.0
 10
101.1707410771379
 20
-133.9032823015936
 30
0.0
 10
101.1707410771379
 20
-133.9032823015936
 30
0.0
 10
100.9592122143435
 20
-133.9032823015936
 30
0.0
 10
100.9592122143435
 20
-133.9032823015936
 30
0.0
 10
100.9592122143435
 20
-133.9032823015936
 30
0.0
 10
100.9592122143435
 20
-132.8284125101957
 30
0.0
 10
100.9592122143435
 20
-132.8284125101957
 30
0.0
 10
100.9592122143435
 20
-132.8284125101957
 30
0.0
 10
101.1707410771379
 20
-132.8284125101957
 30
0.0
 10
101.1707410771379
 20
-132.8284125101957
 30
0.0
 10
101.4608181169959
 20
-133.1522514858092
 30
0.0
 10
102.0533745404589
 20
-133.4189018763675
 30
0.0
 10
102.5039930299296
 20
-133.4526638121229
 30
0.0
  0
HATCH
  5
BF
330
AF
100
AcDbEntity
  8
_U+30EC_U+30A4_U+30E4_U+30FC 1
 62
   179
420
  2234388
100
AcDbHatch
 10
0.0
 20
0.0
 30
0.0
210
0.0
220
0.0
230
1.0
  2
SOLID
 70
     1
 71
     0
 91
        1
 92
        1
 93
        1
 72
     4
 94
        3
 73
     0
 74
     1
 95
       26
 96
       22
 40
0.0
 40
0.0
 40
0.0
 40
0.0
 40
1.0
 40
1.0
 40
1.0
 40
2.0
 40
2.0
 40
2.0
 40
3.0
 40
3.0
 40
3.0
 40
4.0
 40
4.0
 40
4.0
 40
5.0
 40
5.0
 40
5.0
 40
6.0
 40
6.0
 40
6.0
 40
7.0
 40
7.0
 40
7.0
 40
7.0
 10
102.5039930299296
 20
-133.4526638121229
 10
102.5039930299296
 20
-133.4526638121229
 10
102.5039930299296
 20
-133.6896863815082
 10
102.5039930299296
 20
-133.6896863815082
 10
102.1946234553541
 20
-133.6641926749173
 10
101.6764810943725
 20
-133.4719563468404
 10
101.1707410771379
 20
-133.0654350795809
 10
101.1707410771379
 20
-133.0654350795809
 10
101.1707410771379
 20
-133.9032823015936
 10
101.1707410771379
 20
-133.9032823015936
 10
101.1707410771379
 20
-133.9032823015936
 10
100.9592122143435
 20
-133.9032823015936
 10
100.9592122143435
 20
-133.9032823015936
 10
100.9592122143435
 20
-133.9032823015936
 10
100.9592122143435
 20
-132.8284125101957
 10
100.9592122143435
 20
-132.8284125101957
 10
100.9592122143435
 20
-132.8284125101957
 10
101.1707410771379
 20
-132.8284125101957
 10
101.1707410771379
 20
-132.8284125101957
 10
101.4608181169959
 20
-133.1522514858092
 10
102.0533745404589
 20
-133.4189018763675
 10
102.5039930299296
 20
-133.4526638121229
 97
        0
 97
        0
 75
     2
 76
     1
 98
        0
  0
ENDBLK
  5
B2
330
AF
100
AcDbEntity
  8
0
100
AcDbBlockEnd
  0
BLOCK
  5
CE
330
CC
100
AcDbEntity
  8
0
100
AcDbBlockBegin
  2
block 5
 70
     0
 10
0.0
 20
0.0
 30
0.0
  3
block 5
  1

  0
SPLINE
  5
D0
330
CC
100
AcDbEntity
  8
_U+30EC_U+30A4_U+30E4_U+30FC 1
370
     0
100
AcDbSpline
210
0.0
220
0.0
230
1.0
 70
    11
 71
     3
 72
    26
 73
    22
 74
     0
 42
0.0000000001
 43
0.0000000001
 12
1.0
 22
0.0
 32
0.0
 13
1.0
 23
0.0
 33
0.0
 40
0.0
 40
0.0
 40
0.0
 40
0.0
 40
1.0
 40
1.0
 40
1.0
 40
2.0
 40
2.0
 40
2.0
 40
3.0
 40
3.0
 40
3.0
 40
4.0
 40
4.0
 40
4.0
 40
5.0
 40
5.0
 40
5.0
 40
6.0
 40
6.0
 40
6.0
 40
7.0
 40
7.0
 40
7.0
 40
7.0
 10
95.8663275584987
 20
-122.8238552210302
 30
0.0
 10
95.8663275584987
 20
-122.8238552210302
 30
0.0
 10
95.6293049891135
 20
-122.8238552210302
 30
0.0
 10
95.6293049891135
 20
-122.8238552210302
 30
0.0
 10
95.65479869570436
 20
-122.5150024107775
 30
0.0
 10
95.84737953332983
 20
-121.9966877950217
 30
0.0
 10
96.25355629104078
 20
-121.4911200325613
 30
0.0
 10
96.25355629104078
 20
-121.4911200325613
 30
0.0
 10
95.41570906902803
 20
-121.4911200325613
 30
0.0
 10
95.41570906902803
 20
-121.4911200325613
 30
0.0
 10
95.41570906902803
 20
-121.4911200325613
 30
0.0
 10
95.41570906902803
 20
-121.2795911697669
 30
0.0
 10
95.41570906902803
 20
-121.2795911697669
 30
0.0
 10
95.41570906902803
 20
-121.2795911697669
 30
0.0
 10
96.49057886042597
 20
-121.2795911697669
 30
0.0
 10
96.49057886042597
 20
-121.2795911697669
 30
0.0
 10
96.49057886042597
 20
-121.2795911697669
 30
0.0
 10
96.49057886042597
 20
-121.4911200325613
 30
0.0
 10
96.49057886042597
 20
-121.4911200325613
 30
0.0
 10
96.16673988481249
 20
-121.7808525628708
 30
0.0
 10
95.90008949425415
 20
-122.3732367315595
 30
0.0
 10
95.8663275584987
 20
-122.8238552210302
 30
0.0
  0
HATCH
  5
D1
330
CC
100
AcDbEntity
  8
_U+30EC_U+30A4_U+30E4_U+30FC 1
 62
   179
420
  2234388
100
AcDbHatch
 10
0.0
 20
0.0
 30
0.0
210
0.0
220
0.0
230
1.0
  2
SOLID
 70
     1
 71
     0
 91
        1
 92
        1
 93
        1
 72
     4
 94
        3
 73
     0
 74
     1
 95
       26
 96
       22
 40
0.0
 40
0.0
 40
0.0
 40
0.0
 40
1.0
 40
1.0
 40
1.0
 40
2.0
 40
2.0
 40
2.0
 40
3.0
 40
3.0
 40
3.0
 40
4.0
 40
4.0
 40
4.0
 40
5.0
 40
5.0
 40
5.0
 40
6.0
 40
6.0
 40
6.0
 40
7.0
 40
7.0
 40
7.0
 40
7.0
 10
95.8663275584987
 20
-122.8238552210302
 10
95.8663275584987
 20
-122.8238552210302
 10
95.6293049891135
 20
-122.8238552210302
 10
95.6293049891135
 20
-122.8238552210302
 10
95.65479869570436
 20
-122.5150024107775
 10
95.84737953332983
 20
-121.9966877950217
 10
96.25355629104078
 20
-121.4911200325613
 10
96.25355629104078
 20
-121.4911200325613
 10
95.41570906902803
 20
-121.4911200325613
 10
95.41570906902803
 20
-121.4911200325613
 10
95.41570906902803
 20
-121.4911200325613
 10
95.41570906902803
 20
-121.2795911697669
 10
95.41570906902803
 20
-121.2795911697669
 10
95.41570906902803
 20
-121.2795911697669
 10
96.49057886042597
 20
-121.2795911697669
 10
96.49057886042597
 20
-121.2795911697669
 10
96.49057886042597
 20
-121.2795911697669
 10
96.49057886042597
 20
-121.4911200325613
 10
96.49057886042597
 20
-121.4911200325613
 10
96.16673988481249
 20
-121.7808525628708
 10
95.90008949425415
 20
-122.3732367315595
 10
95.8663275584987
 20
-122.8238552210302
 97
        0
 97
        0
 75
     2
 76
     1
 98
        0
  0
ENDBLK
  5
CF
330
CC
100
AcDbEntity
  8
0
100
AcDbBlockEnd
  0
BLOCK
  5
DC
330
DA
100
AcDbEntity
  8
0
100
AcDbBlockBegin
  2
block 6
 70
     0
 10
0.0
 20
0.0
 30
0.0
  3
block 6
  1

  0
SPLINE
  5
DE
330
DA
100
AcDbEntity
  8
_U+30EC_U+30A4_U+30E4_U+30FC 1
370
     0
100
AcDbSpline
210
0.0
220
0.0
230
1.0
 70
    11
 71
     3
 72
    26
 73
    22
 74
     0
 42
0.0000000001
 43
0.0000000001
 12
1.0
 22
0.0
 32
0.0
 13
1.0
 23
0.0
 33
0.0
 40
0.0
 40
0.0
 40
0.0
 40
0.0
 40
1.0
 40
1.0
 40
1.0
 40
2.0
 40
2.0
 40
2.0
 40
3.0
 40
3.0
 40
3.0
 40
4.0
 40
4.0
 40
4.0
 40
5.0
 40
5.0
 40
5.0
 40
6.0
 40
6.0
 40
6.0
 40
7.0
 40
7.0
 40
7.0
 40
7.0
 10
78.40641138447826
 20
-129.0736029408219
 30
0.0
 10
78.40641138447826
 20
-129.0736029408219
 30
0.0
 10
78.40641138447826
 20
-127.969277583025
 30
0.0
 10
78.40641138447826
 20
-127.969277583025
 30
0.0
 10
78.40641138447826
 20
-127.969277583025
 30
0.0
 10
78.07637123699132
 20
-127.969277583025
 30
0.0
 10
78.07637123699132
 20
-127.969277583025
 30
0.0
 10
78.07637123699132
 20
-127.969277583025
 30
0.0
 10
78.07637123699132
 20
-127.8213107319336
 30
0.0
 10
78.07637123699132
 20
-127.8213107319336
 30
0.0
 10
78.40847844176942
 20
-127.806496821347
 30
0.0
 10
78.45498723082028
 20
-127.6435438048947
 30
0.0
 10
78.48461505199343
 20
-127.5293388895586
 30
0.0
 10
78.48461505199343
 20
-127.5293388895586
 30
0.0
 10
78.63068710056803
 20
-127.5293388895586
 30
0.0
 10
78.63068710056803
 20
-127.5293388895586
 30
0.0
 10
78.63068710056803
 20
-127.5293388895586
 30
0.0
 10
78.63068710056803
 20
-129.0736029408219
 30
0.0
 10
78.63068710056803
 20
-129.0736029408219
 30
0.0
 10
78.63068710056803
 20
-129.0736029408219
 30
0.0
 10
78.40641138447826
 20
-129.0736029408219
 30
0.0
 10
78.40641138447826
 20
-129.0736029408219
 30
0.0
  0
HATCH
  5
DF
330
DA
100
AcDbEntity
  8
_U+30EC_U+30A4_U+30E4_U+30FC 1
 62
   179
420
  2234388
100
AcDbHatch
 10
0.0
 20
0.0
 30
0.0
210
0.0
220
0.0
230
1.0
  2
SOLID
 70
     1
 71
     0
 91
        1
 92
        1
 93
        1
 72
     4
 94
        3
 73
     0
 74
     1
 95
       26
 96
       22
 40
0.0
 40
0.0
 40
0.0
 40
0.0
 40
1.0
 40
1.0
 40
1.0
 40
2.0
 40
2.0
 40
2.0
 40
3.0
 40
3.0
 40
3.0
 40
4.0
 40
4.0
 40
4.0
 40
5.0
 40
5.0
 40
5.0
 40
6.0
 40
6.0
 40
6.0
 40
7.0
 40
7.0
 40
7.0
 40
7.0
 10
78.40641138447826
 20
-129.0736029408219
 10
78.40641138447826
 20
-129.0736029408219
 10
78.40641138447826
 20
-127.969277583025
 10
78.40641138447826
 20
-127.969277583025
 10
78.40641138447826
 20
-127.969277583025
 10
78.07637123699132
 20
-127.969277583025
 10
78.07637123699132
 20
-127.969277583025
 10
78.07637123699132
 20
-127.969277583025
 10
78.07637123699132
 20
-127.8213107319336
 10
78.07637123699132
 20
-127.8213107319336
 10
78.40847844176942
 20
-127.806496821347
 10
78.45498723082028
 20
-127.6435438048947
 10
78.48461505199343
 20
-127.5293388895586
 10
78.48461505199343
 20
-127.5293388895586
 10
78.63068710056803
 20
-127.5293388895586
 10
78.63068710056803
 20
-127.5293388895586
 10
78.63068710056803
 20
-127.5293388895586
 10
78.63068710056803
 20
-129.0736029408219
 10
78.63068710056803
 20
-129.0736029408219
 10
78.63068710056803
 20
-129.0736029408219
 10
78.40641138447826
 20
-129.0736029408219
 10
78.40641138447826
 20
-129.0736029408219
 97
        0
 97
        0
 75
     2
 76
     1
 98
        0
  0
ENDBLK
  5
DD
330
DA
100
AcDbEntity
  8
0
100
AcDbBlockEnd
  0
BLOCK
  5
EE
330
EC
100
AcDbEntity
  8
0
100
AcDbBlockBegin
  2
block 7
 70
     0
 10
0.0
 20
0.0
 30
0.0
  3
block 7
  1

  0
SPLINE
  5
F0
330
EC
100
AcDbEntity
  8
_U+30EC_U+30A4_U+30E4_U+30FC 1
370
     0
100
AcDbSpline
210
0.0
220
0.0
230
1.0
 70
    11
 71
     3
 72
    53
 73
    49
 74
     0
 42
0.0000000001
 43
0.0000000001
 12
1.0
 22
0.0
 32
0.0
 13
1.0
 23
0.0
 33
0.0
 40
0.0
 40
0.0
 40
0.0
 40
0.0
 40
1.0
 40
1.0
 40
1.0
 40
2.0
 40
2.0
 40
2.0
 40
3.0
 40
3.0
 40
3.0
 40
4.0
 40
4.0
 40
4.0
 40
5.0
 40
5.0
 40
5.0
 40
6.0
 40
6.0
 40
6.0
 40
7.0
 40
7.0
 40
7.0
 40
8.0
 40
8.0
 40
8.0
 40
9.0
 40
9.0
 40
9.0
 40
10.0
 40
10.0
 40
10.0
 40
11.0
 40
11.0
 40
11.0
 40
12.0
 40
12.0
 40
12.0
 40
13.0
 40
13.0
 40
13.0
 40
14.0
 40
14.0
 40
14.0
 40
15.0
 40
15.0
 40
15.0
 40
16.0
 40
16.0
 40
16.0
 40
16.0
 10
102.9070692017038
 20
-130.0041232313879
 30
0.0
 10
102.9070692017038
 20
-130.0826714084516
 30
0.0
 10
102.8905327433746
 20
-130.1839572157179
 30
0.0
 10
102.827142986446
 20
-130.2859320420813
 30
0.0
 10
102.716899930918
 20
-130.4588758354408
 30
0.0
 10
102.5859863024785
 20
-130.4802354274494
 30
0.0
 10
102.4778103042417
 20
-130.4995279621668
 30
0.0
 10
102.4778103042417
 20
-130.4995279621668
 30
0.0
 10
102.4778103042417
 20
-130.2769747938196
 30
0.0
 10
102.4778103042417
 20
-130.2769747938196
 30
0.0
 10
102.6769368232891
 20
-130.2225422851527
 30
0.0
 10
102.7065646444622
 20
-130.0950737521985
 30
0.0
 10
102.7065646444622
 20
-130.0020561740967
 30
0.0
 10
102.7065646444622
 20
-129.8628743164926
 30
0.0
 10
102.60665687539
 20
-129.7106010960446
 30
0.0
 10
102.3744574396842
 20
-129.7106010960446
 30
0.0
 10
102.1181423355816
 20
-129.7106010960446
 30
0.0
 10
102.0485514067795
 20
-129.8904350803746
 30
0.0
 10
102.0485514067795
 20
-130.0110134223584
 30
0.0
 10
102.0485514067795
 20
-130.0427083008227
 30
0.0
 10
102.0485514067795
 20
-130.1839572157179
 30
0.0
 10
102.1773979779279
 20
-130.2728406792374
 30
0.0
 10
102.1773979779279
 20
-130.2728406792374
 30
0.0
 10
102.1587944623075
 20
-130.4485405489851
 30
0.0
 10
102.1587944623075
 20
-130.4485405489851
 30
0.0
 10
102.1587944623075
 20
-130.4485405489851
 30
0.0
 10
101.3119899920331
 20
-130.3279622070013
 30
0.0
 10
101.3119899920331
 20
-130.3279622070013
 30
0.0
 10
101.3119899920331
 20
-130.3279622070013
 30
0.0
 10
101.3119899920331
 20
-129.5493706273349
 30
0.0
 10
101.3119899920331
 20
-129.5493706273349
 30
0.0
 10
101.3119899920331
 20
-129.5493706273349
 30
0.0
 10
101.5069823964983
 20
-129.5493706273349
 30
0.0
 10
101.5069823964983
 20
-129.5493706273349
 30
0.0
 10
101.5069823964983
 20
-129.5493706273349
 30
0.0
 10
101.5069823964983
 20
-130.1653537000976
 30
0.0
 10
101.5069823964983
 20
-130.1653537000976
 30
0.0
 10
101.5069823964983
 20
-130.1653537000976
 30
0.0
 10
101.9300401220869
 20
-130.2308105143173
 30
0.0
 10
101.9300401220869
 20
-130.2308105143173
 30
0.0
 10
101.8962781863315
 20
-130.1694878146799
 30
0.0
 10
101.8556260596055
 20
-130.0868055230339
 30
0.0
 10
101.8556260596055
 20
-129.9682942383413
 30
0.0
 10
101.8556260596055
 20
-129.7147352106269
 30
0.0
 10
102.0423502349061
 20
-129.4777126412417
 30
0.0
 10
102.3551649049668
 20
-129.4777126412417
 30
0.0
 10
102.6728027087068
 20
-129.4777126412417
 30
0.0
 10
102.9070692017038
 20
-129.7016438477829
 30
0.0
 10
102.9070692017038
 20
-130.0041232313879
 30
0.0
  0
HATCH
  5
F1
330
EC
100
AcDbEntity
  8
_U+30EC_U+30A4_U+30E4_U+30FC 1
 62
   179
420
  2234388
100
AcDbHatch
 10
0.0
 20
0.0
 30
0.0
210
0.0
220
0.0
230
1.0
  2
SOLID
 70
     1
 71
     0
 91
        1
 92
        1
 93
        1
 72
     4
 94
        3
 73
     0
 74
     1
 95
       53
 96
       49
 40
0.0
 40
0.0
 40
0.0
 40
0.0
 40
1.0
 40
1.0
 40
1.0
 40
2.0
 40
2.0
 40
2.0
 40
3.0
 40
3.0
 40
3.0
 40
4.0
 40
4.0
 40
4.0
 40
5.0
 40
5.0
 40
5.0
 40
6.0
 40
6.0
 40
6.0
 40
7.0
 40
7.0
 40
7.0
 40
8.0
 40
8.0
 40
8.0
 40
9.0
 40
9.0
 40
9.0
 40
10.0
 40
10.0
 40
10.0
 40
11.0
 40
11.0
 40
11.0
 40
12.0
 40
12.0
 40
12.0
 40
13.0
 40
13.0
 40
13.0
 40
14.0
 40
14.0
 40
14.0
 40
15.0
 40
15.0
 40
15.0
 40
16.0
 40
16.0
 40
16.0
 40
16.0
 10
102.9070692017038
 20
-130.0041232313879
 10
102.9070692017038
 20
-130.0826714084516
 10
102.8905327433746
 20
-130.1839572157179
 10
102.827142986446
 20
-130.2859320420813
 10
102.716899930918
 20
-130.4588758354408
 10
102.5859863024785
 20
-130.4802354274494
 10
102.4778103042417
 20
-130.4995279621668
 10
102.4778103042417
 20
-130.4995279621668
 10
102.4778103042417
 20
-130.2769747938196
 10
102.4778103042417
 20
-130.2769747938196
 10
102.6769368232891
 20
-130.2225422851527
 10
102.7065646444622
 20
-130.0950737521985
 10
102.7065646444622
 20
-130.0020561740967
 10
102.7065646444622
 20
-129.8628743164926
 10
102.60665687539
 20
-129.7106010960446
 10
102.3744574396842
 20
-129.7106010960446
 10
102.1181423355816
 20
-129.7106010960446
 10
102.0485514067795
 20
-129.8904350803746
 10
102.0485514067795
 20
-130.0110134223584
 10
102.0485514067795
 20
-130.0427083008227
 10
102.0485514067795
 20
-130.1839572157179
 10
102.1773979779279
 20
-130.2728406792374
 10
102.1773979779279
 20
-130.2728406792374
 10
102.1587944623075
 20
-130.4485405489851
 10
102.1587944623075
 20
-130.4485405489851
 10
102.1587944623075
 20
-130.4485405489851
 10
101.3119899920331
 20
-130.3279622070013
 10
101.3119899920331
 20
-130.3279622070013
 10
101.3119899920331
 20
-130.3279622070013
 10
101.3119899920331
 20
-129.5493706273349
 10
101.3119899920331
 20
-129.5493706273349
 10
101.3119899920331
 20
-129.5493706273349
 10
101.5069823964983
 20
-129.5493706273349
 10
101.5069823964983
 20
-129.5493706273349
 10
101.5069823964983
 20
-129.5493706273349
 10
101.5069823964983
 20
-130.1653537000976
 10
101.5069823964983
 20
-130.1653537000976
 10
101.5069823964983
 20
-130.1653537000976
 10
101.9300401220869
 20
-130.2308105143173
 10
101.9300401220869
 20
-130.2308105143173
 10
101.8962781863315
 20
-130.1694878146799
 10
101.8556260596055
 20
-130.0868055230339
 10
101.8556260596055
 20
-129.9682942383413
 10
101.8556260596055
 20
-129.7147352106269
 10
102.0423502349061
 20
-129.4777126412417
 10
102.3551649049668
 20
-129.4777126412417
 10
102.6728027087068
 20
-129.4777126412417
 10
102.9070692017038
 20
-129.7016438477829
 10
102.9070692017038
 20
-130.0041232313879
 97
        0
 97
        0
 75
     2
 76
     1
 98
        0
  0
POLYLINE
  5
F2
330
EC
100
AcDbEntity
  8
_U+30EC_U+30A4_U+30E4_U+30FC 1
370
     0
100
AcDb2dPolyline
 66
     1
 10
0.0
 20
0.0
 30
0.0
  0
VERTEX
  5
F3
330
F2
100
AcDbEntity
  8
_U+30EC_U+30A4_U+30E4_U+30FC 1
370
     0
100
AcDbVertex
100
AcDb2dVertex
 10
102.8567708076191
 20
-129.2482692819241
 30
0.0
  0
VERTEX
  5
F4
330
F2
100
AcDbEntity
  8
_U+30EC_U+30A4_U+30E4_U+30FC 1
370
     0
100
AcDbVertex
100
AcDb2dVertex
 10
102.6045898180989
 20
-129.2482692819241
 30
0.0
  0
VERTEX
  5
F5
330
F2
100
AcDbEntity
  8
_U+30EC_U+30A4_U+30E4_U+30FC 1
370
     0
100
AcDbVertex
100
AcDb2dVertex
 10
102.6045898180989
 20
-128.9967773115008
 30
0.0
  0
VERTEX
  5
F6
330
F2
100
AcDbEntity
  8
_U+30EC_U+30A4_U+30E4_U+30FC 1
370
     0
100
AcDbVertex
100
AcDb2dVertex
 10
102.8567708076191
 20
-128.9967773115008
 30
0.0
  0
VERTEX
  5
F7
330
F2
100
AcDbEntity
  8
_U+30EC_U+30A4_U+30E4_U+30FC 1
370
     0
100
AcDbVertex
100
AcDb2dVertex
 10
102.8567708076191
 20
-129.2482692819241
 30
0.0
  0
SEQEND
  5
F8
330
F2
100
AcDbEntity
  8
_U+30EC_U+30A4_U+30E4_U+30FC 1
370
     0
  0
HATCH
  5
F9
330
EC
100
AcDbEntity
  8
_U+30EC_U+30A4_U+30E4_U+30FC 1
 62
   179
420
  2234388
100
AcDbHatch
 10
0.0
 20
0.0
 30
0.0
210
0.0
220
0.0
230
1.0
  2
SOLID
 70
     1
 71
     0
 91
        1
 92
        1
 93
        4
 72
     1
 10
102.8567708076191
 20
-129.2482692819241
 11
102.6045898180989
 21
-129.2482692819241
 72
     1
 10
102.6045898180989
 20
-129.2482692819241
 11
102.6045898180989
 21
-128.9967773115008
 72
     1
 10
102.6045898180989
 20
-128.9967773115008
 11
102.8567708076191
 21
-128.9967773115008
 72
     1
 10
102.8567708076191
 20
-128.9967773115008
 11
102.8567708076191
 21
-129.2482692819241
 97
        0
 75
     2
 76
     1
 98
        0
  0
SPLINE
  5
FA
330
EC
100
AcDbEntity
  8
_U+30EC_U+30A4_U+30E4_U+30FC 1
370
     0
100
AcDbSpline
210
0.0
220
0.0
230
1.0
 70
    11
 71
     3
 72
    53
 73
    49
 74
     0
 42
0.0000000001
 43
0.0000000001
 12
1.0
 22
0.0
 32
0.0
 13
1.0
 23
0.0
 33
0.0
 40
0.0
 40
0.0
 40
0.0
 40
0.0
 40
1.0
 40
1.0
 40
1.0
 40
2.0
 40
2.0
 40
2.0
 40
3.0
 40
3.0
 40
3.0
 40
4.0
 40
4.0
 40
4.0
 40
5.0
 40
5.0
 40
5.0
 40
6.0
 40
6.0
 40
6.0
 40
7.0
 40
7.0
 40
7.0
 40
8.0
 40
8.0
 40
8.0
 40
9.0
 40
9.0
 40
9.0
 40
10.0
 40
10.0
 40
10.0
 40
11.0
 40
11.0
 40
11.0
 40
12.0
 40
12.0
 40
12.0
 40
13.0
 40
13.0
 40
13.0
 40
14.0
 40
14.0
 40
14.0
 40
15.0
 40
15.0
 40
15.0
 40
16.0
 40
16.0
 40
16.0
 40
16.0
 10
102.9070692017038
 20
-128.2793361766975
 30
0.0
 10
102.9070692017038
 20
-128.3575398442127
 30
0.0
 10
102.8905327433746
 20
-128.4591701610276
 30
0.0
 10
102.827142986446
 20
-128.5608004778424
 30
0.0
 10
102.716899930918
 20
-128.7340887807505
 30
0.0
 10
102.5859863024785
 20
-128.755448372759
 30
0.0
 10
102.4778103042417
 20
-128.7742241431537
 30
0.0
 10
102.4778103042417
 20
-128.7742241431537
 30
0.0
 10
102.4778103042417
 20
-128.5521877391293
 30
0.0
 10
102.4778103042417
 20
-128.5521877391293
 30
0.0
 10
102.6769368232891
 20
-128.4974107209138
 30
0.0
 10
102.7065646444622
 20
-128.3702866975081
 30
0.0
 10
102.7065646444622
 20
-128.2772691194064
 30
0.0
 10
102.7065646444622
 20
-128.1377427522538
 30
0.0
 10
102.60665687539
 20
-127.9854695318057
 30
0.0
 10
102.3744574396842
 20
-127.9854695318057
 30
0.0
 10
102.1181423355816
 20
-127.9854695318057
 30
0.0
 10
102.0485514067795
 20
-128.1653035161358
 30
0.0
 10
102.0485514067795
 20
-128.2858818581195
 30
0.0
 10
102.0485514067795
 20
-128.3175767365838
 30
0.0
 10
102.0485514067795
 20
-128.4591701610276
 30
0.0
 10
102.1773979779279
 20
-128.548053624547
 30
0.0
 10
102.1773979779279
 20
-128.548053624547
 30
0.0
 10
102.1587944623075
 20
-128.7237534942948
 30
0.0
 10
102.1587944623075
 20
-128.7237534942948
 30
0.0
 10
102.1587944623075
 20
-128.7237534942948
 30
0.0
 10
101.3119899920331
 20
-128.603175152311
 30
0.0
 10
101.3119899920331
 20
-128.603175152311
 30
0.0
 10
101.3119899920331
 20
-128.603175152311
 30
0.0
 10
101.3119899920331
 20
-127.8245835726446
 30
0.0
 10
101.3119899920331
 20
-127.8245835726446
 30
0.0
 10
101.3119899920331
 20
-127.8245835726446
 30
0.0
 10
101.5069823964983
 20
-127.8245835726446
 30
0.0
 10
101.5069823964983
 20
-127.8245835726446
 30
0.0
 10
101.5069823964983
 20
-127.8245835726446
 30
0.0
 10
101.5069823964983
 20
-128.4402221358587
 30
0.0
 10
101.5069823964983
 20
-128.4402221358587
 30
0.0
 10
101.5069823964983
 20
-128.4402221358587
 30
0.0
 10
101.9300401220869
 20
-128.5056789500784
 30
0.0
 10
101.9300401220869
 20
-128.5056789500784
 30
0.0
 10
101.8962781863315
 20
-128.444356250441
 30
0.0
 10
101.8556260596055
 20
-128.3620184683435
 30
0.0
 10
101.8556260596055
 20
-128.2435071836509
 30
0.0
 10
101.8556260596055
 20
-127.989603646388
 30
0.0
 10
102.0423502349061
 20
-127.7525810770028
 30
0.0
 10
102.3551649049668
 20
-127.7525810770028
 30
0.0
 10
102.6728027087068
 20
-127.7525810770028
 30
0.0
 10
102.9070692017038
 20
-127.9768567930926
 30
0.0
 10
102.9070692017038
 20
-128.2793361766975
 30
0.0
  0
HATCH
  5
FB
330
EC
100
AcDbEntity
  8
_U+30EC_U+30A4_U+30E4_U+30FC 1
 62
   179
420
  2234388
100
AcDbHatch
 10
0.0
 20
0.0
 30
0.0
210
0.0
220
0.0
230
1.0
  2
SOLID
 70
     1
 71
     0
 91
        1
 92
        1
 93
        1
 72
     4
 94
        3
 73
     0
 74
     1
 95
       53
 96
       49
 40
0.0
 40
0.0
 40
0.0
 40
0.0
 40
1.0
 40
1.0
 40
1.0
 40
2.0
 40
2.0
 40
2.0
 40
3.0
 40
3.0
 40
3.0
 40
4.0
 40
4.0
 40
4.0
 40
5.0
 40
5.0
 40
5.0
 40
6.0
 40
6.0
 40
6.0
 40
7.0
 40
7.0
 40
7.0
 40
8.0
 40
8.0
 40
8.0
 40
9.0
 40
9.0
 40
9.0
 40
10.0
 40
10.0
 40
10.0
 40
11.0
 40
11.0
 40
11.0
 40
12.0
 40
12.0
 40
12.0
 40
13.0
 40
13.0
 40
13.0
 40
14.0
 40
14.0
 40
14.0
 40
15.0
 40
15.0
 40
15.0
 40
16.0
 40
16.0
 40
16.0
 40
16.0
 10
102.9070692017038
 20
-128.2793361766975
 10
102.9070692017038
 20
-128.3575398442127
 10
102.8905327433746
 20
-128.4591701610276
 10
102.827142986446
 20
-128.5608004778424
 10
102.716899930918
 20
-128.7340887807505
 10
102.5859863024785
 20
-128.755448372759
 10
102.4778103042417
 20
-128.7742241431537
 10
102.4778103042417
 20
-128.7742241431537
 10
102.4778103042417
 20
-128.5521877391293
 10
102.4778103042417
 20
-128.5521877391293
 10
102.6769368232891
 20
-128.4974107209138
 10
102.7065646444622
 20
-128.3702866975081
 10
102.7065646444622
 20
-128.2772691194064
 10
102.7065646444622
 20
-128.1377427522538
 10
102.60665687539
 20
-127.9854695318057
 10
102.3744574396842
 20
-127.9854695318057
 10
102.1181423355816
 20
-127.9854695318057
 10
102.0485514067795
 20
-128.1653035161358
 10
102.0485514067795
 20
-128.2858818581195
 10
102.0485514067795
 20
-128.3175767365838
 10
102.0485514067795
 20
-128.4591701610276
 10
102.1773979779279
 20
-128.548053624547
 10
102.1773979779279
 20
-128.548053624547
 10
102.1587944623075
 20
-128.7237534942948
 10
102.1587944623075
 20
-128.7237534942948
 10
102.1587944623075
 20
-128.7237534942948
 10
101.3119899920331
 20
-128.603175152311
 10
101.3119899920331
 20
-128.603175152311
 10
101.3119899920331
 20
-128.603175152311
 10
101.3119899920331
 20
-127.8245835726446
 10
101.3119899920331
 20
-127.8245835726446
 10
101.3119899920331
 20
-127.8245835726446
 10
101.5069823964983
 20
-127.8245835726446
 10
101.5069823964983
 20
-127.8245835726446
 10
101.5069823964983
 20
-127.8245835726446
 10
101.5069823964983
 20
-128.4402221358587
 10
101.5069823964983
 20
-128.4402221358587
 10
101.5069823964983
 20
-128.4402221358587
 10
101.9300401220869
 20
-128.5056789500784
 10
101.9300401220869
 20
-128.5056789500784
 10
101.8962781863315
 20
-128.444356250441
 10
101.8556260596055
 20
-128.3620184683435
 10
101.8556260596055
 20
-128.2435071836509
 10
101.8556260596055
 20
-127.989603646388
 10
102.0423502349061
 20
-127.7525810770028
 10
102.3551649049668
 20
-127.7525810770028
 10
102.6728027087068
 20
-127.7525810770028
 10
102.9070692017038
 20
-127.9768567930926
 10
102.9070692017038
 20
-128.2793361766975
 97
        0
 97
        0
 75
     2
 76
     1
 98
        0
  0
ENDBLK
  5
EF
330
EC
100
AcDbEntity
  8
0
100
AcDbBlockEnd
  0
ENDSEC
  0
SECTION
  2
ENTITIES
  0
POLYLINE
  5
41
330
1F
100
AcDbEntity
  8
_U+30EC_U+30A4_U+30E4_U+30FC 1
 62
   179
420
  2234388
370
    25
100
AcDb2dPolyline
 66
     1
 10
0.0
 20
0.0
 30
0.0
  0
VERTEX
  5
42
330
41
100
AcDbEntity
  8
_U+30EC_U+30A4_U+30E4_U+30FC 1
 62
   179
420
  2234388
370
    25
100
AcDbVertex
100
AcDb2dVertex
 10
81.45324708862121
 20
-125.4200846908671
 30
0.0
  0
VERTEX
  5
43
330
41
100
AcDbEntity
  8
_U+30EC_U+30A4_U+30E4_U+30FC 1
 62
   179
420
  2234388
370
    25
100
AcDbVertex
100
AcDb2dVertex
 10
81.45324708862121
 20
-132.9200696889924
 30
0.0
  0
SEQEND
  5
44
330
41
100
AcDbEntity
  8
_U+30EC_U+30A4_U+30E4_U+30FC 1
 62
   179
420
  2234388
370
    25
  0
POLYLINE
  5
45
330
1F
100
AcDbEntity
  8
_U+30EC_U+30A4_U+30E4_U+30FC 1
 62
   179
420
  2234388
370
    25
100
AcDb2dPolyline
 66
     1
 10
0.0
 20
0.0
 30
0.0
  0
VERTEX
  5
46
330
45
100
AcDbEntity
  8
_U+30EC_U+30A4_U+30E4_U+30FC 1
 62
   179
420
  2234388
370
    25
100
AcDbVertex
100
AcDb2dVertex
 10
82.4533720631059
 20
-131.9199446892421
 30
0.0
  0
VERTEX
  5
47
330
45
100
AcDbEntity
  8
_U+30EC_U+30A4_U+30E4_U+30FC 1
 62
   179
420
  2234388
370
    25
100
AcDbVertex
100
AcDb2dVertex
 10
92.45328125243141
 20
-131.9199446892421
 30
0.0
  0
SEQEND
  5
48
330
45
100
AcDbEntity
  8
_U+30EC_U+30A4_U+30E4_U+30FC 1
 62
   179
420
  2234388
370
    25
  0
POLYLINE
  5
49
330
1F
100
AcDbEntity
  8
_U+30EC_U+30A4_U+30E4_U+30FC 1
 62
   179
420
  2234388
370
    25
100
AcDb2dPolyline
 66
     1
 10
0.0
 20
0.0
 30
0.0
  0
VERTEX
  5
4A
330
49
100
AcDbEntity
  8
_U+30EC_U+30A4_U+30E4_U+30FC 1
 62
   179
420
  2234388
370
    25
100
AcDbVertex
100
AcDb2dVertex
 10
82.4533720631059
 20
-126.4201744128393
 30
0.0
  0
VERTEX
  5
4B
330
49
100
AcDbEntity
  8
_U+30EC_U+30A4_U+30E4_U+30FC 1
 62
   179
420
  2234388
370
    25
100
AcDbVertex
100
AcDb2dVertex
 10
89.453294384523
 20
-126.4201744128393
 30
0.0
  0
SEQEND
  5
4C
330
49
100
AcDbEntity
  8
_U+30EC_U+30A4_U+30E4_U+30FC 1
 62
   179
420
  2234388
370
    25
  0
POLYLINE
  5
4D
330
1F
100
AcDbEntity
  8
_U+30EC_U+30A4_U+30E4_U+30FC 1
 62
   179
420
  2234388
370
    25
100
AcDb2dPolyline
 66
     1
 10
0.0
 20
0.0
 30
0.0
  0
VERTEX
  5
4E
330
4D
100
AcDbEntity
  8
_U+30EC_U+30A4_U+30E4_U+30FC 1
 62
   179
420
  2234388
370
    25
100
AcDbVertex
100
AcDb2dVertex
 10
81.45324708862121
 20
-125.4200846908671
 30
0.0
  0
VERTEX
  5
4F
330
4D
100
AcDbEntity
  8
_U+30EC_U+30A4_U+30E4_U+30FC 1
 62
   179
420
  2234388
370
    25
100
AcDbVertex
100
AcDb2dVertex
 10
89.08912189381381
 20
-125.4200846908671
 30
0.0
  0
SEQEND
  5
50
330
4D
100
AcDbEntity
  8
_U+30EC_U+30A4_U+30E4_U+30FC 1
 62
   179
420
  2234388
370
    25
  0
POLYLINE
  5
51
330
1F
100
AcDbEntity
  8
_U+30EC_U+30A4_U+30E4_U+30FC 1
 62
   179
420
  2234388
370
    25
100
AcDb2dPolyline
 66
     1
 10
0.0
 20
0.0
 30
0.0
  0
VERTEX
  5
52
330
51
100
AcDbEntity
  8
_U+30EC_U+30A4_U+30E4_U+30FC 1
 62
   179
420
  2234388
370
    25
100
AcDbVertex
100
AcDb2dVertex
 10
81.45324708862121
 20
-132.9200696889924
 30
0.0
  0
VERTEX
  5
53
330
51
100
AcDbEntity
  8
_U+30EC_U+30A4_U+30E4_U+30FC 1
 62
   179
420
  2234388
370
    25
100
AcDbVertex
100
AcDb2dVertex
 10
99.45302718496411
 20
-132.9200696889924
 30
0.0
  0
SEQEND
  5
54
330
51
100
AcDbEntity
  8
_U+30EC_U+30A4_U+30E4_U+30FC 1
 62
   179
420
  2234388
370
    25
  0
POLYLINE
  5
55
330
1F
100
AcDbEntity
  8
_U+30EC_U+30A4_U+30E4_U+30FC 1
 62
   179
420
  2234388
370
    25
100
AcDb2dPolyline
 66
     1
 10
0.0
 20
0.0
 30
0.0
  0
VERTEX
  5
56
330
55
100
AcDbEntity
  8
_U+30EC_U+30A4_U+30E4_U+30FC 1
 62
   179
420
  2234388
370
    25
100
AcDbVertex
100
AcDb2dVertex
 10
82.4533720631059
 20
-126.4201744128393
 30
0.0
  0
VERTEX
  5
57
330
55
100
AcDbEntity
  8
_U+30EC_U+30A4_U+30E4_U+30FC 1
 62
   179
420
  2234388
370
    25
100
AcDbVertex
100
AcDb2dVertex
 10
82.4533720631059
 20
-131.9199446892421
 30
0.0
  0
SEQEND
  5
58
330
55
100
AcDbEntity
  8
_U+30EC_U+30A4_U+30E4_U+30FC 1
 62
   179
420
  2234388
370
    25
  0
POLYLINE
  5
59
330
1F
100
AcDbEntity
  8
_U+30EC_U+30A4_U+30E4_U+30FC 1
 62
   179
420
  2234388
370
    25
100
AcDb2dPolyline
 66
     1
 10
0.0
 20
0.0
 30
0.0
  0
VERTEX
  5
5A
330
59
100
AcDbEntity
  8
_U+30EC_U+30A4_U+30E4_U+30FC 1
 62
   179
420
  2234388
370
    25
100
AcDbVertex
100
AcDb2dVertex
 10
92.75300124478491
 20
-132.2200174669448
 30
0.0
  0
VERTEX
  5
5B
330
59
100
AcDbEntity
  8
_U+30EC_U+30A4_U+30E4_U+30FC 1
 62
   179
420
  2234388
370
    25
100
AcDbVertex
100
AcDb2dVertex
 10
99.19878024700606
 20
-132.2200174669448
 30
0.0
  0
SEQEND
  5
5C
330
59
100
AcDbEntity
  8
_U+30EC_U+30A4_U+30E4_U+30FC 1
 62
   179
420
  2234388
370
    25
  0
POLYLINE
  5
5D
330
1F
100
AcDbEntity
  8
_U+30EC_U+30A4_U+30E4_U+30FC 1
 62
   179
420
  2234388
370
    25
100
AcDb2dPolyline
 66
     1
 10
0.0
 20
0.0
 30
0.0
  0
VERTEX
  5
5E
330
5D
100
AcDbEntity
  8
_U+30EC_U+30A4_U+30E4_U+30FC 1
 62
   179
420
  2234388
370
    25
100
AcDbVertex
100
AcDb2dVertex
 10
89.08912189381381
 20
-125.4200846908671
 30
0.0
  0
VERTEX
  5
5F
330
5D
100
AcDbEntity
  8
_U+30EC_U+30A4_U+30E4_U+30FC 1
 62
   179
420
  2234388
370
    25
100
AcDbVertex
100
AcDb2dVertex
 10
89.453294384523
 20
-126.4201744128393
 30
0.0
  0
SEQEND
  5
60
330
5D
100
AcDbEntity
  8
_U+30EC_U+30A4_U+30E4_U+30FC 1
 62
   179
420
  2234388
370
    25
  0
POLYLINE
  5
61
330
1F
100
AcDbEntity
  8
_U+30EC_U+30A4_U+30E4_U+30FC 1
 62
   179
420
  2234388
370
    25
100
AcDb2dPolyline
 66
     1
 10
0.0
 20
0.0
 30
0.0
  0
VERTEX
  5
62
330
61
100
AcDbEntity
  8
_U+30EC_U+30A4_U+30E4_U+30FC 1
 62
   179
420
  2234388
370
    25
100
AcDbVertex
100
AcDb2dVertex
 10
99.19878024700606
 20
-132.2200174669448
 30
0.0
  0
VERTEX
  5
63
330
61
100
AcDbEntity
  8
_U+30EC_U+30A4_U+30E4_U+30FC 1
 62
   179
420
  2234388
370
    25
100
AcDbVertex
100
AcDb2dVertex
 10
99.45302718496411
 20
-132.9200696889924
 30
0.0
  0
SEQEND
  5
64
330
61
100
AcDbEntity
  8
_U+30EC_U+30A4_U+30E4_U+30FC 1
 62
   179
420
  2234388
370
    25
  0
POLYLINE
  5
65
330
1F
100
AcDbEntity
  8
_U+30EC_U+30A4_U+30E4_U+30FC 1
 62
   179
420
  2234388
370
    25
100
AcDb2dPolyline
 66
     1
 10
0.0
 20
0.0
 30
0.0
  0
VERTEX
  5
66
330
65
100
AcDbEntity
  8
_U+30EC_U+30A4_U+30E4_U+30FC 1
 62
   179
420
  2234388
370
    25
100
AcDbVertex
100
AcDb2dVertex
 10
92.45328125243141
 20
-131.9199446892421
 30
0.0
  0
VERTEX
  5
67
330
65
100
AcDbEntity
  8
_U+30EC_U+30A4_U+30E4_U+30FC 1
 62
   179
420
  2234388
370
    25
100
AcDbVertex
100
AcDb2dVertex
 10
92.75300124478491
 20
-132.2200174669448
 30
0.0
  0
SEQEND
  5
68
330
65
100
AcDbEntity
  8
_U+30EC_U+30A4_U+30E4_U+30FC 1
 62
   179
420
  2234388
370
    25
  0
SPLINE
  5
69
330
1F
100
AcDbEntity
  8
_U+30EC_U+30A4_U+30E4_U+30FC 1
 62
   179
420
  2234388
370
     9
100
AcDbSpline
210
0.0
220
0.0
230
1.0
 70
    11
 71
     3
 72
    17
 73
    13
 74
     0
 42
0.0000000001
 43
0.0000000001
 12
1.0
 22
0.0
 32
0.0
 13
1.0
 23
0.0
 33
0.0
 40
0.0
 40
0.0
 40
0.0
 40
0.0
 40
1.0
 40
1.0
 40
1.0
 40
2.0
 40
2.0
 40
2.0
 40
3.0
 40
3.0
 40
3.0
 40
4.0
 40
4.0
 40
4.0
 40
4.0
 10
81.55350653050782
 20
-129.6702808009155
 30
0.0
 10
81.55350653050782
 20
-129.6148241342628
 30
0.0
 10
81.50870375387306
 20
-129.5700566342742
 30
0.0
 10
81.45324708862121
 20
-129.5700566342742
 30
0.0
 10
81.39779042336936
 20
-129.5700566342742
 30
0.0
 10
81.35298764673459
 20
-129.6148241342628
 30
0.0
 10
81.35298764673459
 20
-129.6702808009155
 30
0.0
 10
81.35298764673459
 20
-129.7254199675686
 30
0.0
 10
81.39779042336936
 20
-129.7701874675578
 30
0.0
 10
81.45324708862121
 20
-129.7701874675578
 30
0.0
 10
81.50870375387306
 20
-129.7701874675578
 30
0.0
 10
81.55350653050782
 20
-129.7254199675686
 30
0.0
 10
81.55350653050782
 20
-129.6702808009155
 30
0.0
  0
SPLINE
  5
6A
330
1F
100
AcDbEntity
  8
_U+30EC_U+30A4_U+30E4_U+30FC 1
 62
   179
420
  2234388
370
     9
100
AcDbSpline
210
0.0
220
0.0
230
1.0
 70
    11
 71
     3
 72
    17
 73
    13
 74
     0
 42
0.0000000001
 43
0.0000000001
 12
1.0
 22
0.0
 32
0.0
 13
1.0
 23
0.0
 33
0.0
 40
0.0
 40
0.0
 40
0.0
 40
0.0
 40
1.0
 40
1.0
 40
1.0
 40
2.0
 40
2.0
 40
2.0
 40
3.0
 40
3.0
 40
3.0
 40
4.0
 40
4.0
 40
4.0
 40
4.0
 10
82.55327872722373
 20
-129.6702808009155
 30
0.0
 10
82.55327872722373
 20
-129.6148241342628
 30
0.0
 10
82.50847595058897
 20
-129.5700566342742
 30
0.0
 10
82.4533720631059
 20
-129.5700566342742
 30
0.0
 10
82.39823289784594
 20
-129.5700566342742
 30
0.0
 10
82.35346539898806
 20
-129.6148241342628
 30
0.0
 10
82.35346539898806
 20
-129.6702808009155
 30
0.0
 10
82.35346539898806
 20
-129.7254199675686
 30
0.0
 10
82.39823289784594
 20
-129.7701874675578
 30
0.0
 10
82.4533720631059
 20
-129.7701874675578
 30
0.0
 10
82.50847595058897
 20
-129.7701874675578
 30
0.0
 10
82.55327872722373
 20
-129.7254199675686
 30
0.0
 10
82.55327872722373
 20
-129.6702808009155
 30
0.0
  0
SPLINE
  5
6B
330
1F
100
AcDbEntity
  8
_U+30EC_U+30A4_U+30E4_U+30FC 1
 62
   179
420
  2234388
370
     9
100
AcDbSpline
210
0.0
220
0.0
230
1.0
 70
    11
 71
     3
 72
    17
 73
    13
 74
     0
 42
0.0000000001
 43
0.0000000001
 12
1.0
 22
0.0
 32
0.0
 13
1.0
 23
0.0
 33
0.0
 40
0.0
 40
0.0
 40
0.0
 40
0.0
 40
1.0
 40
1.0
 40
1.0
 40
2.0
 40
2.0
 40
2.0
 40
3.0
 40
3.0
 40
3.0
 40
4.0
 40
4.0
 40
4.0
 40
4.0
 10
81.55350653050782
 20
-121.4199727474228
 30
0.0
 10
81.55350653050782
 20
-121.3648688585476
 30
0.0
 10
81.50870375387306
 20
-121.3200660807812
 30
0.0
 10
81.45324708862121
 20
-121.3200660807812
 30
0.0
 10
81.39779042336936
 20
-121.3200660807812
 30
0.0
 10
81.35298764673459
 20
-121.3648688585476
 30
0.0
 10
81.35298764673459
 20
-121.4199727474228
 30
0.0
 10
81.35298764673459
 20
-121.4751119140756
 30
0.0
 10
81.39779042336936
 20
-121.5198794140645
 30
0.0
 10
81.45324708862121
 20
-121.5198794140645
 30
0.0
 10
81.50870375387306
 20
-121.5198794140645
 30
0.0
 10
81.55350653050782
 20
-121.4751119140756
 30
0.0
 10
81.55350653050782
 20
-121.4199727474228
 30
0.0
  0
SPLINE
  5
6C
330
1F
100
AcDbEntity
  8
_U+30EC_U+30A4_U+30E4_U+30FC 1
 62
   179
420
  2234388
370
     9
100
AcDbSpline
210
0.0
220
0.0
230
1.0
 70
    11
 71
     3
 72
    17
 73
    13
 74
     0
 42
0.0000000001
 43
0.0000000001
 12
1.0
 22
0.0
 32
0.0
 13
1.0
 23
0.0
 33
0.0
 40
0.0
 40
0.0
 40
0.0
 40
0.0
 40
1.0
 40
1.0
 40
1.0
 40
2.0
 40
2.0
 40
2.0
 40
3.0
 40
3.0
 40
3.0
 40
4.0
 40
4.0
 40
4.0
 40
4.0
 10
89.55302465975645
 20
-121.4199727474228
 30
0.0
 10
89.55302465975645
 20
-121.3648688585476
 30
0.0
 10
89.50822188312168
 20
-121.3200660807812
 30
0.0
 10
89.4531179956386
 20
-121.3200660807812
 30
0.0
 10
89.39797883037866
 20
-121.3200660807812
 30
0.0
 10
89.35321133152078
 20
-121.3648688585476
 30
0.0
 10
89.35321133152078
 20
-121.4199727474228
 30
0.0
 10
89.35321133152078
 20
-121.4751119140756
 30
0.0
 10
89.39797883037866
 20
-121.5198794140645
 30
0.0
 10
89.4531179956386
 20
-121.5198794140645
 30
0.0
 10
89.50822188312168
 20
-121.5198794140645
 30
0.0
 10
89.55302465975645
 20
-121.4751119140756
 30
0.0
 10
89.55302465975645
 20
-121.4199727474228
 30
0.0
  0
SPLINE
  5
6D
330
1F
100
AcDbEntity
  8
_U+30EC_U+30A4_U+30E4_U+30FC 1
 62
   179
420
  2234388
370
     9
100
AcDbSpline
210
0.0
220
0.0
230
1.0
 70
    11
 71
     3
 72
    17
 73
    13
 74
     0
 42
0.0000000001
 43
0.0000000001
 12
1.0
 22
0.0
 32
0.0
 13
1.0
 23
0.0
 33
0.0
 40
0.0
 40
0.0
 40
0.0
 40
0.0
 40
1.0
 40
1.0
 40
1.0
 40
2.0
 40
2.0
 40
2.0
 40
3.0
 40
3.0
 40
3.0
 40
4.0
 40
4.0
 40
4.0
 40
4.0
 10
103.5533631914669
 20
-126.4201744128393
 30
0.0
 10
103.5533631914669
 20
-126.3650705239644
 30
0.0
 10
103.5085956926091
 20
-126.3202677461977
 30
0.0
 10
103.4534565273491
 20
-126.3202677461977
 30
0.0
 10
103.398352639866
 20
-126.3202677461977
 30
0.0
 10
103.3535498632313
 20
-126.3650705239644
 30
0.0
 10
103.3535498632313
 20
-126.4201744128393
 30
0.0
 10
103.3535498632313
 20
-126.4753135794924
 30
0.0
 10
103.398352639866
 20
-126.5200810794812
 30
0.0
 10
103.4534565273491
 20
-126.5200810794812
 30
0.0
 10
103.5085956926091
 20
-126.5200810794812
 30
0.0
 10
103.5533631914669
 20
-126.4753135794924
 30
0.0
 10
103.5533631914669
 20
-126.4201744128393
 30
0.0
  0
SPLINE
  5
6E
330
1F
100
AcDbEntity
  8
_U+30EC_U+30A4_U+30E4_U+30FC 1
 62
   179
420
  2234388
370
     9
100
AcDbSpline
210
0.0
220
0.0
230
1.0
 70
    11
 71
     3
 72
    17
 73
    13
 74
     0
 42
0.0000000001
 43
0.0000000001
 12
1.0
 22
0.0
 32
0.0
 13
1.0
 23
0.0
 33
0.0
 40
0.0
 40
0.0
 40
0.0
 40
0.0
 40
1.0
 40
1.0
 40
1.0
 40
2.0
 40
2.0
 40
2.0
 40
3.0
 40
3.0
 40
3.0
 40
4.0
 40
4.0
 40
4.0
 40
4.0
 10
103.5533631914669
 20
-131.9199446892421
 30
0.0
 10
103.5533631914669
 20
-131.8648055225897
 30
0.0
 10
103.5085956926091
 20
-131.8200380226005
 30
0.0
 10
103.4534565273491
 20
-131.8200380226005
 30
0.0
 10
103.398352639866
 20
-131.8200380226005
 30
0.0
 10
103.3535498632313
 20
-131.8648055225897
 30
0.0
 10
103.3535498632313
 20
-131.9199446892421
 30
0.0
 10
103.3535498632313
 20
-131.9754013558948
 30
0.0
 10
103.398352639866
 20
-132.0202041336615
 30
0.0
 10
103.4534565273491
 20
-132.0202041336615
 30
0.0
 10
103.5085956926091
 20
-132.0202041336615
 30
0.0
 10
103.5533631914669
 20
-131.9754013558948
 30
0.0
 10
103.5533631914669
 20
-131.9199446892421
 30
0.0
  0
SPLINE
  5
6F
330
1F
100
AcDbEntity
  8
_U+30EC_U+30A4_U+30E4_U+30FC 1
 62
   179
420
  2234388
370
     9
100
AcDbSpline
210
0.0
220
0.0
230
1.0
 70
    11
 71
     3
 72
    17
 73
    13
 74
     0
 42
0.0000000001
 43
0.0000000001
 12
1.0
 22
0.0
 32
0.0
 13
1.0
 23
0.0
 33
0.0
 40
0.0
 40
0.0
 40
0.0
 40
0.0
 40
1.0
 40
1.0
 40
1.0
 40
2.0
 40
2.0
 40
2.0
 40
3.0
 40
3.0
 40
3.0
 40
4.0
 40
4.0
 40
4.0
 40
4.0
 10
103.5533631914669
 20
-132.2200174669448
 30
0.0
 10
103.5533631914669
 20
-132.1648783002923
 30
0.0
 10
103.5085956926091
 20
-132.1201108003031
 30
0.0
 10
103.4534565273491
 20
-132.1201108003031
 30
0.0
 10
103.398352639866
 20
-132.1201108003031
 30
0.0
 10
103.3535498632313
 20
-132.1648783002923
 30
0.0
 10
103.3535498632313
 20
-132.2200174669448
 30
0.0
 10
103.3535498632313
 20
-132.2754741335981
 30
0.0
 10
103.398352639866
 20
-132.3202769113642
 30
0.0
 10
103.4534565273491
 20
-132.3202769113642
 30
0.0
 10
103.5085956926091
 20
-132.3202769113642
 30
0.0
 10
103.5533631914669
 20
-132.2754741335981
 30
0.0
 10
103.5533631914669
 20
-132.2200174669448
 30
0.0
  0
SPLINE
  5
70
330
1F
100
AcDbEntity
  8
_U+30EC_U+30A4_U+30E4_U+30FC 1
 62
   179
420
  2234388
370
     9
100
AcDbSpline
210
0.0
220
0.0
230
1.0
 70
    11
 71
     3
 72
    17
 73
    13
 74
     0
 42
0.0000000001
 43
0.0000000001
 12
1.0
 22
0.0
 32
0.0
 13
1.0
 23
0.0
 33
0.0
 40
0.0
 40
0.0
 40
0.0
 40
0.0
 40
1.0
 40
1.0
 40
1.0
 40
2.0
 40
2.0
 40
2.0
 40
3.0
 40
3.0
 40
3.0
 40
4.0
 40
4.0
 40
4.0
 40
4.0
 10
103.5533631914669
 20
-132.9200696889924
 30
0.0
 10
103.5533631914669
 20
-132.8649305223393
 30
0.0
 10
103.5085956926091
 20
-132.8201277445726
 30
0.0
 10
103.4534565273491
 20
-132.8201277445726
 30
0.0
 10
103.398352639866
 20
-132.8201277445726
 30
0.0
 10
103.3535498632313
 20
-132.8649305223393
 30
0.0
 10
103.3535498632313
 20
-132.9200696889924
 30
0.0
 10
103.3535498632313
 20
-132.9751735778673
 30
0.0
 10
103.398352639866
 20
-133.019976355634
 30
0.0
 10
103.4534565273491
 20
-133.019976355634
 30
0.0
 10
103.5085956926091
 20
-133.019976355634
 30
0.0
 10
103.5533631914669
 20
-132.9751735778673
 30
0.0
 10
103.5533631914669
 20
-132.9200696889924
 30
0.0
  0
SPLINE
  5
71
330
1F
100
AcDbEntity
  8
_U+30EC_U+30A4_U+30E4_U+30FC 1
 62
   179
420
  2234388
370
     9
100
AcDbSpline
210
0.0
220
0.0
230
1.0
 70
    11
 71
     3
 72
    17
 73
    13
 74
     0
 42
0.0000000001
 43
0.0000000001
 12
1.0
 22
0.0
 32
0.0
 13
1.0
 23
0.0
 33
0.0
 40
0.0
 40
0.0
 40
0.0
 40
0.0
 40
1.0
 40
1.0
 40
1.0
 40
2.0
 40
2.0
 40
2.0
 40
3.0
 40
3.0
 40
3.0
 40
4.0
 40
4.0
 40
4.0
 40
4.0
 10
99.55293384908195
 20
-136.9201463546589
 30
0.0
 10
99.55293384908195
 20
-136.865042465784
 30
0.0
 10
99.50883662798475
 20
-136.8202396880173
 30
0.0
 10
99.45302718496411
 20
-136.8202396880173
 30
0.0
 10
99.39788801970417
 20
-136.8202396880173
 30
0.0
 10
99.35312052084629
 20
-136.865042465784
 30
0.0
 10
99.35312052084629
 20
-136.9201463546589
 30
0.0
 10
99.35312052084629
 20
-136.975285521312
 30
0.0
 10
99.39788801970417
 20
-137.0200530213005
 30
0.0
 10
99.45302718496411
 20
-137.0200530213005
 30
0.0
 10
99.50883662798475
 20
-137.0200530213005
 30
0.0
 10
99.55293384908195
 20
-136.975285521312
 30
0.0
 10
99.55293384908195
 20
-136.9201463546589
 30
0.0
  0
SPLINE
  5
72
330
1F
100
AcDbEntity
  8
_U+30EC_U+30A4_U+30E4_U+30FC 1
 62
   179
420
  2234388
370
     9
100
AcDbSpline
210
0.0
220
0.0
230
1.0
 70
    11
 71
     3
 72
    17
 73
    13
 74
     0
 42
0.0000000001
 43
0.0000000001
 12
1.0
 22
0.0
 32
0.0
 13
1.0
 23
0.0
 33
0.0
 40
0.0
 40
0.0
 40
0.0
 40
0.0
 40
1.0
 40
1.0
 40
1.0
 40
2.0
 40
2.0
 40
2.0
 40
3.0
 40
3.0
 40
3.0
 40
4.0
 40
4.0
 40
4.0
 40
4.0
 10
81.55350653050782
 20
-136.9201463546589
 30
0.0
 10
81.55350653050782
 20
-136.865042465784
 30
0.0
 10
81.50870375387306
 20
-136.8202396880173
 30
0.0
 10
81.45324708862121
 20
-136.8202396880173
 30
0.0
 10
81.39779042336936
 20
-136.8202396880173
 30
0.0
 10
81.35298764673459
 20
-136.865042465784
 30
0.0
 10
81.35298764673459
 20
-136.9201463546589
 30
0.0
 10
81.35298764673459
 20
-136.975285521312
 30
0.0
 10
81.39779042336936
 20
-137.0200530213005
 30
0.0
 10
81.45324708862121
 20
-137.0200530213005
 30
0.0
 10
81.50870375387306
 20
-137.0200530213005
 30
0.0
 10
81.55350653050782
 20
-136.975285521312
 30
0.0
 10
81.55350653050782
 20
-136.9201463546589
 30
0.0
  0
SPLINE
  5
73
330
1F
100
AcDbEntity
  8
_U+30EC_U+30A4_U+30E4_U+30FC 1
 62
   179
420
  2234388
370
     9
100
AcDbSpline
210
0.0
220
0.0
230
1.0
 70
    11
 71
     3
 72
    17
 73
    13
 74
     0
 42
0.0000000001
 43
0.0000000001
 12
1.0
 22
0.0
 32
0.0
 13
1.0
 23
0.0
 33
0.0
 40
0.0
 40
0.0
 40
0.0
 40
0.0
 40
1.0
 40
1.0
 40
1.0
 40
2.0
 40
2.0
 40
2.0
 40
3.0
 40
3.0
 40
3.0
 40
4.0
 40
4.0
 40
4.0
 40
4.0
 10
99.55293384908195
 20
-123.4201874691449
 30
0.0
 10
99.55293384908195
 20
-123.3650835802697
 30
0.0
 10
99.50883662798475
 20
-123.3202808025033
 30
0.0
 10
99.45302718496411
 20
-123.3202808025033
 30
0.0
 10
99.39788801970417
 20
-123.3202808025033
 30
0.0
 10
99.35312052084629
 20
-123.3650835802697
 30
0.0
 10
99.35312052084629
 20
-123.4201874691449
 30
0.0
 10
99.35312052084629
 20
-123.4753266357977
 30
0.0
 10
99.39788801970417
 20
-123.5200941357866
 30
0.0
 10
99.45302718496411
 20
-123.5200941357866
 30
0.0
 10
99.50883662798475
 20
-123.5200941357866
 30
0.0
 10
99.55293384908195
 20
-123.4753266357977
 30
0.0
 10
99.55293384908195
 20
-123.4201874691449
 30
0.0
  0
SPLINE
  5
74
330
1F
100
AcDbEntity
  8
_U+30EC_U+30A4_U+30E4_U+30FC 1
 62
   179
420
  2234388
370
     9
100
AcDbSpline
210
0.0
220
0.0
230
1.0
 70
    11
 71
     3
 72
    17
 73
    13
 74
     0
 42
0.0000000001
 43
0.0000000001
 12
1.0
 22
0.0
 32
0.0
 13
1.0
 23
0.0
 33
0.0
 40
0.0
 40
0.0
 40
0.0
 40
0.0
 40
1.0
 40
1.0
 40
1.0
 40
2.0
 40
2.0
 40
2.0
 40
3.0
 40
3.0
 40
3.0
 40
4.0
 40
4.0
 40
4.0
 40
4.0
 10
92.55318791654923
 20
-123.4201874691449
 30
0.0
 10
92.55318791654923
 20
-123.3650835802697
 30
0.0
 10
92.50838513991448
 20
-123.3202808025033
 30
0.0
 10
92.45328125243141
 20
-123.3202808025033
 30
0.0
 10
92.39814442134465
 20
-123.3202808025033
 30
0.0
 10
92.35337458831357
 20
-123.3650835802697
 30
0.0
 10
92.35337458831357
 20
-123.4201874691449
 30
0.0
 10
92.35337458831357
 20
-123.4753266357977
 30
0.0
 10
92.39814442134465
 20
-123.5200941357866
 30
0.0
 10
92.45328125243141
 20
-123.5200941357866
 30
0.0
 10
92.50838513991448
 20
-123.5200941357866
 30
0.0
 10
92.55318791654923
 20
-123.4753266357977
 30
0.0
 10
92.55318791654923
 20
-123.4201874691449
 30
0.0
  0
POLYLINE
  5
75
330
1F
100
AcDbEntity
  8
_U+30EC_U+30A4_U+30E4_U+30FC 1
 62
   179
420
  2234388
370
     9
100
AcDb2dPolyline
 66
     1
 10
0.0
 20
0.0
 30
0.0
  0
VERTEX
  5
76
330
75
100
AcDbEntity
  8
_U+30EC_U+30A4_U+30E4_U+30FC 1
 62
   179
420
  2234388
370
     9
100
AcDbVertex
100
AcDb2dVertex
 10
81.45324708862121
 20
-121.4199727474228
 30
0.0
  0
VERTEX
  5
77
330
75
100
AcDbEntity
  8
_U+30EC_U+30A4_U+30E4_U+30FC 1
 62
   179
420
  2234388
370
     9
100
AcDbVertex
100
AcDb2dVertex
 10
89.4531179956386
 20
-121.4199727474228
 30
0.0
  0
SEQEND
  5
78
330
75
100
AcDbEntity
  8
_U+30EC_U+30A4_U+30E4_U+30FC 1
 62
   179
420
  2234388
370
     9
  0
POLYLINE
  5
79
330
1F
100
AcDbEntity
  8
_U+30EC_U+30A4_U+30E4_U+30FC 1
 62
   179
420
  2234388
370
     9
100
AcDb2dPolyline
 66
     1
 10
0.0
 20
0.0
 30
0.0
  0
VERTEX
  5
7A
330
79
100
AcDbEntity
  8
_U+30EC_U+30A4_U+30E4_U+30FC 1
 62
   179
420
  2234388
370
     9
100
AcDbVertex
100
AcDb2dVertex
 10
81.45324708862121
 20
-122.8800141359465
 30
0.0
  0
VERTEX
  5
7B
330
79
100
AcDbEntity
  8
_U+30EC_U+30A4_U+30E4_U+30FC 1
 62
   179
420
  2234388
370
     9
100
AcDbVertex
100
AcDb2dVertex
 10
81.45324708862121
 20
-120.4202005254506
 30
0.0
  0
SEQEND
  5
7C
330
79
100
AcDbEntity
  8
_U+30EC_U+30A4_U+30E4_U+30FC 1
 62
   179
420
  2234388
370
     9
  0
POLYLINE
  5
7D
330
1F
100
AcDbEntity
  8
_U+30EC_U+30A4_U+30E4_U+30FC 1
 62
   179
420
  2234388
370
     9
100
AcDb2dPolyline
 66
     1
 10
0.0
 20
0.0
 30
0.0
  0
VERTEX
  5
7E
330
7D
100
AcDbEntity
  8
_U+30EC_U+30A4_U+30E4_U+30FC 1
 62
   179
420
  2234388
370
     9
100
AcDbVertex
100
AcDb2dVertex
 10
89.4531179956386
 20
-122.8800141359465
 30
0.0
  0
VERTEX
  5
7F
330
7D
100
AcDbEntity
  8
_U+30EC_U+30A4_U+30E4_U+30FC 1
 62
   179
420
  2234388
370
     9
100
AcDbVertex
100
AcDb2dVertex
 10
89.4531179956386
 20
-120.4202005254506
 30
0.0
  0
SEQEND
  5
80
330
7D
100
AcDbEntity
  8
_U+30EC_U+30A4_U+30E4_U+30FC 1
 62
   179
420
  2234388
370
     9
  0
INSERT
  5
82
330
1F
100
AcDbEntity
  8
_U+30EC_U+30A4_U+30E4_U+30FC 1
100
AcDbBlockReference
  2
block 2
 10
0.0
 20
0.0
 30
0.0
  0
POLYLINE
  5
89
330
1F
100
AcDbEntity
  8
_U+30EC_U+30A4_U+30E4_U+30FC 1
 62
   179
420
  2234388
370
     9
100
AcDb2dPolyline
 66
     1
 10
0.0
 20
0.0
 30
0.0
  0
VERTEX
  5
8A
330
89
100
AcDbEntity
  8
_U+30EC_U+30A4_U+30E4_U+30FC 1
 62
   179
420
  2234388
370
     9
100
AcDbVertex
100
AcDb2dVertex
 10
81.45324708862121
 20
-136.9201463546589
 30
0.0
  0
VERTEX
  5
8B
330
89
100
AcDbEntity
  8
_U+30EC_U+30A4_U+30E4_U+30FC 1
 62
   179
420
  2234388
370
     9
100
AcDbVertex
100
AcDb2dVertex
 10
99.45302718496411
 20
-136.9201463546589
 30
0.0
  0
SEQEND
  5
8C
330
89
100
AcDbEntity
  8
_U+30EC_U+30A4_U+30E4_U+30FC 1
 62
   179
420
  2234388
370
     9
  0
POLYLINE
  5
8D
330
1F
100
AcDbEntity
  8
_U+30EC_U+30A4_U+30E4_U+30FC 1
 62
   179
420
  2234388
370
     9
100
AcDb2dPolyline
 66
     1
 10
0.0
 20
0.0
 30
0.0
  0
VERTEX
  5
8E
330
8D
100
AcDbEntity
  8
_U+30EC_U+30A4_U+30E4_U+30FC 1
 62
   179
420
  2234388
370
     9
100
AcDbVertex
100
AcDb2dVertex
 10
81.45324708862121
 20
-135.4601049661352
 30
0.0
  0
VERTEX
  5
8F
330
8D
100
AcDbEntity
  8
_U+30EC_U+30A4_U+30E4_U+30FC 1
 62
   179
420
  2234388
370
     9
100
AcDbVertex
100
AcDb2dVertex
 10
81.45324708862121
 20
-137.9202713544086
 30
0.0
  0
SEQEND
  5
90
330
8D
100
AcDbEntity
  8
_U+30EC_U+30A4_U+30E4_U+30FC 1
 62
   179
420
  2234388
370
     9
  0
POLYLINE
  5
91
330
1F
100
AcDbEntity
  8
_U+30EC_U+30A4_U+30E4_U+30FC 1
 62
   179
420
  2234388
370
     9
100
AcDb2dPolyline
 66
     1
 10
0.0
 20
0.0
 30
0.0
  0
VERTEX
  5
92
330
91
100
AcDbEntity
  8
_U+30EC_U+30A4_U+30E4_U+30FC 1
 62
   179
420
  2234388
370
     9
100
AcDbVertex
100
AcDb2dVertex
 10
99.45302718496411
 20
-135.4601049661352
 30
0.0
  0
VERTEX
  5
93
330
91
100
AcDbEntity
  8
_U+30EC_U+30A4_U+30E4_U+30FC 1
 62
   179
420
  2234388
370
     9
100
AcDbVertex
100
AcDb2dVertex
 10
99.45302718496411
 20
-137.9202713544086
 30
0.0
  0
SEQEND
  5
94
330
91
100
AcDbEntity
  8
_U+30EC_U+30A4_U+30E4_U+30FC 1
 62
   179
420
  2234388
370
     9
  0
INSERT
  5
96
330
1F
100
AcDbEntity
  8
_U+30EC_U+30A4_U+30E4_U+30FC 1
100
AcDbBlockReference
  2
block 3
 10
0.0
 20
0.0
 30
0.0
  0
POLYLINE
  5
9F
330
1F
100
AcDbEntity
  8
_U+30EC_U+30A4_U+30E4_U+30FC 1
 62
   179
420
  2234388
370
     9
100
AcDb2dPolyline
 66
     1
 10
0.0
 20
0.0
 30
0.0
  0
VERTEX
  5
A0
330
9F
100
AcDbEntity
  8
_U+30EC_U+30A4_U+30E4_U+30FC 1
 62
   179
420
  2234388
370
     9
100
AcDbVertex
100
AcDb2dVertex
 10
103.4534565273491
 20
-132.9200696889924
 30
0.0
  0
VERTEX
  5
A1
330
9F
100
AcDbEntity
  8
_U+30EC_U+30A4_U+30E4_U+30FC 1
 62
   179
420
  2234388
370
     9
100
AcDbVertex
100
AcDb2dVertex
 10
103.4534565273491
 20
-138.1779402432332
 30
0.0
  0
SEQEND
  5
A2
330
9F
100
AcDbEntity
  8
_U+30EC_U+30A4_U+30E4_U+30FC 1
 62
   179
420
  2234388
370
     9
  0
POLYLINE
  5
A3
330
1F
100
AcDbEntity
  8
_U+30EC_U+30A4_U+30E4_U+30FC 1
 62
   179
420
  2234388
370
     9
100
AcDb2dPolyline
 66
     1
 10
0.0
 20
0.0
 30
0.0
  0
VERTEX
  5
A4
330
A3
100
AcDbEntity
  8
_U+30EC_U+30A4_U+30E4_U+30FC 1
 62
   179
420
  2234388
370
     9
100
AcDbVertex
100
AcDb2dVertex
 10
103.4534565273491
 20
-132.9200696889924
 30
0.0
  0
VERTEX
  5
A5
330
A3
100
AcDbEntity
  8
_U+30EC_U+30A4_U+30E4_U+30FC 1
 62
   179
420
  2234388
370
     9
100
AcDbVertex
100
AcDb2dVertex
 10
103.4534565273491
 20
-132.2200174669448
 30
0.0
  0
SEQEND
  5
A6
330
A3
100
AcDbEntity
  8
_U+30EC_U+30A4_U+30E4_U+30FC 1
 62
   179
420
  2234388
370
     9
  0
POLYLINE
  5
A7
330
1F
100
AcDbEntity
  8
_U+30EC_U+30A4_U+30E4_U+30FC 1
 62
   179
420
  2234388
370
     9
100
AcDb2dPolyline
 66
     1
 10
0.0
 20
0.0
 30
0.0
  0
VERTEX
  5
A8
330
A7
100
AcDbEntity
  8
_U+30EC_U+30A4_U+30E4_U+30FC 1
 62
   179
420
  2234388
370
     9
100
AcDbVertex
100
AcDb2dVertex
 10
101.993415175709
 20
-132.9200696889924
 30
0.0
  0
VERTEX
  5
A9
330
A7
100
AcDbEntity
  8
_U+30EC_U+30A4_U+30E4_U+30FC 1
 62
   179
420
  2234388
370
     9
100
AcDbVertex
100
AcDb2dVertex
 10
104.453228724065
 20
-132.9200696889924
 30
0.0
  0
SEQEND
  5
AA
330
A7
100
AcDbEntity
  8
_U+30EC_U+30A4_U+30E4_U+30FC 1
 62
   179
420
  2234388
370
     9
  0
POLYLINE
  5
AB
330
1F
100
AcDbEntity
  8
_U+30EC_U+30A4_U+30E4_U+30FC 1
 62
   179
420
  2234388
370
     9
100
AcDb2dPolyline
 66
     1
 10
0.0
 20
0.0
 30
0.0
  0
VERTEX
  5
AC
330
AB
100
AcDbEntity
  8
_U+30EC_U+30A4_U+30E4_U+30FC 1
 62
   179
420
  2234388
370
     9
100
AcDbVertex
100
AcDb2dVertex
 10
101.7384979599902
 20
-132.2200174669448
 30
0.0
  0
VERTEX
  5
AD
330
AB
100
AcDbEntity
  8
_U+30EC_U+30A4_U+30E4_U+30FC 1
 62
   179
420
  2234388
370
     9
100
AcDbVertex
100
AcDb2dVertex
 10
104.453228724065
 20
-132.2200174669448
 30
0.0
  0
SEQEND
  5
AE
330
AB
100
AcDbEntity
  8
_U+30EC_U+30A4_U+30E4_U+30FC 1
 62
   179
420
  2234388
370
     9
  0
INSERT
  5
B0
330
1F
100
AcDbEntity
  8
_U+30EC_U+30A4_U+30E4_U+30FC 1
100
AcDbBlockReference
  2
block 4
 10
0.0
 20
0.0
 30
0.0
  0
POLYLINE
  5
C0
330
1F
100
AcDbEntity
  8
_U+30EC_U+30A4_U+30E4_U+30FC 1
 62
   179
420
  2234388
370
     9
100
AcDb2dPolyline
 66
     1
 10
0.0
 20
0.0
 30
0.0
  0
VERTEX
  5
C1
330
C0
100
AcDbEntity
  8
_U+30EC_U+30A4_U+30E4_U+30FC 1
 62
   179
420
  2234388
370
     9
100
AcDbVertex
100
AcDb2dVertex
 10
99.45302718496411
 20
-123.4201874691449
 30
0.0
  0
VERTEX
  5
C2
330
C0
100
AcDbEntity
  8
_U+30EC_U+30A4_U+30E4_U+30FC 1
 62
   179
420
  2234388
370
     9
100
AcDbVertex
100
AcDb2dVertex
 10
92.45328125243141
 20
-123.4201874691449
 30
0.0
  0
SEQEND
  5
C3
330
C0
100
AcDbEntity
  8
_U+30EC_U+30A4_U+30E4_U+30FC 1
 62
   179
420
  2234388
370
     9
  0
POLYLINE
  5
C4
330
1F
100
AcDbEntity
  8
_U+30EC_U+30A4_U+30E4_U+30FC 1
 62
   179
420
  2234388
370
     9
100
AcDb2dPolyline
 66
     1
 10
0.0
 20
0.0
 30
0.0
  0
VERTEX
  5
C5
330
C4
100
AcDbEntity
  8
_U+30EC_U+30A4_U+30E4_U+30FC 1
 62
   179
420
  2234388
370
     9
100
AcDbVertex
100
AcDb2dVertex
 10
99.45302718496411
 20
-130.3799991340715
 30
0.0
  0
VERTEX
  5
C6
330
C4
100
AcDbEntity
  8
_U+30EC_U+30A4_U+30E4_U+30FC 1
 62
   179
420
  2234388
370
     9
100
AcDbVertex
100
AcDb2dVertex
 10
99.45302718496411
 20
-122.4200977471728
 30
0.0
  0
SEQEND
  5
C7
330
C4
100
AcDbEntity
  8
_U+30EC_U+30A4_U+30E4_U+30FC 1
 62
   179
420
  2234388
370
     9
  0
POLYLINE
  5
C8
330
1F
100
AcDbEntity
  8
_U+30EC_U+30A4_U+30E4_U+30FC 1
 62
   179
420
  2234388
370
     9
100
AcDb2dPolyline
 66
     1
 10
0.0
 20
0.0
 30
0.0
  0
VERTEX
  5
C9
330
C8
100
AcDbEntity
  8
_U+30EC_U+30A4_U+30E4_U+30FC 1
 62
   179
420
  2234388
370
     9
100
AcDbVertex
100
AcDb2dVertex
 10
92.45328125243141
 20
-129.3802269120996
 30
0.0
  0
VERTEX
  5
CA
330
C8
100
AcDbEntity
  8
_U+30EC_U+30A4_U+30E4_U+30FC 1
 62
   179
420
  2234388
370
     9
100
AcDbVertex
100
AcDb2dVertex
 10
92.45328125243141
 20
-122.4200977471728
 30
0.0
  0
SEQEND
  5
CB
330
C8
100
AcDbEntity
  8
_U+30EC_U+30A4_U+30E4_U+30FC 1
 62
   179
420
  2234388
370
     9
  0
INSERT
  5
CD
330
1F
100
AcDbEntity
  8
_U+30EC_U+30A4_U+30E4_U+30FC 1
100
AcDbBlockReference
  2
block 5
 10
0.0
 20
0.0
 30
0.0
  0
POLYLINE
  5
D2
330
1F
100
AcDbEntity
  8
_U+30EC_U+30A4_U+30E4_U+30FC 1
 62
   179
420
  2234388
370
     9
100
AcDb2dPolyline
 66
     1
 10
0.0
 20
0.0
 30
0.0
  0
VERTEX
  5
D3
330
D2
100
AcDbEntity
  8
_U+30EC_U+30A4_U+30E4_U+30FC 1
 62
   179
420
  2234388
370
     9
100
AcDbVertex
100
AcDb2dVertex
 10
81.45324708862121
 20
-129.6702808009155
 30
0.0
  0
VERTEX
  5
D4
330
D2
100
AcDbEntity
  8
_U+30EC_U+30A4_U+30E4_U+30FC 1
 62
   179
420
  2234388
370
     9
100
AcDbVertex
100
AcDb2dVertex
 10
77.6829346848099
 20
-129.6702808009155
 30
0.0
  0
SEQEND
  5
D5
330
D2
100
AcDbEntity
  8
_U+30EC_U+30A4_U+30E4_U+30FC 1
 62
   179
420
  2234388
370
     9
  0
POLYLINE
  5
D6
330
1F
100
AcDbEntity
  8
_U+30EC_U+30A4_U+30E4_U+30FC 1
 62
   179
420
  2234388
370
     9
100
AcDb2dPolyline
 66
     1
 10
0.0
 20
0.0
 30
0.0
  0
VERTEX
  5
D7
330
D6
100
AcDbEntity
  8
_U+30EC_U+30A4_U+30E4_U+30FC 1
 62
   179
420
  2234388
370
     9
100
AcDbVertex
100
AcDb2dVertex
 10
81.45324708862121
 20
-129.6702808009155
 30
0.0
  0
VERTEX
  5
D8
330
D6
100
AcDbEntity
  8
_U+30EC_U+30A4_U+30E4_U+30FC 1
 62
   179
420
  2234388
370
     9
100
AcDbVertex
100
AcDb2dVertex
 10
83.4531442598218
 20
-129.6702808009155
 30
0.0
  0
SEQEND
  5
D9
330
D6
100
AcDbEntity
  8
_U+30EC_U+30A4_U+30E4_U+30FC 1
 62
   179
420
  2234388
370
     9
  0
INSERT
  5
DB
330
1F
100
AcDbEntity
  8
_U+30EC_U+30A4_U+30E4_U+30FC 1
100
AcDbBlockReference
  2
block 6
 10
0.0
 20
0.0
 30
0.0
  0
POLYLINE
  5
E0
330
1F
100
AcDbEntity
  8
_U+30EC_U+30A4_U+30E4_U+30FC 1
 62
   179
420
  2234388
370
     9
100
AcDb2dPolyline
 66
     1
 10
0.0
 20
0.0
 30
0.0
  0
VERTEX
  5
E1
330
E0
100
AcDbEntity
  8
_U+30EC_U+30A4_U+30E4_U+30FC 1
 62
   179
420
  2234388
370
     9
100
AcDbVertex
100
AcDb2dVertex
 10
103.4534565273491
 20
-126.4201744128393
 30
0.0
  0
VERTEX
  5
E2
330
E0
100
AcDbEntity
  8
_U+30EC_U+30A4_U+30E4_U+30FC 1
 62
   179
420
  2234388
370
     9
100
AcDbVertex
100
AcDb2dVertex
 10
103.4534565273491
 20
-131.9199446892421
 30
0.0
  0
SEQEND
  5
E3
330
E0
100
AcDbEntity
  8
_U+30EC_U+30A4_U+30E4_U+30FC 1
 62
   179
420
  2234388
370
     9
  0
POLYLINE
  5
E4
330
1F
100
AcDbEntity
  8
_U+30EC_U+30A4_U+30E4_U+30FC 1
 62
   179
420
  2234388
370
     9
100
AcDb2dPolyline
 66
     1
 10
0.0
 20
0.0
 30
0.0
  0
VERTEX
  5
E5
330
E4
100
AcDbEntity
  8
_U+30EC_U+30A4_U+30E4_U+30FC 1
 62
   179
420
  2234388
370
     9
100
AcDbVertex
100
AcDb2dVertex
 10
92.35750208820826
 20
-126.4201744128393
 30
0.0
  0
VERTEX
  5
E6
330
E4
100
AcDbEntity
  8
_U+30EC_U+30A4_U+30E4_U+30FC 1
 62
   179
420
  2234388
370
     9
100
AcDbVertex
100
AcDb2dVertex
 10
104.453228724065
 20
-126.4201744128393
 30
0.0
  0
SEQEND
  5
E7
330
E4
100
AcDbEntity
  8
_U+30EC_U+30A4_U+30E4_U+30FC 1
 62
   179
420
  2234388
370
     9
  0
POLYLINE
  5
E8
330
1F
100
AcDbEntity
  8
_U+30EC_U+30A4_U+30E4_U+30FC 1
 62
   179
420
  2234388
370
     9
100
AcDb2dPolyline
 66
     1
 10
0.0
 20
0.0
 30
0.0
  0
VERTEX
  5
E9
330
E8
100
AcDbEntity
  8
_U+30EC_U+30A4_U+30E4_U+30FC 1
 62
   179
420
  2234388
370
     9
100
AcDbVertex
100
AcDb2dVertex
 10
94.99299896541558
 20
-131.9199446892421
 30
0.0
  0
VERTEX
  5
EA
330
E8
100
AcDbEntity
  8
_U+30EC_U+30A4_U+30E4_U+30FC 1
 62
   179
420
  2234388
370
     9
100
AcDbVertex
100
AcDb2dVertex
 10
104.453228724065
 20
-131.9199446892421
 30
0.0
  0
SEQEND
  5
EB
330
E8
100
AcDbEntity
  8
_U+30EC_U+30A4_U+30E4_U+30FC 1
 62
   179
420
  2234388
370
     9
  0
INSERT
  5
ED
330
1F
100
AcDbEntity
  8
_U+30EC_U+30A4_U+30E4_U+30FC 1
100
AcDbBlockReference
  2
block 7
 10
0.0
 20
0.0
 30
0.0
  0
ENDSEC
  0
SECTION
  2
OBJECTS
  0
DICTIONARY
  5
C
330
0
100
AcDbDictionary
281
     1
  3
ACAD_GROUP
350
D
  3
ACAD_LAYOUT
350
1A
  3
ACAD_MATERIAL
350
3B
  3
ACAD_MLEADERSTYLE
350
FD
  3
ACAD_MLINESTYLE
350
17
  3
ACAD_PLOTSETTINGS
350
19
  3
ACAD_PLOTSTYLENAME
350
E
  3
ACAD_TABLESTYLE
350
FC
  3
ACAD_VISUALSTYLE
350
2A
  0
SUN
  5
3F
330
29
100
AcDbSun
 90
        1
290
     0
 63
     7
421
 16777215
 40
1.0
291
     1
 91
  2455826
 92
 54000000
292
     0
 70
     2
 71
   256
280
     1
  0
DICTIONARY
  5
D
102
{ACAD_REACTORS
330
C
102
}
330
C
100
AcDbDictionary
281
     1
  0
DICTIONARY
  5
1A
102
{ACAD_REACTORS
330
C
102
}
330
C
100
AcDbDictionary
281
     1
  3
Layout1
350
1E
  3
Layout2
350
26
  3
Model
350
22
  0
DICTIONARY
  5
3B
102
{ACAD_REACTORS
330
C
102
}
330
C
100
AcDbDictionary
281
     1
  3
ByBlock
350
3D
  3
ByLayer
350
3C
  3
Global
350
3E
  0
DICTIONARY
  5
FD
102
{ACAD_REACTORS
330
C
102
}
330
C
100
AcDbDictionary
281
     1
  0
DICTIONARY
  5
17
102
{ACAD_REACTORS
330
C
102
}
330
C
100
AcDbDictionary
281
     1
  3
Standard
350
18
  0
DICTIONARY
  5
19
102
{ACAD_REACTORS
330
C
102
}
330
C
100
AcDbDictionary
281
     1
  0
ACDBDICTIONARYWDFLT
  5
E
102
{ACAD_REACTORS
330
C
102
}
330
C
100
AcDbDictionary
281
     1
  3
Normal
350
F
100
AcDbDictionaryWithDefault
340
F
  0
DICTIONARY
  5
FC
102
{ACAD_REACTORS
330
C
102
}
330
C
100
AcDbDictionary
281
     1
  0
DICTIONARY
  5
2A
102
{ACAD_REACTORS
330
C
102
}
330
C
100
AcDbDictionary
281
     1
  3
2dWireframe
350
2F
  3
3D Hidden
350
31
  3
3dWireframe
350
30
  3
Basic
350
32
  3
Brighten
350
36
  3
ColorChange
350
3A
  3
Conceptual
350
34
  3
Dim
350
35
  3
Facepattern
350
39
  3
Flat
350
2B
  3
FlatWithEdges
350
2C
  3
Gouraud
350
2D
  3
GouraudWithEdges
350
2E
  3
Linepattern
350
38
  3
Realistic
350
33
  3
Thicken
350
37
  0
LAYOUT
  5
1E
102
{ACAD_REACTORS
330
1A
102
}
330
1A
100
AcDbPlotSettings
  1

  2
none_device
  4

  6

 40
0.0
 41
0.0
 42
0.0
 43
0.0
 44
0.0
 45
0.0
 46
0.0
 47
0.0
 48
0.0
 49
0.0
140
0.0
141
0.0
142
1.0
143
1.0
 70
   688
 72
     0
 73
     0
 74
     5
  7

 75
    16
 76
     0
 77
     2
 78
   300
147
1.0
148
0.0
149
0.0
100
AcDbLayout
  1
Layout1
 70
     1
 71
     1
 10
0.0
 20
0.0
 11
12.0
 21
9.0
 12
0.0
 22
0.0
 32
0.0
 14
1.000000000000000E+20
 24
1.000000000000000E+20
 34
1.000000000000000E+20
 15
-1.000000000000000E+20
 25
-1.000000000000000E+20
 35
-1.000000000000000E+20
146
0.0
 13
0.0
 23
0.0
 33
0.0
 16
1.0
 26
0.0
 36
0.0
 17
0.0
 27
1.0
 37
0.0
 76
     0
330
1B
  0
LAYOUT
  5
26
102
{ACAD_REACTORS
330
1A
102
}
330
1A
100
AcDbPlotSettings
  1

  2
none_device
  4

  6

 40
0.0
 41
0.0
 42
0.0
 43
0.0
 44
0.0
 45
0.0
 46
0.0
 47
0.0
 48
0.0
 49
0.0
140
0.0
141
0.0
142
1.0
143
1.0
 70
   688
 72
     0
 73
     0
 74
     5
  7

 75
    16
 76
     0
 77
     2
 78
   300
147
1.0
148
0.0
149
0.0
100
AcDbLayout
  1
Layout2
 70
     1
 71
     2
 10
0.0
 20
0.0
 11
0.0
 21
0.0
 12
0.0
 22
0.0
 32
0.0
 14
0.0
 24
0.0
 34
0.0
 15
0.0
 25
0.0
 35
0.0
146
0.0
 13
0.0
 23
0.0
 33
0.0
 16
1.0
 26
0.0
 36
0.0
 17
0.0
 27
1.0
 37
0.0
 76
     0
330
23
  0
LAYOUT
  5
22
102
{ACAD_REACTORS
330
1A
102
}
330
1A
100
AcDbPlotSettings
  1

  2
none_device
  4

  6

 40
0.0
 41
0.0
 42
0.0
 43
0.0
 44
0.0
 45
0.0
 46
0.0
 47
0.0
 48
0.0
 49
0.0
140
0.0
141
0.0
142
1.0
143
1.0
 70
  1712
 72
     0
 73
     0
 74
     0
  7

 75
     0
 76
     0
 77
     2
 78
   300
147
1.0
148
0.0
149
0.0
100
AcDbLayout
  1
Model
 70
     1
 71
     0
 10
0.0
 20
0.0
 11
12.0
 21
9.0
 12
0.0
 22
0.0
 32
0.0
 14
1.000000000000000E+20
 24
1.000000000000000E+20
 34
1.000000000000000E+20
 15
-1.000000000000000E+20
 25
-1.000000000000000E+20
 35
-1.000000000000000E+20
146
0.0
 13
0.0
 23
0.0
 33
0.0
 16
1.0
 26
0.0
 36
0.0
 17
0.0
 27
1.0
 37
0.0
 76
     0
330
1F
331
29
  0
MATERIAL
  5
3D
102
{ACAD_REACTORS
330
3B
102
}
330
3B
100
AcDbMaterial
  1
ByBlock
 72
     1
 94
      127
  0
MATERIAL
  5
3C
102
{ACAD_REACTORS
330
3B
102
}
330
3B
100
AcDbMaterial
  1
ByLayer
 72
     1
 94
      127
  0
MATERIAL
  5
3E
102
{ACAD_REACTORS
330
3B
102
}
330
3B
100
AcDbMaterial
  1
Global
 72
     1
 94
      127
  0
MLINESTYLE
  5
18
102
{ACAD_REACTORS
330
17
102
}
330
17
100
AcDbMlineStyle
  2
Standard
 70
     0
  3

 62
   256
 51
90.0
 52
90.0
 71
     2
 49
0.5
 62
   256
  6
BYLAYER
 49
-0.5
 62
   256
  6
BYLAYER
  0
ACDBPLACEHOLDER
  5
F
102
{ACAD_REACTORS
330
E
102
}
330
E
  0
VISUALSTYLE
  5
2F
102
{ACAD_REACTORS
330
2A
102
}
330
2A
100
AcDbVisualStyle
  2
2dWireframe
 70
     4
177
     2
291
     0
 71
     0
176
     1
 72
     2
176
     1
 73
     0
176
     1
 90
        0
176
     1
 40
-0.6
176
     1
 41
-30.0
176
     1
 62
     5
 63
     7
421
 16777215
176
     1
 74
     1
176
     1
 91
        4
176
     1
 64
     7
176
     1
 65
   257
176
     1
 75
     1
176
     1
175
     1
176
     1
 42
1.0
176
     1
 92
        0
176
     1
 66
   257
176
     1
 43
1.0
176
     1
 76
     1
176
     1
 77
     6
176
     1
 78
     2
176
     1
 67
     7
176
     1
 79
     5
176
     1
170
     0
176
     1
171
     0
176
     1
290
     0
176
     1
 93
        1
176
     1
 44
0.0
176
     1
173
     0
176
     1
  0
VISUALSTYLE
  5
31
102
{ACAD_REACTORS
330
2A
102
}
330
2A
100
AcDbVisualStyle
  2
3D Hidden
 70
     6
177
     2
291
     0
 71
     1
176
     1
 72
     2
176
     1
 73
     2
176
     1
 90
        0
176
     1
 40
-0.6
176
     1
 41
-30.0
176
     1
 62
     5
 63
     7
421
 16777215
176
     1
 74
     2
176
     1
 91
        2
176
     1
 64
     7
176
     1
 65
   257
176
     1
 75
     2
176
     1
175
     1
176
     1
 42
40.0
176
     1
 92
        0
176
     1
 66
   257
176
     1
 43
1.0
176
     1
 76
     1
176
     1
 77
     6
176
     1
 78
     2
176
     1
 67
     7
176
     1
 79
     3
176
     1
170
     0
176
     1
171
     0
176
     1
290
     0
176
     1
 93
        1
176
     1
 44
0.0
176
     1
173
     0
176
     1
  0
VISUALSTYLE
  5
30
102
{ACAD_REACTORS
330
2A
102
}
330
2A
100
AcDbVisualStyle
  2
3dWireframe
 70
     5
177
     2
291
     0
 71
     0
176
     1
 72
     2
176
     1
 73
     0
176
     1
 90
        0
176
     1
 40
-0.6
176
     1
 41
-30.0
176
     1
 62
     5
 63
     7
421
 16777215
176
     1
 74
     1
176
     1
 91
        4
176
     1
 64
     7
176
     1
 65
   257
176
     1
 75
     1
176
     1
175
     1
176
     1
 42
1.0
176
     1
 92
        0
176
     1
 66
   257
176
     1
 43
1.0
176
     1
 76
     1
176
     1
 77
     6
176
     1
 78
     2
176
     1
 67
     7
176
     1
 79
     5
176
     1
170
     0
176
     1
171
     0
176
     1
290
     0
176
     1
 93
        1
176
     1
 44
0.0
176
     1
173
     0
176
     1
  0
VISUALSTYLE
  5
32
102
{ACAD_REACTORS
330
2A
102
}
330
2A
100
AcDbVisualStyle
  2
Basic
 70
     7
177
     2
291
     1
 71
     1
176
     1
 72
     0
176
     1
 73
     1
176
     1
 90
        0
176
     1
 40
-0.6
176
     1
 41
-30.0
176
     1
 62
     5
 63
     7
421
 16777215
176
     1
 74
     0
176
     1
 91
        4
176
     1
 64
     7
176
     1
 65
   257
176
     1
 75
     1
176
     1
175
     1
176
     1
 42
1.0
176
     1
 92
        8
176
     1
 66
     7
176
     1
 43
1.0
176
     1
 76
     1
176
     1
 77
     6
176
     1
 78
     2
176
     1
 67
     7
176
     1
 79
     5
176
     1
170
     0
176
     1
171
     0
176
     1
290
     0
176
     1
 93
        1
176
     1
 44
0.0
176
     1
173
     0
176
     1
  0
VISUALSTYLE
  5
36
102
{ACAD_REACTORS
330
2A
102
}
330
2A
100
AcDbVisualStyle
  2
Brighten
 70
    12
177
     2
291
     1
 71
     2
176
     1
 72
     2
176
     1
 73
     0
176
     1
 90
        0
176
     1
 40
-0.6
176
     1
 41
-30.0
176
     1
 62
     5
 63
     7
421
 16777215
176
     1
 74
     1
176
     1
 91
        4
176
     1
 64
     7
176
     1
 65
   257
176
     1
 75
     1
176
     1
175
     1
176
     1
 42
1.0
176
     1
 92
        8
176
     1
 66
     7
176
     1
 43
1.0
176
     1
 76
     1
176
     1
 77
     6
176
     1
 78
     2
176
     1
 67
     7
176
     1
 79
     5
176
     1
170
     0
176
     1
171
     0
176
     1
290
     0
176
     1
 93
        1
176
     1
 44
50.0
176
     1
173
     0
176
     1
  0
VISUALSTYLE
  5
3A
102
{ACAD_REACTORS
330
2A
102
}
330
2A
100
AcDbVisualStyle
  2
ColorChange
 70
    16
177
     2
291
     1
 71
     2
176
     1
 72
     2
176
     1
 73
     3
176
     1
 90
        0
176
     1
 40
-0.6
176
     1
 41
-30.0
176
     1
 62
     5
 63
     8
421
  8421504
176
     1
 74
     1
176
     1
 91
        4
176
     1
 64
     7
176
     1
 65
   257
176
     1
 75
     1
176
     1
175
     1
176
     1
 42
1.0
176
     1
 92
        8
176
     1
 66
     8
424
  8421504
176
     1
 43
1.0
176
     1
 76
     1
176
     1
 77
     6
176
     1
 78
     2
176
     1
 67
     7
176
     1
 79
     5
176
     1
170
     0
176
     1
171
     0
176
     1
290
     0
176
     1
 93
        1
176
     1
 44
0.0
176
     1
173
     0
176
     1
  0
VISUALSTYLE
  5
34
102
{ACAD_REACTORS
330
2A
102
}
330
2A
100
AcDbVisualStyle
  2
Conceptual
 70
     9
177
     2
291
     0
 71
     3
176
     1
 72
     2
176
     1
 73
     0
176
     1
 90
        0
176
     1
 40
-0.6
176
     1
 41
-30.0
176
     1
 62
     5
 63
     7
421
 16777215
176
     1
 74
     2
176
     1
 91
        2
176
     1
 64
     7
176
     1
 65
   257
176
     1
 75
     1
176
     1
175
     1
176
     1
 42
40.0
176
     1
 92
        8
176
     1
 66
     7
176
     1
 43
1.0
176
     1
 76
     1
176
     1
 77
     6
176
     1
 78
     2
176
     1
 67
     7
176
     1
 79
     3
176
     1
170
     0
176
     1
171
     0
176
     1
290
     0
176
     1
 93
        1
176
     1
 44
0.0
176
     1
173
     0
176
     1
  0
VISUALSTYLE
  5
35
102
{ACAD_REACTORS
330
2A
102
}
330
2A
100
AcDbVisualStyle
  2
Dim
 70
    11
177
     2
291
     1
 71
     2
176
     1
 72
     2
176
     1
 73
     0
176
     1
 90
        0
176
     1
 40
-0.6
176
     1
 41
-30.0
176
     1
 62
     5
 63
     7
421
 16777215
176
     1
 74
     1
176
     1
 91
        4
176
     1
 64
     7
176
     1
 65
   257
176
     1
 75
     1
176
     1
175
     1
176
     1
 42
1.0
176
     1
 92
        8
176
     1
 66
     7
176
     1
 43
1.0
176
     1
 76
     1
176
     1
 77
     6
176
     1
 78
     2
176
     1
 67
     7
176
     1
 79
     5
176
     1
170
     0
176
     1
171
     0
176
     1
290
     0
176
     1
 93
        1
176
     1
 44
-50.0
176
     1
173
     0
176
     1
  0
VISUALSTYLE
  5
39
102
{ACAD_REACTORS
330
2A
102
}
330
2A
100
AcDbVisualStyle
  2
Facepattern
 70
    15
177
     2
291
     1
 71
     2
176
     1
 72
     2
176
     1
 73
     0
176
     1
 90
        0
176
     1
 40
-0.6
176
     1
 41
-30.0
176
     1
 62
     5
 63
     7
421
 16777215
176
     1
 74
     1
176
     1
 91
        4
176
     1
 64
     7
176
     1
 65
   257
176
     1
 75
     1
176
     1
175
     1
176
     1
 42
1.0
176
     1
 92
        8
176
     1
 66
     7
176
     1
 43
1.0
176
     1
 76
     1
176
     1
 77
     6
176
     1
 78
     2
176
     1
 67
     7
176
     1
 79
     5
176
     1
170
     0
176
     1
171
     0
176
     1
290
     0
176
     1
 93
        1
176
     1
 44
0.0
176
     1
173
     0
176
     1
  0
VISUALSTYLE
  5
2B
102
{ACAD_REACTORS
330
2A
102
}
330
2A
100
AcDbVisualStyle
  2
Flat
 70
     0
177
     2
291
     1
 71
     2
176
     1
 72
     1
176
     1
 73
     1
176
     1
 90
        2
176
     1
 40
-0.6
176
     1
 41
30.0
176
     1
 62
     5
 63
     7
421
 16777215
176
     1
 74
     0
176
     1
 91
        4
176
     1
 64
     7
176
     1
 65
   257
176
     1
 75
     1
176
     1
175
     1
176
     1
 42
1.0
176
     1
 92
        8
176
     1
 66
     7
176
     1
 43
1.0
176
     1
 76
     1
176
     1
 77
     6
176
     1
 78
     2
176
     1
 67
     7
176
     1
 79
     5
176
     1
170
     0
176
     1
171
     0
176
     1
290
     0
176
     1
 93
       13
176
     1
 44
0.0
176
     1
173
     0
176
     1
  0
VISUALSTYLE
  5
2C
102
{ACAD_REACTORS
330
2A
102
}
330
2A
100
AcDbVisualStyle
  2
FlatWithEdges
 70
     1
177
     2
291
     1
 71
     2
176
     1
 72
     1
176
     1
 73
     1
176
     1
 90
        2
176
     1
 40
-0.6
176
     1
 41
30.0
176
     1
 62
     5
 63
     7
421
 16777215
176
     1
 74
     1
176
     1
 91
        4
176
     1
 64
     7
176
     1
 65
   257
176
     1
 75
     1
176
     1
175
     1
176
     1
 42
1.0
176
     1
 92
        0
176
     1
 66
   257
176
     1
 43
1.0
176
     1
 76
     1
176
     1
 77
     6
176
     1
 78
     2
176
     1
 67
     7
176
     1
 79
     5
176
     1
170
     0
176
     1
171
     0
176
     1
290
     0
176
     1
 93
       13
176
     1
 44
0.0
176
     1
173
     0
176
     1
  0
VISUALSTYLE
  5
2D
102
{ACAD_REACTORS
330
2A
102
}
330
2A
100
AcDbVisualStyle
  2
Gouraud
 70
     2
177
     2
291
     1
 71
     2
176
     1
 72
     2
176
     1
 73
     1
176
     1
 90
        2
176
     1
 40
-0.6
176
     1
 41
30.0
176
     1
 62
     5
 63
     7
421
 16777215
176
     1
 74
     0
176
     1
 91
        4
176
     1
 64
     7
176
     1
 65
   257
176
     1
 75
     1
176
     1
175
     1
176
     1
 42
1.0
176
     1
 92
        0
176
     1
 66
     7
176
     1
 43
1.0
176
     1
 76
     1
176
     1
 77
     6
176
     1
 78
     2
176
     1
 67
     7
176
     1
 79
     5
176
     1
170
     0
176
     1
171
     0
176
     1
290
     0
176
     1
 93
       13
176
     1
 44
0.0
176
     1
173
     0
176
     1
  0
VISUALSTYLE
  5
2E
102
{ACAD_REACTORS
330
2A
102
}
330
2A
100
AcDbVisualStyle
  2
GouraudWithEdges
 70
     3
177
     2
291
     1
 71
     2
176
     1
 72
     2
176
     1
 73
     1
176
     1
 90
        2
176
     1
 40
-0.6
176
     1
 41
30.0
176
     1
 62
     5
 63
     7
421
 16777215
176
     1
 74
     1
176
     1
 91
        4
176
     1
 64
     7
176
     1
 65
   257
176
     1
 75
     1
176
     1
175
     1
176
     1
 42
1.0
176
     1
 92
        0
176
     1
 66
   257
176
     1
 43
1.0
176
     1
 76
     1
176
     1
 77
     6
176
     1
 78
     2
176
     1
 67
     7
176
     1
 79
     5
176
     1
170
     0
176
     1
171
     0
176
     1
290
     0
176
     1
 93
       13
176
     1
 44
0.0
176
     1
173
     0
176
     1
  0
VISUALSTYLE
  5
38
102
{ACAD_REACTORS
330
2A
102
}
330
2A
100
AcDbVisualStyle
  2
Linepattern
 70
    14
177
     2
291
     1
 71
     2
176
     1
 72
     2
176
     1
 73
     0
176
     1
 90
        0
176
     1
 40
-0.6
176
     1
 41
-30.0
176
     1
 62
     5
 63
     7
421
 16777215
176
     1
 74
     1
176
     1
 91
        4
176
     1
 64
     7
176
     1
 65
   257
176
     1
 75
     7
176
     1
175
     7
176
     1
 42
1.0
176
     1
 92
        8
176
     1
 66
     7
176
     1
 43
1.0
176
     1
 76
     1
176
     1
 77
     6
176
     1
 78
     2
176
     1
 67
     7
176
     1
 79
     5
176
     1
170
     0
176
     1
171
     0
176
     1
290
     0
176
     1
 93
        1
176
     1
 44
0.0
176
     1
173
     0
176
     1
  0
VISUALSTYLE
  5
33
102
{ACAD_REACTORS
330
2A
102
}
330
2A
100
AcDbVisualStyle
  2
Realistic
 70
     8
177
     2
291
     0
 71
     2
176
     1
 72
     2
176
     1
 73
     0
176
     1
 90
        0
176
     1
 40
-0.6
176
     1
 41
-30.0
176
     1
 62
     5
 63
     7
421
 16777215
176
     1
 74
     1
176
     1
 91
        0
176
     1
 64
     7
176
     1
 65
   257
176
     1
 75
     1
176
     1
175
     1
176
     1
 42
1.0
176
     1
 92
        8
176
     1
 66
     8
424
  7895160
176
     1
 43
1.0
176
     1
 76
     1
176
     1
 77
     6
176
     1
 78
     2
176
     1
 67
     7
176
     1
 79
     5
176
     1
170
     0
176
     1
171
     0
176
     1
290
     0
176
     1
 93
       13
176
     1
 44
0.0
176
     1
173
     0
176
     1
  0
VISUALSTYLE
  5
37
102
{ACAD_REACTORS
330
2A
102
}
330
2A
100
AcDbVisualStyle
  2
Thicken
 70
    13
177
     2
291
     1
 71
     2
176
     1
 72
     2
176
     1
 73
     0
176
     1
 90
        0
176
     1
 40
-0.6
176
     1
 41
-30.0
176
     1
 62
     5
 63
     7
421
 16777215
176
     1
 74
     1
176
     1
 91
        4
176
     1
 64
     7
176
     1
 65
   257
176
     1
 75
     1
176
     1
175
     1
176
     1
 42
1.0
176
     1
 92
       12
176
     1
 66
     7
176
     1
 43
1.0
176
     1
 76
     1
176
     1
 77
     6
176
     1
 78
     2
176
     1
 67
     7
176
     1
 79
     5
176
     1
170
     0
176
     1
171
     0
176
     1
290
     0
176
     1
 93
        1
176
     1
 44
0.0
176
     1
173
     0
176
     1
  0
ENDSEC
  0
EOF
