  0
SECTION
  2
HEADER
  9
$ACADVER
  1
AC1024
  9
$ACADMAINTVER
 70
     6
  9
$DWGCODEPAGE
  3
UNDEFINED
  9
$INSBASE
 10
0.0
 20
0.0
 30
0.0
  9
$EXTMIN
 10
1.000000000000000E+20
 20
1.000000000000000E+20
 30
1.000000000000000E+20
  9
$EXTMAX
 10
-1.000000000000000E+20
 20
-1.000000000000000E+20
 30
-1.000000000000000E+20
  9
$LIMMIN
 10
0.0
 20
0.0
  9
$LIMMAX
 10
12.0
 20
9.0
  9
$ORTHOMODE
 70
     0
  9
$REGENMODE
 70
     1
  9
$FILLMODE
 70
     1
  9
$QTEXTMODE
 70
     0
  9
$MIRRTEXT
 70
     1
  9
$LTSCALE
 40
1.0
  9
$ATTMODE
 70
     1
  9
$TEXTSIZE
 40
0.2
  9
$TRACEWID
 40
0.05
  9
$TEXTSTYLE
  7
Standard
  9
$CLAYER
  8
0
  9
$CELTYPE
  6
ByLayer
  9
$CECOLOR
 62
   256
  9
$CELTSCALE
 40
1.0
  9
$DISPSILH
 70
     0
  9
$DIMSCALE
 40
1.0
  9
$DIMASZ
 40
0.18
  9
$DIMEXO
 40
0.0625
  9
$DIMDLI
 40
0.38
  9
$DIMRND
 40
0.0
  9
$DIMDLE
 40
0.0
  9
$DIMEXE
 40
0.18
  9
$DIMTP
 40
0.0
  9
$DIMTM
 40
0.0
  9
$DIMTXT
 40
0.18
  9
$DIMCEN
 40
0.09
  9
$DIMTSZ
 40
0.0
  9
$DIMTOL
 70
     0
  9
$DIMLIM
 70
     0
  9
$DIMTIH
 70
     1
  9
$DIMTOH
 70
     1
  9
$DIMSE1
 70
     0
  9
$DIMSE2
 70
     0
  9
$DIMTAD
 70
     0
  9
$DIMZIN
 70
     0
  9
$DIMBLK
  1

  9
$DIMASO
 70
     1
  9
$DIMSHO
 70
     1
  9
$DIMPOST
  1

  9
$DIMAPOST
  1

  9
$DIMALT
 70
     0
  9
$DIMALTD
 70
     2
  9
$DIMALTF
 40
25.4
  9
$DIMLFAC
 40
1.0
  9
$DIMTOFL
 70
     0
  9
$DIMTVP
 40
0.0
  9
$DIMTIX
 70
     0
  9
$DIMSOXD
 70
     0
  9
$DIMSAH
 70
     0
  9
$DIMBLK1
  1

  9
$DIMBLK2
  1

  9
$DIMSTYLE
  2
Standard
  9
$DIMCLRD
 70
     0
  9
$DIMCLRE
 70
     0
  9
$DIMCLRT
 70
     0
  9
$DIMTFAC
 40
1.0
  9
$DIMGAP
 40
0.09
  9
$DIMJUST
 70
     0
  9
$DIMSD1
 70
     0
  9
$DIMSD2
 70
     0
  9
$DIMTOLJ
 70
     1
  9
$DIMTZIN
 70
     0
  9
$DIMALTZ
 70
     0
  9
$DIMALTTZ
 70
     0
  9
$DIMUPT
 70
     0
  9
$DIMDEC
 70
     4
  9
$DIMTDEC
 70
     4
  9
$DIMALTU
 70
     2
  9
$DIMALTTD
 70
     2
  9
$DIMTXSTY
  7
Standard
  9
$DIMAUNIT
 70
     0
  9
$DIMADEC
 70
     0
  9
$DIMALTRND
 40
0.0
  9
$DIMAZIN
 70
     0
  9
$DIMDSEP
 70
    46
  9
$DIMATFIT
 70
     3
  9
$DIMFRAC
 70
     0
  9
$DIMLDRBLK
  1

  9
$DIMLUNIT
 70
     2
  9
$DIMLWD
 70
    -2
  9
$DIMLWE
 70
    -2
  9
$DIMTMOVE
 70
     0
  9
$DIMFXL
 40
1.0
  9
$DIMFXLON
 70
     0
  9
$DIMJOGANG
 40
0.7853981633974483
  9
$DIMTFILL
 70
     0
  9
$DIMTFILLCLR
 70
     0
  9
$DIMARCSYM
 70
     0
  9
$DIMLTYPE
  6

  9
$DIMLTEX1
  6

  9
$DIMLTEX2
  6

  9
$DIMTXTDIRECTION
 70
     0
  9
$LUNITS
 70
     2
  9
$LUPREC
 70
     4
  9
$SKETCHINC
 40
0.1
  9
$FILLETRAD
 40
0.5
  9
$AUNITS
 70
     0
  9
$AUPREC
 70
     0
  9
$MENU
  1
.
  9
$ELEVATION
 40
0.0
  9
$PELEVATION
 40
0.0
  9
$THICKNESS
 40
0.0
  9
$LIMCHECK
 70
     0
  9
$CHAMFERA
 40
0.5
  9
$CHAMFERB
 40
0.5
  9
$CHAMFERC
 40
1.0
  9
$CHAMFERD
 40
0.0
  9
$SKPOLY
 70
     0
  9
$TDCREATE
 40
2457917.593865729
  9
$TDUCREATE
 40
2457917.218865741
  9
$TDUPDATE
 40
2457917.593865729
  9
$TDUUPDATE
 40
2457917.218865741
  9
$TDINDWG
 40
0.0000000116
  9
$TDUSRTIMER
 40
0.0000000116
  9
$USRTIMER
 70
     1
  9
$ANGBASE
 50
0.0
  9
$ANGDIR
 70
     0
  9
$PDMODE
 70
     0
  9
$PDSIZE
 40
0.0
  9
$PLINEWID
 40
0.0
  9
$SPLFRAME
 70
     0
  9
$SPLINETYPE
 70
     6
  9
$SPLINESEGS
 70
     8
  9
$HANDSEED
  5
C7
  9
$SURFTAB1
 70
     6
  9
$SURFTAB2
 70
     6
  9
$SURFTYPE
 70
     6
  9
$SURFU
 70
     6
  9
$SURFV
 70
     6
  9
$UCSBASE
  2

  9
$UCSNAME
  2

  9
$UCSORG
 10
0.0
 20
0.0
 30
0.0
  9
$UCSXDIR
 10
1.0
 20
0.0
 30
0.0
  9
$UCSYDIR
 10
0.0
 20
1.0
 30
0.0
  9
$UCSORTHOREF
  2

  9
$UCSORTHOVIEW
 70
     0
  9
$UCSORGTOP
 10
0.0
 20
0.0
 30
0.0
  9
$UCSORGBOTTOM
 10
0.0
 20
0.0
 30
0.0
  9
$UCSORGLEFT
 10
0.0
 20
0.0
 30
0.0
  9
$UCSORGRIGHT
 10
0.0
 20
0.0
 30
0.0
  9
$UCSORGFRONT
 10
0.0
 20
0.0
 30
0.0
  9
$UCSORGBACK
 10
0.0
 20
0.0
 30
0.0
  9
$PUCSBASE
  2

  9
$PUCSNAME
  2

  9
$PUCSORG
 10
0.0
 20
0.0
 30
0.0
  9
$PUCSXDIR
 10
1.0
 20
0.0
 30
0.0
  9
$PUCSYDIR
 10
0.0
 20
1.0
 30
0.0
  9
$PUCSORTHOREF
  2

  9
$PUCSORTHOVIEW
 70
     0
  9
$PUCSORGTOP
 10
0.0
 20
0.0
 30
0.0
  9
$PUCSORGBOTTOM
 10
0.0
 20
0.0
 30
0.0
  9
$PUCSORGLEFT
 10
0.0
 20
0.0
 30
0.0
  9
$PUCSORGRIGHT
 10
0.0
 20
0.0
 30
0.0
  9
$PUCSORGFRONT
 10
0.0
 20
0.0
 30
0.0
  9
$PUCSORGBACK
 10
0.0
 20
0.0
 30
0.0
  9
$USERI1
 70
     0
  9
$USERI2
 70
     0
  9
$USERI3
 70
     0
  9
$USERI4
 70
     0
  9
$USERI5
 70
     0
  9
$USERR1
 40
0.0
  9
$USERR2
 40
0.0
  9
$USERR3
 40
0.0
  9
$USERR4
 40
0.0
  9
$USERR5
 40
0.0
  9
$WORLDVIEW
 70
     1
  9
$SHADEDGE
 70
     3
  9
$SHADEDIF
 70
    70
  9
$TILEMODE
 70
     1
  9
$MAXACTVP
 70
    64
  9
$PINSBASE
 10
0.0
 20
0.0
 30
0.0
  9
$PLIMCHECK
 70
     0
  9
$PEXTMIN
 10
1.000000000000000E+20
 20
1.000000000000000E+20
 30
1.000000000000000E+20
  9
$PEXTMAX
 10
-1.000000000000000E+20
 20
-1.000000000000000E+20
 30
-1.000000000000000E+20
  9
$PLIMMIN
 10
0.0
 20
0.0
  9
$PLIMMAX
 10
12.0
 20
9.0
  9
$UNITMODE
 70
     0
  9
$VISRETAIN
 70
     1
  9
$PLINEGEN
 70
     0
  9
$PSLTSCALE
 70
     1
  9
$TREEDEPTH
 70
  3020
  9
$CMLSTYLE
  2
Standard
  9
$CMLJUST
 70
     0
  9
$CMLSCALE
 40
1.0
  9
$PROXYGRAPHICS
 70
     1
  9
$MEASUREMENT
 70
     0
  9
$CELWEIGHT
370
    -1
  9
$ENDCAPS
280
     0
  9
$JOINSTYLE
280
     0
  9
$LWDISPLAY
290
     1
  9
$INSUNITS
 70
     1
  9
$HYPERLINKBASE
  1

  9
$STYLESHEET
  1

  9
$XEDIT
290
     1
  9
$CEPSNTYPE
380
     0
  9
$PSTYLEMODE
290
     1
  9
$FINGERPRINTGUID
  2
{2483F305-F11D-89BC-0103-A4072F7C3877}
  9
$VERSIONGUID
  2
{FAEB1C32-E019-11D5-929B-00C0DF256EC4}
  9
$EXTNAMES
290
     1
  9
$PSVPSCALE
 40
0.0
  9
$OLESTARTUP
290
     0
  9
$SORTENTS
280
   127
  9
$INDEXCTL
280
     0
  9
$HIDETEXT
280
     1
  9
$XCLIPFRAME
280
     2
  9
$HALOGAP
280
     0
  9
$OBSCOLOR
 70
   257
  9
$OBSLTYPE
280
     0
  9
$INTERSECTIONDISPLAY
280
     0
  9
$INTERSECTIONCOLOR
 70
   257
  9
$DIMASSOC
280
     2
  9
$PROJECTNAME
  1

  9
$CAMERADISPLAY
290
     0
  9
$LENSLENGTH
 40
50.0
  9
$CAMERAHEIGHT
 40
0.0
  9
$STEPSPERSEC
 40
2.0
  9
$STEPSIZE
 40
6.0
  9
$3DDWFPREC
 40
2.0
  9
$PSOLWIDTH
 40
0.25
  9
$PSOLHEIGHT
 40
4.0
  9
$LOFTANG1
 40
1.570796326794897
  9
$LOFTANG2
 40
1.570796326794897
  9
$LOFTMAG1
 40
0.0
  9
$LOFTMAG2
 40
0.0
  9
$LOFTPARAM
 70
     7
  9
$LOFTNORMALS
280
     1
  9
$LATITUDE
 40
37.795
  9
$LONGITUDE
 40
-122.394
  9
$NORTHDIRECTION
 40
0.0
  9
$TIMEZONE
 70
 -8000
  9
$LIGHTGLYPHDISPLAY
280
     1
  9
$TILEMODELIGHTSYNCH
280
     1
  9
$CMATERIAL
347
3C
  9
$SOLIDHIST
280
     1
  9
$SHOWHIST
280
     1
  9
$DWFFRAME
280
     2
  9
$DGNFRAME
280
     2
  9
$REALWORLDSCALE
290
     1
  9
$INTERFERECOLOR
 62
   256
  9
$CSHADOW
280
     0
  9
$SHADOWPLANELOCATION
 40
0.0
  0
ENDSEC
  0
SECTION
  2
CLASSES
  0
CLASS
  1
ACDBDICTIONARYWDFLT
  2
AcDbDictionaryWithDefault
  3
ObjectDBX Classes
 90
        0
 91
        4
280
     0
281
     0
  0
CLASS
  1
VISUALSTYLE
  2
AcDbVisualStyle
  3
ObjectDBX Classes
 90
     4095
 91
        4
280
     0
281
     0
  0
CLASS
  1
MATERIAL
  2
AcDbMaterial
  3
ObjectDBX Classes
 90
     1153
 91
        4
280
     0
281
     0
  0
CLASS
  1
SUN
  2
AcDbSun
  3
SCENEOE
 90
     1024
 91
        4
280
     0
281
     0
  0
ENDSEC
  0
SECTION
  2
TABLES
  0
TABLE
  2
VPORT
  5
8
330
0
100
AcDbSymbolTable
 70
     1
  0
VPORT
  5
29
330
8
100
AcDbSymbolTableRecord
100
AcDbViewportTableRecord
  2
*Active
 70
     0
 10
0.0
 20
0.0
 11
1.0
 21
1.0
 12
0.0
 22
0.0
 13
0.0
 23
0.0
 14
0.5
 24
0.5
 15
0.5
 25
0.5
 16
0.0
 26
0.0
 36
1.0
 17
91.00082462281999
 27
-128.4993055234307
 37
0.0
 40
256.9986110468615
 41
0.7081814508812795
 42
50.0
 43
0.0
 44
0.0
 50
0.0
 51
0.0
 71
     0
 72
   100
 73
     1
 74
     3
 75
     0
 76
     0
 77
     0
 78
     0
281
     0
 65
     1
110
0.0
120
0.0
130
0.0
111
1.0
121
0.0
131
0.0
112
0.0
122
1.0
132
0.0
 79
     0
146
0.0
 60
     3
 61
     5
292
     1
282
     1
141
0.0
142
0.0
 63
   250
361
3F
  0
ENDTAB
  0
TABLE
  2
LTYPE
  5
5
330
0
100
AcDbSymbolTable
 70
     1
  0
LTYPE
  5
14
330
5
100
AcDbSymbolTableRecord
100
AcDbLinetypeTableRecord
  2
ByBlock
 70
     0
  3

 72
    65
 73
     0
 40
0.0
  0
LTYPE
  5
15
330
5
100
AcDbSymbolTableRecord
100
AcDbLinetypeTableRecord
  2
ByLayer
 70
     0
  3

 72
    65
 73
     0
 40
0.0
  0
LTYPE
  5
16
330
5
100
AcDbSymbolTableRecord
100
AcDbLinetypeTableRecord
  2
Continuous
 70
     0
  3
Solid line
 72
    65
 73
     0
 40
0.0
  0
ENDTAB
  0
TABLE
  2
LAYER
  5
2
330
0
100
AcDbSymbolTable
 70
     2
  0
LAYER
  5
10
330
2
100
AcDbSymbolTableRecord
100
AcDbLayerTableRecord
  2
0
 70
     0
 62
     7
  6
Continuous
370
    -3
390
F
347
3E
  0
LAYER
  5
40
330
2
100
AcDbSymbolTableRecord
100
AcDbLayerTableRecord
  2
_U+30EC_U+30A4_U+30E4_U+30FC 1
 70
     0
 62
     7
  6
Continuous
370
    -3
390
F
347
3E
  0
ENDTAB
  0
TABLE
  2
STYLE
  5
3
330
0
100
AcDbSymbolTable
 70
     1
  0
STYLE
  5
11
330
3
100
AcDbSymbolTableRecord
100
AcDbTextStyleTableRecord
  2
Standard
 70
     0
 40
0.0
 41
1.0
 50
0.0
 71
     0
 42
0.2
  3
txt
  4

  0
ENDTAB
  0
TABLE
  2
VIEW
  5
6
330
0
100
AcDbSymbolTable
 70
     0
  0
ENDTAB
  0
TABLE
  2
UCS
  5
7
330
0
100
AcDbSymbolTable
 70
     0
  0
ENDTAB
  0
TABLE
  2
APPID
  5
9
330
0
100
AcDbSymbolTable
 70
     1
  0
APPID
  5
12
330
9
100
AcDbSymbolTableRecord
100
AcDbRegAppTableRecord
  2
ACAD
 70
     0
  0
ENDTAB
  0
TABLE
  2
DIMSTYLE
  5
A
330
0
100
AcDbSymbolTable
 70
     1
100
AcDbDimStyleTable
  0
DIMSTYLE
105
27
330
A
100
AcDbSymbolTableRecord
100
AcDbDimStyleTableRecord
  2
Standard
 70
     0
178
     0
340
11
  0
ENDTAB
  0
TABLE
  2
BLOCK_RECORD
  5
1
330
0
100
AcDbSymbolTable
 70
     6
  0
BLOCK_RECORD
  5
1F
330
1
100
AcDbSymbolTableRecord
100
AcDbBlockTableRecord
  2
*Model_Space
340
22
 70
     0
280
     1
281
     0
  0
BLOCK_RECORD
  5
1B
330
1
100
AcDbSymbolTableRecord
100
AcDbBlockTableRecord
  2
*Paper_Space
340
1E
 70
     0
280
     1
281
     0
  0
BLOCK_RECORD
  5
23
330
1
100
AcDbSymbolTableRecord
100
AcDbBlockTableRecord
  2
*Paper_Space0
340
26
 70
     0
280
     1
281
     0
  0
BLOCK_RECORD
  5
41
330
1
100
AcDbSymbolTableRecord
100
AcDbBlockTableRecord
  2
block 2
340
0
102
{BLKREFS
331
42
102
}
 70
     0
280
     1
281
     0
  0
BLOCK_RECORD
  5
4D
330
1
100
AcDbSymbolTableRecord
100
AcDbBlockTableRecord
  2
block 3
340
0
102
{BLKREFS
331
4E
102
}
 70
     0
280
     1
281
     0
  0
BLOCK_RECORD
  5
6C
330
1
100
AcDbSymbolTableRecord
100
AcDbBlockTableRecord
  2
block 4
340
0
102
{BLKREFS
331
6D
102
}
 70
     0
280
     1
281
     0
  0
BLOCK_RECORD
  5
BC
330
1
100
AcDbSymbolTableRecord
100
AcDbBlockTableRecord
  2
block 5
340
0
102
{BLKREFS
331
BD
102
}
 70
     0
280
     1
281
     0
  0
BLOCK_RECORD
  5
C0
330
1
100
AcDbSymbolTableRecord
100
AcDbBlockTableRecord
  2
block 6
340
0
102
{BLKREFS
331
C1
102
}
 70
     0
280
     1
281
     0
  0
ENDTAB
  0
ENDSEC
  0
SECTION
  2
BLOCKS
  0
BLOCK
  5
20
330
1F
100
AcDbEntity
  8
0
100
AcDbBlockBegin
  2
*Model_Space
 70
     0
 10
0.0
 20
0.0
 30
0.0
  3
*Model_Space
  1

  0
ENDBLK
  5
21
330
1F
100
AcDbEntity
  8
0
100
AcDbBlockEnd
  0
BLOCK
  5
1C
330
1B
100
AcDbEntity
 67
     1
  8
0
100
AcDbBlockBegin
  2
*Paper_Space
 70
     0
 10
0.0
 20
0.0
 30
0.0
  3
*Paper_Space
  1

  0
ENDBLK
  5
1D
330
1B
100
AcDbEntity
 67
     1
  8
0
100
AcDbBlockEnd
  0
BLOCK
  5
24
330
23
100
AcDbEntity
  8
0
100
AcDbBlockBegin
  2
*Paper_Space0
 70
     0
 10
0.0
 20
0.0
 30
0.0
  3
*Paper_Space0
  1

  0
ENDBLK
  5
25
330
23
100
AcDbEntity
  8
0
100
AcDbBlockEnd
  0
BLOCK
  5
43
330
41
100
AcDbEntity
  8
0
100
AcDbBlockBegin
  2
block 2
 70
     0
 10
0.0
 20
0.0
 30
0.0
  3
block 2
  1

  0
SPLINE
  5
45
330
41
100
AcDbEntity
  8
_U+30EC_U+30A4_U+30E4_U+30FC 1
370
     0
100
AcDbSpline
210
0.0
220
0.0
230
1.0
 70
    11
 71
     3
 72
    44
 73
    40
 74
     0
 42
0.0000000001
 43
0.0000000001
 12
1.0
 22
0.0
 32
0.0
 13
1.0
 23
0.0
 33
0.0
 40
0.0
 40
0.0
 40
0.0
 40
0.0
 40
1.0
 40
1.0
 40
1.0
 40
2.0
 40
2.0
 40
2.0
 40
3.0
 40
3.0
 40
3.0
 40
4.0
 40
4.0
 40
4.0
 40
5.0
 40
5.0
 40
5.0
 40
6.0
 40
6.0
 40
6.0
 40
7.0
 40
7.0
 40
7.0
 40
8.0
 40
8.0
 40
8.0
 40
9.0
 40
9.0
 40
9.0
 40
10.0
 40
10.0
 40
10.0
 40
11.0
 40
11.0
 40
11.0
 40
12.0
 40
12.0
 40
12.0
 40
13.0
 40
13.0
 40
13.0
 40
13.0
 10
67.66839326650305
 20
-127.6538790913504
 30
0.0
 10
67.45066323183525
 20
-127.8126979932204
 30
0.0
 10
67.35764565373351
 20
-127.8867675461533
 30
0.0
 10
67.30872529784295
 20
-128.0304280278882
 30
0.0
 10
67.30872529784295
 20
-128.0304280278882
 30
0.0
 10
68.08731687750942
 20
-128.0304280278882
 30
0.0
 10
68.08731687750942
 20
-128.0304280278882
 30
0.0
 10
68.08731687750942
 20
-128.0304280278882
 30
0.0
 10
68.08731687750942
 20
-128.2357557188091
 30
0.0
 10
68.08731687750942
 20
-128.2357557188091
 30
0.0
 10
68.08731687750942
 20
-128.2357557188091
 30
0.0
 10
67.05930038471087
 20
-128.2357557188091
 30
0.0
 10
67.05930038471087
 20
-128.2357557188091
 30
0.0
 10
67.09099526317517
 20
-127.8781548074402
 30
0.0
 10
67.15645207739492
 20
-127.799951139925
 30
0.0
 10
67.54161375264584
 20
-127.5016058709024
 30
0.0
 10
67.79758434719992
 20
-127.3028238614035
 30
0.0
 10
67.86304116141966
 20
-127.234955480344
 30
0.0
 10
67.86304116141966
 20
-127.0974961704826
 30
0.0
 10
67.86304116141966
 20
-126.97898488579
 30
0.0
 10
67.79103866577793
 20
-126.8480712573505
 30
0.0
 10
67.59432371357018
 20
-126.8480712573505
 30
0.0
 10
67.3342190044338
 20
-126.8480712573505
 30
0.0
 10
67.3259507752692
 20
-127.0785481453137
 30
0.0
 10
67.32147215113838
 20
-127.1949923727151
 30
0.0
 10
67.32147215113838
 20
-127.1949923727151
 30
0.0
 10
67.09719643504862
 20
-127.1949923727151
 30
0.0
 10
67.09719643504862
 20
-127.1949923727151
 30
0.0
 10
67.10580917376174
 20
-127.0678683493094
 30
0.0
 10
67.11648896976602
 20
-126.9559027460388
 30
0.0
 10
67.19675969457234
 20
-126.8373914613462
 30
0.0
 10
67.30665824055181
 20
-126.6765055021851
 30
0.0
 10
67.49303790630383
 20
-126.6427435664296
 30
0.0
 10
67.60913762415674
 20
-126.6427435664296
 30
0.0
 10
67.88646781071935
 20
-126.6427435664296
 30
0.0
 10
68.09386255893139
 20
-126.8267116653419
 30
0.0
 10
68.09386255893139
 20
-127.0995632277737
 30
0.0
 10
68.09386255893139
 20
-127.3283175679943
 30
0.0
 10
67.97741833152996
 20
-127.4275363179695
 30
0.0
 10
67.66839326650305
 20
-127.6538790913504
 30
0.0
  0
HATCH
  5
46
330
41
100
AcDbEntity
  8
_U+30EC_U+30A4_U+30E4_U+30FC 1
 62
   179
420
  2234388
100
AcDbHatch
 10
0.0
 20
0.0
 30
0.0
210
0.0
220
0.0
230
1.0
  2
SOLID
 70
     1
 71
     0
 91
        1
 92
        1
 93
        1
 72
     4
 94
        3
 73
     0
 74
     1
 95
       44
 96
       40
 40
0.0
 40
0.0
 40
0.0
 40
0.0
 40
1.0
 40
1.0
 40
1.0
 40
2.0
 40
2.0
 40
2.0
 40
3.0
 40
3.0
 40
3.0
 40
4.0
 40
4.0
 40
4.0
 40
5.0
 40
5.0
 40
5.0
 40
6.0
 40
6.0
 40
6.0
 40
7.0
 40
7.0
 40
7.0
 40
8.0
 40
8.0
 40
8.0
 40
9.0
 40
9.0
 40
9.0
 40
10.0
 40
10.0
 40
10.0
 40
11.0
 40
11.0
 40
11.0
 40
12.0
 40
12.0
 40
12.0
 40
13.0
 40
13.0
 40
13.0
 40
13.0
 10
67.66839326650305
 20
-127.6538790913504
 10
67.45066323183525
 20
-127.8126979932204
 10
67.35764565373351
 20
-127.8867675461533
 10
67.30872529784295
 20
-128.0304280278882
 10
67.30872529784295
 20
-128.0304280278882
 10
68.08731687750942
 20
-128.0304280278882
 10
68.08731687750942
 20
-128.0304280278882
 10
68.08731687750942
 20
-128.0304280278882
 10
68.08731687750942
 20
-128.2357557188091
 10
68.08731687750942
 20
-128.2357557188091
 10
68.08731687750942
 20
-128.2357557188091
 10
67.05930038471087
 20
-128.2357557188091
 10
67.05930038471087
 20
-128.2357557188091
 10
67.09099526317517
 20
-127.8781548074402
 10
67.15645207739492
 20
-127.799951139925
 10
67.54161375264584
 20
-127.5016058709024
 10
67.79758434719992
 20
-127.3028238614035
 10
67.86304116141966
 20
-127.234955480344
 10
67.86304116141966
 20
-127.0974961704826
 10
67.86304116141966
 20
-126.97898488579
 10
67.79103866577793
 20
-126.8480712573505
 10
67.59432371357018
 20
-126.8480712573505
 10
67.3342190044338
 20
-126.8480712573505
 10
67.3259507752692
 20
-127.0785481453137
 10
67.32147215113838
 20
-127.1949923727151
 10
67.32147215113838
 20
-127.1949923727151
 10
67.09719643504862
 20
-127.1949923727151
 10
67.09719643504862
 20
-127.1949923727151
 10
67.10580917376174
 20
-127.0678683493094
 10
67.11648896976602
 20
-126.9559027460388
 10
67.19675969457234
 20
-126.8373914613462
 10
67.30665824055181
 20
-126.6765055021851
 10
67.49303790630383
 20
-126.6427435664296
 10
67.60913762415674
 20
-126.6427435664296
 10
67.88646781071935
 20
-126.6427435664296
 10
68.09386255893139
 20
-126.8267116653419
 10
68.09386255893139
 20
-127.0995632277737
 10
68.09386255893139
 20
-127.3283175679943
 10
67.97741833152996
 20
-127.4275363179695
 10
67.66839326650305
 20
-127.6538790913504
 97
        0
 97
        0
 75
     2
 76
     1
 98
        0
  0
SPLINE
  5
47
330
41
100
AcDbEntity
  8
_U+30EC_U+30A4_U+30E4_U+30FC 1
370
     0
100
AcDbSpline
210
0.0
220
0.0
230
1.0
 70
    11
 71
     3
 72
    29
 73
    25
 74
     0
 42
0.0000000001
 43
0.0000000001
 12
1.0
 22
0.0
 32
0.0
 13
1.0
 23
0.0
 33
0.0
 40
0.0
 40
0.0
 40
0.0
 40
0.0
 40
1.0
 40
1.0
 40
1.0
 40
2.0
 40
2.0
 40
2.0
 40
3.0
 40
3.0
 40
3.0
 40
4.0
 40
4.0
 40
4.0
 40
5.0
 40
5.0
 40
5.0
 40
6.0
 40
6.0
 40
6.0
 40
7.0
 40
7.0
 40
7.0
 40
8.0
 40
8.0
 40
8.0
 40
8.0
 10
69.150128834709
 20
-128.0579887917702
 30
0.0
 10
69.04195283647215
 20
-128.2674505972734
 30
0.0
 10
68.86866453356409
 20
-128.2863986224423
 30
0.0
 10
68.75222030616264
 20
-128.2863986224423
 30
0.0
 10
68.59133434700148
 20
-128.2863986224423
 30
0.0
 10
68.44974092255771
 20
-128.2398898333914
 30
0.0
 10
68.35465628716481
 20
-128.0579887917702
 30
0.0
 10
68.2509589130588
 20
-127.8633408968536
 30
0.0
 10
68.23201088788991
 20
-127.6263183274684
 30
0.0
 10
68.23201088788991
 20
-127.4637098205646
 30
0.0
 10
68.23201088788991
 20
-127.3197048292812
 30
0.0
 10
68.24889185576764
 20
-127.0678683493094
 30
0.0
 10
68.35465628716481
 20
-126.8690863398105
 30
0.0
 10
68.46248777585313
 20
-126.6661702157293
 30
0.0
 10
68.6233737350143
 20
-126.6427435664296
 30
0.0
 10
68.75222030616264
 20
-126.6427435664296
 30
0.0
 10
68.91103920803266
 20
-126.6427435664296
 30
0.0
 10
69.05469968976757
 20
-126.6871852981893
 30
0.0
 10
69.150128834709
 20
-126.8690863398105
 30
0.0
 10
69.24934758468419
 20
-127.061667177436
 30
0.0
 10
69.2727742339839
 20
-127.290077008108
 30
0.0
 10
69.2727742339839
 20
-127.4637098205646
 30
0.0
 10
69.2727742339839
 20
-127.6349310661816
 30
0.0
 10
69.25141464197534
 20
-127.8654079541448
 30
0.0
 10
69.150128834709
 20
-128.0579887917702
 30
0.0
  0
SPLINE
  5
48
330
41
100
AcDbEntity
  8
_U+30EC_U+30A4_U+30E4_U+30FC 1
370
     0
100
AcDbSpline
210
0.0
220
0.0
230
1.0
 70
    11
 71
     3
 72
    17
 73
    13
 74
     0
 42
0.0000000001
 43
0.0000000001
 12
1.0
 22
0.0
 32
0.0
 13
1.0
 23
0.0
 33
0.0
 40
0.0
 40
0.0
 40
0.0
 40
0.0
 40
1.0
 40
1.0
 40
1.0
 40
2.0
 40
2.0
 40
2.0
 40
3.0
 40
3.0
 40
3.0
 40
4.0
 40
4.0
 40
4.0
 40
4.0
 10
68.75222030616264
 20
-126.8353244040551
 30
0.0
 10
68.50279539303055
 20
-126.8353244040551
 30
0.0
 10
68.45594209443115
 20
-127.1188557624911
 30
0.0
 10
68.45594209443115
 20
-127.4637098205646
 30
0.0
 10
68.45594209443115
 20
-127.7830701720473
 30
0.0
 10
68.49211559702628
 20
-128.0917507275257
 30
0.0
 10
68.75222030616264
 20
-128.0917507275257
 30
0.0
 10
68.9999226715521
 20
-128.0917507275257
 30
0.0
 10
69.04849851789413
 20
-127.8106309359293
 30
0.0
 10
69.04849851789413
 20
-127.4637098205646
 30
0.0
 10
69.04849851789413
 20
-127.1440049595334
 30
0.0
 10
69.01025795800786
 20
-126.8353244040551
 30
0.0
 10
68.75222030616264
 20
-126.8353244040551
 30
0.0
  0
HATCH
  5
49
330
41
100
AcDbEntity
  8
_U+30EC_U+30A4_U+30E4_U+30FC 1
 62
   179
420
  2234388
100
AcDbHatch
 10
0.0
 20
0.0
 30
0.0
210
0.0
220
0.0
230
1.0
  2
SOLID
 70
     1
 71
     0
 91
        2
 92
        1
 93
        1
 72
     4
 94
        3
 73
     0
 74
     1
 95
       29
 96
       25
 40
0.0
 40
0.0
 40
0.0
 40
0.0
 40
1.0
 40
1.0
 40
1.0
 40
2.0
 40
2.0
 40
2.0
 40
3.0
 40
3.0
 40
3.0
 40
4.0
 40
4.0
 40
4.0
 40
5.0
 40
5.0
 40
5.0
 40
6.0
 40
6.0
 40
6.0
 40
7.0
 40
7.0
 40
7.0
 40
8.0
 40
8.0
 40
8.0
 40
8.0
 10
69.150128834709
 20
-128.0579887917702
 10
69.04195283647215
 20
-128.2674505972734
 10
68.86866453356409
 20
-128.2863986224423
 10
68.75222030616264
 20
-128.2863986224423
 10
68.59133434700148
 20
-128.2863986224423
 10
68.44974092255771
 20
-128.2398898333914
 10
68.35465628716481
 20
-128.0579887917702
 10
68.2509589130588
 20
-127.8633408968536
 10
68.23201088788991
 20
-127.6263183274684
 10
68.23201088788991
 20
-127.4637098205646
 10
68.23201088788991
 20
-127.3197048292812
 10
68.24889185576764
 20
-127.0678683493094
 10
68.35465628716481
 20
-126.8690863398105
 10
68.46248777585313
 20
-126.6661702157293
 10
68.6233737350143
 20
-126.6427435664296
 10
68.75222030616264
 20
-126.6427435664296
 10
68.91103920803266
 20
-126.6427435664296
 10
69.05469968976757
 20
-126.6871852981893
 10
69.150128834709
 20
-126.8690863398105
 10
69.24934758468419
 20
-127.061667177436
 10
69.2727742339839
 20
-127.290077008108
 10
69.2727742339839
 20
-127.4637098205646
 10
69.2727742339839
 20
-127.6349310661816
 10
69.25141464197534
 20
-127.8654079541448
 10
69.150128834709
 20
-128.0579887917702
 97
        0
 97
        0
 92
        1
 93
        1
 72
     4
 94
        3
 73
     0
 74
     1
 95
       17
 96
       13
 40
0.0
 40
0.0
 40
0.0
 40
0.0
 40
1.0
 40
1.0
 40
1.0
 40
2.0
 40
2.0
 40
2.0
 40
3.0
 40
3.0
 40
3.0
 40
4.0
 40
4.0
 40
4.0
 40
4.0
 10
68.75222030616264
 20
-126.8353244040551
 10
68.50279539303055
 20
-126.8353244040551
 10
68.45594209443115
 20
-127.1188557624911
 10
68.45594209443115
 20
-127.4637098205646
 10
68.45594209443115
 20
-127.7830701720473
 10
68.49211559702628
 20
-128.0917507275257
 10
68.75222030616264
 20
-128.0917507275257
 10
68.9999226715521
 20
-128.0917507275257
 10
69.04849851789413
 20
-127.8106309359293
 10
69.04849851789413
 20
-127.4637098205646
 10
69.04849851789413
 20
-127.1440049595334
 10
69.01025795800786
 20
-126.8353244040551
 10
68.75222030616264
 20
-126.8353244040551
 97
        0
 97
        0
 75
     2
 76
     1
 98
        0
  0
SPLINE
  5
4A
330
41
100
AcDbEntity
  8
_U+30EC_U+30A4_U+30E4_U+30FC 1
370
     0
100
AcDbSpline
210
0.0
220
0.0
230
1.0
 70
    11
 71
     3
 72
    29
 73
    25
 74
     0
 42
0.0000000001
 43
0.0000000001
 12
1.0
 22
0.0
 32
0.0
 13
1.0
 23
0.0
 33
0.0
 40
0.0
 40
0.0
 40
0.0
 40
0.0
 40
1.0
 40
1.0
 40
1.0
 40
2.0
 40
2.0
 40
2.0
 40
3.0
 40
3.0
 40
3.0
 40
4.0
 40
4.0
 40
4.0
 40
5.0
 40
5.0
 40
5.0
 40
6.0
 40
6.0
 40
6.0
 40
7.0
 40
7.0
 40
7.0
 40
8.0
 40
8.0
 40
8.0
 40
8.0
 10
70.32697345247034
 20
-128.0579887917702
 30
0.0
 10
70.2187974542335
 20
-128.2674505972734
 30
0.0
 10
70.04550915132543
 20
-128.2863986224423
 30
0.0
 10
69.92906492392399
 20
-128.2863986224423
 30
0.0
 10
69.76817896476282
 20
-128.2863986224423
 30
0.0
 10
69.62658554031906
 20
-128.2398898333914
 30
0.0
 10
69.53150090492616
 20
-128.0579887917702
 30
0.0
 10
69.42780353082014
 20
-127.8633408968536
 30
0.0
 10
69.40885550565126
 20
-127.6263183274684
 30
0.0
 10
69.40885550565126
 20
-127.4637098205646
 30
0.0
 10
69.40885550565126
 20
-127.3197048292812
 30
0.0
 10
69.42573647352899
 20
-127.0678683493094
 30
0.0
 10
69.53150090492616
 20
-126.8690863398105
 30
0.0
 10
69.63933239361448
 20
-126.6661702157293
 30
0.0
 10
69.80021835277564
 20
-126.6427435664296
 30
0.0
 10
69.92906492392399
 20
-126.6427435664296
 30
0.0
 10
70.08788382579401
 20
-126.6427435664296
 30
0.0
 10
70.23154430752892
 20
-126.6871852981893
 30
0.0
 10
70.32697345247034
 20
-126.8690863398105
 30
0.0
 10
70.42619220244553
 20
-127.061667177436
 30
0.0
 10
70.44961885174524
 20
-127.290077008108
 30
0.0
 10
70.44961885174524
 20
-127.4637098205646
 30
0.0
 10
70.44961885174524
 20
-127.6349310661816
 30
0.0
 10
70.42825925973669
 20
-127.8654079541448
 30
0.0
 10
70.32697345247034
 20
-128.0579887917702
 30
0.0
  0
SPLINE
  5
4B
330
41
100
AcDbEntity
  8
_U+30EC_U+30A4_U+30E4_U+30FC 1
370
     0
100
AcDbSpline
210
0.0
220
0.0
230
1.0
 70
    11
 71
     3
 72
    17
 73
    13
 74
     0
 42
0.0000000001
 43
0.0000000001
 12
1.0
 22
0.0
 32
0.0
 13
1.0
 23
0.0
 33
0.0
 40
0.0
 40
0.0
 40
0.0
 40
0.0
 40
1.0
 40
1.0
 40
1.0
 40
2.0
 40
2.0
 40
2.0
 40
3.0
 40
3.0
 40
3.0
 40
4.0
 40
4.0
 40
4.0
 40
4.0
 10
69.92906492392399
 20
-126.8353244040551
 30
0.0
 10
69.6796400107919
 20
-126.8353244040551
 30
0.0
 10
69.6327867121925
 20
-127.1188557624911
 30
0.0
 10
69.6327867121925
 20
-127.4637098205646
 30
0.0
 10
69.6327867121925
 20
-127.7830701720473
 30
0.0
 10
69.66896021478762
 20
-128.0917507275257
 30
0.0
 10
69.92906492392399
 20
-128.0917507275257
 30
0.0
 10
70.17676728931345
 20
-128.0917507275257
 30
0.0
 10
70.22534313565548
 20
-127.8106309359293
 30
0.0
 10
70.22534313565548
 20
-127.4637098205646
 30
0.0
 10
70.22534313565548
 20
-127.1440049595334
 30
0.0
 10
70.1871025757692
 20
-126.8353244040551
 30
0.0
 10
69.92906492392399
 20
-126.8353244040551
 30
0.0
  0
HATCH
  5
4C
330
41
100
AcDbEntity
  8
_U+30EC_U+30A4_U+30E4_U+30FC 1
 62
   179
420
  2234388
100
AcDbHatch
 10
0.0
 20
0.0
 30
0.0
210
0.0
220
0.0
230
1.0
  2
SOLID
 70
     1
 71
     0
 91
        2
 92
        1
 93
        1
 72
     4
 94
        3
 73
     0
 74
     1
 95
       29
 96
       25
 40
0.0
 40
0.0
 40
0.0
 40
0.0
 40
1.0
 40
1.0
 40
1.0
 40
2.0
 40
2.0
 40
2.0
 40
3.0
 40
3.0
 40
3.0
 40
4.0
 40
4.0
 40
4.0
 40
5.0
 40
5.0
 40
5.0
 40
6.0
 40
6.0
 40
6.0
 40
7.0
 40
7.0
 40
7.0
 40
8.0
 40
8.0
 40
8.0
 40
8.0
 10
70.32697345247034
 20
-128.0579887917702
 10
70.2187974542335
 20
-128.2674505972734
 10
70.04550915132543
 20
-128.2863986224423
 10
69.92906492392399
 20
-128.2863986224423
 10
69.76817896476282
 20
-128.2863986224423
 10
69.62658554031906
 20
-128.2398898333914
 10
69.53150090492616
 20
-128.0579887917702
 10
69.42780353082014
 20
-127.8633408968536
 10
69.40885550565126
 20
-127.6263183274684
 10
69.40885550565126
 20
-127.4637098205646
 10
69.40885550565126
 20
-127.3197048292812
 10
69.42573647352899
 20
-127.0678683493094
 10
69.53150090492616
 20
-126.8690863398105
 10
69.63933239361448
 20
-126.6661702157293
 10
69.80021835277564
 20
-126.6427435664296
 10
69.92906492392399
 20
-126.6427435664296
 10
70.08788382579401
 20
-126.6427435664296
 10
70.23154430752892
 20
-126.6871852981893
 10
70.32697345247034
 20
-126.8690863398105
 10
70.42619220244553
 20
-127.061667177436
 10
70.44961885174524
 20
-127.290077008108
 10
70.44961885174524
 20
-127.4637098205646
 10
70.44961885174524
 20
-127.6349310661816
 10
70.42825925973669
 20
-127.8654079541448
 10
70.32697345247034
 20
-128.0579887917702
 97
        0
 97
        0
 92
        1
 93
        1
 72
     4
 94
        3
 73
     0
 74
     1
 95
       17
 96
       13
 40
0.0
 40
0.0
 40
0.0
 40
0.0
 40
1.0
 40
1.0
 40
1.0
 40
2.0
 40
2.0
 40
2.0
 40
3.0
 40
3.0
 40
3.0
 40
4.0
 40
4.0
 40
4.0
 40
4.0
 10
69.92906492392399
 20
-126.8353244040551
 10
69.6796400107919
 20
-126.8353244040551
 10
69.6327867121925
 20
-127.1188557624911
 10
69.6327867121925
 20
-127.4637098205646
 10
69.6327867121925
 20
-127.7830701720473
 10
69.66896021478762
 20
-128.0917507275257
 10
69.92906492392399
 20
-128.0917507275257
 10
70.17676728931345
 20
-128.0917507275257
 10
70.22534313565548
 20
-127.8106309359293
 10
70.22534313565548
 20
-127.4637098205646
 10
70.22534313565548
 20
-127.1440049595334
 10
70.1871025757692
 20
-126.8353244040551
 10
69.92906492392399
 20
-126.8353244040551
 97
        0
 97
        0
 75
     2
 76
     1
 98
        0
  0
ENDBLK
  5
44
330
41
100
AcDbEntity
  8
0
100
AcDbBlockEnd
  0
BLOCK
  5
4F
330
4D
100
AcDbEntity
  8
0
100
AcDbBlockBegin
  2
block 3
 70
     0
 10
0.0
 20
0.0
 30
0.0
  3
block 3
  1

  0
POLYLINE
  5
51
330
4D
100
AcDbEntity
  8
_U+30EC_U+30A4_U+30E4_U+30FC 1
370
     0
100
AcDb2dPolyline
 66
     1
 10
0.0
 20
0.0
 30
0.0
  0
VERTEX
  5
52
330
51
100
AcDbEntity
  8
_U+30EC_U+30A4_U+30E4_U+30FC 1
370
     0
100
AcDbVertex
100
AcDb2dVertex
 10
98.1580050752869
 20
-133.5332790464778
 30
0.0
  0
VERTEX
  5
53
330
51
100
AcDbEntity
  8
_U+30EC_U+30A4_U+30E4_U+30FC 1
370
     0
100
AcDbVertex
100
AcDb2dVertex
 10
98.1580050752869
 20
-133.8802001618425
 30
0.0
  0
VERTEX
  5
54
330
51
100
AcDbEntity
  8
_U+30EC_U+30A4_U+30E4_U+30FC 1
370
     0
100
AcDbVertex
100
AcDb2dVertex
 10
97.9402750406191
 20
-133.8802001618425
 30
0.0
  0
VERTEX
  5
55
330
51
100
AcDbEntity
  8
_U+30EC_U+30A4_U+30E4_U+30FC 1
370
     0
100
AcDbVertex
100
AcDb2dVertex
 10
97.9402750406191
 20
-133.5332790464778
 30
0.0
  0
VERTEX
  5
56
330
51
100
AcDbEntity
  8
_U+30EC_U+30A4_U+30E4_U+30FC 1
370
     0
100
AcDbVertex
100
AcDb2dVertex
 10
97.28432886022753
 20
-133.5332790464778
 30
0.0
  0
VERTEX
  5
57
330
51
100
AcDbEntity
  8
_U+30EC_U+30A4_U+30E4_U+30FC 1
370
     0
100
AcDbVertex
100
AcDb2dVertex
 10
97.28432886022753
 20
-133.309003330388
 30
0.0
  0
VERTEX
  5
58
330
51
100
AcDbEntity
  8
_U+30EC_U+30A4_U+30E4_U+30FC 1
370
     0
100
AcDbVertex
100
AcDb2dVertex
 10
97.96335718037028
 20
-132.3357638558049
 30
0.0
  0
VERTEX
  5
59
330
51
100
AcDbEntity
  8
_U+30EC_U+30A4_U+30E4_U+30FC 1
370
     0
100
AcDbVertex
100
AcDb2dVertex
 10
98.1580050752869
 20
-132.3357638558049
 30
0.0
  0
VERTEX
  5
5A
330
51
100
AcDbEntity
  8
_U+30EC_U+30A4_U+30E4_U+30FC 1
370
     0
100
AcDbVertex
100
AcDb2dVertex
 10
98.1580050752869
 20
-133.3344970369789
 30
0.0
  0
VERTEX
  5
5B
330
51
100
AcDbEntity
  8
_U+30EC_U+30A4_U+30E4_U+30FC 1
370
     0
100
AcDbVertex
100
AcDb2dVertex
 10
98.36539982349893
 20
-133.3344970369789
 30
0.0
  0
VERTEX
  5
5C
330
51
100
AcDbEntity
  8
_U+30EC_U+30A4_U+30E4_U+30FC 1
370
     0
100
AcDbVertex
100
AcDb2dVertex
 10
98.36539982349893
 20
-133.5332790464778
 30
0.0
  0
VERTEX
  5
5D
330
51
100
AcDbEntity
  8
_U+30EC_U+30A4_U+30E4_U+30FC 1
370
     0
100
AcDbVertex
100
AcDb2dVertex
 10
98.1580050752869
 20
-133.5332790464778
 30
0.0
  0
SEQEND
  5
5E
330
51
100
AcDbEntity
  8
_U+30EC_U+30A4_U+30E4_U+30FC 1
370
     0
  0
POLYLINE
  5
5F
330
4D
100
AcDbEntity
  8
_U+30EC_U+30A4_U+30E4_U+30FC 1
370
     0
100
AcDb2dPolyline
 66
     1
 10
0.0
 20
0.0
 30
0.0
  0
VERTEX
  5
60
330
5F
100
AcDbEntity
  8
_U+30EC_U+30A4_U+30E4_U+30FC 1
370
     0
100
AcDbVertex
100
AcDb2dVertex
 10
97.9402750406191
 20
-132.6785508565873
 30
0.0
  0
VERTEX
  5
61
330
5F
100
AcDbEntity
  8
_U+30EC_U+30A4_U+30E4_U+30FC 1
370
     0
100
AcDbVertex
100
AcDb2dVertex
 10
97.48311086972645
 20
-133.3344970369789
 30
0.0
  0
VERTEX
  5
62
330
5F
100
AcDbEntity
  8
_U+30EC_U+30A4_U+30E4_U+30FC 1
370
     0
100
AcDbVertex
100
AcDb2dVertex
 10
97.9402750406191
 20
-133.3344970369789
 30
0.0
  0
VERTEX
  5
63
330
5F
100
AcDbEntity
  8
_U+30EC_U+30A4_U+30E4_U+30FC 1
370
     0
100
AcDbVertex
100
AcDb2dVertex
 10
97.9402750406191
 20
-132.6785508565873
 30
0.0
  0
SEQEND
  5
64
330
5F
100
AcDbEntity
  8
_U+30EC_U+30A4_U+30E4_U+30FC 1
370
     0
  0
HATCH
  5
65
330
4D
100
AcDbEntity
  8
_U+30EC_U+30A4_U+30E4_U+30FC 1
 62
   179
420
  2234388
100
AcDbHatch
 10
0.0
 20
0.0
 30
0.0
210
0.0
220
0.0
230
1.0
  2
SOLID
 70
     1
 71
     0
 91
        2
 92
        1
 93
       11
 72
     1
 10
98.1580050752869
 20
-133.5332790464778
 11
98.1580050752869
 21
-133.8802001618425
 72
     1
 10
98.1580050752869
 20
-133.8802001618425
 11
97.9402750406191
 21
-133.8802001618425
 72
     1
 10
97.9402750406191
 20
-133.8802001618425
 11
97.9402750406191
 21
-133.5332790464778
 72
     1
 10
97.9402750406191
 20
-133.5332790464778
 11
97.28432886022753
 21
-133.5332790464778
 72
     1
 10
97.28432886022753
 20
-133.5332790464778
 11
97.28432886022753
 21
-133.309003330388
 72
     1
 10
97.28432886022753
 20
-133.309003330388
 11
97.96335718037028
 21
-132.3357638558049
 72
     1
 10
97.96335718037028
 20
-132.3357638558049
 11
98.1580050752869
 21
-132.3357638558049
 72
     1
 10
98.1580050752869
 20
-132.3357638558049
 11
98.1580050752869
 21
-133.3344970369789
 72
     1
 10
98.1580050752869
 20
-133.3344970369789
 11
98.36539982349893
 21
-133.3344970369789
 72
     1
 10
98.36539982349893
 20
-133.3344970369789
 11
98.36539982349893
 21
-133.5332790464778
 72
     1
 10
98.36539982349893
 20
-133.5332790464778
 11
98.1580050752869
 21
-133.5332790464778
 97
        0
 92
        1
 93
        3
 72
     1
 10
97.9402750406191
 20
-132.6785508565873
 11
97.48311086972645
 21
-133.3344970369789
 72
     1
 10
97.48311086972645
 20
-133.3344970369789
 11
97.9402750406191
 21
-133.3344970369789
 72
     1
 10
97.9402750406191
 20
-133.3344970369789
 11
97.9402750406191
 21
-132.6785508565873
 97
        0
 75
     2
 76
     1
 98
        0
  0
SPLINE
  5
66
330
4D
100
AcDbEntity
  8
_U+30EC_U+30A4_U+30E4_U+30FC 1
370
     0
100
AcDbSpline
210
0.0
220
0.0
230
1.0
 70
    11
 71
     3
 72
    29
 73
    25
 74
     0
 42
0.0000000001
 43
0.0000000001
 12
1.0
 22
0.0
 32
0.0
 13
1.0
 23
0.0
 33
0.0
 40
0.0
 40
0.0
 40
0.0
 40
0.0
 40
1.0
 40
1.0
 40
1.0
 40
2.0
 40
2.0
 40
2.0
 40
3.0
 40
3.0
 40
3.0
 40
4.0
 40
4.0
 40
4.0
 40
5.0
 40
5.0
 40
5.0
 40
6.0
 40
6.0
 40
6.0
 40
7.0
 40
7.0
 40
7.0
 40
8.0
 40
8.0
 40
8.0
 40
8.0
 10
99.40065101681651
 20
-133.7024332348036
 30
0.0
 10
99.29247501857967
 20
-133.9118950403067
 30
0.0
 10
99.1191867156716
 20
-133.9308430654756
 30
0.0
 10
99.00274248827016
 20
-133.9308430654756
 30
0.0
 10
98.84185652910898
 20
-133.9308430654756
 30
0.0
 10
98.70026310466521
 20
-133.8843342764248
 30
0.0
 10
98.60517846927232
 20
-133.7024332348036
 30
0.0
 10
98.5014810951663
 20
-133.5077853398869
 30
0.0
 10
98.48253306999743
 20
-133.2707627705018
 30
0.0
 10
98.48253306999743
 20
-133.108154263598
 30
0.0
 10
98.48253306999743
 20
-132.9641492723145
 30
0.0
 10
98.49941403787516
 20
-132.7123127923428
 30
0.0
 10
98.60517846927232
 20
-132.5135307828438
 30
0.0
 10
98.71300995796064
 20
-132.3106146587626
 30
0.0
 10
98.87389591712181
 20
-132.2871880094629
 30
0.0
 10
99.00274248827016
 20
-132.2871880094629
 30
0.0
 10
99.16156139014016
 20
-132.2871880094629
 30
0.0
 10
99.30522187187509
 20
-132.3316297412227
 30
0.0
 10
99.40065101681651
 20
-132.5135307828438
 30
0.0
 10
99.4998697667917
 20
-132.7061116204693
 30
0.0
 10
99.5232964160914
 20
-132.9345214511414
 30
0.0
 10
99.5232964160914
 20
-133.108154263598
 30
0.0
 10
99.5232964160914
 20
-133.2793755092149
 30
0.0
 10
99.50193682408285
 20
-133.5098523971781
 30
0.0
 10
99.40065101681651
 20
-133.7024332348036
 30
0.0
  0
SPLINE
  5
67
330
4D
100
AcDbEntity
  8
_U+30EC_U+30A4_U+30E4_U+30FC 1
370
     0
100
AcDbSpline
210
0.0
220
0.0
230
1.0
 70
    11
 71
     3
 72
    17
 73
    13
 74
     0
 42
0.0000000001
 43
0.0000000001
 12
1.0
 22
0.0
 32
0.0
 13
1.0
 23
0.0
 33
0.0
 40
0.0
 40
0.0
 40
0.0
 40
0.0
 40
1.0
 40
1.0
 40
1.0
 40
2.0
 40
2.0
 40
2.0
 40
3.0
 40
3.0
 40
3.0
 40
4.0
 40
4.0
 40
4.0
 40
4.0
 10
99.00274248827016
 20
-132.4797688470884
 30
0.0
 10
98.75331757513807
 20
-132.4797688470884
 30
0.0
 10
98.70646427653867
 20
-132.7633002055244
 30
0.0
 10
98.70646427653867
 20
-133.108154263598
 30
0.0
 10
98.70646427653867
 20
-133.4275146150806
 30
0.0
 10
98.74263777913379
 20
-133.736195170559
 30
0.0
 10
99.00274248827016
 20
-133.736195170559
 30
0.0
 10
99.25044485365962
 20
-133.736195170559
 30
0.0
 10
99.29902070000163
 20
-133.4550753789626
 30
0.0
 10
99.29902070000163
 20
-133.108154263598
 30
0.0
 10
99.29902070000163
 20
-132.7884494025668
 30
0.0
 10
99.26078014011536
 20
-132.4797688470884
 30
0.0
 10
99.00274248827016
 20
-132.4797688470884
 30
0.0
  0
HATCH
  5
68
330
4D
100
AcDbEntity
  8
_U+30EC_U+30A4_U+30E4_U+30FC 1
 62
   179
420
  2234388
100
AcDbHatch
 10
0.0
 20
0.0
 30
0.0
210
0.0
220
0.0
230
1.0
  2
SOLID
 70
     1
 71
     0
 91
        2
 92
        1
 93
        1
 72
     4
 94
        3
 73
     0
 74
     1
 95
       29
 96
       25
 40
0.0
 40
0.0
 40
0.0
 40
0.0
 40
1.0
 40
1.0
 40
1.0
 40
2.0
 40
2.0
 40
2.0
 40
3.0
 40
3.0
 40
3.0
 40
4.0
 40
4.0
 40
4.0
 40
5.0
 40
5.0
 40
5.0
 40
6.0
 40
6.0
 40
6.0
 40
7.0
 40
7.0
 40
7.0
 40
8.0
 40
8.0
 40
8.0
 40
8.0
 10
99.40065101681651
 20
-133.7024332348036
 10
99.29247501857967
 20
-133.9118950403067
 10
99.1191867156716
 20
-133.9308430654756
 10
99.00274248827016
 20
-133.9308430654756
 10
98.84185652910898
 20
-133.9308430654756
 10
98.70026310466521
 20
-133.8843342764248
 10
98.60517846927232
 20
-133.7024332348036
 10
98.5014810951663
 20
-133.5077853398869
 10
98.48253306999743
 20
-133.2707627705018
 10
98.48253306999743
 20
-133.108154263598
 10
98.48253306999743
 20
-132.9641492723145
 10
98.49941403787516
 20
-132.7123127923428
 10
98.60517846927232
 20
-132.5135307828438
 10
98.71300995796064
 20
-132.3106146587626
 10
98.87389591712181
 20
-132.2871880094629
 10
99.00274248827016
 20
-132.2871880094629
 10
99.16156139014016
 20
-132.2871880094629
 10
99.30522187187509
 20
-132.3316297412227
 10
99.40065101681651
 20
-132.5135307828438
 10
99.4998697667917
 20
-132.7061116204693
 10
99.5232964160914
 20
-132.9345214511414
 10
99.5232964160914
 20
-133.108154263598
 10
99.5232964160914
 20
-133.2793755092149
 10
99.50193682408285
 20
-133.5098523971781
 10
99.40065101681651
 20
-133.7024332348036
 97
        0
 97
        0
 92
        1
 93
        1
 72
     4
 94
        3
 73
     0
 74
     1
 95
       17
 96
       13
 40
0.0
 40
0.0
 40
0.0
 40
0.0
 40
1.0
 40
1.0
 40
1.0
 40
2.0
 40
2.0
 40
2.0
 40
3.0
 40
3.0
 40
3.0
 40
4.0
 40
4.0
 40
4.0
 40
4.0
 10
99.00274248827016
 20
-132.4797688470884
 10
98.75331757513807
 20
-132.4797688470884
 10
98.70646427653867
 20
-132.7633002055244
 10
98.70646427653867
 20
-133.108154263598
 10
98.70646427653867
 20
-133.4275146150806
 10
98.74263777913379
 20
-133.736195170559
 10
99.00274248827016
 20
-133.736195170559
 10
99.25044485365962
 20
-133.736195170559
 10
99.29902070000163
 20
-133.4550753789626
 10
99.29902070000163
 20
-133.108154263598
 10
99.29902070000163
 20
-132.7884494025668
 10
99.26078014011536
 20
-132.4797688470884
 10
99.00274248827016
 20
-132.4797688470884
 97
        0
 97
        0
 75
     2
 76
     1
 98
        0
  0
SPLINE
  5
69
330
4D
100
AcDbEntity
  8
_U+30EC_U+30A4_U+30E4_U+30FC 1
370
     0
100
AcDbSpline
210
0.0
220
0.0
230
1.0
 70
    11
 71
     3
 72
    29
 73
    25
 74
     0
 42
0.0000000001
 43
0.0000000001
 12
1.0
 22
0.0
 32
0.0
 13
1.0
 23
0.0
 33
0.0
 40
0.0
 40
0.0
 40
0.0
 40
0.0
 40
1.0
 40
1.0
 40
1.0
 40
2.0
 40
2.0
 40
2.0
 40
3.0
 40
3.0
 40
3.0
 40
4.0
 40
4.0
 40
4.0
 40
5.0
 40
5.0
 40
5.0
 40
6.0
 40
6.0
 40
6.0
 40
7.0
 40
7.0
 40
7.0
 40
8.0
 40
8.0
 40
8.0
 40
8.0
 10
100.5774956345779
 20
-133.7024332348036
 30
0.0
 10
100.469319636341
 20
-133.9118950403067
 30
0.0
 10
100.2960313334329
 20
-133.9308430654756
 30
0.0
 10
100.1795871060315
 20
-133.9308430654756
 30
0.0
 10
100.0187011468703
 20
-133.9308430654756
 30
0.0
 10
99.87710772242656
 20
-133.8843342764248
 30
0.0
 10
99.78202308703366
 20
-133.7024332348036
 30
0.0
 10
99.67832571292764
 20
-133.5077853398869
 30
0.0
 10
99.65937768775878
 20
-133.2707627705018
 30
0.0
 10
99.65937768775878
 20
-133.108154263598
 30
0.0
 10
99.65937768775878
 20
-132.9641492723145
 30
0.0
 10
99.6762586556365
 20
-132.7123127923428
 30
0.0
 10
99.78202308703366
 20
-132.5135307828438
 30
0.0
 10
99.88985457572198
 20
-132.3106146587626
 30
0.0
 10
100.0507405348831
 20
-132.2871880094629
 30
0.0
 10
100.1795871060315
 20
-132.2871880094629
 30
0.0
 10
100.3384060079015
 20
-132.2871880094629
 30
0.0
 10
100.4820664896364
 20
-132.3316297412227
 30
0.0
 10
100.5774956345779
 20
-132.5135307828438
 30
0.0
 10
100.6767143845531
 20
-132.7061116204693
 30
0.0
 10
100.7001410338527
 20
-132.9345214511414
 30
0.0
 10
100.7001410338527
 20
-133.108154263598
 30
0.0
 10
100.7001410338527
 20
-133.2793755092149
 30
0.0
 10
100.6787814418442
 20
-133.5098523971781
 30
0.0
 10
100.5774956345779
 20
-133.7024332348036
 30
0.0
  0
SPLINE
  5
6A
330
4D
100
AcDbEntity
  8
_U+30EC_U+30A4_U+30E4_U+30FC 1
370
     0
100
AcDbSpline
210
0.0
220
0.0
230
1.0
 70
    11
 71
     3
 72
    17
 73
    13
 74
     0
 42
0.0000000001
 43
0.0000000001
 12
1.0
 22
0.0
 32
0.0
 13
1.0
 23
0.0
 33
0.0
 40
0.0
 40
0.0
 40
0.0
 40
0.0
 40
1.0
 40
1.0
 40
1.0
 40
2.0
 40
2.0
 40
2.0
 40
3.0
 40
3.0
 40
3.0
 40
4.0
 40
4.0
 40
4.0
 40
4.0
 10
100.1795871060315
 20
-132.4797688470884
 30
0.0
 10
99.9301621928994
 20
-132.4797688470884
 30
0.0
 10
99.88330889430001
 20
-132.7633002055244
 30
0.0
 10
99.88330889430001
 20
-133.108154263598
 30
0.0
 10
99.88330889430001
 20
-133.4275146150806
 30
0.0
 10
99.91948239689513
 20
-133.736195170559
 30
0.0
 10
100.1795871060315
 20
-133.736195170559
 30
0.0
 10
100.427289471421
 20
-133.736195170559
 30
0.0
 10
100.475865317763
 20
-133.4550753789626
 30
0.0
 10
100.475865317763
 20
-133.108154263598
 30
0.0
 10
100.475865317763
 20
-132.7884494025668
 30
0.0
 10
100.4376247578767
 20
-132.4797688470884
 30
0.0
 10
100.1795871060315
 20
-132.4797688470884
 30
0.0
  0
HATCH
  5
6B
330
4D
100
AcDbEntity
  8
_U+30EC_U+30A4_U+30E4_U+30FC 1
 62
   179
420
  2234388
100
AcDbHatch
 10
0.0
 20
0.0
 30
0.0
210
0.0
220
0.0
230
1.0
  2
SOLID
 70
     1
 71
     0
 91
        2
 92
        1
 93
        1
 72
     4
 94
        3
 73
     0
 74
     1
 95
       29
 96
       25
 40
0.0
 40
0.0
 40
0.0
 40
0.0
 40
1.0
 40
1.0
 40
1.0
 40
2.0
 40
2.0
 40
2.0
 40
3.0
 40
3.0
 40
3.0
 40
4.0
 40
4.0
 40
4.0
 40
5.0
 40
5.0
 40
5.0
 40
6.0
 40
6.0
 40
6.0
 40
7.0
 40
7.0
 40
7.0
 40
8.0
 40
8.0
 40
8.0
 40
8.0
 10
100.5774956345779
 20
-133.7024332348036
 10
100.469319636341
 20
-133.9118950403067
 10
100.2960313334329
 20
-133.9308430654756
 10
100.1795871060315
 20
-133.9308430654756
 10
100.0187011468703
 20
-133.9308430654756
 10
99.87710772242656
 20
-133.8843342764248
 10
99.78202308703366
 20
-133.7024332348036
 10
99.67832571292764
 20
-133.5077853398869
 10
99.65937768775878
 20
-133.2707627705018
 10
99.65937768775878
 20
-133.108154263598
 10
99.65937768775878
 20
-132.9641492723145
 10
99.6762586556365
 20
-132.7123127923428
 10
99.78202308703366
 20
-132.5135307828438
 10
99.88985457572198
 20
-132.3106146587626
 10
100.0507405348831
 20
-132.2871880094629
 10
100.1795871060315
 20
-132.2871880094629
 10
100.3384060079015
 20
-132.2871880094629
 10
100.4820664896364
 20
-132.3316297412227
 10
100.5774956345779
 20
-132.5135307828438
 10
100.6767143845531
 20
-132.7061116204693
 10
100.7001410338527
 20
-132.9345214511414
 10
100.7001410338527
 20
-133.108154263598
 10
100.7001410338527
 20
-133.2793755092149
 10
100.6787814418442
 20
-133.5098523971781
 10
100.5774956345779
 20
-133.7024332348036
 97
        0
 97
        0
 92
        1
 93
        1
 72
     4
 94
        3
 73
     0
 74
     1
 95
       17
 96
       13
 40
0.0
 40
0.0
 40
0.0
 40
0.0
 40
1.0
 40
1.0
 40
1.0
 40
2.0
 40
2.0
 40
2.0
 40
3.0
 40
3.0
 40
3.0
 40
4.0
 40
4.0
 40
4.0
 40
4.0
 10
100.1795871060315
 20
-132.4797688470884
 10
99.9301621928994
 20
-132.4797688470884
 10
99.88330889430001
 20
-132.7633002055244
 10
99.88330889430001
 20
-133.108154263598
 10
99.88330889430001
 20
-133.4275146150806
 10
99.91948239689513
 20
-133.736195170559
 10
100.1795871060315
 20
-133.736195170559
 10
100.427289471421
 20
-133.736195170559
 10
100.475865317763
 20
-133.4550753789626
 10
100.475865317763
 20
-133.108154263598
 10
100.475865317763
 20
-132.7884494025668
 10
100.4376247578767
 20
-132.4797688470884
 10
100.1795871060315
 20
-132.4797688470884
 97
        0
 97
        0
 75
     2
 76
     1
 98
        0
  0
ENDBLK
  5
50
330
4D
100
AcDbEntity
  8
0
100
AcDbBlockEnd
  0
BLOCK
  5
6E
330
6C
100
AcDbEntity
  8
0
100
AcDbBlockBegin
  2
block 4
 70
     0
 10
0.0
 20
0.0
 30
0.0
  3
block 4
  1

  0
SPLINE
  5
70
330
6C
100
AcDbEntity
  8
_U+30EC_U+30A4_U+30E4_U+30FC 1
370
     0
100
AcDbSpline
210
0.0
220
0.0
230
1.0
 70
    11
 71
     3
 72
    44
 73
    40
 74
     0
 42
0.0000000001
 43
0.0000000001
 12
1.0
 22
0.0
 32
0.0
 13
1.0
 23
0.0
 33
0.0
 40
0.0
 40
0.0
 40
0.0
 40
0.0
 40
1.0
 40
1.0
 40
1.0
 40
2.0
 40
2.0
 40
2.0
 40
3.0
 40
3.0
 40
3.0
 40
4.0
 40
4.0
 40
4.0
 40
5.0
 40
5.0
 40
5.0
 40
6.0
 40
6.0
 40
6.0
 40
7.0
 40
7.0
 40
7.0
 40
8.0
 40
8.0
 40
8.0
 40
9.0
 40
9.0
 40
9.0
 40
10.0
 40
10.0
 40
10.0
 40
11.0
 40
11.0
 40
11.0
 40
12.0
 40
12.0
 40
12.0
 40
13.0
 40
13.0
 40
13.0
 40
13.0
 10
98.44808211514493
 20
-114.2483235391463
 30
0.0
 10
98.23035208047713
 20
-114.4071424410163
 30
0.0
 10
98.1373345023754
 20
-114.4812119939491
 30
0.0
 10
98.08841414648485
 20
-114.6248724756841
 30
0.0
 10
98.08841414648485
 20
-114.6248724756841
 30
0.0
 10
98.8670057261513
 20
-114.6248724756841
 30
0.0
 10
98.8670057261513
 20
-114.6248724756841
 30
0.0
 10
98.8670057261513
 20
-114.6248724756841
 30
0.0
 10
98.8670057261513
 20
-114.830200166605
 30
0.0
 10
98.8670057261513
 20
-114.830200166605
 30
0.0
 10
98.8670057261513
 20
-114.830200166605
 30
0.0
 10
97.83898923335276
 20
-114.830200166605
 30
0.0
 10
97.83898923335276
 20
-114.830200166605
 30
0.0
 10
97.87068411181706
 20
-114.472599255236
 30
0.0
 10
97.9361409260368
 20
-114.3943955877209
 30
0.0
 10
98.32130260128774
 20
-114.0960503186982
 30
0.0
 10
98.5772731958418
 20
-113.8972683091993
 30
0.0
 10
98.64273001006154
 20
-113.8293999281399
 30
0.0
 10
98.64273001006154
 20
-113.6919406182784
 30
0.0
 10
98.64273001006154
 20
-113.5734293335858
 30
0.0
 10
98.57072751441983
 20
-113.4425157051463
 30
0.0
 10
98.37401256221206
 20
-113.4425157051463
 30
0.0
 10
98.11390785307569
 20
-113.4425157051463
 30
0.0
 10
98.10563962391109
 20
-113.6729925931095
 30
0.0
 10
98.10116099978028
 20
-113.789436820511
 30
0.0
 10
98.10116099978028
 20
-113.789436820511
 30
0.0
 10
97.8768852836905
 20
-113.789436820511
 30
0.0
 10
97.8768852836905
 20
-113.789436820511
 30
0.0
 10
97.88549802240362
 20
-113.6623127971053
 30
0.0
 10
97.8961778184079
 20
-113.5503471938346
 30
0.0
 10
97.97644854321423
 20
-113.4318359091421
 30
0.0
 10
98.0863470891937
 20
-113.2709499499809
 30
0.0
 10
98.27272675494571
 20
-113.2371880142254
 30
0.0
 10
98.38882647279863
 20
-113.2371880142254
 30
0.0
 10
98.66615665936125
 20
-113.2371880142254
 30
0.0
 10
98.87355140757329
 20
-113.4211561131378
 30
0.0
 10
98.87355140757329
 20
-113.6940076755696
 30
0.0
 10
98.87355140757329
 20
-113.9227620157901
 30
0.0
 10
98.75710718017184
 20
-114.0219807657653
 30
0.0
 10
98.44808211514493
 20
-114.2483235391463
 30
0.0
  0
HATCH
  5
71
330
6C
100
AcDbEntity
  8
_U+30EC_U+30A4_U+30E4_U+30FC 1
 62
   179
420
  2234388
100
AcDbHatch
 10
0.0
 20
0.0
 30
0.0
210
0.0
220
0.0
230
1.0
  2
SOLID
 70
     1
 71
     0
 91
        1
 92
        1
 93
        1
 72
     4
 94
        3
 73
     0
 74
     1
 95
       44
 96
       40
 40
0.0
 40
0.0
 40
0.0
 40
0.0
 40
1.0
 40
1.0
 40
1.0
 40
2.0
 40
2.0
 40
2.0
 40
3.0
 40
3.0
 40
3.0
 40
4.0
 40
4.0
 40
4.0
 40
5.0
 40
5.0
 40
5.0
 40
6.0
 40
6.0
 40
6.0
 40
7.0
 40
7.0
 40
7.0
 40
8.0
 40
8.0
 40
8.0
 40
9.0
 40
9.0
 40
9.0
 40
10.0
 40
10.0
 40
10.0
 40
11.0
 40
11.0
 40
11.0
 40
12.0
 40
12.0
 40
12.0
 40
13.0
 40
13.0
 40
13.0
 40
13.0
 10
98.44808211514493
 20
-114.2483235391463
 10
98.23035208047713
 20
-114.4071424410163
 10
98.1373345023754
 20
-114.4812119939491
 10
98.08841414648485
 20
-114.6248724756841
 10
98.08841414648485
 20
-114.6248724756841
 10
98.8670057261513
 20
-114.6248724756841
 10
98.8670057261513
 20
-114.6248724756841
 10
98.8670057261513
 20
-114.6248724756841
 10
98.8670057261513
 20
-114.830200166605
 10
98.8670057261513
 20
-114.830200166605
 10
98.8670057261513
 20
-114.830200166605
 10
97.83898923335276
 20
-114.830200166605
 10
97.83898923335276
 20
-114.830200166605
 10
97.87068411181706
 20
-114.472599255236
 10
97.9361409260368
 20
-114.3943955877209
 10
98.32130260128774
 20
-114.0960503186982
 10
98.5772731958418
 20
-113.8972683091993
 10
98.64273001006154
 20
-113.8293999281399
 10
98.64273001006154
 20
-113.6919406182784
 10
98.64273001006154
 20
-113.5734293335858
 10
98.57072751441983
 20
-113.4425157051463
 10
98.37401256221206
 20
-113.4425157051463
 10
98.11390785307569
 20
-113.4425157051463
 10
98.10563962391109
 20
-113.6729925931095
 10
98.10116099978028
 20
-113.789436820511
 10
98.10116099978028
 20
-113.789436820511
 10
97.8768852836905
 20
-113.789436820511
 10
97.8768852836905
 20
-113.789436820511
 10
97.88549802240362
 20
-113.6623127971053
 10
97.8961778184079
 20
-113.5503471938346
 10
97.97644854321423
 20
-113.4318359091421
 10
98.0863470891937
 20
-113.2709499499809
 10
98.27272675494571
 20
-113.2371880142254
 10
98.38882647279863
 20
-113.2371880142254
 10
98.66615665936125
 20
-113.2371880142254
 10
98.87355140757329
 20
-113.4211561131378
 10
98.87355140757329
 20
-113.6940076755696
 10
98.87355140757329
 20
-113.9227620157901
 10
98.75710718017184
 20
-114.0219807657653
 10
98.44808211514493
 20
-114.2483235391463
 97
        0
 97
        0
 75
     2
 76
     1
 98
        0
  0
SPLINE
  5
72
330
6C
100
AcDbEntity
  8
_U+30EC_U+30A4_U+30E4_U+30FC 1
370
     0
100
AcDbSpline
210
0.0
220
0.0
230
1.0
 70
    11
 71
     3
 72
    29
 73
    25
 74
     0
 42
0.0000000001
 43
0.0000000001
 12
1.0
 22
0.0
 32
0.0
 13
1.0
 23
0.0
 33
0.0
 40
0.0
 40
0.0
 40
0.0
 40
0.0
 40
1.0
 40
1.0
 40
1.0
 40
2.0
 40
2.0
 40
2.0
 40
3.0
 40
3.0
 40
3.0
 40
4.0
 40
4.0
 40
4.0
 40
5.0
 40
5.0
 40
5.0
 40
6.0
 40
6.0
 40
6.0
 40
7.0
 40
7.0
 40
7.0
 40
8.0
 40
8.0
 40
8.0
 40
8.0
 10
99.92981768335089
 20
-114.6524332395661
 30
0.0
 10
99.82164168511405
 20
-114.8618950450692
 30
0.0
 10
99.64835338220597
 20
-114.8808430702381
 30
0.0
 10
99.53190915480452
 20
-114.8808430702381
 30
0.0
 10
99.37102319564336
 20
-114.8808430702381
 30
0.0
 10
99.22942977119959
 20
-114.8343342811873
 30
0.0
 10
99.1343451358067
 20
-114.6524332395661
 30
0.0
 10
99.03064776170068
 20
-114.4577853446495
 30
0.0
 10
99.0116997365318
 20
-114.2207627752643
 30
0.0
 10
99.0116997365318
 20
-114.0581542683605
 30
0.0
 10
99.0116997365318
 20
-113.914149277077
 30
0.0
 10
99.02858070440952
 20
-113.6623127971053
 30
0.0
 10
99.1343451358067
 20
-113.4635307876063
 30
0.0
 10
99.24217662449502
 20
-113.2606146635251
 30
0.0
 10
99.40306258365618
 20
-113.2371880142254
 30
0.0
 10
99.53190915480452
 20
-113.2371880142254
 30
0.0
 10
99.69072805667454
 20
-113.2371880142254
 30
0.0
 10
99.83438853840946
 20
-113.2816297459852
 30
0.0
 10
99.92981768335089
 20
-113.4635307876063
 30
0.0
 10
100.0290364333261
 20
-113.6561116252318
 30
0.0
 10
100.0524630826258
 20
-113.8845214559039
 30
0.0
 10
100.0524630826258
 20
-114.0581542683605
 30
0.0
 10
100.0524630826258
 20
-114.2293755139774
 30
0.0
 10
100.0311034906172
 20
-114.4598524019406
 30
0.0
 10
99.92981768335089
 20
-114.6524332395661
 30
0.0
  0
SPLINE
  5
73
330
6C
100
AcDbEntity
  8
_U+30EC_U+30A4_U+30E4_U+30FC 1
370
     0
100
AcDbSpline
210
0.0
220
0.0
230
1.0
 70
    11
 71
     3
 72
    17
 73
    13
 74
     0
 42
0.0000000001
 43
0.0000000001
 12
1.0
 22
0.0
 32
0.0
 13
1.0
 23
0.0
 33
0.0
 40
0.0
 40
0.0
 40
0.0
 40
0.0
 40
1.0
 40
1.0
 40
1.0
 40
2.0
 40
2.0
 40
2.0
 40
3.0
 40
3.0
 40
3.0
 40
4.0
 40
4.0
 40
4.0
 40
4.0
 10
99.53190915480452
 20
-113.4297688518509
 30
0.0
 10
99.28248424167244
 20
-113.4297688518509
 30
0.0
 10
99.23563094307305
 20
-113.713300210287
 30
0.0
 10
99.23563094307305
 20
-114.0581542683605
 30
0.0
 10
99.23563094307305
 20
-114.3775146198431
 30
0.0
 10
99.27180444566817
 20
-114.6861951753215
 30
0.0
 10
99.53190915480452
 20
-114.6861951753215
 30
0.0
 10
99.779611520194
 20
-114.6861951753215
 30
0.0
 10
99.82818736653601
 20
-114.4050753837251
 30
0.0
 10
99.82818736653601
 20
-114.0581542683605
 30
0.0
 10
99.82818736653601
 20
-113.7384494073293
 30
0.0
 10
99.78994680664974
 20
-113.4297688518509
 30
0.0
 10
99.53190915480452
 20
-113.4297688518509
 30
0.0
  0
HATCH
  5
74
330
6C
100
AcDbEntity
  8
_U+30EC_U+30A4_U+30E4_U+30FC 1
 62
   179
420
  2234388
100
AcDbHatch
 10
0.0
 20
0.0
 30
0.0
210
0.0
220
0.0
230
1.0
  2
SOLID
 70
     1
 71
     0
 91
        2
 92
        1
 93
        1
 72
     4
 94
        3
 73
     0
 74
     1
 95
       29
 96
       25
 40
0.0
 40
0.0
 40
0.0
 40
0.0
 40
1.0
 40
1.0
 40
1.0
 40
2.0
 40
2.0
 40
2.0
 40
3.0
 40
3.0
 40
3.0
 40
4.0
 40
4.0
 40
4.0
 40
5.0
 40
5.0
 40
5.0
 40
6.0
 40
6.0
 40
6.0
 40
7.0
 40
7.0
 40
7.0
 40
8.0
 40
8.0
 40
8.0
 40
8.0
 10
99.92981768335089
 20
-114.6524332395661
 10
99.82164168511405
 20
-114.8618950450692
 10
99.64835338220597
 20
-114.8808430702381
 10
99.53190915480452
 20
-114.8808430702381
 10
99.37102319564336
 20
-114.8808430702381
 10
99.22942977119959
 20
-114.8343342811873
 10
99.1343451358067
 20
-114.6524332395661
 10
99.03064776170068
 20
-114.4577853446495
 10
99.0116997365318
 20
-114.2207627752643
 10
99.0116997365318
 20
-114.0581542683605
 10
99.0116997365318
 20
-113.914149277077
 10
99.02858070440952
 20
-113.6623127971053
 10
99.1343451358067
 20
-113.4635307876063
 10
99.24217662449502
 20
-113.2606146635251
 10
99.40306258365618
 20
-113.2371880142254
 10
99.53190915480452
 20
-113.2371880142254
 10
99.69072805667454
 20
-113.2371880142254
 10
99.83438853840946
 20
-113.2816297459852
 10
99.92981768335089
 20
-113.4635307876063
 10
100.0290364333261
 20
-113.6561116252318
 10
100.0524630826258
 20
-113.8845214559039
 10
100.0524630826258
 20
-114.0581542683605
 10
100.0524630826258
 20
-114.2293755139774
 10
100.0311034906172
 20
-114.4598524019406
 10
99.92981768335089
 20
-114.6524332395661
 97
        0
 97
        0
 92
        1
 93
        1
 72
     4
 94
        3
 73
     0
 74
     1
 95
       17
 96
       13
 40
0.0
 40
0.0
 40
0.0
 40
0.0
 40
1.0
 40
1.0
 40
1.0
 40
2.0
 40
2.0
 40
2.0
 40
3.0
 40
3.0
 40
3.0
 40
4.0
 40
4.0
 40
4.0
 40
4.0
 10
99.53190915480452
 20
-113.4297688518509
 10
99.28248424167244
 20
-113.4297688518509
 10
99.23563094307305
 20
-113.713300210287
 10
99.23563094307305
 20
-114.0581542683605
 10
99.23563094307305
 20
-114.3775146198431
 10
99.27180444566817
 20
-114.6861951753215
 10
99.53190915480452
 20
-114.6861951753215
 10
99.779611520194
 20
-114.6861951753215
 10
99.82818736653601
 20
-114.4050753837251
 10
99.82818736653601
 20
-114.0581542683605
 10
99.82818736653601
 20
-113.7384494073293
 10
99.78994680664974
 20
-113.4297688518509
 10
99.53190915480452
 20
-113.4297688518509
 97
        0
 97
        0
 75
     2
 76
     1
 98
        0
  0
SPLINE
  5
75
330
6C
100
AcDbEntity
  8
_U+30EC_U+30A4_U+30E4_U+30FC 1
370
     0
100
AcDbSpline
210
0.0
220
0.0
230
1.0
 70
    11
 71
     3
 72
    29
 73
    25
 74
     0
 42
0.0000000001
 43
0.0000000001
 12
1.0
 22
0.0
 32
0.0
 13
1.0
 23
0.0
 33
0.0
 40
0.0
 40
0.0
 40
0.0
 40
0.0
 40
1.0
 40
1.0
 40
1.0
 40
2.0
 40
2.0
 40
2.0
 40
3.0
 40
3.0
 40
3.0
 40
4.0
 40
4.0
 40
4.0
 40
5.0
 40
5.0
 40
5.0
 40
6.0
 40
6.0
 40
6.0
 40
7.0
 40
7.0
 40
7.0
 40
8.0
 40
8.0
 40
8.0
 40
8.0
 10
101.1066623011122
 20
-114.6524332395661
 30
0.0
 10
100.9984863028754
 20
-114.8618950450692
 30
0.0
 10
100.8251979999673
 20
-114.8808430702381
 30
0.0
 10
100.7087537725659
 20
-114.8808430702381
 30
0.0
 10
100.5478678134047
 20
-114.8808430702381
 30
0.0
 10
100.4062743889609
 20
-114.8343342811873
 30
0.0
 10
100.311189753568
 20
-114.6524332395661
 30
0.0
 10
100.207492379462
 20
-114.4577853446495
 30
0.0
 10
100.1885443542931
 20
-114.2207627752643
 30
0.0
 10
100.1885443542931
 20
-114.0581542683605
 30
0.0
 10
100.1885443542931
 20
-113.914149277077
 30
0.0
 10
100.2054253221709
 20
-113.6623127971053
 30
0.0
 10
100.311189753568
 20
-113.4635307876063
 30
0.0
 10
100.4190212422564
 20
-113.2606146635251
 30
0.0
 10
100.5799072014175
 20
-113.2371880142254
 30
0.0
 10
100.7087537725659
 20
-113.2371880142254
 30
0.0
 10
100.8675726744359
 20
-113.2371880142254
 30
0.0
 10
101.0112331561708
 20
-113.2816297459852
 30
0.0
 10
101.1066623011122
 20
-113.4635307876063
 30
0.0
 10
101.2058810510874
 20
-113.6561116252318
 30
0.0
 10
101.2293077003871
 20
-113.8845214559039
 30
0.0
 10
101.2293077003871
 20
-114.0581542683605
 30
0.0
 10
101.2293077003871
 20
-114.2293755139774
 30
0.0
 10
101.2079481083786
 20
-114.4598524019406
 30
0.0
 10
101.1066623011122
 20
-114.6524332395661
 30
0.0
  0
SPLINE
  5
76
330
6C
100
AcDbEntity
  8
_U+30EC_U+30A4_U+30E4_U+30FC 1
370
     0
100
AcDbSpline
210
0.0
220
0.0
230
1.0
 70
    11
 71
     3
 72
    17
 73
    13
 74
     0
 42
0.0000000001
 43
0.0000000001
 12
1.0
 22
0.0
 32
0.0
 13
1.0
 23
0.0
 33
0.0
 40
0.0
 40
0.0
 40
0.0
 40
0.0
 40
1.0
 40
1.0
 40
1.0
 40
2.0
 40
2.0
 40
2.0
 40
3.0
 40
3.0
 40
3.0
 40
4.0
 40
4.0
 40
4.0
 40
4.0
 10
100.7087537725659
 20
-113.4297688518509
 30
0.0
 10
100.4593288594338
 20
-113.4297688518509
 30
0.0
 10
100.4124755608344
 20
-113.713300210287
 30
0.0
 10
100.4124755608344
 20
-114.0581542683605
 30
0.0
 10
100.4124755608344
 20
-114.3775146198431
 30
0.0
 10
100.4486490634295
 20
-114.6861951753215
 30
0.0
 10
100.7087537725659
 20
-114.6861951753215
 30
0.0
 10
100.9564561379553
 20
-114.6861951753215
 30
0.0
 10
101.0050319842974
 20
-114.4050753837251
 30
0.0
 10
101.0050319842974
 20
-114.0581542683605
 30
0.0
 10
101.0050319842974
 20
-113.7384494073293
 30
0.0
 10
100.9667914244111
 20
-113.4297688518509
 30
0.0
 10
100.7087537725659
 20
-113.4297688518509
 30
0.0
  0
HATCH
  5
77
330
6C
100
AcDbEntity
  8
_U+30EC_U+30A4_U+30E4_U+30FC 1
 62
   179
420
  2234388
100
AcDbHatch
 10
0.0
 20
0.0
 30
0.0
210
0.0
220
0.0
230
1.0
  2
SOLID
 70
     1
 71
     0
 91
        2
 92
        1
 93
        1
 72
     4
 94
        3
 73
     0
 74
     1
 95
       29
 96
       25
 40
0.0
 40
0.0
 40
0.0
 40
0.0
 40
1.0
 40
1.0
 40
1.0
 40
2.0
 40
2.0
 40
2.0
 40
3.0
 40
3.0
 40
3.0
 40
4.0
 40
4.0
 40
4.0
 40
5.0
 40
5.0
 40
5.0
 40
6.0
 40
6.0
 40
6.0
 40
7.0
 40
7.0
 40
7.0
 40
8.0
 40
8.0
 40
8.0
 40
8.0
 10
101.1066623011122
 20
-114.6524332395661
 10
100.9984863028754
 20
-114.8618950450692
 10
100.8251979999673
 20
-114.8808430702381
 10
100.7087537725659
 20
-114.8808430702381
 10
100.5478678134047
 20
-114.8808430702381
 10
100.4062743889609
 20
-114.8343342811873
 10
100.311189753568
 20
-114.6524332395661
 10
100.207492379462
 20
-114.4577853446495
 10
100.1885443542931
 20
-114.2207627752643
 10
100.1885443542931
 20
-114.0581542683605
 10
100.1885443542931
 20
-113.914149277077
 10
100.2054253221709
 20
-113.6623127971053
 10
100.311189753568
 20
-113.4635307876063
 10
100.4190212422564
 20
-113.2606146635251
 10
100.5799072014175
 20
-113.2371880142254
 10
100.7087537725659
 20
-113.2371880142254
 10
100.8675726744359
 20
-113.2371880142254
 10
101.0112331561708
 20
-113.2816297459852
 10
101.1066623011122
 20
-113.4635307876063
 10
101.2058810510874
 20
-113.6561116252318
 10
101.2293077003871
 20
-113.8845214559039
 10
101.2293077003871
 20
-114.0581542683605
 10
101.2293077003871
 20
-114.2293755139774
 10
101.2079481083786
 20
-114.4598524019406
 10
101.1066623011122
 20
-114.6524332395661
 97
        0
 97
        0
 92
        1
 93
        1
 72
     4
 94
        3
 73
     0
 74
     1
 95
       17
 96
       13
 40
0.0
 40
0.0
 40
0.0
 40
0.0
 40
1.0
 40
1.0
 40
1.0
 40
2.0
 40
2.0
 40
2.0
 40
3.0
 40
3.0
 40
3.0
 40
4.0
 40
4.0
 40
4.0
 40
4.0
 10
100.7087537725659
 20
-113.4297688518509
 10
100.4593288594338
 20
-113.4297688518509
 10
100.4124755608344
 20
-113.713300210287
 10
100.4124755608344
 20
-114.0581542683605
 10
100.4124755608344
 20
-114.3775146198431
 10
100.4486490634295
 20
-114.6861951753215
 10
100.7087537725659
 20
-114.6861951753215
 10
100.9564561379553
 20
-114.6861951753215
 10
101.0050319842974
 20
-114.4050753837251
 10
101.0050319842974
 20
-114.0581542683605
 10
101.0050319842974
 20
-113.7384494073293
 10
100.9667914244111
 20
-113.4297688518509
 10
100.7087537725659
 20
-113.4297688518509
 97
        0
 97
        0
 75
     2
 76
     1
 98
        0
  0
ENDBLK
  5
6F
330
6C
100
AcDbEntity
  8
0
100
AcDbBlockEnd
  0
BLOCK
  5
BE
330
BC
100
AcDbEntity
  8
0
100
AcDbBlockBegin
  2
block 5
 70
     0
 10
0.0
 20
0.0
 30
0.0
  3
block 5
  1

  0
INSERT
  5
C1
330
BC
100
AcDbEntity
  8
_U+30EC_U+30A4_U+30E4_U+30FC 1
100
AcDbBlockReference
  2
block 6
 10
0.0
 20
0.0
 30
0.0
  0
ENDBLK
  5
BF
330
BC
100
AcDbEntity
  8
0
100
AcDbBlockEnd
  0
BLOCK
  5
C2
330
C0
100
AcDbEntity
  8
0
100
AcDbBlockBegin
  2
block 6
 70
     0
 10
0.0
 20
0.0
 30
0.0
  3
block 6
  1

  0
SPLINE
  5
C4
330
C0
100
AcDbEntity
  8
_U+30EC_U+30A4_U+30E4_U+30FC 1
 62
   179
420
  2234388
370
    25
100
AcDbSpline
210
0.0
220
0.0
230
1.0
 70
    11
 71
     3
 72
    53
 73
    49
 74
     0
 42
0.0000000001
 43
0.0000000001
 12
1.0
 22
0.0
 32
0.0
 13
1.0
 23
0.0
 33
0.0
 40
0.0
 40
0.0
 40
0.0
 40
0.0
 40
1.0
 40
1.0
 40
1.0
 40
2.0
 40
2.0
 40
2.0
 40
3.0
 40
3.0
 40
3.0
 40
4.0
 40
4.0
 40
4.0
 40
5.0
 40
5.0
 40
5.0
 40
6.0
 40
6.0
 40
6.0
 40
7.0
 40
7.0
 40
7.0
 40
8.0
 40
8.0
 40
8.0
 40
9.0
 40
9.0
 40
9.0
 40
10.0
 40
10.0
 40
10.0
 40
11.0
 40
11.0
 40
11.0
 40
12.0
 40
12.0
 40
12.0
 40
13.0
 40
13.0
 40
13.0
 40
14.0
 40
14.0
 40
14.0
 40
15.0
 40
15.0
 40
15.0
 40
16.0
 40
16.0
 40
16.0
 40
16.0
 10
58.01797296428264
 20
-141.1676260758193
 30
0.0
 10
58.01246963108971
 20
-141.0284199647431
 30
0.0
 10
57.85262602405655
 20
-140.7690224648079
 30
0.0
 10
57.65591714018612
 20
-140.5836730204096
 30
0.0
 10
57.65591714018612
 20
-140.5836730204096
 30
0.0
 10
57.03682743375819
 20
-140.0007430205557
 30
0.0
 10
57.03682743375819
 20
-140.0007430205557
 30
0.0
 10
56.8737029934754
 20
-139.8471082983714
 30
0.0
 10
56.73985910800116
 20
-139.7899230206081
 30
0.0
 10
56.69403327583694
 20
-139.8391707983737
 30
0.0
 10
56.69403327583694
 20
-139.8391707983737
 30
0.0
 10
56.67180827640394
 20
-139.8184980206009
 30
0.0
 10
56.67180827640394
 20
-139.8184980206009
 30
0.0
 10
56.67180827640394
 20
-139.8184980206009
 30
0.0
 10
56.67388966523973
 20
-139.881892187252
 30
0.0
 10
56.67388966523973
 20
-139.881892187252
 30
0.0
 10
56.67388966523973
 20
-139.8829505205846
 30
0.0
 10
56.67286660971028
 20
-139.8829505205846
 30
0.0
 10
56.67286660971028
 20
-139.8839735761404
 30
0.0
 10
56.67286660971028
 20
-139.8853494094733
 30
0.0
 10
56.67406605412412
 20
-139.8877482983613
 30
0.0
 10
56.67406605412412
 20
-139.8891241316942
 30
0.0
 10
56.67406605412412
 20
-139.8891241316942
 30
0.0
 10
56.84787966080088
 20
-145.3082846858948
 30
0.0
 10
56.84787966080088
 20
-145.3082846858948
 30
0.0
 10
56.84787966080088
 20
-145.3082846858948
 30
0.0
 10
57.07178771064406
 20
-145.4622721858569
 30
0.0
 10
57.07178771064406
 20
-145.4622721858569
 30
0.0
 10
57.07178771064406
 20
-145.4622721858569
 30
0.0
 10
57.07178771064406
 20
-140.4996060759865
 30
0.0
 10
57.07178771064406
 20
-140.4996060759865
 30
0.0
 10
57.07178771064406
 20
-140.4996060759865
 30
0.0
 10
57.66226714002412
 20
-141.076644686953
 30
0.0
 10
57.66226714002412
 20
-141.076644686953
 30
0.0
 10
57.68174047286065
 20
-141.0956241313926
 30
0.0
 10
57.69846213910071
 20
-141.1062780202792
 30
0.0
 10
57.71722991639968
 20
-141.1224705202748
 30
0.0
 10
57.71722991639968
 20
-141.1224705202748
 30
0.0
 10
57.79596991439085
 20
-143.3462757974968
 30
0.0
 10
57.79596991439085
 20
-143.3462757974968
 30
0.0
 10
57.79596991439085
 20
-143.3462757974968
 30
0.0
 10
58.01987796423404
 20
-143.500616075236
 30
0.0
 10
58.01987796423404
 20
-143.500616075236
 30
0.0
 10
58.01987796423404
 20
-143.500616075236
 30
0.0
 10
58.01987796423404
 20
-141.1696721869295
 30
0.0
 10
58.01987796423404
 20
-141.1696721869295
 30
0.0
 10
58.01987796423404
 20
-141.1696721869295
 30
0.0
 10
58.01797296428264
 20
-141.1676260758193
 30
0.0
 10
58.01797296428264
 20
-141.1676260758193
 30
0.0
  0
ENDBLK
  5
C3
330
C0
100
AcDbEntity
  8
0
100
AcDbBlockEnd
  0
ENDSEC
  0
SECTION
  2
ENTITIES
  0
INSERT
  5
42
330
1F
100
AcDbEntity
  8
_U+30EC_U+30A4_U+30E4_U+30FC 1
100
AcDbBlockReference
  2
block 2
 10
0.0
 20
0.0
 30
0.0
  0
INSERT
  5
4E
330
1F
100
AcDbEntity
  8
_U+30EC_U+30A4_U+30E4_U+30FC 1
100
AcDbBlockReference
  2
block 3
 10
0.0
 20
0.0
 30
0.0
  0
INSERT
  5
6D
330
1F
100
AcDbEntity
  8
_U+30EC_U+30A4_U+30E4_U+30FC 1
100
AcDbBlockReference
  2
block 4
 10
0.0
 20
0.0
 30
0.0
  0
POLYLINE
  5
78
330
1F
100
AcDbEntity
  8
_U+30EC_U+30A4_U+30E4_U+30FC 1
 62
   179
420
  2234388
370
     9
100
AcDb2dPolyline
 66
     1
 10
0.0
 20
0.0
 30
0.0
  0
VERTEX
  5
79
330
78
100
AcDbEntity
  8
_U+30EC_U+30A4_U+30E4_U+30FC 1
 62
   179
420
  2234388
370
     9
100
AcDbVertex
100
AcDb2dVertex
 10
52.4271156069173
 20
-136.3568660770219
 30
0.0
  0
VERTEX
  5
7A
330
78
100
AcDbEntity
  8
_U+30EC_U+30A4_U+30E4_U+30FC 1
 62
   179
420
  2234388
370
     9
100
AcDbVertex
100
AcDb2dVertex
 10
115.3686667789223
 20
-108.9420110838756
 30
0.0
  0
SEQEND
  5
7B
330
78
100
AcDbEntity
  8
_U+30EC_U+30A4_U+30E4_U+30FC 1
 62
   179
420
  2234388
370
     9
  0
POLYLINE
  5
7C
330
1F
100
AcDbEntity
  8
_U+30EC_U+30A4_U+30E4_U+30FC 1
 62
   179
420
  2234388
370
     9
100
AcDb2dPolyline
 66
     1
 10
0.0
 20
0.0
 30
0.0
  0
VERTEX
  5
7D
330
7C
100
AcDbEntity
  8
_U+30EC_U+30A4_U+30E4_U+30FC 1
 62
   179
420
  2234388
370
     9
100
AcDbVertex
100
AcDb2dVertex
 10
51.78908173430601
 20
-135.8166927438238
 30
0.0
  0
VERTEX
  5
7E
330
7C
100
AcDbEntity
  8
_U+30EC_U+30A4_U+30E4_U+30FC 1
 62
   179
420
  2234388
370
     9
100
AcDbVertex
100
AcDb2dVertex
 10
55.61315747007904
 20
-139.0254535763549
 30
0.0
  0
SEQEND
  5
7F
330
7C
100
AcDbEntity
  8
_U+30EC_U+30A4_U+30E4_U+30FC 1
 62
   179
420
  2234388
370
     9
  0
SPLINE
  5
80
330
1F
100
AcDbEntity
  8
_U+30EC_U+30A4_U+30E4_U+30FC 1
 62
   179
420
  2234388
370
     9
100
AcDbSpline
210
0.0
220
0.0
230
1.0
 70
    11
 71
     3
 72
    17
 73
    13
 74
     0
 42
0.0000000001
 43
0.0000000001
 12
1.0
 22
0.0
 32
0.0
 13
1.0
 23
0.0
 33
0.0
 40
0.0
 40
0.0
 40
0.0
 40
0.0
 40
1.0
 40
1.0
 40
1.0
 40
2.0
 40
2.0
 40
2.0
 40
3.0
 40
3.0
 40
3.0
 40
4.0
 40
4.0
 40
4.0
 40
4.0
 10
52.53323115976562
 20
-136.3565485770217
 30
0.0
 10
52.53323115976562
 20
-136.3014094103692
 30
0.0
 10
52.48842838313085
 20
-136.257312188158
 30
0.0
 10
52.43279532899462
 20
-136.257312188158
 30
0.0
 10
52.37786783039594
 20
-136.257312188158
 30
0.0
 10
52.33306505376117
 20
-136.3014094103692
 30
0.0
 10
52.33306505376117
 20
-136.3565485770217
 30
0.0
 10
52.33306505376117
 20
-136.4130282992301
 30
0.0
 10
52.37786783039594
 20
-136.4571255214413
 30
0.0
 10
52.43279532899462
 20
-136.4571255214413
 30
0.0
 10
52.48842838313085
 20
-136.4571255214413
 30
0.0
 10
52.53323115976562
 20
-136.4130282992301
 30
0.0
 10
52.53323115976562
 20
-136.3565485770217
 30
0.0
  0
HATCH
  5
81
330
1F
100
AcDbEntity
  8
_U+30EC_U+30A4_U+30E4_U+30FC 1
 62
   179
420
  2234388
100
AcDbHatch
 10
0.0
 20
0.0
 30
0.0
210
0.0
220
0.0
230
1.0
  2
SOLID
 70
     1
 71
     0
 91
        1
 92
        1
 93
        1
 72
     4
 94
        3
 73
     0
 74
     1
 95
       17
 96
       13
 40
0.0
 40
0.0
 40
0.0
 40
0.0
 40
1.0
 40
1.0
 40
1.0
 40
2.0
 40
2.0
 40
2.0
 40
3.0
 40
3.0
 40
3.0
 40
4.0
 40
4.0
 40
4.0
 40
4.0
 10
52.53323115976562
 20
-136.3565485770217
 10
52.53323115976562
 20
-136.3014094103692
 10
52.48842838313085
 20
-136.257312188158
 10
52.43279532899462
 20
-136.257312188158
 10
52.37786783039594
 20
-136.257312188158
 10
52.33306505376117
 20
-136.3014094103692
 10
52.33306505376117
 20
-136.3565485770217
 10
52.33306505376117
 20
-136.4130282992301
 10
52.37786783039594
 20
-136.4571255214413
 10
52.43279532899462
 20
-136.4571255214413
 10
52.48842838313085
 20
-136.4571255214413
 10
52.53323115976562
 20
-136.4130282992301
 10
52.53323115976562
 20
-136.3565485770217
 97
        0
 97
        0
 75
     2
 76
     1
 98
        0
  0
POLYLINE
  5
82
330
1F
100
AcDbEntity
  8
_U+30EC_U+30A4_U+30E4_U+30FC 1
 62
   179
420
  2234388
370
    25
100
AcDb2dPolyline
 66
     1
 10
0.0
 20
0.0
 30
0.0
  0
VERTEX
  5
83
330
82
100
AcDbEntity
  8
_U+30EC_U+30A4_U+30E4_U+30FC 1
 62
   179
420
  2234388
370
    25
100
AcDbVertex
100
AcDb2dVertex
 10
92.41983791995128
 20
-127.3848099681538
 30
0.0
  0
VERTEX
  5
84
330
82
100
AcDbEntity
  8
_U+30EC_U+30A4_U+30E4_U+30FC 1
 62
   179
420
  2234388
370
    25
100
AcDbVertex
100
AcDb2dVertex
 10
92.41983791995128
 20
-128.6839494122735
 30
0.0
  0
VERTEX
  5
85
330
82
100
AcDbEntity
  8
_U+30EC_U+30A4_U+30E4_U+30FC 1
 62
   179
420
  2234388
370
    25
100
AcDbVertex
100
AcDb2dVertex
 10
119.1720344596681
 20
-115.974988859895
 30
0.0
  0
VERTEX
  5
86
330
82
100
AcDbEntity
  8
_U+30EC_U+30A4_U+30E4_U+30FC 1
 62
   179
420
  2234388
370
    25
100
AcDbVertex
100
AcDb2dVertex
 10
119.1720344596681
 20
-114.5849033046871
 30
0.0
  0
SEQEND
  5
87
330
82
100
AcDbEntity
  8
_U+30EC_U+30A4_U+30E4_U+30FC 1
 62
   179
420
  2234388
370
    25
  0
POLYLINE
  5
88
330
1F
100
AcDbEntity
  8
_U+30EC_U+30A4_U+30E4_U+30FC 1
 62
   179
420
  2234388
370
    25
100
AcDb2dPolyline
 66
     1
 10
0.0
 20
0.0
 30
0.0
  0
VERTEX
  5
89
330
88
100
AcDbEntity
  8
_U+30EC_U+30A4_U+30E4_U+30FC 1
 62
   179
420
  2234388
370
    25
100
AcDbVertex
100
AcDb2dVertex
 10
57.07178771064406
 20
-145.4622721858569
 30
0.0
  0
VERTEX
  5
8A
330
88
100
AcDbEntity
  8
_U+30EC_U+30A4_U+30E4_U+30FC 1
 62
   179
420
  2234388
370
    25
100
AcDbVertex
100
AcDb2dVertex
 10
89.7150907667329
 20
-129.9627688563982
 30
0.0
  0
VERTEX
  5
8B
330
88
100
AcDbEntity
  8
_U+30EC_U+30A4_U+30E4_U+30FC 1
 62
   179
420
  2234388
370
    25
100
AcDbVertex
100
AcDb2dVertex
 10
89.7150907667329
 20
-128.6636294122785
 30
0.0
  0
SEQEND
  5
8C
330
88
100
AcDbEntity
  8
_U+30EC_U+30A4_U+30E4_U+30FC 1
 62
   179
420
  2234388
370
    25
  0
POLYLINE
  5
8D
330
1F
100
AcDbEntity
  8
_U+30EC_U+30A4_U+30E4_U+30FC 1
 62
   179
420
  2234388
370
     9
100
AcDb2dPolyline
 66
     1
 10
0.0
 20
0.0
 30
0.0
  0
VERTEX
  5
8E
330
8D
100
AcDbEntity
  8
_U+30EC_U+30A4_U+30E4_U+30FC 1
 62
   179
420
  2234388
370
     9
100
AcDbVertex
100
AcDb2dVertex
 10
66.02010164902022
 20
-147.490744407572
 30
0.0
  0
VERTEX
  5
8F
330
8D
100
AcDbEntity
  8
_U+30EC_U+30A4_U+30E4_U+30FC 1
 62
   179
420
  2234388
370
     9
100
AcDbVertex
100
AcDb2dVertex
 10
128.3297925593676
 20
-116.5353410819773
 30
0.0
  0
SEQEND
  5
90
330
8D
100
AcDbEntity
  8
_U+30EC_U+30A4_U+30E4_U+30FC 1
 62
   179
420
  2234388
370
     9
  0
POLYLINE
  5
91
330
1F
100
AcDbEntity
  8
_U+30EC_U+30A4_U+30E4_U+30FC 1
 62
   179
420
  2234388
370
    25
100
AcDb2dPolyline
 66
     1
 10
0.0
 20
0.0
 30
0.0
  0
VERTEX
  5
92
330
91
100
AcDbEntity
  8
_U+30EC_U+30A4_U+30E4_U+30FC 1
 62
   179
420
  2234388
370
    25
100
AcDbVertex
100
AcDb2dVertex
 10
58.01987796423404
 20
-143.500616075236
 30
0.0
  0
VERTEX
  5
93
330
91
100
AcDbEntity
  8
_U+30EC_U+30A4_U+30E4_U+30FC 1
 62
   179
420
  2234388
370
    25
100
AcDbVertex
100
AcDb2dVertex
 10
92.34646014404552
 20
-127.4271785792543
 30
0.0
  0
VERTEX
  5
94
330
91
100
AcDbEntity
  8
_U+30EC_U+30A4_U+30E4_U+30FC 1
 62
   179
420
  2234388
370
    25
100
AcDbVertex
100
AcDb2dVertex
 10
120.1656360810698
 20
-114.0670960825942
 30
0.0
  0
VERTEX
  5
95
330
91
100
AcDbEntity
  8
_U+30EC_U+30A4_U+30E4_U+30FC 1
 62
   179
420
  2234388
370
    25
100
AcDbVertex
100
AcDb2dVertex
 10
120.1656360810698
 20
-111.7117046942942
 30
0.0
  0
VERTEX
  5
96
330
91
100
AcDbEntity
  8
_U+30EC_U+30A4_U+30E4_U+30FC 1
 62
   179
420
  2234388
370
    25
100
AcDbVertex
100
AcDb2dVertex
 10
118.9643189094118
 20
-111.0180377500232
 30
0.0
  0
VERTEX
  5
97
330
91
100
AcDbEntity
  8
_U+30EC_U+30A4_U+30E4_U+30FC 1
 62
   179
420
  2234388
370
    25
100
AcDbVertex
100
AcDb2dVertex
 10
92.22175553249986
 20
-123.2858496914008
 30
0.0
  0
VERTEX
  5
98
330
91
100
AcDbEntity
  8
_U+30EC_U+30A4_U+30E4_U+30FC 1
 62
   179
420
  2234388
370
    25
100
AcDbVertex
100
AcDb2dVertex
 10
92.22175553249986
 20
-124.9136369132161
 30
0.0
  0
VERTEX
  5
99
330
91
100
AcDbEntity
  8
_U+30EC_U+30A4_U+30E4_U+30FC 1
 62
   179
420
  2234388
370
    25
100
AcDbVertex
100
AcDb2dVertex
 10
89.21626300168128
 20
-124.6731835799429
 30
0.0
  0
VERTEX
  5
9A
330
91
100
AcDbEntity
  8
_U+30EC_U+30A4_U+30E4_U+30FC 1
 62
   179
420
  2234388
370
    25
100
AcDbVertex
100
AcDb2dVertex
 10
56.71558799750925
 20
-139.7599369095047
 30
0.0
  0
SEQEND
  5
9B
330
91
100
AcDbEntity
  8
_U+30EC_U+30A4_U+30E4_U+30FC 1
 62
   179
420
  2234388
370
    25
  0
POLYLINE
  5
9C
330
1F
100
AcDbEntity
  8
_U+30EC_U+30A4_U+30E4_U+30FC 1
 62
   179
420
  2234388
370
     9
100
AcDb2dPolyline
 66
     1
 10
0.0
 20
0.0
 30
0.0
  0
VERTEX
  5
9D
330
9C
100
AcDbEntity
  8
_U+30EC_U+30A4_U+30E4_U+30FC 1
 62
   179
420
  2234388
370
     9
100
AcDbVertex
100
AcDb2dVertex
 10
58.93318432982255
 20
-141.5493316312796
 30
0.0
  0
VERTEX
  5
9E
330
9C
100
AcDbEntity
  8
_U+30EC_U+30A4_U+30E4_U+30FC 1
 62
   179
420
  2234388
370
     9
100
AcDbVertex
100
AcDb2dVertex
 10
67.75813188245715
 20
-148.9535374627615
 30
0.0
  0
SEQEND
  5
9F
330
9C
100
AcDbEntity
  8
_U+30EC_U+30A4_U+30E4_U+30FC 1
 62
   179
420
  2234388
370
     9
  0
POLYLINE
  5
A0
330
1F
100
AcDbEntity
  8
_U+30EC_U+30A4_U+30E4_U+30FC 1
 62
   179
420
  2234388
370
     9
100
AcDb2dPolyline
 66
     1
 10
0.0
 20
0.0
 30
0.0
  0
VERTEX
  5
A1
330
A0
100
AcDbEntity
  8
_U+30EC_U+30A4_U+30E4_U+30FC 1
 62
   179
420
  2234388
370
     9
100
AcDbVertex
100
AcDb2dVertex
 10
121.1984605190808
 20
-112.3567941385776
 30
0.0
  0
VERTEX
  5
A2
330
A0
100
AcDbEntity
  8
_U+30EC_U+30A4_U+30E4_U+30FC 1
 62
   179
420
  2234388
370
     9
100
AcDbVertex
100
AcDb2dVertex
 10
129.9613897399643
 20
-117.5054799706237
 30
0.0
  0
SEQEND
  5
A3
330
A0
100
AcDbEntity
  8
_U+30EC_U+30A4_U+30E4_U+30FC 1
 62
   179
420
  2234388
370
     9
  0
POLYLINE
  5
A4
330
1F
100
AcDbEntity
  8
_U+30EC_U+30A4_U+30E4_U+30FC 1
 62
   179
420
  2234388
370
     9
100
AcDb2dPolyline
 66
     1
 10
0.0
 20
0.0
 30
0.0
  0
VERTEX
  5
A5
330
A4
100
AcDbEntity
  8
_U+30EC_U+30A4_U+30E4_U+30FC 1
 62
   179
420
  2234388
370
     9
100
AcDbVertex
100
AcDb2dVertex
 10
113.9031249715242
 20
-108.0788344174248
 30
0.0
  0
VERTEX
  5
A6
330
A4
100
AcDbEntity
  8
_U+30EC_U+30A4_U+30E4_U+30FC 1
 62
   179
420
  2234388
370
     9
100
AcDbVertex
100
AcDb2dVertex
 10
118.0740842099014
 20
-110.5040052501518
 30
0.0
  0
SEQEND
  5
A7
330
A4
100
AcDbEntity
  8
_U+30EC_U+30A4_U+30E4_U+30FC 1
 62
   179
420
  2234388
370
     9
  0
POLYLINE
  5
A8
330
1F
100
AcDbEntity
  8
_U+30EC_U+30A4_U+30E4_U+30FC 1
 62
   179
420
  2234388
370
     9
100
AcDb2dPolyline
 66
     1
 10
0.0
 20
0.0
 30
0.0
  0
VERTEX
  5
A9
330
A8
100
AcDbEntity
  8
_U+30EC_U+30A4_U+30E4_U+30FC 1
 62
   179
420
  2234388
370
     9
100
AcDbVertex
100
AcDb2dVertex
 10
85.9523630849503
 20
-120.4157202476739
 30
0.0
  0
VERTEX
  5
AA
330
A8
100
AcDbEntity
  8
_U+30EC_U+30A4_U+30E4_U+30FC 1
 62
   179
420
  2234388
370
     9
100
AcDbVertex
100
AcDb2dVertex
 10
90.36208519467115
 20
-123.6789146913025
 30
0.0
  0
SEQEND
  5
AB
330
A8
100
AcDbEntity
  8
_U+30EC_U+30A4_U+30E4_U+30FC 1
 62
   179
420
  2234388
370
     9
  0
SPLINE
  5
AC
330
1F
100
AcDbEntity
  8
_U+30EC_U+30A4_U+30E4_U+30FC 1
 62
   179
420
  2234388
370
     9
100
AcDbSpline
210
0.0
220
0.0
230
1.0
 70
    11
 71
     3
 72
    17
 73
    13
 74
     0
 42
0.0000000001
 43
0.0000000001
 12
1.0
 22
0.0
 32
0.0
 13
1.0
 23
0.0
 33
0.0
 40
0.0
 40
0.0
 40
0.0
 40
0.0
 40
1.0
 40
1.0
 40
1.0
 40
2.0
 40
2.0
 40
2.0
 40
3.0
 40
3.0
 40
3.0
 40
4.0
 40
4.0
 40
4.0
 40
4.0
 10
66.12618192409167
 20
-147.4903916297943
 30
0.0
 10
66.12618192409167
 20
-147.4352877409187
 30
0.0
 10
66.08141442523377
 20
-147.3911905187075
 30
0.0
 10
66.02578137109754
 20
-147.3911905187075
 30
0.0
 10
65.97081859472198
 20
-147.3911905187075
 30
0.0
 10
65.92605276129642
 20
-147.4352877409187
 30
0.0
 10
65.92605276129642
 20
-147.4903916297943
 30
0.0
 10
65.92605276129642
 20
-147.5469066297802
 30
0.0
 10
65.97081859472198
 20
-147.5910038519914
 30
0.0
 10
66.02578137109754
 20
-147.5910038519914
 30
0.0
 10
66.08141442523377
 20
-147.5910038519914
 30
0.0
 10
66.12618192409167
 20
-147.5469066297802
 30
0.0
 10
66.12618192409167
 20
-147.4903916297943
 30
0.0
  0
HATCH
  5
AD
330
1F
100
AcDbEntity
  8
_U+30EC_U+30A4_U+30E4_U+30FC 1
 62
   179
420
  2234388
100
AcDbHatch
 10
0.0
 20
0.0
 30
0.0
210
0.0
220
0.0
230
1.0
  2
SOLID
 70
     1
 71
     0
 91
        1
 92
        1
 93
        1
 72
     4
 94
        3
 73
     0
 74
     1
 95
       17
 96
       13
 40
0.0
 40
0.0
 40
0.0
 40
0.0
 40
1.0
 40
1.0
 40
1.0
 40
2.0
 40
2.0
 40
2.0
 40
3.0
 40
3.0
 40
3.0
 40
4.0
 40
4.0
 40
4.0
 40
4.0
 10
66.12618192409167
 20
-147.4903916297943
 10
66.12618192409167
 20
-147.4352877409187
 10
66.08141442523377
 20
-147.3911905187075
 10
66.02578137109754
 20
-147.3911905187075
 10
65.97081859472198
 20
-147.3911905187075
 10
65.92605276129642
 20
-147.4352877409187
 10
65.92605276129642
 20
-147.4903916297943
 10
65.92605276129642
 20
-147.5469066297802
 10
65.97081859472198
 20
-147.5910038519914
 10
66.02578137109754
 20
-147.5910038519914
 10
66.08141442523377
 20
-147.5910038519914
 10
66.12618192409167
 20
-147.5469066297802
 10
66.12618192409167
 20
-147.4903916297943
 97
        0
 97
        0
 75
     2
 76
     1
 98
        0
  0
SPLINE
  5
AE
330
1F
100
AcDbEntity
  8
_U+30EC_U+30A4_U+30E4_U+30FC 1
 62
   179
420
  2234388
370
     9
100
AcDbSpline
210
0.0
220
0.0
230
1.0
 70
    11
 71
     3
 72
    17
 73
    13
 74
     0
 42
0.0000000001
 43
0.0000000001
 12
1.0
 22
0.0
 32
0.0
 13
1.0
 23
0.0
 33
0.0
 40
0.0
 40
0.0
 40
0.0
 40
0.0
 40
1.0
 40
1.0
 40
1.0
 40
2.0
 40
2.0
 40
2.0
 40
3.0
 40
3.0
 40
3.0
 40
4.0
 40
4.0
 40
4.0
 40
4.0
 10
87.18983694226861
 20
-121.2532499696867
 30
0.0
 10
87.18983694226861
 20
-121.198110803034
 30
0.0
 10
87.14506944341072
 20
-121.1540135808227
 30
0.0
 10
87.08993027815077
 20
-121.1540135808227
 30
0.0
 10
87.0348263906677
 20
-121.1540135808227
 30
0.0
 10
86.99002361403294
 20
-121.198110803034
 30
0.0
 10
86.99002361403294
 20
-121.2532499696867
 30
0.0
 10
86.99002361403294
 20
-121.3097296918948
 30
0.0
 10
87.0348263906677
 20
-121.353826914106
 30
0.0
 10
87.08993027815077
 20
-121.353826914106
 30
0.0
 10
87.14506944341072
 20
-121.353826914106
 30
0.0
 10
87.18983694226861
 20
-121.3097296918948
 30
0.0
 10
87.18983694226861
 20
-121.2532499696867
 30
0.0
  0
HATCH
  5
AF
330
1F
100
AcDbEntity
  8
_U+30EC_U+30A4_U+30E4_U+30FC 1
 62
   179
420
  2234388
100
AcDbHatch
 10
0.0
 20
0.0
 30
0.0
210
0.0
220
0.0
230
1.0
  2
SOLID
 70
     1
 71
     0
 91
        1
 92
        1
 93
        1
 72
     4
 94
        3
 73
     0
 74
     1
 95
       17
 96
       13
 40
0.0
 40
0.0
 40
0.0
 40
0.0
 40
1.0
 40
1.0
 40
1.0
 40
2.0
 40
2.0
 40
2.0
 40
3.0
 40
3.0
 40
3.0
 40
4.0
 40
4.0
 40
4.0
 40
4.0
 10
87.18983694226861
 20
-121.2532499696867
 10
87.18983694226861
 20
-121.198110803034
 10
87.14506944341072
 20
-121.1540135808227
 10
87.08993027815077
 20
-121.1540135808227
 10
87.0348263906677
 20
-121.1540135808227
 10
86.99002361403294
 20
-121.198110803034
 10
86.99002361403294
 20
-121.2532499696867
 10
86.99002361403294
 20
-121.3097296918948
 10
87.0348263906677
 20
-121.353826914106
 10
87.08993027815077
 20
-121.353826914106
 10
87.14506944341072
 20
-121.353826914106
 10
87.18983694226861
 20
-121.3097296918948
 10
87.18983694226861
 20
-121.2532499696867
 97
        0
 97
        0
 75
     2
 76
     1
 98
        0
  0
SPLINE
  5
B0
330
1F
100
AcDbEntity
  8
_U+30EC_U+30A4_U+30E4_U+30FC 1
 62
   179
420
  2234388
370
     9
100
AcDbSpline
210
0.0
220
0.0
230
1.0
 70
    11
 71
     3
 72
    17
 73
    13
 74
     0
 42
0.0000000001
 43
0.0000000001
 12
1.0
 22
0.0
 32
0.0
 13
1.0
 23
0.0
 33
0.0
 40
0.0
 40
0.0
 40
0.0
 40
0.0
 40
1.0
 40
1.0
 40
1.0
 40
2.0
 40
2.0
 40
2.0
 40
3.0
 40
3.0
 40
3.0
 40
4.0
 40
4.0
 40
4.0
 40
4.0
 10
115.4796153872029
 20
-108.9447627505417
 30
0.0
 10
115.4796153872029
 20
-108.8896588616664
 30
0.0
 10
115.4348126105681
 20
-108.8446796950112
 30
0.0
 10
115.3796734453082
 20
-108.8446796950112
 30
0.0
 10
115.3245695578251
 20
-108.8446796950112
 30
0.0
 10
115.2797667811903
 20
-108.8896588616664
 30
0.0
 10
115.2797667811903
 20
-108.9447627505417
 30
0.0
 10
115.2797667811903
 20
-109.0005721949721
 30
0.0
 10
115.3245695578251
 20
-109.0448458060722
 30
0.0
 10
115.3796734453082
 20
-109.0448458060722
 30
0.0
 10
115.4348126105681
 20
-109.0448458060722
 30
0.0
 10
115.4796153872029
 20
-109.0005721949721
 30
0.0
 10
115.4796153872029
 20
-108.9447627505417
 30
0.0
  0
HATCH
  5
B1
330
1F
100
AcDbEntity
  8
_U+30EC_U+30A4_U+30E4_U+30FC 1
 62
   179
420
  2234388
100
AcDbHatch
 10
0.0
 20
0.0
 30
0.0
210
0.0
220
0.0
230
1.0
  2
SOLID
 70
     1
 71
     0
 91
        1
 92
        1
 93
        1
 72
     4
 94
        3
 73
     0
 74
     1
 95
       17
 96
       13
 40
0.0
 40
0.0
 40
0.0
 40
0.0
 40
1.0
 40
1.0
 40
1.0
 40
2.0
 40
2.0
 40
2.0
 40
3.0
 40
3.0
 40
3.0
 40
4.0
 40
4.0
 40
4.0
 40
4.0
 10
115.4796153872029
 20
-108.9447627505417
 10
115.4796153872029
 20
-108.8896588616664
 10
115.4348126105681
 20
-108.8446796950112
 10
115.3796734453082
 20
-108.8446796950112
 10
115.3245695578251
 20
-108.8446796950112
 10
115.2797667811903
 20
-108.8896588616664
 10
115.2797667811903
 20
-108.9447627505417
 10
115.2797667811903
 20
-109.0005721949721
 10
115.3245695578251
 20
-109.0448458060722
 10
115.3796734453082
 20
-109.0448458060722
 10
115.4348126105681
 20
-109.0448458060722
 10
115.4796153872029
 20
-109.0005721949721
 10
115.4796153872029
 20
-108.9447627505417
 97
        0
 97
        0
 75
     2
 76
     1
 98
        0
  0
SPLINE
  5
B2
330
1F
100
AcDbEntity
  8
_U+30EC_U+30A4_U+30E4_U+30FC 1
 62
   179
420
  2234388
370
     9
100
AcDbSpline
210
0.0
220
0.0
230
1.0
 70
    11
 71
     3
 72
    17
 73
    13
 74
     0
 42
0.0000000001
 43
0.0000000001
 12
1.0
 22
0.0
 32
0.0
 13
1.0
 23
0.0
 33
0.0
 40
0.0
 40
0.0
 40
0.0
 40
0.0
 40
1.0
 40
1.0
 40
1.0
 40
2.0
 40
2.0
 40
2.0
 40
3.0
 40
3.0
 40
3.0
 40
4.0
 40
4.0
 40
4.0
 40
4.0
 10
128.3986900576099
 20
-116.5427494153087
 30
0.0
 10
128.3986900576099
 20
-116.4876455264338
 30
0.0
 10
128.3539225587519
 20
-116.4426663597782
 30
0.0
 10
128.298783393492
 20
-116.4426663597782
 30
0.0
 10
128.2436795060089
 20
-116.4426663597782
 30
0.0
 10
128.1988767293742
 20
-116.4876455264338
 30
0.0
 10
128.1988767293742
 20
-116.5427494153087
 30
0.0
 10
128.1988767293742
 20
-116.5985588597392
 30
0.0
 10
128.2436795060089
 20
-116.6426560819503
 30
0.0
 10
128.298783393492
 20
-116.6426560819503
 30
0.0
 10
128.3539225587519
 20
-116.6426560819503
 30
0.0
 10
128.3986900576099
 20
-116.5985588597392
 30
0.0
 10
128.3986900576099
 20
-116.5427494153087
 30
0.0
  0
HATCH
  5
B3
330
1F
100
AcDbEntity
  8
_U+30EC_U+30A4_U+30E4_U+30FC 1
 62
   179
420
  2234388
100
AcDbHatch
 10
0.0
 20
0.0
 30
0.0
210
0.0
220
0.0
230
1.0
  2
SOLID
 70
     1
 71
     0
 91
        1
 92
        1
 93
        1
 72
     4
 94
        3
 73
     0
 74
     1
 95
       17
 96
       13
 40
0.0
 40
0.0
 40
0.0
 40
0.0
 40
1.0
 40
1.0
 40
1.0
 40
2.0
 40
2.0
 40
2.0
 40
3.0
 40
3.0
 40
3.0
 40
4.0
 40
4.0
 40
4.0
 40
4.0
 10
128.3986900576099
 20
-116.5427494153087
 10
128.3986900576099
 20
-116.4876455264338
 10
128.3539225587519
 20
-116.4426663597782
 10
128.298783393492
 20
-116.4426663597782
 10
128.2436795060089
 20
-116.4426663597782
 10
128.1988767293742
 20
-116.4876455264338
 10
128.1988767293742
 20
-116.5427494153087
 10
128.1988767293742
 20
-116.5985588597392
 10
128.2436795060089
 20
-116.6426560819503
 10
128.298783393492
 20
-116.6426560819503
 10
128.3539225587519
 20
-116.6426560819503
 10
128.3986900576099
 20
-116.5985588597392
 10
128.3986900576099
 20
-116.5427494153087
 97
        0
 97
        0
 75
     2
 76
     1
 98
        0
  0
POLYLINE
  5
B4
330
1F
100
AcDbEntity
  8
_U+30EC_U+30A4_U+30E4_U+30FC 1
 62
   179
420
  2234388
370
    25
100
AcDb2dPolyline
 66
     1
 10
0.0
 20
0.0
 30
0.0
  0
VERTEX
  5
B5
330
B4
100
AcDbEntity
  8
_U+30EC_U+30A4_U+30E4_U+30FC 1
 62
   179
420
  2234388
370
    25
100
AcDbVertex
100
AcDb2dVertex
 10
57.96925435441445
 20
-140.8516782981206
 30
0.0
  0
VERTEX
  5
B6
330
B4
100
AcDbEntity
  8
_U+30EC_U+30A4_U+30E4_U+30FC 1
 62
   179
420
  2234388
370
    25
100
AcDbVertex
100
AcDb2dVertex
 10
92.22175553249986
 20
-125.0138963576355
 30
0.0
  0
SEQEND
  5
B7
330
B4
100
AcDbEntity
  8
_U+30EC_U+30A4_U+30E4_U+30FC 1
 62
   179
420
  2234388
370
    25
  0
POLYLINE
  5
B8
330
1F
100
AcDbEntity
  8
_U+30EC_U+30A4_U+30E4_U+30FC 1
 62
   179
420
  2234388
370
    25
100
AcDb2dPolyline
 66
     1
 10
0.0
 20
0.0
 30
0.0
  0
VERTEX
  5
B9
330
B8
100
AcDbEntity
  8
_U+30EC_U+30A4_U+30E4_U+30FC 1
 62
   179
420
  2234388
370
    25
100
AcDbVertex
100
AcDb2dVertex
 10
92.22175553249986
 20
-125.0138963576355
 30
0.0
  0
VERTEX
  5
BA
330
B8
100
AcDbEntity
  8
_U+30EC_U+30A4_U+30E4_U+30FC 1
 62
   179
420
  2234388
370
    25
100
AcDbVertex
100
AcDb2dVertex
 10
120.0946541583523
 20
-111.7397858053983
 30
0.0
  0
SEQEND
  5
BB
330
B8
100
AcDbEntity
  8
_U+30EC_U+30A4_U+30E4_U+30FC 1
 62
   179
420
  2234388
370
    25
  0
INSERT
  5
BD
330
1F
100
AcDbEntity
  8
_U+30EC_U+30A4_U+30E4_U+30FC 1
100
AcDbBlockReference
  2
block 5
 10
0.0
 20
0.0
 30
0.0
  0
ENDSEC
  0
SECTION
  2
OBJECTS
  0
DICTIONARY
  5
C
330
0
100
AcDbDictionary
281
     1
  3
ACAD_GROUP
350
D
  3
ACAD_LAYOUT
350
1A
  3
ACAD_MATERIAL
350
3B
  3
ACAD_MLEADERSTYLE
350
C6
  3
ACAD_MLINESTYLE
350
17
  3
ACAD_PLOTSETTINGS
350
19
  3
ACAD_PLOTSTYLENAME
350
E
  3
ACAD_TABLESTYLE
350
C5
  3
ACAD_VISUALSTYLE
350
2A
  0
SUN
  5
3F
330
29
100
AcDbSun
 90
        1
290
     0
 63
     7
421
 16777215
 40
1.0
291
     1
 91
  2455826
 92
 54000000
292
     0
 70
     2
 71
   256
280
     1
  0
DICTIONARY
  5
D
102
{ACAD_REACTORS
330
C
102
}
330
C
100
AcDbDictionary
281
     1
  0
DICTIONARY
  5
1A
102
{ACAD_REACTORS
330
C
102
}
330
C
100
AcDbDictionary
281
     1
  3
Layout1
350
1E
  3
Layout2
350
26
  3
Model
350
22
  0
DICTIONARY
  5
3B
102
{ACAD_REACTORS
330
C
102
}
330
C
100
AcDbDictionary
281
     1
  3
ByBlock
350
3D
  3
ByLayer
350
3C
  3
Global
350
3E
  0
DICTIONARY
  5
C6
102
{ACAD_REACTORS
330
C
102
}
330
C
100
AcDbDictionary
281
     1
  0
DICTIONARY
  5
17
102
{ACAD_REACTORS
330
C
102
}
330
C
100
AcDbDictionary
281
     1
  3
Standard
350
18
  0
DICTIONARY
  5
19
102
{ACAD_REACTORS
330
C
102
}
330
C
100
AcDbDictionary
281
     1
  0
ACDBDICTIONARYWDFLT
  5
E
102
{ACAD_REACTORS
330
C
102
}
330
C
100
AcDbDictionary
281
     1
  3
Normal
350
F
100
AcDbDictionaryWithDefault
340
F
  0
DICTIONARY
  5
C5
102
{ACAD_REACTORS
330
C
102
}
330
C
100
AcDbDictionary
281
     1
  0
DICTIONARY
  5
2A
102
{ACAD_REACTORS
330
C
102
}
330
C
100
AcDbDictionary
281
     1
  3
2dWireframe
350
2F
  3
3D Hidden
350
31
  3
3dWireframe
350
30
  3
Basic
350
32
  3
Brighten
350
36
  3
ColorChange
350
3A
  3
Conceptual
350
34
  3
Dim
350
35
  3
Facepattern
350
39
  3
Flat
350
2B
  3
FlatWithEdges
350
2C
  3
Gouraud
350
2D
  3
GouraudWithEdges
350
2E
  3
Linepattern
350
38
  3
Realistic
350
33
  3
Thicken
350
37
  0
LAYOUT
  5
1E
102
{ACAD_REACTORS
330
1A
102
}
330
1A
100
AcDbPlotSettings
  1

  2
none_device
  4

  6

 40
0.0
 41
0.0
 42
0.0
 43
0.0
 44
0.0
 45
0.0
 46
0.0
 47
0.0
 48
0.0
 49
0.0
140
0.0
141
0.0
142
1.0
143
1.0
 70
   688
 72
     0
 73
     0
 74
     5
  7

 75
    16
 76
     0
 77
     2
 78
   300
147
1.0
148
0.0
149
0.0
100
AcDbLayout
  1
Layout1
 70
     1
 71
     1
 10
0.0
 20
0.0
 11
12.0
 21
9.0
 12
0.0
 22
0.0
 32
0.0
 14
1.000000000000000E+20
 24
1.000000000000000E+20
 34
1.000000000000000E+20
 15
-1.000000000000000E+20
 25
-1.000000000000000E+20
 35
-1.000000000000000E+20
146
0.0
 13
0.0
 23
0.0
 33
0.0
 16
1.0
 26
0.0
 36
0.0
 17
0.0
 27
1.0
 37
0.0
 76
     0
330
1B
  0
LAYOUT
  5
26
102
{ACAD_REACTORS
330
1A
102
}
330
1A
100
AcDbPlotSettings
  1

  2
none_device
  4

  6

 40
0.0
 41
0.0
 42
0.0
 43
0.0
 44
0.0
 45
0.0
 46
0.0
 47
0.0
 48
0.0
 49
0.0
140
0.0
141
0.0
142
1.0
143
1.0
 70
   688
 72
     0
 73
     0
 74
     5
  7

 75
    16
 76
     0
 77
     2
 78
   300
147
1.0
148
0.0
149
0.0
100
AcDbLayout
  1
Layout2
 70
     1
 71
     2
 10
0.0
 20
0.0
 11
0.0
 21
0.0
 12
0.0
 22
0.0
 32
0.0
 14
0.0
 24
0.0
 34
0.0
 15
0.0
 25
0.0
 35
0.0
146
0.0
 13
0.0
 23
0.0
 33
0.0
 16
1.0
 26
0.0
 36
0.0
 17
0.0
 27
1.0
 37
0.0
 76
     0
330
23
  0
LAYOUT
  5
22
102
{ACAD_REACTORS
330
1A
102
}
330
1A
100
AcDbPlotSettings
  1

  2
none_device
  4

  6

 40
0.0
 41
0.0
 42
0.0
 43
0.0
 44
0.0
 45
0.0
 46
0.0
 47
0.0
 48
0.0
 49
0.0
140
0.0
141
0.0
142
1.0
143
1.0
 70
  1712
 72
     0
 73
     0
 74
     0
  7

 75
     0
 76
     0
 77
     2
 78
   300
147
1.0
148
0.0
149
0.0
100
AcDbLayout
  1
Model
 70
     1
 71
     0
 10
0.0
 20
0.0
 11
12.0
 21
9.0
 12
0.0
 22
0.0
 32
0.0
 14
1.000000000000000E+20
 24
1.000000000000000E+20
 34
1.000000000000000E+20
 15
-1.000000000000000E+20
 25
-1.000000000000000E+20
 35
-1.000000000000000E+20
146
0.0
 13
0.0
 23
0.0
 33
0.0
 16
1.0
 26
0.0
 36
0.0
 17
0.0
 27
1.0
 37
0.0
 76
     0
330
1F
331
29
  0
MATERIAL
  5
3D
102
{ACAD_REACTORS
330
3B
102
}
330
3B
100
AcDbMaterial
  1
ByBlock
 72
     1
 94
      127
  0
MATERIAL
  5
3C
102
{ACAD_REACTORS
330
3B
102
}
330
3B
100
AcDbMaterial
  1
ByLayer
 72
     1
 94
      127
  0
MATERIAL
  5
3E
102
{ACAD_REACTORS
330
3B
102
}
330
3B
100
AcDbMaterial
  1
Global
 72
     1
 94
      127
  0
MLINESTYLE
  5
18
102
{ACAD_REACTORS
330
17
102
}
330
17
100
AcDbMlineStyle
  2
Standard
 70
     0
  3

 62
   256
 51
90.0
 52
90.0
 71
     2
 49
0.5
 62
   256
  6
BYLAYER
 49
-0.5
 62
   256
  6
BYLAYER
  0
ACDBPLACEHOLDER
  5
F
102
{ACAD_REACTORS
330
E
102
}
330
E
  0
VISUALSTYLE
  5
2F
102
{ACAD_REACTORS
330
2A
102
}
330
2A
100
AcDbVisualStyle
  2
2dWireframe
 70
     4
177
     2
291
     0
 71
     0
176
     1
 72
     2
176
     1
 73
     0
176
     1
 90
        0
176
     1
 40
-0.6
176
     1
 41
-30.0
176
     1
 62
     5
 63
     7
421
 16777215
176
     1
 74
     1
176
     1
 91
        4
176
     1
 64
     7
176
     1
 65
   257
176
     1
 75
     1
176
     1
175
     1
176
     1
 42
1.0
176
     1
 92
        0
176
     1
 66
   257
176
     1
 43
1.0
176
     1
 76
     1
176
     1
 77
     6
176
     1
 78
     2
176
     1
 67
     7
176
     1
 79
     5
176
     1
170
     0
176
     1
171
     0
176
     1
290
     0
176
     1
 93
        1
176
     1
 44
0.0
176
     1
173
     0
176
     1
  0
VISUALSTYLE
  5
31
102
{ACAD_REACTORS
330
2A
102
}
330
2A
100
AcDbVisualStyle
  2
3D Hidden
 70
     6
177
     2
291
     0
 71
     1
176
     1
 72
     2
176
     1
 73
     2
176
     1
 90
        0
176
     1
 40
-0.6
176
     1
 41
-30.0
176
     1
 62
     5
 63
     7
421
 16777215
176
     1
 74
     2
176
     1
 91
        2
176
     1
 64
     7
176
     1
 65
   257
176
     1
 75
     2
176
     1
175
     1
176
     1
 42
40.0
176
     1
 92
        0
176
     1
 66
   257
176
     1
 43
1.0
176
     1
 76
     1
176
     1
 77
     6
176
     1
 78
     2
176
     1
 67
     7
176
     1
 79
     3
176
     1
170
     0
176
     1
171
     0
176
     1
290
     0
176
     1
 93
        1
176
     1
 44
0.0
176
     1
173
     0
176
     1
  0
VISUALSTYLE
  5
30
102
{ACAD_REACTORS
330
2A
102
}
330
2A
100
AcDbVisualStyle
  2
3dWireframe
 70
     5
177
     2
291
     0
 71
     0
176
     1
 72
     2
176
     1
 73
     0
176
     1
 90
        0
176
     1
 40
-0.6
176
     1
 41
-30.0
176
     1
 62
     5
 63
     7
421
 16777215
176
     1
 74
     1
176
     1
 91
        4
176
     1
 64
     7
176
     1
 65
   257
176
     1
 75
     1
176
     1
175
     1
176
     1
 42
1.0
176
     1
 92
        0
176
     1
 66
   257
176
     1
 43
1.0
176
     1
 76
     1
176
     1
 77
     6
176
     1
 78
     2
176
     1
 67
     7
176
     1
 79
     5
176
     1
170
     0
176
     1
171
     0
176
     1
290
     0
176
     1
 93
        1
176
     1
 44
0.0
176
     1
173
     0
176
     1
  0
VISUALSTYLE
  5
32
102
{ACAD_REACTORS
330
2A
102
}
330
2A
100
AcDbVisualStyle
  2
Basic
 70
     7
177
     2
291
     1
 71
     1
176
     1
 72
     0
176
     1
 73
     1
176
     1
 90
        0
176
     1
 40
-0.6
176
     1
 41
-30.0
176
     1
 62
     5
 63
     7
421
 16777215
176
     1
 74
     0
176
     1
 91
        4
176
     1
 64
     7
176
     1
 65
   257
176
     1
 75
     1
176
     1
175
     1
176
     1
 42
1.0
176
     1
 92
        8
176
     1
 66
     7
176
     1
 43
1.0
176
     1
 76
     1
176
     1
 77
     6
176
     1
 78
     2
176
     1
 67
     7
176
     1
 79
     5
176
     1
170
     0
176
     1
171
     0
176
     1
290
     0
176
     1
 93
        1
176
     1
 44
0.0
176
     1
173
     0
176
     1
  0
VISUALSTYLE
  5
36
102
{ACAD_REACTORS
330
2A
102
}
330
2A
100
AcDbVisualStyle
  2
Brighten
 70
    12
177
     2
291
     1
 71
     2
176
     1
 72
     2
176
     1
 73
     0
176
     1
 90
        0
176
     1
 40
-0.6
176
     1
 41
-30.0
176
     1
 62
     5
 63
     7
421
 16777215
176
     1
 74
     1
176
     1
 91
        4
176
     1
 64
     7
176
     1
 65
   257
176
     1
 75
     1
176
     1
175
     1
176
     1
 42
1.0
176
     1
 92
        8
176
     1
 66
     7
176
     1
 43
1.0
176
     1
 76
     1
176
     1
 77
     6
176
     1
 78
     2
176
     1
 67
     7
176
     1
 79
     5
176
     1
170
     0
176
     1
171
     0
176
     1
290
     0
176
     1
 93
        1
176
     1
 44
50.0
176
     1
173
     0
176
     1
  0
VISUALSTYLE
  5
3A
102
{ACAD_REACTORS
330
2A
102
}
330
2A
100
AcDbVisualStyle
  2
ColorChange
 70
    16
177
     2
291
     1
 71
     2
176
     1
 72
     2
176
     1
 73
     3
176
     1
 90
        0
176
     1
 40
-0.6
176
     1
 41
-30.0
176
     1
 62
     5
 63
     8
421
  8421504
176
     1
 74
     1
176
     1
 91
        4
176
     1
 64
     7
176
     1
 65
   257
176
     1
 75
     1
176
     1
175
     1
176
     1
 42
1.0
176
     1
 92
        8
176
     1
 66
     8
424
  8421504
176
     1
 43
1.0
176
     1
 76
     1
176
     1
 77
     6
176
     1
 78
     2
176
     1
 67
     7
176
     1
 79
     5
176
     1
170
     0
176
     1
171
     0
176
     1
290
     0
176
     1
 93
        1
176
     1
 44
0.0
176
     1
173
     0
176
     1
  0
VISUALSTYLE
  5
34
102
{ACAD_REACTORS
330
2A
102
}
330
2A
100
AcDbVisualStyle
  2
Conceptual
 70
     9
177
     2
291
     0
 71
     3
176
     1
 72
     2
176
     1
 73
     0
176
     1
 90
        0
176
     1
 40
-0.6
176
     1
 41
-30.0
176
     1
 62
     5
 63
     7
421
 16777215
176
     1
 74
     2
176
     1
 91
        2
176
     1
 64
     7
176
     1
 65
   257
176
     1
 75
     1
176
     1
175
     1
176
     1
 42
40.0
176
     1
 92
        8
176
     1
 66
     7
176
     1
 43
1.0
176
     1
 76
     1
176
     1
 77
     6
176
     1
 78
     2
176
     1
 67
     7
176
     1
 79
     3
176
     1
170
     0
176
     1
171
     0
176
     1
290
     0
176
     1
 93
        1
176
     1
 44
0.0
176
     1
173
     0
176
     1
  0
VISUALSTYLE
  5
35
102
{ACAD_REACTORS
330
2A
102
}
330
2A
100
AcDbVisualStyle
  2
Dim
 70
    11
177
     2
291
     1
 71
     2
176
     1
 72
     2
176
     1
 73
     0
176
     1
 90
        0
176
     1
 40
-0.6
176
     1
 41
-30.0
176
     1
 62
     5
 63
     7
421
 16777215
176
     1
 74
     1
176
     1
 91
        4
176
     1
 64
     7
176
     1
 65
   257
176
     1
 75
     1
176
     1
175
     1
176
     1
 42
1.0
176
     1
 92
        8
176
     1
 66
     7
176
     1
 43
1.0
176
     1
 76
     1
176
     1
 77
     6
176
     1
 78
     2
176
     1
 67
     7
176
     1
 79
     5
176
     1
170
     0
176
     1
171
     0
176
     1
290
     0
176
     1
 93
        1
176
     1
 44
-50.0
176
     1
173
     0
176
     1
  0
VISUALSTYLE
  5
39
102
{ACAD_REACTORS
330
2A
102
}
330
2A
100
AcDbVisualStyle
  2
Facepattern
 70
    15
177
     2
291
     1
 71
     2
176
     1
 72
     2
176
     1
 73
     0
176
     1
 90
        0
176
     1
 40
-0.6
176
     1
 41
-30.0
176
     1
 62
     5
 63
     7
421
 16777215
176
     1
 74
     1
176
     1
 91
        4
176
     1
 64
     7
176
     1
 65
   257
176
     1
 75
     1
176
     1
175
     1
176
     1
 42
1.0
176
     1
 92
        8
176
     1
 66
     7
176
     1
 43
1.0
176
     1
 76
     1
176
     1
 77
     6
176
     1
 78
     2
176
     1
 67
     7
176
     1
 79
     5
176
     1
170
     0
176
     1
171
     0
176
     1
290
     0
176
     1
 93
        1
176
     1
 44
0.0
176
     1
173
     0
176
     1
  0
VISUALSTYLE
  5
2B
102
{ACAD_REACTORS
330
2A
102
}
330
2A
100
AcDbVisualStyle
  2
Flat
 70
     0
177
     2
291
     1
 71
     2
176
     1
 72
     1
176
     1
 73
     1
176
     1
 90
        2
176
     1
 40
-0.6
176
     1
 41
30.0
176
     1
 62
     5
 63
     7
421
 16777215
176
     1
 74
     0
176
     1
 91
        4
176
     1
 64
     7
176
     1
 65
   257
176
     1
 75
     1
176
     1
175
     1
176
     1
 42
1.0
176
     1
 92
        8
176
     1
 66
     7
176
     1
 43
1.0
176
     1
 76
     1
176
     1
 77
     6
176
     1
 78
     2
176
     1
 67
     7
176
     1
 79
     5
176
     1
170
     0
176
     1
171
     0
176
     1
290
     0
176
     1
 93
       13
176
     1
 44
0.0
176
     1
173
     0
176
     1
  0
VISUALSTYLE
  5
2C
102
{ACAD_REACTORS
330
2A
102
}
330
2A
100
AcDbVisualStyle
  2
FlatWithEdges
 70
     1
177
     2
291
     1
 71
     2
176
     1
 72
     1
176
     1
 73
     1
176
     1
 90
        2
176
     1
 40
-0.6
176
     1
 41
30.0
176
     1
 62
     5
 63
     7
421
 16777215
176
     1
 74
     1
176
     1
 91
        4
176
     1
 64
     7
176
     1
 65
   257
176
     1
 75
     1
176
     1
175
     1
176
     1
 42
1.0
176
     1
 92
        0
176
     1
 66
   257
176
     1
 43
1.0
176
     1
 76
     1
176
     1
 77
     6
176
     1
 78
     2
176
     1
 67
     7
176
     1
 79
     5
176
     1
170
     0
176
     1
171
     0
176
     1
290
     0
176
     1
 93
       13
176
     1
 44
0.0
176
     1
173
     0
176
     1
  0
VISUALSTYLE
  5
2D
102
{ACAD_REACTORS
330
2A
102
}
330
2A
100
AcDbVisualStyle
  2
Gouraud
 70
     2
177
     2
291
     1
 71
     2
176
     1
 72
     2
176
     1
 73
     1
176
     1
 90
        2
176
     1
 40
-0.6
176
     1
 41
30.0
176
     1
 62
     5
 63
     7
421
 16777215
176
     1
 74
     0
176
     1
 91
        4
176
     1
 64
     7
176
     1
 65
   257
176
     1
 75
     1
176
     1
175
     1
176
     1
 42
1.0
176
     1
 92
        0
176
     1
 66
     7
176
     1
 43
1.0
176
     1
 76
     1
176
     1
 77
     6
176
     1
 78
     2
176
     1
 67
     7
176
     1
 79
     5
176
     1
170
     0
176
     1
171
     0
176
     1
290
     0
176
     1
 93
       13
176
     1
 44
0.0
176
     1
173
     0
176
     1
  0
VISUALSTYLE
  5
2E
102
{ACAD_REACTORS
330
2A
102
}
330
2A
100
AcDbVisualStyle
  2
GouraudWithEdges
 70
     3
177
     2
291
     1
 71
     2
176
     1
 72
     2
176
     1
 73
     1
176
     1
 90
        2
176
     1
 40
-0.6
176
     1
 41
30.0
176
     1
 62
     5
 63
     7
421
 16777215
176
     1
 74
     1
176
     1
 91
        4
176
     1
 64
     7
176
     1
 65
   257
176
     1
 75
     1
176
     1
175
     1
176
     1
 42
1.0
176
     1
 92
        0
176
     1
 66
   257
176
     1
 43
1.0
176
     1
 76
     1
176
     1
 77
     6
176
     1
 78
     2
176
     1
 67
     7
176
     1
 79
     5
176
     1
170
     0
176
     1
171
     0
176
     1
290
     0
176
     1
 93
       13
176
     1
 44
0.0
176
     1
173
     0
176
     1
  0
VISUALSTYLE
  5
38
102
{ACAD_REACTORS
330
2A
102
}
330
2A
100
AcDbVisualStyle
  2
Linepattern
 70
    14
177
     2
291
     1
 71
     2
176
     1
 72
     2
176
     1
 73
     0
176
     1
 90
        0
176
     1
 40
-0.6
176
     1
 41
-30.0
176
     1
 62
     5
 63
     7
421
 16777215
176
     1
 74
     1
176
     1
 91
        4
176
     1
 64
     7
176
     1
 65
   257
176
     1
 75
     7
176
     1
175
     7
176
     1
 42
1.0
176
     1
 92
        8
176
     1
 66
     7
176
     1
 43
1.0
176
     1
 76
     1
176
     1
 77
     6
176
     1
 78
     2
176
     1
 67
     7
176
     1
 79
     5
176
     1
170
     0
176
     1
171
     0
176
     1
290
     0
176
     1
 93
        1
176
     1
 44
0.0
176
     1
173
     0
176
     1
  0
VISUALSTYLE
  5
33
102
{ACAD_REACTORS
330
2A
102
}
330
2A
100
AcDbVisualStyle
  2
Realistic
 70
     8
177
     2
291
     0
 71
     2
176
     1
 72
     2
176
     1
 73
     0
176
     1
 90
        0
176
     1
 40
-0.6
176
     1
 41
-30.0
176
     1
 62
     5
 63
     7
421
 16777215
176
     1
 74
     1
176
     1
 91
        0
176
     1
 64
     7
176
     1
 65
   257
176
     1
 75
     1
176
     1
175
     1
176
     1
 42
1.0
176
     1
 92
        8
176
     1
 66
     8
424
  7895160
176
     1
 43
1.0
176
     1
 76
     1
176
     1
 77
     6
176
     1
 78
     2
176
     1
 67
     7
176
     1
 79
     5
176
     1
170
     0
176
     1
171
     0
176
     1
290
     0
176
     1
 93
       13
176
     1
 44
0.0
176
     1
173
     0
176
     1
  0
VISUALSTYLE
  5
37
102
{ACAD_REACTORS
330
2A
102
}
330
2A
100
AcDbVisualStyle
  2
Thicken
 70
    13
177
     2
291
     1
 71
     2
176
     1
 72
     2
176
     1
 73
     0
176
     1
 90
        0
176
     1
 40
-0.6
176
     1
 41
-30.0
176
     1
 62
     5
 63
     7
421
 16777215
176
     1
 74
     1
176
     1
 91
        4
176
     1
 64
     7
176
     1
 65
   257
176
     1
 75
     1
176
     1
175
     1
176
     1
 42
1.0
176
     1
 92
       12
176
     1
 66
     7
176
     1
 43
1.0
176
     1
 76
     1
176
     1
 77
     6
176
     1
 78
     2
176
     1
 67
     7
176
     1
 79
     5
176
     1
170
     0
176
     1
171
     0
176
     1
290
     0
176
     1
 93
        1
176
     1
 44
0.0
176
     1
173
     0
176
     1
  0
ENDSEC
  0
EOF
