  0
SECTION
  2
HEADER
  9
$ACADVER
  1
AC1024
  9
$ACADMAINTVER
 70
     6
  9
$DWGCODEPAGE
  3
UNDEFINED
  9
$INSBASE
 10
0.0
 20
0.0
 30
0.0
  9
$EXTMIN
 10
1.000000000000000E+20
 20
1.000000000000000E+20
 30
1.000000000000000E+20
  9
$EXTMAX
 10
-1.000000000000000E+20
 20
-1.000000000000000E+20
 30
-1.000000000000000E+20
  9
$LIMMIN
 10
0.0
 20
0.0
  9
$LIMMAX
 10
12.0
 20
9.0
  9
$ORTHOMODE
 70
     0
  9
$REGENMODE
 70
     1
  9
$FILLMODE
 70
     1
  9
$QTEXTMODE
 70
     0
  9
$MIRRTEXT
 70
     1
  9
$LTSCALE
 40
1.0
  9
$ATTMODE
 70
     1
  9
$TEXTSIZE
 40
0.2
  9
$TRACEWID
 40
0.05
  9
$TEXTSTYLE
  7
Standard
  9
$CLAYER
  8
0
  9
$CELTYPE
  6
ByLayer
  9
$CECOLOR
 62
   256
  9
$CELTSCALE
 40
1.0
  9
$DISPSILH
 70
     0
  9
$DIMSCALE
 40
1.0
  9
$DIMASZ
 40
0.18
  9
$DIMEXO
 40
0.0625
  9
$DIMDLI
 40
0.38
  9
$DIMRND
 40
0.0
  9
$DIMDLE
 40
0.0
  9
$DIMEXE
 40
0.18
  9
$DIMTP
 40
0.0
  9
$DIMTM
 40
0.0
  9
$DIMTXT
 40
0.18
  9
$DIMCEN
 40
0.09
  9
$DIMTSZ
 40
0.0
  9
$DIMTOL
 70
     0
  9
$DIMLIM
 70
     0
  9
$DIMTIH
 70
     1
  9
$DIMTOH
 70
     1
  9
$DIMSE1
 70
     0
  9
$DIMSE2
 70
     0
  9
$DIMTAD
 70
     0
  9
$DIMZIN
 70
     0
  9
$DIMBLK
  1

  9
$DIMASO
 70
     1
  9
$DIMSHO
 70
     1
  9
$DIMPOST
  1

  9
$DIMAPOST
  1

  9
$DIMALT
 70
     0
  9
$DIMALTD
 70
     2
  9
$DIMALTF
 40
25.4
  9
$DIMLFAC
 40
1.0
  9
$DIMTOFL
 70
     0
  9
$DIMTVP
 40
0.0
  9
$DIMTIX
 70
     0
  9
$DIMSOXD
 70
     0
  9
$DIMSAH
 70
     0
  9
$DIMBLK1
  1

  9
$DIMBLK2
  1

  9
$DIMSTYLE
  2
Standard
  9
$DIMCLRD
 70
     0
  9
$DIMCLRE
 70
     0
  9
$DIMCLRT
 70
     0
  9
$DIMTFAC
 40
1.0
  9
$DIMGAP
 40
0.09
  9
$DIMJUST
 70
     0
  9
$DIMSD1
 70
     0
  9
$DIMSD2
 70
     0
  9
$DIMTOLJ
 70
     1
  9
$DIMTZIN
 70
     0
  9
$DIMALTZ
 70
     0
  9
$DIMALTTZ
 70
     0
  9
$DIMUPT
 70
     0
  9
$DIMDEC
 70
     4
  9
$DIMTDEC
 70
     4
  9
$DIMALTU
 70
     2
  9
$DIMALTTD
 70
     2
  9
$DIMTXSTY
  7
Standard
  9
$DIMAUNIT
 70
     0
  9
$DIMADEC
 70
     0
  9
$DIMALTRND
 40
0.0
  9
$DIMAZIN
 70
     0
  9
$DIMDSEP
 70
    46
  9
$DIMATFIT
 70
     3
  9
$DIMFRAC
 70
     0
  9
$DIMLDRBLK
  1

  9
$DIMLUNIT
 70
     2
  9
$DIMLWD
 70
    -2
  9
$DIMLWE
 70
    -2
  9
$DIMTMOVE
 70
     0
  9
$DIMFXL
 40
1.0
  9
$DIMFXLON
 70
     0
  9
$DIMJOGANG
 40
0.7853981633974483
  9
$DIMTFILL
 70
     0
  9
$DIMTFILLCLR
 70
     0
  9
$DIMARCSYM
 70
     0
  9
$DIMLTYPE
  6

  9
$DIMLTEX1
  6

  9
$DIMLTEX2
  6

  9
$DIMTXTDIRECTION
 70
     0
  9
$LUNITS
 70
     2
  9
$LUPREC
 70
     4
  9
$SKETCHINC
 40
0.1
  9
$FILLETRAD
 40
0.5
  9
$AUNITS
 70
     0
  9
$AUPREC
 70
     0
  9
$MENU
  1
.
  9
$ELEVATION
 40
0.0
  9
$PELEVATION
 40
0.0
  9
$THICKNESS
 40
0.0
  9
$LIMCHECK
 70
     0
  9
$CHAMFERA
 40
0.5
  9
$CHAMFERB
 40
0.5
  9
$CHAMFERC
 40
1.0
  9
$CHAMFERD
 40
0.0
  9
$SKPOLY
 70
     0
  9
$TDCREATE
 40
2457917.593842581
  9
$TDUCREATE
 40
2457917.218842593
  9
$TDUPDATE
 40
2457917.593842581
  9
$TDUUPDATE
 40
2457917.218842593
  9
$TDINDWG
 40
0.0000000116
  9
$TDUSRTIMER
 40
0.0000000116
  9
$USRTIMER
 70
     1
  9
$ANGBASE
 50
0.0
  9
$ANGDIR
 70
     0
  9
$PDMODE
 70
     0
  9
$PDSIZE
 40
0.0
  9
$PLINEWID
 40
0.0
  9
$SPLFRAME
 70
     0
  9
$SPLINETYPE
 70
     6
  9
$SPLINESEGS
 70
     8
  9
$HANDSEED
  5
102
  9
$SURFTAB1
 70
     6
  9
$SURFTAB2
 70
     6
  9
$SURFTYPE
 70
     6
  9
$SURFU
 70
     6
  9
$SURFV
 70
     6
  9
$UCSBASE
  2

  9
$UCSNAME
  2

  9
$UCSORG
 10
0.0
 20
0.0
 30
0.0
  9
$UCSXDIR
 10
1.0
 20
0.0
 30
0.0
  9
$UCSYDIR
 10
0.0
 20
1.0
 30
0.0
  9
$UCSORTHOREF
  2

  9
$UCSORTHOVIEW
 70
     0
  9
$UCSORGTOP
 10
0.0
 20
0.0
 30
0.0
  9
$UCSORGBOTTOM
 10
0.0
 20
0.0
 30
0.0
  9
$UCSORGLEFT
 10
0.0
 20
0.0
 30
0.0
  9
$UCSORGRIGHT
 10
0.0
 20
0.0
 30
0.0
  9
$UCSORGFRONT
 10
0.0
 20
0.0
 30
0.0
  9
$UCSORGBACK
 10
0.0
 20
0.0
 30
0.0
  9
$PUCSBASE
  2

  9
$PUCSNAME
  2

  9
$PUCSORG
 10
0.0
 20
0.0
 30
0.0
  9
$PUCSXDIR
 10
1.0
 20
0.0
 30
0.0
  9
$PUCSYDIR
 10
0.0
 20
1.0
 30
0.0
  9
$PUCSORTHOREF
  2

  9
$PUCSORTHOVIEW
 70
     0
  9
$PUCSORGTOP
 10
0.0
 20
0.0
 30
0.0
  9
$PUCSORGBOTTOM
 10
0.0
 20
0.0
 30
0.0
  9
$PUCSORGLEFT
 10
0.0
 20
0.0
 30
0.0
  9
$PUCSORGRIGHT
 10
0.0
 20
0.0
 30
0.0
  9
$PUCSORGFRONT
 10
0.0
 20
0.0
 30
0.0
  9
$PUCSORGBACK
 10
0.0
 20
0.0
 30
0.0
  9
$USERI1
 70
     0
  9
$USERI2
 70
     0
  9
$USERI3
 70
     0
  9
$USERI4
 70
     0
  9
$USERI5
 70
     0
  9
$USERR1
 40
0.0
  9
$USERR2
 40
0.0
  9
$USERR3
 40
0.0
  9
$USERR4
 40
0.0
  9
$USERR5
 40
0.0
  9
$WORLDVIEW
 70
     1
  9
$SHADEDGE
 70
     3
  9
$SHADEDIF
 70
    70
  9
$TILEMODE
 70
     1
  9
$MAXACTVP
 70
    64
  9
$PINSBASE
 10
0.0
 20
0.0
 30
0.0
  9
$PLIMCHECK
 70
     0
  9
$PEXTMIN
 10
1.000000000000000E+20
 20
1.000000000000000E+20
 30
1.000000000000000E+20
  9
$PEXTMAX
 10
-1.000000000000000E+20
 20
-1.000000000000000E+20
 30
-1.000000000000000E+20
  9
$PLIMMIN
 10
0.0
 20
0.0
  9
$PLIMMAX
 10
12.0
 20
9.0
  9
$UNITMODE
 70
     0
  9
$VISRETAIN
 70
     1
  9
$PLINEGEN
 70
     0
  9
$PSLTSCALE
 70
     1
  9
$TREEDEPTH
 70
  3020
  9
$CMLSTYLE
  2
Standard
  9
$CMLJUST
 70
     0
  9
$CMLSCALE
 40
1.0
  9
$PROXYGRAPHICS
 70
     1
  9
$MEASUREMENT
 70
     0
  9
$CELWEIGHT
370
    -1
  9
$ENDCAPS
280
     0
  9
$JOINSTYLE
280
     0
  9
$LWDISPLAY
290
     1
  9
$INSUNITS
 70
     1
  9
$HYPERLINKBASE
  1

  9
$STYLESHEET
  1

  9
$XEDIT
290
     1
  9
$CEPSNTYPE
380
     0
  9
$PSTYLEMODE
290
     1
  9
$FINGERPRINTGUID
  2
{7DF715D5-4D8B-A66C-0F8B-4590F396B457}
  9
$VERSIONGUID
  2
{FAEB1C32-E019-11D5-929B-00C0DF256EC4}
  9
$EXTNAMES
290
     1
  9
$PSVPSCALE
 40
0.0
  9
$OLESTARTUP
290
     0
  9
$SORTENTS
280
   127
  9
$INDEXCTL
280
     0
  9
$HIDETEXT
280
     1
  9
$XCLIPFRAME
280
     2
  9
$HALOGAP
280
     0
  9
$OBSCOLOR
 70
   257
  9
$OBSLTYPE
280
     0
  9
$INTERSECTIONDISPLAY
280
     0
  9
$INTERSECTIONCOLOR
 70
   257
  9
$DIMASSOC
280
     2
  9
$PROJECTNAME
  1

  9
$CAMERADISPLAY
290
     0
  9
$LENSLENGTH
 40
50.0
  9
$CAMERAHEIGHT
 40
0.0
  9
$STEPSPERSEC
 40
2.0
  9
$STEPSIZE
 40
6.0
  9
$3DDWFPREC
 40
2.0
  9
$PSOLWIDTH
 40
0.25
  9
$PSOLHEIGHT
 40
4.0
  9
$LOFTANG1
 40
1.570796326794897
  9
$LOFTANG2
 40
1.570796326794897
  9
$LOFTMAG1
 40
0.0
  9
$LOFTMAG2
 40
0.0
  9
$LOFTPARAM
 70
     7
  9
$LOFTNORMALS
280
     1
  9
$LATITUDE
 40
37.795
  9
$LONGITUDE
 40
-122.394
  9
$NORTHDIRECTION
 40
0.0
  9
$TIMEZONE
 70
 -8000
  9
$LIGHTGLYPHDISPLAY
280
     1
  9
$TILEMODELIGHTSYNCH
280
     1
  9
$CMATERIAL
347
3C
  9
$SOLIDHIST
280
     1
  9
$SHOWHIST
280
     1
  9
$DWFFRAME
280
     2
  9
$DGNFRAME
280
     2
  9
$REALWORLDSCALE
290
     1
  9
$INTERFERECOLOR
 62
   256
  9
$CSHADOW
280
     0
  9
$SHADOWPLANELOCATION
 40
0.0
  0
ENDSEC
  0
SECTION
  2
CLASSES
  0
CLASS
  1
ACDBDICTIONARYWDFLT
  2
AcDbDictionaryWithDefault
  3
ObjectDBX Classes
 90
        0
 91
        4
280
     0
281
     0
  0
CLASS
  1
VISUALSTYLE
  2
AcDbVisualStyle
  3
ObjectDBX Classes
 90
     4095
 91
        4
280
     0
281
     0
  0
CLASS
  1
MATERIAL
  2
AcDbMaterial
  3
ObjectDBX Classes
 90
     1153
 91
        4
280
     0
281
     0
  0
CLASS
  1
SUN
  2
AcDbSun
  3
SCENEOE
 90
     1024
 91
        4
280
     0
281
     0
  0
ENDSEC
  0
SECTION
  2
TABLES
  0
TABLE
  2
VPORT
  5
8
330
0
100
AcDbSymbolTable
 70
     1
  0
VPORT
  5
29
330
8
100
AcDbSymbolTableRecord
100
AcDbViewportTableRecord
  2
*Active
 70
     0
 10
0.0
 20
0.0
 11
1.0
 21
1.0
 12
0.0
 22
0.0
 13
0.0
 23
0.0
 14
0.5
 24
0.5
 15
0.5
 25
0.5
 16
0.0
 26
0.0
 36
1.0
 17
91.00082462281999
 27
-128.4993055234307
 37
0.0
 40
256.9986110468615
 41
0.7081814508812795
 42
50.0
 43
0.0
 44
0.0
 50
0.0
 51
0.0
 71
     0
 72
   100
 73
     1
 74
     3
 75
     0
 76
     0
 77
     0
 78
     0
281
     0
 65
     1
110
0.0
120
0.0
130
0.0
111
1.0
121
0.0
131
0.0
112
0.0
122
1.0
132
0.0
 79
     0
146
0.0
 60
     3
 61
     5
292
     1
282
     1
141
0.0
142
0.0
 63
   250
361
3F
  0
ENDTAB
  0
TABLE
  2
LTYPE
  5
5
330
0
100
AcDbSymbolTable
 70
     1
  0
LTYPE
  5
14
330
5
100
AcDbSymbolTableRecord
100
AcDbLinetypeTableRecord
  2
ByBlock
 70
     0
  3

 72
    65
 73
     0
 40
0.0
  0
LTYPE
  5
15
330
5
100
AcDbSymbolTableRecord
100
AcDbLinetypeTableRecord
  2
ByLayer
 70
     0
  3

 72
    65
 73
     0
 40
0.0
  0
LTYPE
  5
16
330
5
100
AcDbSymbolTableRecord
100
AcDbLinetypeTableRecord
  2
Continuous
 70
     0
  3
Solid line
 72
    65
 73
     0
 40
0.0
  0
ENDTAB
  0
TABLE
  2
LAYER
  5
2
330
0
100
AcDbSymbolTable
 70
     2
  0
LAYER
  5
10
330
2
100
AcDbSymbolTableRecord
100
AcDbLayerTableRecord
  2
0
 70
     0
 62
     7
  6
Continuous
370
    -3
390
F
347
3E
  0
LAYER
  5
40
330
2
100
AcDbSymbolTableRecord
100
AcDbLayerTableRecord
  2
_U+30EC_U+30A4_U+30E4_U+30FC 1
 70
     0
 62
     7
  6
Continuous
370
    -3
390
F
347
3E
  0
ENDTAB
  0
TABLE
  2
STYLE
  5
3
330
0
100
AcDbSymbolTable
 70
     1
  0
STYLE
  5
11
330
3
100
AcDbSymbolTableRecord
100
AcDbTextStyleTableRecord
  2
Standard
 70
     0
 40
0.0
 41
1.0
 50
0.0
 71
     0
 42
0.2
  3
txt
  4

  0
ENDTAB
  0
TABLE
  2
VIEW
  5
6
330
0
100
AcDbSymbolTable
 70
     0
  0
ENDTAB
  0
TABLE
  2
UCS
  5
7
330
0
100
AcDbSymbolTable
 70
     0
  0
ENDTAB
  0
TABLE
  2
APPID
  5
9
330
0
100
AcDbSymbolTable
 70
     1
  0
APPID
  5
12
330
9
100
AcDbSymbolTableRecord
100
AcDbRegAppTableRecord
  2
ACAD
 70
     0
  0
ENDTAB
  0
TABLE
  2
DIMSTYLE
  5
A
330
0
100
AcDbSymbolTable
 70
     1
100
AcDbDimStyleTable
  0
DIMSTYLE
105
27
330
A
100
AcDbSymbolTableRecord
100
AcDbDimStyleTableRecord
  2
Standard
 70
     0
178
     0
340
11
  0
ENDTAB
  0
TABLE
  2
BLOCK_RECORD
  5
1
330
0
100
AcDbSymbolTable
 70
     7
  0
BLOCK_RECORD
  5
1F
330
1
100
AcDbSymbolTableRecord
100
AcDbBlockTableRecord
  2
*Model_Space
340
22
 70
     0
280
     1
281
     0
  0
BLOCK_RECORD
  5
1B
330
1
100
AcDbSymbolTableRecord
100
AcDbBlockTableRecord
  2
*Paper_Space
340
1E
 70
     0
280
     1
281
     0
  0
BLOCK_RECORD
  5
23
330
1
100
AcDbSymbolTableRecord
100
AcDbBlockTableRecord
  2
*Paper_Space0
340
26
 70
     0
280
     1
281
     0
  0
BLOCK_RECORD
  5
81
330
1
100
AcDbSymbolTableRecord
100
AcDbBlockTableRecord
  2
block 2
340
0
102
{BLKREFS
331
82
102
}
 70
     0
280
     1
281
     0
  0
BLOCK_RECORD
  5
95
330
1
100
AcDbSymbolTableRecord
100
AcDbBlockTableRecord
  2
block 3
340
0
102
{BLKREFS
331
96
102
}
 70
     0
280
     1
281
     0
  0
BLOCK_RECORD
  5
AF
330
1
100
AcDbSymbolTableRecord
100
AcDbBlockTableRecord
  2
block 4
340
0
102
{BLKREFS
331
B0
102
}
 70
     0
280
     1
281
     0
  0
BLOCK_RECORD
  5
D0
330
1
100
AcDbSymbolTableRecord
100
AcDbBlockTableRecord
  2
block 5
340
0
102
{BLKREFS
331
D1
102
}
 70
     0
280
     1
281
     0
  0
BLOCK_RECORD
  5
EC
330
1
100
AcDbSymbolTableRecord
100
AcDbBlockTableRecord
  2
block 6
340
0
102
{BLKREFS
331
ED
102
}
 70
     0
280
     1
281
     0
  0
BLOCK_RECORD
  5
FA
330
1
100
AcDbSymbolTableRecord
100
AcDbBlockTableRecord
  2
block 7
340
0
102
{BLKREFS
331
FB
102
}
 70
     0
280
     1
281
     0
  0
ENDTAB
  0
ENDSEC
  0
SECTION
  2
BLOCKS
  0
BLOCK
  5
20
330
1F
100
AcDbEntity
  8
0
100
AcDbBlockBegin
  2
*Model_Space
 70
     0
 10
0.0
 20
0.0
 30
0.0
  3
*Model_Space
  1

  0
ENDBLK
  5
21
330
1F
100
AcDbEntity
  8
0
100
AcDbBlockEnd
  0
BLOCK
  5
1C
330
1B
100
AcDbEntity
 67
     1
  8
0
100
AcDbBlockBegin
  2
*Paper_Space
 70
     0
 10
0.0
 20
0.0
 30
0.0
  3
*Paper_Space
  1

  0
ENDBLK
  5
1D
330
1B
100
AcDbEntity
 67
     1
  8
0
100
AcDbBlockEnd
  0
BLOCK
  5
24
330
23
100
AcDbEntity
  8
0
100
AcDbBlockBegin
  2
*Paper_Space0
 70
     0
 10
0.0
 20
0.0
 30
0.0
  3
*Paper_Space0
  1

  0
ENDBLK
  5
25
330
23
100
AcDbEntity
  8
0
100
AcDbBlockEnd
  0
BLOCK
  5
83
330
81
100
AcDbEntity
  8
0
100
AcDbBlockBegin
  2
block 2
 70
     0
 10
0.0
 20
0.0
 30
0.0
  3
block 2
  1

  0
SPLINE
  5
85
330
81
100
AcDbEntity
  8
_U+30EC_U+30A4_U+30E4_U+30FC 1
370
     0
100
AcDbSpline
210
0.0
220
0.0
230
1.0
 70
    11
 71
     3
 72
    29
 73
    25
 74
     0
 42
0.0000000001
 43
0.0000000001
 12
1.0
 22
0.0
 32
0.0
 13
1.0
 23
0.0
 33
0.0
 40
0.0
 40
0.0
 40
0.0
 40
0.0
 40
1.0
 40
1.0
 40
1.0
 40
2.0
 40
2.0
 40
2.0
 40
3.0
 40
3.0
 40
3.0
 40
4.0
 40
4.0
 40
4.0
 40
5.0
 40
5.0
 40
5.0
 40
6.0
 40
6.0
 40
6.0
 40
7.0
 40
7.0
 40
7.0
 40
8.0
 40
8.0
 40
8.0
 40
8.0
 10
85.48866642828061
 20
-121.8197821418541
 30
0.0
 10
85.22218829249654
 20
-121.8197821418541
 30
0.0
 10
84.96828475523363
 20
-121.6821505772184
 30
0.0
 10
84.96828475523363
 20
-121.3331624045625
 30
0.0
 10
84.96828475523363
 20
-121.0771918100085
 30
0.0
 10
85.11005043445165
 20
-120.9819349198413
 30
0.0
 10
85.21581486584883
 20
-120.9206122202039
 30
0.0
 10
85.09093015450853
 20
-120.8613565778576
 30
0.0
 10
85.0147935442845
 20
-120.7471516625215
 30
0.0
 10
85.0147935442845
 20
-120.5864379581347
 30
0.0
 10
85.0147935442845
 20
-120.3113470836374
 30
0.0
 10
85.21374780855768
 20
-120.1759548310671
 30
0.0
 10
85.48866642828061
 20
-120.1759548310671
 30
0.0
 10
85.77219778671667
 20
-120.1759548310671
 30
0.0
 10
85.96253931227673
 20
-120.3197875675763
 30
0.0
 10
85.96253931227673
 20
-120.5864379581347
 30
0.0
 10
85.96253931227673
 20
-120.7471516625215
 30
0.0
 10
85.88433564476156
 20
-120.8613565778576
 30
0.0
 10
85.75945093342125
 20
-120.9206122202039
 30
0.0
 10
85.8483343969407
 20
-120.9714273786113
 30
0.0
 10
86.00698104403645
 20
-121.0666842687785
 30
0.0
 10
86.00698104403645
 20
-121.3290282899802
 30
0.0
 10
86.00698104403645
 20
-121.7033379144526
 30
0.0
 10
85.72775605495696
 20
-121.8197821418541
 30
0.0
 10
85.48866642828061
 20
-121.8197821418541
 30
0.0
  0
SPLINE
  5
86
330
81
100
AcDbEntity
  8
_U+30EC_U+30A4_U+30E4_U+30FC 1
370
     0
100
AcDbSpline
210
0.0
220
0.0
230
1.0
 70
    11
 71
     3
 72
    17
 73
    13
 74
     0
 42
0.0000000001
 43
0.0000000001
 12
1.0
 22
0.0
 32
0.0
 13
1.0
 23
0.0
 33
0.0
 40
0.0
 40
0.0
 40
0.0
 40
0.0
 40
1.0
 40
1.0
 40
1.0
 40
2.0
 40
2.0
 40
2.0
 40
3.0
 40
3.0
 40
3.0
 40
4.0
 40
4.0
 40
4.0
 40
4.0
 10
85.48866642828061
 20
-121.0286159636665
 30
0.0
 10
85.34483369177144
 20
-121.0286159636665
 30
0.0
 10
85.19256047132339
 20
-121.1152601151205
 30
0.0
 10
85.19256047132339
 20
-121.318348493976
 30
0.0
 10
85.19256047132339
 20
-121.5235039301226
 30
0.0
 10
85.31951223995485
 20
-121.6251342469375
 30
0.0
 10
85.48866642828061
 20
-121.6251342469375
 30
0.0
 10
85.67487383925837
 20
-121.6251342469375
 30
0.0
 10
85.7849446400121
 20
-121.5024888476626
 30
0.0
 10
85.7849446400121
 20
-121.3247219206237
 30
0.0
 10
85.7849446400121
 20
-121.1025132618251
 30
0.0
 10
85.62199162355978
 20
-121.0286159636665
 30
0.0
 10
85.48866642828061
 20
-121.0286159636665
 30
0.0
  0
SPLINE
  5
87
330
81
100
AcDbEntity
  8
_U+30EC_U+30A4_U+30E4_U+30FC 1
370
     0
100
AcDbSpline
210
0.0
220
0.0
230
1.0
 70
    11
 71
     3
 72
    17
 73
    13
 74
     0
 42
0.0000000001
 43
0.0000000001
 12
1.0
 22
0.0
 32
0.0
 13
1.0
 23
0.0
 33
0.0
 40
0.0
 40
0.0
 40
0.0
 40
0.0
 40
1.0
 40
1.0
 40
1.0
 40
2.0
 40
2.0
 40
2.0
 40
3.0
 40
3.0
 40
3.0
 40
4.0
 40
4.0
 40
4.0
 40
4.0
 10
85.48866642828061
 20
-120.3685356686926
 30
0.0
 10
85.32364635453715
 20
-120.3685356686926
 30
0.0
 10
85.23906926037427
 20
-120.4636203040855
 30
0.0
 10
85.23906926037427
 20
-120.5990125566558
 30
0.0
 10
85.23906926037427
 20
-120.721830210705
 30
0.0
 10
85.31107175601599
 20
-120.8403414953976
 30
0.0
 10
85.48866642828061
 20
-120.8403414953976
 30
0.0
 10
85.66643335531951
 20
-120.8403414953976
 30
0.0
 10
85.73826359618697
 20
-120.721830210705
 30
0.0
 10
85.73826359618697
 20
-120.5990125566558
 30
0.0
 10
85.73826359618697
 20
-120.4636203040855
 30
0.0
 10
85.65161944473293
 20
-120.3685356686926
 30
0.0
 10
85.48866642828061
 20
-120.3685356686926
 30
0.0
  0
HATCH
  5
88
330
81
100
AcDbEntity
  8
_U+30EC_U+30A4_U+30E4_U+30FC 1
 62
     7
420
 16777215
100
AcDbHatch
 10
0.0
 20
0.0
 30
0.0
210
0.0
220
0.0
230
1.0
  2
SOLID
 70
     1
 71
     0
 91
        3
 92
        1
 93
        1
 72
     4
 94
        3
 73
     0
 74
     1
 95
       29
 96
       25
 40
0.0
 40
0.0
 40
0.0
 40
0.0
 40
1.0
 40
1.0
 40
1.0
 40
2.0
 40
2.0
 40
2.0
 40
3.0
 40
3.0
 40
3.0
 40
4.0
 40
4.0
 40
4.0
 40
5.0
 40
5.0
 40
5.0
 40
6.0
 40
6.0
 40
6.0
 40
7.0
 40
7.0
 40
7.0
 40
8.0
 40
8.0
 40
8.0
 40
8.0
 10
85.48866642828061
 20
-121.8197821418541
 10
85.22218829249654
 20
-121.8197821418541
 10
84.96828475523363
 20
-121.6821505772184
 10
84.96828475523363
 20
-121.3331624045625
 10
84.96828475523363
 20
-121.0771918100085
 10
85.11005043445165
 20
-120.9819349198413
 10
85.21581486584883
 20
-120.9206122202039
 10
85.09093015450853
 20
-120.8613565778576
 10
85.0147935442845
 20
-120.7471516625215
 10
85.0147935442845
 20
-120.5864379581347
 10
85.0147935442845
 20
-120.3113470836374
 10
85.21374780855768
 20
-120.1759548310671
 10
85.48866642828061
 20
-120.1759548310671
 10
85.77219778671667
 20
-120.1759548310671
 10
85.96253931227673
 20
-120.3197875675763
 10
85.96253931227673
 20
-120.5864379581347
 10
85.96253931227673
 20
-120.7471516625215
 10
85.88433564476156
 20
-120.8613565778576
 10
85.75945093342125
 20
-120.9206122202039
 10
85.8483343969407
 20
-120.9714273786113
 10
86.00698104403645
 20
-121.0666842687785
 10
86.00698104403645
 20
-121.3290282899802
 10
86.00698104403645
 20
-121.7033379144526
 10
85.72775605495696
 20
-121.8197821418541
 10
85.48866642828061
 20
-121.8197821418541
 97
        0
 97
        0
 92
        1
 93
        1
 72
     4
 94
        3
 73
     0
 74
     1
 95
       17
 96
       13
 40
0.0
 40
0.0
 40
0.0
 40
0.0
 40
1.0
 40
1.0
 40
1.0
 40
2.0
 40
2.0
 40
2.0
 40
3.0
 40
3.0
 40
3.0
 40
4.0
 40
4.0
 40
4.0
 40
4.0
 10
85.48866642828061
 20
-121.0286159636665
 10
85.34483369177144
 20
-121.0286159636665
 10
85.19256047132339
 20
-121.1152601151205
 10
85.19256047132339
 20
-121.318348493976
 10
85.19256047132339
 20
-121.5235039301226
 10
85.31951223995485
 20
-121.6251342469375
 10
85.48866642828061
 20
-121.6251342469375
 10
85.67487383925837
 20
-121.6251342469375
 10
85.7849446400121
 20
-121.5024888476626
 10
85.7849446400121
 20
-121.3247219206237
 10
85.7849446400121
 20
-121.1025132618251
 10
85.62199162355978
 20
-121.0286159636665
 10
85.48866642828061
 20
-121.0286159636665
 97
        0
 97
        0
 92
        1
 93
        1
 72
     4
 94
        3
 73
     0
 74
     1
 95
       17
 96
       13
 40
0.0
 40
0.0
 40
0.0
 40
0.0
 40
1.0
 40
1.0
 40
1.0
 40
2.0
 40
2.0
 40
2.0
 40
3.0
 40
3.0
 40
3.0
 40
4.0
 40
4.0
 40
4.0
 40
4.0
 10
85.48866642828061
 20
-120.3685356686926
 10
85.32364635453715
 20
-120.3685356686926
 10
85.23906926037427
 20
-120.4636203040855
 10
85.23906926037427
 20
-120.5990125566558
 10
85.23906926037427
 20
-120.721830210705
 10
85.31107175601599
 20
-120.8403414953976
 10
85.48866642828061
 20
-120.8403414953976
 10
85.66643335531951
 20
-120.8403414953976
 10
85.73826359618697
 20
-120.721830210705
 10
85.73826359618697
 20
-120.5990125566558
 10
85.73826359618697
 20
-120.4636203040855
 10
85.65161944473293
 20
-120.3685356686926
 10
85.48866642828061
 20
-120.3685356686926
 97
        0
 97
        0
 75
     2
 76
     1
 98
        0
  0
ENDBLK
  5
84
330
81
100
AcDbEntity
  8
0
100
AcDbBlockEnd
  0
BLOCK
  5
97
330
95
100
AcDbEntity
  8
0
100
AcDbBlockBegin
  2
block 3
 70
     0
 10
0.0
 20
0.0
 30
0.0
  3
block 3
  1

  0
SPLINE
  5
99
330
95
100
AcDbEntity
  8
_U+30EC_U+30A4_U+30E4_U+30FC 1
370
     0
100
AcDbSpline
210
0.0
220
0.0
230
1.0
 70
    11
 71
     3
 72
    26
 73
    22
 74
     0
 42
0.0000000001
 43
0.0000000001
 12
1.0
 22
0.0
 32
0.0
 13
1.0
 23
0.0
 33
0.0
 40
0.0
 40
0.0
 40
0.0
 40
0.0
 40
1.0
 40
1.0
 40
1.0
 40
2.0
 40
2.0
 40
2.0
 40
3.0
 40
3.0
 40
3.0
 40
4.0
 40
4.0
 40
4.0
 40
5.0
 40
5.0
 40
5.0
 40
6.0
 40
6.0
 40
6.0
 40
7.0
 40
7.0
 40
7.0
 40
7.0
 10
89.77367619283436
 20
-135.342643195331
 30
0.0
 10
89.77367619283436
 20
-135.342643195331
 30
0.0
 10
89.77367619283436
 20
-134.238834601857
 30
0.0
 10
89.77367619283436
 20
-134.238834601857
 30
0.0
 10
89.77367619283436
 20
-134.238834601857
 30
0.0
 10
89.44363604534743
 20
-134.238834601857
 30
0.0
 10
89.44363604534743
 20
-134.238834601857
 30
0.0
 10
89.44363604534743
 20
-134.238834601857
 30
0.0
 10
89.44363604534743
 20
-134.0906954959912
 30
0.0
 10
89.44363604534743
 20
-134.0906954959912
 30
0.0
 10
89.77574325012552
 20
-134.0755370758561
 30
0.0
 10
89.82225203917639
 20
-133.9129285689523
 30
0.0
 10
89.85187986034954
 20
-133.798551398842
 30
0.0
 10
89.85187986034954
 20
-133.798551398842
 30
0.0
 10
89.99795190892412
 20
-133.798551398842
 30
0.0
 10
89.99795190892412
 20
-133.798551398842
 30
0.0
 10
89.99795190892412
 20
-133.798551398842
 30
0.0
 10
89.99795190892412
 20
-135.342643195331
 30
0.0
 10
89.99795190892412
 20
-135.342643195331
 30
0.0
 10
89.99795190892412
 20
-135.342643195331
 30
0.0
 10
89.77367619283436
 20
-135.342643195331
 30
0.0
 10
89.77367619283436
 20
-135.342643195331
 30
0.0
  0
HATCH
  5
9A
330
95
100
AcDbEntity
  8
_U+30EC_U+30A4_U+30E4_U+30FC 1
 62
     7
420
 16777215
100
AcDbHatch
 10
0.0
 20
0.0
 30
0.0
210
0.0
220
0.0
230
1.0
  2
SOLID
 70
     1
 71
     0
 91
        1
 92
        1
 93
        1
 72
     4
 94
        3
 73
     0
 74
     1
 95
       26
 96
       22
 40
0.0
 40
0.0
 40
0.0
 40
0.0
 40
1.0
 40
1.0
 40
1.0
 40
2.0
 40
2.0
 40
2.0
 40
3.0
 40
3.0
 40
3.0
 40
4.0
 40
4.0
 40
4.0
 40
5.0
 40
5.0
 40
5.0
 40
6.0
 40
6.0
 40
6.0
 40
7.0
 40
7.0
 40
7.0
 40
7.0
 10
89.77367619283436
 20
-135.342643195331
 10
89.77367619283436
 20
-135.342643195331
 10
89.77367619283436
 20
-134.238834601857
 10
89.77367619283436
 20
-134.238834601857
 10
89.77367619283436
 20
-134.238834601857
 10
89.44363604534743
 20
-134.238834601857
 10
89.44363604534743
 20
-134.238834601857
 10
89.44363604534743
 20
-134.238834601857
 10
89.44363604534743
 20
-134.0906954959912
 10
89.44363604534743
 20
-134.0906954959912
 10
89.77574325012552
 20
-134.0755370758561
 10
89.82225203917639
 20
-133.9129285689523
 10
89.85187986034954
 20
-133.798551398842
 10
89.85187986034954
 20
-133.798551398842
 10
89.99795190892412
 20
-133.798551398842
 10
89.99795190892412
 20
-133.798551398842
 10
89.99795190892412
 20
-133.798551398842
 10
89.99795190892412
 20
-135.342643195331
 10
89.99795190892412
 20
-135.342643195331
 10
89.99795190892412
 20
-135.342643195331
 10
89.77367619283436
 20
-135.342643195331
 10
89.77367619283436
 20
-135.342643195331
 97
        0
 97
        0
 75
     2
 76
     1
 98
        0
  0
SPLINE
  5
9B
330
95
100
AcDbEntity
  8
_U+30EC_U+30A4_U+30E4_U+30FC 1
370
     0
100
AcDbSpline
210
0.0
220
0.0
230
1.0
 70
    11
 71
     3
 72
    29
 73
    25
 74
     0
 42
0.0000000001
 43
0.0000000001
 12
1.0
 22
0.0
 32
0.0
 13
1.0
 23
0.0
 33
0.0
 40
0.0
 40
0.0
 40
0.0
 40
0.0
 40
1.0
 40
1.0
 40
1.0
 40
2.0
 40
2.0
 40
2.0
 40
3.0
 40
3.0
 40
3.0
 40
4.0
 40
4.0
 40
4.0
 40
5.0
 40
5.0
 40
5.0
 40
6.0
 40
6.0
 40
6.0
 40
7.0
 40
7.0
 40
7.0
 40
8.0
 40
8.0
 40
8.0
 40
8.0
 10
90.99909665693772
 20
-135.3936306085127
 30
0.0
 10
90.7324462663794
 20
-135.3936306085127
 30
0.0
 10
90.47888723866501
 20
-135.2558267891027
 30
0.0
 10
90.47888723866501
 20
-134.9071831259954
 30
0.0
 10
90.47888723866501
 20
-134.6508680218928
 30
0.0
 10
90.62048066310878
 20
-134.5557833864999
 30
0.0
 10
90.72624509450594
 20
-134.4944606868625
 30
0.0
 10
90.6015326379399
 20
-134.4352050445162
 30
0.0
 10
90.52539602771587
 20
-134.3208278744059
 30
0.0
 10
90.52539602771587
 20
-134.1602864247933
 30
0.0
 10
90.52539602771587
 20
-133.8853678050703
 30
0.0
 10
90.7241780372148
 20
-133.7496310429515
 30
0.0
 10
90.99909665693772
 20
-133.7496310429515
 30
0.0
 10
91.28262801537379
 20
-133.7496310429515
 30
0.0
 10
91.4731417957081
 20
-133.8936360342349
 30
0.0
 10
91.4731417957081
 20
-134.1602864247933
 30
0.0
 10
91.4731417957081
 20
-134.3208278744059
 30
0.0
 10
91.39459361864441
 20
-134.4352050445162
 30
0.0
 10
91.26988116207836
 20
-134.4944606868625
 30
0.0
 10
91.35876462559781
 20
-134.5454481000442
 30
0.0
 10
91.51758352746783
 20
-134.6405327354371
 30
0.0
 10
91.51758352746783
 20
-134.9030490114131
 30
0.0
 10
91.51758352746783
 20
-135.2771863811113
 30
0.0
 10
91.23818628361407
 20
-135.3936306085127
 30
0.0
 10
90.99909665693772
 20
-135.3936306085127
 30
0.0
  0
SPLINE
  5
9C
330
95
100
AcDbEntity
  8
_U+30EC_U+30A4_U+30E4_U+30FC 1
370
     0
100
AcDbSpline
210
0.0
220
0.0
230
1.0
 70
    11
 71
     3
 72
    17
 73
    13
 74
     0
 42
0.0000000001
 43
0.0000000001
 12
1.0
 22
0.0
 32
0.0
 13
1.0
 23
0.0
 33
0.0
 40
0.0
 40
0.0
 40
0.0
 40
0.0
 40
1.0
 40
1.0
 40
1.0
 40
2.0
 40
2.0
 40
2.0
 40
3.0
 40
3.0
 40
3.0
 40
4.0
 40
4.0
 40
4.0
 40
4.0
 10
90.99909665693772
 20
-134.6026366850994
 30
0.0
 10
90.85543617520281
 20
-134.6026366850994
 30
0.0
 10
90.70281844520625
 20
-134.6894530913276
 30
0.0
 10
90.70281844520625
 20
-134.8920247058603
 30
0.0
 10
90.70281844520625
 20
-135.0973523967812
 30
0.0
 10
90.82994246861196
 20
-135.1986382040476
 30
0.0
 10
90.99909665693772
 20
-135.1986382040476
 30
0.0
 10
91.18513181314123
 20
-135.1986382040476
 30
0.0
 10
91.29537486866921
 20
-135.0759928047727
 30
0.0
 10
91.29537486866921
 20
-134.8982258777338
 30
0.0
 10
91.29537486866921
 20
-134.6763617284837
 30
0.0
 10
91.1324218522169
 20
-134.6026366850994
 30
0.0
 10
90.99909665693772
 20
-134.6026366850994
 30
0.0
  0
SPLINE
  5
9D
330
95
100
AcDbEntity
  8
_U+30EC_U+30A4_U+30E4_U+30FC 1
370
     0
100
AcDbSpline
210
0.0
220
0.0
230
1.0
 70
    11
 71
     3
 72
    17
 73
    13
 74
     0
 42
0.0000000001
 43
0.0000000001
 12
1.0
 22
0.0
 32
0.0
 13
1.0
 23
0.0
 33
0.0
 40
0.0
 40
0.0
 40
0.0
 40
0.0
 40
1.0
 40
1.0
 40
1.0
 40
2.0
 40
2.0
 40
2.0
 40
3.0
 40
3.0
 40
3.0
 40
4.0
 40
4.0
 40
4.0
 40
4.0
 10
90.99909665693772
 20
-133.9425563901255
 30
0.0
 10
90.83407658319426
 20
-133.9425563901255
 30
0.0
 10
90.74967174380564
 20
-134.0376410255184
 30
0.0
 10
90.74967174380564
 20
-134.1726887685402
 30
0.0
 10
90.74967174380564
 20
-134.2953341678151
 30
0.0
 10
90.82132972989884
 20
-134.4138454525076
 30
0.0
 10
90.99909665693772
 20
-134.4138454525076
 30
0.0
 10
91.17686358397663
 20
-134.4138454525076
 30
0.0
 10
91.24886607961834
 20
-134.2953341678151
 30
0.0
 10
91.24886607961834
 20
-134.1726887685402
 30
0.0
 10
91.24886607961834
 20
-134.0376410255184
 30
0.0
 10
91.16204967339004
 20
-133.9425563901255
 30
0.0
 10
90.99909665693772
 20
-133.9425563901255
 30
0.0
  0
HATCH
  5
9E
330
95
100
AcDbEntity
  8
_U+30EC_U+30A4_U+30E4_U+30FC 1
 62
     7
420
 16777215
100
AcDbHatch
 10
0.0
 20
0.0
 30
0.0
210
0.0
220
0.0
230
1.0
  2
SOLID
 70
     1
 71
     0
 91
        3
 92
        1
 93
        1
 72
     4
 94
        3
 73
     0
 74
     1
 95
       29
 96
       25
 40
0.0
 40
0.0
 40
0.0
 40
0.0
 40
1.0
 40
1.0
 40
1.0
 40
2.0
 40
2.0
 40
2.0
 40
3.0
 40
3.0
 40
3.0
 40
4.0
 40
4.0
 40
4.0
 40
5.0
 40
5.0
 40
5.0
 40
6.0
 40
6.0
 40
6.0
 40
7.0
 40
7.0
 40
7.0
 40
8.0
 40
8.0
 40
8.0
 40
8.0
 10
90.99909665693772
 20
-135.3936306085127
 10
90.7324462663794
 20
-135.3936306085127
 10
90.47888723866501
 20
-135.2558267891027
 10
90.47888723866501
 20
-134.9071831259954
 10
90.47888723866501
 20
-134.6508680218928
 10
90.62048066310878
 20
-134.5557833864999
 10
90.72624509450594
 20
-134.4944606868625
 10
90.6015326379399
 20
-134.4352050445162
 10
90.52539602771587
 20
-134.3208278744059
 10
90.52539602771587
 20
-134.1602864247933
 10
90.52539602771587
 20
-133.8853678050703
 10
90.7241780372148
 20
-133.7496310429515
 10
90.99909665693772
 20
-133.7496310429515
 10
91.28262801537379
 20
-133.7496310429515
 10
91.4731417957081
 20
-133.8936360342349
 10
91.4731417957081
 20
-134.1602864247933
 10
91.4731417957081
 20
-134.3208278744059
 10
91.39459361864441
 20
-134.4352050445162
 10
91.26988116207836
 20
-134.4944606868625
 10
91.35876462559781
 20
-134.5454481000442
 10
91.51758352746783
 20
-134.6405327354371
 10
91.51758352746783
 20
-134.9030490114131
 10
91.51758352746783
 20
-135.2771863811113
 10
91.23818628361407
 20
-135.3936306085127
 10
90.99909665693772
 20
-135.3936306085127
 97
        0
 97
        0
 92
        1
 93
        1
 72
     4
 94
        3
 73
     0
 74
     1
 95
       17
 96
       13
 40
0.0
 40
0.0
 40
0.0
 40
0.0
 40
1.0
 40
1.0
 40
1.0
 40
2.0
 40
2.0
 40
2.0
 40
3.0
 40
3.0
 40
3.0
 40
4.0
 40
4.0
 40
4.0
 40
4.0
 10
90.99909665693772
 20
-134.6026366850994
 10
90.85543617520281
 20
-134.6026366850994
 10
90.70281844520625
 20
-134.6894530913276
 10
90.70281844520625
 20
-134.8920247058603
 10
90.70281844520625
 20
-135.0973523967812
 10
90.82994246861196
 20
-135.1986382040476
 10
90.99909665693772
 20
-135.1986382040476
 10
91.18513181314123
 20
-135.1986382040476
 10
91.29537486866921
 20
-135.0759928047727
 10
91.29537486866921
 20
-134.8982258777338
 10
91.29537486866921
 20
-134.6763617284837
 10
91.1324218522169
 20
-134.6026366850994
 10
90.99909665693772
 20
-134.6026366850994
 97
        0
 97
        0
 92
        1
 93
        1
 72
     4
 94
        3
 73
     0
 74
     1
 95
       17
 96
       13
 40
0.0
 40
0.0
 40
0.0
 40
0.0
 40
1.0
 40
1.0
 40
1.0
 40
2.0
 40
2.0
 40
2.0
 40
3.0
 40
3.0
 40
3.0
 40
4.0
 40
4.0
 40
4.0
 40
4.0
 10
90.99909665693772
 20
-133.9425563901255
 10
90.83407658319426
 20
-133.9425563901255
 10
90.74967174380564
 20
-134.0376410255184
 10
90.74967174380564
 20
-134.1726887685402
 10
90.74967174380564
 20
-134.2953341678151
 10
90.82132972989884
 20
-134.4138454525076
 10
90.99909665693772
 20
-134.4138454525076
 10
91.17686358397663
 20
-134.4138454525076
 10
91.24886607961834
 20
-134.2953341678151
 10
91.24886607961834
 20
-134.1726887685402
 10
91.24886607961834
 20
-134.0376410255184
 10
91.16204967339004
 20
-133.9425563901255
 10
90.99909665693772
 20
-133.9425563901255
 97
        0
 97
        0
 75
     2
 76
     1
 98
        0
  0
ENDBLK
  5
98
330
95
100
AcDbEntity
  8
0
100
AcDbBlockEnd
  0
BLOCK
  5
B1
330
AF
100
AcDbEntity
  8
0
100
AcDbBlockBegin
  2
block 4
 70
     0
 10
0.0
 20
0.0
 30
0.0
  3
block 4
  1

  0
SPLINE
  5
B3
330
AF
100
AcDbEntity
  8
_U+30EC_U+30A4_U+30E4_U+30FC 1
370
     0
100
AcDbSpline
210
0.0
220
0.0
230
1.0
 70
    11
 71
     3
 72
    29
 73
    25
 74
     0
 42
0.0000000001
 43
0.0000000001
 12
1.0
 22
0.0
 32
0.0
 13
1.0
 23
0.0
 33
0.0
 40
0.0
 40
0.0
 40
0.0
 40
0.0
 40
1.0
 40
1.0
 40
1.0
 40
2.0
 40
2.0
 40
2.0
 40
3.0
 40
3.0
 40
3.0
 40
4.0
 40
4.0
 40
4.0
 40
5.0
 40
5.0
 40
5.0
 40
6.0
 40
6.0
 40
6.0
 40
7.0
 40
7.0
 40
7.0
 40
8.0
 40
8.0
 40
8.0
 40
8.0
 10
102.3599880386461
 20
-133.5925346888241
 30
0.0
 10
102.5694498441493
 20
-133.7007106870609
 30
0.0
 10
102.5883978693182
 20
-133.8736544804205
 30
0.0
 10
102.5883978693182
 20
-133.9900987078219
 30
0.0
 10
102.5883978693182
 20
-134.1513291765316
 30
0.0
 10
102.5418890802673
 20
-134.2925780914269
 30
0.0
 10
102.3599880386461
 20
-134.3876627268198
 30
0.0
 10
102.1653401437295
 20
-134.4917046104743
 30
0.0
 10
101.9283175743443
 20
-134.5109971451917
 30
0.0
 10
101.7657090674405
 20
-134.5109971451917
 30
0.0
 10
101.6217040761571
 20
-134.5109971451917
 30
0.0
 10
101.3698675961853
 20
-134.4937716677655
 30
0.0
 10
101.1710855866864
 20
-134.3876627268198
 30
0.0
 10
100.9681694626052
 20
-134.2801757476799
 30
0.0
 10
100.9447428133055
 20
-134.1189452789703
 30
0.0
 10
100.9447428133055
 20
-133.9900987078219
 30
0.0
 10
100.9447428133055
 20
-133.8316243155004
 30
0.0
 10
100.9891845450652
 20
-133.687619324217
 30
0.0
 10
101.1710855866864
 20
-133.5925346888241
 30
0.0
 10
101.3636664243119
 20
-133.4933159388489
 30
0.0
 10
101.5920762549839
 20
-133.4698892895492
 30
0.0
 10
101.7657090674405
 20
-133.4698892895492
 30
0.0
 10
101.9369303130574
 20
-133.4698892895492
 30
0.0
 10
102.1674072010207
 20
-133.4912488815577
 30
0.0
 10
102.3599880386461
 20
-133.5925346888241
 30
0.0
  0
SPLINE
  5
B4
330
AF
100
AcDbEntity
  8
_U+30EC_U+30A4_U+30E4_U+30FC 1
370
     0
100
AcDbSpline
210
0.0
220
0.0
230
1.0
 70
    11
 71
     3
 72
    17
 73
    13
 74
     0
 42
0.0000000001
 43
0.0000000001
 12
1.0
 22
0.0
 32
0.0
 13
1.0
 23
0.0
 33
0.0
 40
0.0
 40
0.0
 40
0.0
 40
0.0
 40
1.0
 40
1.0
 40
1.0
 40
2.0
 40
2.0
 40
2.0
 40
3.0
 40
3.0
 40
3.0
 40
4.0
 40
4.0
 40
4.0
 40
4.0
 10
101.137323650931
 20
-133.9900987078219
 30
0.0
 10
101.137323650931
 20
-134.2402126400511
 30
0.0
 10
101.420855009367
 20
-134.2863769195534
 30
0.0
 10
101.7657090674405
 20
-134.2863769195534
 30
0.0
 10
102.0850694189232
 20
-134.2863769195534
 30
0.0
 10
102.3937499744016
 20
-134.2505479265068
 30
0.0
 10
102.3937499744016
 20
-133.9900987078219
 30
0.0
 10
102.3937499744016
 20
-133.742740851981
 30
0.0
 10
102.1126301828052
 20
-133.6938204960904
 30
0.0
 10
101.7657090674405
 20
-133.6938204960904
 30
0.0
 10
101.4460042064093
 20
-133.6938204960904
 30
0.0
 10
101.137323650931
 20
-133.7324055655252
 30
0.0
 10
101.137323650931
 20
-133.9900987078219
 30
0.0
  0
HATCH
  5
B5
330
AF
100
AcDbEntity
  8
_U+30EC_U+30A4_U+30E4_U+30FC 1
 62
     7
420
 16777215
100
AcDbHatch
 10
0.0
 20
0.0
 30
0.0
210
0.0
220
0.0
230
1.0
  2
SOLID
 70
     1
 71
     0
 91
        2
 92
        1
 93
        1
 72
     4
 94
        3
 73
     0
 74
     1
 95
       29
 96
       25
 40
0.0
 40
0.0
 40
0.0
 40
0.0
 40
1.0
 40
1.0
 40
1.0
 40
2.0
 40
2.0
 40
2.0
 40
3.0
 40
3.0
 40
3.0
 40
4.0
 40
4.0
 40
4.0
 40
5.0
 40
5.0
 40
5.0
 40
6.0
 40
6.0
 40
6.0
 40
7.0
 40
7.0
 40
7.0
 40
8.0
 40
8.0
 40
8.0
 40
8.0
 10
102.3599880386461
 20
-133.5925346888241
 10
102.5694498441493
 20
-133.7007106870609
 10
102.5883978693182
 20
-133.8736544804205
 10
102.5883978693182
 20
-133.9900987078219
 10
102.5883978693182
 20
-134.1513291765316
 10
102.5418890802673
 20
-134.2925780914269
 10
102.3599880386461
 20
-134.3876627268198
 10
102.1653401437295
 20
-134.4917046104743
 10
101.9283175743443
 20
-134.5109971451917
 10
101.7657090674405
 20
-134.5109971451917
 10
101.6217040761571
 20
-134.5109971451917
 10
101.3698675961853
 20
-134.4937716677655
 10
101.1710855866864
 20
-134.3876627268198
 10
100.9681694626052
 20
-134.2801757476799
 10
100.9447428133055
 20
-134.1189452789703
 10
100.9447428133055
 20
-133.9900987078219
 10
100.9447428133055
 20
-133.8316243155004
 10
100.9891845450652
 20
-133.687619324217
 10
101.1710855866864
 20
-133.5925346888241
 10
101.3636664243119
 20
-133.4933159388489
 10
101.5920762549839
 20
-133.4698892895492
 10
101.7657090674405
 20
-133.4698892895492
 10
101.9369303130574
 20
-133.4698892895492
 10
102.1674072010207
 20
-133.4912488815577
 10
102.3599880386461
 20
-133.5925346888241
 97
        0
 97
        0
 92
        1
 93
        1
 72
     4
 94
        3
 73
     0
 74
     1
 95
       17
 96
       13
 40
0.0
 40
0.0
 40
0.0
 40
0.0
 40
1.0
 40
1.0
 40
1.0
 40
2.0
 40
2.0
 40
2.0
 40
3.0
 40
3.0
 40
3.0
 40
4.0
 40
4.0
 40
4.0
 40
4.0
 10
101.137323650931
 20
-133.9900987078219
 10
101.137323650931
 20
-134.2402126400511
 10
101.420855009367
 20
-134.2863769195534
 10
101.7657090674405
 20
-134.2863769195534
 10
102.0850694189232
 20
-134.2863769195534
 10
102.3937499744016
 20
-134.2505479265068
 10
102.3937499744016
 20
-133.9900987078219
 10
102.3937499744016
 20
-133.742740851981
 10
102.1126301828052
 20
-133.6938204960904
 10
101.7657090674405
 20
-133.6938204960904
 10
101.4460042064093
 20
-133.6938204960904
 10
101.137323650931
 20
-133.7324055655252
 10
101.137323650931
 20
-133.9900987078219
 97
        0
 97
        0
 75
     2
 76
     1
 98
        0
  0
POLYLINE
  5
B6
330
AF
100
AcDbEntity
  8
_U+30EC_U+30A4_U+30E4_U+30FC 1
370
     0
100
AcDb2dPolyline
 66
     1
 10
0.0
 20
0.0
 30
0.0
  0
VERTEX
  5
B7
330
B6
100
AcDbEntity
  8
_U+30EC_U+30A4_U+30E4_U+30FC 1
370
     0
100
AcDbVertex
100
AcDb2dVertex
 10
102.537754965685
 20
-133.2535372930755
 30
0.0
  0
VERTEX
  5
B8
330
B6
100
AcDbEntity
  8
_U+30EC_U+30A4_U+30E4_U+30FC 1
370
     0
100
AcDbVertex
100
AcDb2dVertex
 10
102.2859184857133
 20
-133.2535372930755
 30
0.0
  0
VERTEX
  5
B9
330
B6
100
AcDbEntity
  8
_U+30EC_U+30A4_U+30E4_U+30FC 1
370
     0
100
AcDbVertex
100
AcDb2dVertex
 10
102.2859184857133
 20
-133.0013563035552
 30
0.0
  0
VERTEX
  5
BA
330
B6
100
AcDbEntity
  8
_U+30EC_U+30A4_U+30E4_U+30FC 1
370
     0
100
AcDbVertex
100
AcDb2dVertex
 10
102.537754965685
 20
-133.0013563035552
 30
0.0
  0
VERTEX
  5
BB
330
B6
100
AcDbEntity
  8
_U+30EC_U+30A4_U+30E4_U+30FC 1
370
     0
100
AcDbVertex
100
AcDb2dVertex
 10
102.537754965685
 20
-133.2535372930755
 30
0.0
  0
SEQEND
  5
BC
330
B6
100
AcDbEntity
  8
_U+30EC_U+30A4_U+30E4_U+30FC 1
370
     0
  0
HATCH
  5
BD
330
AF
100
AcDbEntity
  8
_U+30EC_U+30A4_U+30E4_U+30FC 1
 62
     7
420
 16777215
100
AcDbHatch
 10
0.0
 20
0.0
 30
0.0
210
0.0
220
0.0
230
1.0
  2
SOLID
 70
     1
 71
     0
 91
        1
 92
        1
 93
        4
 72
     1
 10
102.537754965685
 20
-133.2535372930755
 11
102.2859184857133
 21
-133.2535372930755
 72
     1
 10
102.2859184857133
 20
-133.2535372930755
 11
102.2859184857133
 21
-133.0013563035552
 72
     1
 10
102.2859184857133
 20
-133.0013563035552
 11
102.537754965685
 21
-133.0013563035552
 72
     1
 10
102.537754965685
 20
-133.0013563035552
 11
102.537754965685
 21
-133.2535372930755
 97
        0
 75
     2
 76
     1
 98
        0
  0
SPLINE
  5
BE
330
AF
100
AcDbEntity
  8
_U+30EC_U+30A4_U+30E4_U+30FC 1
370
     0
100
AcDbSpline
210
0.0
220
0.0
230
1.0
 70
    11
 71
     3
 72
    26
 73
    22
 74
     0
 42
0.0000000001
 43
0.0000000001
 12
1.0
 22
0.0
 32
0.0
 13
1.0
 23
0.0
 33
0.0
 40
0.0
 40
0.0
 40
0.0
 40
0.0
 40
1.0
 40
1.0
 40
1.0
 40
2.0
 40
2.0
 40
2.0
 40
3.0
 40
3.0
 40
3.0
 40
4.0
 40
4.0
 40
4.0
 40
5.0
 40
5.0
 40
5.0
 40
6.0
 40
6.0
 40
6.0
 40
7.0
 40
7.0
 40
7.0
 40
7.0
 10
102.537754965685
 20
-132.3543673714253
 30
0.0
 10
102.537754965685
 20
-132.3543673714253
 30
0.0
 10
102.537754965685
 20
-132.5913899408105
 30
0.0
 10
102.537754965685
 20
-132.5913899408105
 30
0.0
 10
102.2287299006581
 20
-132.5658962342197
 30
0.0
 10
101.7105875396765
 20
-132.3729708870457
 30
0.0
 10
101.2048475224419
 20
-131.9671386388832
 30
0.0
 10
101.2048475224419
 20
-131.9671386388832
 30
0.0
 10
101.2048475224419
 20
-132.804985860896
 30
0.0
 10
101.2048475224419
 20
-132.804985860896
 30
0.0
 10
101.2048475224419
 20
-132.804985860896
 30
0.0
 10
100.9933186596475
 20
-132.804985860896
 30
0.0
 10
100.9933186596475
 20
-132.804985860896
 30
0.0
 10
100.9933186596475
 20
-132.804985860896
 30
0.0
 10
100.9933186596475
 20
-131.730116069498
 30
0.0
 10
100.9933186596475
 20
-131.730116069498
 30
0.0
 10
100.9933186596475
 20
-131.730116069498
 30
0.0
 10
101.2048475224419
 20
-131.730116069498
 30
0.0
 10
101.2048475224419
 20
-131.730116069498
 30
0.0
 10
101.4949245622999
 20
-132.0539550451115
 30
0.0
 10
102.0871364762143
 20
-132.3206054356698
 30
0.0
 10
102.537754965685
 20
-132.3543673714253
 30
0.0
  0
HATCH
  5
BF
330
AF
100
AcDbEntity
  8
_U+30EC_U+30A4_U+30E4_U+30FC 1
 62
     7
420
 16777215
100
AcDbHatch
 10
0.0
 20
0.0
 30
0.0
210
0.0
220
0.0
230
1.0
  2
SOLID
 70
     1
 71
     0
 91
        1
 92
        1
 93
        1
 72
     4
 94
        3
 73
     0
 74
     1
 95
       26
 96
       22
 40
0.0
 40
0.0
 40
0.0
 40
0.0
 40
1.0
 40
1.0
 40
1.0
 40
2.0
 40
2.0
 40
2.0
 40
3.0
 40
3.0
 40
3.0
 40
4.0
 40
4.0
 40
4.0
 40
5.0
 40
5.0
 40
5.0
 40
6.0
 40
6.0
 40
6.0
 40
7.0
 40
7.0
 40
7.0
 40
7.0
 10
102.537754965685
 20
-132.3543673714253
 10
102.537754965685
 20
-132.3543673714253
 10
102.537754965685
 20
-132.5913899408105
 10
102.537754965685
 20
-132.5913899408105
 10
102.2287299006581
 20
-132.5658962342197
 10
101.7105875396765
 20
-132.3729708870457
 10
101.2048475224419
 20
-131.9671386388832
 10
101.2048475224419
 20
-131.9671386388832
 10
101.2048475224419
 20
-132.804985860896
 10
101.2048475224419
 20
-132.804985860896
 10
101.2048475224419
 20
-132.804985860896
 10
100.9933186596475
 20
-132.804985860896
 10
100.9933186596475
 20
-132.804985860896
 10
100.9933186596475
 20
-132.804985860896
 10
100.9933186596475
 20
-131.730116069498
 10
100.9933186596475
 20
-131.730116069498
 10
100.9933186596475
 20
-131.730116069498
 10
101.2048475224419
 20
-131.730116069498
 10
101.2048475224419
 20
-131.730116069498
 10
101.4949245622999
 20
-132.0539550451115
 10
102.0871364762143
 20
-132.3206054356698
 10
102.537754965685
 20
-132.3543673714253
 97
        0
 97
        0
 75
     2
 76
     1
 98
        0
  0
ENDBLK
  5
B2
330
AF
100
AcDbEntity
  8
0
100
AcDbBlockEnd
  0
BLOCK
  5
D2
330
D0
100
AcDbEntity
  8
0
100
AcDbBlockBegin
  2
block 5
 70
     0
 10
0.0
 20
0.0
 30
0.0
  3
block 5
  1

  0
SPLINE
  5
D4
330
D0
100
AcDbEntity
  8
_U+30EC_U+30A4_U+30E4_U+30FC 1
370
     0
100
AcDbSpline
210
0.0
220
0.0
230
1.0
 70
    11
 71
     3
 72
    62
 73
    58
 74
     0
 42
0.0000000001
 43
0.0000000001
 12
1.0
 22
0.0
 32
0.0
 13
1.0
 23
0.0
 33
0.0
 40
0.0
 40
0.0
 40
0.0
 40
0.0
 40
1.0
 40
1.0
 40
1.0
 40
2.0
 40
2.0
 40
2.0
 40
3.0
 40
3.0
 40
3.0
 40
4.0
 40
4.0
 40
4.0
 40
5.0
 40
5.0
 40
5.0
 40
6.0
 40
6.0
 40
6.0
 40
7.0
 40
7.0
 40
7.0
 40
8.0
 40
8.0
 40
8.0
 40
9.0
 40
9.0
 40
9.0
 40
10.0
 40
10.0
 40
10.0
 40
11.0
 40
11.0
 40
11.0
 40
12.0
 40
12.0
 40
12.0
 40
13.0
 40
13.0
 40
13.0
 40
14.0
 40
14.0
 40
14.0
 40
15.0
 40
15.0
 40
15.0
 40
16.0
 40
16.0
 40
16.0
 40
17.0
 40
17.0
 40
17.0
 40
18.0
 40
18.0
 40
18.0
 40
19.0
 40
19.0
 40
19.0
 40
19.0
 10
102.9411756470078
 20
-129.950379741818
 30
0.0
 10
102.9411756470078
 20
-130.0461533963079
 30
0.0
 10
102.9201605645477
 20
-130.2638834309757
 30
0.0
 10
102.7341254083443
 20
-130.3885958875418
 30
0.0
 10
102.6218152955251
 20
-130.4630099500231
 30
0.0
 10
102.5225965455499
 20
-130.4671440646054
 30
0.0
 10
102.4378471966128
 20
-130.4712781791877
 30
0.0
 10
102.4378471966128
 20
-130.4712781791877
 30
0.0
 10
102.4378471966128
 20
-130.2507920681317
 30
0.0
 10
102.4378471966128
 20
-130.2507920681317
 30
0.0
 10
102.5119167495456
 20
-130.2487250108406
 30
0.0
 10
102.7465277520912
 20
-130.2383897243849
 30
0.0
 10
102.7465277520912
 20
-129.9552028754973
 30
0.0
 10
102.7465277520912
 20
-129.8173990560873
 30
0.0
 10
102.6769368232891
 20
-129.6651258356393
 30
0.0
 10
102.448526992617
 20
-129.6651258356393
 30
0.0
 10
102.3320827652156
 20
-129.6651258356393
 30
0.0
 10
102.2835069188736
 20
-129.703021885977
 30
0.0
 10
102.2518120404093
 20
-129.7347167644413
 30
0.0
 10
102.1777424874764
 20
-129.8091308269227
 30
0.0
 10
102.164995634181
 20
-129.9255750543242
 30
0.0
 10
102.164995634181
 20
-129.9800075629911
 30
0.0
 10
102.164995634181
 20
-129.9993000977085
 30
0.0
 10
102.1670626914721
 20
-130.0351290907551
 30
0.0
 10
102.1711968060544
 20
-130.0626898546371
 30
0.0
 10
102.1711968060544
 20
-130.0626898546371
 30
0.0
 10
101.9765489111378
 20
-130.0626898546371
 30
0.0
 10
101.9765489111378
 20
-130.0626898546371
 30
0.0
 10
101.9830945925598
 20
-130.0247938042993
 30
0.0
 10
101.9851616498509
 20
-129.9827636393793
 30
0.0
 10
101.9851616498509
 20
-129.9758734484088
 30
0.0
 10
101.9851616498509
 20
-129.9104166341891
 30
0.0
 10
101.9638020578424
 20
-129.7119791342387
 30
0.0
 10
101.7271239980057
 20
-129.7119791342387
 30
0.0
 10
101.5493570709668
 20
-129.7119791342387
 30
0.0
 10
101.4942355432028
 20
-129.8428927626782
 30
0.0
 10
101.4942355432028
 20
-129.9531358182062
 30
0.0
 10
101.4942355432028
 20
-130.2170301323763
 30
0.0
 10
101.7271239980057
 20
-130.2259873806379
 30
0.0
 10
101.7987819840989
 20
-130.2301214952203
 30
0.0
 10
101.7987819840989
 20
-130.2301214952203
 30
0.0
 10
101.7987819840989
 20
-130.43338212885
 30
0.0
 10
101.7987819840989
 20
-130.43338212885
 30
0.0
 10
101.6740695275329
 20
-130.4244248805883
 30
0.0
 10
101.2975205909951
 20
-130.3968641167064
 30
0.0
 10
101.2975205909951
 20
-129.9400444553622
 30
0.0
 10
101.2975205909951
 20
-129.716113248821
 30
0.0
 10
101.4246446144008
 20
-129.4749565648535
 30
0.0
 10
101.7205783165838
 20
-129.4749565648535
 30
0.0
 10
101.9069579823358
 20
-129.4749565648535
 30
0.0
 10
101.9892957644332
 20
-129.5700412002464
 30
0.0
 10
102.0506184640707
 20
-129.6692599502216
 30
0.0
 10
102.0781792279527
 20
-129.6079372505841
 30
0.0
 10
102.158449952759
 20
-129.426036208963
 30
0.0
 10
102.4357801393216
 20
-129.426036208963
 30
0.0
 10
102.7740885159731
 20
-129.426036208963
 30
0.0
 10
102.9411756470078
 20
-129.6733940648039
 30
0.0
 10
102.9411756470078
 20
-129.950379741818
 30
0.0
  0
HATCH
  5
D5
330
D0
100
AcDbEntity
  8
_U+30EC_U+30A4_U+30E4_U+30FC 1
 62
     7
420
 16777215
100
AcDbHatch
 10
0.0
 20
0.0
 30
0.0
210
0.0
220
0.0
230
1.0
  2
SOLID
 70
     1
 71
     0
 91
        1
 92
        1
 93
        1
 72
     4
 94
        3
 73
     0
 74
     1
 95
       62
 96
       58
 40
0.0
 40
0.0
 40
0.0
 40
0.0
 40
1.0
 40
1.0
 40
1.0
 40
2.0
 40
2.0
 40
2.0
 40
3.0
 40
3.0
 40
3.0
 40
4.0
 40
4.0
 40
4.0
 40
5.0
 40
5.0
 40
5.0
 40
6.0
 40
6.0
 40
6.0
 40
7.0
 40
7.0
 40
7.0
 40
8.0
 40
8.0
 40
8.0
 40
9.0
 40
9.0
 40
9.0
 40
10.0
 40
10.0
 40
10.0
 40
11.0
 40
11.0
 40
11.0
 40
12.0
 40
12.0
 40
12.0
 40
13.0
 40
13.0
 40
13.0
 40
14.0
 40
14.0
 40
14.0
 40
15.0
 40
15.0
 40
15.0
 40
16.0
 40
16.0
 40
16.0
 40
17.0
 40
17.0
 40
17.0
 40
18.0
 40
18.0
 40
18.0
 40
19.0
 40
19.0
 40
19.0
 40
19.0
 10
102.9411756470078
 20
-129.950379741818
 10
102.9411756470078
 20
-130.0461533963079
 10
102.9201605645477
 20
-130.2638834309757
 10
102.7341254083443
 20
-130.3885958875418
 10
102.6218152955251
 20
-130.4630099500231
 10
102.5225965455499
 20
-130.4671440646054
 10
102.4378471966128
 20
-130.4712781791877
 10
102.4378471966128
 20
-130.4712781791877
 10
102.4378471966128
 20
-130.2507920681317
 10
102.4378471966128
 20
-130.2507920681317
 10
102.5119167495456
 20
-130.2487250108406
 10
102.7465277520912
 20
-130.2383897243849
 10
102.7465277520912
 20
-129.9552028754973
 10
102.7465277520912
 20
-129.8173990560873
 10
102.6769368232891
 20
-129.6651258356393
 10
102.448526992617
 20
-129.6651258356393
 10
102.3320827652156
 20
-129.6651258356393
 10
102.2835069188736
 20
-129.703021885977
 10
102.2518120404093
 20
-129.7347167644413
 10
102.1777424874764
 20
-129.8091308269227
 10
102.164995634181
 20
-129.9255750543242
 10
102.164995634181
 20
-129.9800075629911
 10
102.164995634181
 20
-129.9993000977085
 10
102.1670626914721
 20
-130.0351290907551
 10
102.1711968060544
 20
-130.0626898546371
 10
102.1711968060544
 20
-130.0626898546371
 10
101.9765489111378
 20
-130.0626898546371
 10
101.9765489111378
 20
-130.0626898546371
 10
101.9830945925598
 20
-130.0247938042993
 10
101.9851616498509
 20
-129.9827636393793
 10
101.9851616498509
 20
-129.9758734484088
 10
101.9851616498509
 20
-129.9104166341891
 10
101.9638020578424
 20
-129.7119791342387
 10
101.7271239980057
 20
-129.7119791342387
 10
101.5493570709668
 20
-129.7119791342387
 10
101.4942355432028
 20
-129.8428927626782
 10
101.4942355432028
 20
-129.9531358182062
 10
101.4942355432028
 20
-130.2170301323763
 10
101.7271239980057
 20
-130.2259873806379
 10
101.7987819840989
 20
-130.2301214952203
 10
101.7987819840989
 20
-130.2301214952203
 10
101.7987819840989
 20
-130.43338212885
 10
101.7987819840989
 20
-130.43338212885
 10
101.6740695275329
 20
-130.4244248805883
 10
101.2975205909951
 20
-130.3968641167064
 10
101.2975205909951
 20
-129.9400444553622
 10
101.2975205909951
 20
-129.716113248821
 10
101.4246446144008
 20
-129.4749565648535
 10
101.7205783165838
 20
-129.4749565648535
 10
101.9069579823358
 20
-129.4749565648535
 10
101.9892957644332
 20
-129.5700412002464
 10
102.0506184640707
 20
-129.6692599502216
 10
102.0781792279527
 20
-129.6079372505841
 10
102.158449952759
 20
-129.426036208963
 10
102.4357801393216
 20
-129.426036208963
 10
102.7740885159731
 20
-129.426036208963
 10
102.9411756470078
 20
-129.6733940648039
 10
102.9411756470078
 20
-129.950379741818
 97
        0
 97
        0
 75
     2
 76
     1
 98
        0
  0
POLYLINE
  5
D6
330
D0
100
AcDbEntity
  8
_U+30EC_U+30A4_U+30E4_U+30FC 1
370
     0
100
AcDb2dPolyline
 66
     1
 10
0.0
 20
0.0
 30
0.0
  0
VERTEX
  5
D7
330
D6
100
AcDbEntity
  8
_U+30EC_U+30A4_U+30E4_U+30FC 1
370
     0
100
AcDbVertex
100
AcDb2dVertex
 10
102.8905327433746
 20
-129.205550097907
 30
0.0
  0
VERTEX
  5
D8
330
D6
100
AcDbEntity
  8
_U+30EC_U+30A4_U+30E4_U+30FC 1
370
     0
100
AcDbVertex
100
AcDb2dVertex
 10
102.6386962634028
 20
-129.205550097907
 30
0.0
  0
VERTEX
  5
D9
330
D6
100
AcDbEntity
  8
_U+30EC_U+30A4_U+30E4_U+30FC 1
370
     0
100
AcDbVertex
100
AcDb2dVertex
 10
102.6386962634028
 20
-128.9533691083867
 30
0.0
  0
VERTEX
  5
DA
330
D6
100
AcDbEntity
  8
_U+30EC_U+30A4_U+30E4_U+30FC 1
370
     0
100
AcDbVertex
100
AcDb2dVertex
 10
102.8905327433746
 20
-128.9533691083867
 30
0.0
  0
VERTEX
  5
DB
330
D6
100
AcDbEntity
  8
_U+30EC_U+30A4_U+30E4_U+30FC 1
370
     0
100
AcDbVertex
100
AcDb2dVertex
 10
102.8905327433746
 20
-129.205550097907
 30
0.0
  0
SEQEND
  5
DC
330
D6
100
AcDbEntity
  8
_U+30EC_U+30A4_U+30E4_U+30FC 1
370
     0
  0
HATCH
  5
DD
330
D0
100
AcDbEntity
  8
_U+30EC_U+30A4_U+30E4_U+30FC 1
 62
     7
420
 16777215
100
AcDbHatch
 10
0.0
 20
0.0
 30
0.0
210
0.0
220
0.0
230
1.0
  2
SOLID
 70
     1
 71
     0
 91
        1
 92
        1
 93
        4
 72
     1
 10
102.8905327433746
 20
-129.205550097907
 11
102.6386962634028
 21
-129.205550097907
 72
     1
 10
102.6386962634028
 20
-129.205550097907
 11
102.6386962634028
 21
-128.9533691083867
 72
     1
 10
102.6386962634028
 20
-128.9533691083867
 11
102.8905327433746
 21
-128.9533691083867
 72
     1
 10
102.8905327433746
 20
-128.9533691083867
 11
102.8905327433746
 21
-129.205550097907
 97
        0
 75
     2
 76
     1
 98
        0
  0
SPLINE
  5
DE
330
D0
100
AcDbEntity
  8
_U+30EC_U+30A4_U+30E4_U+30FC 1
370
     0
100
AcDbSpline
210
0.0
220
0.0
230
1.0
 70
    11
 71
     3
 72
    53
 73
    49
 74
     0
 42
0.0000000001
 43
0.0000000001
 12
1.0
 22
0.0
 32
0.0
 13
1.0
 23
0.0
 33
0.0
 40
0.0
 40
0.0
 40
0.0
 40
0.0
 40
1.0
 40
1.0
 40
1.0
 40
2.0
 40
2.0
 40
2.0
 40
3.0
 40
3.0
 40
3.0
 40
4.0
 40
4.0
 40
4.0
 40
5.0
 40
5.0
 40
5.0
 40
6.0
 40
6.0
 40
6.0
 40
7.0
 40
7.0
 40
7.0
 40
8.0
 40
8.0
 40
8.0
 40
9.0
 40
9.0
 40
9.0
 40
10.0
 40
10.0
 40
10.0
 40
11.0
 40
11.0
 40
11.0
 40
12.0
 40
12.0
 40
12.0
 40
13.0
 40
13.0
 40
13.0
 40
14.0
 40
14.0
 40
14.0
 40
15.0
 40
15.0
 40
15.0
 40
16.0
 40
16.0
 40
16.0
 40
16.0
 10
102.9411756470078
 20
-128.2362724831319
 30
0.0
 10
102.9411756470078
 20
-128.3144761506471
 30
0.0
 10
102.92429467913
 20
-128.416106467462
 30
0.0
 10
102.8609049222014
 20
-128.5177367842768
 30
0.0
 10
102.751006376222
 20
-128.6910250871849
 30
0.0
 10
102.619748238234
 20
-128.7123846791934
 30
0.0
 10
102.5119167495456
 20
-128.7313327043623
 30
0.0
 10
102.5119167495456
 20
-128.7313327043623
 30
0.0
 10
102.5119167495456
 20
-128.5091240455637
 30
0.0
 10
102.5119167495456
 20
-128.5091240455637
 30
0.0
 10
102.7106987590445
 20
-128.4543470273482
 30
0.0
 10
102.7403265802177
 20
-128.3272230039425
 30
0.0
 10
102.7403265802177
 20
-128.2342054258408
 30
0.0
 10
102.7403265802177
 20
-128.0946790586881
 30
0.0
 10
102.640763320694
 20
-127.9424058382401
 30
0.0
 10
102.4082193754396
 20
-127.9424058382401
 30
0.0
 10
102.1522487808856
 20
-127.9424058382401
 30
0.0
 10
102.082313342535
 20
-128.1222398225702
 30
0.0
 10
102.082313342535
 20
-128.2428181645539
 30
0.0
 10
102.082313342535
 20
-128.2745130430182
 30
0.0
 10
102.082313342535
 20
-128.416106467462
 30
0.0
 10
102.2115044232318
 20
-128.5049899309814
 30
0.0
 10
102.2115044232318
 20
-128.5049899309814
 30
0.0
 10
102.192556398063
 20
-128.6806898007291
 30
0.0
 10
102.192556398063
 20
-128.6806898007291
 30
0.0
 10
102.192556398063
 20
-128.6806898007291
 30
0.0
 10
101.3460964373371
 20
-128.5601114587454
 30
0.0
 10
101.3460964373371
 20
-128.5601114587454
 30
0.0
 10
101.3460964373371
 20
-128.5601114587454
 30
0.0
 10
101.3460964373371
 20
-127.7815198790789
 30
0.0
 10
101.3460964373371
 20
-127.7815198790789
 30
0.0
 10
101.3460964373371
 20
-127.7815198790789
 30
0.0
 10
101.5407443322537
 20
-127.7815198790789
 30
0.0
 10
101.5407443322537
 20
-127.7815198790789
 30
0.0
 10
101.5407443322537
 20
-127.7815198790789
 30
0.0
 10
101.5407443322537
 20
-128.3971584422931
 30
0.0
 10
101.5407443322537
 20
-128.3971584422931
 30
0.0
 10
101.5407443322537
 20
-128.3971584422931
 30
0.0
 10
101.9638020578424
 20
-128.4626152565128
 30
0.0
 10
101.9638020578424
 20
-128.4626152565128
 30
0.0
 10
101.9300401220869
 20
-128.4012925568754
 30
0.0
 10
101.8897325049095
 20
-128.3189547747779
 30
0.0
 10
101.8897325049095
 20
-128.2004434900853
 30
0.0
 10
101.8897325049095
 20
-127.9465399528224
 30
0.0
 10
102.0761121706615
 20
-127.7095173834372
 30
0.0
 10
102.3892713502707
 20
-127.7095173834372
 30
0.0
 10
102.7065646444622
 20
-127.7095173834372
 30
0.0
 10
102.9411756470078
 20
-127.933793099527
 30
0.0
 10
102.9411756470078
 20
-128.2362724831319
 30
0.0
  0
HATCH
  5
DF
330
D0
100
AcDbEntity
  8
_U+30EC_U+30A4_U+30E4_U+30FC 1
 62
     7
420
 16777215
100
AcDbHatch
 10
0.0
 20
0.0
 30
0.0
210
0.0
220
0.0
230
1.0
  2
SOLID
 70
     1
 71
     0
 91
        1
 92
        1
 93
        1
 72
     4
 94
        3
 73
     0
 74
     1
 95
       53
 96
       49
 40
0.0
 40
0.0
 40
0.0
 40
0.0
 40
1.0
 40
1.0
 40
1.0
 40
2.0
 40
2.0
 40
2.0
 40
3.0
 40
3.0
 40
3.0
 40
4.0
 40
4.0
 40
4.0
 40
5.0
 40
5.0
 40
5.0
 40
6.0
 40
6.0
 40
6.0
 40
7.0
 40
7.0
 40
7.0
 40
8.0
 40
8.0
 40
8.0
 40
9.0
 40
9.0
 40
9.0
 40
10.0
 40
10.0
 40
10.0
 40
11.0
 40
11.0
 40
11.0
 40
12.0
 40
12.0
 40
12.0
 40
13.0
 40
13.0
 40
13.0
 40
14.0
 40
14.0
 40
14.0
 40
15.0
 40
15.0
 40
15.0
 40
16.0
 40
16.0
 40
16.0
 40
16.0
 10
102.9411756470078
 20
-128.2362724831319
 10
102.9411756470078
 20
-128.3144761506471
 10
102.92429467913
 20
-128.416106467462
 10
102.8609049222014
 20
-128.5177367842768
 10
102.751006376222
 20
-128.6910250871849
 10
102.619748238234
 20
-128.7123846791934
 10
102.5119167495456
 20
-128.7313327043623
 10
102.5119167495456
 20
-128.7313327043623
 10
102.5119167495456
 20
-128.5091240455637
 10
102.5119167495456
 20
-128.5091240455637
 10
102.7106987590445
 20
-128.4543470273482
 10
102.7403265802177
 20
-128.3272230039425
 10
102.7403265802177
 20
-128.2342054258408
 10
102.7403265802177
 20
-128.0946790586881
 10
102.640763320694
 20
-127.9424058382401
 10
102.4082193754396
 20
-127.9424058382401
 10
102.1522487808856
 20
-127.9424058382401
 10
102.082313342535
 20
-128.1222398225702
 10
102.082313342535
 20
-128.2428181645539
 10
102.082313342535
 20
-128.2745130430182
 10
102.082313342535
 20
-128.416106467462
 10
102.2115044232318
 20
-128.5049899309814
 10
102.2115044232318
 20
-128.5049899309814
 10
102.192556398063
 20
-128.6806898007291
 10
102.192556398063
 20
-128.6806898007291
 10
102.192556398063
 20
-128.6806898007291
 10
101.3460964373371
 20
-128.5601114587454
 10
101.3460964373371
 20
-128.5601114587454
 10
101.3460964373371
 20
-128.5601114587454
 10
101.3460964373371
 20
-127.7815198790789
 10
101.3460964373371
 20
-127.7815198790789
 10
101.3460964373371
 20
-127.7815198790789
 10
101.5407443322537
 20
-127.7815198790789
 10
101.5407443322537
 20
-127.7815198790789
 10
101.5407443322537
 20
-127.7815198790789
 10
101.5407443322537
 20
-128.3971584422931
 10
101.5407443322537
 20
-128.3971584422931
 10
101.5407443322537
 20
-128.3971584422931
 10
101.9638020578424
 20
-128.4626152565128
 10
101.9638020578424
 20
-128.4626152565128
 10
101.9300401220869
 20
-128.4012925568754
 10
101.8897325049095
 20
-128.3189547747779
 10
101.8897325049095
 20
-128.2004434900853
 10
101.8897325049095
 20
-127.9465399528224
 10
102.0761121706615
 20
-127.7095173834372
 10
102.3892713502707
 20
-127.7095173834372
 10
102.7065646444622
 20
-127.7095173834372
 10
102.9411756470078
 20
-127.933793099527
 10
102.9411756470078
 20
-128.2362724831319
 97
        0
 97
        0
 75
     2
 76
     1
 98
        0
  0
ENDBLK
  5
D3
330
D0
100
AcDbEntity
  8
0
100
AcDbBlockEnd
  0
BLOCK
  5
EE
330
EC
100
AcDbEntity
  8
0
100
AcDbBlockBegin
  2
block 6
 70
     0
 10
0.0
 20
0.0
 30
0.0
  3
block 6
  1

  0
SPLINE
  5
F0
330
EC
100
AcDbEntity
  8
_U+30EC_U+30A4_U+30E4_U+30FC 1
370
     0
100
AcDbSpline
210
0.0
220
0.0
230
1.0
 70
    11
 71
     3
 72
    26
 73
    22
 74
     0
 42
0.0000000001
 43
0.0000000001
 12
1.0
 22
0.0
 32
0.0
 13
1.0
 23
0.0
 33
0.0
 40
0.0
 40
0.0
 40
0.0
 40
0.0
 40
1.0
 40
1.0
 40
1.0
 40
2.0
 40
2.0
 40
2.0
 40
3.0
 40
3.0
 40
3.0
 40
4.0
 40
4.0
 40
4.0
 40
5.0
 40
5.0
 40
5.0
 40
6.0
 40
6.0
 40
6.0
 40
7.0
 40
7.0
 40
7.0
 40
7.0
 10
95.90008949425415
 20
-122.8431477557476
 30
0.0
 10
95.90008949425415
 20
-122.8431477557476
 30
0.0
 10
95.66306692486896
 20
-122.8431477557476
 30
0.0
 10
95.66306692486896
 20
-122.8431477557476
 30
0.0
 10
95.68856063145981
 20
-122.5342949454949
 30
0.0
 10
95.88114146908528
 20
-122.0159803297391
 30
0.0
 10
96.28731822679623
 20
-121.5104125672786
 30
0.0
 10
96.28731822679623
 20
-121.5104125672786
 30
0.0
 10
95.44947100478348
 20
-121.5104125672786
 30
0.0
 10
95.44947100478348
 20
-121.5104125672786
 30
0.0
 10
95.44947100478348
 20
-121.5104125672786
 30
0.0
 10
95.44947100478348
 20
-121.2988837044843
 30
0.0
 10
95.44947100478348
 20
-121.2988837044843
 30
0.0
 10
95.44947100478348
 20
-121.2988837044843
 30
0.0
 10
96.52434079618142
 20
-121.2988837044843
 30
0.0
 10
96.52434079618142
 20
-121.2988837044843
 30
0.0
 10
96.52434079618142
 20
-121.2988837044843
 30
0.0
 10
96.52434079618142
 20
-121.5104125672786
 30
0.0
 10
96.52434079618142
 20
-121.5104125672786
 30
0.0
 10
96.20050182056794
 20
-121.8001450975882
 30
0.0
 10
95.9338514300096
 20
-122.3925292662769
 30
0.0
 10
95.90008949425415
 20
-122.8431477557476
 30
0.0
  0
HATCH
  5
F1
330
EC
100
AcDbEntity
  8
_U+30EC_U+30A4_U+30E4_U+30FC 1
 62
     7
420
 16777215
100
AcDbHatch
 10
0.0
 20
0.0
 30
0.0
210
0.0
220
0.0
230
1.0
  2
SOLID
 70
     1
 71
     0
 91
        1
 92
        1
 93
        1
 72
     4
 94
        3
 73
     0
 74
     1
 95
       26
 96
       22
 40
0.0
 40
0.0
 40
0.0
 40
0.0
 40
1.0
 40
1.0
 40
1.0
 40
2.0
 40
2.0
 40
2.0
 40
3.0
 40
3.0
 40
3.0
 40
4.0
 40
4.0
 40
4.0
 40
5.0
 40
5.0
 40
5.0
 40
6.0
 40
6.0
 40
6.0
 40
7.0
 40
7.0
 40
7.0
 40
7.0
 10
95.90008949425415
 20
-122.8431477557476
 10
95.90008949425415
 20
-122.8431477557476
 10
95.66306692486896
 20
-122.8431477557476
 10
95.66306692486896
 20
-122.8431477557476
 10
95.68856063145981
 20
-122.5342949454949
 10
95.88114146908528
 20
-122.0159803297391
 10
96.28731822679623
 20
-121.5104125672786
 10
96.28731822679623
 20
-121.5104125672786
 10
95.44947100478348
 20
-121.5104125672786
 10
95.44947100478348
 20
-121.5104125672786
 10
95.44947100478348
 20
-121.5104125672786
 10
95.44947100478348
 20
-121.2988837044843
 10
95.44947100478348
 20
-121.2988837044843
 10
95.44947100478348
 20
-121.2988837044843
 10
96.52434079618142
 20
-121.2988837044843
 10
96.52434079618142
 20
-121.2988837044843
 10
96.52434079618142
 20
-121.2988837044843
 10
96.52434079618142
 20
-121.5104125672786
 10
96.52434079618142
 20
-121.5104125672786
 10
96.20050182056794
 20
-121.8001450975882
 10
95.9338514300096
 20
-122.3925292662769
 10
95.90008949425415
 20
-122.8431477557476
 97
        0
 97
        0
 75
     2
 76
     1
 98
        0
  0
ENDBLK
  5
EF
330
EC
100
AcDbEntity
  8
0
100
AcDbBlockEnd
  0
BLOCK
  5
FC
330
FA
100
AcDbEntity
  8
0
100
AcDbBlockBegin
  2
block 7
 70
     0
 10
0.0
 20
0.0
 30
0.0
  3
block 7
  1

  0
SPLINE
  5
FE
330
FA
100
AcDbEntity
  8
_U+30EC_U+30A4_U+30E4_U+30FC 1
370
     0
100
AcDbSpline
210
0.0
220
0.0
230
1.0
 70
    11
 71
     3
 72
    26
 73
    22
 74
     0
 42
0.0000000001
 43
0.0000000001
 12
1.0
 22
0.0
 32
0.0
 13
1.0
 23
0.0
 33
0.0
 40
0.0
 40
0.0
 40
0.0
 40
0.0
 40
1.0
 40
1.0
 40
1.0
 40
2.0
 40
2.0
 40
2.0
 40
3.0
 40
3.0
 40
3.0
 40
4.0
 40
4.0
 40
4.0
 40
5.0
 40
5.0
 40
5.0
 40
6.0
 40
6.0
 40
6.0
 40
7.0
 40
7.0
 40
7.0
 40
7.0
 10
78.44034557500797
 20
-128.0927842561713
 30
0.0
 10
78.44034557500797
 20
-128.0927842561713
 30
0.0
 10
78.44034557500797
 20
-126.9884588983744
 30
0.0
 10
78.44034557500797
 20
-126.9884588983744
 30
0.0
 10
78.44034557500797
 20
-126.9884588983744
 30
0.0
 10
78.11030542752104
 20
-126.9884588983744
 30
0.0
 10
78.11030542752104
 20
-126.9884588983744
 30
0.0
 10
78.11030542752104
 20
-126.9884588983744
 30
0.0
 10
78.11030542752104
 20
-126.8404920472829
 30
0.0
 10
78.11030542752104
 20
-126.8404920472829
 30
0.0
 10
78.44241263229912
 20
-126.8256781366964
 30
0.0
 10
78.48892142135
 20
-126.662725120244
 30
0.0
 10
78.51854924252315
 20
-126.548520204908
 30
0.0
 10
78.51854924252315
 20
-126.548520204908
 30
0.0
 10
78.66462129109773
 20
-126.548520204908
 30
0.0
 10
78.66462129109773
 20
-126.548520204908
 30
0.0
 10
78.66462129109773
 20
-126.548520204908
 30
0.0
 10
78.66462129109773
 20
-128.0927842561713
 30
0.0
 10
78.66462129109773
 20
-128.0927842561713
 30
0.0
 10
78.66462129109773
 20
-128.0927842561713
 30
0.0
 10
78.44034557500797
 20
-128.0927842561713
 30
0.0
 10
78.44034557500797
 20
-128.0927842561713
 30
0.0
  0
HATCH
  5
FF
330
FA
100
AcDbEntity
  8
_U+30EC_U+30A4_U+30E4_U+30FC 1
 62
     7
420
 16777215
100
AcDbHatch
 10
0.0
 20
0.0
 30
0.0
210
0.0
220
0.0
230
1.0
  2
SOLID
 70
     1
 71
     0
 91
        1
 92
        1
 93
        1
 72
     4
 94
        3
 73
     0
 74
     1
 95
       26
 96
       22
 40
0.0
 40
0.0
 40
0.0
 40
0.0
 40
1.0
 40
1.0
 40
1.0
 40
2.0
 40
2.0
 40
2.0
 40
3.0
 40
3.0
 40
3.0
 40
4.0
 40
4.0
 40
4.0
 40
5.0
 40
5.0
 40
5.0
 40
6.0
 40
6.0
 40
6.0
 40
7.0
 40
7.0
 40
7.0
 40
7.0
 10
78.44034557500797
 20
-128.0927842561713
 10
78.44034557500797
 20
-128.0927842561713
 10
78.44034557500797
 20
-126.9884588983744
 10
78.44034557500797
 20
-126.9884588983744
 10
78.44034557500797
 20
-126.9884588983744
 10
78.11030542752104
 20
-126.9884588983744
 10
78.11030542752104
 20
-126.9884588983744
 10
78.11030542752104
 20
-126.9884588983744
 10
78.11030542752104
 20
-126.8404920472829
 10
78.11030542752104
 20
-126.8404920472829
 10
78.44241263229912
 20
-126.8256781366964
 10
78.48892142135
 20
-126.662725120244
 10
78.51854924252315
 20
-126.548520204908
 10
78.51854924252315
 20
-126.548520204908
 10
78.66462129109773
 20
-126.548520204908
 10
78.66462129109773
 20
-126.548520204908
 10
78.66462129109773
 20
-126.548520204908
 10
78.66462129109773
 20
-128.0927842561713
 10
78.66462129109773
 20
-128.0927842561713
 10
78.66462129109773
 20
-128.0927842561713
 10
78.44034557500797
 20
-128.0927842561713
 10
78.44034557500797
 20
-128.0927842561713
 97
        0
 97
        0
 75
     2
 76
     1
 98
        0
  0
ENDBLK
  5
FD
330
FA
100
AcDbEntity
  8
0
100
AcDbBlockEnd
  0
ENDSEC
  0
SECTION
  2
ENTITIES
  0
POLYLINE
  5
41
330
1F
100
AcDbEntity
  8
_U+30EC_U+30A4_U+30E4_U+30FC 1
 62
     7
420
 16777215
370
    25
100
AcDb2dPolyline
 66
     1
 10
0.0
 20
0.0
 30
0.0
  0
VERTEX
  5
42
330
41
100
AcDbEntity
  8
_U+30EC_U+30A4_U+30E4_U+30FC 1
 62
     7
420
 16777215
370
    25
100
AcDbVertex
100
AcDb2dVertex
 10
81.48683153220884
 20
-126.4394713572791
 30
0.0
  0
VERTEX
  5
43
330
41
100
AcDbEntity
  8
_U+30EC_U+30A4_U+30E4_U+30FC 1
 62
     7
420
 16777215
370
    25
100
AcDbVertex
100
AcDb2dVertex
 10
81.48683153220884
 20
-131.9395944114597
 30
0.0
  0
SEQEND
  5
44
330
41
100
AcDbEntity
  8
_U+30EC_U+30A4_U+30E4_U+30FC 1
 62
     7
420
 16777215
370
    25
  0
POLYLINE
  5
45
330
1F
100
AcDbEntity
  8
_U+30EC_U+30A4_U+30E4_U+30FC 1
 62
     7
420
 16777215
370
    25
100
AcDb2dPolyline
 66
     1
 10
0.0
 20
0.0
 30
0.0
  0
VERTEX
  5
46
330
45
100
AcDbEntity
  8
_U+30EC_U+30A4_U+30E4_U+30FC 1
 62
     7
420
 16777215
370
    25
100
AcDbVertex
100
AcDb2dVertex
 10
82.48695650669353
 20
-130.9391166339316
 30
0.0
  0
VERTEX
  5
47
330
45
100
AcDbEntity
  8
_U+30EC_U+30A4_U+30E4_U+30FC 1
 62
     7
420
 16777215
370
    25
100
AcDbVertex
100
AcDb2dVertex
 10
92.4866916435448
 20
-130.9391166339316
 30
0.0
  0
SEQEND
  5
48
330
45
100
AcDbEntity
  8
_U+30EC_U+30A4_U+30E4_U+30FC 1
 62
     7
420
 16777215
370
    25
  0
POLYLINE
  5
49
330
1F
100
AcDbEntity
  8
_U+30EC_U+30A4_U+30E4_U+30FC 1
 62
     7
420
 16777215
370
    25
100
AcDb2dPolyline
 66
     1
 10
0.0
 20
0.0
 30
0.0
  0
VERTEX
  5
4A
330
49
100
AcDbEntity
  8
_U+30EC_U+30A4_U+30E4_U+30FC 1
 62
     7
420
 16777215
370
    25
100
AcDbVertex
100
AcDb2dVertex
 10
82.48695650669353
 20
-127.3651955237143
 30
0.0
  0
VERTEX
  5
4B
330
49
100
AcDbEntity
  8
_U+30EC_U+30A4_U+30E4_U+30FC 1
 62
     7
420
 16777215
370
    25
100
AcDbVertex
100
AcDb2dVertex
 10
89.48670243922625
 20
-127.3651955237143
 30
0.0
  0
SEQEND
  5
4C
330
49
100
AcDbEntity
  8
_U+30EC_U+30A4_U+30E4_U+30FC 1
 62
     7
420
 16777215
370
    25
  0
POLYLINE
  5
4D
330
1F
100
AcDbEntity
  8
_U+30EC_U+30A4_U+30E4_U+30FC 1
 62
     7
420
 16777215
370
    25
100
AcDb2dPolyline
 66
     1
 10
0.0
 20
0.0
 30
0.0
  0
VERTEX
  5
4E
330
4D
100
AcDbEntity
  8
_U+30EC_U+30A4_U+30E4_U+30FC 1
 62
     7
420
 16777215
370
    25
100
AcDbVertex
100
AcDb2dVertex
 10
81.48683153220884
 20
-126.3654233017421
 30
0.0
  0
VERTEX
  5
4F
330
4D
100
AcDbEntity
  8
_U+30EC_U+30A4_U+30E4_U+30FC 1
 62
     7
420
 16777215
370
    25
100
AcDbVertex
100
AcDb2dVertex
 10
89.12256522629394
 20
-126.3654233017421
 30
0.0
  0
SEQEND
  5
50
330
4D
100
AcDbEntity
  8
_U+30EC_U+30A4_U+30E4_U+30FC 1
 62
     7
420
 16777215
370
    25
  0
POLYLINE
  5
51
330
1F
100
AcDbEntity
  8
_U+30EC_U+30A4_U+30E4_U+30FC 1
 62
     7
420
 16777215
370
    25
100
AcDb2dPolyline
 66
     1
 10
0.0
 20
0.0
 30
0.0
  0
VERTEX
  5
52
330
51
100
AcDbEntity
  8
_U+30EC_U+30A4_U+30E4_U+30FC 1
 62
     7
420
 16777215
370
    25
100
AcDbVertex
100
AcDb2dVertex
 10
81.48683153220884
 20
-131.9395944114597
 30
0.0
  0
VERTEX
  5
53
330
51
100
AcDbEntity
  8
_U+30EC_U+30A4_U+30E4_U+30FC 1
 62
     7
420
 16777215
370
    25
100
AcDbVertex
100
AcDb2dVertex
 10
99.48678801743614
 20
-131.9395944114597
 30
0.0
  0
SEQEND
  5
54
330
51
100
AcDbEntity
  8
_U+30EC_U+30A4_U+30E4_U+30FC 1
 62
     7
420
 16777215
370
    25
  0
POLYLINE
  5
55
330
1F
100
AcDbEntity
  8
_U+30EC_U+30A4_U+30E4_U+30FC 1
 62
     7
420
 16777215
370
    25
100
AcDb2dPolyline
 66
     1
 10
0.0
 20
0.0
 30
0.0
  0
VERTEX
  5
56
330
55
100
AcDbEntity
  8
_U+30EC_U+30A4_U+30E4_U+30FC 1
 62
     7
420
 16777215
370
    25
100
AcDbVertex
100
AcDb2dVertex
 10
82.48695650669353
 20
-127.4392435792513
 30
0.0
  0
VERTEX
  5
57
330
55
100
AcDbEntity
  8
_U+30EC_U+30A4_U+30E4_U+30FC 1
 62
     7
420
 16777215
370
    25
100
AcDbVertex
100
AcDb2dVertex
 10
82.48695650669353
 20
-130.9391166339316
 30
0.0
  0
SEQEND
  5
58
330
55
100
AcDbEntity
  8
_U+30EC_U+30A4_U+30E4_U+30FC 1
 62
     7
420
 16777215
370
    25
  0
POLYLINE
  5
59
330
1F
100
AcDbEntity
  8
_U+30EC_U+30A4_U+30E4_U+30FC 1
 62
     7
420
 16777215
370
    25
100
AcDb2dPolyline
 66
     1
 10
0.0
 20
0.0
 30
0.0
  0
VERTEX
  5
5A
330
59
100
AcDbEntity
  8
_U+30EC_U+30A4_U+30E4_U+30FC 1
 62
     7
420
 16777215
370
    25
100
AcDbVertex
100
AcDb2dVertex
 10
92.78676207725694
 20
-131.2395421894121
 30
0.0
  0
VERTEX
  5
5B
330
59
100
AcDbEntity
  8
_U+30EC_U+30A4_U+30E4_U+30FC 1
 62
     7
420
 16777215
370
    25
100
AcDbVertex
100
AcDb2dVertex
 10
99.2321883017093
 20
-131.2395421894121
 30
0.0
  0
SEQEND
  5
5C
330
59
100
AcDbEntity
  8
_U+30EC_U+30A4_U+30E4_U+30FC 1
 62
     7
420
 16777215
370
    25
  0
POLYLINE
  5
5D
330
1F
100
AcDbEntity
  8
_U+30EC_U+30A4_U+30E4_U+30FC 1
 62
     7
420
 16777215
370
    25
100
AcDb2dPolyline
 66
     1
 10
0.0
 20
0.0
 30
0.0
  0
VERTEX
  5
5E
330
5D
100
AcDbEntity
  8
_U+30EC_U+30A4_U+30E4_U+30FC 1
 62
     7
420
 16777215
370
    25
100
AcDbVertex
100
AcDb2dVertex
 10
89.12256522629394
 20
-126.3654233017421
 30
0.0
  0
VERTEX
  5
5F
330
5D
100
AcDbEntity
  8
_U+30EC_U+30A4_U+30E4_U+30FC 1
 62
     7
420
 16777215
370
    25
100
AcDbVertex
100
AcDb2dVertex
 10
89.48670243922625
 20
-127.3651955237143
 30
0.0
  0
SEQEND
  5
60
330
5D
100
AcDbEntity
  8
_U+30EC_U+30A4_U+30E4_U+30FC 1
 62
     7
420
 16777215
370
    25
  0
POLYLINE
  5
61
330
1F
100
AcDbEntity
  8
_U+30EC_U+30A4_U+30E4_U+30FC 1
 62
     7
420
 16777215
370
    25
100
AcDb2dPolyline
 66
     1
 10
0.0
 20
0.0
 30
0.0
  0
VERTEX
  5
62
330
61
100
AcDbEntity
  8
_U+30EC_U+30A4_U+30E4_U+30FC 1
 62
     7
420
 16777215
370
    25
100
AcDbVertex
100
AcDb2dVertex
 10
99.2321883017093
 20
-131.2395421894121
 30
0.0
  0
VERTEX
  5
63
330
61
100
AcDbEntity
  8
_U+30EC_U+30A4_U+30E4_U+30FC 1
 62
     7
420
 16777215
370
    25
100
AcDbVertex
100
AcDb2dVertex
 10
99.48678801743614
 20
-131.9395944114597
 30
0.0
  0
SEQEND
  5
64
330
61
100
AcDbEntity
  8
_U+30EC_U+30A4_U+30E4_U+30FC 1
 62
     7
420
 16777215
370
    25
  0
POLYLINE
  5
65
330
1F
100
AcDbEntity
  8
_U+30EC_U+30A4_U+30E4_U+30FC 1
 62
     7
420
 16777215
370
    25
100
AcDb2dPolyline
 66
     1
 10
0.0
 20
0.0
 30
0.0
  0
VERTEX
  5
66
330
65
100
AcDbEntity
  8
_U+30EC_U+30A4_U+30E4_U+30FC 1
 62
     7
420
 16777215
370
    25
100
AcDbVertex
100
AcDb2dVertex
 10
92.4866916435448
 20
-130.9391166339316
 30
0.0
  0
VERTEX
  5
67
330
65
100
AcDbEntity
  8
_U+30EC_U+30A4_U+30E4_U+30FC 1
 62
     7
420
 16777215
370
    25
100
AcDbVertex
100
AcDb2dVertex
 10
92.78676207725694
 20
-131.2395421894121
 30
0.0
  0
SEQEND
  5
68
330
65
100
AcDbEntity
  8
_U+30EC_U+30A4_U+30E4_U+30FC 1
 62
     7
420
 16777215
370
    25
  0
SPLINE
  5
69
330
1F
100
AcDbEntity
  8
_U+30EC_U+30A4_U+30E4_U+30FC 1
 62
     7
420
 16777215
370
     9
100
AcDbSpline
210
0.0
220
0.0
230
1.0
 70
    11
 71
     3
 72
    17
 73
    13
 74
     0
 42
0.0000000001
 43
0.0000000001
 12
1.0
 22
0.0
 32
0.0
 13
1.0
 23
0.0
 33
0.0
 40
0.0
 40
0.0
 40
0.0
 40
0.0
 40
1.0
 40
1.0
 40
1.0
 40
2.0
 40
2.0
 40
2.0
 40
3.0
 40
3.0
 40
3.0
 40
4.0
 40
4.0
 40
4.0
 40
4.0
 10
81.58709097409546
 20
-128.6894880233832
 30
0.0
 10
81.58709097409546
 20
-128.6343488567304
 30
0.0
 10
81.54232347523757
 20
-128.5895813567415
 30
0.0
 10
81.48683153220884
 20
-128.5895813567415
 30
0.0
 10
81.431374866957
 20
-128.5895813567415
 30
0.0
 10
81.38657209032223
 20
-128.6343488567304
 30
0.0
 10
81.38657209032223
 20
-128.6894880233832
 30
0.0
 10
81.38657209032223
 20
-128.7445919122584
 30
0.0
 10
81.431374866957
 20
-128.7893946900248
 30
0.0
 10
81.48683153220884
 20
-128.7893946900248
 30
0.0
 10
81.54232347523757
 20
-128.7893946900248
 30
0.0
 10
81.58709097409546
 20
-128.7445919122584
 30
0.0
 10
81.58709097409546
 20
-128.6894880233832
 30
0.0
  0
SPLINE
  5
6A
330
1F
100
AcDbEntity
  8
_U+30EC_U+30A4_U+30E4_U+30FC 1
 62
     7
420
 16777215
370
     9
100
AcDbSpline
210
0.0
220
0.0
230
1.0
 70
    11
 71
     3
 72
    17
 73
    13
 74
     0
 42
0.0000000001
 43
0.0000000001
 12
1.0
 22
0.0
 32
0.0
 13
1.0
 23
0.0
 33
0.0
 40
0.0
 40
0.0
 40
0.0
 40
0.0
 40
1.0
 40
1.0
 40
1.0
 40
2.0
 40
2.0
 40
2.0
 40
3.0
 40
3.0
 40
3.0
 40
4.0
 40
4.0
 40
4.0
 40
4.0
 10
82.58686317081137
 20
-128.6894880233832
 30
0.0
 10
82.58686317081137
 20
-128.6343488567304
 30
0.0
 10
82.5420603941766
 20
-128.5895813567415
 30
0.0
 10
82.48695650669353
 20
-128.5895813567415
 30
0.0
 10
82.43181942383649
 20
-128.5895813567415
 30
0.0
 10
82.38704984257569
 20
-128.6343488567304
 30
0.0
 10
82.38704984257569
 20
-128.6894880233832
 30
0.0
 10
82.38704984257569
 20
-128.7445919122584
 30
0.0
 10
82.43181942383649
 20
-128.7893946900248
 30
0.0
 10
82.48695650669353
 20
-128.7893946900248
 30
0.0
 10
82.5420603941766
 20
-128.7893946900248
 30
0.0
 10
82.58686317081137
 20
-128.7445919122584
 30
0.0
 10
82.58686317081137
 20
-128.6894880233832
 30
0.0
  0
SPLINE
  5
6B
330
1F
100
AcDbEntity
  8
_U+30EC_U+30A4_U+30E4_U+30FC 1
 62
     7
420
 16777215
370
     9
100
AcDbSpline
210
0.0
220
0.0
230
1.0
 70
    11
 71
     3
 72
    17
 73
    13
 74
     0
 42
0.0000000001
 43
0.0000000001
 12
1.0
 22
0.0
 32
0.0
 13
1.0
 23
0.0
 33
0.0
 40
0.0
 40
0.0
 40
0.0
 40
0.0
 40
1.0
 40
1.0
 40
1.0
 40
2.0
 40
2.0
 40
2.0
 40
3.0
 40
3.0
 40
3.0
 40
4.0
 40
4.0
 40
4.0
 40
4.0
 10
81.58709097409546
 20
-122.3656641360753
 30
0.0
 10
81.58709097409546
 20
-122.3098546916448
 30
0.0
 10
81.54232347523757
 20
-122.2657574694336
 30
0.0
 10
81.48683153220884
 20
-122.2657574694336
 30
0.0
 10
81.431374866957
 20
-122.2657574694336
 30
0.0
 10
81.38657209032223
 20
-122.3098546916448
 30
0.0
 10
81.38657209032223
 20
-122.3656641360753
 30
0.0
 10
81.38657209032223
 20
-122.4207680249505
 30
0.0
 10
81.431374866957
 20
-122.4655708027169
 30
0.0
 10
81.48683153220884
 20
-122.4655708027169
 30
0.0
 10
81.54232347523757
 20
-122.4655708027169
 30
0.0
 10
81.58709097409546
 20
-122.4207680249505
 30
0.0
 10
81.58709097409546
 20
-122.3656641360753
 30
0.0
  0
SPLINE
  5
6C
330
1F
100
AcDbEntity
  8
_U+30EC_U+30A4_U+30E4_U+30FC 1
 62
     7
420
 16777215
370
     9
100
AcDbSpline
210
0.0
220
0.0
230
1.0
 70
    11
 71
     3
 72
    17
 73
    13
 74
     0
 42
0.0000000001
 43
0.0000000001
 12
1.0
 22
0.0
 32
0.0
 13
1.0
 23
0.0
 33
0.0
 40
0.0
 40
0.0
 40
0.0
 40
0.0
 40
1.0
 40
1.0
 40
1.0
 40
2.0
 40
2.0
 40
2.0
 40
3.0
 40
3.0
 40
3.0
 40
4.0
 40
4.0
 40
4.0
 40
4.0
 10
89.58660910334407
 20
-122.3656641360753
 30
0.0
 10
89.58660910334407
 20
-122.3098546916448
 30
0.0
 10
89.54180632670932
 20
-122.2657574694336
 30
0.0
 10
89.48670243922625
 20
-122.2657574694336
 30
0.0
 10
89.43156327396629
 20
-122.2657574694336
 30
0.0
 10
89.38679577510841
 20
-122.3098546916448
 30
0.0
 10
89.38679577510841
 20
-122.3656641360753
 30
0.0
 10
89.38679577510841
 20
-122.4207680249505
 30
0.0
 10
89.43156327396629
 20
-122.4655708027169
 30
0.0
 10
89.48670243922625
 20
-122.4655708027169
 30
0.0
 10
89.54180632670932
 20
-122.4655708027169
 30
0.0
 10
89.58660910334407
 20
-122.4207680249505
 30
0.0
 10
89.58660910334407
 20
-122.3656641360753
 30
0.0
  0
SPLINE
  5
6D
330
1F
100
AcDbEntity
  8
_U+30EC_U+30A4_U+30E4_U+30FC 1
 62
     7
420
 16777215
370
     9
100
AcDbSpline
210
0.0
220
0.0
230
1.0
 70
    11
 71
     3
 72
    17
 73
    13
 74
     0
 42
0.0000000001
 43
0.0000000001
 12
1.0
 22
0.0
 32
0.0
 13
1.0
 23
0.0
 33
0.0
 40
0.0
 40
0.0
 40
0.0
 40
0.0
 40
1.0
 40
1.0
 40
1.0
 40
2.0
 40
2.0
 40
2.0
 40
3.0
 40
3.0
 40
3.0
 40
4.0
 40
4.0
 40
4.0
 40
4.0
 10
103.5867712461702
 20
-127.3651955237143
 30
0.0
 10
103.5867712461702
 20
-127.3100563570613
 30
0.0
 10
103.5420037473123
 20
-127.2652888570727
 30
0.0
 10
103.4868645820523
 20
-127.2652888570727
 30
0.0
 10
103.4317606945693
 20
-127.2652888570727
 30
0.0
 10
103.3869579179345
 20
-127.3100563570613
 30
0.0
 10
103.3869579179345
 20
-127.3651955237143
 30
0.0
 10
103.3869579179345
 20
-127.4202994125893
 30
0.0
 10
103.4317606945693
 20
-127.465102190356
 30
0.0
 10
103.4868645820523
 20
-127.465102190356
 30
0.0
 10
103.5420037473123
 20
-127.465102190356
 30
0.0
 10
103.5867712461702
 20
-127.4202994125893
 30
0.0
 10
103.5867712461702
 20
-127.3651955237143
 30
0.0
  0
SPLINE
  5
6E
330
1F
100
AcDbEntity
  8
_U+30EC_U+30A4_U+30E4_U+30FC 1
 62
     7
420
 16777215
370
     9
100
AcDbSpline
210
0.0
220
0.0
230
1.0
 70
    11
 71
     3
 72
    17
 73
    13
 74
     0
 42
0.0000000001
 43
0.0000000001
 12
1.0
 22
0.0
 32
0.0
 13
1.0
 23
0.0
 33
0.0
 40
0.0
 40
0.0
 40
0.0
 40
0.0
 40
1.0
 40
1.0
 40
1.0
 40
2.0
 40
2.0
 40
2.0
 40
3.0
 40
3.0
 40
3.0
 40
4.0
 40
4.0
 40
4.0
 40
4.0
 10
103.5867712461702
 20
-130.9391166339316
 30
0.0
 10
103.5867712461702
 20
-130.8840127450567
 30
0.0
 10
103.5420037473123
 20
-130.83920996729
 30
0.0
 10
103.4868645820523
 20
-130.83920996729
 30
0.0
 10
103.4317606945693
 20
-130.83920996729
 30
0.0
 10
103.3869579179345
 20
-130.8840127450567
 30
0.0
 10
103.3869579179345
 20
-130.9391166339316
 30
0.0
 10
103.3869579179345
 20
-130.9949260783621
 30
0.0
 10
103.4317606945693
 20
-131.0397288561288
 30
0.0
 10
103.4868645820523
 20
-131.0397288561288
 30
0.0
 10
103.5420037473123
 20
-131.0397288561288
 30
0.0
 10
103.5867712461702
 20
-130.9949260783621
 30
0.0
 10
103.5867712461702
 20
-130.9391166339316
 30
0.0
  0
SPLINE
  5
6F
330
1F
100
AcDbEntity
  8
_U+30EC_U+30A4_U+30E4_U+30FC 1
 62
     7
420
 16777215
370
     9
100
AcDbSpline
210
0.0
220
0.0
230
1.0
 70
    11
 71
     3
 72
    17
 73
    13
 74
     0
 42
0.0000000001
 43
0.0000000001
 12
1.0
 22
0.0
 32
0.0
 13
1.0
 23
0.0
 33
0.0
 40
0.0
 40
0.0
 40
0.0
 40
0.0
 40
1.0
 40
1.0
 40
1.0
 40
2.0
 40
2.0
 40
2.0
 40
3.0
 40
3.0
 40
3.0
 40
4.0
 40
4.0
 40
4.0
 40
4.0
 10
103.5867712461702
 20
-131.2395421894121
 30
0.0
 10
103.5867712461702
 20
-131.1844030227596
 30
0.0
 10
103.5420037473123
 20
-131.1396355227704
 30
0.0
 10
103.4868645820523
 20
-131.1396355227704
 30
0.0
 10
103.4317606945693
 20
-131.1396355227704
 30
0.0
 10
103.3869579179345
 20
-131.1844030227596
 30
0.0
 10
103.3869579179345
 20
-131.2395421894121
 30
0.0
 10
103.3869579179345
 20
-131.2946460782876
 30
0.0
 10
103.4317606945693
 20
-131.3394488560544
 30
0.0
 10
103.4868645820523
 20
-131.3394488560544
 30
0.0
 10
103.5420037473123
 20
-131.3394488560544
 30
0.0
 10
103.5867712461702
 20
-131.2946460782876
 30
0.0
 10
103.5867712461702
 20
-131.2395421894121
 30
0.0
  0
SPLINE
  5
70
330
1F
100
AcDbEntity
  8
_U+30EC_U+30A4_U+30E4_U+30FC 1
 62
     7
420
 16777215
370
     9
100
AcDbSpline
210
0.0
220
0.0
230
1.0
 70
    11
 71
     3
 72
    17
 73
    13
 74
     0
 42
0.0000000001
 43
0.0000000001
 12
1.0
 22
0.0
 32
0.0
 13
1.0
 23
0.0
 33
0.0
 40
0.0
 40
0.0
 40
0.0
 40
0.0
 40
1.0
 40
1.0
 40
1.0
 40
2.0
 40
2.0
 40
2.0
 40
3.0
 40
3.0
 40
3.0
 40
4.0
 40
4.0
 40
4.0
 40
4.0
 10
103.5867712461702
 20
-131.9395944114597
 30
0.0
 10
103.5867712461702
 20
-131.8844552448066
 30
0.0
 10
103.5420037473123
 20
-131.8396877448181
 30
0.0
 10
103.4868645820523
 20
-131.8396877448181
 30
0.0
 10
103.4317606945693
 20
-131.8396877448181
 30
0.0
 10
103.3869579179345
 20
-131.8844552448066
 30
0.0
 10
103.3869579179345
 20
-131.9395944114597
 30
0.0
 10
103.3869579179345
 20
-131.9946983003346
 30
0.0
 10
103.4317606945693
 20
-132.0395010781013
 30
0.0
 10
103.4868645820523
 20
-132.0395010781013
 30
0.0
 10
103.5420037473123
 20
-132.0395010781013
 30
0.0
 10
103.5867712461702
 20
-131.9946983003346
 30
0.0
 10
103.5867712461702
 20
-131.9395944114597
 30
0.0
  0
SPLINE
  5
71
330
1F
100
AcDbEntity
  8
_U+30EC_U+30A4_U+30E4_U+30FC 1
 62
     7
420
 16777215
370
     9
100
AcDbSpline
210
0.0
220
0.0
230
1.0
 70
    11
 71
     3
 72
    17
 73
    13
 74
     0
 42
0.0000000001
 43
0.0000000001
 12
1.0
 22
0.0
 32
0.0
 13
1.0
 23
0.0
 33
0.0
 40
0.0
 40
0.0
 40
0.0
 40
0.0
 40
1.0
 40
1.0
 40
1.0
 40
2.0
 40
2.0
 40
2.0
 40
3.0
 40
3.0
 40
3.0
 40
4.0
 40
4.0
 40
4.0
 40
4.0
 10
99.58669719732544
 20
-135.9393182993484
 30
0.0
 10
99.58669719732544
 20
-135.8842144104735
 30
0.0
 10
99.54224719733648
 20
-135.8394116327068
 30
0.0
 10
99.48678801743614
 20
-135.8394116327068
 30
0.0
 10
99.4316488521762
 20
-135.8394116327068
 30
0.0
 10
99.3868813533183
 20
-135.8842144104735
 30
0.0
 10
99.3868813533183
 20
-135.9393182993484
 30
0.0
 10
99.3868813533183
 20
-135.9944574660015
 30
0.0
 10
99.4316488521762
 20
-136.0392249659901
 30
0.0
 10
99.48678801743614
 20
-136.0392249659901
 30
0.0
 10
99.54224719733648
 20
-136.0392249659901
 30
0.0
 10
99.58669719732544
 20
-135.9944574660015
 30
0.0
 10
99.58669719732544
 20
-135.9393182993484
 30
0.0
  0
SPLINE
  5
72
330
1F
100
AcDbEntity
  8
_U+30EC_U+30A4_U+30E4_U+30FC 1
 62
     7
420
 16777215
370
     9
100
AcDbSpline
210
0.0
220
0.0
230
1.0
 70
    11
 71
     3
 72
    17
 73
    13
 74
     0
 42
0.0000000001
 43
0.0000000001
 12
1.0
 22
0.0
 32
0.0
 13
1.0
 23
0.0
 33
0.0
 40
0.0
 40
0.0
 40
0.0
 40
0.0
 40
1.0
 40
1.0
 40
1.0
 40
2.0
 40
2.0
 40
2.0
 40
3.0
 40
3.0
 40
3.0
 40
4.0
 40
4.0
 40
4.0
 40
4.0
 10
81.58709097409546
 20
-135.9393182993484
 30
0.0
 10
81.58709097409546
 20
-135.8842144104735
 30
0.0
 10
81.54232347523757
 20
-135.8394116327068
 30
0.0
 10
81.48683153220884
 20
-135.8394116327068
 30
0.0
 10
81.431374866957
 20
-135.8394116327068
 30
0.0
 10
81.38657209032223
 20
-135.8842144104735
 30
0.0
 10
81.38657209032223
 20
-135.9393182993484
 30
0.0
 10
81.38657209032223
 20
-135.9944574660015
 30
0.0
 10
81.431374866957
 20
-136.0392249659901
 30
0.0
 10
81.48683153220884
 20
-136.0392249659901
 30
0.0
 10
81.54232347523757
 20
-136.0392249659901
 30
0.0
 10
81.58709097409546
 20
-135.9944574660015
 30
0.0
 10
81.58709097409546
 20
-135.9393182993484
 30
0.0
  0
SPLINE
  5
73
330
1F
100
AcDbEntity
  8
_U+30EC_U+30A4_U+30E4_U+30FC 1
 62
     7
420
 16777215
370
     9
100
AcDbSpline
210
0.0
220
0.0
230
1.0
 70
    11
 71
     3
 72
    17
 73
    13
 74
     0
 42
0.0000000001
 43
0.0000000001
 12
1.0
 22
0.0
 32
0.0
 13
1.0
 23
0.0
 33
0.0
 40
0.0
 40
0.0
 40
0.0
 40
0.0
 40
1.0
 40
1.0
 40
1.0
 40
2.0
 40
2.0
 40
2.0
 40
3.0
 40
3.0
 40
3.0
 40
4.0
 40
4.0
 40
4.0
 40
4.0
 10
99.58669719732544
 20
-123.4391669135845
 30
0.0
 10
99.58669719732544
 20
-123.3840277469318
 30
0.0
 10
99.54224719733648
 20
-123.3392249691651
 30
0.0
 10
99.48678801743614
 20
-123.3392249691651
 30
0.0
 10
99.4316488521762
 20
-123.3392249691651
 30
0.0
 10
99.3868813533183
 20
-123.3840277469318
 30
0.0
 10
99.3868813533183
 20
-123.4391669135845
 30
0.0
 10
99.3868813533183
 20
-123.4942708024598
 30
0.0
 10
99.4316488521762
 20
-123.5390735802265
 30
0.0
 10
99.48678801743614
 20
-123.5390735802265
 30
0.0
 10
99.54224719733648
 20
-123.5390735802265
 30
0.0
 10
99.58669719732544
 20
-123.4942708024598
 30
0.0
 10
99.58669719732544
 20
-123.4391669135845
 30
0.0
  0
SPLINE
  5
74
330
1F
100
AcDbEntity
  8
_U+30EC_U+30A4_U+30E4_U+30FC 1
 62
     7
420
 16777215
370
     9
100
AcDbSpline
210
0.0
220
0.0
230
1.0
 70
    11
 71
     3
 72
    17
 73
    13
 74
     0
 42
0.0000000001
 43
0.0000000001
 12
1.0
 22
0.0
 32
0.0
 13
1.0
 23
0.0
 33
0.0
 40
0.0
 40
0.0
 40
0.0
 40
0.0
 40
1.0
 40
1.0
 40
1.0
 40
2.0
 40
2.0
 40
2.0
 40
3.0
 40
3.0
 40
3.0
 40
4.0
 40
4.0
 40
4.0
 40
4.0
 10
92.58694874902126
 20
-123.4391669135845
 30
0.0
 10
92.58694874902126
 20
-123.3840277469318
 30
0.0
 10
92.54214597238649
 20
-123.3392249691651
 30
0.0
 10
92.4866916435448
 20
-123.3392249691651
 30
0.0
 10
92.4315501418747
 20
-123.3392249691651
 30
0.0
 10
92.38678264301682
 20
-123.3840277469318
 30
0.0
 10
92.38678264301682
 20
-123.4391669135845
 30
0.0
 10
92.38678264301682
 20
-123.4942708024598
 30
0.0
 10
92.4315501418747
 20
-123.5390735802265
 30
0.0
 10
92.4866916435448
 20
-123.5390735802265
 30
0.0
 10
92.54214597238649
 20
-123.5390735802265
 30
0.0
 10
92.58694874902126
 20
-123.4942708024598
 30
0.0
 10
92.58694874902126
 20
-123.4391669135845
 30
0.0
  0
POLYLINE
  5
75
330
1F
100
AcDbEntity
  8
_U+30EC_U+30A4_U+30E4_U+30FC 1
 62
     7
420
 16777215
370
     9
100
AcDb2dPolyline
 66
     1
 10
0.0
 20
0.0
 30
0.0
  0
VERTEX
  5
76
330
75
100
AcDbEntity
  8
_U+30EC_U+30A4_U+30E4_U+30FC 1
 62
     7
420
 16777215
370
     9
100
AcDbVertex
100
AcDb2dVertex
 10
81.48683153220884
 20
-122.3656641360753
 30
0.0
  0
VERTEX
  5
77
330
75
100
AcDbEntity
  8
_U+30EC_U+30A4_U+30E4_U+30FC 1
 62
     7
420
 16777215
370
     9
100
AcDbVertex
100
AcDb2dVertex
 10
89.48670243922625
 20
-122.3656641360753
 30
0.0
  0
SEQEND
  5
78
330
75
100
AcDbEntity
  8
_U+30EC_U+30A4_U+30E4_U+30FC 1
 62
     7
420
 16777215
370
     9
  0
POLYLINE
  5
79
330
1F
100
AcDbEntity
  8
_U+30EC_U+30A4_U+30E4_U+30FC 1
 62
     7
420
 16777215
370
     9
100
AcDb2dPolyline
 66
     1
 10
0.0
 20
0.0
 30
0.0
  0
VERTEX
  5
7A
330
79
100
AcDbEntity
  8
_U+30EC_U+30A4_U+30E4_U+30FC 1
 62
     7
420
 16777215
370
     9
100
AcDbVertex
100
AcDb2dVertex
 10
81.48683153220884
 20
-123.8257055245993
 30
0.0
  0
VERTEX
  5
7B
330
79
100
AcDbEntity
  8
_U+30EC_U+30A4_U+30E4_U+30FC 1
 62
     7
420
 16777215
370
     9
100
AcDbVertex
100
AcDb2dVertex
 10
81.48683153220884
 20
-121.3651863585475
 30
0.0
  0
SEQEND
  5
7C
330
79
100
AcDbEntity
  8
_U+30EC_U+30A4_U+30E4_U+30FC 1
 62
     7
420
 16777215
370
     9
  0
POLYLINE
  5
7D
330
1F
100
AcDbEntity
  8
_U+30EC_U+30A4_U+30E4_U+30FC 1
 62
     7
420
 16777215
370
     9
100
AcDb2dPolyline
 66
     1
 10
0.0
 20
0.0
 30
0.0
  0
VERTEX
  5
7E
330
7D
100
AcDbEntity
  8
_U+30EC_U+30A4_U+30E4_U+30FC 1
 62
     7
420
 16777215
370
     9
100
AcDbVertex
100
AcDb2dVertex
 10
89.48670243922625
 20
-123.8257055245993
 30
0.0
  0
VERTEX
  5
7F
330
7D
100
AcDbEntity
  8
_U+30EC_U+30A4_U+30E4_U+30FC 1
 62
     7
420
 16777215
370
     9
100
AcDbVertex
100
AcDb2dVertex
 10
89.48670243922625
 20
-121.3651863585475
 30
0.0
  0
SEQEND
  5
80
330
7D
100
AcDbEntity
  8
_U+30EC_U+30A4_U+30E4_U+30FC 1
 62
     7
420
 16777215
370
     9
  0
INSERT
  5
82
330
1F
100
AcDbEntity
  8
_U+30EC_U+30A4_U+30E4_U+30FC 1
100
AcDbBlockReference
  2
block 2
 10
0.0
 20
0.0
 30
0.0
  0
POLYLINE
  5
89
330
1F
100
AcDbEntity
  8
_U+30EC_U+30A4_U+30E4_U+30FC 1
 62
     7
420
 16777215
370
     9
100
AcDb2dPolyline
 66
     1
 10
0.0
 20
0.0
 30
0.0
  0
VERTEX
  5
8A
330
89
100
AcDbEntity
  8
_U+30EC_U+30A4_U+30E4_U+30FC 1
 62
     7
420
 16777215
370
     9
100
AcDbVertex
100
AcDb2dVertex
 10
81.48683153220884
 20
-135.9393182993484
 30
0.0
  0
VERTEX
  5
8B
330
89
100
AcDbEntity
  8
_U+30EC_U+30A4_U+30E4_U+30FC 1
 62
     7
420
 16777215
370
     9
100
AcDbVertex
100
AcDb2dVertex
 10
99.48678801743614
 20
-135.9393182993484
 30
0.0
  0
SEQEND
  5
8C
330
89
100
AcDbEntity
  8
_U+30EC_U+30A4_U+30E4_U+30FC 1
 62
     7
420
 16777215
370
     9
  0
POLYLINE
  5
8D
330
1F
100
AcDbEntity
  8
_U+30EC_U+30A4_U+30E4_U+30FC 1
 62
     7
420
 16777215
370
     9
100
AcDb2dPolyline
 66
     1
 10
0.0
 20
0.0
 30
0.0
  0
VERTEX
  5
8E
330
8D
100
AcDbEntity
  8
_U+30EC_U+30A4_U+30E4_U+30FC 1
 62
     7
420
 16777215
370
     9
100
AcDbVertex
100
AcDb2dVertex
 10
81.48683153220884
 20
-134.4793121886022
 30
0.0
  0
VERTEX
  5
8F
330
8D
100
AcDbEntity
  8
_U+30EC_U+30A4_U+30E4_U+30FC 1
 62
     7
420
 16777215
370
     9
100
AcDbVertex
100
AcDb2dVertex
 10
81.48683153220884
 20
-136.9397960768765
 30
0.0
  0
SEQEND
  5
90
330
8D
100
AcDbEntity
  8
_U+30EC_U+30A4_U+30E4_U+30FC 1
 62
     7
420
 16777215
370
     9
  0
POLYLINE
  5
91
330
1F
100
AcDbEntity
  8
_U+30EC_U+30A4_U+30E4_U+30FC 1
 62
     7
420
 16777215
370
     9
100
AcDb2dPolyline
 66
     1
 10
0.0
 20
0.0
 30
0.0
  0
VERTEX
  5
92
330
91
100
AcDbEntity
  8
_U+30EC_U+30A4_U+30E4_U+30FC 1
 62
     7
420
 16777215
370
     9
100
AcDbVertex
100
AcDb2dVertex
 10
99.48678801743614
 20
-134.4793121886022
 30
0.0
  0
VERTEX
  5
93
330
91
100
AcDbEntity
  8
_U+30EC_U+30A4_U+30E4_U+30FC 1
 62
     7
420
 16777215
370
     9
100
AcDbVertex
100
AcDb2dVertex
 10
99.48678801743614
 20
-136.9397960768765
 30
0.0
  0
SEQEND
  5
94
330
91
100
AcDbEntity
  8
_U+30EC_U+30A4_U+30E4_U+30FC 1
 62
     7
420
 16777215
370
     9
  0
INSERT
  5
96
330
1F
100
AcDbEntity
  8
_U+30EC_U+30A4_U+30E4_U+30FC 1
100
AcDbBlockReference
  2
block 3
 10
0.0
 20
0.0
 30
0.0
  0
POLYLINE
  5
9F
330
1F
100
AcDbEntity
  8
_U+30EC_U+30A4_U+30E4_U+30FC 1
 62
     7
420
 16777215
370
     9
100
AcDb2dPolyline
 66
     1
 10
0.0
 20
0.0
 30
0.0
  0
VERTEX
  5
A0
330
9F
100
AcDbEntity
  8
_U+30EC_U+30A4_U+30E4_U+30FC 1
 62
     7
420
 16777215
370
     9
100
AcDbVertex
100
AcDb2dVertex
 10
103.4868645820523
 20
-131.9395944114597
 30
0.0
  0
VERTEX
  5
A1
330
9F
100
AcDbEntity
  8
_U+30EC_U+30A4_U+30E4_U+30FC 1
 62
     7
420
 16777215
370
     9
100
AcDbVertex
100
AcDb2dVertex
 10
103.4868645820523
 20
-137.1975002434786
 30
0.0
  0
SEQEND
  5
A2
330
9F
100
AcDbEntity
  8
_U+30EC_U+30A4_U+30E4_U+30FC 1
 62
     7
420
 16777215
370
     9
  0
POLYLINE
  5
A3
330
1F
100
AcDbEntity
  8
_U+30EC_U+30A4_U+30E4_U+30FC 1
 62
     7
420
 16777215
370
     9
100
AcDb2dPolyline
 66
     1
 10
0.0
 20
0.0
 30
0.0
  0
VERTEX
  5
A4
330
A3
100
AcDbEntity
  8
_U+30EC_U+30A4_U+30E4_U+30FC 1
 62
     7
420
 16777215
370
     9
100
AcDbVertex
100
AcDb2dVertex
 10
103.4868645820523
 20
-131.9395944114597
 30
0.0
  0
VERTEX
  5
A5
330
A3
100
AcDbEntity
  8
_U+30EC_U+30A4_U+30E4_U+30FC 1
 62
     7
420
 16777215
370
     9
100
AcDbVertex
100
AcDb2dVertex
 10
103.4868645820523
 20
-131.2395421894121
 30
0.0
  0
SEQEND
  5
A6
330
A3
100
AcDbEntity
  8
_U+30EC_U+30A4_U+30E4_U+30FC 1
 62
     7
420
 16777215
370
     9
  0
POLYLINE
  5
A7
330
1F
100
AcDbEntity
  8
_U+30EC_U+30A4_U+30E4_U+30FC 1
 62
     7
420
 16777215
370
     9
100
AcDb2dPolyline
 66
     1
 10
0.0
 20
0.0
 30
0.0
  0
VERTEX
  5
A8
330
A7
100
AcDbEntity
  8
_U+30EC_U+30A4_U+30E4_U+30FC 1
 62
     7
420
 16777215
370
     9
100
AcDbVertex
100
AcDb2dVertex
 10
102.0268610856041
 20
-131.9395944114597
 30
0.0
  0
VERTEX
  5
A9
330
A7
100
AcDbEntity
  8
_U+30EC_U+30A4_U+30E4_U+30FC 1
 62
     7
420
 16777215
370
     9
100
AcDbVertex
100
AcDb2dVertex
 10
104.4866367787683
 20
-131.9395944114597
 30
0.0
  0
SEQEND
  5
AA
330
A7
100
AcDbEntity
  8
_U+30EC_U+30A4_U+30E4_U+30FC 1
 62
     7
420
 16777215
370
     9
  0
POLYLINE
  5
AB
330
1F
100
AcDbEntity
  8
_U+30EC_U+30A4_U+30E4_U+30FC 1
 62
     7
420
 16777215
370
     9
100
AcDb2dPolyline
 66
     1
 10
0.0
 20
0.0
 30
0.0
  0
VERTEX
  5
AC
330
AB
100
AcDbEntity
  8
_U+30EC_U+30A4_U+30E4_U+30FC 1
 62
     7
420
 16777215
370
     9
100
AcDbVertex
100
AcDb2dVertex
 10
101.7719060146935
 20
-131.2395421894121
 30
0.0
  0
VERTEX
  5
AD
330
AB
100
AcDbEntity
  8
_U+30EC_U+30A4_U+30E4_U+30FC 1
 62
     7
420
 16777215
370
     9
100
AcDbVertex
100
AcDb2dVertex
 10
104.4866367787683
 20
-131.2395421894121
 30
0.0
  0
SEQEND
  5
AE
330
AB
100
AcDbEntity
  8
_U+30EC_U+30A4_U+30E4_U+30FC 1
 62
     7
420
 16777215
370
     9
  0
INSERT
  5
B0
330
1F
100
AcDbEntity
  8
_U+30EC_U+30A4_U+30E4_U+30FC 1
100
AcDbBlockReference
  2
block 4
 10
0.0
 20
0.0
 30
0.0
  0
POLYLINE
  5
C0
330
1F
100
AcDbEntity
  8
_U+30EC_U+30A4_U+30E4_U+30FC 1
 62
     7
420
 16777215
370
     9
100
AcDb2dPolyline
 66
     1
 10
0.0
 20
0.0
 30
0.0
  0
VERTEX
  5
C1
330
C0
100
AcDbEntity
  8
_U+30EC_U+30A4_U+30E4_U+30FC 1
 62
     7
420
 16777215
370
     9
100
AcDbVertex
100
AcDb2dVertex
 10
103.4868645820523
 20
-127.4092927459256
 30
0.0
  0
VERTEX
  5
C2
330
C0
100
AcDbEntity
  8
_U+30EC_U+30A4_U+30E4_U+30FC 1
 62
     7
420
 16777215
370
     9
100
AcDbVertex
100
AcDb2dVertex
 10
103.4868645820523
 20
-122.1513869139066
 30
0.0
  0
SEQEND
  5
C3
330
C0
100
AcDbEntity
  8
_U+30EC_U+30A4_U+30E4_U+30FC 1
 62
     7
420
 16777215
370
     9
  0
POLYLINE
  5
C4
330
1F
100
AcDbEntity
  8
_U+30EC_U+30A4_U+30E4_U+30FC 1
 62
     7
420
 16777215
370
     9
100
AcDb2dPolyline
 66
     1
 10
0.0
 20
0.0
 30
0.0
  0
VERTEX
  5
C5
330
C4
100
AcDbEntity
  8
_U+30EC_U+30A4_U+30E4_U+30FC 1
 62
     7
420
 16777215
370
     9
100
AcDbVertex
100
AcDb2dVertex
 10
103.4868645820523
 20
-131.9974499670004
 30
0.0
  0
VERTEX
  5
C6
330
C4
100
AcDbEntity
  8
_U+30EC_U+30A4_U+30E4_U+30FC 1
 62
     7
420
 16777215
370
     9
100
AcDbVertex
100
AcDb2dVertex
 10
103.4868645820523
 20
-127.497487190348
 30
0.0
  0
SEQEND
  5
C7
330
C4
100
AcDbEntity
  8
_U+30EC_U+30A4_U+30E4_U+30FC 1
 62
     7
420
 16777215
370
     9
  0
POLYLINE
  5
C8
330
1F
100
AcDbEntity
  8
_U+30EC_U+30A4_U+30E4_U+30FC 1
 62
     7
420
 16777215
370
     9
100
AcDb2dPolyline
 66
     1
 10
0.0
 20
0.0
 30
0.0
  0
VERTEX
  5
C9
330
C8
100
AcDbEntity
  8
_U+30EC_U+30A4_U+30E4_U+30FC 1
 62
     7
420
 16777215
370
     9
100
AcDbVertex
100
AcDb2dVertex
 10
95.0267597978876
 20
-130.9391166339316
 30
0.0
  0
VERTEX
  5
CA
330
C8
100
AcDbEntity
  8
_U+30EC_U+30A4_U+30E4_U+30FC 1
 62
     7
420
 16777215
370
     9
100
AcDbVertex
100
AcDb2dVertex
 10
104.4866367787683
 20
-130.9391166339316
 30
0.0
  0
SEQEND
  5
CB
330
C8
100
AcDbEntity
  8
_U+30EC_U+30A4_U+30E4_U+30FC 1
 62
     7
420
 16777215
370
     9
  0
POLYLINE
  5
CC
330
1F
100
AcDbEntity
  8
_U+30EC_U+30A4_U+30E4_U+30FC 1
 62
     7
420
 16777215
370
     9
100
AcDb2dPolyline
 66
     1
 10
0.0
 20
0.0
 30
0.0
  0
VERTEX
  5
CD
330
CC
100
AcDbEntity
  8
_U+30EC_U+30A4_U+30E4_U+30FC 1
 62
     7
420
 16777215
370
     9
100
AcDbVertex
100
AcDb2dVertex
 10
92.39091014291151
 20
-127.3651955237143
 30
0.0
  0
VERTEX
  5
CE
330
CC
100
AcDbEntity
  8
_U+30EC_U+30A4_U+30E4_U+30FC 1
 62
     7
420
 16777215
370
     9
100
AcDbVertex
100
AcDb2dVertex
 10
104.4866367787683
 20
-127.3651955237143
 30
0.0
  0
SEQEND
  5
CF
330
CC
100
AcDbEntity
  8
_U+30EC_U+30A4_U+30E4_U+30FC 1
 62
     7
420
 16777215
370
     9
  0
INSERT
  5
D1
330
1F
100
AcDbEntity
  8
_U+30EC_U+30A4_U+30E4_U+30FC 1
100
AcDbBlockReference
  2
block 5
 10
0.0
 20
0.0
 30
0.0
  0
POLYLINE
  5
E0
330
1F
100
AcDbEntity
  8
_U+30EC_U+30A4_U+30E4_U+30FC 1
 62
     7
420
 16777215
370
     9
100
AcDb2dPolyline
 66
     1
 10
0.0
 20
0.0
 30
0.0
  0
VERTEX
  5
E1
330
E0
100
AcDbEntity
  8
_U+30EC_U+30A4_U+30E4_U+30FC 1
 62
     7
420
 16777215
370
     9
100
AcDbVertex
100
AcDb2dVertex
 10
99.48678801743614
 20
-123.4391669135845
 30
0.0
  0
VERTEX
  5
E2
330
E0
100
AcDbEntity
  8
_U+30EC_U+30A4_U+30E4_U+30FC 1
 62
     7
420
 16777215
370
     9
100
AcDbVertex
100
AcDb2dVertex
 10
92.4866916435448
 20
-123.4391669135845
 30
0.0
  0
SEQEND
  5
E3
330
E0
100
AcDbEntity
  8
_U+30EC_U+30A4_U+30E4_U+30FC 1
 62
     7
420
 16777215
370
     9
  0
POLYLINE
  5
E4
330
1F
100
AcDbEntity
  8
_U+30EC_U+30A4_U+30E4_U+30FC 1
 62
     7
420
 16777215
370
     9
100
AcDb2dPolyline
 66
     1
 10
0.0
 20
0.0
 30
0.0
  0
VERTEX
  5
E5
330
E4
100
AcDbEntity
  8
_U+30EC_U+30A4_U+30E4_U+30FC 1
 62
     7
420
 16777215
370
     9
100
AcDbVertex
100
AcDb2dVertex
 10
99.48678801743614
 20
-129.3991710787616
 30
0.0
  0
VERTEX
  5
E6
330
E4
100
AcDbEntity
  8
_U+30EC_U+30A4_U+30E4_U+30FC 1
 62
     7
420
 16777215
370
     9
100
AcDbVertex
100
AcDb2dVertex
 10
99.48678801743614
 20
-122.4393946916123
 30
0.0
  0
SEQEND
  5
E7
330
E4
100
AcDbEntity
  8
_U+30EC_U+30A4_U+30E4_U+30FC 1
 62
     7
420
 16777215
370
     9
  0
POLYLINE
  5
E8
330
1F
100
AcDbEntity
  8
_U+30EC_U+30A4_U+30E4_U+30FC 1
 62
     7
420
 16777215
370
     9
100
AcDb2dPolyline
 66
     1
 10
0.0
 20
0.0
 30
0.0
  0
VERTEX
  5
E9
330
E8
100
AcDbEntity
  8
_U+30EC_U+30A4_U+30E4_U+30FC 1
 62
     7
420
 16777215
370
     9
100
AcDbVertex
100
AcDb2dVertex
 10
92.4866916435448
 20
-128.3993988567891
 30
0.0
  0
VERTEX
  5
EA
330
E8
100
AcDbEntity
  8
_U+30EC_U+30A4_U+30E4_U+30FC 1
 62
     7
420
 16777215
370
     9
100
AcDbVertex
100
AcDb2dVertex
 10
92.4866916435448
 20
-122.4393946916123
 30
0.0
  0
SEQEND
  5
EB
330
E8
100
AcDbEntity
  8
_U+30EC_U+30A4_U+30E4_U+30FC 1
 62
     7
420
 16777215
370
     9
  0
INSERT
  5
ED
330
1F
100
AcDbEntity
  8
_U+30EC_U+30A4_U+30E4_U+30FC 1
100
AcDbBlockReference
  2
block 6
 10
0.0
 20
0.0
 30
0.0
  0
POLYLINE
  5
F2
330
1F
100
AcDbEntity
  8
_U+30EC_U+30A4_U+30E4_U+30FC 1
 62
     7
420
 16777215
370
     9
100
AcDb2dPolyline
 66
     1
 10
0.0
 20
0.0
 30
0.0
  0
VERTEX
  5
F3
330
F2
100
AcDbEntity
  8
_U+30EC_U+30A4_U+30E4_U+30FC 1
 62
     7
420
 16777215
370
     9
100
AcDbVertex
100
AcDb2dVertex
 10
81.48683153220884
 20
-128.6894880233832
 30
0.0
  0
VERTEX
  5
F4
330
F2
100
AcDbEntity
  8
_U+30EC_U+30A4_U+30E4_U+30FC 1
 62
     7
420
 16777215
370
     9
100
AcDbVertex
100
AcDb2dVertex
 10
77.71651912839752
 20
-128.6894880233832
 30
0.0
  0
SEQEND
  5
F5
330
F2
100
AcDbEntity
  8
_U+30EC_U+30A4_U+30E4_U+30FC 1
 62
     7
420
 16777215
370
     9
  0
POLYLINE
  5
F6
330
1F
100
AcDbEntity
  8
_U+30EC_U+30A4_U+30E4_U+30FC 1
 62
     7
420
 16777215
370
     9
100
AcDb2dPolyline
 66
     1
 10
0.0
 20
0.0
 30
0.0
  0
VERTEX
  5
F7
330
F6
100
AcDbEntity
  8
_U+30EC_U+30A4_U+30E4_U+30FC 1
 62
     7
420
 16777215
370
     9
100
AcDbVertex
100
AcDb2dVertex
 10
81.48683153220884
 20
-128.6894880233832
 30
0.0
  0
VERTEX
  5
F8
330
F6
100
AcDbEntity
  8
_U+30EC_U+30A4_U+30E4_U+30FC 1
 62
     7
420
 16777215
370
     9
100
AcDbVertex
100
AcDb2dVertex
 10
83.48672870340944
 20
-128.6894880233832
 30
0.0
  0
SEQEND
  5
F9
330
F6
100
AcDbEntity
  8
_U+30EC_U+30A4_U+30E4_U+30FC 1
 62
     7
420
 16777215
370
     9
  0
INSERT
  5
FB
330
1F
100
AcDbEntity
  8
_U+30EC_U+30A4_U+30E4_U+30FC 1
100
AcDbBlockReference
  2
block 7
 10
0.0
 20
0.0
 30
0.0
  0
ENDSEC
  0
SECTION
  2
OBJECTS
  0
DICTIONARY
  5
C
330
0
100
AcDbDictionary
281
     1
  3
ACAD_GROUP
350
D
  3
ACAD_LAYOUT
350
1A
  3
ACAD_MATERIAL
350
3B
  3
ACAD_MLEADERSTYLE
350
101
  3
ACAD_MLINESTYLE
350
17
  3
ACAD_PLOTSETTINGS
350
19
  3
ACAD_PLOTSTYLENAME
350
E
  3
ACAD_TABLESTYLE
350
100
  3
ACAD_VISUALSTYLE
350
2A
  0
SUN
  5
3F
330
29
100
AcDbSun
 90
        1
290
     0
 63
     7
421
 16777215
 40
1.0
291
     1
 91
  2455826
 92
 54000000
292
     0
 70
     2
 71
   256
280
     1
  0
DICTIONARY
  5
D
102
{ACAD_REACTORS
330
C
102
}
330
C
100
AcDbDictionary
281
     1
  0
DICTIONARY
  5
1A
102
{ACAD_REACTORS
330
C
102
}
330
C
100
AcDbDictionary
281
     1
  3
Layout1
350
1E
  3
Layout2
350
26
  3
Model
350
22
  0
DICTIONARY
  5
3B
102
{ACAD_REACTORS
330
C
102
}
330
C
100
AcDbDictionary
281
     1
  3
ByBlock
350
3D
  3
ByLayer
350
3C
  3
Global
350
3E
  0
DICTIONARY
  5
101
102
{ACAD_REACTORS
330
C
102
}
330
C
100
AcDbDictionary
281
     1
  0
DICTIONARY
  5
17
102
{ACAD_REACTORS
330
C
102
}
330
C
100
AcDbDictionary
281
     1
  3
Standard
350
18
  0
DICTIONARY
  5
19
102
{ACAD_REACTORS
330
C
102
}
330
C
100
AcDbDictionary
281
     1
  0
ACDBDICTIONARYWDFLT
  5
E
102
{ACAD_REACTORS
330
C
102
}
330
C
100
AcDbDictionary
281
     1
  3
Normal
350
F
100
AcDbDictionaryWithDefault
340
F
  0
DICTIONARY
  5
100
102
{ACAD_REACTORS
330
C
102
}
330
C
100
AcDbDictionary
281
     1
  0
DICTIONARY
  5
2A
102
{ACAD_REACTORS
330
C
102
}
330
C
100
AcDbDictionary
281
     1
  3
2dWireframe
350
2F
  3
3D Hidden
350
31
  3
3dWireframe
350
30
  3
Basic
350
32
  3
Brighten
350
36
  3
ColorChange
350
3A
  3
Conceptual
350
34
  3
Dim
350
35
  3
Facepattern
350
39
  3
Flat
350
2B
  3
FlatWithEdges
350
2C
  3
Gouraud
350
2D
  3
GouraudWithEdges
350
2E
  3
Linepattern
350
38
  3
Realistic
350
33
  3
Thicken
350
37
  0
LAYOUT
  5
1E
102
{ACAD_REACTORS
330
1A
102
}
330
1A
100
AcDbPlotSettings
  1

  2
none_device
  4

  6

 40
0.0
 41
0.0
 42
0.0
 43
0.0
 44
0.0
 45
0.0
 46
0.0
 47
0.0
 48
0.0
 49
0.0
140
0.0
141
0.0
142
1.0
143
1.0
 70
   688
 72
     0
 73
     0
 74
     5
  7

 75
    16
 76
     0
 77
     2
 78
   300
147
1.0
148
0.0
149
0.0
100
AcDbLayout
  1
Layout1
 70
     1
 71
     1
 10
0.0
 20
0.0
 11
12.0
 21
9.0
 12
0.0
 22
0.0
 32
0.0
 14
1.000000000000000E+20
 24
1.000000000000000E+20
 34
1.000000000000000E+20
 15
-1.000000000000000E+20
 25
-1.000000000000000E+20
 35
-1.000000000000000E+20
146
0.0
 13
0.0
 23
0.0
 33
0.0
 16
1.0
 26
0.0
 36
0.0
 17
0.0
 27
1.0
 37
0.0
 76
     0
330
1B
  0
LAYOUT
  5
26
102
{ACAD_REACTORS
330
1A
102
}
330
1A
100
AcDbPlotSettings
  1

  2
none_device
  4

  6

 40
0.0
 41
0.0
 42
0.0
 43
0.0
 44
0.0
 45
0.0
 46
0.0
 47
0.0
 48
0.0
 49
0.0
140
0.0
141
0.0
142
1.0
143
1.0
 70
   688
 72
     0
 73
     0
 74
     5
  7

 75
    16
 76
     0
 77
     2
 78
   300
147
1.0
148
0.0
149
0.0
100
AcDbLayout
  1
Layout2
 70
     1
 71
     2
 10
0.0
 20
0.0
 11
0.0
 21
0.0
 12
0.0
 22
0.0
 32
0.0
 14
0.0
 24
0.0
 34
0.0
 15
0.0
 25
0.0
 35
0.0
146
0.0
 13
0.0
 23
0.0
 33
0.0
 16
1.0
 26
0.0
 36
0.0
 17
0.0
 27
1.0
 37
0.0
 76
     0
330
23
  0
LAYOUT
  5
22
102
{ACAD_REACTORS
330
1A
102
}
330
1A
100
AcDbPlotSettings
  1

  2
none_device
  4

  6

 40
0.0
 41
0.0
 42
0.0
 43
0.0
 44
0.0
 45
0.0
 46
0.0
 47
0.0
 48
0.0
 49
0.0
140
0.0
141
0.0
142
1.0
143
1.0
 70
  1712
 72
     0
 73
     0
 74
     0
  7

 75
     0
 76
     0
 77
     2
 78
   300
147
1.0
148
0.0
149
0.0
100
AcDbLayout
  1
Model
 70
     1
 71
     0
 10
0.0
 20
0.0
 11
12.0
 21
9.0
 12
0.0
 22
0.0
 32
0.0
 14
1.000000000000000E+20
 24
1.000000000000000E+20
 34
1.000000000000000E+20
 15
-1.000000000000000E+20
 25
-1.000000000000000E+20
 35
-1.000000000000000E+20
146
0.0
 13
0.0
 23
0.0
 33
0.0
 16
1.0
 26
0.0
 36
0.0
 17
0.0
 27
1.0
 37
0.0
 76
     0
330
1F
331
29
  0
MATERIAL
  5
3D
102
{ACAD_REACTORS
330
3B
102
}
330
3B
100
AcDbMaterial
  1
ByBlock
 72
     1
 94
      127
  0
MATERIAL
  5
3C
102
{ACAD_REACTORS
330
3B
102
}
330
3B
100
AcDbMaterial
  1
ByLayer
 72
     1
 94
      127
  0
MATERIAL
  5
3E
102
{ACAD_REACTORS
330
3B
102
}
330
3B
100
AcDbMaterial
  1
Global
 72
     1
 94
      127
  0
MLINESTYLE
  5
18
102
{ACAD_REACTORS
330
17
102
}
330
17
100
AcDbMlineStyle
  2
Standard
 70
     0
  3

 62
   256
 51
90.0
 52
90.0
 71
     2
 49
0.5
 62
   256
  6
BYLAYER
 49
-0.5
 62
   256
  6
BYLAYER
  0
ACDBPLACEHOLDER
  5
F
102
{ACAD_REACTORS
330
E
102
}
330
E
  0
VISUALSTYLE
  5
2F
102
{ACAD_REACTORS
330
2A
102
}
330
2A
100
AcDbVisualStyle
  2
2dWireframe
 70
     4
177
     2
291
     0
 71
     0
176
     1
 72
     2
176
     1
 73
     0
176
     1
 90
        0
176
     1
 40
-0.6
176
     1
 41
-30.0
176
     1
 62
     5
 63
     7
421
 16777215
176
     1
 74
     1
176
     1
 91
        4
176
     1
 64
     7
176
     1
 65
   257
176
     1
 75
     1
176
     1
175
     1
176
     1
 42
1.0
176
     1
 92
        0
176
     1
 66
   257
176
     1
 43
1.0
176
     1
 76
     1
176
     1
 77
     6
176
     1
 78
     2
176
     1
 67
     7
176
     1
 79
     5
176
     1
170
     0
176
     1
171
     0
176
     1
290
     0
176
     1
 93
        1
176
     1
 44
0.0
176
     1
173
     0
176
     1
  0
VISUALSTYLE
  5
31
102
{ACAD_REACTORS
330
2A
102
}
330
2A
100
AcDbVisualStyle
  2
3D Hidden
 70
     6
177
     2
291
     0
 71
     1
176
     1
 72
     2
176
     1
 73
     2
176
     1
 90
        0
176
     1
 40
-0.6
176
     1
 41
-30.0
176
     1
 62
     5
 63
     7
421
 16777215
176
     1
 74
     2
176
     1
 91
        2
176
     1
 64
     7
176
     1
 65
   257
176
     1
 75
     2
176
     1
175
     1
176
     1
 42
40.0
176
     1
 92
        0
176
     1
 66
   257
176
     1
 43
1.0
176
     1
 76
     1
176
     1
 77
     6
176
     1
 78
     2
176
     1
 67
     7
176
     1
 79
     3
176
     1
170
     0
176
     1
171
     0
176
     1
290
     0
176
     1
 93
        1
176
     1
 44
0.0
176
     1
173
     0
176
     1
  0
VISUALSTYLE
  5
30
102
{ACAD_REACTORS
330
2A
102
}
330
2A
100
AcDbVisualStyle
  2
3dWireframe
 70
     5
177
     2
291
     0
 71
     0
176
     1
 72
     2
176
     1
 73
     0
176
     1
 90
        0
176
     1
 40
-0.6
176
     1
 41
-30.0
176
     1
 62
     5
 63
     7
421
 16777215
176
     1
 74
     1
176
     1
 91
        4
176
     1
 64
     7
176
     1
 65
   257
176
     1
 75
     1
176
     1
175
     1
176
     1
 42
1.0
176
     1
 92
        0
176
     1
 66
   257
176
     1
 43
1.0
176
     1
 76
     1
176
     1
 77
     6
176
     1
 78
     2
176
     1
 67
     7
176
     1
 79
     5
176
     1
170
     0
176
     1
171
     0
176
     1
290
     0
176
     1
 93
        1
176
     1
 44
0.0
176
     1
173
     0
176
     1
  0
VISUALSTYLE
  5
32
102
{ACAD_REACTORS
330
2A
102
}
330
2A
100
AcDbVisualStyle
  2
Basic
 70
     7
177
     2
291
     1
 71
     1
176
     1
 72
     0
176
     1
 73
     1
176
     1
 90
        0
176
     1
 40
-0.6
176
     1
 41
-30.0
176
     1
 62
     5
 63
     7
421
 16777215
176
     1
 74
     0
176
     1
 91
        4
176
     1
 64
     7
176
     1
 65
   257
176
     1
 75
     1
176
     1
175
     1
176
     1
 42
1.0
176
     1
 92
        8
176
     1
 66
     7
176
     1
 43
1.0
176
     1
 76
     1
176
     1
 77
     6
176
     1
 78
     2
176
     1
 67
     7
176
     1
 79
     5
176
     1
170
     0
176
     1
171
     0
176
     1
290
     0
176
     1
 93
        1
176
     1
 44
0.0
176
     1
173
     0
176
     1
  0
VISUALSTYLE
  5
36
102
{ACAD_REACTORS
330
2A
102
}
330
2A
100
AcDbVisualStyle
  2
Brighten
 70
    12
177
     2
291
     1
 71
     2
176
     1
 72
     2
176
     1
 73
     0
176
     1
 90
        0
176
     1
 40
-0.6
176
     1
 41
-30.0
176
     1
 62
     5
 63
     7
421
 16777215
176
     1
 74
     1
176
     1
 91
        4
176
     1
 64
     7
176
     1
 65
   257
176
     1
 75
     1
176
     1
175
     1
176
     1
 42
1.0
176
     1
 92
        8
176
     1
 66
     7
176
     1
 43
1.0
176
     1
 76
     1
176
     1
 77
     6
176
     1
 78
     2
176
     1
 67
     7
176
     1
 79
     5
176
     1
170
     0
176
     1
171
     0
176
     1
290
     0
176
     1
 93
        1
176
     1
 44
50.0
176
     1
173
     0
176
     1
  0
VISUALSTYLE
  5
3A
102
{ACAD_REACTORS
330
2A
102
}
330
2A
100
AcDbVisualStyle
  2
ColorChange
 70
    16
177
     2
291
     1
 71
     2
176
     1
 72
     2
176
     1
 73
     3
176
     1
 90
        0
176
     1
 40
-0.6
176
     1
 41
-30.0
176
     1
 62
     5
 63
     8
421
  8421504
176
     1
 74
     1
176
     1
 91
        4
176
     1
 64
     7
176
     1
 65
   257
176
     1
 75
     1
176
     1
175
     1
176
     1
 42
1.0
176
     1
 92
        8
176
     1
 66
     8
424
  8421504
176
     1
 43
1.0
176
     1
 76
     1
176
     1
 77
     6
176
     1
 78
     2
176
     1
 67
     7
176
     1
 79
     5
176
     1
170
     0
176
     1
171
     0
176
     1
290
     0
176
     1
 93
        1
176
     1
 44
0.0
176
     1
173
     0
176
     1
  0
VISUALSTYLE
  5
34
102
{ACAD_REACTORS
330
2A
102
}
330
2A
100
AcDbVisualStyle
  2
Conceptual
 70
     9
177
     2
291
     0
 71
     3
176
     1
 72
     2
176
     1
 73
     0
176
     1
 90
        0
176
     1
 40
-0.6
176
     1
 41
-30.0
176
     1
 62
     5
 63
     7
421
 16777215
176
     1
 74
     2
176
     1
 91
        2
176
     1
 64
     7
176
     1
 65
   257
176
     1
 75
     1
176
     1
175
     1
176
     1
 42
40.0
176
     1
 92
        8
176
     1
 66
     7
176
     1
 43
1.0
176
     1
 76
     1
176
     1
 77
     6
176
     1
 78
     2
176
     1
 67
     7
176
     1
 79
     3
176
     1
170
     0
176
     1
171
     0
176
     1
290
     0
176
     1
 93
        1
176
     1
 44
0.0
176
     1
173
     0
176
     1
  0
VISUALSTYLE
  5
35
102
{ACAD_REACTORS
330
2A
102
}
330
2A
100
AcDbVisualStyle
  2
Dim
 70
    11
177
     2
291
     1
 71
     2
176
     1
 72
     2
176
     1
 73
     0
176
     1
 90
        0
176
     1
 40
-0.6
176
     1
 41
-30.0
176
     1
 62
     5
 63
     7
421
 16777215
176
     1
 74
     1
176
     1
 91
        4
176
     1
 64
     7
176
     1
 65
   257
176
     1
 75
     1
176
     1
175
     1
176
     1
 42
1.0
176
     1
 92
        8
176
     1
 66
     7
176
     1
 43
1.0
176
     1
 76
     1
176
     1
 77
     6
176
     1
 78
     2
176
     1
 67
     7
176
     1
 79
     5
176
     1
170
     0
176
     1
171
     0
176
     1
290
     0
176
     1
 93
        1
176
     1
 44
-50.0
176
     1
173
     0
176
     1
  0
VISUALSTYLE
  5
39
102
{ACAD_REACTORS
330
2A
102
}
330
2A
100
AcDbVisualStyle
  2
Facepattern
 70
    15
177
     2
291
     1
 71
     2
176
     1
 72
     2
176
     1
 73
     0
176
     1
 90
        0
176
     1
 40
-0.6
176
     1
 41
-30.0
176
     1
 62
     5
 63
     7
421
 16777215
176
     1
 74
     1
176
     1
 91
        4
176
     1
 64
     7
176
     1
 65
   257
176
     1
 75
     1
176
     1
175
     1
176
     1
 42
1.0
176
     1
 92
        8
176
     1
 66
     7
176
     1
 43
1.0
176
     1
 76
     1
176
     1
 77
     6
176
     1
 78
     2
176
     1
 67
     7
176
     1
 79
     5
176
     1
170
     0
176
     1
171
     0
176
     1
290
     0
176
     1
 93
        1
176
     1
 44
0.0
176
     1
173
     0
176
     1
  0
VISUALSTYLE
  5
2B
102
{ACAD_REACTORS
330
2A
102
}
330
2A
100
AcDbVisualStyle
  2
Flat
 70
     0
177
     2
291
     1
 71
     2
176
     1
 72
     1
176
     1
 73
     1
176
     1
 90
        2
176
     1
 40
-0.6
176
     1
 41
30.0
176
     1
 62
     5
 63
     7
421
 16777215
176
     1
 74
     0
176
     1
 91
        4
176
     1
 64
     7
176
     1
 65
   257
176
     1
 75
     1
176
     1
175
     1
176
     1
 42
1.0
176
     1
 92
        8
176
     1
 66
     7
176
     1
 43
1.0
176
     1
 76
     1
176
     1
 77
     6
176
     1
 78
     2
176
     1
 67
     7
176
     1
 79
     5
176
     1
170
     0
176
     1
171
     0
176
     1
290
     0
176
     1
 93
       13
176
     1
 44
0.0
176
     1
173
     0
176
     1
  0
VISUALSTYLE
  5
2C
102
{ACAD_REACTORS
330
2A
102
}
330
2A
100
AcDbVisualStyle
  2
FlatWithEdges
 70
     1
177
     2
291
     1
 71
     2
176
     1
 72
     1
176
     1
 73
     1
176
     1
 90
        2
176
     1
 40
-0.6
176
     1
 41
30.0
176
     1
 62
     5
 63
     7
421
 16777215
176
     1
 74
     1
176
     1
 91
        4
176
     1
 64
     7
176
     1
 65
   257
176
     1
 75
     1
176
     1
175
     1
176
     1
 42
1.0
176
     1
 92
        0
176
     1
 66
   257
176
     1
 43
1.0
176
     1
 76
     1
176
     1
 77
     6
176
     1
 78
     2
176
     1
 67
     7
176
     1
 79
     5
176
     1
170
     0
176
     1
171
     0
176
     1
290
     0
176
     1
 93
       13
176
     1
 44
0.0
176
     1
173
     0
176
     1
  0
VISUALSTYLE
  5
2D
102
{ACAD_REACTORS
330
2A
102
}
330
2A
100
AcDbVisualStyle
  2
Gouraud
 70
     2
177
     2
291
     1
 71
     2
176
     1
 72
     2
176
     1
 73
     1
176
     1
 90
        2
176
     1
 40
-0.6
176
     1
 41
30.0
176
     1
 62
     5
 63
     7
421
 16777215
176
     1
 74
     0
176
     1
 91
        4
176
     1
 64
     7
176
     1
 65
   257
176
     1
 75
     1
176
     1
175
     1
176
     1
 42
1.0
176
     1
 92
        0
176
     1
 66
     7
176
     1
 43
1.0
176
     1
 76
     1
176
     1
 77
     6
176
     1
 78
     2
176
     1
 67
     7
176
     1
 79
     5
176
     1
170
     0
176
     1
171
     0
176
     1
290
     0
176
     1
 93
       13
176
     1
 44
0.0
176
     1
173
     0
176
     1
  0
VISUALSTYLE
  5
2E
102
{ACAD_REACTORS
330
2A
102
}
330
2A
100
AcDbVisualStyle
  2
GouraudWithEdges
 70
     3
177
     2
291
     1
 71
     2
176
     1
 72
     2
176
     1
 73
     1
176
     1
 90
        2
176
     1
 40
-0.6
176
     1
 41
30.0
176
     1
 62
     5
 63
     7
421
 16777215
176
     1
 74
     1
176
     1
 91
        4
176
     1
 64
     7
176
     1
 65
   257
176
     1
 75
     1
176
     1
175
     1
176
     1
 42
1.0
176
     1
 92
        0
176
     1
 66
   257
176
     1
 43
1.0
176
     1
 76
     1
176
     1
 77
     6
176
     1
 78
     2
176
     1
 67
     7
176
     1
 79
     5
176
     1
170
     0
176
     1
171
     0
176
     1
290
     0
176
     1
 93
       13
176
     1
 44
0.0
176
     1
173
     0
176
     1
  0
VISUALSTYLE
  5
38
102
{ACAD_REACTORS
330
2A
102
}
330
2A
100
AcDbVisualStyle
  2
Linepattern
 70
    14
177
     2
291
     1
 71
     2
176
     1
 72
     2
176
     1
 73
     0
176
     1
 90
        0
176
     1
 40
-0.6
176
     1
 41
-30.0
176
     1
 62
     5
 63
     7
421
 16777215
176
     1
 74
     1
176
     1
 91
        4
176
     1
 64
     7
176
     1
 65
   257
176
     1
 75
     7
176
     1
175
     7
176
     1
 42
1.0
176
     1
 92
        8
176
     1
 66
     7
176
     1
 43
1.0
176
     1
 76
     1
176
     1
 77
     6
176
     1
 78
     2
176
     1
 67
     7
176
     1
 79
     5
176
     1
170
     0
176
     1
171
     0
176
     1
290
     0
176
     1
 93
        1
176
     1
 44
0.0
176
     1
173
     0
176
     1
  0
VISUALSTYLE
  5
33
102
{ACAD_REACTORS
330
2A
102
}
330
2A
100
AcDbVisualStyle
  2
Realistic
 70
     8
177
     2
291
     0
 71
     2
176
     1
 72
     2
176
     1
 73
     0
176
     1
 90
        0
176
     1
 40
-0.6
176
     1
 41
-30.0
176
     1
 62
     5
 63
     7
421
 16777215
176
     1
 74
     1
176
     1
 91
        0
176
     1
 64
     7
176
     1
 65
   257
176
     1
 75
     1
176
     1
175
     1
176
     1
 42
1.0
176
     1
 92
        8
176
     1
 66
     8
424
  7895160
176
     1
 43
1.0
176
     1
 76
     1
176
     1
 77
     6
176
     1
 78
     2
176
     1
 67
     7
176
     1
 79
     5
176
     1
170
     0
176
     1
171
     0
176
     1
290
     0
176
     1
 93
       13
176
     1
 44
0.0
176
     1
173
     0
176
     1
  0
VISUALSTYLE
  5
37
102
{ACAD_REACTORS
330
2A
102
}
330
2A
100
AcDbVisualStyle
  2
Thicken
 70
    13
177
     2
291
     1
 71
     2
176
     1
 72
     2
176
     1
 73
     0
176
     1
 90
        0
176
     1
 40
-0.6
176
     1
 41
-30.0
176
     1
 62
     5
 63
     7
421
 16777215
176
     1
 74
     1
176
     1
 91
        4
176
     1
 64
     7
176
     1
 65
   257
176
     1
 75
     1
176
     1
175
     1
176
     1
 42
1.0
176
     1
 92
       12
176
     1
 66
     7
176
     1
 43
1.0
176
     1
 76
     1
176
     1
 77
     6
176
     1
 78
     2
176
     1
 67
     7
176
     1
 79
     5
176
     1
170
     0
176
     1
171
     0
176
     1
290
     0
176
     1
 93
        1
176
     1
 44
0.0
176
     1
173
     0
176
     1
  0
ENDSEC
  0
EOF
