  0
SECTION
  2
HEADER
  9
$ACADVER
  1
AC1024
  9
$ACADMAINTVER
 70
     6
  9
$DWGCODEPAGE
  3
UNDEFINED
  9
$INSBASE
 10
0.0
 20
0.0
 30
0.0
  9
$EXTMIN
 10
1.000000000000000E+20
 20
1.000000000000000E+20
 30
1.000000000000000E+20
  9
$EXTMAX
 10
-1.000000000000000E+20
 20
-1.000000000000000E+20
 30
-1.000000000000000E+20
  9
$LIMMIN
 10
0.0
 20
0.0
  9
$LIMMAX
 10
12.0
 20
9.0
  9
$ORTHOMODE
 70
     0
  9
$REGENMODE
 70
     1
  9
$FILLMODE
 70
     1
  9
$QTEXTMODE
 70
     0
  9
$MIRRTEXT
 70
     1
  9
$LTSCALE
 40
1.0
  9
$ATTMODE
 70
     1
  9
$TEXTSIZE
 40
0.2
  9
$TRACEWID
 40
0.05
  9
$TEXTSTYLE
  7
Standard
  9
$CLAYER
  8
0
  9
$CELTYPE
  6
ByLayer
  9
$CECOLOR
 62
   256
  9
$CELTSCALE
 40
1.0
  9
$DISPSILH
 70
     0
  9
$DIMSCALE
 40
1.0
  9
$DIMASZ
 40
0.18
  9
$DIMEXO
 40
0.0625
  9
$DIMDLI
 40
0.38
  9
$DIMRND
 40
0.0
  9
$DIMDLE
 40
0.0
  9
$DIMEXE
 40
0.18
  9
$DIMTP
 40
0.0
  9
$DIMTM
 40
0.0
  9
$DIMTXT
 40
0.18
  9
$DIMCEN
 40
0.09
  9
$DIMTSZ
 40
0.0
  9
$DIMTOL
 70
     0
  9
$DIMLIM
 70
     0
  9
$DIMTIH
 70
     1
  9
$DIMTOH
 70
     1
  9
$DIMSE1
 70
     0
  9
$DIMSE2
 70
     0
  9
$DIMTAD
 70
     0
  9
$DIMZIN
 70
     0
  9
$DIMBLK
  1

  9
$DIMASO
 70
     1
  9
$DIMSHO
 70
     1
  9
$DIMPOST
  1

  9
$DIMAPOST
  1

  9
$DIMALT
 70
     0
  9
$DIMALTD
 70
     2
  9
$DIMALTF
 40
25.4
  9
$DIMLFAC
 40
1.0
  9
$DIMTOFL
 70
     0
  9
$DIMTVP
 40
0.0
  9
$DIMTIX
 70
     0
  9
$DIMSOXD
 70
     0
  9
$DIMSAH
 70
     0
  9
$DIMBLK1
  1

  9
$DIMBLK2
  1

  9
$DIMSTYLE
  2
Standard
  9
$DIMCLRD
 70
     0
  9
$DIMCLRE
 70
     0
  9
$DIMCLRT
 70
     0
  9
$DIMTFAC
 40
1.0
  9
$DIMGAP
 40
0.09
  9
$DIMJUST
 70
     0
  9
$DIMSD1
 70
     0
  9
$DIMSD2
 70
     0
  9
$DIMTOLJ
 70
     1
  9
$DIMTZIN
 70
     0
  9
$DIMALTZ
 70
     0
  9
$DIMALTTZ
 70
     0
  9
$DIMUPT
 70
     0
  9
$DIMDEC
 70
     4
  9
$DIMTDEC
 70
     4
  9
$DIMALTU
 70
     2
  9
$DIMALTTD
 70
     2
  9
$DIMTXSTY
  7
Standard
  9
$DIMAUNIT
 70
     0
  9
$DIMADEC
 70
     0
  9
$DIMALTRND
 40
0.0
  9
$DIMAZIN
 70
     0
  9
$DIMDSEP
 70
    46
  9
$DIMATFIT
 70
     3
  9
$DIMFRAC
 70
     0
  9
$DIMLDRBLK
  1

  9
$DIMLUNIT
 70
     2
  9
$DIMLWD
 70
    -2
  9
$DIMLWE
 70
    -2
  9
$DIMTMOVE
 70
     0
  9
$DIMFXL
 40
1.0
  9
$DIMFXLON
 70
     0
  9
$DIMJOGANG
 40
0.7853981633974483
  9
$DIMTFILL
 70
     0
  9
$DIMTFILLCLR
 70
     0
  9
$DIMARCSYM
 70
     0
  9
$DIMLTYPE
  6

  9
$DIMLTEX1
  6

  9
$DIMLTEX2
  6

  9
$DIMTXTDIRECTION
 70
     0
  9
$LUNITS
 70
     2
  9
$LUPREC
 70
     4
  9
$SKETCHINC
 40
0.1
  9
$FILLETRAD
 40
0.5
  9
$AUNITS
 70
     0
  9
$AUPREC
 70
     0
  9
$MENU
  1
.
  9
$ELEVATION
 40
0.0
  9
$PELEVATION
 40
0.0
  9
$THICKNESS
 40
0.0
  9
$LIMCHECK
 70
     0
  9
$CHAMFERA
 40
0.5
  9
$CHAMFERB
 40
0.5
  9
$CHAMFERC
 40
1.0
  9
$CHAMFERD
 40
0.0
  9
$SKPOLY
 70
     0
  9
$TDCREATE
 40
2457917.593495359
  9
$TDUCREATE
 40
2457917.21849537
  9
$TDUPDATE
 40
2457917.593495359
  9
$TDUUPDATE
 40
2457917.21849537
  9
$TDINDWG
 40
0.0000000116
  9
$TDUSRTIMER
 40
0.0000000116
  9
$USRTIMER
 70
     1
  9
$ANGBASE
 50
0.0
  9
$ANGDIR
 70
     0
  9
$PDMODE
 70
     0
  9
$PDSIZE
 40
0.0
  9
$PLINEWID
 40
0.0
  9
$SPLFRAME
 70
     0
  9
$SPLINETYPE
 70
     6
  9
$SPLINESEGS
 70
     8
  9
$HANDSEED
  5
F8
  9
$SURFTAB1
 70
     6
  9
$SURFTAB2
 70
     6
  9
$SURFTYPE
 70
     6
  9
$SURFU
 70
     6
  9
$SURFV
 70
     6
  9
$UCSBASE
  2

  9
$UCSNAME
  2

  9
$UCSORG
 10
0.0
 20
0.0
 30
0.0
  9
$UCSXDIR
 10
1.0
 20
0.0
 30
0.0
  9
$UCSYDIR
 10
0.0
 20
1.0
 30
0.0
  9
$UCSORTHOREF
  2

  9
$UCSORTHOVIEW
 70
     0
  9
$UCSORGTOP
 10
0.0
 20
0.0
 30
0.0
  9
$UCSORGBOTTOM
 10
0.0
 20
0.0
 30
0.0
  9
$UCSORGLEFT
 10
0.0
 20
0.0
 30
0.0
  9
$UCSORGRIGHT
 10
0.0
 20
0.0
 30
0.0
  9
$UCSORGFRONT
 10
0.0
 20
0.0
 30
0.0
  9
$UCSORGBACK
 10
0.0
 20
0.0
 30
0.0
  9
$PUCSBASE
  2

  9
$PUCSNAME
  2

  9
$PUCSORG
 10
0.0
 20
0.0
 30
0.0
  9
$PUCSXDIR
 10
1.0
 20
0.0
 30
0.0
  9
$PUCSYDIR
 10
0.0
 20
1.0
 30
0.0
  9
$PUCSORTHOREF
  2

  9
$PUCSORTHOVIEW
 70
     0
  9
$PUCSORGTOP
 10
0.0
 20
0.0
 30
0.0
  9
$PUCSORGBOTTOM
 10
0.0
 20
0.0
 30
0.0
  9
$PUCSORGLEFT
 10
0.0
 20
0.0
 30
0.0
  9
$PUCSORGRIGHT
 10
0.0
 20
0.0
 30
0.0
  9
$PUCSORGFRONT
 10
0.0
 20
0.0
 30
0.0
  9
$PUCSORGBACK
 10
0.0
 20
0.0
 30
0.0
  9
$USERI1
 70
     0
  9
$USERI2
 70
     0
  9
$USERI3
 70
     0
  9
$USERI4
 70
     0
  9
$USERI5
 70
     0
  9
$USERR1
 40
0.0
  9
$USERR2
 40
0.0
  9
$USERR3
 40
0.0
  9
$USERR4
 40
0.0
  9
$USERR5
 40
0.0
  9
$WORLDVIEW
 70
     1
  9
$SHADEDGE
 70
     3
  9
$SHADEDIF
 70
    70
  9
$TILEMODE
 70
     1
  9
$MAXACTVP
 70
    64
  9
$PINSBASE
 10
0.0
 20
0.0
 30
0.0
  9
$PLIMCHECK
 70
     0
  9
$PEXTMIN
 10
1.000000000000000E+20
 20
1.000000000000000E+20
 30
1.000000000000000E+20
  9
$PEXTMAX
 10
-1.000000000000000E+20
 20
-1.000000000000000E+20
 30
-1.000000000000000E+20
  9
$PLIMMIN
 10
0.0
 20
0.0
  9
$PLIMMAX
 10
12.0
 20
9.0
  9
$UNITMODE
 70
     0
  9
$VISRETAIN
 70
     1
  9
$PLINEGEN
 70
     0
  9
$PSLTSCALE
 70
     1
  9
$TREEDEPTH
 70
  3020
  9
$CMLSTYLE
  2
Standard
  9
$CMLJUST
 70
     0
  9
$CMLSCALE
 40
1.0
  9
$PROXYGRAPHICS
 70
     1
  9
$MEASUREMENT
 70
     0
  9
$CELWEIGHT
370
    -1
  9
$ENDCAPS
280
     0
  9
$JOINSTYLE
280
     0
  9
$LWDISPLAY
290
     1
  9
$INSUNITS
 70
     1
  9
$HYPERLINKBASE
  1

  9
$STYLESHEET
  1

  9
$XEDIT
290
     1
  9
$CEPSNTYPE
380
     0
  9
$PSTYLEMODE
290
     1
  9
$FINGERPRINTGUID
  2
{F72BF845-A909-4FE6-CA28-ACF317FCEB92}
  9
$VERSIONGUID
  2
{FAEB1C32-E019-11D5-929B-00C0DF256EC4}
  9
$EXTNAMES
290
     1
  9
$PSVPSCALE
 40
0.0
  9
$OLESTARTUP
290
     0
  9
$SORTENTS
280
   127
  9
$INDEXCTL
280
     0
  9
$HIDETEXT
280
     1
  9
$XCLIPFRAME
280
     2
  9
$HALOGAP
280
     0
  9
$OBSCOLOR
 70
   257
  9
$OBSLTYPE
280
     0
  9
$INTERSECTIONDISPLAY
280
     0
  9
$INTERSECTIONCOLOR
 70
   257
  9
$DIMASSOC
280
     2
  9
$PROJECTNAME
  1

  9
$CAMERADISPLAY
290
     0
  9
$LENSLENGTH
 40
50.0
  9
$CAMERAHEIGHT
 40
0.0
  9
$STEPSPERSEC
 40
2.0
  9
$STEPSIZE
 40
6.0
  9
$3DDWFPREC
 40
2.0
  9
$PSOLWIDTH
 40
0.25
  9
$PSOLHEIGHT
 40
4.0
  9
$LOFTANG1
 40
1.570796326794897
  9
$LOFTANG2
 40
1.570796326794897
  9
$LOFTMAG1
 40
0.0
  9
$LOFTMAG2
 40
0.0
  9
$LOFTPARAM
 70
     7
  9
$LOFTNORMALS
280
     1
  9
$LATITUDE
 40
37.795
  9
$LONGITUDE
 40
-122.394
  9
$NORTHDIRECTION
 40
0.0
  9
$TIMEZONE
 70
 -8000
  9
$LIGHTGLYPHDISPLAY
280
     1
  9
$TILEMODELIGHTSYNCH
280
     1
  9
$CMATERIAL
347
3C
  9
$SOLIDHIST
280
     1
  9
$SHOWHIST
280
     1
  9
$DWFFRAME
280
     2
  9
$DGNFRAME
280
     2
  9
$REALWORLDSCALE
290
     1
  9
$INTERFERECOLOR
 62
   256
  9
$CSHADOW
280
     0
  9
$SHADOWPLANELOCATION
 40
0.0
  0
ENDSEC
  0
SECTION
  2
CLASSES
  0
CLASS
  1
ACDBDICTIONARYWDFLT
  2
AcDbDictionaryWithDefault
  3
ObjectDBX Classes
 90
        0
 91
        4
280
     0
281
     0
  0
CLASS
  1
VISUALSTYLE
  2
AcDbVisualStyle
  3
ObjectDBX Classes
 90
     4095
 91
        4
280
     0
281
     0
  0
CLASS
  1
MATERIAL
  2
AcDbMaterial
  3
ObjectDBX Classes
 90
     1153
 91
        4
280
     0
281
     0
  0
CLASS
  1
SUN
  2
AcDbSun
  3
SCENEOE
 90
     1024
 91
        4
280
     0
281
     0
  0
ENDSEC
  0
SECTION
  2
TABLES
  0
TABLE
  2
VPORT
  5
8
330
0
100
AcDbSymbolTable
 70
     1
  0
VPORT
  5
29
330
8
100
AcDbSymbolTableRecord
100
AcDbViewportTableRecord
  2
*Active
 70
     0
 10
0.0
 20
0.0
 11
1.0
 21
1.0
 12
0.0
 22
0.0
 13
0.0
 23
0.0
 14
0.5
 24
0.5
 15
0.5
 25
0.5
 16
0.0
 26
0.0
 36
1.0
 17
91.00082462281999
 27
-128.4993055234307
 37
0.0
 40
256.9986110468615
 41
0.7081814508812795
 42
50.0
 43
0.0
 44
0.0
 50
0.0
 51
0.0
 71
     0
 72
   100
 73
     1
 74
     3
 75
     0
 76
     0
 77
     0
 78
     0
281
     0
 65
     1
110
0.0
120
0.0
130
0.0
111
1.0
121
0.0
131
0.0
112
0.0
122
1.0
132
0.0
 79
     0
146
0.0
 60
     3
 61
     5
292
     1
282
     1
141
0.0
142
0.0
 63
   250
361
3F
  0
ENDTAB
  0
TABLE
  2
LTYPE
  5
5
330
0
100
AcDbSymbolTable
 70
     1
  0
LTYPE
  5
14
330
5
100
AcDbSymbolTableRecord
100
AcDbLinetypeTableRecord
  2
ByBlock
 70
     0
  3

 72
    65
 73
     0
 40
0.0
  0
LTYPE
  5
15
330
5
100
AcDbSymbolTableRecord
100
AcDbLinetypeTableRecord
  2
ByLayer
 70
     0
  3

 72
    65
 73
     0
 40
0.0
  0
LTYPE
  5
16
330
5
100
AcDbSymbolTableRecord
100
AcDbLinetypeTableRecord
  2
Continuous
 70
     0
  3
Solid line
 72
    65
 73
     0
 40
0.0
  0
ENDTAB
  0
TABLE
  2
LAYER
  5
2
330
0
100
AcDbSymbolTable
 70
     2
  0
LAYER
  5
10
330
2
100
AcDbSymbolTableRecord
100
AcDbLayerTableRecord
  2
0
 70
     0
 62
     7
  6
Continuous
370
    -3
390
F
347
3E
  0
LAYER
  5
40
330
2
100
AcDbSymbolTableRecord
100
AcDbLayerTableRecord
  2
_U+30EC_U+30A4_U+30E4_U+30FC 1
 70
     0
 62
     7
  6
Continuous
370
    -3
390
F
347
3E
  0
ENDTAB
  0
TABLE
  2
STYLE
  5
3
330
0
100
AcDbSymbolTable
 70
     1
  0
STYLE
  5
11
330
3
100
AcDbSymbolTableRecord
100
AcDbTextStyleTableRecord
  2
Standard
 70
     0
 40
0.0
 41
1.0
 50
0.0
 71
     0
 42
0.2
  3
txt
  4

  0
ENDTAB
  0
TABLE
  2
VIEW
  5
6
330
0
100
AcDbSymbolTable
 70
     0
  0
ENDTAB
  0
TABLE
  2
UCS
  5
7
330
0
100
AcDbSymbolTable
 70
     0
  0
ENDTAB
  0
TABLE
  2
APPID
  5
9
330
0
100
AcDbSymbolTable
 70
     1
  0
APPID
  5
12
330
9
100
AcDbSymbolTableRecord
100
AcDbRegAppTableRecord
  2
ACAD
 70
     0
  0
ENDTAB
  0
TABLE
  2
DIMSTYLE
  5
A
330
0
100
AcDbSymbolTable
 70
     1
100
AcDbDimStyleTable
  0
DIMSTYLE
105
27
330
A
100
AcDbSymbolTableRecord
100
AcDbDimStyleTableRecord
  2
Standard
 70
     0
178
     0
340
11
  0
ENDTAB
  0
TABLE
  2
BLOCK_RECORD
  5
1
330
0
100
AcDbSymbolTable
 70
     7
  0
BLOCK_RECORD
  5
1F
330
1
100
AcDbSymbolTableRecord
100
AcDbBlockTableRecord
  2
*Model_Space
340
22
 70
     0
280
     1
281
     0
  0
BLOCK_RECORD
  5
1B
330
1
100
AcDbSymbolTableRecord
100
AcDbBlockTableRecord
  2
*Paper_Space
340
1E
 70
     0
280
     1
281
     0
  0
BLOCK_RECORD
  5
23
330
1
100
AcDbSymbolTableRecord
100
AcDbBlockTableRecord
  2
*Paper_Space0
340
26
 70
     0
280
     1
281
     0
  0
BLOCK_RECORD
  5
81
330
1
100
AcDbSymbolTableRecord
100
AcDbBlockTableRecord
  2
block 2
340
0
102
{BLKREFS
331
82
102
}
 70
     0
280
     1
281
     0
  0
BLOCK_RECORD
  5
95
330
1
100
AcDbSymbolTableRecord
100
AcDbBlockTableRecord
  2
block 3
340
0
102
{BLKREFS
331
96
102
}
 70
     0
280
     1
281
     0
  0
BLOCK_RECORD
  5
AF
330
1
100
AcDbSymbolTableRecord
100
AcDbBlockTableRecord
  2
block 4
340
0
102
{BLKREFS
331
B0
102
}
 70
     0
280
     1
281
     0
  0
BLOCK_RECORD
  5
D0
330
1
100
AcDbSymbolTableRecord
100
AcDbBlockTableRecord
  2
block 5
340
0
102
{BLKREFS
331
D1
102
}
 70
     0
280
     1
281
     0
  0
BLOCK_RECORD
  5
E2
330
1
100
AcDbSymbolTableRecord
100
AcDbBlockTableRecord
  2
block 6
340
0
102
{BLKREFS
331
E3
102
}
 70
     0
280
     1
281
     0
  0
BLOCK_RECORD
  5
F0
330
1
100
AcDbSymbolTableRecord
100
AcDbBlockTableRecord
  2
block 7
340
0
102
{BLKREFS
331
F1
102
}
 70
     0
280
     1
281
     0
  0
ENDTAB
  0
ENDSEC
  0
SECTION
  2
BLOCKS
  0
BLOCK
  5
20
330
1F
100
AcDbEntity
  8
0
100
AcDbBlockBegin
  2
*Model_Space
 70
     0
 10
0.0
 20
0.0
 30
0.0
  3
*Model_Space
  1

  0
ENDBLK
  5
21
330
1F
100
AcDbEntity
  8
0
100
AcDbBlockEnd
  0
BLOCK
  5
1C
330
1B
100
AcDbEntity
 67
     1
  8
0
100
AcDbBlockBegin
  2
*Paper_Space
 70
     0
 10
0.0
 20
0.0
 30
0.0
  3
*Paper_Space
  1

  0
ENDBLK
  5
1D
330
1B
100
AcDbEntity
 67
     1
  8
0
100
AcDbBlockEnd
  0
BLOCK
  5
24
330
23
100
AcDbEntity
  8
0
100
AcDbBlockBegin
  2
*Paper_Space0
 70
     0
 10
0.0
 20
0.0
 30
0.0
  3
*Paper_Space0
  1

  0
ENDBLK
  5
25
330
23
100
AcDbEntity
  8
0
100
AcDbBlockEnd
  0
BLOCK
  5
83
330
81
100
AcDbEntity
  8
0
100
AcDbBlockBegin
  2
block 2
 70
     0
 10
0.0
 20
0.0
 30
0.0
  3
block 2
  1

  0
SPLINE
  5
85
330
81
100
AcDbEntity
  8
_U+30EC_U+30A4_U+30E4_U+30FC 1
370
     0
100
AcDbSpline
210
0.0
220
0.0
230
1.0
 70
    11
 71
     3
 72
    29
 73
    25
 74
     0
 42
0.0000000001
 43
0.0000000001
 12
1.0
 22
0.0
 32
0.0
 13
1.0
 23
0.0
 33
0.0
 40
0.0
 40
0.0
 40
0.0
 40
0.0
 40
1.0
 40
1.0
 40
1.0
 40
2.0
 40
2.0
 40
2.0
 40
3.0
 40
3.0
 40
3.0
 40
4.0
 40
4.0
 40
4.0
 40
5.0
 40
5.0
 40
5.0
 40
6.0
 40
6.0
 40
6.0
 40
7.0
 40
7.0
 40
7.0
 40
8.0
 40
8.0
 40
8.0
 40
8.0
 10
85.43078882412841
 20
-121.905048255114
 30
0.0
 10
85.16431068834434
 20
-121.905048255114
 30
0.0
 10
84.91040715108143
 20
-121.7674166904783
 30
0.0
 10
84.91040715108143
 20
-121.4184285178225
 30
0.0
 10
84.91040715108143
 20
-121.1624579232684
 30
0.0
 10
85.05217283029945
 20
-121.0672010331013
 30
0.0
 10
85.15793726169663
 20
-121.0058783334638
 30
0.0
 10
85.03305255035633
 20
-120.9466226911175
 30
0.0
 10
84.9569159401323
 20
-120.8324177757815
 30
0.0
 10
84.9569159401323
 20
-120.6717040713946
 30
0.0
 10
84.9569159401323
 20
-120.3966131968974
 30
0.0
 10
85.15587020440547
 20
-120.2612209443271
 30
0.0
 10
85.43078882412841
 20
-120.2612209443271
 30
0.0
 10
85.71432018256448
 20
-120.2612209443271
 30
0.0
 10
85.90466170812454
 20
-120.4050536808362
 30
0.0
 10
85.90466170812454
 20
-120.6717040713946
 30
0.0
 10
85.90466170812454
 20
-120.8324177757815
 30
0.0
 10
85.82645804060937
 20
-120.9466226911175
 30
0.0
 10
85.70157332926905
 20
-121.0058783334638
 30
0.0
 10
85.7904567927885
 20
-121.0566934918712
 30
0.0
 10
85.94910343988425
 20
-121.1519503820384
 30
0.0
 10
85.94910343988425
 20
-121.4141221484659
 30
0.0
 10
85.94910343988425
 20
-121.7886040277126
 30
0.0
 10
85.66987845080476
 20
-121.905048255114
 30
0.0
 10
85.43078882412841
 20
-121.905048255114
 30
0.0
  0
SPLINE
  5
86
330
81
100
AcDbEntity
  8
_U+30EC_U+30A4_U+30E4_U+30FC 1
370
     0
100
AcDbSpline
210
0.0
220
0.0
230
1.0
 70
    11
 71
     3
 72
    17
 73
    13
 74
     0
 42
0.0000000001
 43
0.0000000001
 12
1.0
 22
0.0
 32
0.0
 13
1.0
 23
0.0
 33
0.0
 40
0.0
 40
0.0
 40
0.0
 40
0.0
 40
1.0
 40
1.0
 40
1.0
 40
2.0
 40
2.0
 40
2.0
 40
3.0
 40
3.0
 40
3.0
 40
4.0
 40
4.0
 40
4.0
 40
4.0
 10
85.43078882412841
 20
-121.1138820769264
 30
0.0
 10
85.28695608761923
 20
-121.1138820769264
 30
0.0
 10
85.1346828671712
 20
-121.2005262283804
 30
0.0
 10
85.1346828671712
 20
-121.4036146072359
 30
0.0
 10
85.1346828671712
 20
-121.6087700433825
 30
0.0
 10
85.26163463580265
 20
-121.7104003601974
 30
0.0
 10
85.43078882412841
 20
-121.7104003601974
 30
0.0
 10
85.61699623510617
 20
-121.7104003601974
 30
0.0
 10
85.7270670358599
 20
-121.5877549609225
 30
0.0
 10
85.7270670358599
 20
-121.4099880338836
 30
0.0
 10
85.7270670358599
 20
-121.187779375085
 30
0.0
 10
85.56411401940758
 20
-121.1138820769264
 30
0.0
 10
85.43078882412841
 20
-121.1138820769264
 30
0.0
  0
SPLINE
  5
87
330
81
100
AcDbEntity
  8
_U+30EC_U+30A4_U+30E4_U+30FC 1
370
     0
100
AcDbSpline
210
0.0
220
0.0
230
1.0
 70
    11
 71
     3
 72
    17
 73
    13
 74
     0
 42
0.0000000001
 43
0.0000000001
 12
1.0
 22
0.0
 32
0.0
 13
1.0
 23
0.0
 33
0.0
 40
0.0
 40
0.0
 40
0.0
 40
0.0
 40
1.0
 40
1.0
 40
1.0
 40
2.0
 40
2.0
 40
2.0
 40
3.0
 40
3.0
 40
3.0
 40
4.0
 40
4.0
 40
4.0
 40
4.0
 10
85.43078882412841
 20
-120.4538017819525
 30
0.0
 10
85.26576875038495
 20
-120.4538017819525
 30
0.0
 10
85.18119165622207
 20
-120.5488864173454
 30
0.0
 10
85.18119165622207
 20
-120.6842786699157
 30
0.0
 10
85.18119165622207
 20
-120.8070963239649
 30
0.0
 10
85.2531941518638
 20
-120.9256076086575
 30
0.0
 10
85.43078882412841
 20
-120.9256076086575
 30
0.0
 10
85.60855575116732
 20
-120.9256076086575
 30
0.0
 10
85.68038599203477
 20
-120.8070963239649
 30
0.0
 10
85.68038599203477
 20
-120.6842786699157
 30
0.0
 10
85.68038599203477
 20
-120.5488864173454
 30
0.0
 10
85.59374184058073
 20
-120.4538017819525
 30
0.0
 10
85.43078882412841
 20
-120.4538017819525
 30
0.0
  0
HATCH
  5
88
330
81
100
AcDbEntity
  8
_U+30EC_U+30A4_U+30E4_U+30FC 1
 62
     7
420
 16777215
100
AcDbHatch
 10
0.0
 20
0.0
 30
0.0
210
0.0
220
0.0
230
1.0
  2
SOLID
 70
     1
 71
     0
 91
        3
 92
        1
 93
        1
 72
     4
 94
        3
 73
     0
 74
     1
 95
       29
 96
       25
 40
0.0
 40
0.0
 40
0.0
 40
0.0
 40
1.0
 40
1.0
 40
1.0
 40
2.0
 40
2.0
 40
2.0
 40
3.0
 40
3.0
 40
3.0
 40
4.0
 40
4.0
 40
4.0
 40
5.0
 40
5.0
 40
5.0
 40
6.0
 40
6.0
 40
6.0
 40
7.0
 40
7.0
 40
7.0
 40
8.0
 40
8.0
 40
8.0
 40
8.0
 10
85.43078882412841
 20
-121.905048255114
 10
85.16431068834434
 20
-121.905048255114
 10
84.91040715108143
 20
-121.7674166904783
 10
84.91040715108143
 20
-121.4184285178225
 10
84.91040715108143
 20
-121.1624579232684
 10
85.05217283029945
 20
-121.0672010331013
 10
85.15793726169663
 20
-121.0058783334638
 10
85.03305255035633
 20
-120.9466226911175
 10
84.9569159401323
 20
-120.8324177757815
 10
84.9569159401323
 20
-120.6717040713946
 10
84.9569159401323
 20
-120.3966131968974
 10
85.15587020440547
 20
-120.2612209443271
 10
85.43078882412841
 20
-120.2612209443271
 10
85.71432018256448
 20
-120.2612209443271
 10
85.90466170812454
 20
-120.4050536808362
 10
85.90466170812454
 20
-120.6717040713946
 10
85.90466170812454
 20
-120.8324177757815
 10
85.82645804060937
 20
-120.9466226911175
 10
85.70157332926905
 20
-121.0058783334638
 10
85.7904567927885
 20
-121.0566934918712
 10
85.94910343988425
 20
-121.1519503820384
 10
85.94910343988425
 20
-121.4141221484659
 10
85.94910343988425
 20
-121.7886040277126
 10
85.66987845080476
 20
-121.905048255114
 10
85.43078882412841
 20
-121.905048255114
 97
        0
 97
        0
 92
        1
 93
        1
 72
     4
 94
        3
 73
     0
 74
     1
 95
       17
 96
       13
 40
0.0
 40
0.0
 40
0.0
 40
0.0
 40
1.0
 40
1.0
 40
1.0
 40
2.0
 40
2.0
 40
2.0
 40
3.0
 40
3.0
 40
3.0
 40
4.0
 40
4.0
 40
4.0
 40
4.0
 10
85.43078882412841
 20
-121.1138820769264
 10
85.28695608761923
 20
-121.1138820769264
 10
85.1346828671712
 20
-121.2005262283804
 10
85.1346828671712
 20
-121.4036146072359
 10
85.1346828671712
 20
-121.6087700433825
 10
85.26163463580265
 20
-121.7104003601974
 10
85.43078882412841
 20
-121.7104003601974
 10
85.61699623510617
 20
-121.7104003601974
 10
85.7270670358599
 20
-121.5877549609225
 10
85.7270670358599
 20
-121.4099880338836
 10
85.7270670358599
 20
-121.187779375085
 10
85.56411401940758
 20
-121.1138820769264
 10
85.43078882412841
 20
-121.1138820769264
 97
        0
 97
        0
 92
        1
 93
        1
 72
     4
 94
        3
 73
     0
 74
     1
 95
       17
 96
       13
 40
0.0
 40
0.0
 40
0.0
 40
0.0
 40
1.0
 40
1.0
 40
1.0
 40
2.0
 40
2.0
 40
2.0
 40
3.0
 40
3.0
 40
3.0
 40
4.0
 40
4.0
 40
4.0
 40
4.0
 10
85.43078882412841
 20
-120.4538017819525
 10
85.26576875038495
 20
-120.4538017819525
 10
85.18119165622207
 20
-120.5488864173454
 10
85.18119165622207
 20
-120.6842786699157
 10
85.18119165622207
 20
-120.8070963239649
 10
85.2531941518638
 20
-120.9256076086575
 10
85.43078882412841
 20
-120.9256076086575
 10
85.60855575116732
 20
-120.9256076086575
 10
85.68038599203477
 20
-120.8070963239649
 10
85.68038599203477
 20
-120.6842786699157
 10
85.68038599203477
 20
-120.5488864173454
 10
85.59374184058073
 20
-120.4538017819525
 10
85.43078882412841
 20
-120.4538017819525
 97
        0
 97
        0
 75
     2
 76
     1
 98
        0
  0
ENDBLK
  5
84
330
81
100
AcDbEntity
  8
0
100
AcDbBlockEnd
  0
BLOCK
  5
97
330
95
100
AcDbEntity
  8
0
100
AcDbBlockBegin
  2
block 3
 70
     0
 10
0.0
 20
0.0
 30
0.0
  3
block 3
  1

  0
SPLINE
  5
99
330
95
100
AcDbEntity
  8
_U+30EC_U+30A4_U+30E4_U+30FC 1
370
     0
100
AcDbSpline
210
0.0
220
0.0
230
1.0
 70
    11
 71
     3
 72
    26
 73
    22
 74
     0
 42
0.0000000001
 43
0.0000000001
 12
1.0
 22
0.0
 32
0.0
 13
1.0
 23
0.0
 33
0.0
 40
0.0
 40
0.0
 40
0.0
 40
0.0
 40
1.0
 40
1.0
 40
1.0
 40
2.0
 40
2.0
 40
2.0
 40
3.0
 40
3.0
 40
3.0
 40
4.0
 40
4.0
 40
4.0
 40
5.0
 40
5.0
 40
5.0
 40
6.0
 40
6.0
 40
6.0
 40
7.0
 40
7.0
 40
7.0
 40
7.0
 10
89.71579858868216
 20
-134.9278536989069
 30
0.0
 10
89.71579858868216
 20
-134.9278536989069
 30
0.0
 10
89.71579858868216
 20
-133.8240451054329
 30
0.0
 10
89.71579858868216
 20
-133.8240451054329
 30
0.0
 10
89.71579858868216
 20
-133.8240451054329
 30
0.0
 10
89.38575844119524
 20
-133.8240451054329
 30
0.0
 10
89.38575844119524
 20
-133.8240451054329
 30
0.0
 10
89.38575844119524
 20
-133.8240451054329
 30
0.0
 10
89.38575844119524
 20
-133.6759059995671
 30
0.0
 10
89.38575844119524
 20
-133.6759059995671
 30
0.0
 10
89.71786564597332
 20
-133.660747579432
 30
0.0
 10
89.7643744350242
 20
-133.4981390725283
 30
0.0
 10
89.79400225619733
 20
-133.3837619024179
 30
0.0
 10
89.79400225619733
 20
-133.3837619024179
 30
0.0
 10
89.94007430477193
 20
-133.3837619024179
 30
0.0
 10
89.94007430477193
 20
-133.3837619024179
 30
0.0
 10
89.94007430477193
 20
-133.3837619024179
 30
0.0
 10
89.94007430477193
 20
-134.9278536989069
 30
0.0
 10
89.94007430477193
 20
-134.9278536989069
 30
0.0
 10
89.94007430477193
 20
-134.9278536989069
 30
0.0
 10
89.71579858868216
 20
-134.9278536989069
 30
0.0
 10
89.71579858868216
 20
-134.9278536989069
 30
0.0
  0
HATCH
  5
9A
330
95
100
AcDbEntity
  8
_U+30EC_U+30A4_U+30E4_U+30FC 1
 62
     7
420
 16777215
100
AcDbHatch
 10
0.0
 20
0.0
 30
0.0
210
0.0
220
0.0
230
1.0
  2
SOLID
 70
     1
 71
     0
 91
        1
 92
        1
 93
        1
 72
     4
 94
        3
 73
     0
 74
     1
 95
       26
 96
       22
 40
0.0
 40
0.0
 40
0.0
 40
0.0
 40
1.0
 40
1.0
 40
1.0
 40
2.0
 40
2.0
 40
2.0
 40
3.0
 40
3.0
 40
3.0
 40
4.0
 40
4.0
 40
4.0
 40
5.0
 40
5.0
 40
5.0
 40
6.0
 40
6.0
 40
6.0
 40
7.0
 40
7.0
 40
7.0
 40
7.0
 10
89.71579858868216
 20
-134.9278536989069
 10
89.71579858868216
 20
-134.9278536989069
 10
89.71579858868216
 20
-133.8240451054329
 10
89.71579858868216
 20
-133.8240451054329
 10
89.71579858868216
 20
-133.8240451054329
 10
89.38575844119524
 20
-133.8240451054329
 10
89.38575844119524
 20
-133.8240451054329
 10
89.38575844119524
 20
-133.8240451054329
 10
89.38575844119524
 20
-133.6759059995671
 10
89.38575844119524
 20
-133.6759059995671
 10
89.71786564597332
 20
-133.660747579432
 10
89.7643744350242
 20
-133.4981390725283
 10
89.79400225619733
 20
-133.3837619024179
 10
89.79400225619733
 20
-133.3837619024179
 10
89.94007430477193
 20
-133.3837619024179
 10
89.94007430477193
 20
-133.3837619024179
 10
89.94007430477193
 20
-133.3837619024179
 10
89.94007430477193
 20
-134.9278536989069
 10
89.94007430477193
 20
-134.9278536989069
 10
89.94007430477193
 20
-134.9278536989069
 10
89.71579858868216
 20
-134.9278536989069
 10
89.71579858868216
 20
-134.9278536989069
 97
        0
 97
        0
 75
     2
 76
     1
 98
        0
  0
SPLINE
  5
9B
330
95
100
AcDbEntity
  8
_U+30EC_U+30A4_U+30E4_U+30FC 1
370
     0
100
AcDbSpline
210
0.0
220
0.0
230
1.0
 70
    11
 71
     3
 72
    29
 73
    25
 74
     0
 42
0.0000000001
 43
0.0000000001
 12
1.0
 22
0.0
 32
0.0
 13
1.0
 23
0.0
 33
0.0
 40
0.0
 40
0.0
 40
0.0
 40
0.0
 40
1.0
 40
1.0
 40
1.0
 40
2.0
 40
2.0
 40
2.0
 40
3.0
 40
3.0
 40
3.0
 40
4.0
 40
4.0
 40
4.0
 40
5.0
 40
5.0
 40
5.0
 40
6.0
 40
6.0
 40
6.0
 40
7.0
 40
7.0
 40
7.0
 40
8.0
 40
8.0
 40
8.0
 40
8.0
 10
90.94121905278553
 20
-134.9788411120886
 30
0.0
 10
90.6745686622272
 20
-134.9788411120886
 30
0.0
 10
90.42100963451281
 20
-134.8410372926786
 30
0.0
 10
90.42100963451281
 20
-134.4923936295714
 30
0.0
 10
90.42100963451281
 20
-134.2360785254688
 30
0.0
 10
90.56260305895657
 20
-134.1409938900759
 30
0.0
 10
90.66836749035375
 20
-134.0796711904384
 30
0.0
 10
90.5436550337877
 20
-134.0204155480921
 30
0.0
 10
90.46751842356367
 20
-133.9060383779818
 30
0.0
 10
90.46751842356367
 20
-133.7454969283692
 30
0.0
 10
90.46751842356367
 20
-133.4705783086463
 30
0.0
 10
90.6663004330626
 20
-133.3348415465274
 30
0.0
 10
90.94121905278553
 20
-133.3348415465274
 30
0.0
 10
91.22475041122159
 20
-133.3348415465274
 30
0.0
 10
91.4152641915559
 20
-133.4788465378109
 30
0.0
 10
91.4152641915559
 20
-133.7454969283692
 30
0.0
 10
91.4152641915559
 20
-133.9060383779818
 30
0.0
 10
91.33671601449221
 20
-134.0204155480921
 30
0.0
 10
91.21200355792617
 20
-134.0796711904384
 30
0.0
 10
91.30088702144562
 20
-134.1306586036201
 30
0.0
 10
91.45970592331564
 20
-134.225743239013
 30
0.0
 10
91.45970592331564
 20
-134.488259514989
 30
0.0
 10
91.45970592331564
 20
-134.8623968846872
 30
0.0
 10
91.18030867946187
 20
-134.9788411120886
 30
0.0
 10
90.94121905278553
 20
-134.9788411120886
 30
0.0
  0
SPLINE
  5
9C
330
95
100
AcDbEntity
  8
_U+30EC_U+30A4_U+30E4_U+30FC 1
370
     0
100
AcDbSpline
210
0.0
220
0.0
230
1.0
 70
    11
 71
     3
 72
    17
 73
    13
 74
     0
 42
0.0000000001
 43
0.0000000001
 12
1.0
 22
0.0
 32
0.0
 13
1.0
 23
0.0
 33
0.0
 40
0.0
 40
0.0
 40
0.0
 40
0.0
 40
1.0
 40
1.0
 40
1.0
 40
2.0
 40
2.0
 40
2.0
 40
3.0
 40
3.0
 40
3.0
 40
4.0
 40
4.0
 40
4.0
 40
4.0
 10
90.94121905278553
 20
-134.1878471886753
 30
0.0
 10
90.79755857105062
 20
-134.1878471886753
 30
0.0
 10
90.64494084105405
 20
-134.2746635949036
 30
0.0
 10
90.64494084105405
 20
-134.4772352094363
 30
0.0
 10
90.64494084105405
 20
-134.6825629003571
 30
0.0
 10
90.77206486445976
 20
-134.7838487076235
 30
0.0
 10
90.94121905278553
 20
-134.7838487076235
 30
0.0
 10
91.12725420898903
 20
-134.7838487076235
 30
0.0
 10
91.23749726451702
 20
-134.6612033083486
 30
0.0
 10
91.23749726451702
 20
-134.4834363813097
 30
0.0
 10
91.23749726451702
 20
-134.2615722320596
 30
0.0
 10
91.0745442480647
 20
-134.1878471886753
 30
0.0
 10
90.94121905278553
 20
-134.1878471886753
 30
0.0
  0
SPLINE
  5
9D
330
95
100
AcDbEntity
  8
_U+30EC_U+30A4_U+30E4_U+30FC 1
370
     0
100
AcDbSpline
210
0.0
220
0.0
230
1.0
 70
    11
 71
     3
 72
    17
 73
    13
 74
     0
 42
0.0000000001
 43
0.0000000001
 12
1.0
 22
0.0
 32
0.0
 13
1.0
 23
0.0
 33
0.0
 40
0.0
 40
0.0
 40
0.0
 40
0.0
 40
1.0
 40
1.0
 40
1.0
 40
2.0
 40
2.0
 40
2.0
 40
3.0
 40
3.0
 40
3.0
 40
4.0
 40
4.0
 40
4.0
 40
4.0
 10
90.94121905278553
 20
-133.5277668937014
 30
0.0
 10
90.77619897904206
 20
-133.5277668937014
 30
0.0
 10
90.69179413965344
 20
-133.6228515290943
 30
0.0
 10
90.69179413965344
 20
-133.7578992721161
 30
0.0
 10
90.69179413965344
 20
-133.880544671391
 30
0.0
 10
90.76345212574664
 20
-133.9990559560836
 30
0.0
 10
90.94121905278553
 20
-133.9990559560836
 30
0.0
 10
91.11898597982443
 20
-133.9990559560836
 30
0.0
 10
91.19098847546614
 20
-133.880544671391
 30
0.0
 10
91.19098847546614
 20
-133.7578992721161
 30
0.0
 10
91.19098847546614
 20
-133.6228515290943
 30
0.0
 10
91.10417206923785
 20
-133.5277668937014
 30
0.0
 10
90.94121905278553
 20
-133.5277668937014
 30
0.0
  0
HATCH
  5
9E
330
95
100
AcDbEntity
  8
_U+30EC_U+30A4_U+30E4_U+30FC 1
 62
     7
420
 16777215
100
AcDbHatch
 10
0.0
 20
0.0
 30
0.0
210
0.0
220
0.0
230
1.0
  2
SOLID
 70
     1
 71
     0
 91
        3
 92
        1
 93
        1
 72
     4
 94
        3
 73
     0
 74
     1
 95
       29
 96
       25
 40
0.0
 40
0.0
 40
0.0
 40
0.0
 40
1.0
 40
1.0
 40
1.0
 40
2.0
 40
2.0
 40
2.0
 40
3.0
 40
3.0
 40
3.0
 40
4.0
 40
4.0
 40
4.0
 40
5.0
 40
5.0
 40
5.0
 40
6.0
 40
6.0
 40
6.0
 40
7.0
 40
7.0
 40
7.0
 40
8.0
 40
8.0
 40
8.0
 40
8.0
 10
90.94121905278553
 20
-134.9788411120886
 10
90.6745686622272
 20
-134.9788411120886
 10
90.42100963451281
 20
-134.8410372926786
 10
90.42100963451281
 20
-134.4923936295714
 10
90.42100963451281
 20
-134.2360785254688
 10
90.56260305895657
 20
-134.1409938900759
 10
90.66836749035375
 20
-134.0796711904384
 10
90.5436550337877
 20
-134.0204155480921
 10
90.46751842356367
 20
-133.9060383779818
 10
90.46751842356367
 20
-133.7454969283692
 10
90.46751842356367
 20
-133.4705783086463
 10
90.6663004330626
 20
-133.3348415465274
 10
90.94121905278553
 20
-133.3348415465274
 10
91.22475041122159
 20
-133.3348415465274
 10
91.4152641915559
 20
-133.4788465378109
 10
91.4152641915559
 20
-133.7454969283692
 10
91.4152641915559
 20
-133.9060383779818
 10
91.33671601449221
 20
-134.0204155480921
 10
91.21200355792617
 20
-134.0796711904384
 10
91.30088702144562
 20
-134.1306586036201
 10
91.45970592331564
 20
-134.225743239013
 10
91.45970592331564
 20
-134.488259514989
 10
91.45970592331564
 20
-134.8623968846872
 10
91.18030867946187
 20
-134.9788411120886
 10
90.94121905278553
 20
-134.9788411120886
 97
        0
 97
        0
 92
        1
 93
        1
 72
     4
 94
        3
 73
     0
 74
     1
 95
       17
 96
       13
 40
0.0
 40
0.0
 40
0.0
 40
0.0
 40
1.0
 40
1.0
 40
1.0
 40
2.0
 40
2.0
 40
2.0
 40
3.0
 40
3.0
 40
3.0
 40
4.0
 40
4.0
 40
4.0
 40
4.0
 10
90.94121905278553
 20
-134.1878471886753
 10
90.79755857105062
 20
-134.1878471886753
 10
90.64494084105405
 20
-134.2746635949036
 10
90.64494084105405
 20
-134.4772352094363
 10
90.64494084105405
 20
-134.6825629003571
 10
90.77206486445976
 20
-134.7838487076235
 10
90.94121905278553
 20
-134.7838487076235
 10
91.12725420898903
 20
-134.7838487076235
 10
91.23749726451702
 20
-134.6612033083486
 10
91.23749726451702
 20
-134.4834363813097
 10
91.23749726451702
 20
-134.2615722320596
 10
91.0745442480647
 20
-134.1878471886753
 10
90.94121905278553
 20
-134.1878471886753
 97
        0
 97
        0
 92
        1
 93
        1
 72
     4
 94
        3
 73
     0
 74
     1
 95
       17
 96
       13
 40
0.0
 40
0.0
 40
0.0
 40
0.0
 40
1.0
 40
1.0
 40
1.0
 40
2.0
 40
2.0
 40
2.0
 40
3.0
 40
3.0
 40
3.0
 40
4.0
 40
4.0
 40
4.0
 40
4.0
 10
90.94121905278553
 20
-133.5277668937014
 10
90.77619897904206
 20
-133.5277668937014
 10
90.69179413965344
 20
-133.6228515290943
 10
90.69179413965344
 20
-133.7578992721161
 10
90.69179413965344
 20
-133.880544671391
 10
90.76345212574664
 20
-133.9990559560836
 10
90.94121905278553
 20
-133.9990559560836
 10
91.11898597982443
 20
-133.9990559560836
 10
91.19098847546614
 20
-133.880544671391
 10
91.19098847546614
 20
-133.7578992721161
 10
91.19098847546614
 20
-133.6228515290943
 10
91.10417206923785
 20
-133.5277668937014
 10
90.94121905278553
 20
-133.5277668937014
 97
        0
 97
        0
 75
     2
 76
     1
 98
        0
  0
ENDBLK
  5
98
330
95
100
AcDbEntity
  8
0
100
AcDbBlockEnd
  0
BLOCK
  5
B1
330
AF
100
AcDbEntity
  8
0
100
AcDbBlockBegin
  2
block 4
 70
     0
 10
0.0
 20
0.0
 30
0.0
  3
block 4
  1

  0
SPLINE
  5
B3
330
AF
100
AcDbEntity
  8
_U+30EC_U+30A4_U+30E4_U+30FC 1
370
     0
100
AcDbSpline
210
0.0
220
0.0
230
1.0
 70
    11
 71
     3
 72
    29
 73
    25
 74
     0
 42
0.0000000001
 43
0.0000000001
 12
1.0
 22
0.0
 32
0.0
 13
1.0
 23
0.0
 33
0.0
 40
0.0
 40
0.0
 40
0.0
 40
0.0
 40
1.0
 40
1.0
 40
1.0
 40
2.0
 40
2.0
 40
2.0
 40
3.0
 40
3.0
 40
3.0
 40
4.0
 40
4.0
 40
4.0
 40
5.0
 40
5.0
 40
5.0
 40
6.0
 40
6.0
 40
6.0
 40
7.0
 40
7.0
 40
7.0
 40
8.0
 40
8.0
 40
8.0
 40
8.0
 10
102.3021104344939
 20
-133.1777451924
 30
0.0
 10
102.5115722399971
 20
-133.2859211906369
 30
0.0
 10
102.530520265166
 20
-133.4588649839964
 30
0.0
 10
102.530520265166
 20
-133.5753092113978
 30
0.0
 10
102.530520265166
 20
-133.7365396801075
 30
0.0
 10
102.4840114761151
 20
-133.8777885950028
 30
0.0
 10
102.3021104344939
 20
-133.9728732303957
 30
0.0
 10
102.1074625395773
 20
-134.0769151140502
 30
0.0
 10
101.8704399701921
 20
-134.0962076487676
 30
0.0
 10
101.7078314632883
 20
-134.0962076487676
 30
0.0
 10
101.5638264720049
 20
-134.0962076487676
 30
0.0
 10
101.3119899920331
 20
-134.0789821713414
 30
0.0
 10
101.1132079825342
 20
-133.9728732303957
 30
0.0
 10
100.910291858453
 20
-133.8653862512559
 30
0.0
 10
100.8868652091533
 20
-133.7041557825462
 30
0.0
 10
100.8868652091533
 20
-133.5753092113978
 30
0.0
 10
100.8868652091533
 20
-133.4168348190763
 30
0.0
 10
100.931306940913
 20
-133.2728298277929
 30
0.0
 10
101.1132079825342
 20
-133.1777451924
 30
0.0
 10
101.3057888201597
 20
-133.0785264424248
 30
0.0
 10
101.5341986508317
 20
-133.0550997931251
 30
0.0
 10
101.7078314632883
 20
-133.0550997931251
 30
0.0
 10
101.8790527089052
 20
-133.0550997931251
 30
0.0
 10
102.1095295968685
 20
-133.0764593851337
 30
0.0
 10
102.3021104344939
 20
-133.1777451924
 30
0.0
  0
SPLINE
  5
B4
330
AF
100
AcDbEntity
  8
_U+30EC_U+30A4_U+30E4_U+30FC 1
370
     0
100
AcDbSpline
210
0.0
220
0.0
230
1.0
 70
    11
 71
     3
 72
    17
 73
    13
 74
     0
 42
0.0000000001
 43
0.0000000001
 12
1.0
 22
0.0
 32
0.0
 13
1.0
 23
0.0
 33
0.0
 40
0.0
 40
0.0
 40
0.0
 40
0.0
 40
1.0
 40
1.0
 40
1.0
 40
2.0
 40
2.0
 40
2.0
 40
3.0
 40
3.0
 40
3.0
 40
4.0
 40
4.0
 40
4.0
 40
4.0
 10
101.0794460467788
 20
-133.5753092113978
 30
0.0
 10
101.0794460467788
 20
-133.825423143627
 30
0.0
 10
101.3629774052148
 20
-133.8715874231293
 30
0.0
 10
101.7078314632883
 20
-133.8715874231293
 30
0.0
 10
102.027191814771
 20
-133.8715874231293
 30
0.0
 10
102.3358723702494
 20
-133.8357584300827
 30
0.0
 10
102.3358723702494
 20
-133.5753092113978
 30
0.0
 10
102.3358723702494
 20
-133.3279513555569
 30
0.0
 10
102.054752578653
 20
-133.2790309996664
 30
0.0
 10
101.7078314632883
 20
-133.2790309996664
 30
0.0
 10
101.3881266022571
 20
-133.2790309996664
 30
0.0
 10
101.0794460467788
 20
-133.3176160691011
 30
0.0
 10
101.0794460467788
 20
-133.5753092113978
 30
0.0
  0
HATCH
  5
B5
330
AF
100
AcDbEntity
  8
_U+30EC_U+30A4_U+30E4_U+30FC 1
 62
     7
420
 16777215
100
AcDbHatch
 10
0.0
 20
0.0
 30
0.0
210
0.0
220
0.0
230
1.0
  2
SOLID
 70
     1
 71
     0
 91
        2
 92
        1
 93
        1
 72
     4
 94
        3
 73
     0
 74
     1
 95
       29
 96
       25
 40
0.0
 40
0.0
 40
0.0
 40
0.0
 40
1.0
 40
1.0
 40
1.0
 40
2.0
 40
2.0
 40
2.0
 40
3.0
 40
3.0
 40
3.0
 40
4.0
 40
4.0
 40
4.0
 40
5.0
 40
5.0
 40
5.0
 40
6.0
 40
6.0
 40
6.0
 40
7.0
 40
7.0
 40
7.0
 40
8.0
 40
8.0
 40
8.0
 40
8.0
 10
102.3021104344939
 20
-133.1777451924
 10
102.5115722399971
 20
-133.2859211906369
 10
102.530520265166
 20
-133.4588649839964
 10
102.530520265166
 20
-133.5753092113978
 10
102.530520265166
 20
-133.7365396801075
 10
102.4840114761151
 20
-133.8777885950028
 10
102.3021104344939
 20
-133.9728732303957
 10
102.1074625395773
 20
-134.0769151140502
 10
101.8704399701921
 20
-134.0962076487676
 10
101.7078314632883
 20
-134.0962076487676
 10
101.5638264720049
 20
-134.0962076487676
 10
101.3119899920331
 20
-134.0789821713414
 10
101.1132079825342
 20
-133.9728732303957
 10
100.910291858453
 20
-133.8653862512559
 10
100.8868652091533
 20
-133.7041557825462
 10
100.8868652091533
 20
-133.5753092113978
 10
100.8868652091533
 20
-133.4168348190763
 10
100.931306940913
 20
-133.2728298277929
 10
101.1132079825342
 20
-133.1777451924
 10
101.3057888201597
 20
-133.0785264424248
 10
101.5341986508317
 20
-133.0550997931251
 10
101.7078314632883
 20
-133.0550997931251
 10
101.8790527089052
 20
-133.0550997931251
 10
102.1095295968685
 20
-133.0764593851337
 10
102.3021104344939
 20
-133.1777451924
 97
        0
 97
        0
 92
        1
 93
        1
 72
     4
 94
        3
 73
     0
 74
     1
 95
       17
 96
       13
 40
0.0
 40
0.0
 40
0.0
 40
0.0
 40
1.0
 40
1.0
 40
1.0
 40
2.0
 40
2.0
 40
2.0
 40
3.0
 40
3.0
 40
3.0
 40
4.0
 40
4.0
 40
4.0
 40
4.0
 10
101.0794460467788
 20
-133.5753092113978
 10
101.0794460467788
 20
-133.825423143627
 10
101.3629774052148
 20
-133.8715874231293
 10
101.7078314632883
 20
-133.8715874231293
 10
102.027191814771
 20
-133.8715874231293
 10
102.3358723702494
 20
-133.8357584300827
 10
102.3358723702494
 20
-133.5753092113978
 10
102.3358723702494
 20
-133.3279513555569
 10
102.054752578653
 20
-133.2790309996664
 10
101.7078314632883
 20
-133.2790309996664
 10
101.3881266022571
 20
-133.2790309996664
 10
101.0794460467788
 20
-133.3176160691011
 10
101.0794460467788
 20
-133.5753092113978
 97
        0
 97
        0
 75
     2
 76
     1
 98
        0
  0
POLYLINE
  5
B6
330
AF
100
AcDbEntity
  8
_U+30EC_U+30A4_U+30E4_U+30FC 1
370
     0
100
AcDb2dPolyline
 66
     1
 10
0.0
 20
0.0
 30
0.0
  0
VERTEX
  5
B7
330
B6
100
AcDbEntity
  8
_U+30EC_U+30A4_U+30E4_U+30FC 1
370
     0
100
AcDbVertex
100
AcDb2dVertex
 10
102.4798773615328
 20
-132.8387477966514
 30
0.0
  0
VERTEX
  5
B8
330
B6
100
AcDbEntity
  8
_U+30EC_U+30A4_U+30E4_U+30FC 1
370
     0
100
AcDbVertex
100
AcDb2dVertex
 10
102.2280408815611
 20
-132.8387477966514
 30
0.0
  0
VERTEX
  5
B9
330
B6
100
AcDbEntity
  8
_U+30EC_U+30A4_U+30E4_U+30FC 1
370
     0
100
AcDbVertex
100
AcDb2dVertex
 10
102.2280408815611
 20
-132.5865668071311
 30
0.0
  0
VERTEX
  5
BA
330
B6
100
AcDbEntity
  8
_U+30EC_U+30A4_U+30E4_U+30FC 1
370
     0
100
AcDbVertex
100
AcDb2dVertex
 10
102.4798773615328
 20
-132.5865668071311
 30
0.0
  0
VERTEX
  5
BB
330
B6
100
AcDbEntity
  8
_U+30EC_U+30A4_U+30E4_U+30FC 1
370
     0
100
AcDbVertex
100
AcDb2dVertex
 10
102.4798773615328
 20
-132.8387477966514
 30
0.0
  0
SEQEND
  5
BC
330
B6
100
AcDbEntity
  8
_U+30EC_U+30A4_U+30E4_U+30FC 1
370
     0
  0
HATCH
  5
BD
330
AF
100
AcDbEntity
  8
_U+30EC_U+30A4_U+30E4_U+30FC 1
 62
     7
420
 16777215
100
AcDbHatch
 10
0.0
 20
0.0
 30
0.0
210
0.0
220
0.0
230
1.0
  2
SOLID
 70
     1
 71
     0
 91
        1
 92
        1
 93
        4
 72
     1
 10
102.4798773615328
 20
-132.8387477966514
 11
102.2280408815611
 21
-132.8387477966514
 72
     1
 10
102.2280408815611
 20
-132.8387477966514
 11
102.2280408815611
 21
-132.5865668071311
 72
     1
 10
102.2280408815611
 20
-132.5865668071311
 11
102.4798773615328
 21
-132.5865668071311
 72
     1
 10
102.4798773615328
 20
-132.5865668071311
 11
102.4798773615328
 21
-132.8387477966514
 97
        0
 75
     2
 76
     1
 98
        0
  0
SPLINE
  5
BE
330
AF
100
AcDbEntity
  8
_U+30EC_U+30A4_U+30E4_U+30FC 1
370
     0
100
AcDbSpline
210
0.0
220
0.0
230
1.0
 70
    11
 71
     3
 72
    26
 73
    22
 74
     0
 42
0.0000000001
 43
0.0000000001
 12
1.0
 22
0.0
 32
0.0
 13
1.0
 23
0.0
 33
0.0
 40
0.0
 40
0.0
 40
0.0
 40
0.0
 40
1.0
 40
1.0
 40
1.0
 40
2.0
 40
2.0
 40
2.0
 40
3.0
 40
3.0
 40
3.0
 40
4.0
 40
4.0
 40
4.0
 40
5.0
 40
5.0
 40
5.0
 40
6.0
 40
6.0
 40
6.0
 40
7.0
 40
7.0
 40
7.0
 40
7.0
 10
102.4798773615328
 20
-131.9395778750012
 30
0.0
 10
102.4798773615328
 20
-131.9395778750012
 30
0.0
 10
102.4798773615328
 20
-132.1766004443864
 30
0.0
 10
102.4798773615328
 20
-132.1766004443864
 30
0.0
 10
102.1708522965059
 20
-132.1511067377956
 30
0.0
 10
101.6527099355243
 20
-131.9581813906216
 30
0.0
 10
101.1469699182897
 20
-131.5523491424591
 30
0.0
 10
101.1469699182897
 20
-131.5523491424591
 30
0.0
 10
101.1469699182897
 20
-132.3901963644719
 30
0.0
 10
101.1469699182897
 20
-132.3901963644719
 30
0.0
 10
101.1469699182897
 20
-132.3901963644719
 30
0.0
 10
100.9354410554953
 20
-132.3901963644719
 30
0.0
 10
100.9354410554953
 20
-132.3901963644719
 30
0.0
 10
100.9354410554953
 20
-132.3901963644719
 30
0.0
 10
100.9354410554953
 20
-131.3153265730739
 30
0.0
 10
100.9354410554953
 20
-131.3153265730739
 30
0.0
 10
100.9354410554953
 20
-131.3153265730739
 30
0.0
 10
101.1469699182897
 20
-131.3153265730739
 30
0.0
 10
101.1469699182897
 20
-131.3153265730739
 30
0.0
 10
101.4370469581477
 20
-131.6391655486874
 30
0.0
 10
102.0292588720621
 20
-131.9058159392458
 30
0.0
 10
102.4798773615328
 20
-131.9395778750012
 30
0.0
  0
HATCH
  5
BF
330
AF
100
AcDbEntity
  8
_U+30EC_U+30A4_U+30E4_U+30FC 1
 62
     7
420
 16777215
100
AcDbHatch
 10
0.0
 20
0.0
 30
0.0
210
0.0
220
0.0
230
1.0
  2
SOLID
 70
     1
 71
     0
 91
        1
 92
        1
 93
        1
 72
     4
 94
        3
 73
     0
 74
     1
 95
       26
 96
       22
 40
0.0
 40
0.0
 40
0.0
 40
0.0
 40
1.0
 40
1.0
 40
1.0
 40
2.0
 40
2.0
 40
2.0
 40
3.0
 40
3.0
 40
3.0
 40
4.0
 40
4.0
 40
4.0
 40
5.0
 40
5.0
 40
5.0
 40
6.0
 40
6.0
 40
6.0
 40
7.0
 40
7.0
 40
7.0
 40
7.0
 10
102.4798773615328
 20
-131.9395778750012
 10
102.4798773615328
 20
-131.9395778750012
 10
102.4798773615328
 20
-132.1766004443864
 10
102.4798773615328
 20
-132.1766004443864
 10
102.1708522965059
 20
-132.1511067377956
 10
101.6527099355243
 20
-131.9581813906216
 10
101.1469699182897
 20
-131.5523491424591
 10
101.1469699182897
 20
-131.5523491424591
 10
101.1469699182897
 20
-132.3901963644719
 10
101.1469699182897
 20
-132.3901963644719
 10
101.1469699182897
 20
-132.3901963644719
 10
100.9354410554953
 20
-132.3901963644719
 10
100.9354410554953
 20
-132.3901963644719
 10
100.9354410554953
 20
-132.3901963644719
 10
100.9354410554953
 20
-131.3153265730739
 10
100.9354410554953
 20
-131.3153265730739
 10
100.9354410554953
 20
-131.3153265730739
 10
101.1469699182897
 20
-131.3153265730739
 10
101.1469699182897
 20
-131.3153265730739
 10
101.4370469581477
 20
-131.6391655486874
 10
102.0292588720621
 20
-131.9058159392458
 10
102.4798773615328
 20
-131.9395778750012
 97
        0
 97
        0
 75
     2
 76
     1
 98
        0
  0
ENDBLK
  5
B2
330
AF
100
AcDbEntity
  8
0
100
AcDbBlockEnd
  0
BLOCK
  5
D2
330
D0
100
AcDbEntity
  8
0
100
AcDbBlockBegin
  2
block 5
 70
     0
 10
0.0
 20
0.0
 30
0.0
  3
block 5
  1

  0
SPLINE
  5
D4
330
D0
100
AcDbEntity
  8
_U+30EC_U+30A4_U+30E4_U+30FC 1
370
     0
100
AcDbSpline
210
0.0
220
0.0
230
1.0
 70
    11
 71
     3
 72
    62
 73
    58
 74
     0
 42
0.0000000001
 43
0.0000000001
 12
1.0
 22
0.0
 32
0.0
 13
1.0
 23
0.0
 33
0.0
 40
0.0
 40
0.0
 40
0.0
 40
0.0
 40
1.0
 40
1.0
 40
1.0
 40
2.0
 40
2.0
 40
2.0
 40
3.0
 40
3.0
 40
3.0
 40
4.0
 40
4.0
 40
4.0
 40
5.0
 40
5.0
 40
5.0
 40
6.0
 40
6.0
 40
6.0
 40
7.0
 40
7.0
 40
7.0
 40
8.0
 40
8.0
 40
8.0
 40
9.0
 40
9.0
 40
9.0
 40
10.0
 40
10.0
 40
10.0
 40
11.0
 40
11.0
 40
11.0
 40
12.0
 40
12.0
 40
12.0
 40
13.0
 40
13.0
 40
13.0
 40
14.0
 40
14.0
 40
14.0
 40
15.0
 40
15.0
 40
15.0
 40
16.0
 40
16.0
 40
16.0
 40
17.0
 40
17.0
 40
17.0
 40
18.0
 40
18.0
 40
18.0
 40
19.0
 40
19.0
 40
19.0
 40
19.0
 10
102.8832980428556
 20
-129.0918619468937
 30
0.0
 10
102.8832980428556
 20
-129.1869465822866
 30
0.0
 10
102.8622829603955
 20
-129.4046766169544
 30
0.0
 10
102.6762478041921
 20
-129.5300780926175
 30
0.0
 10
102.5639376913729
 20
-129.6038031360018
 30
0.0
 10
102.4647189413977
 20
-129.6079372505841
 30
0.0
 10
102.3799695924606
 20
-129.6120713651664
 30
0.0
 10
102.3799695924606
 20
-129.6120713651664
 30
0.0
 10
102.3799695924606
 20
-129.3922742732075
 30
0.0
 10
102.3799695924606
 20
-129.3922742732075
 30
0.0
 10
102.4540391453934
 20
-129.3902072159163
 30
0.0
 10
102.688650147939
 20
-129.3798719294606
 30
0.0
 10
102.688650147939
 20
-129.095996061476
 30
0.0
 10
102.688650147939
 20
-128.9588812611631
 30
0.0
 10
102.6190592191369
 20
-128.805919021618
 30
0.0
 10
102.3906493884648
 20
-128.805919021618
 30
0.0
 10
102.2742051610634
 20
-128.805919021618
 30
0.0
 10
102.2256293147214
 20
-128.8445040910528
 30
0.0
 10
102.1939344362571
 20
-128.8761989695171
 30
0.0
 10
102.1198648833242
 20
-128.9499240129014
 30
0.0
 10
102.1071180300288
 20
-129.0663682403029
 30
0.0
 10
102.1071180300288
 20
-129.1214897680669
 30
0.0
 10
102.1071180300288
 20
-129.1407823027843
 30
0.0
 10
102.1091850873199
 20
-129.1766112958309
 30
0.0
 10
102.1133192019022
 20
-129.2041720597128
 30
0.0
 10
102.1133192019022
 20
-129.2041720597128
 30
0.0
 10
101.9186713069856
 20
-129.2041720597128
 30
0.0
 10
101.9186713069856
 20
-129.2041720597128
 30
0.0
 10
101.9252169884076
 20
-129.1655869902781
 30
0.0
 10
101.9272840456987
 20
-129.123556825358
 30
0.0
 10
101.9272840456987
 20
-129.1173556534846
 30
0.0
 10
101.9272840456987
 20
-129.0518988392648
 30
0.0
 10
101.9059244536902
 20
-128.8527723202174
 30
0.0
 10
101.6692463938535
 20
-128.8527723202174
 30
0.0
 10
101.4914794668146
 20
-128.8527723202174
 30
0.0
 10
101.4363579390506
 20
-128.9836859486569
 30
0.0
 10
101.4363579390506
 20
-129.0939290041848
 30
0.0
 10
101.4363579390506
 20
-129.3585123374521
 30
0.0
 10
101.6692463938535
 20
-129.3667805666167
 30
0.0
 10
101.7409043799467
 20
-129.3709146811989
 30
0.0
 10
101.7409043799467
 20
-129.3709146811989
 30
0.0
 10
101.7409043799467
 20
-129.5741753148287
 30
0.0
 10
101.7409043799467
 20
-129.5741753148287
 30
0.0
 10
101.6161919233807
 20
-129.5659070856641
 30
0.0
 10
101.2396429868429
 20
-129.5383463217821
 30
0.0
 10
101.2396429868429
 20
-129.081526660438
 30
0.0
 10
101.2396429868429
 20
-128.8569064347997
 30
0.0
 10
101.3667670102486
 20
-128.6159220056064
 30
0.0
 10
101.6627007124316
 20
-128.6159220056064
 30
0.0
 10
101.8490803781836
 20
-128.6159220056064
 30
0.0
 10
101.931418160281
 20
-128.7110066409993
 30
0.0
 10
101.9927408599185
 20
-128.8107421552973
 30
0.0
 10
102.0203016238005
 20
-128.7492472008856
 30
0.0
 10
102.1005723486068
 20
-128.5673461592644
 30
0.0
 10
102.3779025351694
 20
-128.5673461592644
 30
0.0
 10
102.716210911821
 20
-128.5673461592644
 30
0.0
 10
102.8832980428556
 20
-128.8148762698796
 30
0.0
 10
102.8832980428556
 20
-129.0918619468937
 30
0.0
  0
HATCH
  5
D5
330
D0
100
AcDbEntity
  8
_U+30EC_U+30A4_U+30E4_U+30FC 1
 62
     7
420
 16777215
100
AcDbHatch
 10
0.0
 20
0.0
 30
0.0
210
0.0
220
0.0
230
1.0
  2
SOLID
 70
     1
 71
     0
 91
        1
 92
        1
 93
        1
 72
     4
 94
        3
 73
     0
 74
     1
 95
       62
 96
       58
 40
0.0
 40
0.0
 40
0.0
 40
0.0
 40
1.0
 40
1.0
 40
1.0
 40
2.0
 40
2.0
 40
2.0
 40
3.0
 40
3.0
 40
3.0
 40
4.0
 40
4.0
 40
4.0
 40
5.0
 40
5.0
 40
5.0
 40
6.0
 40
6.0
 40
6.0
 40
7.0
 40
7.0
 40
7.0
 40
8.0
 40
8.0
 40
8.0
 40
9.0
 40
9.0
 40
9.0
 40
10.0
 40
10.0
 40
10.0
 40
11.0
 40
11.0
 40
11.0
 40
12.0
 40
12.0
 40
12.0
 40
13.0
 40
13.0
 40
13.0
 40
14.0
 40
14.0
 40
14.0
 40
15.0
 40
15.0
 40
15.0
 40
16.0
 40
16.0
 40
16.0
 40
17.0
 40
17.0
 40
17.0
 40
18.0
 40
18.0
 40
18.0
 40
19.0
 40
19.0
 40
19.0
 40
19.0
 10
102.8832980428556
 20
-129.0918619468937
 10
102.8832980428556
 20
-129.1869465822866
 10
102.8622829603955
 20
-129.4046766169544
 10
102.6762478041921
 20
-129.5300780926175
 10
102.5639376913729
 20
-129.6038031360018
 10
102.4647189413977
 20
-129.6079372505841
 10
102.3799695924606
 20
-129.6120713651664
 10
102.3799695924606
 20
-129.6120713651664
 10
102.3799695924606
 20
-129.3922742732075
 10
102.3799695924606
 20
-129.3922742732075
 10
102.4540391453934
 20
-129.3902072159163
 10
102.688650147939
 20
-129.3798719294606
 10
102.688650147939
 20
-129.095996061476
 10
102.688650147939
 20
-128.9588812611631
 10
102.6190592191369
 20
-128.805919021618
 10
102.3906493884648
 20
-128.805919021618
 10
102.2742051610634
 20
-128.805919021618
 10
102.2256293147214
 20
-128.8445040910528
 10
102.1939344362571
 20
-128.8761989695171
 10
102.1198648833242
 20
-128.9499240129014
 10
102.1071180300288
 20
-129.0663682403029
 10
102.1071180300288
 20
-129.1214897680669
 10
102.1071180300288
 20
-129.1407823027843
 10
102.1091850873199
 20
-129.1766112958309
 10
102.1133192019022
 20
-129.2041720597128
 10
102.1133192019022
 20
-129.2041720597128
 10
101.9186713069856
 20
-129.2041720597128
 10
101.9186713069856
 20
-129.2041720597128
 10
101.9252169884076
 20
-129.1655869902781
 10
101.9272840456987
 20
-129.123556825358
 10
101.9272840456987
 20
-129.1173556534846
 10
101.9272840456987
 20
-129.0518988392648
 10
101.9059244536902
 20
-128.8527723202174
 10
101.6692463938535
 20
-128.8527723202174
 10
101.4914794668146
 20
-128.8527723202174
 10
101.4363579390506
 20
-128.9836859486569
 10
101.4363579390506
 20
-129.0939290041848
 10
101.4363579390506
 20
-129.3585123374521
 10
101.6692463938535
 20
-129.3667805666167
 10
101.7409043799467
 20
-129.3709146811989
 10
101.7409043799467
 20
-129.3709146811989
 10
101.7409043799467
 20
-129.5741753148287
 10
101.7409043799467
 20
-129.5741753148287
 10
101.6161919233807
 20
-129.5659070856641
 10
101.2396429868429
 20
-129.5383463217821
 10
101.2396429868429
 20
-129.081526660438
 10
101.2396429868429
 20
-128.8569064347997
 10
101.3667670102486
 20
-128.6159220056064
 10
101.6627007124316
 20
-128.6159220056064
 10
101.8490803781836
 20
-128.6159220056064
 10
101.931418160281
 20
-128.7110066409993
 10
101.9927408599185
 20
-128.8107421552973
 10
102.0203016238005
 20
-128.7492472008856
 10
102.1005723486068
 20
-128.5673461592644
 10
102.3779025351694
 20
-128.5673461592644
 10
102.716210911821
 20
-128.5673461592644
 10
102.8832980428556
 20
-128.8148762698796
 10
102.8832980428556
 20
-129.0918619468937
 97
        0
 97
        0
 75
     2
 76
     1
 98
        0
  0
ENDBLK
  5
D3
330
D0
100
AcDbEntity
  8
0
100
AcDbBlockEnd
  0
BLOCK
  5
E4
330
E2
100
AcDbEntity
  8
0
100
AcDbBlockBegin
  2
block 6
 70
     0
 10
0.0
 20
0.0
 30
0.0
  3
block 6
  1

  0
SPLINE
  5
E6
330
E2
100
AcDbEntity
  8
_U+30EC_U+30A4_U+30E4_U+30FC 1
370
     0
100
AcDbSpline
210
0.0
220
0.0
230
1.0
 70
    11
 71
     3
 72
    26
 73
    22
 74
     0
 42
0.0000000001
 43
0.0000000001
 12
1.0
 22
0.0
 32
0.0
 13
1.0
 23
0.0
 33
0.0
 40
0.0
 40
0.0
 40
0.0
 40
0.0
 40
1.0
 40
1.0
 40
1.0
 40
2.0
 40
2.0
 40
2.0
 40
3.0
 40
3.0
 40
3.0
 40
4.0
 40
4.0
 40
4.0
 40
5.0
 40
5.0
 40
5.0
 40
6.0
 40
6.0
 40
6.0
 40
7.0
 40
7.0
 40
7.0
 40
7.0
 10
95.84221189010195
 20
-122.9284138690075
 30
0.0
 10
95.84221189010195
 20
-122.9284138690075
 30
0.0
 10
95.60518932071676
 20
-122.9284138690075
 30
0.0
 10
95.60518932071676
 20
-122.9284138690075
 30
0.0
 10
95.63068302730761
 20
-122.6195610587548
 30
0.0
 10
95.82326386493308
 20
-122.101246442999
 30
0.0
 10
96.22944062264403
 20
-121.5956786805386
 30
0.0
 10
96.22944062264403
 20
-121.5956786805386
 30
0.0
 10
95.39159340063128
 20
-121.5956786805386
 30
0.0
 10
95.39159340063128
 20
-121.5956786805386
 30
0.0
 10
95.39159340063128
 20
-121.5956786805386
 30
0.0
 10
95.39159340063128
 20
-121.3841498177442
 30
0.0
 10
95.39159340063128
 20
-121.3841498177442
 30
0.0
 10
95.39159340063128
 20
-121.3841498177442
 30
0.0
 10
96.46646319202922
 20
-121.3841498177442
 30
0.0
 10
96.46646319202922
 20
-121.3841498177442
 30
0.0
 10
96.46646319202922
 20
-121.3841498177442
 30
0.0
 10
96.46646319202922
 20
-121.5956786805386
 30
0.0
 10
96.46646319202922
 20
-121.5956786805386
 30
0.0
 10
96.14262421641574
 20
-121.8854112108481
 30
0.0
 10
95.8759738258574
 20
-122.4777953795368
 30
0.0
 10
95.84221189010195
 20
-122.9284138690075
 30
0.0
  0
HATCH
  5
E7
330
E2
100
AcDbEntity
  8
_U+30EC_U+30A4_U+30E4_U+30FC 1
 62
     7
420
 16777215
100
AcDbHatch
 10
0.0
 20
0.0
 30
0.0
210
0.0
220
0.0
230
1.0
  2
SOLID
 70
     1
 71
     0
 91
        1
 92
        1
 93
        1
 72
     4
 94
        3
 73
     0
 74
     1
 95
       26
 96
       22
 40
0.0
 40
0.0
 40
0.0
 40
0.0
 40
1.0
 40
1.0
 40
1.0
 40
2.0
 40
2.0
 40
2.0
 40
3.0
 40
3.0
 40
3.0
 40
4.0
 40
4.0
 40
4.0
 40
5.0
 40
5.0
 40
5.0
 40
6.0
 40
6.0
 40
6.0
 40
7.0
 40
7.0
 40
7.0
 40
7.0
 10
95.84221189010195
 20
-122.9284138690075
 10
95.84221189010195
 20
-122.9284138690075
 10
95.60518932071676
 20
-122.9284138690075
 10
95.60518932071676
 20
-122.9284138690075
 10
95.63068302730761
 20
-122.6195610587548
 10
95.82326386493308
 20
-122.101246442999
 10
96.22944062264403
 20
-121.5956786805386
 10
96.22944062264403
 20
-121.5956786805386
 10
95.39159340063128
 20
-121.5956786805386
 10
95.39159340063128
 20
-121.5956786805386
 10
95.39159340063128
 20
-121.5956786805386
 10
95.39159340063128
 20
-121.3841498177442
 10
95.39159340063128
 20
-121.3841498177442
 10
95.39159340063128
 20
-121.3841498177442
 10
96.46646319202922
 20
-121.3841498177442
 10
96.46646319202922
 20
-121.3841498177442
 10
96.46646319202922
 20
-121.3841498177442
 10
96.46646319202922
 20
-121.5956786805386
 10
96.46646319202922
 20
-121.5956786805386
 10
96.14262421641574
 20
-121.8854112108481
 10
95.8759738258574
 20
-122.4777953795368
 10
95.84221189010195
 20
-122.9284138690075
 97
        0
 97
        0
 75
     2
 76
     1
 98
        0
  0
ENDBLK
  5
E5
330
E2
100
AcDbEntity
  8
0
100
AcDbBlockEnd
  0
BLOCK
  5
F2
330
F0
100
AcDbEntity
  8
0
100
AcDbBlockBegin
  2
block 7
 70
     0
 10
0.0
 20
0.0
 30
0.0
  3
block 7
  1

  0
SPLINE
  5
F4
330
F0
100
AcDbEntity
  8
_U+30EC_U+30A4_U+30E4_U+30FC 1
370
     0
100
AcDbSpline
210
0.0
220
0.0
230
1.0
 70
    11
 71
     3
 72
    26
 73
    22
 74
     0
 42
0.0000000001
 43
0.0000000001
 12
1.0
 22
0.0
 32
0.0
 13
1.0
 23
0.0
 33
0.0
 40
0.0
 40
0.0
 40
0.0
 40
0.0
 40
1.0
 40
1.0
 40
1.0
 40
2.0
 40
2.0
 40
2.0
 40
3.0
 40
3.0
 40
3.0
 40
4.0
 40
4.0
 40
4.0
 40
5.0
 40
5.0
 40
5.0
 40
6.0
 40
6.0
 40
6.0
 40
7.0
 40
7.0
 40
7.0
 40
7.0
 10
78.38246797085577
 20
-127.6779947597472
 30
0.0
 10
78.38246797085577
 20
-127.6779947597472
 30
0.0
 10
78.38246797085577
 20
-126.5736694019503
 30
0.0
 10
78.38246797085577
 20
-126.5736694019503
 30
0.0
 10
78.38246797085577
 20
-126.5736694019503
 30
0.0
 10
78.05242782336884
 20
-126.5736694019503
 30
0.0
 10
78.05242782336884
 20
-126.5736694019503
 30
0.0
 10
78.05242782336884
 20
-126.5736694019503
 30
0.0
 10
78.05242782336884
 20
-126.4257025508589
 30
0.0
 10
78.05242782336884
 20
-126.4257025508589
 30
0.0
 10
78.38453502814693
 20
-126.4108886402723
 30
0.0
 10
78.4310438171978
 20
-126.24793562382
 30
0.0
 10
78.46067163837094
 20
-126.1337307084839
 30
0.0
 10
78.46067163837094
 20
-126.1337307084839
 30
0.0
 10
78.60674368694553
 20
-126.1337307084839
 30
0.0
 10
78.60674368694553
 20
-126.1337307084839
 30
0.0
 10
78.60674368694553
 20
-126.1337307084839
 30
0.0
 10
78.60674368694553
 20
-127.6779947597472
 30
0.0
 10
78.60674368694553
 20
-127.6779947597472
 30
0.0
 10
78.60674368694553
 20
-127.6779947597472
 30
0.0
 10
78.38246797085577
 20
-127.6779947597472
 30
0.0
 10
78.38246797085577
 20
-127.6779947597472
 30
0.0
  0
HATCH
  5
F5
330
F0
100
AcDbEntity
  8
_U+30EC_U+30A4_U+30E4_U+30FC 1
 62
     7
420
 16777215
100
AcDbHatch
 10
0.0
 20
0.0
 30
0.0
210
0.0
220
0.0
230
1.0
  2
SOLID
 70
     1
 71
     0
 91
        1
 92
        1
 93
        1
 72
     4
 94
        3
 73
     0
 74
     1
 95
       26
 96
       22
 40
0.0
 40
0.0
 40
0.0
 40
0.0
 40
1.0
 40
1.0
 40
1.0
 40
2.0
 40
2.0
 40
2.0
 40
3.0
 40
3.0
 40
3.0
 40
4.0
 40
4.0
 40
4.0
 40
5.0
 40
5.0
 40
5.0
 40
6.0
 40
6.0
 40
6.0
 40
7.0
 40
7.0
 40
7.0
 40
7.0
 10
78.38246797085577
 20
-127.6779947597472
 10
78.38246797085577
 20
-127.6779947597472
 10
78.38246797085577
 20
-126.5736694019503
 10
78.38246797085577
 20
-126.5736694019503
 10
78.38246797085577
 20
-126.5736694019503
 10
78.05242782336884
 20
-126.5736694019503
 10
78.05242782336884
 20
-126.5736694019503
 10
78.05242782336884
 20
-126.5736694019503
 10
78.05242782336884
 20
-126.4257025508589
 10
78.05242782336884
 20
-126.4257025508589
 10
78.38453502814693
 20
-126.4108886402723
 10
78.4310438171978
 20
-126.24793562382
 10
78.46067163837094
 20
-126.1337307084839
 10
78.46067163837094
 20
-126.1337307084839
 10
78.60674368694553
 20
-126.1337307084839
 10
78.60674368694553
 20
-126.1337307084839
 10
78.60674368694553
 20
-126.1337307084839
 10
78.60674368694553
 20
-127.6779947597472
 10
78.60674368694553
 20
-127.6779947597472
 10
78.60674368694553
 20
-127.6779947597472
 10
78.38246797085577
 20
-127.6779947597472
 10
78.38246797085577
 20
-127.6779947597472
 97
        0
 97
        0
 75
     2
 76
     1
 98
        0
  0
ENDBLK
  5
F3
330
F0
100
AcDbEntity
  8
0
100
AcDbBlockEnd
  0
ENDSEC
  0
SECTION
  2
ENTITIES
  0
POLYLINE
  5
41
330
1F
100
AcDbEntity
  8
_U+30EC_U+30A4_U+30E4_U+30FC 1
 62
     7
420
 16777215
370
    25
100
AcDb2dPolyline
 66
     1
 10
0.0
 20
0.0
 30
0.0
  0
VERTEX
  5
42
330
41
100
AcDbEntity
  8
_U+30EC_U+30A4_U+30E4_U+30FC 1
 62
     7
420
 16777215
370
    25
100
AcDbVertex
100
AcDb2dVertex
 10
81.4289759781293
 20
-126.5247377461465
 30
0.0
  0
VERTEX
  5
43
330
41
100
AcDbEntity
  8
_U+30EC_U+30A4_U+30E4_U+30FC 1
 62
     7
420
 16777215
370
    25
100
AcDbVertex
100
AcDb2dVertex
 10
81.4289759781293
 20
-131.524798300452
 30
0.0
  0
SEQEND
  5
44
330
41
100
AcDbEntity
  8
_U+30EC_U+30A4_U+30E4_U+30FC 1
 62
     7
420
 16777215
370
    25
  0
POLYLINE
  5
45
330
1F
100
AcDbEntity
  8
_U+30EC_U+30A4_U+30E4_U+30FC 1
 62
     7
420
 16777215
370
    25
100
AcDb2dPolyline
 66
     1
 10
0.0
 20
0.0
 30
0.0
  0
VERTEX
  5
46
330
45
100
AcDbEntity
  8
_U+30EC_U+30A4_U+30E4_U+30FC 1
 62
     7
420
 16777215
370
    25
100
AcDbVertex
100
AcDb2dVertex
 10
82.42906567483712
 20
-130.5243205229245
 30
0.0
  0
VERTEX
  5
47
330
45
100
AcDbEntity
  8
_U+30EC_U+30A4_U+30E4_U+30FC 1
 62
     7
420
 16777215
370
    25
100
AcDbVertex
100
AcDb2dVertex
 10
92.42879847527823
 20
-130.5243205229245
 30
0.0
  0
SEQEND
  5
48
330
45
100
AcDbEntity
  8
_U+30EC_U+30A4_U+30E4_U+30FC 1
 62
     7
420
 16777215
370
    25
  0
POLYLINE
  5
49
330
1F
100
AcDbEntity
  8
_U+30EC_U+30A4_U+30E4_U+30FC 1
 62
     7
420
 16777215
370
    25
100
AcDb2dPolyline
 66
     1
 10
0.0
 20
0.0
 30
0.0
  0
VERTEX
  5
4A
330
49
100
AcDbEntity
  8
_U+30EC_U+30A4_U+30E4_U+30FC 1
 62
     7
420
 16777215
370
    25
100
AcDbVertex
100
AcDb2dVertex
 10
82.42906567483712
 20
-127.4504619125818
 30
0.0
  0
VERTEX
  5
4B
330
49
100
AcDbEntity
  8
_U+30EC_U+30A4_U+30E4_U+30FC 1
 62
     7
420
 16777215
370
    25
100
AcDbVertex
100
AcDb2dVertex
 10
89.42881386653161
 20
-127.4504619125818
 30
0.0
  0
SEQEND
  5
4C
330
49
100
AcDbEntity
  8
_U+30EC_U+30A4_U+30E4_U+30FC 1
 62
     7
420
 16777215
370
    25
  0
POLYLINE
  5
4D
330
1F
100
AcDbEntity
  8
_U+30EC_U+30A4_U+30E4_U+30FC 1
 62
     7
420
 16777215
370
    25
100
AcDb2dPolyline
 66
     1
 10
0.0
 20
0.0
 30
0.0
  0
VERTEX
  5
4E
330
4D
100
AcDbEntity
  8
_U+30EC_U+30A4_U+30E4_U+30FC 1
 62
     7
420
 16777215
370
    25
100
AcDbVertex
100
AcDb2dVertex
 10
81.4289759781293
 20
-126.4506896906096
 30
0.0
  0
VERTEX
  5
4F
330
4D
100
AcDbEntity
  8
_U+30EC_U+30A4_U+30E4_U+30FC 1
 62
     7
420
 16777215
370
    25
100
AcDbVertex
100
AcDb2dVertex
 10
89.06467439443752
 20
-126.4506896906096
 30
0.0
  0
SEQEND
  5
50
330
4D
100
AcDbEntity
  8
_U+30EC_U+30A4_U+30E4_U+30FC 1
 62
     7
420
 16777215
370
    25
  0
POLYLINE
  5
51
330
1F
100
AcDbEntity
  8
_U+30EC_U+30A4_U+30E4_U+30FC 1
 62
     7
420
 16777215
370
    25
100
AcDb2dPolyline
 66
     1
 10
0.0
 20
0.0
 30
0.0
  0
VERTEX
  5
52
330
51
100
AcDbEntity
  8
_U+30EC_U+30A4_U+30E4_U+30FC 1
 62
     7
420
 16777215
370
    25
100
AcDbVertex
100
AcDb2dVertex
 10
81.4289759781293
 20
-131.524798300452
 30
0.0
  0
VERTEX
  5
53
330
51
100
AcDbEntity
  8
_U+30EC_U+30A4_U+30E4_U+30FC 1
 62
     7
420
 16777215
370
    25
100
AcDbVertex
100
AcDb2dVertex
 10
99.42889718557973
 20
-131.524798300452
 30
0.0
  0
SEQEND
  5
54
330
51
100
AcDbEntity
  8
_U+30EC_U+30A4_U+30E4_U+30FC 1
 62
     7
420
 16777215
370
    25
  0
POLYLINE
  5
55
330
1F
100
AcDbEntity
  8
_U+30EC_U+30A4_U+30E4_U+30FC 1
 62
     7
420
 16777215
370
    25
100
AcDb2dPolyline
 66
     1
 10
0.0
 20
0.0
 30
0.0
  0
VERTEX
  5
56
330
55
100
AcDbEntity
  8
_U+30EC_U+30A4_U+30E4_U+30FC 1
 62
     7
420
 16777215
370
    25
100
AcDbVertex
100
AcDb2dVertex
 10
82.42906567483712
 20
-127.5245099681188
 30
0.0
  0
VERTEX
  5
57
330
55
100
AcDbEntity
  8
_U+30EC_U+30A4_U+30E4_U+30FC 1
 62
     7
420
 16777215
370
    25
100
AcDbVertex
100
AcDb2dVertex
 10
82.42906567483712
 20
-130.5243205229245
 30
0.0
  0
SEQEND
  5
58
330
55
100
AcDbEntity
  8
_U+30EC_U+30A4_U+30E4_U+30FC 1
 62
     7
420
 16777215
370
    25
  0
POLYLINE
  5
59
330
1F
100
AcDbEntity
  8
_U+30EC_U+30A4_U+30E4_U+30FC 1
 62
     7
420
 16777215
370
    25
100
AcDb2dPolyline
 66
     1
 10
0.0
 20
0.0
 30
0.0
  0
VERTEX
  5
5A
330
59
100
AcDbEntity
  8
_U+30EC_U+30A4_U+30E4_U+30FC 1
 62
     7
420
 16777215
370
    25
100
AcDbVertex
100
AcDb2dVertex
 10
92.72887124540051
 20
-130.824746078405
 30
0.0
  0
VERTEX
  5
5B
330
59
100
AcDbEntity
  8
_U+30EC_U+30A4_U+30E4_U+30FC 1
 62
     7
420
 16777215
370
    25
100
AcDbVertex
100
AcDb2dVertex
 10
99.17429997520635
 20
-130.824746078405
 30
0.0
  0
SEQEND
  5
5C
330
59
100
AcDbEntity
  8
_U+30EC_U+30A4_U+30E4_U+30FC 1
 62
     7
420
 16777215
370
    25
  0
POLYLINE
  5
5D
330
1F
100
AcDbEntity
  8
_U+30EC_U+30A4_U+30E4_U+30FC 1
 62
     7
420
 16777215
370
    25
100
AcDb2dPolyline
 66
     1
 10
0.0
 20
0.0
 30
0.0
  0
VERTEX
  5
5E
330
5D
100
AcDbEntity
  8
_U+30EC_U+30A4_U+30E4_U+30FC 1
 62
     7
420
 16777215
370
    25
100
AcDbVertex
100
AcDb2dVertex
 10
89.06467439443752
 20
-126.4506896906096
 30
0.0
  0
VERTEX
  5
5F
330
5D
100
AcDbEntity
  8
_U+30EC_U+30A4_U+30E4_U+30FC 1
 62
     7
420
 16777215
370
    25
100
AcDbVertex
100
AcDb2dVertex
 10
89.42881386653161
 20
-127.4504619125818
 30
0.0
  0
SEQEND
  5
60
330
5D
100
AcDbEntity
  8
_U+30EC_U+30A4_U+30E4_U+30FC 1
 62
     7
420
 16777215
370
    25
  0
POLYLINE
  5
61
330
1F
100
AcDbEntity
  8
_U+30EC_U+30A4_U+30E4_U+30FC 1
 62
     7
420
 16777215
370
    25
100
AcDb2dPolyline
 66
     1
 10
0.0
 20
0.0
 30
0.0
  0
VERTEX
  5
62
330
61
100
AcDbEntity
  8
_U+30EC_U+30A4_U+30E4_U+30FC 1
 62
     7
420
 16777215
370
    25
100
AcDbVertex
100
AcDb2dVertex
 10
99.17429997520635
 20
-130.824746078405
 30
0.0
  0
VERTEX
  5
63
330
61
100
AcDbEntity
  8
_U+30EC_U+30A4_U+30E4_U+30FC 1
 62
     7
420
 16777215
370
    25
100
AcDbVertex
100
AcDb2dVertex
 10
99.42889718557973
 20
-131.524798300452
 30
0.0
  0
SEQEND
  5
64
330
61
100
AcDbEntity
  8
_U+30EC_U+30A4_U+30E4_U+30FC 1
 62
     7
420
 16777215
370
    25
  0
POLYLINE
  5
65
330
1F
100
AcDbEntity
  8
_U+30EC_U+30A4_U+30E4_U+30FC 1
 62
     7
420
 16777215
370
    25
100
AcDb2dPolyline
 66
     1
 10
0.0
 20
0.0
 30
0.0
  0
VERTEX
  5
66
330
65
100
AcDbEntity
  8
_U+30EC_U+30A4_U+30E4_U+30FC 1
 62
     7
420
 16777215
370
    25
100
AcDbVertex
100
AcDb2dVertex
 10
92.42879847527823
 20
-130.5243205229245
 30
0.0
  0
VERTEX
  5
67
330
65
100
AcDbEntity
  8
_U+30EC_U+30A4_U+30E4_U+30FC 1
 62
     7
420
 16777215
370
    25
100
AcDbVertex
100
AcDb2dVertex
 10
92.72887124540051
 20
-130.824746078405
 30
0.0
  0
SEQEND
  5
68
330
65
100
AcDbEntity
  8
_U+30EC_U+30A4_U+30E4_U+30FC 1
 62
     7
420
 16777215
370
    25
  0
SPLINE
  5
69
330
1F
100
AcDbEntity
  8
_U+30EC_U+30A4_U+30E4_U+30FC 1
 62
     7
420
 16777215
370
     9
100
AcDbSpline
210
0.0
220
0.0
230
1.0
 70
    11
 71
     3
 72
    17
 73
    13
 74
     0
 42
0.0000000001
 43
0.0000000001
 12
1.0
 22
0.0
 32
0.0
 13
1.0
 23
0.0
 33
0.0
 40
0.0
 40
0.0
 40
0.0
 40
0.0
 40
1.0
 40
1.0
 40
1.0
 40
2.0
 40
2.0
 40
2.0
 40
3.0
 40
3.0
 40
3.0
 40
4.0
 40
4.0
 40
4.0
 40
4.0
 10
81.52920014223905
 20
-128.2746919123758
 30
0.0
 10
81.52920014223905
 20
-128.219552745723
 30
0.0
 10
81.48443264338115
 20
-128.1747852457341
 30
0.0
 10
81.4289759781293
 20
-128.1747852457341
 30
0.0
 10
81.37348609076773
 20
-128.1747852457341
 30
0.0
 10
81.3287165362427
 20
-128.219552745723
 30
0.0
 10
81.3287165362427
 20
-128.2746919123758
 30
0.0
 10
81.3287165362427
 20
-128.329795801251
 30
0.0
 10
81.37348609076773
 20
-128.3745985790174
 30
0.0
 10
81.4289759781293
 20
-128.3745985790174
 30
0.0
 10
81.48443264338115
 20
-128.3745985790174
 30
0.0
 10
81.52920014223905
 20
-128.329795801251
 30
0.0
 10
81.52920014223905
 20
-128.2746919123758
 30
0.0
  0
SPLINE
  5
6A
330
1F
100
AcDbEntity
  8
_U+30EC_U+30A4_U+30E4_U+30FC 1
 62
     7
420
 16777215
370
     9
100
AcDbSpline
210
0.0
220
0.0
230
1.0
 70
    11
 71
     3
 72
    17
 73
    13
 74
     0
 42
0.0000000001
 43
0.0000000001
 12
1.0
 22
0.0
 32
0.0
 13
1.0
 23
0.0
 33
0.0
 40
0.0
 40
0.0
 40
0.0
 40
0.0
 40
1.0
 40
1.0
 40
1.0
 40
2.0
 40
2.0
 40
2.0
 40
3.0
 40
3.0
 40
3.0
 40
4.0
 40
4.0
 40
4.0
 40
4.0
 10
82.52897233895494
 20
-128.2746919123758
 30
0.0
 10
82.52897233895494
 20
-128.219552745723
 30
0.0
 10
82.48420484009706
 20
-128.1747852457341
 30
0.0
 10
82.42906567483712
 20
-128.1747852457341
 30
0.0
 10
82.37396386829548
 20
-128.1747852457341
 30
0.0
 10
82.32916109052876
 20
-128.219552745723
 30
0.0
 10
82.32916109052876
 20
-128.2746919123758
 30
0.0
 10
82.32916109052876
 20
-128.329795801251
 30
0.0
 10
82.37396386829548
 20
-128.3745985790174
 30
0.0
 10
82.42906567483712
 20
-128.3745985790174
 30
0.0
 10
82.48420484009706
 20
-128.3745985790174
 30
0.0
 10
82.52897233895494
 20
-128.329795801251
 30
0.0
 10
82.52897233895494
 20
-128.2746919123758
 30
0.0
  0
SPLINE
  5
6B
330
1F
100
AcDbEntity
  8
_U+30EC_U+30A4_U+30E4_U+30FC 1
 62
     7
420
 16777215
370
     9
100
AcDbSpline
210
0.0
220
0.0
230
1.0
 70
    11
 71
     3
 72
    17
 73
    13
 74
     0
 42
0.0000000001
 43
0.0000000001
 12
1.0
 22
0.0
 32
0.0
 13
1.0
 23
0.0
 33
0.0
 40
0.0
 40
0.0
 40
0.0
 40
0.0
 40
1.0
 40
1.0
 40
1.0
 40
2.0
 40
2.0
 40
2.0
 40
3.0
 40
3.0
 40
3.0
 40
4.0
 40
4.0
 40
4.0
 40
4.0
 10
81.52920014223905
 20
-122.4509305249427
 30
0.0
 10
81.52920014223905
 20
-122.3951210805122
 30
0.0
 10
81.48443264338115
 20
-122.351023858301
 30
0.0
 10
81.4289759781293
 20
-122.351023858301
 30
0.0
 10
81.37348609076773
 20
-122.351023858301
 30
0.0
 10
81.3287165362427
 20
-122.3951210805122
 30
0.0
 10
81.3287165362427
 20
-122.4509305249427
 30
0.0
 10
81.3287165362427
 20
-122.5060344138179
 30
0.0
 10
81.37348609076773
 20
-122.5508371915846
 30
0.0
 10
81.4289759781293
 20
-122.5508371915846
 30
0.0
 10
81.48443264338115
 20
-122.5508371915846
 30
0.0
 10
81.52920014223905
 20
-122.5060344138179
 30
0.0
 10
81.52920014223905
 20
-122.4509305249427
 30
0.0
  0
SPLINE
  5
6C
330
1F
100
AcDbEntity
  8
_U+30EC_U+30A4_U+30E4_U+30FC 1
 62
     7
420
 16777215
370
     9
100
AcDbSpline
210
0.0
220
0.0
230
1.0
 70
    11
 71
     3
 72
    17
 73
    13
 74
     0
 42
0.0000000001
 43
0.0000000001
 12
1.0
 22
0.0
 32
0.0
 13
1.0
 23
0.0
 33
0.0
 40
0.0
 40
0.0
 40
0.0
 40
0.0
 40
1.0
 40
1.0
 40
1.0
 40
2.0
 40
2.0
 40
2.0
 40
3.0
 40
3.0
 40
3.0
 40
4.0
 40
4.0
 40
4.0
 40
4.0
 10
89.52871827148766
 20
-122.4509305249427
 30
0.0
 10
89.52871827148766
 20
-122.3951210805122
 30
0.0
 10
89.48395077262978
 20
-122.351023858301
 30
0.0
 10
89.42881386653161
 20
-122.351023858301
 30
0.0
 10
89.37370771988675
 20
-122.351023858301
 30
0.0
 10
89.328904943252
 20
-122.3951210805122
 30
0.0
 10
89.328904943252
 20
-122.4509305249427
 30
0.0
 10
89.328904943252
 20
-122.5060344138179
 30
0.0
 10
89.37370771988675
 20
-122.5508371915846
 30
0.0
 10
89.42881386653161
 20
-122.5508371915846
 30
0.0
 10
89.48395077262978
 20
-122.5508371915846
 30
0.0
 10
89.52871827148766
 20
-122.5060344138179
 30
0.0
 10
89.52871827148766
 20
-122.4509305249427
 30
0.0
  0
SPLINE
  5
6D
330
1F
100
AcDbEntity
  8
_U+30EC_U+30A4_U+30E4_U+30FC 1
 62
     7
420
 16777215
370
     9
100
AcDbSpline
210
0.0
220
0.0
230
1.0
 70
    11
 71
     3
 72
    17
 73
    13
 74
     0
 42
0.0000000001
 43
0.0000000001
 12
1.0
 22
0.0
 32
0.0
 13
1.0
 23
0.0
 33
0.0
 40
0.0
 40
0.0
 40
0.0
 40
0.0
 40
1.0
 40
1.0
 40
1.0
 40
2.0
 40
2.0
 40
2.0
 40
3.0
 40
3.0
 40
3.0
 40
4.0
 40
4.0
 40
4.0
 40
4.0
 10
103.5289156920906
 20
-127.4504619125818
 30
0.0
 10
103.5289156920906
 20
-127.395322745929
 30
0.0
 10
103.4841129154559
 20
-127.3505552459401
 30
0.0
 10
103.4290090279728
 20
-127.3505552459401
 30
0.0
 10
103.3738698627129
 20
-127.3505552459401
 30
0.0
 10
103.329102363855
 20
-127.395322745929
 30
0.0
 10
103.329102363855
 20
-127.4504619125818
 30
0.0
 10
103.329102363855
 20
-127.505565801457
 30
0.0
 10
103.3738698627129
 20
-127.5503685792234
 30
0.0
 10
103.4290090279728
 20
-127.5503685792234
 30
0.0
 10
103.4841129154559
 20
-127.5503685792234
 30
0.0
 10
103.5289156920906
 20
-127.505565801457
 30
0.0
 10
103.5289156920906
 20
-127.4504619125818
 30
0.0
  0
SPLINE
  5
6E
330
1F
100
AcDbEntity
  8
_U+30EC_U+30A4_U+30E4_U+30FC 1
 62
     7
420
 16777215
370
     9
100
AcDbSpline
210
0.0
220
0.0
230
1.0
 70
    11
 71
     3
 72
    17
 73
    13
 74
     0
 42
0.0000000001
 43
0.0000000001
 12
1.0
 22
0.0
 32
0.0
 13
1.0
 23
0.0
 33
0.0
 40
0.0
 40
0.0
 40
0.0
 40
0.0
 40
1.0
 40
1.0
 40
1.0
 40
2.0
 40
2.0
 40
2.0
 40
3.0
 40
3.0
 40
3.0
 40
4.0
 40
4.0
 40
4.0
 40
4.0
 10
103.5289156920906
 20
-130.5243205229245
 30
0.0
 10
103.5289156920906
 20
-130.4692166340496
 30
0.0
 10
103.4841129154559
 20
-130.4244138562829
 30
0.0
 10
103.4290090279728
 20
-130.4244138562829
 30
0.0
 10
103.3738698627129
 20
-130.4244138562829
 30
0.0
 10
103.329102363855
 20
-130.4692166340496
 30
0.0
 10
103.329102363855
 20
-130.5243205229245
 30
0.0
 10
103.329102363855
 20
-130.580129967355
 30
0.0
 10
103.3738698627129
 20
-130.6249327451217
 30
0.0
 10
103.4290090279728
 20
-130.6249327451217
 30
0.0
 10
103.4841129154559
 20
-130.6249327451217
 30
0.0
 10
103.5289156920906
 20
-130.580129967355
 30
0.0
 10
103.5289156920906
 20
-130.5243205229245
 30
0.0
  0
SPLINE
  5
6F
330
1F
100
AcDbEntity
  8
_U+30EC_U+30A4_U+30E4_U+30FC 1
 62
     7
420
 16777215
370
     9
100
AcDbSpline
210
0.0
220
0.0
230
1.0
 70
    11
 71
     3
 72
    17
 73
    13
 74
     0
 42
0.0000000001
 43
0.0000000001
 12
1.0
 22
0.0
 32
0.0
 13
1.0
 23
0.0
 33
0.0
 40
0.0
 40
0.0
 40
0.0
 40
0.0
 40
1.0
 40
1.0
 40
1.0
 40
2.0
 40
2.0
 40
2.0
 40
3.0
 40
3.0
 40
3.0
 40
4.0
 40
4.0
 40
4.0
 40
4.0
 10
103.5289156920906
 20
-130.824746078405
 30
0.0
 10
103.5289156920906
 20
-130.7696069117519
 30
0.0
 10
103.4841129154559
 20
-130.7248394117634
 30
0.0
 10
103.4290090279728
 20
-130.7248394117634
 30
0.0
 10
103.3738698627129
 20
-130.7248394117634
 30
0.0
 10
103.329102363855
 20
-130.7696069117519
 30
0.0
 10
103.329102363855
 20
-130.824746078405
 30
0.0
 10
103.329102363855
 20
-130.8798499672799
 30
0.0
 10
103.3738698627129
 20
-130.9246527450466
 30
0.0
 10
103.4290090279728
 20
-130.9246527450466
 30
0.0
 10
103.4841129154559
 20
-130.9246527450466
 30
0.0
 10
103.5289156920906
 20
-130.8798499672799
 30
0.0
 10
103.5289156920906
 20
-130.824746078405
 30
0.0
  0
SPLINE
  5
70
330
1F
100
AcDbEntity
  8
_U+30EC_U+30A4_U+30E4_U+30FC 1
 62
     7
420
 16777215
370
     9
100
AcDbSpline
210
0.0
220
0.0
230
1.0
 70
    11
 71
     3
 72
    17
 73
    13
 74
     0
 42
0.0000000001
 43
0.0000000001
 12
1.0
 22
0.0
 32
0.0
 13
1.0
 23
0.0
 33
0.0
 40
0.0
 40
0.0
 40
0.0
 40
0.0
 40
1.0
 40
1.0
 40
1.0
 40
2.0
 40
2.0
 40
2.0
 40
3.0
 40
3.0
 40
3.0
 40
4.0
 40
4.0
 40
4.0
 40
4.0
 10
103.5289156920906
 20
-131.524798300452
 30
0.0
 10
103.5289156920906
 20
-131.4696591337995
 30
0.0
 10
103.4841129154559
 20
-131.4248916338103
 30
0.0
 10
103.4290090279728
 20
-131.4248916338103
 30
0.0
 10
103.3738698627129
 20
-131.4248916338103
 30
0.0
 10
103.329102363855
 20
-131.4696591337995
 30
0.0
 10
103.329102363855
 20
-131.524798300452
 30
0.0
 10
103.329102363855
 20
-131.5799021893275
 30
0.0
 10
103.3738698627129
 20
-131.6247049670936
 30
0.0
 10
103.4290090279728
 20
-131.6247049670936
 30
0.0
 10
103.4841129154559
 20
-131.6247049670936
 30
0.0
 10
103.5289156920906
 20
-131.5799021893275
 30
0.0
 10
103.5289156920906
 20
-131.524798300452
 30
0.0
  0
SPLINE
  5
71
330
1F
100
AcDbEntity
  8
_U+30EC_U+30A4_U+30E4_U+30FC 1
 62
     7
420
 16777215
370
     9
100
AcDbSpline
210
0.0
220
0.0
230
1.0
 70
    11
 71
     3
 72
    17
 73
    13
 74
     0
 42
0.0000000001
 43
0.0000000001
 12
1.0
 22
0.0
 32
0.0
 13
1.0
 23
0.0
 33
0.0
 40
0.0
 40
0.0
 40
0.0
 40
0.0
 40
1.0
 40
1.0
 40
1.0
 40
2.0
 40
2.0
 40
2.0
 40
3.0
 40
3.0
 40
3.0
 40
4.0
 40
4.0
 40
4.0
 40
4.0
 10
99.52880384969757
 20
-135.5245574661189
 30
0.0
 10
99.52880384969757
 20
-135.4694182994658
 30
0.0
 10
99.48435385083158
 20
-135.4246507994772
 30
0.0
 10
99.42889718557973
 20
-135.4246507994772
 30
0.0
 10
99.37379329809666
 20
-135.4246507994772
 30
0.0
 10
99.32899052146189
 20
-135.4694182994658
 30
0.0
 10
99.32899052146189
 20
-135.5245574661189
 30
0.0
 10
99.32899052146189
 20
-135.5796613549938
 30
0.0
 10
99.37379329809666
 20
-135.6244641327605
 30
0.0
 10
99.42889718557973
 20
-135.6244641327605
 30
0.0
 10
99.48435385083158
 20
-135.6244641327605
 30
0.0
 10
99.52880384969757
 20
-135.5796613549938
 30
0.0
 10
99.52880384969757
 20
-135.5245574661189
 30
0.0
  0
SPLINE
  5
72
330
1F
100
AcDbEntity
  8
_U+30EC_U+30A4_U+30E4_U+30FC 1
 62
     7
420
 16777215
370
     9
100
AcDbSpline
210
0.0
220
0.0
230
1.0
 70
    11
 71
     3
 72
    17
 73
    13
 74
     0
 42
0.0000000001
 43
0.0000000001
 12
1.0
 22
0.0
 32
0.0
 13
1.0
 23
0.0
 33
0.0
 40
0.0
 40
0.0
 40
0.0
 40
0.0
 40
1.0
 40
1.0
 40
1.0
 40
2.0
 40
2.0
 40
2.0
 40
3.0
 40
3.0
 40
3.0
 40
4.0
 40
4.0
 40
4.0
 40
4.0
 10
81.52920014223905
 20
-135.5245574661189
 30
0.0
 10
81.52920014223905
 20
-135.4694182994658
 30
0.0
 10
81.48443264338115
 20
-135.4246507994772
 30
0.0
 10
81.4289759781293
 20
-135.4246507994772
 30
0.0
 10
81.37348609076773
 20
-135.4246507994772
 30
0.0
 10
81.3287165362427
 20
-135.4694182994658
 30
0.0
 10
81.3287165362427
 20
-135.5245574661189
 30
0.0
 10
81.3287165362427
 20
-135.5796613549938
 30
0.0
 10
81.37348609076773
 20
-135.6244641327605
 30
0.0
 10
81.4289759781293
 20
-135.6244641327605
 30
0.0
 10
81.48443264338115
 20
-135.6244641327605
 30
0.0
 10
81.52920014223905
 20
-135.5796613549938
 30
0.0
 10
81.52920014223905
 20
-135.5245574661189
 30
0.0
  0
SPLINE
  5
73
330
1F
100
AcDbEntity
  8
_U+30EC_U+30A4_U+30E4_U+30FC 1
 62
     7
420
 16777215
370
     9
100
AcDbSpline
210
0.0
220
0.0
230
1.0
 70
    11
 71
     3
 72
    17
 73
    13
 74
     0
 42
0.0000000001
 43
0.0000000001
 12
1.0
 22
0.0
 32
0.0
 13
1.0
 23
0.0
 33
0.0
 40
0.0
 40
0.0
 40
0.0
 40
0.0
 40
1.0
 40
1.0
 40
1.0
 40
2.0
 40
2.0
 40
2.0
 40
3.0
 40
3.0
 40
3.0
 40
4.0
 40
4.0
 40
4.0
 40
4.0
 10
99.52880384969757
 20
-123.5243980246744
 30
0.0
 10
99.52880384969757
 20
-123.4692941357995
 30
0.0
 10
99.48435385083158
 20
-123.4244913580328
 30
0.0
 10
99.42889718557973
 20
-123.4244913580328
 30
0.0
 10
99.37379329809666
 20
-123.4244913580328
 30
0.0
 10
99.32899052146189
 20
-123.4692941357995
 30
0.0
 10
99.32899052146189
 20
-123.5243980246744
 30
0.0
 10
99.32899052146189
 20
-123.5795371913275
 30
0.0
 10
99.37379329809666
 20
-123.6243399690939
 30
0.0
 10
99.42889718557973
 20
-123.6243399690939
 30
0.0
 10
99.48435385083158
 20
-123.6243399690939
 30
0.0
 10
99.52880384969757
 20
-123.5795371913275
 30
0.0
 10
99.52880384969757
 20
-123.5243980246744
 30
0.0
  0
SPLINE
  5
74
330
1F
100
AcDbEntity
  8
_U+30EC_U+30A4_U+30E4_U+30FC 1
 62
     7
420
 16777215
370
     9
100
AcDbSpline
210
0.0
220
0.0
230
1.0
 70
    11
 71
     3
 72
    17
 73
    13
 74
     0
 42
0.0000000001
 43
0.0000000001
 12
1.0
 22
0.0
 32
0.0
 13
1.0
 23
0.0
 33
0.0
 40
0.0
 40
0.0
 40
0.0
 40
0.0
 40
1.0
 40
1.0
 40
1.0
 40
2.0
 40
2.0
 40
2.0
 40
3.0
 40
3.0
 40
3.0
 40
4.0
 40
4.0
 40
4.0
 40
4.0
 10
92.52905791716485
 20
-123.5243980246744
 30
0.0
 10
92.52905791716485
 20
-123.4692941357995
 30
0.0
 10
92.48429041830695
 20
-123.4244913580328
 30
0.0
 10
92.42879847527823
 20
-123.4244913580328
 30
0.0
 10
92.37369458779516
 20
-123.4244913580328
 30
0.0
 10
92.3288918111604
 20
-123.4692941357995
 30
0.0
 10
92.3288918111604
 20
-123.5243980246744
 30
0.0
 10
92.3288918111604
 20
-123.5795371913275
 30
0.0
 10
92.37369458779516
 20
-123.6243399690939
 30
0.0
 10
92.42879847527823
 20
-123.6243399690939
 30
0.0
 10
92.48429041830695
 20
-123.6243399690939
 30
0.0
 10
92.52905791716485
 20
-123.5795371913275
 30
0.0
 10
92.52905791716485
 20
-123.5243980246744
 30
0.0
  0
POLYLINE
  5
75
330
1F
100
AcDbEntity
  8
_U+30EC_U+30A4_U+30E4_U+30FC 1
 62
     7
420
 16777215
370
     9
100
AcDb2dPolyline
 66
     1
 10
0.0
 20
0.0
 30
0.0
  0
VERTEX
  5
76
330
75
100
AcDbEntity
  8
_U+30EC_U+30A4_U+30E4_U+30FC 1
 62
     7
420
 16777215
370
     9
100
AcDbVertex
100
AcDb2dVertex
 10
81.4289759781293
 20
-122.4509305249427
 30
0.0
  0
VERTEX
  5
77
330
75
100
AcDbEntity
  8
_U+30EC_U+30A4_U+30E4_U+30FC 1
 62
     7
420
 16777215
370
     9
100
AcDbVertex
100
AcDb2dVertex
 10
89.42881386653161
 20
-122.4509305249427
 30
0.0
  0
SEQEND
  5
78
330
75
100
AcDbEntity
  8
_U+30EC_U+30A4_U+30E4_U+30FC 1
 62
     7
420
 16777215
370
     9
  0
POLYLINE
  5
79
330
1F
100
AcDbEntity
  8
_U+30EC_U+30A4_U+30E4_U+30FC 1
 62
     7
420
 16777215
370
     9
100
AcDb2dPolyline
 66
     1
 10
0.0
 20
0.0
 30
0.0
  0
VERTEX
  5
7A
330
79
100
AcDbEntity
  8
_U+30EC_U+30A4_U+30E4_U+30FC 1
 62
     7
420
 16777215
370
     9
100
AcDbVertex
100
AcDb2dVertex
 10
81.4289759781293
 20
-123.9109719134667
 30
0.0
  0
VERTEX
  5
7B
330
79
100
AcDbEntity
  8
_U+30EC_U+30A4_U+30E4_U+30FC 1
 62
     7
420
 16777215
370
     9
100
AcDbVertex
100
AcDb2dVertex
 10
81.4289759781293
 20
-121.4504527474153
 30
0.0
  0
SEQEND
  5
7C
330
79
100
AcDbEntity
  8
_U+30EC_U+30A4_U+30E4_U+30FC 1
 62
     7
420
 16777215
370
     9
  0
POLYLINE
  5
7D
330
1F
100
AcDbEntity
  8
_U+30EC_U+30A4_U+30E4_U+30FC 1
 62
     7
420
 16777215
370
     9
100
AcDb2dPolyline
 66
     1
 10
0.0
 20
0.0
 30
0.0
  0
VERTEX
  5
7E
330
7D
100
AcDbEntity
  8
_U+30EC_U+30A4_U+30E4_U+30FC 1
 62
     7
420
 16777215
370
     9
100
AcDbVertex
100
AcDb2dVertex
 10
89.42881386653161
 20
-123.9109719134667
 30
0.0
  0
VERTEX
  5
7F
330
7D
100
AcDbEntity
  8
_U+30EC_U+30A4_U+30E4_U+30FC 1
 62
     7
420
 16777215
370
     9
100
AcDbVertex
100
AcDb2dVertex
 10
89.42881386653161
 20
-121.4504527474153
 30
0.0
  0
SEQEND
  5
80
330
7D
100
AcDbEntity
  8
_U+30EC_U+30A4_U+30E4_U+30FC 1
 62
     7
420
 16777215
370
     9
  0
INSERT
  5
82
330
1F
100
AcDbEntity
  8
_U+30EC_U+30A4_U+30E4_U+30FC 1
100
AcDbBlockReference
  2
block 2
 10
0.0
 20
0.0
 30
0.0
  0
POLYLINE
  5
89
330
1F
100
AcDbEntity
  8
_U+30EC_U+30A4_U+30E4_U+30FC 1
 62
     7
420
 16777215
370
     9
100
AcDb2dPolyline
 66
     1
 10
0.0
 20
0.0
 30
0.0
  0
VERTEX
  5
8A
330
89
100
AcDbEntity
  8
_U+30EC_U+30A4_U+30E4_U+30FC 1
 62
     7
420
 16777215
370
     9
100
AcDbVertex
100
AcDb2dVertex
 10
81.4289759781293
 20
-135.5245574661189
 30
0.0
  0
VERTEX
  5
8B
330
89
100
AcDbEntity
  8
_U+30EC_U+30A4_U+30E4_U+30FC 1
 62
     7
420
 16777215
370
     9
100
AcDbVertex
100
AcDb2dVertex
 10
99.42889718557973
 20
-135.5245574661189
 30
0.0
  0
SEQEND
  5
8C
330
89
100
AcDbEntity
  8
_U+30EC_U+30A4_U+30E4_U+30FC 1
 62
     7
420
 16777215
370
     9
  0
POLYLINE
  5
8D
330
1F
100
AcDbEntity
  8
_U+30EC_U+30A4_U+30E4_U+30FC 1
 62
     7
420
 16777215
370
     9
100
AcDb2dPolyline
 66
     1
 10
0.0
 20
0.0
 30
0.0
  0
VERTEX
  5
8E
330
8D
100
AcDbEntity
  8
_U+30EC_U+30A4_U+30E4_U+30FC 1
 62
     7
420
 16777215
370
     9
100
AcDbVertex
100
AcDb2dVertex
 10
81.4289759781293
 20
-134.0645160775952
 30
0.0
  0
VERTEX
  5
8F
330
8D
100
AcDbEntity
  8
_U+30EC_U+30A4_U+30E4_U+30FC 1
 62
     7
420
 16777215
370
     9
100
AcDbVertex
100
AcDb2dVertex
 10
81.4289759781293
 20
-136.5249999658687
 30
0.0
  0
SEQEND
  5
90
330
8D
100
AcDbEntity
  8
_U+30EC_U+30A4_U+30E4_U+30FC 1
 62
     7
420
 16777215
370
     9
  0
POLYLINE
  5
91
330
1F
100
AcDbEntity
  8
_U+30EC_U+30A4_U+30E4_U+30FC 1
 62
     7
420
 16777215
370
     9
100
AcDb2dPolyline
 66
     1
 10
0.0
 20
0.0
 30
0.0
  0
VERTEX
  5
92
330
91
100
AcDbEntity
  8
_U+30EC_U+30A4_U+30E4_U+30FC 1
 62
     7
420
 16777215
370
     9
100
AcDbVertex
100
AcDb2dVertex
 10
99.42889718557973
 20
-134.0645160775952
 30
0.0
  0
VERTEX
  5
93
330
91
100
AcDbEntity
  8
_U+30EC_U+30A4_U+30E4_U+30FC 1
 62
     7
420
 16777215
370
     9
100
AcDbVertex
100
AcDb2dVertex
 10
99.42889718557973
 20
-136.5249999658687
 30
0.0
  0
SEQEND
  5
94
330
91
100
AcDbEntity
  8
_U+30EC_U+30A4_U+30E4_U+30FC 1
 62
     7
420
 16777215
370
     9
  0
INSERT
  5
96
330
1F
100
AcDbEntity
  8
_U+30EC_U+30A4_U+30E4_U+30FC 1
100
AcDbBlockReference
  2
block 3
 10
0.0
 20
0.0
 30
0.0
  0
POLYLINE
  5
9F
330
1F
100
AcDbEntity
  8
_U+30EC_U+30A4_U+30E4_U+30FC 1
 62
     7
420
 16777215
370
     9
100
AcDb2dPolyline
 66
     1
 10
0.0
 20
0.0
 30
0.0
  0
VERTEX
  5
A0
330
9F
100
AcDbEntity
  8
_U+30EC_U+30A4_U+30E4_U+30FC 1
 62
     7
420
 16777215
370
     9
100
AcDbVertex
100
AcDb2dVertex
 10
103.4290090279728
 20
-131.524798300452
 30
0.0
  0
VERTEX
  5
A1
330
9F
100
AcDbEntity
  8
_U+30EC_U+30A4_U+30E4_U+30FC 1
 62
     7
420
 16777215
370
     9
100
AcDbVertex
100
AcDb2dVertex
 10
103.4290090279728
 20
-136.7827041324709
 30
0.0
  0
SEQEND
  5
A2
330
9F
100
AcDbEntity
  8
_U+30EC_U+30A4_U+30E4_U+30FC 1
 62
     7
420
 16777215
370
     9
  0
POLYLINE
  5
A3
330
1F
100
AcDbEntity
  8
_U+30EC_U+30A4_U+30E4_U+30FC 1
 62
     7
420
 16777215
370
     9
100
AcDb2dPolyline
 66
     1
 10
0.0
 20
0.0
 30
0.0
  0
VERTEX
  5
A4
330
A3
100
AcDbEntity
  8
_U+30EC_U+30A4_U+30E4_U+30FC 1
 62
     7
420
 16777215
370
     9
100
AcDbVertex
100
AcDb2dVertex
 10
103.4290090279728
 20
-131.524798300452
 30
0.0
  0
VERTEX
  5
A5
330
A3
100
AcDbEntity
  8
_U+30EC_U+30A4_U+30E4_U+30FC 1
 62
     7
420
 16777215
370
     9
100
AcDbVertex
100
AcDb2dVertex
 10
103.4290090279728
 20
-130.824746078405
 30
0.0
  0
SEQEND
  5
A6
330
A3
100
AcDbEntity
  8
_U+30EC_U+30A4_U+30E4_U+30FC 1
 62
     7
420
 16777215
370
     9
  0
POLYLINE
  5
A7
330
1F
100
AcDbEntity
  8
_U+30EC_U+30A4_U+30E4_U+30FC 1
 62
     7
420
 16777215
370
     9
100
AcDb2dPolyline
 66
     1
 10
0.0
 20
0.0
 30
0.0
  0
VERTEX
  5
A8
330
A7
100
AcDbEntity
  8
_U+30EC_U+30A4_U+30E4_U+30FC 1
 62
     7
420
 16777215
370
     9
100
AcDbVertex
100
AcDb2dVertex
 10
101.9689676763327
 20
-131.524798300452
 30
0.0
  0
VERTEX
  5
A9
330
A7
100
AcDbEntity
  8
_U+30EC_U+30A4_U+30E4_U+30FC 1
 62
     7
420
 16777215
370
     9
100
AcDbVertex
100
AcDb2dVertex
 10
104.4290987246806
 20
-131.524798300452
 30
0.0
  0
SEQEND
  5
AA
330
A7
100
AcDbEntity
  8
_U+30EC_U+30A4_U+30E4_U+30FC 1
 62
     7
420
 16777215
370
     9
  0
POLYLINE
  5
AB
330
1F
100
AcDbEntity
  8
_U+30EC_U+30A4_U+30E4_U+30FC 1
 62
     7
420
 16777215
370
     9
100
AcDb2dPolyline
 66
     1
 10
0.0
 20
0.0
 30
0.0
  0
VERTEX
  5
AC
330
AB
100
AcDbEntity
  8
_U+30EC_U+30A4_U+30E4_U+30FC 1
 62
     7
420
 16777215
370
     9
100
AcDbVertex
100
AcDb2dVertex
 10
101.7140151828371
 20
-130.824746078405
 30
0.0
  0
VERTEX
  5
AD
330
AB
100
AcDbEntity
  8
_U+30EC_U+30A4_U+30E4_U+30FC 1
 62
     7
420
 16777215
370
     9
100
AcDbVertex
100
AcDb2dVertex
 10
104.4290987246806
 20
-130.824746078405
 30
0.0
  0
SEQEND
  5
AE
330
AB
100
AcDbEntity
  8
_U+30EC_U+30A4_U+30E4_U+30FC 1
 62
     7
420
 16777215
370
     9
  0
INSERT
  5
B0
330
1F
100
AcDbEntity
  8
_U+30EC_U+30A4_U+30E4_U+30FC 1
100
AcDbBlockReference
  2
block 4
 10
0.0
 20
0.0
 30
0.0
  0
POLYLINE
  5
C0
330
1F
100
AcDbEntity
  8
_U+30EC_U+30A4_U+30E4_U+30FC 1
 62
     7
420
 16777215
370
     9
100
AcDb2dPolyline
 66
     1
 10
0.0
 20
0.0
 30
0.0
  0
VERTEX
  5
C1
330
C0
100
AcDbEntity
  8
_U+30EC_U+30A4_U+30E4_U+30FC 1
 62
     7
420
 16777215
370
     9
100
AcDbVertex
100
AcDb2dVertex
 10
103.4290090279728
 20
-127.494559134793
 30
0.0
  0
VERTEX
  5
C2
330
C0
100
AcDbEntity
  8
_U+30EC_U+30A4_U+30E4_U+30FC 1
 62
     7
420
 16777215
370
     9
100
AcDbVertex
100
AcDb2dVertex
 10
103.4290090279728
 20
-122.2366533027741
 30
0.0
  0
SEQEND
  5
C3
330
C0
100
AcDbEntity
  8
_U+30EC_U+30A4_U+30E4_U+30FC 1
 62
     7
420
 16777215
370
     9
  0
POLYLINE
  5
C4
330
1F
100
AcDbEntity
  8
_U+30EC_U+30A4_U+30E4_U+30FC 1
 62
     7
420
 16777215
370
     9
100
AcDb2dPolyline
 66
     1
 10
0.0
 20
0.0
 30
0.0
  0
VERTEX
  5
C5
330
C4
100
AcDbEntity
  8
_U+30EC_U+30A4_U+30E4_U+30FC 1
 62
     7
420
 16777215
370
     9
100
AcDbVertex
100
AcDb2dVertex
 10
103.4290090279728
 20
-131.5826538559933
 30
0.0
  0
VERTEX
  5
C6
330
C4
100
AcDbEntity
  8
_U+30EC_U+30A4_U+30E4_U+30FC 1
 62
     7
420
 16777215
370
     9
100
AcDbVertex
100
AcDb2dVertex
 10
103.4290090279728
 20
-127.5827535792154
 30
0.0
  0
SEQEND
  5
C7
330
C4
100
AcDbEntity
  8
_U+30EC_U+30A4_U+30E4_U+30FC 1
 62
     7
420
 16777215
370
     9
  0
POLYLINE
  5
C8
330
1F
100
AcDbEntity
  8
_U+30EC_U+30A4_U+30E4_U+30FC 1
 62
     7
420
 16777215
370
     9
100
AcDb2dPolyline
 66
     1
 10
0.0
 20
0.0
 30
0.0
  0
VERTEX
  5
C9
330
C8
100
AcDbEntity
  8
_U+30EC_U+30A4_U+30E4_U+30FC 1
 62
     7
420
 16777215
370
     9
100
AcDbVertex
100
AcDb2dVertex
 10
94.9688689660312
 20
-130.5243205229245
 30
0.0
  0
VERTEX
  5
CA
330
C8
100
AcDbEntity
  8
_U+30EC_U+30A4_U+30E4_U+30FC 1
 62
     7
420
 16777215
370
     9
100
AcDbVertex
100
AcDb2dVertex
 10
104.4290987246806
 20
-130.5243205229245
 30
0.0
  0
SEQEND
  5
CB
330
C8
100
AcDbEntity
  8
_U+30EC_U+30A4_U+30E4_U+30FC 1
 62
     7
420
 16777215
370
     9
  0
POLYLINE
  5
CC
330
1F
100
AcDbEntity
  8
_U+30EC_U+30A4_U+30E4_U+30FC 1
 62
     7
420
 16777215
370
     9
100
AcDb2dPolyline
 66
     1
 10
0.0
 20
0.0
 30
0.0
  0
VERTEX
  5
CD
330
CC
100
AcDbEntity
  8
_U+30EC_U+30A4_U+30E4_U+30FC 1
 62
     7
420
 16777215
370
     9
100
AcDbVertex
100
AcDb2dVertex
 10
92.3330193110551
 20
-127.4504619125818
 30
0.0
  0
VERTEX
  5
CE
330
CC
100
AcDbEntity
  8
_U+30EC_U+30A4_U+30E4_U+30FC 1
 62
     7
420
 16777215
370
     9
100
AcDbVertex
100
AcDb2dVertex
 10
104.4290987246806
 20
-127.4504619125818
 30
0.0
  0
SEQEND
  5
CF
330
CC
100
AcDbEntity
  8
_U+30EC_U+30A4_U+30E4_U+30FC 1
 62
     7
420
 16777215
370
     9
  0
INSERT
  5
D1
330
1F
100
AcDbEntity
  8
_U+30EC_U+30A4_U+30E4_U+30FC 1
100
AcDbBlockReference
  2
block 5
 10
0.0
 20
0.0
 30
0.0
  0
POLYLINE
  5
D6
330
1F
100
AcDbEntity
  8
_U+30EC_U+30A4_U+30E4_U+30FC 1
 62
     7
420
 16777215
370
     9
100
AcDb2dPolyline
 66
     1
 10
0.0
 20
0.0
 30
0.0
  0
VERTEX
  5
D7
330
D6
100
AcDbEntity
  8
_U+30EC_U+30A4_U+30E4_U+30FC 1
 62
     7
420
 16777215
370
     9
100
AcDbVertex
100
AcDb2dVertex
 10
99.42889718557973
 20
-123.5243980246744
 30
0.0
  0
VERTEX
  5
D8
330
D6
100
AcDbEntity
  8
_U+30EC_U+30A4_U+30E4_U+30FC 1
 62
     7
420
 16777215
370
     9
100
AcDbVertex
100
AcDb2dVertex
 10
92.42879847527823
 20
-123.5243980246744
 30
0.0
  0
SEQEND
  5
D9
330
D6
100
AcDbEntity
  8
_U+30EC_U+30A4_U+30E4_U+30FC 1
 62
     7
420
 16777215
370
     9
  0
POLYLINE
  5
DA
330
1F
100
AcDbEntity
  8
_U+30EC_U+30A4_U+30E4_U+30FC 1
 62
     7
420
 16777215
370
     9
100
AcDb2dPolyline
 66
     1
 10
0.0
 20
0.0
 30
0.0
  0
VERTEX
  5
DB
330
DA
100
AcDbEntity
  8
_U+30EC_U+30A4_U+30E4_U+30FC 1
 62
     7
420
 16777215
370
     9
100
AcDbVertex
100
AcDb2dVertex
 10
99.42889718557973
 20
-128.9843749677539
 30
0.0
  0
VERTEX
  5
DC
330
DA
100
AcDbEntity
  8
_U+30EC_U+30A4_U+30E4_U+30FC 1
 62
     7
420
 16777215
370
     9
100
AcDbVertex
100
AcDb2dVertex
 10
99.42889718557973
 20
-122.5246610804801
 30
0.0
  0
SEQEND
  5
DD
330
DA
100
AcDbEntity
  8
_U+30EC_U+30A4_U+30E4_U+30FC 1
 62
     7
420
 16777215
370
     9
  0
POLYLINE
  5
DE
330
1F
100
AcDbEntity
  8
_U+30EC_U+30A4_U+30E4_U+30FC 1
 62
     7
420
 16777215
370
     9
100
AcDb2dPolyline
 66
     1
 10
0.0
 20
0.0
 30
0.0
  0
VERTEX
  5
DF
330
DE
100
AcDbEntity
  8
_U+30EC_U+30A4_U+30E4_U+30FC 1
 62
     7
420
 16777215
370
     9
100
AcDbVertex
100
AcDb2dVertex
 10
92.42879847527823
 20
-127.9846027457817
 30
0.0
  0
VERTEX
  5
E0
330
DE
100
AcDbEntity
  8
_U+30EC_U+30A4_U+30E4_U+30FC 1
 62
     7
420
 16777215
370
     9
100
AcDbVertex
100
AcDb2dVertex
 10
92.42879847527823
 20
-122.5246610804801
 30
0.0
  0
SEQEND
  5
E1
330
DE
100
AcDbEntity
  8
_U+30EC_U+30A4_U+30E4_U+30FC 1
 62
     7
420
 16777215
370
     9
  0
INSERT
  5
E3
330
1F
100
AcDbEntity
  8
_U+30EC_U+30A4_U+30E4_U+30FC 1
100
AcDbBlockReference
  2
block 6
 10
0.0
 20
0.0
 30
0.0
  0
POLYLINE
  5
E8
330
1F
100
AcDbEntity
  8
_U+30EC_U+30A4_U+30E4_U+30FC 1
 62
     7
420
 16777215
370
     9
100
AcDb2dPolyline
 66
     1
 10
0.0
 20
0.0
 30
0.0
  0
VERTEX
  5
E9
330
E8
100
AcDbEntity
  8
_U+30EC_U+30A4_U+30E4_U+30FC 1
 62
     7
420
 16777215
370
     9
100
AcDbVertex
100
AcDb2dVertex
 10
81.4289759781293
 20
-128.2746919123758
 30
0.0
  0
VERTEX
  5
EA
330
E8
100
AcDbEntity
  8
_U+30EC_U+30A4_U+30E4_U+30FC 1
 62
     7
420
 16777215
370
     9
100
AcDbVertex
100
AcDb2dVertex
 10
77.65866357431798
 20
-128.2746919123758
 30
0.0
  0
SEQEND
  5
EB
330
E8
100
AcDbEntity
  8
_U+30EC_U+30A4_U+30E4_U+30FC 1
 62
     7
420
 16777215
370
     9
  0
POLYLINE
  5
EC
330
1F
100
AcDbEntity
  8
_U+30EC_U+30A4_U+30E4_U+30FC 1
 62
     7
420
 16777215
370
     9
100
AcDb2dPolyline
 66
     1
 10
0.0
 20
0.0
 30
0.0
  0
VERTEX
  5
ED
330
EC
100
AcDbEntity
  8
_U+30EC_U+30A4_U+30E4_U+30FC 1
 62
     7
420
 16777215
370
     9
100
AcDbVertex
100
AcDb2dVertex
 10
81.4289759781293
 20
-128.2746919123758
 30
0.0
  0
VERTEX
  5
EE
330
EC
100
AcDbEntity
  8
_U+30EC_U+30A4_U+30E4_U+30FC 1
 62
     7
420
 16777215
370
     9
100
AcDbVertex
100
AcDb2dVertex
 10
83.42883787155303
 20
-128.2746919123758
 30
0.0
  0
SEQEND
  5
EF
330
EC
100
AcDbEntity
  8
_U+30EC_U+30A4_U+30E4_U+30FC 1
 62
     7
420
 16777215
370
     9
  0
INSERT
  5
F1
330
1F
100
AcDbEntity
  8
_U+30EC_U+30A4_U+30E4_U+30FC 1
100
AcDbBlockReference
  2
block 7
 10
0.0
 20
0.0
 30
0.0
  0
ENDSEC
  0
SECTION
  2
OBJECTS
  0
DICTIONARY
  5
C
330
0
100
AcDbDictionary
281
     1
  3
ACAD_GROUP
350
D
  3
ACAD_LAYOUT
350
1A
  3
ACAD_MATERIAL
350
3B
  3
ACAD_MLEADERSTYLE
350
F7
  3
ACAD_MLINESTYLE
350
17
  3
ACAD_PLOTSETTINGS
350
19
  3
ACAD_PLOTSTYLENAME
350
E
  3
ACAD_TABLESTYLE
350
F6
  3
ACAD_VISUALSTYLE
350
2A
  0
SUN
  5
3F
330
29
100
AcDbSun
 90
        1
290
     0
 63
     7
421
 16777215
 40
1.0
291
     1
 91
  2455826
 92
 54000000
292
     0
 70
     2
 71
   256
280
     1
  0
DICTIONARY
  5
D
102
{ACAD_REACTORS
330
C
102
}
330
C
100
AcDbDictionary
281
     1
  0
DICTIONARY
  5
1A
102
{ACAD_REACTORS
330
C
102
}
330
C
100
AcDbDictionary
281
     1
  3
Layout1
350
1E
  3
Layout2
350
26
  3
Model
350
22
  0
DICTIONARY
  5
3B
102
{ACAD_REACTORS
330
C
102
}
330
C
100
AcDbDictionary
281
     1
  3
ByBlock
350
3D
  3
ByLayer
350
3C
  3
Global
350
3E
  0
DICTIONARY
  5
F7
102
{ACAD_REACTORS
330
C
102
}
330
C
100
AcDbDictionary
281
     1
  0
DICTIONARY
  5
17
102
{ACAD_REACTORS
330
C
102
}
330
C
100
AcDbDictionary
281
     1
  3
Standard
350
18
  0
DICTIONARY
  5
19
102
{ACAD_REACTORS
330
C
102
}
330
C
100
AcDbDictionary
281
     1
  0
ACDBDICTIONARYWDFLT
  5
E
102
{ACAD_REACTORS
330
C
102
}
330
C
100
AcDbDictionary
281
     1
  3
Normal
350
F
100
AcDbDictionaryWithDefault
340
F
  0
DICTIONARY
  5
F6
102
{ACAD_REACTORS
330
C
102
}
330
C
100
AcDbDictionary
281
     1
  0
DICTIONARY
  5
2A
102
{ACAD_REACTORS
330
C
102
}
330
C
100
AcDbDictionary
281
     1
  3
2dWireframe
350
2F
  3
3D Hidden
350
31
  3
3dWireframe
350
30
  3
Basic
350
32
  3
Brighten
350
36
  3
ColorChange
350
3A
  3
Conceptual
350
34
  3
Dim
350
35
  3
Facepattern
350
39
  3
Flat
350
2B
  3
FlatWithEdges
350
2C
  3
Gouraud
350
2D
  3
GouraudWithEdges
350
2E
  3
Linepattern
350
38
  3
Realistic
350
33
  3
Thicken
350
37
  0
LAYOUT
  5
1E
102
{ACAD_REACTORS
330
1A
102
}
330
1A
100
AcDbPlotSettings
  1

  2
none_device
  4

  6

 40
0.0
 41
0.0
 42
0.0
 43
0.0
 44
0.0
 45
0.0
 46
0.0
 47
0.0
 48
0.0
 49
0.0
140
0.0
141
0.0
142
1.0
143
1.0
 70
   688
 72
     0
 73
     0
 74
     5
  7

 75
    16
 76
     0
 77
     2
 78
   300
147
1.0
148
0.0
149
0.0
100
AcDbLayout
  1
Layout1
 70
     1
 71
     1
 10
0.0
 20
0.0
 11
12.0
 21
9.0
 12
0.0
 22
0.0
 32
0.0
 14
1.000000000000000E+20
 24
1.000000000000000E+20
 34
1.000000000000000E+20
 15
-1.000000000000000E+20
 25
-1.000000000000000E+20
 35
-1.000000000000000E+20
146
0.0
 13
0.0
 23
0.0
 33
0.0
 16
1.0
 26
0.0
 36
0.0
 17
0.0
 27
1.0
 37
0.0
 76
     0
330
1B
  0
LAYOUT
  5
26
102
{ACAD_REACTORS
330
1A
102
}
330
1A
100
AcDbPlotSettings
  1

  2
none_device
  4

  6

 40
0.0
 41
0.0
 42
0.0
 43
0.0
 44
0.0
 45
0.0
 46
0.0
 47
0.0
 48
0.0
 49
0.0
140
0.0
141
0.0
142
1.0
143
1.0
 70
   688
 72
     0
 73
     0
 74
     5
  7

 75
    16
 76
     0
 77
     2
 78
   300
147
1.0
148
0.0
149
0.0
100
AcDbLayout
  1
Layout2
 70
     1
 71
     2
 10
0.0
 20
0.0
 11
0.0
 21
0.0
 12
0.0
 22
0.0
 32
0.0
 14
0.0
 24
0.0
 34
0.0
 15
0.0
 25
0.0
 35
0.0
146
0.0
 13
0.0
 23
0.0
 33
0.0
 16
1.0
 26
0.0
 36
0.0
 17
0.0
 27
1.0
 37
0.0
 76
     0
330
23
  0
LAYOUT
  5
22
102
{ACAD_REACTORS
330
1A
102
}
330
1A
100
AcDbPlotSettings
  1

  2
none_device
  4

  6

 40
0.0
 41
0.0
 42
0.0
 43
0.0
 44
0.0
 45
0.0
 46
0.0
 47
0.0
 48
0.0
 49
0.0
140
0.0
141
0.0
142
1.0
143
1.0
 70
  1712
 72
     0
 73
     0
 74
     0
  7

 75
     0
 76
     0
 77
     2
 78
   300
147
1.0
148
0.0
149
0.0
100
AcDbLayout
  1
Model
 70
     1
 71
     0
 10
0.0
 20
0.0
 11
12.0
 21
9.0
 12
0.0
 22
0.0
 32
0.0
 14
1.000000000000000E+20
 24
1.000000000000000E+20
 34
1.000000000000000E+20
 15
-1.000000000000000E+20
 25
-1.000000000000000E+20
 35
-1.000000000000000E+20
146
0.0
 13
0.0
 23
0.0
 33
0.0
 16
1.0
 26
0.0
 36
0.0
 17
0.0
 27
1.0
 37
0.0
 76
     0
330
1F
331
29
  0
MATERIAL
  5
3D
102
{ACAD_REACTORS
330
3B
102
}
330
3B
100
AcDbMaterial
  1
ByBlock
 72
     1
 94
      127
  0
MATERIAL
  5
3C
102
{ACAD_REACTORS
330
3B
102
}
330
3B
100
AcDbMaterial
  1
ByLayer
 72
     1
 94
      127
  0
MATERIAL
  5
3E
102
{ACAD_REACTORS
330
3B
102
}
330
3B
100
AcDbMaterial
  1
Global
 72
     1
 94
      127
  0
MLINESTYLE
  5
18
102
{ACAD_REACTORS
330
17
102
}
330
17
100
AcDbMlineStyle
  2
Standard
 70
     0
  3

 62
   256
 51
90.0
 52
90.0
 71
     2
 49
0.5
 62
   256
  6
BYLAYER
 49
-0.5
 62
   256
  6
BYLAYER
  0
ACDBPLACEHOLDER
  5
F
102
{ACAD_REACTORS
330
E
102
}
330
E
  0
VISUALSTYLE
  5
2F
102
{ACAD_REACTORS
330
2A
102
}
330
2A
100
AcDbVisualStyle
  2
2dWireframe
 70
     4
177
     2
291
     0
 71
     0
176
     1
 72
     2
176
     1
 73
     0
176
     1
 90
        0
176
     1
 40
-0.6
176
     1
 41
-30.0
176
     1
 62
     5
 63
     7
421
 16777215
176
     1
 74
     1
176
     1
 91
        4
176
     1
 64
     7
176
     1
 65
   257
176
     1
 75
     1
176
     1
175
     1
176
     1
 42
1.0
176
     1
 92
        0
176
     1
 66
   257
176
     1
 43
1.0
176
     1
 76
     1
176
     1
 77
     6
176
     1
 78
     2
176
     1
 67
     7
176
     1
 79
     5
176
     1
170
     0
176
     1
171
     0
176
     1
290
     0
176
     1
 93
        1
176
     1
 44
0.0
176
     1
173
     0
176
     1
  0
VISUALSTYLE
  5
31
102
{ACAD_REACTORS
330
2A
102
}
330
2A
100
AcDbVisualStyle
  2
3D Hidden
 70
     6
177
     2
291
     0
 71
     1
176
     1
 72
     2
176
     1
 73
     2
176
     1
 90
        0
176
     1
 40
-0.6
176
     1
 41
-30.0
176
     1
 62
     5
 63
     7
421
 16777215
176
     1
 74
     2
176
     1
 91
        2
176
     1
 64
     7
176
     1
 65
   257
176
     1
 75
     2
176
     1
175
     1
176
     1
 42
40.0
176
     1
 92
        0
176
     1
 66
   257
176
     1
 43
1.0
176
     1
 76
     1
176
     1
 77
     6
176
     1
 78
     2
176
     1
 67
     7
176
     1
 79
     3
176
     1
170
     0
176
     1
171
     0
176
     1
290
     0
176
     1
 93
        1
176
     1
 44
0.0
176
     1
173
     0
176
     1
  0
VISUALSTYLE
  5
30
102
{ACAD_REACTORS
330
2A
102
}
330
2A
100
AcDbVisualStyle
  2
3dWireframe
 70
     5
177
     2
291
     0
 71
     0
176
     1
 72
     2
176
     1
 73
     0
176
     1
 90
        0
176
     1
 40
-0.6
176
     1
 41
-30.0
176
     1
 62
     5
 63
     7
421
 16777215
176
     1
 74
     1
176
     1
 91
        4
176
     1
 64
     7
176
     1
 65
   257
176
     1
 75
     1
176
     1
175
     1
176
     1
 42
1.0
176
     1
 92
        0
176
     1
 66
   257
176
     1
 43
1.0
176
     1
 76
     1
176
     1
 77
     6
176
     1
 78
     2
176
     1
 67
     7
176
     1
 79
     5
176
     1
170
     0
176
     1
171
     0
176
     1
290
     0
176
     1
 93
        1
176
     1
 44
0.0
176
     1
173
     0
176
     1
  0
VISUALSTYLE
  5
32
102
{ACAD_REACTORS
330
2A
102
}
330
2A
100
AcDbVisualStyle
  2
Basic
 70
     7
177
     2
291
     1
 71
     1
176
     1
 72
     0
176
     1
 73
     1
176
     1
 90
        0
176
     1
 40
-0.6
176
     1
 41
-30.0
176
     1
 62
     5
 63
     7
421
 16777215
176
     1
 74
     0
176
     1
 91
        4
176
     1
 64
     7
176
     1
 65
   257
176
     1
 75
     1
176
     1
175
     1
176
     1
 42
1.0
176
     1
 92
        8
176
     1
 66
     7
176
     1
 43
1.0
176
     1
 76
     1
176
     1
 77
     6
176
     1
 78
     2
176
     1
 67
     7
176
     1
 79
     5
176
     1
170
     0
176
     1
171
     0
176
     1
290
     0
176
     1
 93
        1
176
     1
 44
0.0
176
     1
173
     0
176
     1
  0
VISUALSTYLE
  5
36
102
{ACAD_REACTORS
330
2A
102
}
330
2A
100
AcDbVisualStyle
  2
Brighten
 70
    12
177
     2
291
     1
 71
     2
176
     1
 72
     2
176
     1
 73
     0
176
     1
 90
        0
176
     1
 40
-0.6
176
     1
 41
-30.0
176
     1
 62
     5
 63
     7
421
 16777215
176
     1
 74
     1
176
     1
 91
        4
176
     1
 64
     7
176
     1
 65
   257
176
     1
 75
     1
176
     1
175
     1
176
     1
 42
1.0
176
     1
 92
        8
176
     1
 66
     7
176
     1
 43
1.0
176
     1
 76
     1
176
     1
 77
     6
176
     1
 78
     2
176
     1
 67
     7
176
     1
 79
     5
176
     1
170
     0
176
     1
171
     0
176
     1
290
     0
176
     1
 93
        1
176
     1
 44
50.0
176
     1
173
     0
176
     1
  0
VISUALSTYLE
  5
3A
102
{ACAD_REACTORS
330
2A
102
}
330
2A
100
AcDbVisualStyle
  2
ColorChange
 70
    16
177
     2
291
     1
 71
     2
176
     1
 72
     2
176
     1
 73
     3
176
     1
 90
        0
176
     1
 40
-0.6
176
     1
 41
-30.0
176
     1
 62
     5
 63
     8
421
  8421504
176
     1
 74
     1
176
     1
 91
        4
176
     1
 64
     7
176
     1
 65
   257
176
     1
 75
     1
176
     1
175
     1
176
     1
 42
1.0
176
     1
 92
        8
176
     1
 66
     8
424
  8421504
176
     1
 43
1.0
176
     1
 76
     1
176
     1
 77
     6
176
     1
 78
     2
176
     1
 67
     7
176
     1
 79
     5
176
     1
170
     0
176
     1
171
     0
176
     1
290
     0
176
     1
 93
        1
176
     1
 44
0.0
176
     1
173
     0
176
     1
  0
VISUALSTYLE
  5
34
102
{ACAD_REACTORS
330
2A
102
}
330
2A
100
AcDbVisualStyle
  2
Conceptual
 70
     9
177
     2
291
     0
 71
     3
176
     1
 72
     2
176
     1
 73
     0
176
     1
 90
        0
176
     1
 40
-0.6
176
     1
 41
-30.0
176
     1
 62
     5
 63
     7
421
 16777215
176
     1
 74
     2
176
     1
 91
        2
176
     1
 64
     7
176
     1
 65
   257
176
     1
 75
     1
176
     1
175
     1
176
     1
 42
40.0
176
     1
 92
        8
176
     1
 66
     7
176
     1
 43
1.0
176
     1
 76
     1
176
     1
 77
     6
176
     1
 78
     2
176
     1
 67
     7
176
     1
 79
     3
176
     1
170
     0
176
     1
171
     0
176
     1
290
     0
176
     1
 93
        1
176
     1
 44
0.0
176
     1
173
     0
176
     1
  0
VISUALSTYLE
  5
35
102
{ACAD_REACTORS
330
2A
102
}
330
2A
100
AcDbVisualStyle
  2
Dim
 70
    11
177
     2
291
     1
 71
     2
176
     1
 72
     2
176
     1
 73
     0
176
     1
 90
        0
176
     1
 40
-0.6
176
     1
 41
-30.0
176
     1
 62
     5
 63
     7
421
 16777215
176
     1
 74
     1
176
     1
 91
        4
176
     1
 64
     7
176
     1
 65
   257
176
     1
 75
     1
176
     1
175
     1
176
     1
 42
1.0
176
     1
 92
        8
176
     1
 66
     7
176
     1
 43
1.0
176
     1
 76
     1
176
     1
 77
     6
176
     1
 78
     2
176
     1
 67
     7
176
     1
 79
     5
176
     1
170
     0
176
     1
171
     0
176
     1
290
     0
176
     1
 93
        1
176
     1
 44
-50.0
176
     1
173
     0
176
     1
  0
VISUALSTYLE
  5
39
102
{ACAD_REACTORS
330
2A
102
}
330
2A
100
AcDbVisualStyle
  2
Facepattern
 70
    15
177
     2
291
     1
 71
     2
176
     1
 72
     2
176
     1
 73
     0
176
     1
 90
        0
176
     1
 40
-0.6
176
     1
 41
-30.0
176
     1
 62
     5
 63
     7
421
 16777215
176
     1
 74
     1
176
     1
 91
        4
176
     1
 64
     7
176
     1
 65
   257
176
     1
 75
     1
176
     1
175
     1
176
     1
 42
1.0
176
     1
 92
        8
176
     1
 66
     7
176
     1
 43
1.0
176
     1
 76
     1
176
     1
 77
     6
176
     1
 78
     2
176
     1
 67
     7
176
     1
 79
     5
176
     1
170
     0
176
     1
171
     0
176
     1
290
     0
176
     1
 93
        1
176
     1
 44
0.0
176
     1
173
     0
176
     1
  0
VISUALSTYLE
  5
2B
102
{ACAD_REACTORS
330
2A
102
}
330
2A
100
AcDbVisualStyle
  2
Flat
 70
     0
177
     2
291
     1
 71
     2
176
     1
 72
     1
176
     1
 73
     1
176
     1
 90
        2
176
     1
 40
-0.6
176
     1
 41
30.0
176
     1
 62
     5
 63
     7
421
 16777215
176
     1
 74
     0
176
     1
 91
        4
176
     1
 64
     7
176
     1
 65
   257
176
     1
 75
     1
176
     1
175
     1
176
     1
 42
1.0
176
     1
 92
        8
176
     1
 66
     7
176
     1
 43
1.0
176
     1
 76
     1
176
     1
 77
     6
176
     1
 78
     2
176
     1
 67
     7
176
     1
 79
     5
176
     1
170
     0
176
     1
171
     0
176
     1
290
     0
176
     1
 93
       13
176
     1
 44
0.0
176
     1
173
     0
176
     1
  0
VISUALSTYLE
  5
2C
102
{ACAD_REACTORS
330
2A
102
}
330
2A
100
AcDbVisualStyle
  2
FlatWithEdges
 70
     1
177
     2
291
     1
 71
     2
176
     1
 72
     1
176
     1
 73
     1
176
     1
 90
        2
176
     1
 40
-0.6
176
     1
 41
30.0
176
     1
 62
     5
 63
     7
421
 16777215
176
     1
 74
     1
176
     1
 91
        4
176
     1
 64
     7
176
     1
 65
   257
176
     1
 75
     1
176
     1
175
     1
176
     1
 42
1.0
176
     1
 92
        0
176
     1
 66
   257
176
     1
 43
1.0
176
     1
 76
     1
176
     1
 77
     6
176
     1
 78
     2
176
     1
 67
     7
176
     1
 79
     5
176
     1
170
     0
176
     1
171
     0
176
     1
290
     0
176
     1
 93
       13
176
     1
 44
0.0
176
     1
173
     0
176
     1
  0
VISUALSTYLE
  5
2D
102
{ACAD_REACTORS
330
2A
102
}
330
2A
100
AcDbVisualStyle
  2
Gouraud
 70
     2
177
     2
291
     1
 71
     2
176
     1
 72
     2
176
     1
 73
     1
176
     1
 90
        2
176
     1
 40
-0.6
176
     1
 41
30.0
176
     1
 62
     5
 63
     7
421
 16777215
176
     1
 74
     0
176
     1
 91
        4
176
     1
 64
     7
176
     1
 65
   257
176
     1
 75
     1
176
     1
175
     1
176
     1
 42
1.0
176
     1
 92
        0
176
     1
 66
     7
176
     1
 43
1.0
176
     1
 76
     1
176
     1
 77
     6
176
     1
 78
     2
176
     1
 67
     7
176
     1
 79
     5
176
     1
170
     0
176
     1
171
     0
176
     1
290
     0
176
     1
 93
       13
176
     1
 44
0.0
176
     1
173
     0
176
     1
  0
VISUALSTYLE
  5
2E
102
{ACAD_REACTORS
330
2A
102
}
330
2A
100
AcDbVisualStyle
  2
GouraudWithEdges
 70
     3
177
     2
291
     1
 71
     2
176
     1
 72
     2
176
     1
 73
     1
176
     1
 90
        2
176
     1
 40
-0.6
176
     1
 41
30.0
176
     1
 62
     5
 63
     7
421
 16777215
176
     1
 74
     1
176
     1
 91
        4
176
     1
 64
     7
176
     1
 65
   257
176
     1
 75
     1
176
     1
175
     1
176
     1
 42
1.0
176
     1
 92
        0
176
     1
 66
   257
176
     1
 43
1.0
176
     1
 76
     1
176
     1
 77
     6
176
     1
 78
     2
176
     1
 67
     7
176
     1
 79
     5
176
     1
170
     0
176
     1
171
     0
176
     1
290
     0
176
     1
 93
       13
176
     1
 44
0.0
176
     1
173
     0
176
     1
  0
VISUALSTYLE
  5
38
102
{ACAD_REACTORS
330
2A
102
}
330
2A
100
AcDbVisualStyle
  2
Linepattern
 70
    14
177
     2
291
     1
 71
     2
176
     1
 72
     2
176
     1
 73
     0
176
     1
 90
        0
176
     1
 40
-0.6
176
     1
 41
-30.0
176
     1
 62
     5
 63
     7
421
 16777215
176
     1
 74
     1
176
     1
 91
        4
176
     1
 64
     7
176
     1
 65
   257
176
     1
 75
     7
176
     1
175
     7
176
     1
 42
1.0
176
     1
 92
        8
176
     1
 66
     7
176
     1
 43
1.0
176
     1
 76
     1
176
     1
 77
     6
176
     1
 78
     2
176
     1
 67
     7
176
     1
 79
     5
176
     1
170
     0
176
     1
171
     0
176
     1
290
     0
176
     1
 93
        1
176
     1
 44
0.0
176
     1
173
     0
176
     1
  0
VISUALSTYLE
  5
33
102
{ACAD_REACTORS
330
2A
102
}
330
2A
100
AcDbVisualStyle
  2
Realistic
 70
     8
177
     2
291
     0
 71
     2
176
     1
 72
     2
176
     1
 73
     0
176
     1
 90
        0
176
     1
 40
-0.6
176
     1
 41
-30.0
176
     1
 62
     5
 63
     7
421
 16777215
176
     1
 74
     1
176
     1
 91
        0
176
     1
 64
     7
176
     1
 65
   257
176
     1
 75
     1
176
     1
175
     1
176
     1
 42
1.0
176
     1
 92
        8
176
     1
 66
     8
424
  7895160
176
     1
 43
1.0
176
     1
 76
     1
176
     1
 77
     6
176
     1
 78
     2
176
     1
 67
     7
176
     1
 79
     5
176
     1
170
     0
176
     1
171
     0
176
     1
290
     0
176
     1
 93
       13
176
     1
 44
0.0
176
     1
173
     0
176
     1
  0
VISUALSTYLE
  5
37
102
{ACAD_REACTORS
330
2A
102
}
330
2A
100
AcDbVisualStyle
  2
Thicken
 70
    13
177
     2
291
     1
 71
     2
176
     1
 72
     2
176
     1
 73
     0
176
     1
 90
        0
176
     1
 40
-0.6
176
     1
 41
-30.0
176
     1
 62
     5
 63
     7
421
 16777215
176
     1
 74
     1
176
     1
 91
        4
176
     1
 64
     7
176
     1
 65
   257
176
     1
 75
     1
176
     1
175
     1
176
     1
 42
1.0
176
     1
 92
       12
176
     1
 66
     7
176
     1
 43
1.0
176
     1
 76
     1
176
     1
 77
     6
176
     1
 78
     2
176
     1
 67
     7
176
     1
 79
     5
176
     1
170
     0
176
     1
171
     0
176
     1
290
     0
176
     1
 93
        1
176
     1
 44
0.0
176
     1
173
     0
176
     1
  0
ENDSEC
  0
EOF
