  0
SECTION
  2
HEADER
  9
$ACADVER
  1
AC1024
  9
$ACADMAINTVER
 70
     6
  9
$DWGCODEPAGE
  3
UNDEFINED
  9
$INSBASE
 10
0.0
 20
0.0
 30
0.0
  9
$EXTMIN
 10
1.000000000000000E+20
 20
1.000000000000000E+20
 30
1.000000000000000E+20
  9
$EXTMAX
 10
-1.000000000000000E+20
 20
-1.000000000000000E+20
 30
-1.000000000000000E+20
  9
$LIMMIN
 10
0.0
 20
0.0
  9
$LIMMAX
 10
12.0
 20
9.0
  9
$ORTHOMODE
 70
     0
  9
$REGENMODE
 70
     1
  9
$FILLMODE
 70
     1
  9
$QTEXTMODE
 70
     0
  9
$MIRRTEXT
 70
     1
  9
$LTSCALE
 40
1.0
  9
$ATTMODE
 70
     1
  9
$TEXTSIZE
 40
0.2
  9
$TRACEWID
 40
0.05
  9
$TEXTSTYLE
  7
Standard
  9
$CLAYER
  8
0
  9
$CELTYPE
  6
ByLayer
  9
$CECOLOR
 62
   256
  9
$CELTSCALE
 40
1.0
  9
$DISPSILH
 70
     0
  9
$DIMSCALE
 40
1.0
  9
$DIMASZ
 40
0.18
  9
$DIMEXO
 40
0.0625
  9
$DIMDLI
 40
0.38
  9
$DIMRND
 40
0.0
  9
$DIMDLE
 40
0.0
  9
$DIMEXE
 40
0.18
  9
$DIMTP
 40
0.0
  9
$DIMTM
 40
0.0
  9
$DIMTXT
 40
0.18
  9
$DIMCEN
 40
0.09
  9
$DIMTSZ
 40
0.0
  9
$DIMTOL
 70
     0
  9
$DIMLIM
 70
     0
  9
$DIMTIH
 70
     1
  9
$DIMTOH
 70
     1
  9
$DIMSE1
 70
     0
  9
$DIMSE2
 70
     0
  9
$DIMTAD
 70
     0
  9
$DIMZIN
 70
     0
  9
$DIMBLK
  1

  9
$DIMASO
 70
     1
  9
$DIMSHO
 70
     1
  9
$DIMPOST
  1

  9
$DIMAPOST
  1

  9
$DIMALT
 70
     0
  9
$DIMALTD
 70
     2
  9
$DIMALTF
 40
25.4
  9
$DIMLFAC
 40
1.0
  9
$DIMTOFL
 70
     0
  9
$DIMTVP
 40
0.0
  9
$DIMTIX
 70
     0
  9
$DIMSOXD
 70
     0
  9
$DIMSAH
 70
     0
  9
$DIMBLK1
  1

  9
$DIMBLK2
  1

  9
$DIMSTYLE
  2
Standard
  9
$DIMCLRD
 70
     0
  9
$DIMCLRE
 70
     0
  9
$DIMCLRT
 70
     0
  9
$DIMTFAC
 40
1.0
  9
$DIMGAP
 40
0.09
  9
$DIMJUST
 70
     0
  9
$DIMSD1
 70
     0
  9
$DIMSD2
 70
     0
  9
$DIMTOLJ
 70
     1
  9
$DIMTZIN
 70
     0
  9
$DIMALTZ
 70
     0
  9
$DIMALTTZ
 70
     0
  9
$DIMUPT
 70
     0
  9
$DIMDEC
 70
     4
  9
$DIMTDEC
 70
     4
  9
$DIMALTU
 70
     2
  9
$DIMALTTD
 70
     2
  9
$DIMTXSTY
  7
Standard
  9
$DIMAUNIT
 70
     0
  9
$DIMADEC
 70
     0
  9
$DIMALTRND
 40
0.0
  9
$DIMAZIN
 70
     0
  9
$DIMDSEP
 70
    46
  9
$DIMATFIT
 70
     3
  9
$DIMFRAC
 70
     0
  9
$DIMLDRBLK
  1

  9
$DIMLUNIT
 70
     2
  9
$DIMLWD
 70
    -2
  9
$DIMLWE
 70
    -2
  9
$DIMTMOVE
 70
     0
  9
$DIMFXL
 40
1.0
  9
$DIMFXLON
 70
     0
  9
$DIMJOGANG
 40
0.7853981633974483
  9
$DIMTFILL
 70
     0
  9
$DIMTFILLCLR
 70
     0
  9
$DIMARCSYM
 70
     0
  9
$DIMLTYPE
  6

  9
$DIMLTEX1
  6

  9
$DIMLTEX2
  6

  9
$DIMTXTDIRECTION
 70
     0
  9
$LUNITS
 70
     2
  9
$LUPREC
 70
     4
  9
$SKETCHINC
 40
0.1
  9
$FILLETRAD
 40
0.5
  9
$AUNITS
 70
     0
  9
$AUPREC
 70
     0
  9
$MENU
  1
.
  9
$ELEVATION
 40
0.0
  9
$PELEVATION
 40
0.0
  9
$THICKNESS
 40
0.0
  9
$LIMCHECK
 70
     0
  9
$CHAMFERA
 40
0.5
  9
$CHAMFERB
 40
0.5
  9
$CHAMFERC
 40
1.0
  9
$CHAMFERD
 40
0.0
  9
$SKPOLY
 70
     0
  9
$TDCREATE
 40
2457917.593449063
  9
$TDUCREATE
 40
2457917.218449074
  9
$TDUPDATE
 40
2457917.593449063
  9
$TDUUPDATE
 40
2457917.218449074
  9
$TDINDWG
 40
0.0000000116
  9
$TDUSRTIMER
 40
0.0000000116
  9
$USRTIMER
 70
     1
  9
$ANGBASE
 50
0.0
  9
$ANGDIR
 70
     0
  9
$PDMODE
 70
     0
  9
$PDSIZE
 40
0.0
  9
$PLINEWID
 40
0.0
  9
$SPLFRAME
 70
     0
  9
$SPLINETYPE
 70
     6
  9
$SPLINESEGS
 70
     8
  9
$HANDSEED
  5
111
  9
$SURFTAB1
 70
     6
  9
$SURFTAB2
 70
     6
  9
$SURFTYPE
 70
     6
  9
$SURFU
 70
     6
  9
$SURFV
 70
     6
  9
$UCSBASE
  2

  9
$UCSNAME
  2

  9
$UCSORG
 10
0.0
 20
0.0
 30
0.0
  9
$UCSXDIR
 10
1.0
 20
0.0
 30
0.0
  9
$UCSYDIR
 10
0.0
 20
1.0
 30
0.0
  9
$UCSORTHOREF
  2

  9
$UCSORTHOVIEW
 70
     0
  9
$UCSORGTOP
 10
0.0
 20
0.0
 30
0.0
  9
$UCSORGBOTTOM
 10
0.0
 20
0.0
 30
0.0
  9
$UCSORGLEFT
 10
0.0
 20
0.0
 30
0.0
  9
$UCSORGRIGHT
 10
0.0
 20
0.0
 30
0.0
  9
$UCSORGFRONT
 10
0.0
 20
0.0
 30
0.0
  9
$UCSORGBACK
 10
0.0
 20
0.0
 30
0.0
  9
$PUCSBASE
  2

  9
$PUCSNAME
  2

  9
$PUCSORG
 10
0.0
 20
0.0
 30
0.0
  9
$PUCSXDIR
 10
1.0
 20
0.0
 30
0.0
  9
$PUCSYDIR
 10
0.0
 20
1.0
 30
0.0
  9
$PUCSORTHOREF
  2

  9
$PUCSORTHOVIEW
 70
     0
  9
$PUCSORGTOP
 10
0.0
 20
0.0
 30
0.0
  9
$PUCSORGBOTTOM
 10
0.0
 20
0.0
 30
0.0
  9
$PUCSORGLEFT
 10
0.0
 20
0.0
 30
0.0
  9
$PUCSORGRIGHT
 10
0.0
 20
0.0
 30
0.0
  9
$PUCSORGFRONT
 10
0.0
 20
0.0
 30
0.0
  9
$PUCSORGBACK
 10
0.0
 20
0.0
 30
0.0
  9
$USERI1
 70
     0
  9
$USERI2
 70
     0
  9
$USERI3
 70
     0
  9
$USERI4
 70
     0
  9
$USERI5
 70
     0
  9
$USERR1
 40
0.0
  9
$USERR2
 40
0.0
  9
$USERR3
 40
0.0
  9
$USERR4
 40
0.0
  9
$USERR5
 40
0.0
  9
$WORLDVIEW
 70
     1
  9
$SHADEDGE
 70
     3
  9
$SHADEDIF
 70
    70
  9
$TILEMODE
 70
     1
  9
$MAXACTVP
 70
    64
  9
$PINSBASE
 10
0.0
 20
0.0
 30
0.0
  9
$PLIMCHECK
 70
     0
  9
$PEXTMIN
 10
1.000000000000000E+20
 20
1.000000000000000E+20
 30
1.000000000000000E+20
  9
$PEXTMAX
 10
-1.000000000000000E+20
 20
-1.000000000000000E+20
 30
-1.000000000000000E+20
  9
$PLIMMIN
 10
0.0
 20
0.0
  9
$PLIMMAX
 10
12.0
 20
9.0
  9
$UNITMODE
 70
     0
  9
$VISRETAIN
 70
     1
  9
$PLINEGEN
 70
     0
  9
$PSLTSCALE
 70
     1
  9
$TREEDEPTH
 70
  3020
  9
$CMLSTYLE
  2
Standard
  9
$CMLJUST
 70
     0
  9
$CMLSCALE
 40
1.0
  9
$PROXYGRAPHICS
 70
     1
  9
$MEASUREMENT
 70
     0
  9
$CELWEIGHT
370
    -1
  9
$ENDCAPS
280
     0
  9
$JOINSTYLE
280
     0
  9
$LWDISPLAY
290
     1
  9
$INSUNITS
 70
     1
  9
$HYPERLINKBASE
  1

  9
$STYLESHEET
  1

  9
$XEDIT
290
     1
  9
$CEPSNTYPE
380
     0
  9
$PSTYLEMODE
290
     1
  9
$FINGERPRINTGUID
  2
{7E01E920-487C-D4D9-7FC2-D90E011F973F}
  9
$VERSIONGUID
  2
{FAEB1C32-E019-11D5-929B-00C0DF256EC4}
  9
$EXTNAMES
290
     1
  9
$PSVPSCALE
 40
0.0
  9
$OLESTARTUP
290
     0
  9
$SORTENTS
280
   127
  9
$INDEXCTL
280
     0
  9
$HIDETEXT
280
     1
  9
$XCLIPFRAME
280
     2
  9
$HALOGAP
280
     0
  9
$OBSCOLOR
 70
   257
  9
$OBSLTYPE
280
     0
  9
$INTERSECTIONDISPLAY
280
     0
  9
$INTERSECTIONCOLOR
 70
   257
  9
$DIMASSOC
280
     2
  9
$PROJECTNAME
  1

  9
$CAMERADISPLAY
290
     0
  9
$LENSLENGTH
 40
50.0
  9
$CAMERAHEIGHT
 40
0.0
  9
$STEPSPERSEC
 40
2.0
  9
$STEPSIZE
 40
6.0
  9
$3DDWFPREC
 40
2.0
  9
$PSOLWIDTH
 40
0.25
  9
$PSOLHEIGHT
 40
4.0
  9
$LOFTANG1
 40
1.570796326794897
  9
$LOFTANG2
 40
1.570796326794897
  9
$LOFTMAG1
 40
0.0
  9
$LOFTMAG2
 40
0.0
  9
$LOFTPARAM
 70
     7
  9
$LOFTNORMALS
280
     1
  9
$LATITUDE
 40
37.795
  9
$LONGITUDE
 40
-122.394
  9
$NORTHDIRECTION
 40
0.0
  9
$TIMEZONE
 70
 -8000
  9
$LIGHTGLYPHDISPLAY
280
     1
  9
$TILEMODELIGHTSYNCH
280
     1
  9
$CMATERIAL
347
3C
  9
$SOLIDHIST
280
     1
  9
$SHOWHIST
280
     1
  9
$DWFFRAME
280
     2
  9
$DGNFRAME
280
     2
  9
$REALWORLDSCALE
290
     1
  9
$INTERFERECOLOR
 62
   256
  9
$CSHADOW
280
     0
  9
$SHADOWPLANELOCATION
 40
0.0
  0
ENDSEC
  0
SECTION
  2
CLASSES
  0
CLASS
  1
ACDBDICTIONARYWDFLT
  2
AcDbDictionaryWithDefault
  3
ObjectDBX Classes
 90
        0
 91
        4
280
     0
281
     0
  0
CLASS
  1
VISUALSTYLE
  2
AcDbVisualStyle
  3
ObjectDBX Classes
 90
     4095
 91
        4
280
     0
281
     0
  0
CLASS
  1
MATERIAL
  2
AcDbMaterial
  3
ObjectDBX Classes
 90
     1153
 91
        4
280
     0
281
     0
  0
CLASS
  1
SUN
  2
AcDbSun
  3
SCENEOE
 90
     1024
 91
        4
280
     0
281
     0
  0
ENDSEC
  0
SECTION
  2
TABLES
  0
TABLE
  2
VPORT
  5
8
330
0
100
AcDbSymbolTable
 70
     1
  0
VPORT
  5
29
330
8
100
AcDbSymbolTableRecord
100
AcDbViewportTableRecord
  2
*Active
 70
     0
 10
0.0
 20
0.0
 11
1.0
 21
1.0
 12
0.0
 22
0.0
 13
0.0
 23
0.0
 14
0.5
 24
0.5
 15
0.5
 25
0.5
 16
0.0
 26
0.0
 36
1.0
 17
91.00082462281999
 27
-128.4993055234307
 37
0.0
 40
256.9986110468615
 41
0.7081814508812795
 42
50.0
 43
0.0
 44
0.0
 50
0.0
 51
0.0
 71
     0
 72
   100
 73
     1
 74
     3
 75
     0
 76
     0
 77
     0
 78
     0
281
     0
 65
     1
110
0.0
120
0.0
130
0.0
111
1.0
121
0.0
131
0.0
112
0.0
122
1.0
132
0.0
 79
     0
146
0.0
 60
     3
 61
     5
292
     1
282
     1
141
0.0
142
0.0
 63
   250
361
3F
  0
ENDTAB
  0
TABLE
  2
LTYPE
  5
5
330
0
100
AcDbSymbolTable
 70
     1
  0
LTYPE
  5
14
330
5
100
AcDbSymbolTableRecord
100
AcDbLinetypeTableRecord
  2
ByBlock
 70
     0
  3

 72
    65
 73
     0
 40
0.0
  0
LTYPE
  5
15
330
5
100
AcDbSymbolTableRecord
100
AcDbLinetypeTableRecord
  2
ByLayer
 70
     0
  3

 72
    65
 73
     0
 40
0.0
  0
LTYPE
  5
16
330
5
100
AcDbSymbolTableRecord
100
AcDbLinetypeTableRecord
  2
Continuous
 70
     0
  3
Solid line
 72
    65
 73
     0
 40
0.0
  0
ENDTAB
  0
TABLE
  2
LAYER
  5
2
330
0
100
AcDbSymbolTable
 70
     2
  0
LAYER
  5
10
330
2
100
AcDbSymbolTableRecord
100
AcDbLayerTableRecord
  2
0
 70
     0
 62
     7
  6
Continuous
370
    -3
390
F
347
3E
  0
LAYER
  5
40
330
2
100
AcDbSymbolTableRecord
100
AcDbLayerTableRecord
  2
_U+30EC_U+30A4_U+30E4_U+30FC 1
 70
     0
 62
     7
  6
Continuous
370
    -3
390
F
347
3E
  0
ENDTAB
  0
TABLE
  2
STYLE
  5
3
330
0
100
AcDbSymbolTable
 70
     1
  0
STYLE
  5
11
330
3
100
AcDbSymbolTableRecord
100
AcDbTextStyleTableRecord
  2
Standard
 70
     0
 40
0.0
 41
1.0
 50
0.0
 71
     0
 42
0.2
  3
txt
  4

  0
ENDTAB
  0
TABLE
  2
VIEW
  5
6
330
0
100
AcDbSymbolTable
 70
     0
  0
ENDTAB
  0
TABLE
  2
UCS
  5
7
330
0
100
AcDbSymbolTable
 70
     0
  0
ENDTAB
  0
TABLE
  2
APPID
  5
9
330
0
100
AcDbSymbolTable
 70
     1
  0
APPID
  5
12
330
9
100
AcDbSymbolTableRecord
100
AcDbRegAppTableRecord
  2
ACAD
 70
     0
  0
ENDTAB
  0
TABLE
  2
DIMSTYLE
  5
A
330
0
100
AcDbSymbolTable
 70
     1
100
AcDbDimStyleTable
  0
DIMSTYLE
105
27
330
A
100
AcDbSymbolTableRecord
100
AcDbDimStyleTableRecord
  2
Standard
 70
     0
178
     0
340
11
  0
ENDTAB
  0
TABLE
  2
BLOCK_RECORD
  5
1
330
0
100
AcDbSymbolTable
 70
     7
  0
BLOCK_RECORD
  5
1F
330
1
100
AcDbSymbolTableRecord
100
AcDbBlockTableRecord
  2
*Model_Space
340
22
 70
     0
280
     1
281
     0
  0
BLOCK_RECORD
  5
1B
330
1
100
AcDbSymbolTableRecord
100
AcDbBlockTableRecord
  2
*Paper_Space
340
1E
 70
     0
280
     1
281
     0
  0
BLOCK_RECORD
  5
23
330
1
100
AcDbSymbolTableRecord
100
AcDbBlockTableRecord
  2
*Paper_Space0
340
26
 70
     0
280
     1
281
     0
  0
BLOCK_RECORD
  5
94
330
1
100
AcDbSymbolTableRecord
100
AcDbBlockTableRecord
  2
block 2
340
0
102
{BLKREFS
331
95
102
}
 70
     0
280
     1
281
     0
  0
BLOCK_RECORD
  5
B1
330
1
100
AcDbSymbolTableRecord
100
AcDbBlockTableRecord
  2
block 3
340
0
102
{BLKREFS
331
B2
102
}
 70
     0
280
     1
281
     0
  0
BLOCK_RECORD
  5
C5
330
1
100
AcDbSymbolTableRecord
100
AcDbBlockTableRecord
  2
block 4
340
0
102
{BLKREFS
331
C6
102
}
 70
     0
280
     1
281
     0
  0
BLOCK_RECORD
  5
D9
330
1
100
AcDbSymbolTableRecord
100
AcDbBlockTableRecord
  2
block 5
340
0
102
{BLKREFS
331
DA
102
}
 70
     0
280
     1
281
     0
  0
BLOCK_RECORD
  5
F7
330
1
100
AcDbSymbolTableRecord
100
AcDbBlockTableRecord
  2
block 6
340
0
102
{BLKREFS
331
F8
102
}
 70
     0
280
     1
281
     0
  0
BLOCK_RECORD
  5
109
330
1
100
AcDbSymbolTableRecord
100
AcDbBlockTableRecord
  2
block 7
340
0
102
{BLKREFS
331
10A
102
}
 70
     0
280
     1
281
     0
  0
ENDTAB
  0
ENDSEC
  0
SECTION
  2
BLOCKS
  0
BLOCK
  5
20
330
1F
100
AcDbEntity
  8
0
100
AcDbBlockBegin
  2
*Model_Space
 70
     0
 10
0.0
 20
0.0
 30
0.0
  3
*Model_Space
  1

  0
ENDBLK
  5
21
330
1F
100
AcDbEntity
  8
0
100
AcDbBlockEnd
  0
BLOCK
  5
1C
330
1B
100
AcDbEntity
 67
     1
  8
0
100
AcDbBlockBegin
  2
*Paper_Space
 70
     0
 10
0.0
 20
0.0
 30
0.0
  3
*Paper_Space
  1

  0
ENDBLK
  5
1D
330
1B
100
AcDbEntity
 67
     1
  8
0
100
AcDbBlockEnd
  0
BLOCK
  5
24
330
23
100
AcDbEntity
  8
0
100
AcDbBlockBegin
  2
*Paper_Space0
 70
     0
 10
0.0
 20
0.0
 30
0.0
  3
*Paper_Space0
  1

  0
ENDBLK
  5
25
330
23
100
AcDbEntity
  8
0
100
AcDbBlockEnd
  0
BLOCK
  5
96
330
94
100
AcDbEntity
  8
0
100
AcDbBlockBegin
  2
block 2
 70
     0
 10
0.0
 20
0.0
 30
0.0
  3
block 2
  1

  0
SPLINE
  5
98
330
94
100
AcDbEntity
  8
_U+30EC_U+30A4_U+30E4_U+30FC 1
370
     0
100
AcDbSpline
210
0.0
220
0.0
230
1.0
 70
    11
 71
     3
 72
    29
 73
    25
 74
     0
 42
0.0000000001
 43
0.0000000001
 12
1.0
 22
0.0
 32
0.0
 13
1.0
 23
0.0
 33
0.0
 40
0.0
 40
0.0
 40
0.0
 40
0.0
 40
1.0
 40
1.0
 40
1.0
 40
2.0
 40
2.0
 40
2.0
 40
3.0
 40
3.0
 40
3.0
 40
4.0
 40
4.0
 40
4.0
 40
5.0
 40
5.0
 40
5.0
 40
6.0
 40
6.0
 40
6.0
 40
7.0
 40
7.0
 40
7.0
 40
8.0
 40
8.0
 40
8.0
 40
8.0
 10
105.7720106072376
 20
-141.4983398083754
 30
0.0
 10
105.9814724127407
 20
-141.6137505071313
 30
0.0
 10
106.0004204379096
 20
-141.7990966442377
 30
0.0
 10
106.0004204379096
 20
-141.9234645912553
 30
0.0
 10
106.0004204379096
 20
-142.0950303464207
 30
0.0
 10
105.9539116488587
 20
-142.2466145477717
 30
0.0
 10
105.7720106072376
 20
-142.3482448645865
 30
0.0
 10
105.5773627123209
 20
-142.4591769392116
 30
0.0
 10
105.3406846524843
 20
-142.4795030025746
 30
0.0
 10
105.177731636032
 20
-142.4795030025746
 30
0.0
 10
105.0337266447485
 20
-142.4795030025746
 30
0.0
 10
104.7818901647768
 20
-142.4615885060513
 30
0.0
 10
104.5831081552778
 20
-142.3482448645865
 30
0.0
 10
104.3801920311966
 20
-142.2331786753792
 30
0.0
 10
104.3567653818969
 20
-142.0612684106652
 30
0.0
 10
104.3567653818969
 20
-141.9234645912553
 30
0.0
 10
104.3567653818969
 20
-141.7536213838324
 30
0.0
 10
104.4012071136567
 20
-141.5999701251903
 30
0.0
 10
104.5831081552778
 20
-141.4983398083754
 30
0.0
 10
104.7756889929033
 20
-141.3918863578812
 30
0.0
 10
105.0040988235754
 20
-141.3670816703874
 30
0.0
 10
105.177731636032
 20
-141.3670816703874
 30
0.0
 10
105.3489528816489
 20
-141.3670816703874
 30
0.0
 10
105.5794297696121
 20
-141.3898193005901
 30
0.0
 10
105.7720106072376
 20
-141.4983398083754
 30
0.0
  0
SPLINE
  5
99
330
94
100
AcDbEntity
  8
_U+30EC_U+30A4_U+30E4_U+30FC 1
370
     0
100
AcDbSpline
210
0.0
220
0.0
230
1.0
 70
    11
 71
     3
 72
    17
 73
    13
 74
     0
 42
0.0000000001
 43
0.0000000001
 12
1.0
 22
0.0
 32
0.0
 13
1.0
 23
0.0
 33
0.0
 40
0.0
 40
0.0
 40
0.0
 40
0.0
 40
1.0
 40
1.0
 40
1.0
 40
2.0
 40
2.0
 40
2.0
 40
3.0
 40
3.0
 40
3.0
 40
4.0
 40
4.0
 40
4.0
 40
4.0
 10
104.5493462195224
 20
-141.9234645912553
 30
0.0
 10
104.5493462195224
 20
-142.1901149818136
 30
0.0
 10
104.8328775779585
 20
-142.2397243568012
 30
0.0
 10
105.177731636032
 20
-142.2397243568012
 30
0.0
 10
105.4970919875146
 20
-142.2397243568012
 30
0.0
 10
105.805772542993
 20
-142.2014837969149
 30
0.0
 10
105.805772542993
 20
-141.9234645912553
 30
0.0
 10
105.805772542993
 20
-141.6588812579881
 30
0.0
 10
105.5246527513966
 20
-141.6068603161608
 30
0.0
 10
105.177731636032
 20
-141.6068603161608
 30
0.0
 10
104.8580267750008
 20
-141.6068603161608
 30
0.0
 10
104.5493462195224
 20
-141.6475124428868
 30
0.0
 10
104.5493462195224
 20
-141.9234645912553
 30
0.0
  0
HATCH
  5
9A
330
94
100
AcDbEntity
  8
_U+30EC_U+30A4_U+30E4_U+30FC 1
 62
   179
420
  2234388
100
AcDbHatch
 10
0.0
 20
0.0
 30
0.0
210
0.0
220
0.0
230
1.0
  2
SOLID
 70
     1
 71
     0
 91
        2
 92
        1
 93
        1
 72
     4
 94
        3
 73
     0
 74
     1
 95
       29
 96
       25
 40
0.0
 40
0.0
 40
0.0
 40
0.0
 40
1.0
 40
1.0
 40
1.0
 40
2.0
 40
2.0
 40
2.0
 40
3.0
 40
3.0
 40
3.0
 40
4.0
 40
4.0
 40
4.0
 40
5.0
 40
5.0
 40
5.0
 40
6.0
 40
6.0
 40
6.0
 40
7.0
 40
7.0
 40
7.0
 40
8.0
 40
8.0
 40
8.0
 40
8.0
 10
105.7720106072376
 20
-141.4983398083754
 10
105.9814724127407
 20
-141.6137505071313
 10
106.0004204379096
 20
-141.7990966442377
 10
106.0004204379096
 20
-141.9234645912553
 10
106.0004204379096
 20
-142.0950303464207
 10
105.9539116488587
 20
-142.2466145477717
 10
105.7720106072376
 20
-142.3482448645865
 10
105.5773627123209
 20
-142.4591769392116
 10
105.3406846524843
 20
-142.4795030025746
 10
105.177731636032
 20
-142.4795030025746
 10
105.0337266447485
 20
-142.4795030025746
 10
104.7818901647768
 20
-142.4615885060513
 10
104.5831081552778
 20
-142.3482448645865
 10
104.3801920311966
 20
-142.2331786753792
 10
104.3567653818969
 20
-142.0612684106652
 10
104.3567653818969
 20
-141.9234645912553
 10
104.3567653818969
 20
-141.7536213838324
 10
104.4012071136567
 20
-141.5999701251903
 10
104.5831081552778
 20
-141.4983398083754
 10
104.7756889929033
 20
-141.3918863578812
 10
105.0040988235754
 20
-141.3670816703874
 10
105.177731636032
 20
-141.3670816703874
 10
105.3489528816489
 20
-141.3670816703874
 10
105.5794297696121
 20
-141.3898193005901
 10
105.7720106072376
 20
-141.4983398083754
 97
        0
 97
        0
 92
        1
 93
        1
 72
     4
 94
        3
 73
     0
 74
     1
 95
       17
 96
       13
 40
0.0
 40
0.0
 40
0.0
 40
0.0
 40
1.0
 40
1.0
 40
1.0
 40
2.0
 40
2.0
 40
2.0
 40
3.0
 40
3.0
 40
3.0
 40
4.0
 40
4.0
 40
4.0
 40
4.0
 10
104.5493462195224
 20
-141.9234645912553
 10
104.5493462195224
 20
-142.1901149818136
 10
104.8328775779585
 20
-142.2397243568012
 10
105.177731636032
 20
-142.2397243568012
 10
105.4970919875146
 20
-142.2397243568012
 10
105.805772542993
 20
-142.2014837969149
 10
105.805772542993
 20
-141.9234645912553
 10
105.805772542993
 20
-141.6588812579881
 10
105.5246527513966
 20
-141.6068603161608
 10
105.177731636032
 20
-141.6068603161608
 10
104.8580267750008
 20
-141.6068603161608
 10
104.5493462195224
 20
-141.6475124428868
 10
104.5493462195224
 20
-141.9234645912553
 97
        0
 97
        0
 75
     2
 76
     1
 98
        0
  0
POLYLINE
  5
9B
330
94
100
AcDbEntity
  8
_U+30EC_U+30A4_U+30E4_U+30FC 1
370
     0
100
AcDb2dPolyline
 66
     1
 10
0.0
 20
0.0
 30
0.0
  0
VERTEX
  5
9C
330
9B
100
AcDbEntity
  8
_U+30EC_U+30A4_U+30E4_U+30FC 1
370
     0
100
AcDbVertex
100
AcDb2dVertex
 10
105.9497775342764
 20
-141.1359157633271
 30
0.0
  0
VERTEX
  5
9D
330
9B
100
AcDbEntity
  8
_U+30EC_U+30A4_U+30E4_U+30FC 1
370
     0
100
AcDbVertex
100
AcDb2dVertex
 10
105.6979410543047
 20
-141.1359157633271
 30
0.0
  0
VERTEX
  5
9E
330
9B
100
AcDbEntity
  8
_U+30EC_U+30A4_U+30E4_U+30FC 1
370
     0
100
AcDbVertex
100
AcDb2dVertex
 10
105.6979410543047
 20
-140.8668538059291
 30
0.0
  0
VERTEX
  5
9F
330
9B
100
AcDbEntity
  8
_U+30EC_U+30A4_U+30E4_U+30FC 1
370
     0
100
AcDbVertex
100
AcDb2dVertex
 10
105.9497775342764
 20
-140.8668538059291
 30
0.0
  0
VERTEX
  5
A0
330
9B
100
AcDbEntity
  8
_U+30EC_U+30A4_U+30E4_U+30FC 1
370
     0
100
AcDbVertex
100
AcDb2dVertex
 10
105.9497775342764
 20
-141.1359157633271
 30
0.0
  0
SEQEND
  5
A1
330
9B
100
AcDbEntity
  8
_U+30EC_U+30A4_U+30E4_U+30FC 1
370
     0
  0
HATCH
  5
A2
330
94
100
AcDbEntity
  8
_U+30EC_U+30A4_U+30E4_U+30FC 1
 62
   179
420
  2234388
100
AcDbHatch
 10
0.0
 20
0.0
 30
0.0
210
0.0
220
0.0
230
1.0
  2
SOLID
 70
     1
 71
     0
 91
        1
 92
        1
 93
        4
 72
     1
 10
105.9497775342764
 20
-141.1359157633271
 11
105.6979410543047
 21
-141.1359157633271
 72
     1
 10
105.6979410543047
 20
-141.1359157633271
 11
105.6979410543047
 21
-140.8668538059291
 72
     1
 10
105.6979410543047
 20
-140.8668538059291
 11
105.9497775342764
 21
-140.8668538059291
 72
     1
 10
105.9497775342764
 20
-140.8668538059291
 11
105.9497775342764
 21
-141.1359157633271
 97
        0
 75
     2
 76
     1
 98
        0
  0
SPLINE
  5
A3
330
94
100
AcDbEntity
  8
_U+30EC_U+30A4_U+30E4_U+30FC 1
370
     0
100
AcDbSpline
210
0.0
220
0.0
230
1.0
 70
    11
 71
     3
 72
    26
 73
    22
 74
     0
 42
0.0000000001
 43
0.0000000001
 12
1.0
 22
0.0
 32
0.0
 13
1.0
 23
0.0
 33
0.0
 40
0.0
 40
0.0
 40
0.0
 40
0.0
 40
1.0
 40
1.0
 40
1.0
 40
2.0
 40
2.0
 40
2.0
 40
3.0
 40
3.0
 40
3.0
 40
4.0
 40
4.0
 40
4.0
 40
5.0
 40
5.0
 40
5.0
 40
6.0
 40
6.0
 40
6.0
 40
7.0
 40
7.0
 40
7.0
 40
7.0
 10
105.9497775342764
 20
-140.1743896133939
 30
0.0
 10
105.9497775342764
 20
-140.1743896133939
 30
0.0
 10
105.9497775342764
 20
-140.4276041315598
 30
0.0
 10
105.9497775342764
 20
-140.4276041315598
 30
0.0
 10
105.6407524692495
 20
-140.4007323867748
 30
0.0
 10
105.122610108268
 20
-140.1947156767569
 30
0.0
 10
104.6168700910333
 20
-139.7606336456154
 30
0.0
 10
104.6168700910333
 20
-139.7606336456154
 30
0.0
 10
104.6168700910333
 20
-140.6560139622318
 30
0.0
 10
104.6168700910333
 20
-140.6560139622318
 30
0.0
 10
104.6168700910333
 20
-140.6560139622318
 30
0.0
 10
104.405341228239
 20
-140.6560139622318
 30
0.0
 10
104.405341228239
 20
-140.6560139622318
 30
0.0
 10
104.405341228239
 20
-140.6560139622318
 30
0.0
 10
104.405341228239
 20
-139.5074191274495
 30
0.0
 10
104.405341228239
 20
-139.5074191274495
 30
0.0
 10
104.405341228239
 20
-139.5074191274495
 30
0.0
 10
104.6168700910333
 20
-139.5074191274495
 30
0.0
 10
104.6168700910333
 20
-139.5074191274495
 30
0.0
 10
104.9069471308913
 20
-139.8533067141686
 30
0.0
 10
105.4991590448058
 20
-140.1382161107988
 30
0.0
 10
105.9497775342764
 20
-140.1743896133939
 30
0.0
  0
HATCH
  5
A4
330
94
100
AcDbEntity
  8
_U+30EC_U+30A4_U+30E4_U+30FC 1
 62
   179
420
  2234388
100
AcDbHatch
 10
0.0
 20
0.0
 30
0.0
210
0.0
220
0.0
230
1.0
  2
SOLID
 70
     1
 71
     0
 91
        1
 92
        1
 93
        1
 72
     4
 94
        3
 73
     0
 74
     1
 95
       26
 96
       22
 40
0.0
 40
0.0
 40
0.0
 40
0.0
 40
1.0
 40
1.0
 40
1.0
 40
2.0
 40
2.0
 40
2.0
 40
3.0
 40
3.0
 40
3.0
 40
4.0
 40
4.0
 40
4.0
 40
5.0
 40
5.0
 40
5.0
 40
6.0
 40
6.0
 40
6.0
 40
7.0
 40
7.0
 40
7.0
 40
7.0
 10
105.9497775342764
 20
-140.1743896133939
 10
105.9497775342764
 20
-140.1743896133939
 10
105.9497775342764
 20
-140.4276041315598
 10
105.9497775342764
 20
-140.4276041315598
 10
105.6407524692495
 20
-140.4007323867748
 10
105.122610108268
 20
-140.1947156767569
 10
104.6168700910333
 20
-139.7606336456154
 10
104.6168700910333
 20
-139.7606336456154
 10
104.6168700910333
 20
-140.6560139622318
 10
104.6168700910333
 20
-140.6560139622318
 10
104.6168700910333
 20
-140.6560139622318
 10
104.405341228239
 20
-140.6560139622318
 10
104.405341228239
 20
-140.6560139622318
 10
104.405341228239
 20
-140.6560139622318
 10
104.405341228239
 20
-139.5074191274495
 10
104.405341228239
 20
-139.5074191274495
 10
104.405341228239
 20
-139.5074191274495
 10
104.6168700910333
 20
-139.5074191274495
 10
104.6168700910333
 20
-139.5074191274495
 10
104.9069471308913
 20
-139.8533067141686
 10
105.4991590448058
 20
-140.1382161107988
 10
105.9497775342764
 20
-140.1743896133939
 97
        0
 97
        0
 75
     2
 76
     1
 98
        0
  0
ENDBLK
  5
97
330
94
100
AcDbEntity
  8
0
100
AcDbBlockEnd
  0
BLOCK
  5
B3
330
B1
100
AcDbEntity
  8
0
100
AcDbBlockBegin
  2
block 3
 70
     0
 10
0.0
 20
0.0
 30
0.0
  3
block 3
  1

  0
SPLINE
  5
B5
330
B1
100
AcDbEntity
  8
_U+30EC_U+30A4_U+30E4_U+30FC 1
370
     0
100
AcDbSpline
210
0.0
220
0.0
230
1.0
 70
    11
 71
     3
 72
    44
 73
    40
 74
     0
 42
0.0000000001
 43
0.0000000001
 12
1.0
 22
0.0
 32
0.0
 13
1.0
 23
0.0
 33
0.0
 40
0.0
 40
0.0
 40
0.0
 40
0.0
 40
1.0
 40
1.0
 40
1.0
 40
2.0
 40
2.0
 40
2.0
 40
3.0
 40
3.0
 40
3.0
 40
4.0
 40
4.0
 40
4.0
 40
5.0
 40
5.0
 40
5.0
 40
6.0
 40
6.0
 40
6.0
 40
7.0
 40
7.0
 40
7.0
 40
8.0
 40
8.0
 40
8.0
 40
9.0
 40
9.0
 40
9.0
 40
10.0
 40
10.0
 40
10.0
 40
11.0
 40
11.0
 40
11.0
 40
12.0
 40
12.0
 40
12.0
 40
13.0
 40
13.0
 40
13.0
 40
13.0
 10
91.87346189109414
 20
-143.7920843824548
 30
0.0
 10
91.64057343629125
 20
-143.9509032843248
 30
0.0
 10
91.54101017676753
 20
-144.0249728372576
 30
0.0
 10
91.48898923494026
 20
-144.1686333189926
 30
0.0
 10
91.48898923494026
 20
-144.1686333189926
 30
0.0
 10
92.32132430417661
 20
-144.1686333189926
 30
0.0
 10
92.32132430417661
 20
-144.1686333189926
 30
0.0
 10
92.32132430417661
 20
-144.1686333189926
 30
0.0
 10
92.32132430417661
 20
-144.3739610099135
 30
0.0
 10
92.32132430417661
 20
-144.3739610099135
 30
0.0
 10
92.32132430417661
 20
-144.3739610099135
 30
0.0
 10
91.22251109915618
 20
-144.3739610099135
 30
0.0
 10
91.22251109915618
 20
-144.3739610099135
 30
0.0
 10
91.25661754446016
 20
-144.0163600985445
 30
0.0
 10
91.32655298281072
 20
-143.9381564310294
 30
0.0
 10
91.7377251289753
 20
-143.6398111620067
 30
0.0
 10
92.01126571050413
 20
-143.4410291525078
 30
0.0
 10
92.08154565840323
 20
-143.3731607714484
 30
0.0
 10
92.08154565840323
 20
-143.2357014615869
 30
0.0
 10
92.08154565840323
 20
-143.1171901768943
 30
0.0
 10
92.00472002908215
 20
-142.9862765484548
 30
0.0
 10
91.79422469493339
 20
-142.9862765484548
 30
0.0
 10
91.51620548927373
 20
-142.9862765484548
 30
0.0
 10
91.50724824101208
 20
-143.216753436418
 30
0.0
 10
91.50276961688125
 20
-143.3331976638195
 30
0.0
 10
91.50276961688125
 20
-143.3331976638195
 30
0.0
 10
91.26316322588212
 20
-143.3331976638195
 30
0.0
 10
91.26316322588212
 20
-143.3331976638195
 30
0.0
 10
91.27212047414378
 20
-143.2060736404138
 30
0.0
 10
91.28348928924511
 20
-143.0941080371431
 30
0.0
 10
91.36944442160208
 20
-142.9755967524505
 30
0.0
 10
91.4869221776491
 20
-142.8147107932894
 30
0.0
 10
91.68570418714802
 20
-142.7809488575339
 30
0.0
 10
91.81007213416554
 20
-142.7809488575339
 30
0.0
 10
92.10635034589703
 20
-142.7809488575339
 30
0.0
 10
92.3278699855986
 20
-142.9649169564463
 30
0.0
 10
92.3278699855986
 20
-143.2377685188781
 30
0.0
 10
92.3278699855986
 20
-143.4665228590987
 30
0.0
 10
92.20350203858108
 20
-143.5657416090739
 30
0.0
 10
91.87346189109414
 20
-143.7920843824548
 30
0.0
  0
HATCH
  5
B6
330
B1
100
AcDbEntity
  8
_U+30EC_U+30A4_U+30E4_U+30FC 1
 62
   179
420
  2234388
100
AcDbHatch
 10
0.0
 20
0.0
 30
0.0
210
0.0
220
0.0
230
1.0
  2
SOLID
 70
     1
 71
     0
 91
        1
 92
        1
 93
        1
 72
     4
 94
        3
 73
     0
 74
     1
 95
       44
 96
       40
 40
0.0
 40
0.0
 40
0.0
 40
0.0
 40
1.0
 40
1.0
 40
1.0
 40
2.0
 40
2.0
 40
2.0
 40
3.0
 40
3.0
 40
3.0
 40
4.0
 40
4.0
 40
4.0
 40
5.0
 40
5.0
 40
5.0
 40
6.0
 40
6.0
 40
6.0
 40
7.0
 40
7.0
 40
7.0
 40
8.0
 40
8.0
 40
8.0
 40
9.0
 40
9.0
 40
9.0
 40
10.0
 40
10.0
 40
10.0
 40
11.0
 40
11.0
 40
11.0
 40
12.0
 40
12.0
 40
12.0
 40
13.0
 40
13.0
 40
13.0
 40
13.0
 10
91.87346189109414
 20
-143.7920843824548
 10
91.64057343629125
 20
-143.9509032843248
 10
91.54101017676753
 20
-144.0249728372576
 10
91.48898923494026
 20
-144.1686333189926
 10
91.48898923494026
 20
-144.1686333189926
 10
92.32132430417661
 20
-144.1686333189926
 10
92.32132430417661
 20
-144.1686333189926
 10
92.32132430417661
 20
-144.1686333189926
 10
92.32132430417661
 20
-144.3739610099135
 10
92.32132430417661
 20
-144.3739610099135
 10
92.32132430417661
 20
-144.3739610099135
 10
91.22251109915618
 20
-144.3739610099135
 10
91.22251109915618
 20
-144.3739610099135
 10
91.25661754446016
 20
-144.0163600985445
 10
91.32655298281072
 20
-143.9381564310294
 10
91.7377251289753
 20
-143.6398111620067
 10
92.01126571050413
 20
-143.4410291525078
 10
92.08154565840323
 20
-143.3731607714484
 10
92.08154565840323
 20
-143.2357014615869
 10
92.08154565840323
 20
-143.1171901768943
 10
92.00472002908215
 20
-142.9862765484548
 10
91.79422469493339
 20
-142.9862765484548
 10
91.51620548927373
 20
-142.9862765484548
 10
91.50724824101208
 20
-143.216753436418
 10
91.50276961688125
 20
-143.3331976638195
 10
91.50276961688125
 20
-143.3331976638195
 10
91.26316322588212
 20
-143.3331976638195
 10
91.26316322588212
 20
-143.3331976638195
 10
91.27212047414378
 20
-143.2060736404138
 10
91.28348928924511
 20
-143.0941080371431
 10
91.36944442160208
 20
-142.9755967524505
 10
91.4869221776491
 20
-142.8147107932894
 10
91.68570418714802
 20
-142.7809488575339
 10
91.81007213416554
 20
-142.7809488575339
 10
92.10635034589703
 20
-142.7809488575339
 10
92.3278699855986
 20
-142.9649169564463
 10
92.3278699855986
 20
-143.2377685188781
 10
92.3278699855986
 20
-143.4665228590987
 10
92.20350203858108
 20
-143.5657416090739
 10
91.87346189109414
 20
-143.7920843824548
 97
        0
 97
        0
 75
     2
 76
     1
 98
        0
  0
SPLINE
  5
B7
330
B1
100
AcDbEntity
  8
_U+30EC_U+30A4_U+30E4_U+30FC 1
370
     0
100
AcDbSpline
210
0.0
220
0.0
230
1.0
 70
    11
 71
     3
 72
    62
 73
    58
 74
     0
 42
0.0000000001
 43
0.0000000001
 12
1.0
 22
0.0
 32
0.0
 13
1.0
 23
0.0
 33
0.0
 40
0.0
 40
0.0
 40
0.0
 40
0.0
 40
1.0
 40
1.0
 40
1.0
 40
2.0
 40
2.0
 40
2.0
 40
3.0
 40
3.0
 40
3.0
 40
4.0
 40
4.0
 40
4.0
 40
5.0
 40
5.0
 40
5.0
 40
6.0
 40
6.0
 40
6.0
 40
7.0
 40
7.0
 40
7.0
 40
8.0
 40
8.0
 40
8.0
 40
9.0
 40
9.0
 40
9.0
 40
10.0
 40
10.0
 40
10.0
 40
11.0
 40
11.0
 40
11.0
 40
12.0
 40
12.0
 40
12.0
 40
13.0
 40
13.0
 40
13.0
 40
14.0
 40
14.0
 40
14.0
 40
15.0
 40
15.0
 40
15.0
 40
16.0
 40
16.0
 40
16.0
 40
17.0
 40
17.0
 40
17.0
 40
18.0
 40
18.0
 40
18.0
 40
19.0
 40
19.0
 40
19.0
 40
19.0
 10
93.02274574497349
 20
-144.4246039135466
 30
0.0
 10
92.92111542815861
 20
-144.4246039135466
 30
0.0
 10
92.68822697335573
 20
-144.4035888310866
 30
0.0
 10
92.55490177807656
 20
-144.2175536748831
 30
0.0
 10
92.47566458191581
 20
-144.105243562064
 30
0.0
 10
92.47118595778498
 20
-144.0060248120888
 30
0.0
 10
92.46670733365416
 20
-143.9212754631516
 30
0.0
 10
92.46670733365416
 20
-143.9212754631516
 30
0.0
 10
92.7016628457482
 20
-143.9212754631516
 30
0.0
 10
92.7016628457482
 20
-143.9212754631516
 30
0.0
 10
92.70407441258787
 20
-143.9953450160845
 30
0.0
 10
92.71544322768919
 20
-144.22995601863
 30
0.0
 10
93.01826712084267
 20
-144.22995601863
 30
0.0
 10
93.16537269806282
 20
-144.22995601863
 30
0.0
 10
93.32798120496662
 20
-144.160365089828
 30
0.0
 10
93.32798120496662
 20
-143.9319552591559
 30
0.0
 10
93.32798120496662
 20
-143.8155110317545
 30
0.0
 10
93.28732907824067
 20
-143.7669351854124
 30
0.0
 10
93.25356714248522
 20
-143.7352403069481
 30
0.0
 10
93.17432994632448
 20
-143.6611707540153
 30
0.0
 10
93.04996199930696
 20
-143.6484239007198
 30
0.0
 10
92.99105086650918
 20
-143.6484239007198
 30
0.0
 10
92.97072480314621
 20
-143.6484239007198
 30
0.0
 10
92.93248424325994
 20
-143.650490958011
 30
0.0
 10
92.90285642208678
 20
-143.6546250725933
 30
0.0
 10
92.90285642208678
 20
-143.6546250725933
 30
0.0
 10
92.90285642208678
 20
-143.4599771776767
 30
0.0
 10
92.90285642208678
 20
-143.4599771776767
 30
0.0
 10
92.94350854881274
 20
-143.4665228590987
 30
0.0
 10
92.98898380921804
 20
-143.4685899163898
 30
0.0
 10
92.99552949064001
 20
-143.4685899163898
 30
0.0
 10
93.0658094385391
 20
-143.4685899163898
 30
0.0
 10
93.27837182997902
 20
-143.4472303243813
 30
0.0
 10
93.27837182997902
 20
-143.2105522645446
 30
0.0
 10
93.27837182997902
 20
-143.0327853375057
 30
0.0
 10
93.13815644372936
 20
-142.9776638097417
 30
0.0
 10
93.02067868768233
 20
-142.9776638097417
 30
0.0
 10
92.73783634834332
 20
-142.9776638097417
 30
0.0
 10
92.72887910008167
 20
-143.2105522645446
 30
0.0
 10
92.72440047595084
 20
-143.2822102506378
 30
0.0
 10
92.72440047595084
 20
-143.2822102506378
 30
0.0
 10
92.50735946038012
 20
-143.2822102506378
 30
0.0
 10
92.50735946038012
 20
-143.2822102506378
 30
0.0
 10
92.51631670864175
 20
-143.1574977940717
 30
0.0
 10
92.54560002026638
 20
-142.7809488575339
 30
0.0
 10
93.03411456007481
 20
-142.7809488575339
 30
0.0
 10
93.2738932058482
 20
-142.7809488575339
 30
0.0
 10
93.53158634814488
 20
-142.9080728809396
 30
0.0
 10
93.53158634814488
 20
-143.2040065831226
 30
0.0
 10
93.53158634814488
 20
-143.3903862488746
 30
0.0
 10
93.4296115217815
 20
-143.4727240309721
 30
0.0
 10
93.3235025808358
 20
-143.5340467306096
 30
0.0
 10
93.38895939505554
 20
-143.5616074944915
 30
0.0
 10
93.58360728997216
 20
-143.6418782192979
 30
0.0
 10
93.58360728997216
 20
-143.9192084058605
 30
0.0
 10
93.58360728997216
 20
-144.257516782512
 30
0.0
 10
93.31902395670497
 20
-144.4246039135466
 30
0.0
 10
93.02274574497349
 20
-144.4246039135466
 30
0.0
  0
HATCH
  5
B8
330
B1
100
AcDbEntity
  8
_U+30EC_U+30A4_U+30E4_U+30FC 1
 62
   179
420
  2234388
100
AcDbHatch
 10
0.0
 20
0.0
 30
0.0
210
0.0
220
0.0
230
1.0
  2
SOLID
 70
     1
 71
     0
 91
        1
 92
        1
 93
        1
 72
     4
 94
        3
 73
     0
 74
     1
 95
       62
 96
       58
 40
0.0
 40
0.0
 40
0.0
 40
0.0
 40
1.0
 40
1.0
 40
1.0
 40
2.0
 40
2.0
 40
2.0
 40
3.0
 40
3.0
 40
3.0
 40
4.0
 40
4.0
 40
4.0
 40
5.0
 40
5.0
 40
5.0
 40
6.0
 40
6.0
 40
6.0
 40
7.0
 40
7.0
 40
7.0
 40
8.0
 40
8.0
 40
8.0
 40
9.0
 40
9.0
 40
9.0
 40
10.0
 40
10.0
 40
10.0
 40
11.0
 40
11.0
 40
11.0
 40
12.0
 40
12.0
 40
12.0
 40
13.0
 40
13.0
 40
13.0
 40
14.0
 40
14.0
 40
14.0
 40
15.0
 40
15.0
 40
15.0
 40
16.0
 40
16.0
 40
16.0
 40
17.0
 40
17.0
 40
17.0
 40
18.0
 40
18.0
 40
18.0
 40
19.0
 40
19.0
 40
19.0
 40
19.0
 10
93.02274574497349
 20
-144.4246039135466
 10
92.92111542815861
 20
-144.4246039135466
 10
92.68822697335573
 20
-144.4035888310866
 10
92.55490177807656
 20
-144.2175536748831
 10
92.47566458191581
 20
-144.105243562064
 10
92.47118595778498
 20
-144.0060248120888
 10
92.46670733365416
 20
-143.9212754631516
 10
92.46670733365416
 20
-143.9212754631516
 10
92.7016628457482
 20
-143.9212754631516
 10
92.7016628457482
 20
-143.9212754631516
 10
92.70407441258787
 20
-143.9953450160845
 10
92.71544322768919
 20
-144.22995601863
 10
93.01826712084267
 20
-144.22995601863
 10
93.16537269806282
 20
-144.22995601863
 10
93.32798120496662
 20
-144.160365089828
 10
93.32798120496662
 20
-143.9319552591559
 10
93.32798120496662
 20
-143.8155110317545
 10
93.28732907824067
 20
-143.7669351854124
 10
93.25356714248522
 20
-143.7352403069481
 10
93.17432994632448
 20
-143.6611707540153
 10
93.04996199930696
 20
-143.6484239007198
 10
92.99105086650918
 20
-143.6484239007198
 10
92.97072480314621
 20
-143.6484239007198
 10
92.93248424325994
 20
-143.650490958011
 10
92.90285642208678
 20
-143.6546250725933
 10
92.90285642208678
 20
-143.6546250725933
 10
92.90285642208678
 20
-143.4599771776767
 10
92.90285642208678
 20
-143.4599771776767
 10
92.94350854881274
 20
-143.4665228590987
 10
92.98898380921804
 20
-143.4685899163898
 10
92.99552949064001
 20
-143.4685899163898
 10
93.0658094385391
 20
-143.4685899163898
 10
93.27837182997902
 20
-143.4472303243813
 10
93.27837182997902
 20
-143.2105522645446
 10
93.27837182997902
 20
-143.0327853375057
 10
93.13815644372936
 20
-142.9776638097417
 10
93.02067868768233
 20
-142.9776638097417
 10
92.73783634834332
 20
-142.9776638097417
 10
92.72887910008167
 20
-143.2105522645446
 10
92.72440047595084
 20
-143.2822102506378
 10
92.72440047595084
 20
-143.2822102506378
 10
92.50735946038012
 20
-143.2822102506378
 10
92.50735946038012
 20
-143.2822102506378
 10
92.51631670864175
 20
-143.1574977940717
 10
92.54560002026638
 20
-142.7809488575339
 10
93.03411456007481
 20
-142.7809488575339
 10
93.2738932058482
 20
-142.7809488575339
 10
93.53158634814488
 20
-142.9080728809396
 10
93.53158634814488
 20
-143.2040065831226
 10
93.53158634814488
 20
-143.3903862488746
 10
93.4296115217815
 20
-143.4727240309721
 10
93.3235025808358
 20
-143.5340467306096
 10
93.38895939505554
 20
-143.5616074944915
 10
93.58360728997216
 20
-143.6418782192979
 10
93.58360728997216
 20
-143.9192084058605
 10
93.58360728997216
 20
-144.257516782512
 10
93.31902395670497
 20
-144.4246039135466
 10
93.02274574497349
 20
-144.4246039135466
 97
        0
 97
        0
 75
     2
 76
     1
 98
        0
  0
ENDBLK
  5
B4
330
B1
100
AcDbEntity
  8
0
100
AcDbBlockEnd
  0
BLOCK
  5
C7
330
C5
100
AcDbEntity
  8
0
100
AcDbBlockBegin
  2
block 4
 70
     0
 10
0.0
 20
0.0
 30
0.0
  3
block 4
  1

  0
SPLINE
  5
C9
330
C5
100
AcDbEntity
  8
_U+30EC_U+30A4_U+30E4_U+30FC 1
370
     0
100
AcDbSpline
210
0.0
220
0.0
230
1.0
 70
    11
 71
     3
 72
    26
 73
    22
 74
     0
 42
0.0000000001
 43
0.0000000001
 12
1.0
 22
0.0
 32
0.0
 13
1.0
 23
0.0
 33
0.0
 40
0.0
 40
0.0
 40
0.0
 40
0.0
 40
1.0
 40
1.0
 40
1.0
 40
2.0
 40
2.0
 40
2.0
 40
3.0
 40
3.0
 40
3.0
 40
4.0
 40
4.0
 40
4.0
 40
5.0
 40
5.0
 40
5.0
 40
6.0
 40
6.0
 40
6.0
 40
7.0
 40
7.0
 40
7.0
 40
7.0
 10
86.22229951186456
 20
-112.8000053971472
 30
0.0
 10
86.22229951186456
 20
-112.8000053971472
 30
0.0
 10
86.22229951186456
 20
-111.6958522941246
 30
0.0
 10
86.22229951186456
 20
-111.6958522941246
 30
0.0
 10
86.22229951186456
 20
-111.6958522941246
 30
0.0
 10
85.86986624372351
 20
-111.6958522941246
 30
0.0
 10
85.86986624372351
 20
-111.6958522941246
 30
0.0
 10
85.86986624372351
 20
-111.6958522941246
 30
0.0
 10
85.86986624372351
 20
-111.5477131882589
 30
0.0
 10
85.86986624372351
 20
-111.5477131882589
 30
0.0
 10
86.22471107870425
 20
-111.5328992776723
 30
0.0
 10
86.27432045369184
 20
-111.36994626122
 30
0.0
 10
86.30601533215614
 20
-111.2555690911097
 30
0.0
 10
86.30601533215614
 20
-111.2555690911097
 30
0.0
 10
86.46207815763796
 20
-111.2555690911097
 30
0.0
 10
86.46207815763796
 20
-111.2555690911097
 30
0.0
 10
86.46207815763796
 20
-111.2555690911097
 30
0.0
 10
86.46207815763796
 20
-112.8000053971472
 30
0.0
 10
86.46207815763796
 20
-112.8000053971472
 30
0.0
 10
86.46207815763796
 20
-112.8000053971472
 30
0.0
 10
86.22229951186456
 20
-112.8000053971472
 30
0.0
 10
86.22229951186456
 20
-112.8000053971472
 30
0.0
  0
HATCH
  5
CA
330
C5
100
AcDbEntity
  8
_U+30EC_U+30A4_U+30E4_U+30FC 1
 62
   179
420
  2234388
100
AcDbHatch
 10
0.0
 20
0.0
 30
0.0
210
0.0
220
0.0
230
1.0
  2
SOLID
 70
     1
 71
     0
 91
        1
 92
        1
 93
        1
 72
     4
 94
        3
 73
     0
 74
     1
 95
       26
 96
       22
 40
0.0
 40
0.0
 40
0.0
 40
0.0
 40
1.0
 40
1.0
 40
1.0
 40
2.0
 40
2.0
 40
2.0
 40
3.0
 40
3.0
 40
3.0
 40
4.0
 40
4.0
 40
4.0
 40
5.0
 40
5.0
 40
5.0
 40
6.0
 40
6.0
 40
6.0
 40
7.0
 40
7.0
 40
7.0
 40
7.0
 10
86.22229951186456
 20
-112.8000053971472
 10
86.22229951186456
 20
-112.8000053971472
 10
86.22229951186456
 20
-111.6958522941246
 10
86.22229951186456
 20
-111.6958522941246
 10
86.22229951186456
 20
-111.6958522941246
 10
85.86986624372351
 20
-111.6958522941246
 10
85.86986624372351
 20
-111.6958522941246
 10
85.86986624372351
 20
-111.6958522941246
 10
85.86986624372351
 20
-111.5477131882589
 10
85.86986624372351
 20
-111.5477131882589
 10
86.22471107870425
 20
-111.5328992776723
 10
86.27432045369184
 20
-111.36994626122
 10
86.30601533215614
 20
-111.2555690911097
 10
86.30601533215614
 20
-111.2555690911097
 10
86.46207815763796
 20
-111.2555690911097
 10
86.46207815763796
 20
-111.2555690911097
 10
86.46207815763796
 20
-111.2555690911097
 10
86.46207815763796
 20
-112.8000053971472
 10
86.46207815763796
 20
-112.8000053971472
 10
86.46207815763796
 20
-112.8000053971472
 10
86.22229951186456
 20
-112.8000053971472
 10
86.22229951186456
 20
-112.8000053971472
 97
        0
 97
        0
 75
     2
 76
     1
 98
        0
  0
SPLINE
  5
CB
330
C5
100
AcDbEntity
  8
_U+30EC_U+30A4_U+30E4_U+30FC 1
370
     0
100
AcDbSpline
210
0.0
220
0.0
230
1.0
 70
    11
 71
     3
 72
    44
 73
    40
 74
     0
 42
0.0000000001
 43
0.0000000001
 12
1.0
 22
0.0
 32
0.0
 13
1.0
 23
0.0
 33
0.0
 40
0.0
 40
0.0
 40
0.0
 40
0.0
 40
1.0
 40
1.0
 40
1.0
 40
2.0
 40
2.0
 40
2.0
 40
3.0
 40
3.0
 40
3.0
 40
4.0
 40
4.0
 40
4.0
 40
5.0
 40
5.0
 40
5.0
 40
6.0
 40
6.0
 40
6.0
 40
7.0
 40
7.0
 40
7.0
 40
8.0
 40
8.0
 40
8.0
 40
9.0
 40
9.0
 40
9.0
 40
10.0
 40
10.0
 40
10.0
 40
11.0
 40
11.0
 40
11.0
 40
12.0
 40
12.0
 40
12.0
 40
13.0
 40
13.0
 40
13.0
 40
13.0
 10
87.63168807488027
 20
-112.2181287696885
 30
0.0
 10
87.39879962007738
 20
-112.3769476715585
 30
0.0
 10
87.29923636055366
 20
-112.4510172244914
 30
0.0
 10
87.24755992827492
 20
-112.5946777062263
 30
0.0
 10
87.24755992827492
 20
-112.5946777062263
 30
0.0
 10
88.07920597841424
 20
-112.5946777062263
 30
0.0
 10
88.07920597841424
 20
-112.5946777062263
 30
0.0
 10
88.07920597841424
 20
-112.5946777062263
 30
0.0
 10
88.07920597841424
 20
-112.8000053971472
 30
0.0
 10
88.07920597841424
 20
-112.8000053971472
 30
0.0
 10
88.07920597841424
 20
-112.8000053971472
 30
0.0
 10
86.98056502816806
 20
-112.8000053971472
 30
0.0
 10
86.98056502816806
 20
-112.8000053971472
 30
0.0
 10
87.01467147347203
 20
-112.4424044857783
 30
0.0
 10
87.0846069118226
 20
-112.3642008182631
 30
0.0
 10
87.49595131276143
 20
-112.0658555492405
 30
0.0
 10
87.76949189429027
 20
-111.8670735397416
 30
0.0
 10
87.83977184218936
 20
-111.7992051586821
 30
0.0
 10
87.83977184218936
 20
-111.6617458488207
 30
0.0
 10
87.83977184218936
 20
-111.5432345641281
 30
0.0
 10
87.7629462128683
 20
-111.4123209356886
 30
0.0
 10
87.55245087871953
 20
-111.4123209356886
 30
0.0
 10
87.27443167305987
 20
-111.4123209356886
 30
0.0
 10
87.26547442479821
 20
-111.6427978236518
 30
0.0
 10
87.26099580066739
 20
-111.7592420510532
 30
0.0
 10
87.26099580066739
 20
-111.7592420510532
 30
0.0
 10
87.021217154894
 20
-111.7592420510532
 30
0.0
 10
87.021217154894
 20
-111.7592420510532
 30
0.0
 10
87.03051891270418
 20
-111.6321180276475
 30
0.0
 10
87.04154321825698
 20
-111.5201524243769
 30
0.0
 10
87.12767060538823
 20
-111.4016411396843
 30
0.0
 10
87.24514836143524
 20
-111.2407551805232
 30
0.0
 10
87.44393037093415
 20
-111.2069932447677
 30
0.0
 10
87.56829831795167
 20
-111.2069932447677
 30
0.0
 10
87.86457652968316
 20
-111.2069932447677
 30
0.0
 10
88.08609616938473
 20
-111.39096134368
 30
0.0
 10
88.08609616938473
 20
-111.6638129061118
 30
0.0
 10
88.08609616938473
 20
-111.8925672463324
 30
0.0
 10
87.96172822236721
 20
-111.9917859963076
 30
0.0
 10
87.63168807488027
 20
-112.2181287696885
 30
0.0
  0
HATCH
  5
CC
330
C5
100
AcDbEntity
  8
_U+30EC_U+30A4_U+30E4_U+30FC 1
 62
   179
420
  2234388
100
AcDbHatch
 10
0.0
 20
0.0
 30
0.0
210
0.0
220
0.0
230
1.0
  2
SOLID
 70
     1
 71
     0
 91
        1
 92
        1
 93
        1
 72
     4
 94
        3
 73
     0
 74
     1
 95
       44
 96
       40
 40
0.0
 40
0.0
 40
0.0
 40
0.0
 40
1.0
 40
1.0
 40
1.0
 40
2.0
 40
2.0
 40
2.0
 40
3.0
 40
3.0
 40
3.0
 40
4.0
 40
4.0
 40
4.0
 40
5.0
 40
5.0
 40
5.0
 40
6.0
 40
6.0
 40
6.0
 40
7.0
 40
7.0
 40
7.0
 40
8.0
 40
8.0
 40
8.0
 40
9.0
 40
9.0
 40
9.0
 40
10.0
 40
10.0
 40
10.0
 40
11.0
 40
11.0
 40
11.0
 40
12.0
 40
12.0
 40
12.0
 40
13.0
 40
13.0
 40
13.0
 40
13.0
 10
87.63168807488027
 20
-112.2181287696885
 10
87.39879962007738
 20
-112.3769476715585
 10
87.29923636055366
 20
-112.4510172244914
 10
87.24755992827492
 20
-112.5946777062263
 10
87.24755992827492
 20
-112.5946777062263
 10
88.07920597841424
 20
-112.5946777062263
 10
88.07920597841424
 20
-112.5946777062263
 10
88.07920597841424
 20
-112.5946777062263
 10
88.07920597841424
 20
-112.8000053971472
 10
88.07920597841424
 20
-112.8000053971472
 10
88.07920597841424
 20
-112.8000053971472
 10
86.98056502816806
 20
-112.8000053971472
 10
86.98056502816806
 20
-112.8000053971472
 10
87.01467147347203
 20
-112.4424044857783
 10
87.0846069118226
 20
-112.3642008182631
 10
87.49595131276143
 20
-112.0658555492405
 10
87.76949189429027
 20
-111.8670735397416
 10
87.83977184218936
 20
-111.7992051586821
 10
87.83977184218936
 20
-111.6617458488207
 10
87.83977184218936
 20
-111.5432345641281
 10
87.7629462128683
 20
-111.4123209356886
 10
87.55245087871953
 20
-111.4123209356886
 10
87.27443167305987
 20
-111.4123209356886
 10
87.26547442479821
 20
-111.6427978236518
 10
87.26099580066739
 20
-111.7592420510532
 10
87.26099580066739
 20
-111.7592420510532
 10
87.021217154894
 20
-111.7592420510532
 10
87.021217154894
 20
-111.7592420510532
 10
87.03051891270418
 20
-111.6321180276475
 10
87.04154321825698
 20
-111.5201524243769
 10
87.12767060538823
 20
-111.4016411396843
 10
87.24514836143524
 20
-111.2407551805232
 10
87.44393037093415
 20
-111.2069932447677
 10
87.56829831795167
 20
-111.2069932447677
 10
87.86457652968316
 20
-111.2069932447677
 10
88.08609616938473
 20
-111.39096134368
 10
88.08609616938473
 20
-111.6638129061118
 10
88.08609616938473
 20
-111.8925672463324
 10
87.96172822236721
 20
-111.9917859963076
 10
87.63168807488027
 20
-112.2181287696885
 97
        0
 97
        0
 75
     2
 76
     1
 98
        0
  0
ENDBLK
  5
C8
330
C5
100
AcDbEntity
  8
0
100
AcDbBlockEnd
  0
BLOCK
  5
DB
330
D9
100
AcDbEntity
  8
0
100
AcDbBlockBegin
  2
block 5
 70
     0
 10
0.0
 20
0.0
 30
0.0
  3
block 5
  1

  0
SPLINE
  5
DD
330
D9
100
AcDbEntity
  8
_U+30EC_U+30A4_U+30E4_U+30FC 1
370
     0
100
AcDbSpline
210
0.0
220
0.0
230
1.0
 70
    11
 71
     3
 72
    44
 73
    40
 74
     0
 42
0.0000000001
 43
0.0000000001
 12
1.0
 22
0.0
 32
0.0
 13
1.0
 23
0.0
 33
0.0
 40
0.0
 40
0.0
 40
0.0
 40
0.0
 40
1.0
 40
1.0
 40
1.0
 40
2.0
 40
2.0
 40
2.0
 40
3.0
 40
3.0
 40
3.0
 40
4.0
 40
4.0
 40
4.0
 40
5.0
 40
5.0
 40
5.0
 40
6.0
 40
6.0
 40
6.0
 40
7.0
 40
7.0
 40
7.0
 40
8.0
 40
8.0
 40
8.0
 40
9.0
 40
9.0
 40
9.0
 40
10.0
 40
10.0
 40
10.0
 40
11.0
 40
11.0
 40
11.0
 40
12.0
 40
12.0
 40
12.0
 40
13.0
 40
13.0
 40
13.0
 40
13.0
 10
75.71992592508043
 20
-130.6717827364293
 30
0.0
 10
75.8785725721762
 20
-130.9046711912322
 30
0.0
 10
75.95264212510907
 20
-131.0042344507559
 30
0.0
 10
76.09647486161825
 20
-131.0559108830346
 30
0.0
 10
76.09647486161825
 20
-131.0559108830346
 30
0.0
 10
76.09647486161825
 20
-130.2242648328953
 30
0.0
 10
76.09647486161825
 20
-130.2242648328953
 30
0.0
 10
76.09647486161825
 20
-130.2242648328953
 30
0.0
 10
76.30163029776487
 20
-130.2242648328953
 30
0.0
 10
76.30163029776487
 20
-130.2242648328953
 30
0.0
 10
76.30163029776487
 20
-130.2242648328953
 30
0.0
 10
76.30163029776487
 20
-131.3229057831415
 30
0.0
 10
76.30163029776487
 20
-131.3229057831415
 30
0.0
 10
75.94402938639594
 20
-131.2887993378375
 30
0.0
 10
75.86582571888077
 20
-131.218863899487
 30
0.0
 10
75.56748044985814
 20
-130.8075194985481
 30
0.0
 10
75.36869844035921
 20
-130.5339789170193
 30
0.0
 10
75.30100231407405
 20
-130.4636989691202
 30
0.0
 10
75.16354300421258
 20
-130.4636989691202
 30
0.0
 10
75.04503171952
 20
-130.4636989691202
 30
0.0
 10
74.91377358153197
 20
-130.5405245984413
 30
0.0
 10
74.91377358153197
 20
-130.75101993259
 30
0.0
 10
74.91377358153197
 20
-131.0290391382497
 30
0.0
 10
75.14442272426945
 20
-131.0379963865113
 30
0.0
 10
75.26086695167089
 20
-131.0424750106422
 30
0.0
 10
75.26086695167089
 20
-131.0424750106422
 30
0.0
 10
75.26086695167089
 20
-131.2822536564155
 30
0.0
 10
75.26086695167089
 20
-131.2822536564155
 30
0.0
 10
75.13391518303943
 20
-131.2729518986054
 30
0.0
 10
75.02177732499456
 20
-131.2619275930526
 30
0.0
 10
74.90326604030196
 20
-131.1758002059213
 30
0.0
 10
74.74255233591506
 20
-131.0583224498743
 30
0.0
 10
74.70861814538534
 20
-130.8595404403754
 30
0.0
 10
74.70861814538534
 20
-130.7351724933579
 30
0.0
 10
74.70861814538534
 20
-130.4388942816264
 30
0.0
 10
74.89275849907196
 20
-130.2173746419248
 30
0.0
 10
75.16561006150374
 20
-130.2173746419248
 30
0.0
 10
75.3940198921758
 20
-130.2173746419248
 30
0.0
 10
75.49358315169953
 20
-130.3417425889423
 30
0.0
 10
75.71992592508043
 20
-130.6717827364293
 30
0.0
  0
HATCH
  5
DE
330
D9
100
AcDbEntity
  8
_U+30EC_U+30A4_U+30E4_U+30FC 1
 62
   179
420
  2234388
100
AcDbHatch
 10
0.0
 20
0.0
 30
0.0
210
0.0
220
0.0
230
1.0
  2
SOLID
 70
     1
 71
     0
 91
        1
 92
        1
 93
        1
 72
     4
 94
        3
 73
     0
 74
     1
 95
       44
 96
       40
 40
0.0
 40
0.0
 40
0.0
 40
0.0
 40
1.0
 40
1.0
 40
1.0
 40
2.0
 40
2.0
 40
2.0
 40
3.0
 40
3.0
 40
3.0
 40
4.0
 40
4.0
 40
4.0
 40
5.0
 40
5.0
 40
5.0
 40
6.0
 40
6.0
 40
6.0
 40
7.0
 40
7.0
 40
7.0
 40
8.0
 40
8.0
 40
8.0
 40
9.0
 40
9.0
 40
9.0
 40
10.0
 40
10.0
 40
10.0
 40
11.0
 40
11.0
 40
11.0
 40
12.0
 40
12.0
 40
12.0
 40
13.0
 40
13.0
 40
13.0
 40
13.0
 10
75.71992592508043
 20
-130.6717827364293
 10
75.8785725721762
 20
-130.9046711912322
 10
75.95264212510907
 20
-131.0042344507559
 10
76.09647486161825
 20
-131.0559108830346
 10
76.09647486161825
 20
-131.0559108830346
 10
76.09647486161825
 20
-130.2242648328953
 10
76.09647486161825
 20
-130.2242648328953
 10
76.09647486161825
 20
-130.2242648328953
 10
76.30163029776487
 20
-130.2242648328953
 10
76.30163029776487
 20
-130.2242648328953
 10
76.30163029776487
 20
-130.2242648328953
 10
76.30163029776487
 20
-131.3229057831415
 10
76.30163029776487
 20
-131.3229057831415
 10
75.94402938639594
 20
-131.2887993378375
 10
75.86582571888077
 20
-131.218863899487
 10
75.56748044985814
 20
-130.8075194985481
 10
75.36869844035921
 20
-130.5339789170193
 10
75.30100231407405
 20
-130.4636989691202
 10
75.16354300421258
 20
-130.4636989691202
 10
75.04503171952
 20
-130.4636989691202
 10
74.91377358153197
 20
-130.5405245984413
 10
74.91377358153197
 20
-130.75101993259
 10
74.91377358153197
 20
-131.0290391382497
 10
75.14442272426945
 20
-131.0379963865113
 10
75.26086695167089
 20
-131.0424750106422
 10
75.26086695167089
 20
-131.0424750106422
 10
75.26086695167089
 20
-131.2822536564155
 10
75.26086695167089
 20
-131.2822536564155
 10
75.13391518303943
 20
-131.2729518986054
 10
75.02177732499456
 20
-131.2619275930526
 10
74.90326604030196
 20
-131.1758002059213
 10
74.74255233591506
 20
-131.0583224498743
 10
74.70861814538534
 20
-130.8595404403754
 10
74.70861814538534
 20
-130.7351724933579
 10
74.70861814538534
 20
-130.4388942816264
 10
74.89275849907196
 20
-130.2173746419248
 10
75.16561006150374
 20
-130.2173746419248
 10
75.3940198921758
 20
-130.2173746419248
 10
75.49358315169953
 20
-130.3417425889423
 10
75.71992592508043
 20
-130.6717827364293
 97
        0
 97
        0
 75
     2
 76
     1
 98
        0
  0
SPLINE
  5
DF
330
D9
100
AcDbEntity
  8
_U+30EC_U+30A4_U+30E4_U+30FC 1
370
     0
100
AcDbSpline
210
0.0
220
0.0
230
1.0
 70
    11
 71
     3
 72
    26
 73
    22
 74
     0
 42
0.0000000001
 43
0.0000000001
 12
1.0
 22
0.0
 32
0.0
 13
1.0
 23
0.0
 33
0.0
 40
0.0
 40
0.0
 40
0.0
 40
0.0
 40
1.0
 40
1.0
 40
1.0
 40
2.0
 40
2.0
 40
2.0
 40
3.0
 40
3.0
 40
3.0
 40
4.0
 40
4.0
 40
4.0
 40
5.0
 40
5.0
 40
5.0
 40
6.0
 40
6.0
 40
6.0
 40
7.0
 40
7.0
 40
7.0
 40
7.0
 10
76.30163029776487
 20
-129.5655625761156
 30
0.0
 10
76.30163029776487
 20
-129.5655625761156
 30
0.0
 10
75.19730493996803
 20
-129.5655625761156
 30
0.0
 10
75.19730493996803
 20
-129.5655625761156
 30
0.0
 10
75.19730493996803
 20
-129.5655625761156
 30
0.0
 10
75.19730493996803
 20
-129.9179958442566
 30
0.0
 10
75.19730493996803
 20
-129.9179958442566
 30
0.0
 10
75.19730493996803
 20
-129.9179958442566
 30
0.0
 10
75.0491658341023
 20
-129.9179958442566
 30
0.0
 10
75.0491658341023
 20
-129.9179958442566
 30
0.0
 10
75.03452417828998
 20
-129.5631510092759
 30
0.0
 10
74.87157116183766
 20
-129.5135416342883
 30
0.0
 10
74.75736624650163
 20
-129.481846755824
 30
0.0
 10
74.75736624650163
 20
-129.481846755824
 30
0.0
 10
74.75736624650163
 20
-129.3257839303422
 30
0.0
 10
74.75736624650163
 20
-129.3257839303422
 30
0.0
 10
74.75736624650163
 20
-129.3257839303422
 30
0.0
 10
76.30163029776487
 20
-129.3257839303422
 30
0.0
 10
76.30163029776487
 20
-129.3257839303422
 30
0.0
 10
76.30163029776487
 20
-129.3257839303422
 30
0.0
 10
76.30163029776487
 20
-129.5655625761156
 30
0.0
 10
76.30163029776487
 20
-129.5655625761156
 30
0.0
  0
HATCH
  5
E0
330
D9
100
AcDbEntity
  8
_U+30EC_U+30A4_U+30E4_U+30FC 1
 62
   179
420
  2234388
100
AcDbHatch
 10
0.0
 20
0.0
 30
0.0
210
0.0
220
0.0
230
1.0
  2
SOLID
 70
     1
 71
     0
 91
        1
 92
        1
 93
        1
 72
     4
 94
        3
 73
     0
 74
     1
 95
       26
 96
       22
 40
0.0
 40
0.0
 40
0.0
 40
0.0
 40
1.0
 40
1.0
 40
1.0
 40
2.0
 40
2.0
 40
2.0
 40
3.0
 40
3.0
 40
3.0
 40
4.0
 40
4.0
 40
4.0
 40
5.0
 40
5.0
 40
5.0
 40
6.0
 40
6.0
 40
6.0
 40
7.0
 40
7.0
 40
7.0
 40
7.0
 10
76.30163029776487
 20
-129.5655625761156
 10
76.30163029776487
 20
-129.5655625761156
 10
75.19730493996803
 20
-129.5655625761156
 10
75.19730493996803
 20
-129.5655625761156
 10
75.19730493996803
 20
-129.5655625761156
 10
75.19730493996803
 20
-129.9179958442566
 10
75.19730493996803
 20
-129.9179958442566
 10
75.19730493996803
 20
-129.9179958442566
 10
75.0491658341023
 20
-129.9179958442566
 10
75.0491658341023
 20
-129.9179958442566
 10
75.03452417828998
 20
-129.5631510092759
 10
74.87157116183766
 20
-129.5135416342883
 10
74.75736624650163
 20
-129.481846755824
 10
74.75736624650163
 20
-129.481846755824
 10
74.75736624650163
 20
-129.3257839303422
 10
74.75736624650163
 20
-129.3257839303422
 10
74.75736624650163
 20
-129.3257839303422
 10
76.30163029776487
 20
-129.3257839303422
 10
76.30163029776487
 20
-129.3257839303422
 10
76.30163029776487
 20
-129.3257839303422
 10
76.30163029776487
 20
-129.5655625761156
 10
76.30163029776487
 20
-129.5655625761156
 97
        0
 97
        0
 75
     2
 76
     1
 98
        0
  0
POLYLINE
  5
E1
330
D9
100
AcDbEntity
  8
_U+30EC_U+30A4_U+30E4_U+30FC 1
370
     0
100
AcDb2dPolyline
 66
     1
 10
0.0
 20
0.0
 30
0.0
  0
VERTEX
  5
E2
330
E1
100
AcDbEntity
  8
_U+30EC_U+30A4_U+30E4_U+30FC 1
370
     0
100
AcDbVertex
100
AcDb2dVertex
 10
76.30163029776487
 20
-128.7259928063602
 30
0.0
  0
VERTEX
  5
E3
330
E1
100
AcDbEntity
  8
_U+30EC_U+30A4_U+30E4_U+30FC 1
370
     0
100
AcDbVertex
100
AcDb2dVertex
 10
76.04996607256737
 20
-128.7259928063602
 30
0.0
  0
VERTEX
  5
E4
330
E1
100
AcDbEntity
  8
_U+30EC_U+30A4_U+30E4_U+30FC 1
370
     0
100
AcDbVertex
100
AcDb2dVertex
 10
76.04996607256737
 20
-128.4569308489622
 30
0.0
  0
VERTEX
  5
E5
330
E1
100
AcDbEntity
  8
_U+30EC_U+30A4_U+30E4_U+30FC 1
370
     0
100
AcDbVertex
100
AcDb2dVertex
 10
76.30163029776487
 20
-128.4569308489622
 30
0.0
  0
VERTEX
  5
E6
330
E1
100
AcDbEntity
  8
_U+30EC_U+30A4_U+30E4_U+30FC 1
370
     0
100
AcDbVertex
100
AcDb2dVertex
 10
76.30163029776487
 20
-128.7259928063602
 30
0.0
  0
SEQEND
  5
E7
330
E1
100
AcDbEntity
  8
_U+30EC_U+30A4_U+30E4_U+30FC 1
370
     0
  0
HATCH
  5
E8
330
D9
100
AcDbEntity
  8
_U+30EC_U+30A4_U+30E4_U+30FC 1
 62
   179
420
  2234388
100
AcDbHatch
 10
0.0
 20
0.0
 30
0.0
210
0.0
220
0.0
230
1.0
  2
SOLID
 70
     1
 71
     0
 91
        1
 92
        1
 93
        4
 72
     1
 10
76.30163029776487
 20
-128.7259928063602
 11
76.04996607256737
 21
-128.7259928063602
 72
     1
 10
76.04996607256737
 20
-128.7259928063602
 11
76.04996607256737
 21
-128.4569308489622
 72
     1
 10
76.04996607256737
 20
-128.4569308489622
 11
76.30163029776487
 21
-128.4569308489622
 72
     1
 10
76.30163029776487
 20
-128.4569308489622
 11
76.30163029776487
 21
-128.7259928063602
 97
        0
 75
     2
 76
     1
 98
        0
  0
SPLINE
  5
E9
330
D9
100
AcDbEntity
  8
_U+30EC_U+30A4_U+30E4_U+30FC 1
370
     0
100
AcDbSpline
210
0.0
220
0.0
230
1.0
 70
    11
 71
     3
 72
    53
 73
    49
 74
     0
 42
0.0000000001
 43
0.0000000001
 12
1.0
 22
0.0
 32
0.0
 13
1.0
 23
0.0
 33
0.0
 40
0.0
 40
0.0
 40
0.0
 40
0.0
 40
1.0
 40
1.0
 40
1.0
 40
2.0
 40
2.0
 40
2.0
 40
3.0
 40
3.0
 40
3.0
 40
4.0
 40
4.0
 40
4.0
 40
5.0
 40
5.0
 40
5.0
 40
6.0
 40
6.0
 40
6.0
 40
7.0
 40
7.0
 40
7.0
 40
8.0
 40
8.0
 40
8.0
 40
9.0
 40
9.0
 40
9.0
 40
10.0
 40
10.0
 40
10.0
 40
11.0
 40
11.0
 40
11.0
 40
12.0
 40
12.0
 40
12.0
 40
13.0
 40
13.0
 40
13.0
 40
14.0
 40
14.0
 40
14.0
 40
15.0
 40
15.0
 40
15.0
 40
16.0
 40
16.0
 40
16.0
 40
16.0
 10
76.3524454561723
 20
-127.6903971034941
 30
0.0
 10
76.3524454561723
 20
-127.7741129237857
 30
0.0
 10
76.33556448829458
 20
-127.8822889220225
 30
0.0
 10
76.27200247659172
 20
-127.9911539393564
 30
0.0
 10
76.16193167583799
 20
-128.1765000764628
 30
0.0
 10
76.03084579262423
 20
-128.1988931971169
 30
0.0
 10
75.92301430393591
 20
-128.2192192604799
 30
0.0
 10
75.92301430393591
 20
-128.2192192604799
 30
0.0
 10
75.92301430393591
 20
-127.9818521815462
 30
0.0
 10
75.92301430393591
 20
-127.9818521815462
 30
0.0
 10
76.12179631343483
 20
-127.923285558297
 30
0.0
 10
76.15142413460798
 20
-127.7875487961781
 30
0.0
 10
76.15142413460798
 20
-127.6879855366544
 30
0.0
 10
76.15142413460798
 20
-127.5388129021431
 30
0.0
 10
76.05203312985853
 20
-127.3758598856908
 30
0.0
 10
75.8193169298299
 20
-127.3758598856908
 30
0.0
 10
75.56334633527584
 20
-127.3758598856908
 30
0.0
 10
75.49358315169953
 20
-127.5680962137677
 30
0.0
 10
75.49358315169953
 20
-127.696942784916
 30
0.0
 10
75.49358315169953
 20
-127.73104923022
 30
0.0
 10
75.49358315169953
 20
-127.8822889220225
 30
0.0
 10
75.62260197762212
 20
-127.9773735574154
 30
0.0
 10
75.62260197762212
 20
-127.9773735574154
 30
0.0
 10
75.603481697679
 20
-128.1651312613615
 30
0.0
 10
75.603481697679
 20
-128.1651312613615
 30
0.0
 10
75.603481697679
 20
-128.1651312613615
 30
0.0
 10
74.75736624650163
 20
-128.0362846902132
 30
0.0
 10
74.75736624650163
 20
-128.0362846902132
 30
0.0
 10
74.75736624650163
 20
-128.0362846902132
 30
0.0
 10
74.75736624650163
 20
-127.2042941305253
 30
0.0
 10
74.75736624650163
 20
-127.2042941305253
 30
0.0
 10
74.75736624650163
 20
-127.2042941305253
 30
0.0
 10
74.95201414141825
 20
-127.2042941305253
 30
0.0
 10
74.95201414141825
 20
-127.2042941305253
 30
0.0
 10
74.95201414141825
 20
-127.2042941305253
 30
0.0
 10
74.95201414141825
 20
-127.8619628586595
 30
0.0
 10
74.95201414141825
 20
-127.8619628586595
 30
0.0
 10
74.95201414141825
 20
-127.8619628586595
 30
0.0
 10
75.37507186700692
 20
-127.9322428065586
 30
0.0
 10
75.37507186700692
 20
-127.9322428065586
 30
0.0
 10
75.34113767647722
 20
-127.8667859923389
 30
0.0
 10
75.30100231407405
 20
-127.7785915479165
 30
0.0
 10
75.30100231407405
 20
-127.6518120340593
 30
0.0
 10
75.30100231407405
 20
-127.3806830193701
 30
0.0
 10
75.48720972505181
 20
-127.1274685012042
 30
0.0
 10
75.80019664988676
 20
-127.1274685012042
 30
0.0
 10
76.11766219885253
 20
-127.1274685012042
 30
0.0
 10
76.3524454561723
 20
-127.3669026374291
 30
0.0
 10
76.3524454561723
 20
-127.6903971034941
 30
0.0
  0
HATCH
  5
EA
330
D9
100
AcDbEntity
  8
_U+30EC_U+30A4_U+30E4_U+30FC 1
 62
   179
420
  2234388
100
AcDbHatch
 10
0.0
 20
0.0
 30
0.0
210
0.0
220
0.0
230
1.0
  2
SOLID
 70
     1
 71
     0
 91
        1
 92
        1
 93
        1
 72
     4
 94
        3
 73
     0
 74
     1
 95
       53
 96
       49
 40
0.0
 40
0.0
 40
0.0
 40
0.0
 40
1.0
 40
1.0
 40
1.0
 40
2.0
 40
2.0
 40
2.0
 40
3.0
 40
3.0
 40
3.0
 40
4.0
 40
4.0
 40
4.0
 40
5.0
 40
5.0
 40
5.0
 40
6.0
 40
6.0
 40
6.0
 40
7.0
 40
7.0
 40
7.0
 40
8.0
 40
8.0
 40
8.0
 40
9.0
 40
9.0
 40
9.0
 40
10.0
 40
10.0
 40
10.0
 40
11.0
 40
11.0
 40
11.0
 40
12.0
 40
12.0
 40
12.0
 40
13.0
 40
13.0
 40
13.0
 40
14.0
 40
14.0
 40
14.0
 40
15.0
 40
15.0
 40
15.0
 40
16.0
 40
16.0
 40
16.0
 40
16.0
 10
76.3524454561723
 20
-127.6903971034941
 10
76.3524454561723
 20
-127.7741129237857
 10
76.33556448829458
 20
-127.8822889220225
 10
76.27200247659172
 20
-127.9911539393564
 10
76.16193167583799
 20
-128.1765000764628
 10
76.03084579262423
 20
-128.1988931971169
 10
75.92301430393591
 20
-128.2192192604799
 10
75.92301430393591
 20
-128.2192192604799
 10
75.92301430393591
 20
-127.9818521815462
 10
75.92301430393591
 20
-127.9818521815462
 10
76.12179631343483
 20
-127.923285558297
 10
76.15142413460798
 20
-127.7875487961781
 10
76.15142413460798
 20
-127.6879855366544
 10
76.15142413460798
 20
-127.5388129021431
 10
76.05203312985853
 20
-127.3758598856908
 10
75.8193169298299
 20
-127.3758598856908
 10
75.56334633527584
 20
-127.3758598856908
 10
75.49358315169953
 20
-127.5680962137677
 10
75.49358315169953
 20
-127.696942784916
 10
75.49358315169953
 20
-127.73104923022
 10
75.49358315169953
 20
-127.8822889220225
 10
75.62260197762212
 20
-127.9773735574154
 10
75.62260197762212
 20
-127.9773735574154
 10
75.603481697679
 20
-128.1651312613615
 10
75.603481697679
 20
-128.1651312613615
 10
75.603481697679
 20
-128.1651312613615
 10
74.75736624650163
 20
-128.0362846902132
 10
74.75736624650163
 20
-128.0362846902132
 10
74.75736624650163
 20
-128.0362846902132
 10
74.75736624650163
 20
-127.2042941305253
 10
74.75736624650163
 20
-127.2042941305253
 10
74.75736624650163
 20
-127.2042941305253
 10
74.95201414141825
 20
-127.2042941305253
 10
74.95201414141825
 20
-127.2042941305253
 10
74.95201414141825
 20
-127.2042941305253
 10
74.95201414141825
 20
-127.8619628586595
 10
74.95201414141825
 20
-127.8619628586595
 10
74.95201414141825
 20
-127.8619628586595
 10
75.37507186700692
 20
-127.9322428065586
 10
75.37507186700692
 20
-127.9322428065586
 10
75.34113767647722
 20
-127.8667859923389
 10
75.30100231407405
 20
-127.7785915479165
 10
75.30100231407405
 20
-127.6518120340593
 10
75.30100231407405
 20
-127.3806830193701
 10
75.48720972505181
 20
-127.1274685012042
 10
75.80019664988676
 20
-127.1274685012042
 10
76.11766219885253
 20
-127.1274685012042
 10
76.3524454561723
 20
-127.3669026374291
 10
76.3524454561723
 20
-127.6903971034941
 97
        0
 97
        0
 75
     2
 76
     1
 98
        0
  0
ENDBLK
  5
DC
330
D9
100
AcDbEntity
  8
0
100
AcDbBlockEnd
  0
BLOCK
  5
F9
330
F7
100
AcDbEntity
  8
0
100
AcDbBlockBegin
  2
block 6
 70
     0
 10
0.0
 20
0.0
 30
0.0
  3
block 6
  1

  0
SPLINE
  5
FB
330
F7
100
AcDbEntity
  8
_U+30EC_U+30A4_U+30E4_U+30FC 1
370
     0
100
AcDbSpline
210
0.0
220
0.0
230
1.0
 70
    11
 71
     3
 72
    26
 73
    22
 74
     0
 42
0.0000000001
 43
0.0000000001
 12
1.0
 22
0.0
 32
0.0
 13
1.0
 23
0.0
 33
0.0
 40
0.0
 40
0.0
 40
0.0
 40
0.0
 40
1.0
 40
1.0
 40
1.0
 40
2.0
 40
2.0
 40
2.0
 40
3.0
 40
3.0
 40
3.0
 40
4.0
 40
4.0
 40
4.0
 40
5.0
 40
5.0
 40
5.0
 40
6.0
 40
6.0
 40
6.0
 40
7.0
 40
7.0
 40
7.0
 40
7.0
 10
76.30214706208766
 20
-143.9805311054979
 30
0.0
 10
76.30214706208766
 20
-143.9805311054979
 30
0.0
 10
75.19782170429083
 20
-143.9805311054979
 30
0.0
 10
75.19782170429083
 20
-143.9805311054979
 30
0.0
 10
75.19782170429083
 20
-143.9805311054979
 30
0.0
 10
75.19782170429083
 20
-144.332964373639
 30
0.0
 10
75.19782170429083
 20
-144.332964373639
 30
0.0
 10
75.19782170429083
 20
-144.332964373639
 30
0.0
 10
75.04968259842508
 20
-144.332964373639
 30
0.0
 10
75.04968259842508
 20
-144.332964373639
 30
0.0
 10
75.03504094261277
 20
-143.9781195386583
 30
0.0
 10
74.87208792616045
 20
-143.9285101636707
 30
0.0
 10
74.75788301082441
 20
-143.8968152852064
 30
0.0
 10
74.75788301082441
 20
-143.8968152852064
 30
0.0
 10
74.75788301082441
 20
-143.7407524597245
 30
0.0
 10
74.75788301082441
 20
-143.7407524597245
 30
0.0
 10
74.75788301082441
 20
-143.7407524597245
 30
0.0
 10
76.30214706208766
 20
-143.7407524597245
 30
0.0
 10
76.30214706208766
 20
-143.7407524597245
 30
0.0
 10
76.30214706208766
 20
-143.7407524597245
 30
0.0
 10
76.30214706208766
 20
-143.9805311054979
 30
0.0
 10
76.30214706208766
 20
-143.9805311054979
 30
0.0
  0
HATCH
  5
FC
330
F7
100
AcDbEntity
  8
_U+30EC_U+30A4_U+30E4_U+30FC 1
 62
   179
420
  2234388
100
AcDbHatch
 10
0.0
 20
0.0
 30
0.0
210
0.0
220
0.0
230
1.0
  2
SOLID
 70
     1
 71
     0
 91
        1
 92
        1
 93
        1
 72
     4
 94
        3
 73
     0
 74
     1
 95
       26
 96
       22
 40
0.0
 40
0.0
 40
0.0
 40
0.0
 40
1.0
 40
1.0
 40
1.0
 40
2.0
 40
2.0
 40
2.0
 40
3.0
 40
3.0
 40
3.0
 40
4.0
 40
4.0
 40
4.0
 40
5.0
 40
5.0
 40
5.0
 40
6.0
 40
6.0
 40
6.0
 40
7.0
 40
7.0
 40
7.0
 40
7.0
 10
76.30214706208766
 20
-143.9805311054979
 10
76.30214706208766
 20
-143.9805311054979
 10
75.19782170429083
 20
-143.9805311054979
 10
75.19782170429083
 20
-143.9805311054979
 10
75.19782170429083
 20
-143.9805311054979
 10
75.19782170429083
 20
-144.332964373639
 10
75.19782170429083
 20
-144.332964373639
 10
75.19782170429083
 20
-144.332964373639
 10
75.04968259842508
 20
-144.332964373639
 10
75.04968259842508
 20
-144.332964373639
 10
75.03504094261277
 20
-143.9781195386583
 10
74.87208792616045
 20
-143.9285101636707
 10
74.75788301082441
 20
-143.8968152852064
 10
74.75788301082441
 20
-143.8968152852064
 10
74.75788301082441
 20
-143.7407524597245
 10
74.75788301082441
 20
-143.7407524597245
 10
74.75788301082441
 20
-143.7407524597245
 10
76.30214706208766
 20
-143.7407524597245
 10
76.30214706208766
 20
-143.7407524597245
 10
76.30214706208766
 20
-143.7407524597245
 10
76.30214706208766
 20
-143.9805311054979
 10
76.30214706208766
 20
-143.9805311054979
 97
        0
 97
        0
 75
     2
 76
     1
 98
        0
  0
ENDBLK
  5
FA
330
F7
100
AcDbEntity
  8
0
100
AcDbBlockEnd
  0
BLOCK
  5
10B
330
109
100
AcDbEntity
  8
0
100
AcDbBlockBegin
  2
block 7
 70
     0
 10
0.0
 20
0.0
 30
0.0
  3
block 7
  1

  0
SPLINE
  5
10D
330
109
100
AcDbEntity
  8
_U+30EC_U+30A4_U+30E4_U+30FC 1
370
     0
100
AcDbSpline
210
0.0
220
0.0
230
1.0
 70
    11
 71
     3
 72
    26
 73
    22
 74
     0
 42
0.0000000001
 43
0.0000000001
 12
1.0
 22
0.0
 32
0.0
 13
1.0
 23
0.0
 33
0.0
 40
0.0
 40
0.0
 40
0.0
 40
0.0
 40
1.0
 40
1.0
 40
1.0
 40
2.0
 40
2.0
 40
2.0
 40
3.0
 40
3.0
 40
3.0
 40
4.0
 40
4.0
 40
4.0
 40
5.0
 40
5.0
 40
5.0
 40
6.0
 40
6.0
 40
6.0
 40
7.0
 40
7.0
 40
7.0
 40
7.0
 10
100.3463297275176
 20
-135.6747504001091
 30
0.0
 10
100.3463297275176
 20
-135.6747504001091
 30
0.0
 10
100.0931152093517
 20
-135.6747504001091
 30
0.0
 10
100.0931152093517
 20
-135.6747504001091
 30
0.0
 10
100.1199869541367
 20
-135.3657253350822
 30
0.0
 10
100.3260036641546
 20
-134.8475829741006
 30
0.0
 10
100.7600856952961
 20
-134.3418429568659
 30
0.0
 10
100.7600856952961
 20
-134.3418429568659
 30
0.0
 10
99.86470537867966
 20
-134.3418429568659
 30
0.0
 10
99.86470537867966
 20
-134.3418429568659
 30
0.0
 10
99.86470537867966
 20
-134.3418429568659
 30
0.0
 10
99.86470537867966
 20
-134.1303140940716
 30
0.0
 10
99.86470537867966
 20
-134.1303140940716
 30
0.0
 10
99.86470537867966
 20
-134.1303140940716
 30
0.0
 10
101.013300213462
 20
-134.1303140940716
 30
0.0
 10
101.013300213462
 20
-134.1303140940716
 30
0.0
 10
101.013300213462
 20
-134.1303140940716
 30
0.0
 10
101.013300213462
 20
-134.3418429568659
 30
0.0
 10
101.013300213462
 20
-134.3418429568659
 30
0.0
 10
100.6674126267429
 20
-134.631919996724
 30
0.0
 10
100.3825032301127
 20
-135.2241319106384
 30
0.0
 10
100.3463297275176
 20
-135.6747504001091
 30
0.0
  0
HATCH
  5
10E
330
109
100
AcDbEntity
  8
_U+30EC_U+30A4_U+30E4_U+30FC 1
 62
   179
420
  2234388
100
AcDbHatch
 10
0.0
 20
0.0
 30
0.0
210
0.0
220
0.0
230
1.0
  2
SOLID
 70
     1
 71
     0
 91
        1
 92
        1
 93
        1
 72
     4
 94
        3
 73
     0
 74
     1
 95
       26
 96
       22
 40
0.0
 40
0.0
 40
0.0
 40
0.0
 40
1.0
 40
1.0
 40
1.0
 40
2.0
 40
2.0
 40
2.0
 40
3.0
 40
3.0
 40
3.0
 40
4.0
 40
4.0
 40
4.0
 40
5.0
 40
5.0
 40
5.0
 40
6.0
 40
6.0
 40
6.0
 40
7.0
 40
7.0
 40
7.0
 40
7.0
 10
100.3463297275176
 20
-135.6747504001091
 10
100.3463297275176
 20
-135.6747504001091
 10
100.0931152093517
 20
-135.6747504001091
 10
100.0931152093517
 20
-135.6747504001091
 10
100.1199869541367
 20
-135.3657253350822
 10
100.3260036641546
 20
-134.8475829741006
 10
100.7600856952961
 20
-134.3418429568659
 10
100.7600856952961
 20
-134.3418429568659
 10
99.86470537867966
 20
-134.3418429568659
 10
99.86470537867966
 20
-134.3418429568659
 10
99.86470537867966
 20
-134.3418429568659
 10
99.86470537867966
 20
-134.1303140940716
 10
99.86470537867966
 20
-134.1303140940716
 10
99.86470537867966
 20
-134.1303140940716
 10
101.013300213462
 20
-134.1303140940716
 10
101.013300213462
 20
-134.1303140940716
 10
101.013300213462
 20
-134.1303140940716
 10
101.013300213462
 20
-134.3418429568659
 10
101.013300213462
 20
-134.3418429568659
 10
100.6674126267429
 20
-134.631919996724
 10
100.3825032301127
 20
-135.2241319106384
 10
100.3463297275176
 20
-135.6747504001091
 97
        0
 97
        0
 75
     2
 76
     1
 98
        0
  0
ENDBLK
  5
10C
330
109
100
AcDbEntity
  8
0
100
AcDbBlockEnd
  0
ENDSEC
  0
SECTION
  2
ENTITIES
  0
POLYLINE
  5
41
330
1F
100
AcDbEntity
  8
_U+30EC_U+30A4_U+30E4_U+30FC 1
 62
   179
420
  2234388
370
    25
100
AcDb2dPolyline
 66
     1
 10
0.0
 20
0.0
 30
0.0
  0
VERTEX
  5
42
330
41
100
AcDbEntity
  8
_U+30EC_U+30A4_U+30E4_U+30FC 1
 62
   179
420
  2234388
370
    25
100
AcDbVertex
100
AcDb2dVertex
 10
81.26274709348127
 20
-139.9707921872293
 30
0.0
  0
VERTEX
  5
43
330
41
100
AcDbEntity
  8
_U+30EC_U+30A4_U+30E4_U+30FC 1
 62
   179
420
  2234388
370
    25
100
AcDbVertex
100
AcDb2dVertex
 10
86.39869751800781
 20
-139.9707921872293
 30
0.0
  0
SEQEND
  5
44
330
41
100
AcDbEntity
  8
_U+30EC_U+30A4_U+30E4_U+30FC 1
 62
   179
420
  2234388
370
    25
  0
POLYLINE
  5
45
330
1F
100
AcDbEntity
  8
_U+30EC_U+30A4_U+30E4_U+30FC 1
 62
   179
420
  2234388
370
    25
100
AcDb2dPolyline
 66
     1
 10
0.0
 20
0.0
 30
0.0
  0
VERTEX
  5
46
330
45
100
AcDbEntity
  8
_U+30EC_U+30A4_U+30E4_U+30FC 1
 62
   179
420
  2234388
370
    25
100
AcDbVertex
100
AcDb2dVertex
 10
80.89857460277209
 20
-118.3969141370674
 30
0.0
  0
VERTEX
  5
47
330
45
100
AcDbEntity
  8
_U+30EC_U+30A4_U+30E4_U+30FC 1
 62
   179
420
  2234388
370
    25
100
AcDbVertex
100
AcDb2dVertex
 10
86.39869751800781
 20
-118.3969141370674
 30
0.0
  0
SEQEND
  5
48
330
45
100
AcDbEntity
  8
_U+30EC_U+30A4_U+30E4_U+30FC 1
 62
   179
420
  2234388
370
    25
  0
POLYLINE
  5
49
330
1F
100
AcDbEntity
  8
_U+30EC_U+30A4_U+30E4_U+30FC 1
 62
   179
420
  2234388
370
    25
100
AcDb2dPolyline
 66
     1
 10
0.0
 20
0.0
 30
0.0
  0
VERTEX
  5
4A
330
49
100
AcDbEntity
  8
_U+30EC_U+30A4_U+30E4_U+30FC 1
 62
   179
420
  2234388
370
    25
100
AcDbVertex
100
AcDb2dVertex
 10
81.26274709348127
 20
-117.3971419150952
 30
0.0
  0
VERTEX
  5
4B
330
49
100
AcDbEntity
  8
_U+30EC_U+30A4_U+30E4_U+30FC 1
 62
   179
420
  2234388
370
    25
100
AcDbVertex
100
AcDb2dVertex
 10
92.53456125035778
 20
-117.3971419150952
 30
0.0
  0
SEQEND
  5
4C
330
49
100
AcDbEntity
  8
_U+30EC_U+30A4_U+30E4_U+30FC 1
 62
   179
420
  2234388
370
    25
  0
POLYLINE
  5
4D
330
1F
100
AcDbEntity
  8
_U+30EC_U+30A4_U+30E4_U+30FC 1
 62
   179
420
  2234388
370
    25
100
AcDb2dPolyline
 66
     1
 10
0.0
 20
0.0
 30
0.0
  0
VERTEX
  5
4E
330
4D
100
AcDbEntity
  8
_U+30EC_U+30A4_U+30E4_U+30FC 1
 62
   179
420
  2234388
370
    25
100
AcDbVertex
100
AcDb2dVertex
 10
80.89857460277209
 20
-140.9705644092018
 30
0.0
  0
VERTEX
  5
4F
330
4D
100
AcDbEntity
  8
_U+30EC_U+30A4_U+30E4_U+30FC 1
 62
   179
420
  2234388
370
    25
100
AcDbVertex
100
AcDb2dVertex
 10
103.8985562382159
 20
-140.9705644092018
 30
0.0
  0
SEQEND
  5
50
330
4D
100
AcDbEntity
  8
_U+30EC_U+30A4_U+30E4_U+30FC 1
 62
   179
420
  2234388
370
    25
  0
POLYLINE
  5
51
330
1F
100
AcDbEntity
  8
_U+30EC_U+30A4_U+30E4_U+30FC 1
 62
   179
420
  2234388
370
    25
100
AcDb2dPolyline
 66
     1
 10
0.0
 20
0.0
 30
0.0
  0
VERTEX
  5
52
330
51
100
AcDbEntity
  8
_U+30EC_U+30A4_U+30E4_U+30FC 1
 62
   179
420
  2234388
370
    25
100
AcDbVertex
100
AcDb2dVertex
 10
97.19853029803669
 20
-140.2705121871548
 30
0.0
  0
VERTEX
  5
53
330
51
100
AcDbEntity
  8
_U+30EC_U+30A4_U+30E4_U+30FC 1
 62
   179
420
  2234388
370
    25
100
AcDbVertex
100
AcDb2dVertex
 10
103.6436416407556
 20
-140.2705121871548
 30
0.0
  0
SEQEND
  5
54
330
51
100
AcDbEntity
  8
_U+30EC_U+30A4_U+30E4_U+30FC 1
 62
   179
420
  2234388
370
    25
  0
POLYLINE
  5
55
330
1F
100
AcDbEntity
  8
_U+30EC_U+30A4_U+30E4_U+30FC 1
 62
   179
420
  2234388
370
    25
100
AcDb2dPolyline
 66
     1
 10
0.0
 20
0.0
 30
0.0
  0
VERTEX
  5
56
330
55
100
AcDbEntity
  8
_U+30EC_U+30A4_U+30E4_U+30FC 1
 62
   179
420
  2234388
370
    25
100
AcDbVertex
100
AcDb2dVertex
 10
92.53456125035778
 20
-117.3971419150952
 30
0.0
  0
VERTEX
  5
57
330
55
100
AcDbEntity
  8
_U+30EC_U+30A4_U+30E4_U+30FC 1
 62
   179
420
  2234388
370
    25
100
AcDbVertex
100
AcDb2dVertex
 10
92.898383310109
 20
-118.3969141370674
 30
0.0
  0
SEQEND
  5
58
330
55
100
AcDbEntity
  8
_U+30EC_U+30A4_U+30E4_U+30FC 1
 62
   179
420
  2234388
370
    25
  0
POLYLINE
  5
59
330
1F
100
AcDbEntity
  8
_U+30EC_U+30A4_U+30E4_U+30FC 1
 62
   179
420
  2234388
370
    25
100
AcDb2dPolyline
 66
     1
 10
0.0
 20
0.0
 30
0.0
  0
VERTEX
  5
5A
330
59
100
AcDbEntity
  8
_U+30EC_U+30A4_U+30E4_U+30FC 1
 62
   179
420
  2234388
370
    25
100
AcDbVertex
100
AcDb2dVertex
 10
103.6436416407556
 20
-140.2705121871548
 30
0.0
  0
VERTEX
  5
5B
330
59
100
AcDbEntity
  8
_U+30EC_U+30A4_U+30E4_U+30FC 1
 62
   179
420
  2234388
370
    25
100
AcDbVertex
100
AcDb2dVertex
 10
103.8985562382159
 20
-140.9705644092018
 30
0.0
  0
SEQEND
  5
5C
330
59
100
AcDbEntity
  8
_U+30EC_U+30A4_U+30E4_U+30FC 1
 62
   179
420
  2234388
370
    25
  0
POLYLINE
  5
5D
330
1F
100
AcDbEntity
  8
_U+30EC_U+30A4_U+30E4_U+30FC 1
 62
   179
420
  2234388
370
    25
100
AcDb2dPolyline
 66
     1
 10
0.0
 20
0.0
 30
0.0
  0
VERTEX
  5
5E
330
5D
100
AcDbEntity
  8
_U+30EC_U+30A4_U+30E4_U+30FC 1
 62
   179
420
  2234388
370
    25
100
AcDbVertex
100
AcDb2dVertex
 10
96.89881030568317
 20
-139.9707921872293
 30
0.0
  0
VERTEX
  5
5F
330
5D
100
AcDbEntity
  8
_U+30EC_U+30A4_U+30E4_U+30FC 1
 62
   179
420
  2234388
370
    25
100
AcDbVertex
100
AcDb2dVertex
 10
97.19853029803669
 20
-140.2705121871548
 30
0.0
  0
SEQEND
  5
60
330
5D
100
AcDbEntity
  8
_U+30EC_U+30A4_U+30E4_U+30FC 1
 62
   179
420
  2234388
370
    25
  0
POLYLINE
  5
61
330
1F
100
AcDbEntity
  8
_U+30EC_U+30A4_U+30E4_U+30FC 1
 62
   179
420
  2234388
370
    25
100
AcDb2dPolyline
 66
     1
 10
0.0
 20
0.0
 30
0.0
  0
VERTEX
  5
62
330
61
100
AcDbEntity
  8
_U+30EC_U+30A4_U+30E4_U+30FC 1
 62
   179
420
  2234388
370
    25
100
AcDbVertex
100
AcDb2dVertex
 10
80.89857460277209
 20
-118.3969141370674
 30
0.0
  0
VERTEX
  5
63
330
61
100
AcDbEntity
  8
_U+30EC_U+30A4_U+30E4_U+30FC 1
 62
   179
420
  2234388
370
    25
100
AcDbVertex
100
AcDb2dVertex
 10
81.26274709348127
 20
-117.3971419150952
 30
0.0
  0
SEQEND
  5
64
330
61
100
AcDbEntity
  8
_U+30EC_U+30A4_U+30E4_U+30FC 1
 62
   179
420
  2234388
370
    25
  0
POLYLINE
  5
65
330
1F
100
AcDbEntity
  8
_U+30EC_U+30A4_U+30E4_U+30FC 1
 62
   179
420
  2234388
370
    25
100
AcDb2dPolyline
 66
     1
 10
0.0
 20
0.0
 30
0.0
  0
VERTEX
  5
66
330
65
100
AcDbEntity
  8
_U+30EC_U+30A4_U+30E4_U+30FC 1
 62
   179
420
  2234388
370
    25
100
AcDbVertex
100
AcDb2dVertex
 10
80.89857460277209
 20
-140.9705644092018
 30
0.0
  0
VERTEX
  5
67
330
65
100
AcDbEntity
  8
_U+30EC_U+30A4_U+30E4_U+30FC 1
 62
   179
420
  2234388
370
    25
100
AcDbVertex
100
AcDb2dVertex
 10
81.26274709348127
 20
-139.9707921872293
 30
0.0
  0
SEQEND
  5
68
330
65
100
AcDbEntity
  8
_U+30EC_U+30A4_U+30E4_U+30FC 1
 62
   179
420
  2234388
370
    25
  0
POLYLINE
  5
69
330
1F
100
AcDbEntity
  8
_U+30EC_U+30A4_U+30E4_U+30FC 1
 62
   179
420
  2234388
370
    25
100
AcDb2dPolyline
 66
     1
 10
0.0
 20
0.0
 30
0.0
  0
VERTEX
  5
6A
330
69
100
AcDbEntity
  8
_U+30EC_U+30A4_U+30E4_U+30FC 1
 62
   179
420
  2234388
370
    25
100
AcDbVertex
100
AcDb2dVertex
 10
86.39869751800781
 20
-118.4706446926045
 30
0.0
  0
VERTEX
  5
6B
330
69
100
AcDbEntity
  8
_U+30EC_U+30A4_U+30E4_U+30FC 1
 62
   179
420
  2234388
370
    25
100
AcDbVertex
100
AcDb2dVertex
 10
86.39869751800781
 20
-139.9707921872293
 30
0.0
  0
SEQEND
  5
6C
330
69
100
AcDbEntity
  8
_U+30EC_U+30A4_U+30E4_U+30FC 1
 62
   179
420
  2234388
370
    25
  0
POLYLINE
  5
6D
330
1F
100
AcDbEntity
  8
_U+30EC_U+30A4_U+30E4_U+30FC 1
 62
   179
420
  2234388
370
    25
100
AcDb2dPolyline
 66
     1
 10
0.0
 20
0.0
 30
0.0
  0
VERTEX
  5
6E
330
6D
100
AcDbEntity
  8
_U+30EC_U+30A4_U+30E4_U+30FC 1
 62
   179
420
  2234388
370
    25
100
AcDbVertex
100
AcDb2dVertex
 10
87.39846971472372
 20
-118.4706446926045
 30
0.0
  0
VERTEX
  5
6F
330
6D
100
AcDbEntity
  8
_U+30EC_U+30A4_U+30E4_U+30FC 1
 62
   179
420
  2234388
370
    25
100
AcDbVertex
100
AcDb2dVertex
 10
87.39846971472372
 20
-139.9707921872293
 30
0.0
  0
SEQEND
  5
70
330
6D
100
AcDbEntity
  8
_U+30EC_U+30A4_U+30E4_U+30FC 1
 62
   179
420
  2234388
370
    25
  0
POLYLINE
  5
71
330
1F
100
AcDbEntity
  8
_U+30EC_U+30A4_U+30E4_U+30FC 1
 62
   179
420
  2234388
370
    25
100
AcDb2dPolyline
 66
     1
 10
0.0
 20
0.0
 30
0.0
  0
VERTEX
  5
72
330
71
100
AcDbEntity
  8
_U+30EC_U+30A4_U+30E4_U+30FC 1
 62
   179
420
  2234388
370
    25
100
AcDbVertex
100
AcDb2dVertex
 10
87.39846971472372
 20
-118.3969141370674
 30
0.0
  0
VERTEX
  5
73
330
71
100
AcDbEntity
  8
_U+30EC_U+30A4_U+30E4_U+30FC 1
 62
   179
420
  2234388
370
    25
100
AcDbVertex
100
AcDb2dVertex
 10
92.898383310109
 20
-118.3969141370674
 30
0.0
  0
SEQEND
  5
74
330
71
100
AcDbEntity
  8
_U+30EC_U+30A4_U+30E4_U+30FC 1
 62
   179
420
  2234388
370
    25
  0
POLYLINE
  5
75
330
1F
100
AcDbEntity
  8
_U+30EC_U+30A4_U+30E4_U+30FC 1
 62
   179
420
  2234388
370
    25
100
AcDb2dPolyline
 66
     1
 10
0.0
 20
0.0
 30
0.0
  0
VERTEX
  5
76
330
75
100
AcDbEntity
  8
_U+30EC_U+30A4_U+30E4_U+30FC 1
 62
   179
420
  2234388
370
    25
100
AcDbVertex
100
AcDb2dVertex
 10
87.39846971472372
 20
-139.9707921872293
 30
0.0
  0
VERTEX
  5
77
330
75
100
AcDbEntity
  8
_U+30EC_U+30A4_U+30E4_U+30FC 1
 62
   179
420
  2234388
370
    25
100
AcDbVertex
100
AcDb2dVertex
 10
96.89881030568317
 20
-139.9707921872293
 30
0.0
  0
SEQEND
  5
78
330
75
100
AcDbEntity
  8
_U+30EC_U+30A4_U+30E4_U+30FC 1
 62
   179
420
  2234388
370
    25
  0
SPLINE
  5
79
330
1F
100
AcDbEntity
  8
_U+30EC_U+30A4_U+30E4_U+30FC 1
 62
   179
420
  2234388
370
     9
100
AcDbSpline
210
0.0
220
0.0
230
1.0
 70
    11
 71
     3
 72
    17
 73
    13
 74
     0
 42
0.0000000001
 43
0.0000000001
 12
1.0
 22
0.0
 32
0.0
 13
1.0
 23
0.0
 33
0.0
 40
0.0
 40
0.0
 40
0.0
 40
0.0
 40
1.0
 40
1.0
 40
1.0
 40
2.0
 40
2.0
 40
2.0
 40
3.0
 40
3.0
 40
3.0
 40
4.0
 40
4.0
 40
4.0
 40
4.0
 10
107.998221966958
 20
-140.2705121871548
 30
0.0
 10
107.998221966958
 20
-140.2153730205017
 30
0.0
 10
107.9534544681001
 20
-140.1706055205132
 30
0.0
 10
107.8983153028402
 20
-140.1706055205132
 30
0.0
 10
107.8432114153571
 20
-140.1706055205132
 30
0.0
 10
107.7984086387224
 20
-140.2153730205017
 30
0.0
 10
107.7984086387224
 20
-140.2705121871548
 30
0.0
 10
107.7984086387224
 20
-140.3263216315852
 30
0.0
 10
107.8432114153571
 20
-140.3710891315738
 30
0.0
 10
107.8983153028402
 20
-140.3710891315738
 30
0.0
 10
107.9534544681001
 20
-140.3710891315738
 30
0.0
 10
107.998221966958
 20
-140.3263216315852
 30
0.0
 10
107.998221966958
 20
-140.2705121871548
 30
0.0
  0
SPLINE
  5
7A
330
1F
100
AcDbEntity
  8
_U+30EC_U+30A4_U+30E4_U+30FC 1
 62
   179
420
  2234388
370
     9
100
AcDbSpline
210
0.0
220
0.0
230
1.0
 70
    11
 71
     3
 72
    17
 73
    13
 74
     0
 42
0.0000000001
 43
0.0000000001
 12
1.0
 22
0.0
 32
0.0
 13
1.0
 23
0.0
 33
0.0
 40
0.0
 40
0.0
 40
0.0
 40
0.0
 40
1.0
 40
1.0
 40
1.0
 40
2.0
 40
2.0
 40
2.0
 40
3.0
 40
3.0
 40
3.0
 40
4.0
 40
4.0
 40
4.0
 40
4.0
 10
107.998221966958
 20
-140.9705644092018
 30
0.0
 10
107.998221966958
 20
-140.9154252425487
 30
0.0
 10
107.9534544681001
 20
-140.8706577425602
 30
0.0
 10
107.8983153028402
 20
-140.8706577425602
 30
0.0
 10
107.8432114153571
 20
-140.8706577425602
 30
0.0
 10
107.7984086387224
 20
-140.9154252425487
 30
0.0
 10
107.7984086387224
 20
-140.9705644092018
 30
0.0
 10
107.7984086387224
 20
-141.0256682980767
 30
0.0
 10
107.8432114153571
 20
-141.0704710758434
 30
0.0
 10
107.8983153028402
 20
-141.0704710758434
 30
0.0
 10
107.9534544681001
 20
-141.0704710758434
 30
0.0
 10
107.998221966958
 20
-141.0256682980767
 30
0.0
 10
107.998221966958
 20
-140.9705644092018
 30
0.0
  0
SPLINE
  5
7B
330
1F
100
AcDbEntity
  8
_U+30EC_U+30A4_U+30E4_U+30FC 1
 62
   179
420
  2234388
370
     9
100
AcDbSpline
210
0.0
220
0.0
230
1.0
 70
    11
 71
     3
 72
    17
 73
    13
 74
     0
 42
0.0000000001
 43
0.0000000001
 12
1.0
 22
0.0
 32
0.0
 13
1.0
 23
0.0
 33
0.0
 40
0.0
 40
0.0
 40
0.0
 40
0.0
 40
1.0
 40
1.0
 40
1.0
 40
2.0
 40
2.0
 40
2.0
 40
3.0
 40
3.0
 40
3.0
 40
4.0
 40
4.0
 40
4.0
 40
4.0
 10
103.9984629023337
 20
-144.970993852646
 30
0.0
 10
103.9984629023337
 20
-144.9158899637711
 30
0.0
 10
103.9536954034758
 20
-144.8710871860044
 30
0.0
 10
103.8985562382159
 20
-144.8710871860044
 30
0.0
 10
103.8434523507328
 20
-144.8710871860044
 30
0.0
 10
103.7986495740981
 20
-144.9158899637711
 30
0.0
 10
103.7986495740981
 20
-144.970993852646
 30
0.0
 10
103.7986495740981
 20
-145.0261330192991
 30
0.0
 10
103.8434523507328
 20
-145.0709005192877
 30
0.0
 10
103.8985562382159
 20
-145.0709005192877
 30
0.0
 10
103.9536954034758
 20
-145.0709005192877
 30
0.0
 10
103.9984629023337
 20
-145.0261330192991
 30
0.0
 10
103.9984629023337
 20
-144.970993852646
 30
0.0
  0
SPLINE
  5
7C
330
1F
100
AcDbEntity
  8
_U+30EC_U+30A4_U+30E4_U+30FC 1
 62
   179
420
  2234388
370
     9
100
AcDbSpline
210
0.0
220
0.0
230
1.0
 70
    11
 71
     3
 72
    17
 73
    13
 74
     0
 42
0.0000000001
 43
0.0000000001
 12
1.0
 22
0.0
 32
0.0
 13
1.0
 23
0.0
 33
0.0
 40
0.0
 40
0.0
 40
0.0
 40
0.0
 40
1.0
 40
1.0
 40
1.0
 40
2.0
 40
2.0
 40
2.0
 40
3.0
 40
3.0
 40
3.0
 40
4.0
 40
4.0
 40
4.0
 40
4.0
 10
76.9984047022737
 20
-118.3528169148562
 30
0.0
 10
76.9984047022737
 20
-118.2976777482035
 30
0.0
 10
76.95360192563895
 20
-118.2529102482146
 30
0.0
 10
76.89849998077523
 20
-118.2529102482146
 30
0.0
 10
76.84335887289592
 20
-118.2529102482146
 30
0.0
 10
76.79859137403804
 20
-118.2976777482035
 30
0.0
 10
76.79859137403804
 20
-118.3528169148562
 30
0.0
 10
76.79859137403804
 20
-118.4079208037315
 30
0.0
 10
76.84335887289592
 20
-118.4527235814979
 30
0.0
 10
76.89849998077523
 20
-118.4527235814979
 30
0.0
 10
76.95360192563895
 20
-118.4527235814979
 30
0.0
 10
76.9984047022737
 20
-118.4079208037315
 30
0.0
 10
76.9984047022737
 20
-118.3528169148562
 30
0.0
  0
SPLINE
  5
7D
330
1F
100
AcDbEntity
  8
_U+30EC_U+30A4_U+30E4_U+30FC 1
 62
   179
420
  2234388
370
     9
100
AcDbSpline
210
0.0
220
0.0
230
1.0
 70
    11
 71
     3
 72
    17
 73
    13
 74
     0
 42
0.0000000001
 43
0.0000000001
 12
1.0
 22
0.0
 32
0.0
 13
1.0
 23
0.0
 33
0.0
 40
0.0
 40
0.0
 40
0.0
 40
0.0
 40
1.0
 40
1.0
 40
1.0
 40
2.0
 40
2.0
 40
2.0
 40
3.0
 40
3.0
 40
3.0
 40
4.0
 40
4.0
 40
4.0
 40
4.0
 10
76.9984047022737
 20
-139.9707921872293
 30
0.0
 10
76.9984047022737
 20
-139.9156530205768
 30
0.0
 10
76.95360192563895
 20
-139.8708855205876
 30
0.0
 10
76.89849998077523
 20
-139.8708855205876
 30
0.0
 10
76.84335887289592
 20
-139.8708855205876
 30
0.0
 10
76.79859137403804
 20
-139.9156530205768
 30
0.0
 10
76.79859137403804
 20
-139.9707921872293
 30
0.0
 10
76.79859137403804
 20
-140.0258960761048
 30
0.0
 10
76.84335887289592
 20
-140.0706988538715
 30
0.0
 10
76.89849998077523
 20
-140.0706988538715
 30
0.0
 10
76.95360192563895
 20
-140.0706988538715
 30
0.0
 10
76.9984047022737
 20
-140.0258960761048
 30
0.0
 10
76.9984047022737
 20
-139.9707921872293
 30
0.0
  0
SPLINE
  5
7E
330
1F
100
AcDbEntity
  8
_U+30EC_U+30A4_U+30E4_U+30FC 1
 62
   179
420
  2234388
370
     9
100
AcDbSpline
210
0.0
220
0.0
230
1.0
 70
    11
 71
     3
 72
    17
 73
    13
 74
     0
 42
0.0000000001
 43
0.0000000001
 12
1.0
 22
0.0
 32
0.0
 13
1.0
 23
0.0
 33
0.0
 40
0.0
 40
0.0
 40
0.0
 40
0.0
 40
1.0
 40
1.0
 40
1.0
 40
2.0
 40
2.0
 40
2.0
 40
3.0
 40
3.0
 40
3.0
 40
4.0
 40
4.0
 40
4.0
 40
4.0
 10
76.9984047022737
 20
-140.9705644092018
 30
0.0
 10
76.9984047022737
 20
-140.9154252425487
 30
0.0
 10
76.95360192563895
 20
-140.8706577425602
 30
0.0
 10
76.89849998077523
 20
-140.8706577425602
 30
0.0
 10
76.84335887289592
 20
-140.8706577425602
 30
0.0
 10
76.79859137403804
 20
-140.9154252425487
 30
0.0
 10
76.79859137403804
 20
-140.9705644092018
 30
0.0
 10
76.79859137403804
 20
-141.0256682980767
 30
0.0
 10
76.84335887289592
 20
-141.0704710758434
 30
0.0
 10
76.89849998077523
 20
-141.0704710758434
 30
0.0
 10
76.95360192563895
 20
-141.0704710758434
 30
0.0
 10
76.9984047022737
 20
-141.0256682980767
 30
0.0
 10
76.9984047022737
 20
-140.9705644092018
 30
0.0
  0
SPLINE
  5
7F
330
1F
100
AcDbEntity
  8
_U+30EC_U+30A4_U+30E4_U+30FC 1
 62
   179
420
  2234388
370
     9
100
AcDbSpline
210
0.0
220
0.0
230
1.0
 70
    11
 71
     3
 72
    17
 73
    13
 74
     0
 42
0.0000000001
 43
0.0000000001
 12
1.0
 22
0.0
 32
0.0
 13
1.0
 23
0.0
 33
0.0
 40
0.0
 40
0.0
 40
0.0
 40
0.0
 40
1.0
 40
1.0
 40
1.0
 40
2.0
 40
2.0
 40
2.0
 40
3.0
 40
3.0
 40
3.0
 40
4.0
 40
4.0
 40
4.0
 40
4.0
 10
80.9985165446668
 20
-144.970993852646
 30
0.0
 10
80.9985165446668
 20
-144.9158899637711
 30
0.0
 10
80.95371376803203
 20
-144.8710871860044
 30
0.0
 10
80.89857460277209
 20
-144.8710871860044
 30
0.0
 10
80.84311793752023
 20
-144.8710871860044
 30
0.0
 10
80.79835043866235
 20
-144.9158899637711
 30
0.0
 10
80.79835043866235
 20
-144.970993852646
 30
0.0
 10
80.79835043866235
 20
-145.0261330192991
 30
0.0
 10
80.84311793752023
 20
-145.0709005192877
 30
0.0
 10
80.89857460277209
 20
-145.0709005192877
 30
0.0
 10
80.95371376803203
 20
-145.0709005192877
 30
0.0
 10
80.9985165446668
 20
-145.0261330192991
 30
0.0
 10
80.9985165446668
 20
-144.970993852646
 30
0.0
  0
SPLINE
  5
80
330
1F
100
AcDbEntity
  8
_U+30EC_U+30A4_U+30E4_U+30FC 1
 62
   179
420
  2234388
370
     9
100
AcDbSpline
210
0.0
220
0.0
230
1.0
 70
    11
 71
     3
 72
    17
 73
    13
 74
     0
 42
0.0000000001
 43
0.0000000001
 12
1.0
 22
0.0
 32
0.0
 13
1.0
 23
0.0
 33
0.0
 40
0.0
 40
0.0
 40
0.0
 40
0.0
 40
1.0
 40
1.0
 40
1.0
 40
2.0
 40
2.0
 40
2.0
 40
3.0
 40
3.0
 40
3.0
 40
4.0
 40
4.0
 40
4.0
 40
4.0
 10
92.99828762741602
 20
-113.396712471651
 30
0.0
 10
92.99828762741602
 20
-113.3415733049979
 30
0.0
 10
92.95348485078125
 20
-113.296805805009
 30
0.0
 10
92.898383310109
 20
-113.296805805009
 30
0.0
 10
92.84324179803824
 20
-113.296805805009
 30
0.0
 10
92.79847429918036
 20
-113.3415733049979
 30
0.0
 10
92.79847429918036
 20
-113.396712471651
 30
0.0
 10
92.79847429918036
 20
-113.4525219160814
 30
0.0
 10
92.84324179803824
 20
-113.49728941607
 30
0.0
 10
92.898383310109
 20
-113.49728941607
 30
0.0
 10
92.95348485078125
 20
-113.49728941607
 30
0.0
 10
92.99828762741602
 20
-113.4525219160814
 30
0.0
 10
92.99828762741602
 20
-113.396712471651
 30
0.0
  0
SPLINE
  5
81
330
1F
100
AcDbEntity
  8
_U+30EC_U+30A4_U+30E4_U+30FC 1
 62
   179
420
  2234388
370
     9
100
AcDbSpline
210
0.0
220
0.0
230
1.0
 70
    11
 71
     3
 72
    17
 73
    13
 74
     0
 42
0.0000000001
 43
0.0000000001
 12
1.0
 22
0.0
 32
0.0
 13
1.0
 23
0.0
 33
0.0
 40
0.0
 40
0.0
 40
0.0
 40
0.0
 40
1.0
 40
1.0
 40
1.0
 40
2.0
 40
2.0
 40
2.0
 40
3.0
 40
3.0
 40
3.0
 40
4.0
 40
4.0
 40
4.0
 40
4.0
 10
80.9985165446668
 20
-113.396712471651
 30
0.0
 10
80.9985165446668
 20
-113.3415733049979
 30
0.0
 10
80.95371376803203
 20
-113.296805805009
 30
0.0
 10
80.89857460277209
 20
-113.296805805009
 30
0.0
 10
80.84311793752023
 20
-113.296805805009
 30
0.0
 10
80.79835043866235
 20
-113.3415733049979
 30
0.0
 10
80.79835043866235
 20
-113.396712471651
 30
0.0
 10
80.79835043866235
 20
-113.4525219160814
 30
0.0
 10
80.84311793752023
 20
-113.49728941607
 30
0.0
 10
80.89857460277209
 20
-113.49728941607
 30
0.0
 10
80.95371376803203
 20
-113.49728941607
 30
0.0
 10
80.9985165446668
 20
-113.4525219160814
 30
0.0
 10
80.9985165446668
 20
-113.396712471651
 30
0.0
  0
SPLINE
  5
82
330
1F
100
AcDbEntity
  8
_U+30EC_U+30A4_U+30E4_U+30FC 1
 62
   179
420
  2234388
370
     9
100
AcDbSpline
210
0.0
220
0.0
230
1.0
 70
    11
 71
     3
 72
    17
 73
    13
 74
     0
 42
0.0000000001
 43
0.0000000001
 12
1.0
 22
0.0
 32
0.0
 13
1.0
 23
0.0
 33
0.0
 40
0.0
 40
0.0
 40
0.0
 40
0.0
 40
1.0
 40
1.0
 40
1.0
 40
2.0
 40
2.0
 40
2.0
 40
3.0
 40
3.0
 40
3.0
 40
4.0
 40
4.0
 40
4.0
 40
4.0
 10
103.9984629023337
 20
-136.2707530214879
 30
0.0
 10
103.9984629023337
 20
-136.2156138548349
 30
0.0
 10
103.9536954034758
 20
-136.1708463548463
 30
0.0
 10
103.8985562382159
 20
-136.1708463548463
 30
0.0
 10
103.8434523507328
 20
-136.1708463548463
 30
0.0
 10
103.7986495740981
 20
-136.2156138548349
 30
0.0
 10
103.7986495740981
 20
-136.2707530214879
 30
0.0
 10
103.7986495740981
 20
-136.3258569103628
 30
0.0
 10
103.8434523507328
 20
-136.3706596881296
 30
0.0
 10
103.8985562382159
 20
-136.3706596881296
 30
0.0
 10
103.9536954034758
 20
-136.3706596881296
 30
0.0
 10
103.9984629023337
 20
-136.3258569103628
 30
0.0
 10
103.9984629023337
 20
-136.2707530214879
 30
0.0
  0
SPLINE
  5
83
330
1F
100
AcDbEntity
  8
_U+30EC_U+30A4_U+30E4_U+30FC 1
 62
   179
420
  2234388
370
     9
100
AcDbSpline
210
0.0
220
0.0
230
1.0
 70
    11
 71
     3
 72
    17
 73
    13
 74
     0
 42
0.0000000001
 43
0.0000000001
 12
1.0
 22
0.0
 32
0.0
 13
1.0
 23
0.0
 33
0.0
 40
0.0
 40
0.0
 40
0.0
 40
0.0
 40
1.0
 40
1.0
 40
1.0
 40
2.0
 40
2.0
 40
2.0
 40
3.0
 40
3.0
 40
3.0
 40
4.0
 40
4.0
 40
4.0
 40
4.0
 10
96.99871942019489
 20
-136.2707530214879
 30
0.0
 10
96.99871942019489
 20
-136.2156138548349
 30
0.0
 10
96.95394947094313
 20
-136.1708463548463
 30
0.0
 10
96.89881030568317
 20
-136.1708463548463
 30
0.0
 10
96.84300086266255
 20
-136.1708463548463
 30
0.0
 10
96.79823336380466
 20
-136.2156138548349
 30
0.0
 10
96.79823336380466
 20
-136.2707530214879
 30
0.0
 10
96.79823336380466
 20
-136.3258569103628
 30
0.0
 10
96.84300086266255
 20
-136.3706596881296
 30
0.0
 10
96.89881030568317
 20
-136.3706596881296
 30
0.0
 10
96.95394947094313
 20
-136.3706596881296
 30
0.0
 10
96.99871942019489
 20
-136.3258569103628
 30
0.0
 10
96.99871942019489
 20
-136.2707530214879
 30
0.0
  0
POLYLINE
  5
84
330
1F
100
AcDbEntity
  8
_U+30EC_U+30A4_U+30E4_U+30FC 1
 62
   179
420
  2234388
370
     9
100
AcDb2dPolyline
 66
     1
 10
0.0
 20
0.0
 30
0.0
  0
VERTEX
  5
85
330
84
100
AcDbEntity
  8
_U+30EC_U+30A4_U+30E4_U+30FC 1
 62
   179
420
  2234388
370
     9
100
AcDbVertex
100
AcDb2dVertex
 10
107.8983153028402
 20
-140.9705644092018
 30
0.0
  0
VERTEX
  5
86
330
84
100
AcDbEntity
  8
_U+30EC_U+30A4_U+30E4_U+30FC 1
 62
   179
420
  2234388
370
     9
100
AcDbVertex
100
AcDb2dVertex
 10
107.8983153028402
 20
-146.2284702412207
 30
0.0
  0
SEQEND
  5
87
330
84
100
AcDbEntity
  8
_U+30EC_U+30A4_U+30E4_U+30FC 1
 62
   179
420
  2234388
370
     9
  0
POLYLINE
  5
88
330
1F
100
AcDbEntity
  8
_U+30EC_U+30A4_U+30E4_U+30FC 1
 62
   179
420
  2234388
370
     9
100
AcDb2dPolyline
 66
     1
 10
0.0
 20
0.0
 30
0.0
  0
VERTEX
  5
89
330
88
100
AcDbEntity
  8
_U+30EC_U+30A4_U+30E4_U+30FC 1
 62
   179
420
  2234388
370
     9
100
AcDbVertex
100
AcDb2dVertex
 10
107.8983153028402
 20
-140.9705644092018
 30
0.0
  0
VERTEX
  5
8A
330
88
100
AcDbEntity
  8
_U+30EC_U+30A4_U+30E4_U+30FC 1
 62
   179
420
  2234388
370
     9
100
AcDbVertex
100
AcDb2dVertex
 10
107.8983153028402
 20
-139.2707399651823
 30
0.0
  0
SEQEND
  5
8B
330
88
100
AcDbEntity
  8
_U+30EC_U+30A4_U+30E4_U+30FC 1
 62
   179
420
  2234388
370
     9
  0
POLYLINE
  5
8C
330
1F
100
AcDbEntity
  8
_U+30EC_U+30A4_U+30E4_U+30FC 1
 62
   179
420
  2234388
370
     9
100
AcDb2dPolyline
 66
     1
 10
0.0
 20
0.0
 30
0.0
  0
VERTEX
  5
8D
330
8C
100
AcDbEntity
  8
_U+30EC_U+30A4_U+30E4_U+30FC 1
 62
   179
420
  2234388
370
     9
100
AcDbVertex
100
AcDb2dVertex
 10
106.4382739512001
 20
-140.9705644092018
 30
0.0
  0
VERTEX
  5
8E
330
8C
100
AcDbEntity
  8
_U+30EC_U+30A4_U+30E4_U+30FC 1
 62
   179
420
  2234388
370
     9
100
AcDbVertex
100
AcDb2dVertex
 10
108.8987930550937
 20
-140.9705644092018
 30
0.0
  0
SEQEND
  5
8F
330
8C
100
AcDbEntity
  8
_U+30EC_U+30A4_U+30E4_U+30FC 1
 62
   179
420
  2234388
370
     9
  0
POLYLINE
  5
90
330
1F
100
AcDbEntity
  8
_U+30EC_U+30A4_U+30E4_U+30FC 1
 62
   179
420
  2234388
370
     9
100
AcDb2dPolyline
 66
     1
 10
0.0
 20
0.0
 30
0.0
  0
VERTEX
  5
91
330
90
100
AcDbEntity
  8
_U+30EC_U+30A4_U+30E4_U+30FC 1
 62
   179
420
  2234388
370
     9
100
AcDbVertex
100
AcDb2dVertex
 10
106.184027013242
 20
-140.2705121871548
 30
0.0
  0
VERTEX
  5
92
330
90
100
AcDbEntity
  8
_U+30EC_U+30A4_U+30E4_U+30FC 1
 62
   179
420
  2234388
370
     9
100
AcDbVertex
100
AcDb2dVertex
 10
108.8987930550937
 20
-140.2705121871548
 30
0.0
  0
SEQEND
  5
93
330
90
100
AcDbEntity
  8
_U+30EC_U+30A4_U+30E4_U+30FC 1
 62
   179
420
  2234388
370
     9
  0
INSERT
  5
95
330
1F
100
AcDbEntity
  8
_U+30EC_U+30A4_U+30E4_U+30FC 1
100
AcDbBlockReference
  2
block 2
 10
0.0
 20
0.0
 30
0.0
  0
POLYLINE
  5
A5
330
1F
100
AcDbEntity
  8
_U+30EC_U+30A4_U+30E4_U+30FC 1
 62
   179
420
  2234388
370
     9
100
AcDb2dPolyline
 66
     1
 10
0.0
 20
0.0
 30
0.0
  0
VERTEX
  5
A6
330
A5
100
AcDbEntity
  8
_U+30EC_U+30A4_U+30E4_U+30FC 1
 62
   179
420
  2234388
370
     9
100
AcDbVertex
100
AcDb2dVertex
 10
80.89857460277209
 20
-144.970993852646
 30
0.0
  0
VERTEX
  5
A7
330
A5
100
AcDbEntity
  8
_U+30EC_U+30A4_U+30E4_U+30FC 1
 62
   179
420
  2234388
370
     9
100
AcDbVertex
100
AcDb2dVertex
 10
103.8985562382159
 20
-144.970993852646
 30
0.0
  0
SEQEND
  5
A8
330
A5
100
AcDbEntity
  8
_U+30EC_U+30A4_U+30E4_U+30FC 1
 62
   179
420
  2234388
370
     9
  0
POLYLINE
  5
A9
330
1F
100
AcDbEntity
  8
_U+30EC_U+30A4_U+30E4_U+30FC 1
 62
   179
420
  2234388
370
     9
100
AcDb2dPolyline
 66
     1
 10
0.0
 20
0.0
 30
0.0
  0
VERTEX
  5
AA
330
A9
100
AcDbEntity
  8
_U+30EC_U+30A4_U+30E4_U+30FC 1
 62
   179
420
  2234388
370
     9
100
AcDbVertex
100
AcDb2dVertex
 10
80.89857460277209
 20
-143.5109524641223
 30
0.0
  0
VERTEX
  5
AB
330
A9
100
AcDbEntity
  8
_U+30EC_U+30A4_U+30E4_U+30FC 1
 62
   179
420
  2234388
370
     9
100
AcDbVertex
100
AcDb2dVertex
 10
80.89857460277209
 20
-145.9707660746186
 30
0.0
  0
SEQEND
  5
AC
330
A9
100
AcDbEntity
  8
_U+30EC_U+30A4_U+30E4_U+30FC 1
 62
   179
420
  2234388
370
     9
  0
POLYLINE
  5
AD
330
1F
100
AcDbEntity
  8
_U+30EC_U+30A4_U+30E4_U+30FC 1
 62
   179
420
  2234388
370
     9
100
AcDb2dPolyline
 66
     1
 10
0.0
 20
0.0
 30
0.0
  0
VERTEX
  5
AE
330
AD
100
AcDbEntity
  8
_U+30EC_U+30A4_U+30E4_U+30FC 1
 62
   179
420
  2234388
370
     9
100
AcDbVertex
100
AcDb2dVertex
 10
103.8985562382159
 20
-143.5109524641223
 30
0.0
  0
VERTEX
  5
AF
330
AD
100
AcDbEntity
  8
_U+30EC_U+30A4_U+30E4_U+30FC 1
 62
   179
420
  2234388
370
     9
100
AcDbVertex
100
AcDb2dVertex
 10
103.8985562382159
 20
-145.9707660746186
 30
0.0
  0
SEQEND
  5
B0
330
AD
100
AcDbEntity
  8
_U+30EC_U+30A4_U+30E4_U+30FC 1
 62
   179
420
  2234388
370
     9
  0
INSERT
  5
B2
330
1F
100
AcDbEntity
  8
_U+30EC_U+30A4_U+30E4_U+30FC 1
100
AcDbBlockReference
  2
block 3
 10
0.0
 20
0.0
 30
0.0
  0
POLYLINE
  5
B9
330
1F
100
AcDbEntity
  8
_U+30EC_U+30A4_U+30E4_U+30FC 1
 62
   179
420
  2234388
370
     9
100
AcDb2dPolyline
 66
     1
 10
0.0
 20
0.0
 30
0.0
  0
VERTEX
  5
BA
330
B9
100
AcDbEntity
  8
_U+30EC_U+30A4_U+30E4_U+30FC 1
 62
   179
420
  2234388
370
     9
100
AcDbVertex
100
AcDb2dVertex
 10
92.898383310109
 20
-113.396712471651
 30
0.0
  0
VERTEX
  5
BB
330
B9
100
AcDbEntity
  8
_U+30EC_U+30A4_U+30E4_U+30FC 1
 62
   179
420
  2234388
370
     9
100
AcDbVertex
100
AcDb2dVertex
 10
80.89857460277209
 20
-113.396712471651
 30
0.0
  0
SEQEND
  5
BC
330
B9
100
AcDbEntity
  8
_U+30EC_U+30A4_U+30E4_U+30FC 1
 62
   179
420
  2234388
370
     9
  0
POLYLINE
  5
BD
330
1F
100
AcDbEntity
  8
_U+30EC_U+30A4_U+30E4_U+30FC 1
 62
   179
420
  2234388
370
     9
100
AcDb2dPolyline
 66
     1
 10
0.0
 20
0.0
 30
0.0
  0
VERTEX
  5
BE
330
BD
100
AcDbEntity
  8
_U+30EC_U+30A4_U+30E4_U+30FC 1
 62
   179
420
  2234388
370
     9
100
AcDbVertex
100
AcDb2dVertex
 10
92.898383310109
 20
-115.8571963599246
 30
0.0
  0
VERTEX
  5
BF
330
BD
100
AcDbEntity
  8
_U+30EC_U+30A4_U+30E4_U+30FC 1
 62
   179
420
  2234388
370
     9
100
AcDbVertex
100
AcDb2dVertex
 10
92.898383310109
 20
-112.3969402496784
 30
0.0
  0
SEQEND
  5
C0
330
BD
100
AcDbEntity
  8
_U+30EC_U+30A4_U+30E4_U+30FC 1
 62
   179
420
  2234388
370
     9
  0
POLYLINE
  5
C1
330
1F
100
AcDbEntity
  8
_U+30EC_U+30A4_U+30E4_U+30FC 1
 62
   179
420
  2234388
370
     9
100
AcDb2dPolyline
 66
     1
 10
0.0
 20
0.0
 30
0.0
  0
VERTEX
  5
C2
330
C1
100
AcDbEntity
  8
_U+30EC_U+30A4_U+30E4_U+30FC 1
 62
   179
420
  2234388
370
     9
100
AcDbVertex
100
AcDb2dVertex
 10
80.89857460277209
 20
-115.8571963599246
 30
0.0
  0
VERTEX
  5
C3
330
C1
100
AcDbEntity
  8
_U+30EC_U+30A4_U+30E4_U+30FC 1
 62
   179
420
  2234388
370
     9
100
AcDbVertex
100
AcDb2dVertex
 10
80.89857460277209
 20
-112.3969402496784
 30
0.0
  0
SEQEND
  5
C4
330
C1
100
AcDbEntity
  8
_U+30EC_U+30A4_U+30E4_U+30FC 1
 62
   179
420
  2234388
370
     9
  0
INSERT
  5
C6
330
1F
100
AcDbEntity
  8
_U+30EC_U+30A4_U+30E4_U+30FC 1
100
AcDbBlockReference
  2
block 4
 10
0.0
 20
0.0
 30
0.0
  0
POLYLINE
  5
CD
330
1F
100
AcDbEntity
  8
_U+30EC_U+30A4_U+30E4_U+30FC 1
 62
   179
420
  2234388
370
     9
100
AcDb2dPolyline
 66
     1
 10
0.0
 20
0.0
 30
0.0
  0
VERTEX
  5
CE
330
CD
100
AcDbEntity
  8
_U+30EC_U+30A4_U+30E4_U+30FC 1
 62
   179
420
  2234388
370
     9
100
AcDbVertex
100
AcDb2dVertex
 10
76.89849998077523
 20
-118.4706446926045
 30
0.0
  0
VERTEX
  5
CF
330
CD
100
AcDbEntity
  8
_U+30EC_U+30A4_U+30E4_U+30FC 1
 62
   179
420
  2234388
370
     9
100
AcDbVertex
100
AcDb2dVertex
 10
76.89849998077523
 20
-139.9707921872293
 30
0.0
  0
SEQEND
  5
D0
330
CD
100
AcDbEntity
  8
_U+30EC_U+30A4_U+30E4_U+30FC 1
 62
   179
420
  2234388
370
     9
  0
POLYLINE
  5
D1
330
1F
100
AcDbEntity
  8
_U+30EC_U+30A4_U+30E4_U+30FC 1
 62
   179
420
  2234388
370
     9
100
AcDb2dPolyline
 66
     1
 10
0.0
 20
0.0
 30
0.0
  0
VERTEX
  5
D2
330
D1
100
AcDbEntity
  8
_U+30EC_U+30A4_U+30E4_U+30FC 1
 62
   179
420
  2234388
370
     9
100
AcDbVertex
100
AcDb2dVertex
 10
78.35853938979601
 20
-118.3528169148562
 30
0.0
  0
VERTEX
  5
D3
330
D1
100
AcDbEntity
  8
_U+30EC_U+30A4_U+30E4_U+30FC 1
 62
   179
420
  2234388
370
     9
100
AcDbVertex
100
AcDb2dVertex
 10
75.898727758803
 20
-118.3528169148562
 30
0.0
  0
SEQEND
  5
D4
330
D1
100
AcDbEntity
  8
_U+30EC_U+30A4_U+30E4_U+30FC 1
 62
   179
420
  2234388
370
     9
  0
POLYLINE
  5
D5
330
1F
100
AcDbEntity
  8
_U+30EC_U+30A4_U+30E4_U+30FC 1
 62
   179
420
  2234388
370
     9
100
AcDb2dPolyline
 66
     1
 10
0.0
 20
0.0
 30
0.0
  0
VERTEX
  5
D6
330
D5
100
AcDbEntity
  8
_U+30EC_U+30A4_U+30E4_U+30FC 1
 62
   179
420
  2234388
370
     9
100
AcDbVertex
100
AcDb2dVertex
 10
78.72232382495953
 20
-139.9707921872293
 30
0.0
  0
VERTEX
  5
D7
330
D5
100
AcDbEntity
  8
_U+30EC_U+30A4_U+30E4_U+30FC 1
 62
   179
420
  2234388
370
     9
100
AcDbVertex
100
AcDb2dVertex
 10
75.898727758803
 20
-139.9707921872293
 30
0.0
  0
SEQEND
  5
D8
330
D5
100
AcDbEntity
  8
_U+30EC_U+30A4_U+30E4_U+30FC 1
 62
   179
420
  2234388
370
     9
  0
INSERT
  5
DA
330
1F
100
AcDbEntity
  8
_U+30EC_U+30A4_U+30E4_U+30FC 1
100
AcDbBlockReference
  2
block 5
 10
0.0
 20
0.0
 30
0.0
  0
POLYLINE
  5
EB
330
1F
100
AcDbEntity
  8
_U+30EC_U+30A4_U+30E4_U+30FC 1
 62
   179
420
  2234388
370
     9
100
AcDb2dPolyline
 66
     1
 10
0.0
 20
0.0
 30
0.0
  0
VERTEX
  5
EC
330
EB
100
AcDbEntity
  8
_U+30EC_U+30A4_U+30E4_U+30FC 1
 62
   179
420
  2234388
370
     9
100
AcDbVertex
100
AcDb2dVertex
 10
76.89849998077523
 20
-140.9705644092018
 30
0.0
  0
VERTEX
  5
ED
330
EB
100
AcDbEntity
  8
_U+30EC_U+30A4_U+30E4_U+30FC 1
 62
   179
420
  2234388
370
     9
100
AcDbVertex
100
AcDb2dVertex
 10
76.89849998077523
 20
-144.7408769082592
 30
0.0
  0
SEQEND
  5
EE
330
EB
100
AcDbEntity
  8
_U+30EC_U+30A4_U+30E4_U+30FC 1
 62
   179
420
  2234388
370
     9
  0
POLYLINE
  5
EF
330
1F
100
AcDbEntity
  8
_U+30EC_U+30A4_U+30E4_U+30FC 1
 62
   179
420
  2234388
370
     9
100
AcDb2dPolyline
 66
     1
 10
0.0
 20
0.0
 30
0.0
  0
VERTEX
  5
F0
330
EF
100
AcDbEntity
  8
_U+30EC_U+30A4_U+30E4_U+30FC 1
 62
   179
420
  2234388
370
     9
100
AcDbVertex
100
AcDb2dVertex
 10
76.89849998077523
 20
-139.9707921872293
 30
0.0
  0
VERTEX
  5
F1
330
EF
100
AcDbEntity
  8
_U+30EC_U+30A4_U+30E4_U+30FC 1
 62
   179
420
  2234388
370
     9
100
AcDbVertex
100
AcDb2dVertex
 10
76.89849998077523
 20
-140.9705644092018
 30
0.0
  0
SEQEND
  5
F2
330
EF
100
AcDbEntity
  8
_U+30EC_U+30A4_U+30E4_U+30FC 1
 62
   179
420
  2234388
370
     9
  0
POLYLINE
  5
F3
330
1F
100
AcDbEntity
  8
_U+30EC_U+30A4_U+30E4_U+30FC 1
 62
   179
420
  2234388
370
     9
100
AcDb2dPolyline
 66
     1
 10
0.0
 20
0.0
 30
0.0
  0
VERTEX
  5
F4
330
F3
100
AcDbEntity
  8
_U+30EC_U+30A4_U+30E4_U+30FC 1
 62
   179
420
  2234388
370
     9
100
AcDbVertex
100
AcDb2dVertex
 10
78.35853938979601
 20
-140.9705644092018
 30
0.0
  0
VERTEX
  5
F5
330
F3
100
AcDbEntity
  8
_U+30EC_U+30A4_U+30E4_U+30FC 1
 62
   179
420
  2234388
370
     9
100
AcDbVertex
100
AcDb2dVertex
 10
75.898727758803
 20
-140.9705644092018
 30
0.0
  0
SEQEND
  5
F6
330
F3
100
AcDbEntity
  8
_U+30EC_U+30A4_U+30E4_U+30FC 1
 62
   179
420
  2234388
370
     9
  0
INSERT
  5
F8
330
1F
100
AcDbEntity
  8
_U+30EC_U+30A4_U+30E4_U+30FC 1
100
AcDbBlockReference
  2
block 6
 10
0.0
 20
0.0
 30
0.0
  0
POLYLINE
  5
FD
330
1F
100
AcDbEntity
  8
_U+30EC_U+30A4_U+30E4_U+30FC 1
 62
   179
420
  2234388
370
     9
100
AcDb2dPolyline
 66
     1
 10
0.0
 20
0.0
 30
0.0
  0
VERTEX
  5
FE
330
FD
100
AcDbEntity
  8
_U+30EC_U+30A4_U+30E4_U+30FC 1
 62
   179
420
  2234388
370
     9
100
AcDbVertex
100
AcDb2dVertex
 10
96.89881030568317
 20
-136.2707530214879
 30
0.0
  0
VERTEX
  5
FF
330
FD
100
AcDbEntity
  8
_U+30EC_U+30A4_U+30E4_U+30FC 1
 62
   179
420
  2234388
370
     9
100
AcDbVertex
100
AcDb2dVertex
 10
103.8985562382159
 20
-136.2707530214879
 30
0.0
  0
SEQEND
  5
100
330
FD
100
AcDbEntity
  8
_U+30EC_U+30A4_U+30E4_U+30FC 1
 62
   179
420
  2234388
370
     9
  0
POLYLINE
  5
101
330
1F
100
AcDbEntity
  8
_U+30EC_U+30A4_U+30E4_U+30FC 1
 62
   179
420
  2234388
370
     9
100
AcDb2dPolyline
 66
     1
 10
0.0
 20
0.0
 30
0.0
  0
VERTEX
  5
102
330
101
100
AcDbEntity
  8
_U+30EC_U+30A4_U+30E4_U+30FC 1
 62
   179
420
  2234388
370
     9
100
AcDbVertex
100
AcDb2dVertex
 10
96.89881030568317
 20
-137.4310744100867
 30
0.0
  0
VERTEX
  5
103
330
101
100
AcDbEntity
  8
_U+30EC_U+30A4_U+30E4_U+30FC 1
 62
   179
420
  2234388
370
     9
100
AcDbVertex
100
AcDb2dVertex
 10
96.89881030568317
 20
-135.2709807995154
 30
0.0
  0
SEQEND
  5
104
330
101
100
AcDbEntity
  8
_U+30EC_U+30A4_U+30E4_U+30FC 1
 62
   179
420
  2234388
370
     9
  0
POLYLINE
  5
105
330
1F
100
AcDbEntity
  8
_U+30EC_U+30A4_U+30E4_U+30FC 1
 62
   179
420
  2234388
370
     9
100
AcDb2dPolyline
 66
     1
 10
0.0
 20
0.0
 30
0.0
  0
VERTEX
  5
106
330
105
100
AcDbEntity
  8
_U+30EC_U+30A4_U+30E4_U+30FC 1
 62
   179
420
  2234388
370
     9
100
AcDbVertex
100
AcDb2dVertex
 10
103.8985562382159
 20
-138.4308113542811
 30
0.0
  0
VERTEX
  5
107
330
105
100
AcDbEntity
  8
_U+30EC_U+30A4_U+30E4_U+30FC 1
 62
   179
420
  2234388
370
     9
100
AcDbVertex
100
AcDb2dVertex
 10
103.8985562382159
 20
-135.2709807995154
 30
0.0
  0
SEQEND
  5
108
330
105
100
AcDbEntity
  8
_U+30EC_U+30A4_U+30E4_U+30FC 1
 62
   179
420
  2234388
370
     9
  0
INSERT
  5
10A
330
1F
100
AcDbEntity
  8
_U+30EC_U+30A4_U+30E4_U+30FC 1
100
AcDbBlockReference
  2
block 7
 10
0.0
 20
0.0
 30
0.0
  0
ENDSEC
  0
SECTION
  2
OBJECTS
  0
DICTIONARY
  5
C
330
0
100
AcDbDictionary
281
     1
  3
ACAD_GROUP
350
D
  3
ACAD_LAYOUT
350
1A
  3
ACAD_MATERIAL
350
3B
  3
ACAD_MLEADERSTYLE
350
110
  3
ACAD_MLINESTYLE
350
17
  3
ACAD_PLOTSETTINGS
350
19
  3
ACAD_PLOTSTYLENAME
350
E
  3
ACAD_TABLESTYLE
350
10F
  3
ACAD_VISUALSTYLE
350
2A
  0
SUN
  5
3F
330
29
100
AcDbSun
 90
        1
290
     0
 63
     7
421
 16777215
 40
1.0
291
     1
 91
  2455826
 92
 54000000
292
     0
 70
     2
 71
   256
280
     1
  0
DICTIONARY
  5
D
102
{ACAD_REACTORS
330
C
102
}
330
C
100
AcDbDictionary
281
     1
  0
DICTIONARY
  5
1A
102
{ACAD_REACTORS
330
C
102
}
330
C
100
AcDbDictionary
281
     1
  3
Layout1
350
1E
  3
Layout2
350
26
  3
Model
350
22
  0
DICTIONARY
  5
3B
102
{ACAD_REACTORS
330
C
102
}
330
C
100
AcDbDictionary
281
     1
  3
ByBlock
350
3D
  3
ByLayer
350
3C
  3
Global
350
3E
  0
DICTIONARY
  5
110
102
{ACAD_REACTORS
330
C
102
}
330
C
100
AcDbDictionary
281
     1
  0
DICTIONARY
  5
17
102
{ACAD_REACTORS
330
C
102
}
330
C
100
AcDbDictionary
281
     1
  3
Standard
350
18
  0
DICTIONARY
  5
19
102
{ACAD_REACTORS
330
C
102
}
330
C
100
AcDbDictionary
281
     1
  0
ACDBDICTIONARYWDFLT
  5
E
102
{ACAD_REACTORS
330
C
102
}
330
C
100
AcDbDictionary
281
     1
  3
Normal
350
F
100
AcDbDictionaryWithDefault
340
F
  0
DICTIONARY
  5
10F
102
{ACAD_REACTORS
330
C
102
}
330
C
100
AcDbDictionary
281
     1
  0
DICTIONARY
  5
2A
102
{ACAD_REACTORS
330
C
102
}
330
C
100
AcDbDictionary
281
     1
  3
2dWireframe
350
2F
  3
3D Hidden
350
31
  3
3dWireframe
350
30
  3
Basic
350
32
  3
Brighten
350
36
  3
ColorChange
350
3A
  3
Conceptual
350
34
  3
Dim
350
35
  3
Facepattern
350
39
  3
Flat
350
2B
  3
FlatWithEdges
350
2C
  3
Gouraud
350
2D
  3
GouraudWithEdges
350
2E
  3
Linepattern
350
38
  3
Realistic
350
33
  3
Thicken
350
37
  0
LAYOUT
  5
1E
102
{ACAD_REACTORS
330
1A
102
}
330
1A
100
AcDbPlotSettings
  1

  2
none_device
  4

  6

 40
0.0
 41
0.0
 42
0.0
 43
0.0
 44
0.0
 45
0.0
 46
0.0
 47
0.0
 48
0.0
 49
0.0
140
0.0
141
0.0
142
1.0
143
1.0
 70
   688
 72
     0
 73
     0
 74
     5
  7

 75
    16
 76
     0
 77
     2
 78
   300
147
1.0
148
0.0
149
0.0
100
AcDbLayout
  1
Layout1
 70
     1
 71
     1
 10
0.0
 20
0.0
 11
12.0
 21
9.0
 12
0.0
 22
0.0
 32
0.0
 14
1.000000000000000E+20
 24
1.000000000000000E+20
 34
1.000000000000000E+20
 15
-1.000000000000000E+20
 25
-1.000000000000000E+20
 35
-1.000000000000000E+20
146
0.0
 13
0.0
 23
0.0
 33
0.0
 16
1.0
 26
0.0
 36
0.0
 17
0.0
 27
1.0
 37
0.0
 76
     0
330
1B
  0
LAYOUT
  5
26
102
{ACAD_REACTORS
330
1A
102
}
330
1A
100
AcDbPlotSettings
  1

  2
none_device
  4

  6

 40
0.0
 41
0.0
 42
0.0
 43
0.0
 44
0.0
 45
0.0
 46
0.0
 47
0.0
 48
0.0
 49
0.0
140
0.0
141
0.0
142
1.0
143
1.0
 70
   688
 72
     0
 73
     0
 74
     5
  7

 75
    16
 76
     0
 77
     2
 78
   300
147
1.0
148
0.0
149
0.0
100
AcDbLayout
  1
Layout2
 70
     1
 71
     2
 10
0.0
 20
0.0
 11
0.0
 21
0.0
 12
0.0
 22
0.0
 32
0.0
 14
0.0
 24
0.0
 34
0.0
 15
0.0
 25
0.0
 35
0.0
146
0.0
 13
0.0
 23
0.0
 33
0.0
 16
1.0
 26
0.0
 36
0.0
 17
0.0
 27
1.0
 37
0.0
 76
     0
330
23
  0
LAYOUT
  5
22
102
{ACAD_REACTORS
330
1A
102
}
330
1A
100
AcDbPlotSettings
  1

  2
none_device
  4

  6

 40
0.0
 41
0.0
 42
0.0
 43
0.0
 44
0.0
 45
0.0
 46
0.0
 47
0.0
 48
0.0
 49
0.0
140
0.0
141
0.0
142
1.0
143
1.0
 70
  1712
 72
     0
 73
     0
 74
     0
  7

 75
     0
 76
     0
 77
     2
 78
   300
147
1.0
148
0.0
149
0.0
100
AcDbLayout
  1
Model
 70
     1
 71
     0
 10
0.0
 20
0.0
 11
12.0
 21
9.0
 12
0.0
 22
0.0
 32
0.0
 14
1.000000000000000E+20
 24
1.000000000000000E+20
 34
1.000000000000000E+20
 15
-1.000000000000000E+20
 25
-1.000000000000000E+20
 35
-1.000000000000000E+20
146
0.0
 13
0.0
 23
0.0
 33
0.0
 16
1.0
 26
0.0
 36
0.0
 17
0.0
 27
1.0
 37
0.0
 76
     0
330
1F
331
29
  0
MATERIAL
  5
3D
102
{ACAD_REACTORS
330
3B
102
}
330
3B
100
AcDbMaterial
  1
ByBlock
 72
     1
 94
      127
  0
MATERIAL
  5
3C
102
{ACAD_REACTORS
330
3B
102
}
330
3B
100
AcDbMaterial
  1
ByLayer
 72
     1
 94
      127
  0
MATERIAL
  5
3E
102
{ACAD_REACTORS
330
3B
102
}
330
3B
100
AcDbMaterial
  1
Global
 72
     1
 94
      127
  0
MLINESTYLE
  5
18
102
{ACAD_REACTORS
330
17
102
}
330
17
100
AcDbMlineStyle
  2
Standard
 70
     0
  3

 62
   256
 51
90.0
 52
90.0
 71
     2
 49
0.5
 62
   256
  6
BYLAYER
 49
-0.5
 62
   256
  6
BYLAYER
  0
ACDBPLACEHOLDER
  5
F
102
{ACAD_REACTORS
330
E
102
}
330
E
  0
VISUALSTYLE
  5
2F
102
{ACAD_REACTORS
330
2A
102
}
330
2A
100
AcDbVisualStyle
  2
2dWireframe
 70
     4
177
     2
291
     0
 71
     0
176
     1
 72
     2
176
     1
 73
     0
176
     1
 90
        0
176
     1
 40
-0.6
176
     1
 41
-30.0
176
     1
 62
     5
 63
     7
421
 16777215
176
     1
 74
     1
176
     1
 91
        4
176
     1
 64
     7
176
     1
 65
   257
176
     1
 75
     1
176
     1
175
     1
176
     1
 42
1.0
176
     1
 92
        0
176
     1
 66
   257
176
     1
 43
1.0
176
     1
 76
     1
176
     1
 77
     6
176
     1
 78
     2
176
     1
 67
     7
176
     1
 79
     5
176
     1
170
     0
176
     1
171
     0
176
     1
290
     0
176
     1
 93
        1
176
     1
 44
0.0
176
     1
173
     0
176
     1
  0
VISUALSTYLE
  5
31
102
{ACAD_REACTORS
330
2A
102
}
330
2A
100
AcDbVisualStyle
  2
3D Hidden
 70
     6
177
     2
291
     0
 71
     1
176
     1
 72
     2
176
     1
 73
     2
176
     1
 90
        0
176
     1
 40
-0.6
176
     1
 41
-30.0
176
     1
 62
     5
 63
     7
421
 16777215
176
     1
 74
     2
176
     1
 91
        2
176
     1
 64
     7
176
     1
 65
   257
176
     1
 75
     2
176
     1
175
     1
176
     1
 42
40.0
176
     1
 92
        0
176
     1
 66
   257
176
     1
 43
1.0
176
     1
 76
     1
176
     1
 77
     6
176
     1
 78
     2
176
     1
 67
     7
176
     1
 79
     3
176
     1
170
     0
176
     1
171
     0
176
     1
290
     0
176
     1
 93
        1
176
     1
 44
0.0
176
     1
173
     0
176
     1
  0
VISUALSTYLE
  5
30
102
{ACAD_REACTORS
330
2A
102
}
330
2A
100
AcDbVisualStyle
  2
3dWireframe
 70
     5
177
     2
291
     0
 71
     0
176
     1
 72
     2
176
     1
 73
     0
176
     1
 90
        0
176
     1
 40
-0.6
176
     1
 41
-30.0
176
     1
 62
     5
 63
     7
421
 16777215
176
     1
 74
     1
176
     1
 91
        4
176
     1
 64
     7
176
     1
 65
   257
176
     1
 75
     1
176
     1
175
     1
176
     1
 42
1.0
176
     1
 92
        0
176
     1
 66
   257
176
     1
 43
1.0
176
     1
 76
     1
176
     1
 77
     6
176
     1
 78
     2
176
     1
 67
     7
176
     1
 79
     5
176
     1
170
     0
176
     1
171
     0
176
     1
290
     0
176
     1
 93
        1
176
     1
 44
0.0
176
     1
173
     0
176
     1
  0
VISUALSTYLE
  5
32
102
{ACAD_REACTORS
330
2A
102
}
330
2A
100
AcDbVisualStyle
  2
Basic
 70
     7
177
     2
291
     1
 71
     1
176
     1
 72
     0
176
     1
 73
     1
176
     1
 90
        0
176
     1
 40
-0.6
176
     1
 41
-30.0
176
     1
 62
     5
 63
     7
421
 16777215
176
     1
 74
     0
176
     1
 91
        4
176
     1
 64
     7
176
     1
 65
   257
176
     1
 75
     1
176
     1
175
     1
176
     1
 42
1.0
176
     1
 92
        8
176
     1
 66
     7
176
     1
 43
1.0
176
     1
 76
     1
176
     1
 77
     6
176
     1
 78
     2
176
     1
 67
     7
176
     1
 79
     5
176
     1
170
     0
176
     1
171
     0
176
     1
290
     0
176
     1
 93
        1
176
     1
 44
0.0
176
     1
173
     0
176
     1
  0
VISUALSTYLE
  5
36
102
{ACAD_REACTORS
330
2A
102
}
330
2A
100
AcDbVisualStyle
  2
Brighten
 70
    12
177
     2
291
     1
 71
     2
176
     1
 72
     2
176
     1
 73
     0
176
     1
 90
        0
176
     1
 40
-0.6
176
     1
 41
-30.0
176
     1
 62
     5
 63
     7
421
 16777215
176
     1
 74
     1
176
     1
 91
        4
176
     1
 64
     7
176
     1
 65
   257
176
     1
 75
     1
176
     1
175
     1
176
     1
 42
1.0
176
     1
 92
        8
176
     1
 66
     7
176
     1
 43
1.0
176
     1
 76
     1
176
     1
 77
     6
176
     1
 78
     2
176
     1
 67
     7
176
     1
 79
     5
176
     1
170
     0
176
     1
171
     0
176
     1
290
     0
176
     1
 93
        1
176
     1
 44
50.0
176
     1
173
     0
176
     1
  0
VISUALSTYLE
  5
3A
102
{ACAD_REACTORS
330
2A
102
}
330
2A
100
AcDbVisualStyle
  2
ColorChange
 70
    16
177
     2
291
     1
 71
     2
176
     1
 72
     2
176
     1
 73
     3
176
     1
 90
        0
176
     1
 40
-0.6
176
     1
 41
-30.0
176
     1
 62
     5
 63
     8
421
  8421504
176
     1
 74
     1
176
     1
 91
        4
176
     1
 64
     7
176
     1
 65
   257
176
     1
 75
     1
176
     1
175
     1
176
     1
 42
1.0
176
     1
 92
        8
176
     1
 66
     8
424
  8421504
176
     1
 43
1.0
176
     1
 76
     1
176
     1
 77
     6
176
     1
 78
     2
176
     1
 67
     7
176
     1
 79
     5
176
     1
170
     0
176
     1
171
     0
176
     1
290
     0
176
     1
 93
        1
176
     1
 44
0.0
176
     1
173
     0
176
     1
  0
VISUALSTYLE
  5
34
102
{ACAD_REACTORS
330
2A
102
}
330
2A
100
AcDbVisualStyle
  2
Conceptual
 70
     9
177
     2
291
     0
 71
     3
176
     1
 72
     2
176
     1
 73
     0
176
     1
 90
        0
176
     1
 40
-0.6
176
     1
 41
-30.0
176
     1
 62
     5
 63
     7
421
 16777215
176
     1
 74
     2
176
     1
 91
        2
176
     1
 64
     7
176
     1
 65
   257
176
     1
 75
     1
176
     1
175
     1
176
     1
 42
40.0
176
     1
 92
        8
176
     1
 66
     7
176
     1
 43
1.0
176
     1
 76
     1
176
     1
 77
     6
176
     1
 78
     2
176
     1
 67
     7
176
     1
 79
     3
176
     1
170
     0
176
     1
171
     0
176
     1
290
     0
176
     1
 93
        1
176
     1
 44
0.0
176
     1
173
     0
176
     1
  0
VISUALSTYLE
  5
35
102
{ACAD_REACTORS
330
2A
102
}
330
2A
100
AcDbVisualStyle
  2
Dim
 70
    11
177
     2
291
     1
 71
     2
176
     1
 72
     2
176
     1
 73
     0
176
     1
 90
        0
176
     1
 40
-0.6
176
     1
 41
-30.0
176
     1
 62
     5
 63
     7
421
 16777215
176
     1
 74
     1
176
     1
 91
        4
176
     1
 64
     7
176
     1
 65
   257
176
     1
 75
     1
176
     1
175
     1
176
     1
 42
1.0
176
     1
 92
        8
176
     1
 66
     7
176
     1
 43
1.0
176
     1
 76
     1
176
     1
 77
     6
176
     1
 78
     2
176
     1
 67
     7
176
     1
 79
     5
176
     1
170
     0
176
     1
171
     0
176
     1
290
     0
176
     1
 93
        1
176
     1
 44
-50.0
176
     1
173
     0
176
     1
  0
VISUALSTYLE
  5
39
102
{ACAD_REACTORS
330
2A
102
}
330
2A
100
AcDbVisualStyle
  2
Facepattern
 70
    15
177
     2
291
     1
 71
     2
176
     1
 72
     2
176
     1
 73
     0
176
     1
 90
        0
176
     1
 40
-0.6
176
     1
 41
-30.0
176
     1
 62
     5
 63
     7
421
 16777215
176
     1
 74
     1
176
     1
 91
        4
176
     1
 64
     7
176
     1
 65
   257
176
     1
 75
     1
176
     1
175
     1
176
     1
 42
1.0
176
     1
 92
        8
176
     1
 66
     7
176
     1
 43
1.0
176
     1
 76
     1
176
     1
 77
     6
176
     1
 78
     2
176
     1
 67
     7
176
     1
 79
     5
176
     1
170
     0
176
     1
171
     0
176
     1
290
     0
176
     1
 93
        1
176
     1
 44
0.0
176
     1
173
     0
176
     1
  0
VISUALSTYLE
  5
2B
102
{ACAD_REACTORS
330
2A
102
}
330
2A
100
AcDbVisualStyle
  2
Flat
 70
     0
177
     2
291
     1
 71
     2
176
     1
 72
     1
176
     1
 73
     1
176
     1
 90
        2
176
     1
 40
-0.6
176
     1
 41
30.0
176
     1
 62
     5
 63
     7
421
 16777215
176
     1
 74
     0
176
     1
 91
        4
176
     1
 64
     7
176
     1
 65
   257
176
     1
 75
     1
176
     1
175
     1
176
     1
 42
1.0
176
     1
 92
        8
176
     1
 66
     7
176
     1
 43
1.0
176
     1
 76
     1
176
     1
 77
     6
176
     1
 78
     2
176
     1
 67
     7
176
     1
 79
     5
176
     1
170
     0
176
     1
171
     0
176
     1
290
     0
176
     1
 93
       13
176
     1
 44
0.0
176
     1
173
     0
176
     1
  0
VISUALSTYLE
  5
2C
102
{ACAD_REACTORS
330
2A
102
}
330
2A
100
AcDbVisualStyle
  2
FlatWithEdges
 70
     1
177
     2
291
     1
 71
     2
176
     1
 72
     1
176
     1
 73
     1
176
     1
 90
        2
176
     1
 40
-0.6
176
     1
 41
30.0
176
     1
 62
     5
 63
     7
421
 16777215
176
     1
 74
     1
176
     1
 91
        4
176
     1
 64
     7
176
     1
 65
   257
176
     1
 75
     1
176
     1
175
     1
176
     1
 42
1.0
176
     1
 92
        0
176
     1
 66
   257
176
     1
 43
1.0
176
     1
 76
     1
176
     1
 77
     6
176
     1
 78
     2
176
     1
 67
     7
176
     1
 79
     5
176
     1
170
     0
176
     1
171
     0
176
     1
290
     0
176
     1
 93
       13
176
     1
 44
0.0
176
     1
173
     0
176
     1
  0
VISUALSTYLE
  5
2D
102
{ACAD_REACTORS
330
2A
102
}
330
2A
100
AcDbVisualStyle
  2
Gouraud
 70
     2
177
     2
291
     1
 71
     2
176
     1
 72
     2
176
     1
 73
     1
176
     1
 90
        2
176
     1
 40
-0.6
176
     1
 41
30.0
176
     1
 62
     5
 63
     7
421
 16777215
176
     1
 74
     0
176
     1
 91
        4
176
     1
 64
     7
176
     1
 65
   257
176
     1
 75
     1
176
     1
175
     1
176
     1
 42
1.0
176
     1
 92
        0
176
     1
 66
     7
176
     1
 43
1.0
176
     1
 76
     1
176
     1
 77
     6
176
     1
 78
     2
176
     1
 67
     7
176
     1
 79
     5
176
     1
170
     0
176
     1
171
     0
176
     1
290
     0
176
     1
 93
       13
176
     1
 44
0.0
176
     1
173
     0
176
     1
  0
VISUALSTYLE
  5
2E
102
{ACAD_REACTORS
330
2A
102
}
330
2A
100
AcDbVisualStyle
  2
GouraudWithEdges
 70
     3
177
     2
291
     1
 71
     2
176
     1
 72
     2
176
     1
 73
     1
176
     1
 90
        2
176
     1
 40
-0.6
176
     1
 41
30.0
176
     1
 62
     5
 63
     7
421
 16777215
176
     1
 74
     1
176
     1
 91
        4
176
     1
 64
     7
176
     1
 65
   257
176
     1
 75
     1
176
     1
175
     1
176
     1
 42
1.0
176
     1
 92
        0
176
     1
 66
   257
176
     1
 43
1.0
176
     1
 76
     1
176
     1
 77
     6
176
     1
 78
     2
176
     1
 67
     7
176
     1
 79
     5
176
     1
170
     0
176
     1
171
     0
176
     1
290
     0
176
     1
 93
       13
176
     1
 44
0.0
176
     1
173
     0
176
     1
  0
VISUALSTYLE
  5
38
102
{ACAD_REACTORS
330
2A
102
}
330
2A
100
AcDbVisualStyle
  2
Linepattern
 70
    14
177
     2
291
     1
 71
     2
176
     1
 72
     2
176
     1
 73
     0
176
     1
 90
        0
176
     1
 40
-0.6
176
     1
 41
-30.0
176
     1
 62
     5
 63
     7
421
 16777215
176
     1
 74
     1
176
     1
 91
        4
176
     1
 64
     7
176
     1
 65
   257
176
     1
 75
     7
176
     1
175
     7
176
     1
 42
1.0
176
     1
 92
        8
176
     1
 66
     7
176
     1
 43
1.0
176
     1
 76
     1
176
     1
 77
     6
176
     1
 78
     2
176
     1
 67
     7
176
     1
 79
     5
176
     1
170
     0
176
     1
171
     0
176
     1
290
     0
176
     1
 93
        1
176
     1
 44
0.0
176
     1
173
     0
176
     1
  0
VISUALSTYLE
  5
33
102
{ACAD_REACTORS
330
2A
102
}
330
2A
100
AcDbVisualStyle
  2
Realistic
 70
     8
177
     2
291
     0
 71
     2
176
     1
 72
     2
176
     1
 73
     0
176
     1
 90
        0
176
     1
 40
-0.6
176
     1
 41
-30.0
176
     1
 62
     5
 63
     7
421
 16777215
176
     1
 74
     1
176
     1
 91
        0
176
     1
 64
     7
176
     1
 65
   257
176
     1
 75
     1
176
     1
175
     1
176
     1
 42
1.0
176
     1
 92
        8
176
     1
 66
     8
424
  7895160
176
     1
 43
1.0
176
     1
 76
     1
176
     1
 77
     6
176
     1
 78
     2
176
     1
 67
     7
176
     1
 79
     5
176
     1
170
     0
176
     1
171
     0
176
     1
290
     0
176
     1
 93
       13
176
     1
 44
0.0
176
     1
173
     0
176
     1
  0
VISUALSTYLE
  5
37
102
{ACAD_REACTORS
330
2A
102
}
330
2A
100
AcDbVisualStyle
  2
Thicken
 70
    13
177
     2
291
     1
 71
     2
176
     1
 72
     2
176
     1
 73
     0
176
     1
 90
        0
176
     1
 40
-0.6
176
     1
 41
-30.0
176
     1
 62
     5
 63
     7
421
 16777215
176
     1
 74
     1
176
     1
 91
        4
176
     1
 64
     7
176
     1
 65
   257
176
     1
 75
     1
176
     1
175
     1
176
     1
 42
1.0
176
     1
 92
       12
176
     1
 66
     7
176
     1
 43
1.0
176
     1
 76
     1
176
     1
 77
     6
176
     1
 78
     2
176
     1
 67
     7
176
     1
 79
     5
176
     1
170
     0
176
     1
171
     0
176
     1
290
     0
176
     1
 93
        1
176
     1
 44
0.0
176
     1
173
     0
176
     1
  0
ENDSEC
  0
EOF
