  0
SECTION
  2
HEADER
  9
$ACADVER
  1
AC1024
  9
$ACADMAINTVER
 70
     6
  9
$DWGCODEPAGE
  3
UNDEFINED
  9
$INSBASE
 10
0.0
 20
0.0
 30
0.0
  9
$EXTMIN
 10
1.000000000000000E+20
 20
1.000000000000000E+20
 30
1.000000000000000E+20
  9
$EXTMAX
 10
-1.000000000000000E+20
 20
-1.000000000000000E+20
 30
-1.000000000000000E+20
  9
$LIMMIN
 10
0.0
 20
0.0
  9
$LIMMAX
 10
12.0
 20
9.0
  9
$ORTHOMODE
 70
     0
  9
$REGENMODE
 70
     1
  9
$FILLMODE
 70
     1
  9
$QTEXTMODE
 70
     0
  9
$MIRRTEXT
 70
     1
  9
$LTSCALE
 40
1.0
  9
$ATTMODE
 70
     1
  9
$TEXTSIZE
 40
0.2
  9
$TRACEWID
 40
0.05
  9
$TEXTSTYLE
  7
Standard
  9
$CLAYER
  8
0
  9
$CELTYPE
  6
ByLayer
  9
$CECOLOR
 62
   256
  9
$CELTSCALE
 40
1.0
  9
$DISPSILH
 70
     0
  9
$DIMSCALE
 40
1.0
  9
$DIMASZ
 40
0.18
  9
$DIMEXO
 40
0.0625
  9
$DIMDLI
 40
0.38
  9
$DIMRND
 40
0.0
  9
$DIMDLE
 40
0.0
  9
$DIMEXE
 40
0.18
  9
$DIMTP
 40
0.0
  9
$DIMTM
 40
0.0
  9
$DIMTXT
 40
0.18
  9
$DIMCEN
 40
0.09
  9
$DIMTSZ
 40
0.0
  9
$DIMTOL
 70
     0
  9
$DIMLIM
 70
     0
  9
$DIMTIH
 70
     1
  9
$DIMTOH
 70
     1
  9
$DIMSE1
 70
     0
  9
$DIMSE2
 70
     0
  9
$DIMTAD
 70
     0
  9
$DIMZIN
 70
     0
  9
$DIMBLK
  1

  9
$DIMASO
 70
     1
  9
$DIMSHO
 70
     1
  9
$DIMPOST
  1

  9
$DIMAPOST
  1

  9
$DIMALT
 70
     0
  9
$DIMALTD
 70
     2
  9
$DIMALTF
 40
25.4
  9
$DIMLFAC
 40
1.0
  9
$DIMTOFL
 70
     0
  9
$DIMTVP
 40
0.0
  9
$DIMTIX
 70
     0
  9
$DIMSOXD
 70
     0
  9
$DIMSAH
 70
     0
  9
$DIMBLK1
  1

  9
$DIMBLK2
  1

  9
$DIMSTYLE
  2
Standard
  9
$DIMCLRD
 70
     0
  9
$DIMCLRE
 70
     0
  9
$DIMCLRT
 70
     0
  9
$DIMTFAC
 40
1.0
  9
$DIMGAP
 40
0.09
  9
$DIMJUST
 70
     0
  9
$DIMSD1
 70
     0
  9
$DIMSD2
 70
     0
  9
$DIMTOLJ
 70
     1
  9
$DIMTZIN
 70
     0
  9
$DIMALTZ
 70
     0
  9
$DIMALTTZ
 70
     0
  9
$DIMUPT
 70
     0
  9
$DIMDEC
 70
     4
  9
$DIMTDEC
 70
     4
  9
$DIMALTU
 70
     2
  9
$DIMALTTD
 70
     2
  9
$DIMTXSTY
  7
Standard
  9
$DIMAUNIT
 70
     0
  9
$DIMADEC
 70
     0
  9
$DIMALTRND
 40
0.0
  9
$DIMAZIN
 70
     0
  9
$DIMDSEP
 70
    46
  9
$DIMATFIT
 70
     3
  9
$DIMFRAC
 70
     0
  9
$DIMLDRBLK
  1

  9
$DIMLUNIT
 70
     2
  9
$DIMLWD
 70
    -2
  9
$DIMLWE
 70
    -2
  9
$DIMTMOVE
 70
     0
  9
$DIMFXL
 40
1.0
  9
$DIMFXLON
 70
     0
  9
$DIMJOGANG
 40
0.7853981633974483
  9
$DIMTFILL
 70
     0
  9
$DIMTFILLCLR
 70
     0
  9
$DIMARCSYM
 70
     0
  9
$DIMLTYPE
  6

  9
$DIMLTEX1
  6

  9
$DIMLTEX2
  6

  9
$DIMTXTDIRECTION
 70
     0
  9
$LUNITS
 70
     2
  9
$LUPREC
 70
     4
  9
$SKETCHINC
 40
0.1
  9
$FILLETRAD
 40
0.5
  9
$AUNITS
 70
     0
  9
$AUPREC
 70
     0
  9
$MENU
  1
.
  9
$ELEVATION
 40
0.0
  9
$PELEVATION
 40
0.0
  9
$THICKNESS
 40
0.0
  9
$LIMCHECK
 70
     0
  9
$CHAMFERA
 40
0.5
  9
$CHAMFERB
 40
0.5
  9
$CHAMFERC
 40
1.0
  9
$CHAMFERD
 40
0.0
  9
$SKPOLY
 70
     0
  9
$TDCREATE
 40
2457917.593425914
  9
$TDUCREATE
 40
2457917.218425926
  9
$TDUPDATE
 40
2457917.593425914
  9
$TDUUPDATE
 40
2457917.218425926
  9
$TDINDWG
 40
0.0000000116
  9
$TDUSRTIMER
 40
0.0000000116
  9
$USRTIMER
 70
     1
  9
$ANGBASE
 50
0.0
  9
$ANGDIR
 70
     0
  9
$PDMODE
 70
     0
  9
$PDSIZE
 40
0.0
  9
$PLINEWID
 40
0.0
  9
$SPLFRAME
 70
     0
  9
$SPLINETYPE
 70
     6
  9
$SPLINESEGS
 70
     8
  9
$HANDSEED
  5
104
  9
$SURFTAB1
 70
     6
  9
$SURFTAB2
 70
     6
  9
$SURFTYPE
 70
     6
  9
$SURFU
 70
     6
  9
$SURFV
 70
     6
  9
$UCSBASE
  2

  9
$UCSNAME
  2

  9
$UCSORG
 10
0.0
 20
0.0
 30
0.0
  9
$UCSXDIR
 10
1.0
 20
0.0
 30
0.0
  9
$UCSYDIR
 10
0.0
 20
1.0
 30
0.0
  9
$UCSORTHOREF
  2

  9
$UCSORTHOVIEW
 70
     0
  9
$UCSORGTOP
 10
0.0
 20
0.0
 30
0.0
  9
$UCSORGBOTTOM
 10
0.0
 20
0.0
 30
0.0
  9
$UCSORGLEFT
 10
0.0
 20
0.0
 30
0.0
  9
$UCSORGRIGHT
 10
0.0
 20
0.0
 30
0.0
  9
$UCSORGFRONT
 10
0.0
 20
0.0
 30
0.0
  9
$UCSORGBACK
 10
0.0
 20
0.0
 30
0.0
  9
$PUCSBASE
  2

  9
$PUCSNAME
  2

  9
$PUCSORG
 10
0.0
 20
0.0
 30
0.0
  9
$PUCSXDIR
 10
1.0
 20
0.0
 30
0.0
  9
$PUCSYDIR
 10
0.0
 20
1.0
 30
0.0
  9
$PUCSORTHOREF
  2

  9
$PUCSORTHOVIEW
 70
     0
  9
$PUCSORGTOP
 10
0.0
 20
0.0
 30
0.0
  9
$PUCSORGBOTTOM
 10
0.0
 20
0.0
 30
0.0
  9
$PUCSORGLEFT
 10
0.0
 20
0.0
 30
0.0
  9
$PUCSORGRIGHT
 10
0.0
 20
0.0
 30
0.0
  9
$PUCSORGFRONT
 10
0.0
 20
0.0
 30
0.0
  9
$PUCSORGBACK
 10
0.0
 20
0.0
 30
0.0
  9
$USERI1
 70
     0
  9
$USERI2
 70
     0
  9
$USERI3
 70
     0
  9
$USERI4
 70
     0
  9
$USERI5
 70
     0
  9
$USERR1
 40
0.0
  9
$USERR2
 40
0.0
  9
$USERR3
 40
0.0
  9
$USERR4
 40
0.0
  9
$USERR5
 40
0.0
  9
$WORLDVIEW
 70
     1
  9
$SHADEDGE
 70
     3
  9
$SHADEDIF
 70
    70
  9
$TILEMODE
 70
     1
  9
$MAXACTVP
 70
    64
  9
$PINSBASE
 10
0.0
 20
0.0
 30
0.0
  9
$PLIMCHECK
 70
     0
  9
$PEXTMIN
 10
1.000000000000000E+20
 20
1.000000000000000E+20
 30
1.000000000000000E+20
  9
$PEXTMAX
 10
-1.000000000000000E+20
 20
-1.000000000000000E+20
 30
-1.000000000000000E+20
  9
$PLIMMIN
 10
0.0
 20
0.0
  9
$PLIMMAX
 10
12.0
 20
9.0
  9
$UNITMODE
 70
     0
  9
$VISRETAIN
 70
     1
  9
$PLINEGEN
 70
     0
  9
$PSLTSCALE
 70
     1
  9
$TREEDEPTH
 70
  3020
  9
$CMLSTYLE
  2
Standard
  9
$CMLJUST
 70
     0
  9
$CMLSCALE
 40
1.0
  9
$PROXYGRAPHICS
 70
     1
  9
$MEASUREMENT
 70
     0
  9
$CELWEIGHT
370
    -1
  9
$ENDCAPS
280
     0
  9
$JOINSTYLE
280
     0
  9
$LWDISPLAY
290
     1
  9
$INSUNITS
 70
     1
  9
$HYPERLINKBASE
  1

  9
$STYLESHEET
  1

  9
$XEDIT
290
     1
  9
$CEPSNTYPE
380
     0
  9
$PSTYLEMODE
290
     1
  9
$FINGERPRINTGUID
  2
{6AA7B982-D277-DAC4-E311-0DA1739B0677}
  9
$VERSIONGUID
  2
{FAEB1C32-E019-11D5-929B-00C0DF256EC4}
  9
$EXTNAMES
290
     1
  9
$PSVPSCALE
 40
0.0
  9
$OLESTARTUP
290
     0
  9
$SORTENTS
280
   127
  9
$INDEXCTL
280
     0
  9
$HIDETEXT
280
     1
  9
$XCLIPFRAME
280
     2
  9
$HALOGAP
280
     0
  9
$OBSCOLOR
 70
   257
  9
$OBSLTYPE
280
     0
  9
$INTERSECTIONDISPLAY
280
     0
  9
$INTERSECTIONCOLOR
 70
   257
  9
$DIMASSOC
280
     2
  9
$PROJECTNAME
  1

  9
$CAMERADISPLAY
290
     0
  9
$LENSLENGTH
 40
50.0
  9
$CAMERAHEIGHT
 40
0.0
  9
$STEPSPERSEC
 40
2.0
  9
$STEPSIZE
 40
6.0
  9
$3DDWFPREC
 40
2.0
  9
$PSOLWIDTH
 40
0.25
  9
$PSOLHEIGHT
 40
4.0
  9
$LOFTANG1
 40
1.570796326794897
  9
$LOFTANG2
 40
1.570796326794897
  9
$LOFTMAG1
 40
0.0
  9
$LOFTMAG2
 40
0.0
  9
$LOFTPARAM
 70
     7
  9
$LOFTNORMALS
280
     1
  9
$LATITUDE
 40
37.795
  9
$LONGITUDE
 40
-122.394
  9
$NORTHDIRECTION
 40
0.0
  9
$TIMEZONE
 70
 -8000
  9
$LIGHTGLYPHDISPLAY
280
     1
  9
$TILEMODELIGHTSYNCH
280
     1
  9
$CMATERIAL
347
3C
  9
$SOLIDHIST
280
     1
  9
$SHOWHIST
280
     1
  9
$DWFFRAME
280
     2
  9
$DGNFRAME
280
     2
  9
$REALWORLDSCALE
290
     1
  9
$INTERFERECOLOR
 62
   256
  9
$CSHADOW
280
     0
  9
$SHADOWPLANELOCATION
 40
0.0
  0
ENDSEC
  0
SECTION
  2
CLASSES
  0
CLASS
  1
ACDBDICTIONARYWDFLT
  2
AcDbDictionaryWithDefault
  3
ObjectDBX Classes
 90
        0
 91
        4
280
     0
281
     0
  0
CLASS
  1
VISUALSTYLE
  2
AcDbVisualStyle
  3
ObjectDBX Classes
 90
     4095
 91
        4
280
     0
281
     0
  0
CLASS
  1
MATERIAL
  2
AcDbMaterial
  3
ObjectDBX Classes
 90
     1153
 91
        4
280
     0
281
     0
  0
CLASS
  1
SUN
  2
AcDbSun
  3
SCENEOE
 90
     1024
 91
        4
280
     0
281
     0
  0
ENDSEC
  0
SECTION
  2
TABLES
  0
TABLE
  2
VPORT
  5
8
330
0
100
AcDbSymbolTable
 70
     1
  0
VPORT
  5
29
330
8
100
AcDbSymbolTableRecord
100
AcDbViewportTableRecord
  2
*Active
 70
     0
 10
0.0
 20
0.0
 11
1.0
 21
1.0
 12
0.0
 22
0.0
 13
0.0
 23
0.0
 14
0.5
 24
0.5
 15
0.5
 25
0.5
 16
0.0
 26
0.0
 36
1.0
 17
91.00082462281999
 27
-128.4993055234307
 37
0.0
 40
256.9986110468615
 41
0.7081814508812795
 42
50.0
 43
0.0
 44
0.0
 50
0.0
 51
0.0
 71
     0
 72
   100
 73
     1
 74
     3
 75
     0
 76
     0
 77
     0
 78
     0
281
     0
 65
     1
110
0.0
120
0.0
130
0.0
111
1.0
121
0.0
131
0.0
112
0.0
122
1.0
132
0.0
 79
     0
146
0.0
 60
     3
 61
     5
292
     1
282
     1
141
0.0
142
0.0
 63
   250
361
3F
  0
ENDTAB
  0
TABLE
  2
LTYPE
  5
5
330
0
100
AcDbSymbolTable
 70
     1
  0
LTYPE
  5
14
330
5
100
AcDbSymbolTableRecord
100
AcDbLinetypeTableRecord
  2
ByBlock
 70
     0
  3

 72
    65
 73
     0
 40
0.0
  0
LTYPE
  5
15
330
5
100
AcDbSymbolTableRecord
100
AcDbLinetypeTableRecord
  2
ByLayer
 70
     0
  3

 72
    65
 73
     0
 40
0.0
  0
LTYPE
  5
16
330
5
100
AcDbSymbolTableRecord
100
AcDbLinetypeTableRecord
  2
Continuous
 70
     0
  3
Solid line
 72
    65
 73
     0
 40
0.0
  0
ENDTAB
  0
TABLE
  2
LAYER
  5
2
330
0
100
AcDbSymbolTable
 70
     2
  0
LAYER
  5
10
330
2
100
AcDbSymbolTableRecord
100
AcDbLayerTableRecord
  2
0
 70
     0
 62
     7
  6
Continuous
370
    -3
390
F
347
3E
  0
LAYER
  5
40
330
2
100
AcDbSymbolTableRecord
100
AcDbLayerTableRecord
  2
_U+30EC_U+30A4_U+30E4_U+30FC 1
 70
     0
 62
     7
  6
Continuous
370
    -3
390
F
347
3E
  0
ENDTAB
  0
TABLE
  2
STYLE
  5
3
330
0
100
AcDbSymbolTable
 70
     1
  0
STYLE
  5
11
330
3
100
AcDbSymbolTableRecord
100
AcDbTextStyleTableRecord
  2
Standard
 70
     0
 40
0.0
 41
1.0
 50
0.0
 71
     0
 42
0.2
  3
txt
  4

  0
ENDTAB
  0
TABLE
  2
VIEW
  5
6
330
0
100
AcDbSymbolTable
 70
     0
  0
ENDTAB
  0
TABLE
  2
UCS
  5
7
330
0
100
AcDbSymbolTable
 70
     0
  0
ENDTAB
  0
TABLE
  2
APPID
  5
9
330
0
100
AcDbSymbolTable
 70
     1
  0
APPID
  5
12
330
9
100
AcDbSymbolTableRecord
100
AcDbRegAppTableRecord
  2
ACAD
 70
     0
  0
ENDTAB
  0
TABLE
  2
DIMSTYLE
  5
A
330
0
100
AcDbSymbolTable
 70
     1
100
AcDbDimStyleTable
  0
DIMSTYLE
105
27
330
A
100
AcDbSymbolTableRecord
100
AcDbDimStyleTableRecord
  2
Standard
 70
     0
178
     0
340
11
  0
ENDTAB
  0
TABLE
  2
BLOCK_RECORD
  5
1
330
0
100
AcDbSymbolTable
 70
     7
  0
BLOCK_RECORD
  5
1F
330
1
100
AcDbSymbolTableRecord
100
AcDbBlockTableRecord
  2
*Model_Space
340
22
 70
     0
280
     1
281
     0
  0
BLOCK_RECORD
  5
1B
330
1
100
AcDbSymbolTableRecord
100
AcDbBlockTableRecord
  2
*Paper_Space
340
1E
 70
     0
280
     1
281
     0
  0
BLOCK_RECORD
  5
23
330
1
100
AcDbSymbolTableRecord
100
AcDbBlockTableRecord
  2
*Paper_Space0
340
26
 70
     0
280
     1
281
     0
  0
BLOCK_RECORD
  5
81
330
1
100
AcDbSymbolTableRecord
100
AcDbBlockTableRecord
  2
block 2
340
0
102
{BLKREFS
331
82
102
}
 70
     0
280
     1
281
     0
  0
BLOCK_RECORD
  5
95
330
1
100
AcDbSymbolTableRecord
100
AcDbBlockTableRecord
  2
block 3
340
0
102
{BLKREFS
331
96
102
}
 70
     0
280
     1
281
     0
  0
BLOCK_RECORD
  5
AF
330
1
100
AcDbSymbolTableRecord
100
AcDbBlockTableRecord
  2
block 4
340
0
102
{BLKREFS
331
B0
102
}
 70
     0
280
     1
281
     0
  0
BLOCK_RECORD
  5
D0
330
1
100
AcDbSymbolTableRecord
100
AcDbBlockTableRecord
  2
block 5
340
0
102
{BLKREFS
331
D1
102
}
 70
     0
280
     1
281
     0
  0
BLOCK_RECORD
  5
EE
330
1
100
AcDbSymbolTableRecord
100
AcDbBlockTableRecord
  2
block 6
340
0
102
{BLKREFS
331
EF
102
}
 70
     0
280
     1
281
     0
  0
BLOCK_RECORD
  5
FC
330
1
100
AcDbSymbolTableRecord
100
AcDbBlockTableRecord
  2
block 7
340
0
102
{BLKREFS
331
FD
102
}
 70
     0
280
     1
281
     0
  0
ENDTAB
  0
ENDSEC
  0
SECTION
  2
BLOCKS
  0
BLOCK
  5
20
330
1F
100
AcDbEntity
  8
0
100
AcDbBlockBegin
  2
*Model_Space
 70
     0
 10
0.0
 20
0.0
 30
0.0
  3
*Model_Space
  1

  0
ENDBLK
  5
21
330
1F
100
AcDbEntity
  8
0
100
AcDbBlockEnd
  0
BLOCK
  5
1C
330
1B
100
AcDbEntity
 67
     1
  8
0
100
AcDbBlockBegin
  2
*Paper_Space
 70
     0
 10
0.0
 20
0.0
 30
0.0
  3
*Paper_Space
  1

  0
ENDBLK
  5
1D
330
1B
100
AcDbEntity
 67
     1
  8
0
100
AcDbBlockEnd
  0
BLOCK
  5
24
330
23
100
AcDbEntity
  8
0
100
AcDbBlockBegin
  2
*Paper_Space0
 70
     0
 10
0.0
 20
0.0
 30
0.0
  3
*Paper_Space0
  1

  0
ENDBLK
  5
25
330
23
100
AcDbEntity
  8
0
100
AcDbBlockEnd
  0
BLOCK
  5
83
330
81
100
AcDbEntity
  8
0
100
AcDbBlockBegin
  2
block 2
 70
     0
 10
0.0
 20
0.0
 30
0.0
  3
block 2
  1

  0
SPLINE
  5
85
330
81
100
AcDbEntity
  8
_U+30EC_U+30A4_U+30E4_U+30FC 1
370
     0
100
AcDbSpline
210
0.0
220
0.0
230
1.0
 70
    11
 71
     3
 72
    29
 73
    25
 74
     0
 42
0.0000000001
 43
0.0000000001
 12
1.0
 22
0.0
 32
0.0
 13
1.0
 23
0.0
 33
0.0
 40
0.0
 40
0.0
 40
0.0
 40
0.0
 40
1.0
 40
1.0
 40
1.0
 40
2.0
 40
2.0
 40
2.0
 40
3.0
 40
3.0
 40
3.0
 40
4.0
 40
4.0
 40
4.0
 40
5.0
 40
5.0
 40
5.0
 40
6.0
 40
6.0
 40
6.0
 40
7.0
 40
7.0
 40
7.0
 40
8.0
 40
8.0
 40
8.0
 40
8.0
 10
85.45507674729943
 20
-112.89629581596
 30
0.0
 10
85.18859861151536
 20
-112.89629581596
 30
0.0
 10
84.93469507425245
 20
-112.7586642513242
 30
0.0
 10
84.93469507425245
 20
-112.4096760786684
 30
0.0
 10
84.93469507425245
 20
-112.1537054841144
 30
0.0
 10
85.07646075347047
 20
-112.0584485939472
 30
0.0
 10
85.18222518486765
 20
-111.9971258943097
 30
0.0
 10
85.05734047352733
 20
-111.9378702519635
 30
0.0
 10
84.98120386330332
 20
-111.8236653366274
 30
0.0
 10
84.98120386330332
 20
-111.6629516322405
 30
0.0
 10
84.98120386330332
 20
-111.3878607577433
 30
0.0
 10
85.18015812757649
 20
-111.252468505173
 30
0.0
 10
85.45507674729943
 20
-111.252468505173
 30
0.0
 10
85.7386081057355
 20
-111.252468505173
 30
0.0
 10
85.92894963129554
 20
-111.3963012416822
 30
0.0
 10
85.92894963129554
 20
-111.6629516322405
 30
0.0
 10
85.92894963129554
 20
-111.8236653366274
 30
0.0
 10
85.85074596378037
 20
-111.9378702519635
 30
0.0
 10
85.72586125244007
 20
-111.9971258943097
 30
0.0
 10
85.8147447159595
 20
-112.0479410527172
 30
0.0
 10
85.97339136305527
 20
-112.1431979428843
 30
0.0
 10
85.97339136305527
 20
-112.4055419640861
 30
0.0
 10
85.97339136305527
 20
-112.7798515885585
 30
0.0
 10
85.69416637397576
 20
-112.89629581596
 30
0.0
 10
85.45507674729943
 20
-112.89629581596
 30
0.0
  0
SPLINE
  5
86
330
81
100
AcDbEntity
  8
_U+30EC_U+30A4_U+30E4_U+30FC 1
370
     0
100
AcDbSpline
210
0.0
220
0.0
230
1.0
 70
    11
 71
     3
 72
    17
 73
    13
 74
     0
 42
0.0000000001
 43
0.0000000001
 12
1.0
 22
0.0
 32
0.0
 13
1.0
 23
0.0
 33
0.0
 40
0.0
 40
0.0
 40
0.0
 40
0.0
 40
1.0
 40
1.0
 40
1.0
 40
2.0
 40
2.0
 40
2.0
 40
3.0
 40
3.0
 40
3.0
 40
4.0
 40
4.0
 40
4.0
 40
4.0
 10
85.45507674729943
 20
-112.1051296377723
 30
0.0
 10
85.31124401079025
 20
-112.1051296377723
 30
0.0
 10
85.15897079034221
 20
-112.1917737892264
 30
0.0
 10
85.15897079034221
 20
-112.3948621680818
 30
0.0
 10
85.15897079034221
 20
-112.6000176042285
 30
0.0
 10
85.28592255897367
 20
-112.7016479210433
 30
0.0
 10
85.45507674729943
 20
-112.7016479210433
 30
0.0
 10
85.64128415827719
 20
-112.7016479210433
 30
0.0
 10
85.75135495903092
 20
-112.5790025217684
 30
0.0
 10
85.75135495903092
 20
-112.4012355947296
 30
0.0
 10
85.75135495903092
 20
-112.1790269359309
 30
0.0
 10
85.5884019425786
 20
-112.1051296377723
 30
0.0
 10
85.45507674729943
 20
-112.1051296377723
 30
0.0
  0
SPLINE
  5
87
330
81
100
AcDbEntity
  8
_U+30EC_U+30A4_U+30E4_U+30FC 1
370
     0
100
AcDbSpline
210
0.0
220
0.0
230
1.0
 70
    11
 71
     3
 72
    17
 73
    13
 74
     0
 42
0.0000000001
 43
0.0000000001
 12
1.0
 22
0.0
 32
0.0
 13
1.0
 23
0.0
 33
0.0
 40
0.0
 40
0.0
 40
0.0
 40
0.0
 40
1.0
 40
1.0
 40
1.0
 40
2.0
 40
2.0
 40
2.0
 40
3.0
 40
3.0
 40
3.0
 40
4.0
 40
4.0
 40
4.0
 40
4.0
 10
85.45507674729943
 20
-111.4450493427985
 30
0.0
 10
85.29005667355597
 20
-111.4450493427985
 30
0.0
 10
85.20547957939309
 20
-111.5401339781914
 30
0.0
 10
85.20547957939309
 20
-111.6755262307617
 30
0.0
 10
85.20547957939309
 20
-111.7983438848108
 30
0.0
 10
85.2774820750348
 20
-111.9168551695034
 30
0.0
 10
85.45507674729943
 20
-111.9168551695034
 30
0.0
 10
85.63284367433832
 20
-111.9168551695034
 30
0.0
 10
85.70467391520577
 20
-111.7983438848108
 30
0.0
 10
85.70467391520577
 20
-111.6755262307617
 30
0.0
 10
85.70467391520577
 20
-111.5401339781914
 30
0.0
 10
85.61802976375175
 20
-111.4450493427985
 30
0.0
 10
85.45507674729943
 20
-111.4450493427985
 30
0.0
  0
HATCH
  5
88
330
81
100
AcDbEntity
  8
_U+30EC_U+30A4_U+30E4_U+30FC 1
 62
     7
420
 16777215
100
AcDbHatch
 10
0.0
 20
0.0
 30
0.0
210
0.0
220
0.0
230
1.0
  2
SOLID
 70
     1
 71
     0
 91
        3
 92
        1
 93
        1
 72
     4
 94
        3
 73
     0
 74
     1
 95
       29
 96
       25
 40
0.0
 40
0.0
 40
0.0
 40
0.0
 40
1.0
 40
1.0
 40
1.0
 40
2.0
 40
2.0
 40
2.0
 40
3.0
 40
3.0
 40
3.0
 40
4.0
 40
4.0
 40
4.0
 40
5.0
 40
5.0
 40
5.0
 40
6.0
 40
6.0
 40
6.0
 40
7.0
 40
7.0
 40
7.0
 40
8.0
 40
8.0
 40
8.0
 40
8.0
 10
85.45507674729943
 20
-112.89629581596
 10
85.18859861151536
 20
-112.89629581596
 10
84.93469507425245
 20
-112.7586642513242
 10
84.93469507425245
 20
-112.4096760786684
 10
84.93469507425245
 20
-112.1537054841144
 10
85.07646075347047
 20
-112.0584485939472
 10
85.18222518486765
 20
-111.9971258943097
 10
85.05734047352733
 20
-111.9378702519635
 10
84.98120386330332
 20
-111.8236653366274
 10
84.98120386330332
 20
-111.6629516322405
 10
84.98120386330332
 20
-111.3878607577433
 10
85.18015812757649
 20
-111.252468505173
 10
85.45507674729943
 20
-111.252468505173
 10
85.7386081057355
 20
-111.252468505173
 10
85.92894963129554
 20
-111.3963012416822
 10
85.92894963129554
 20
-111.6629516322405
 10
85.92894963129554
 20
-111.8236653366274
 10
85.85074596378037
 20
-111.9378702519635
 10
85.72586125244007
 20
-111.9971258943097
 10
85.8147447159595
 20
-112.0479410527172
 10
85.97339136305527
 20
-112.1431979428843
 10
85.97339136305527
 20
-112.4055419640861
 10
85.97339136305527
 20
-112.7798515885585
 10
85.69416637397576
 20
-112.89629581596
 10
85.45507674729943
 20
-112.89629581596
 97
        0
 97
        0
 92
        1
 93
        1
 72
     4
 94
        3
 73
     0
 74
     1
 95
       17
 96
       13
 40
0.0
 40
0.0
 40
0.0
 40
0.0
 40
1.0
 40
1.0
 40
1.0
 40
2.0
 40
2.0
 40
2.0
 40
3.0
 40
3.0
 40
3.0
 40
4.0
 40
4.0
 40
4.0
 40
4.0
 10
85.45507674729943
 20
-112.1051296377723
 10
85.31124401079025
 20
-112.1051296377723
 10
85.15897079034221
 20
-112.1917737892264
 10
85.15897079034221
 20
-112.3948621680818
 10
85.15897079034221
 20
-112.6000176042285
 10
85.28592255897367
 20
-112.7016479210433
 10
85.45507674729943
 20
-112.7016479210433
 10
85.64128415827719
 20
-112.7016479210433
 10
85.75135495903092
 20
-112.5790025217684
 10
85.75135495903092
 20
-112.4012355947296
 10
85.75135495903092
 20
-112.1790269359309
 10
85.5884019425786
 20
-112.1051296377723
 10
85.45507674729943
 20
-112.1051296377723
 97
        0
 97
        0
 92
        1
 93
        1
 72
     4
 94
        3
 73
     0
 74
     1
 95
       17
 96
       13
 40
0.0
 40
0.0
 40
0.0
 40
0.0
 40
1.0
 40
1.0
 40
1.0
 40
2.0
 40
2.0
 40
2.0
 40
3.0
 40
3.0
 40
3.0
 40
4.0
 40
4.0
 40
4.0
 40
4.0
 10
85.45507674729943
 20
-111.4450493427985
 10
85.29005667355597
 20
-111.4450493427985
 10
85.20547957939309
 20
-111.5401339781914
 10
85.20547957939309
 20
-111.6755262307617
 10
85.20547957939309
 20
-111.7983438848108
 10
85.2774820750348
 20
-111.9168551695034
 10
85.45507674729943
 20
-111.9168551695034
 10
85.63284367433832
 20
-111.9168551695034
 10
85.70467391520577
 20
-111.7983438848108
 10
85.70467391520577
 20
-111.6755262307617
 10
85.70467391520577
 20
-111.5401339781914
 10
85.61802976375175
 20
-111.4450493427985
 10
85.45507674729943
 20
-111.4450493427985
 97
        0
 97
        0
 75
     2
 76
     1
 98
        0
  0
ENDBLK
  5
84
330
81
100
AcDbEntity
  8
0
100
AcDbBlockEnd
  0
BLOCK
  5
97
330
95
100
AcDbEntity
  8
0
100
AcDbBlockBegin
  2
block 3
 70
     0
 10
0.0
 20
0.0
 30
0.0
  3
block 3
  1

  0
SPLINE
  5
99
330
95
100
AcDbEntity
  8
_U+30EC_U+30A4_U+30E4_U+30FC 1
370
     0
100
AcDbSpline
210
0.0
220
0.0
230
1.0
 70
    11
 71
     3
 72
    26
 73
    22
 74
     0
 42
0.0000000001
 43
0.0000000001
 12
1.0
 22
0.0
 32
0.0
 13
1.0
 23
0.0
 33
0.0
 40
0.0
 40
0.0
 40
0.0
 40
0.0
 40
1.0
 40
1.0
 40
1.0
 40
2.0
 40
2.0
 40
2.0
 40
3.0
 40
3.0
 40
3.0
 40
4.0
 40
4.0
 40
4.0
 40
5.0
 40
5.0
 40
5.0
 40
6.0
 40
6.0
 40
6.0
 40
7.0
 40
7.0
 40
7.0
 40
7.0
 10
89.74008651185318
 20
-144.4194362703188
 30
0.0
 10
89.74008651185318
 20
-144.4194362703188
 30
0.0
 10
89.74008651185318
 20
-143.3152831672962
 30
0.0
 10
89.74008651185318
 20
-143.3152831672962
 30
0.0
 10
89.74008651185318
 20
-143.3152831672962
 30
0.0
 10
89.41004636436624
 20
-143.3152831672962
 30
0.0
 10
89.41004636436624
 20
-143.3152831672962
 30
0.0
 10
89.41004636436624
 20
-143.3152831672962
 30
0.0
 10
89.41004636436624
 20
-143.1671440614304
 30
0.0
 10
89.41004636436624
 20
-143.1671440614304
 30
0.0
 10
89.74215356914432
 20
-143.1523301508439
 30
0.0
 10
89.7886623581952
 20
-142.9893771343916
 30
0.0
 10
89.81829017936835
 20
-142.8749999642812
 30
0.0
 10
89.81829017936835
 20
-142.8749999642812
 30
0.0
 10
89.96436222794294
 20
-142.8749999642812
 30
0.0
 10
89.96436222794294
 20
-142.8749999642812
 30
0.0
 10
89.96436222794294
 20
-142.8749999642812
 30
0.0
 10
89.96436222794294
 20
-144.4194362703188
 30
0.0
 10
89.96436222794294
 20
-144.4194362703188
 30
0.0
 10
89.96436222794294
 20
-144.4194362703188
 30
0.0
 10
89.74008651185318
 20
-144.4194362703188
 30
0.0
 10
89.74008651185318
 20
-144.4194362703188
 30
0.0
  0
HATCH
  5
9A
330
95
100
AcDbEntity
  8
_U+30EC_U+30A4_U+30E4_U+30FC 1
 62
     7
420
 16777215
100
AcDbHatch
 10
0.0
 20
0.0
 30
0.0
210
0.0
220
0.0
230
1.0
  2
SOLID
 70
     1
 71
     0
 91
        1
 92
        1
 93
        1
 72
     4
 94
        3
 73
     0
 74
     1
 95
       26
 96
       22
 40
0.0
 40
0.0
 40
0.0
 40
0.0
 40
1.0
 40
1.0
 40
1.0
 40
2.0
 40
2.0
 40
2.0
 40
3.0
 40
3.0
 40
3.0
 40
4.0
 40
4.0
 40
4.0
 40
5.0
 40
5.0
 40
5.0
 40
6.0
 40
6.0
 40
6.0
 40
7.0
 40
7.0
 40
7.0
 40
7.0
 10
89.74008651185318
 20
-144.4194362703188
 10
89.74008651185318
 20
-144.4194362703188
 10
89.74008651185318
 20
-143.3152831672962
 10
89.74008651185318
 20
-143.3152831672962
 10
89.74008651185318
 20
-143.3152831672962
 10
89.41004636436624
 20
-143.3152831672962
 10
89.41004636436624
 20
-143.3152831672962
 10
89.41004636436624
 20
-143.3152831672962
 10
89.41004636436624
 20
-143.1671440614304
 10
89.41004636436624
 20
-143.1671440614304
 10
89.74215356914432
 20
-143.1523301508439
 10
89.7886623581952
 20
-142.9893771343916
 10
89.81829017936835
 20
-142.8749999642812
 10
89.81829017936835
 20
-142.8749999642812
 10
89.96436222794294
 20
-142.8749999642812
 10
89.96436222794294
 20
-142.8749999642812
 10
89.96436222794294
 20
-142.8749999642812
 10
89.96436222794294
 20
-144.4194362703188
 10
89.96436222794294
 20
-144.4194362703188
 10
89.96436222794294
 20
-144.4194362703188
 10
89.74008651185318
 20
-144.4194362703188
 10
89.74008651185318
 20
-144.4194362703188
 97
        0
 97
        0
 75
     2
 76
     1
 98
        0
  0
SPLINE
  5
9B
330
95
100
AcDbEntity
  8
_U+30EC_U+30A4_U+30E4_U+30FC 1
370
     0
100
AcDbSpline
210
0.0
220
0.0
230
1.0
 70
    11
 71
     3
 72
    29
 73
    25
 74
     0
 42
0.0000000001
 43
0.0000000001
 12
1.0
 22
0.0
 32
0.0
 13
1.0
 23
0.0
 33
0.0
 40
0.0
 40
0.0
 40
0.0
 40
0.0
 40
1.0
 40
1.0
 40
1.0
 40
2.0
 40
2.0
 40
2.0
 40
3.0
 40
3.0
 40
3.0
 40
4.0
 40
4.0
 40
4.0
 40
5.0
 40
5.0
 40
5.0
 40
6.0
 40
6.0
 40
6.0
 40
7.0
 40
7.0
 40
7.0
 40
8.0
 40
8.0
 40
8.0
 40
8.0
 10
90.96550697595654
 20
-144.4700791739519
 30
0.0
 10
90.6988565853982
 20
-144.4700791739519
 30
0.0
 10
90.44529755768382
 20
-144.3326198640905
 30
0.0
 10
90.44529755768382
 20
-143.9836316914347
 30
0.0
 10
90.44529755768382
 20
-143.7276610968806
 30
0.0
 10
90.58689098212758
 20
-143.6325764614877
 30
0.0
 10
90.69265541352476
 20
-143.5712537618502
 30
0.0
 10
90.56794295695872
 20
-143.5119981195039
 30
0.0
 10
90.49180634673469
 20
-143.3976209493937
 30
0.0
 10
90.49180634673469
 20
-143.2367349902325
 30
0.0
 10
90.49180634673469
 20
-142.9618163705096
 30
0.0
 10
90.6905883562336
 20
-142.8264241179392
 30
0.0
 10
90.96550697595654
 20
-142.8264241179392
 30
0.0
 10
91.24903833439261
 20
-142.8264241179392
 30
0.0
 10
91.43972436950118
 20
-142.9704291092227
 30
0.0
 10
91.43972436950118
 20
-143.2367349902325
 30
0.0
 10
91.43972436950118
 20
-143.3976209493937
 30
0.0
 10
91.36100393766323
 20
-143.5119981195039
 30
0.0
 10
91.23629148109718
 20
-143.5712537618502
 30
0.0
 10
91.32517494461662
 20
-143.6218966654834
 30
0.0
 10
91.48416610126091
 20
-143.7169813008763
 30
0.0
 10
91.48416610126091
 20
-143.9794975768524
 30
0.0
 10
91.48416610126091
 20
-144.353979456099
 30
0.0
 10
91.20459660263289
 20
-144.4700791739519
 30
0.0
 10
90.96550697595654
 20
-144.4700791739519
 30
0.0
  0
SPLINE
  5
9C
330
95
100
AcDbEntity
  8
_U+30EC_U+30A4_U+30E4_U+30FC 1
370
     0
100
AcDbSpline
210
0.0
220
0.0
230
1.0
 70
    11
 71
     3
 72
    17
 73
    13
 74
     0
 42
0.0000000001
 43
0.0000000001
 12
1.0
 22
0.0
 32
0.0
 13
1.0
 23
0.0
 33
0.0
 40
0.0
 40
0.0
 40
0.0
 40
0.0
 40
1.0
 40
1.0
 40
1.0
 40
2.0
 40
2.0
 40
2.0
 40
3.0
 40
3.0
 40
3.0
 40
4.0
 40
4.0
 40
4.0
 40
4.0
 10
90.96550697595654
 20
-143.6790852505386
 30
0.0
 10
90.82184649422163
 20
-143.6790852505386
 30
0.0
 10
90.66922876422505
 20
-143.7659016567669
 30
0.0
 10
90.66922876422505
 20
-143.9688177808481
 30
0.0
 10
90.66922876422505
 20
-144.174145471769
 30
0.0
 10
90.79635278763078
 20
-144.2754312790353
 30
0.0
 10
90.96550697595654
 20
-144.2754312790353
 30
0.0
 10
91.15154213216003
 20
-144.2754312790353
 30
0.0
 10
91.26178518768803
 20
-144.1527858797604
 30
0.0
 10
91.26178518768803
 20
-143.9750189527215
 30
0.0
 10
91.26178518768803
 20
-143.7531548034714
 30
0.0
 10
91.09883217123571
 20
-143.6790852505386
 30
0.0
 10
90.96550697595654
 20
-143.6790852505386
 30
0.0
  0
SPLINE
  5
9D
330
95
100
AcDbEntity
  8
_U+30EC_U+30A4_U+30E4_U+30FC 1
370
     0
100
AcDbSpline
210
0.0
220
0.0
230
1.0
 70
    11
 71
     3
 72
    17
 73
    13
 74
     0
 42
0.0000000001
 43
0.0000000001
 12
1.0
 22
0.0
 32
0.0
 13
1.0
 23
0.0
 33
0.0
 40
0.0
 40
0.0
 40
0.0
 40
0.0
 40
1.0
 40
1.0
 40
1.0
 40
2.0
 40
2.0
 40
2.0
 40
3.0
 40
3.0
 40
3.0
 40
4.0
 40
4.0
 40
4.0
 40
4.0
 10
90.96550697595654
 20
-143.0190049555647
 30
0.0
 10
90.80048690221308
 20
-143.0190049555647
 30
0.0
 10
90.71608206282446
 20
-143.1140895909576
 30
0.0
 10
90.71608206282446
 20
-143.2494818435279
 30
0.0
 10
90.71608206282446
 20
-143.3721272428028
 30
0.0
 10
90.78774004891766
 20
-143.4906385274954
 30
0.0
 10
90.96550697595654
 20
-143.4906385274954
 30
0.0
 10
91.14327390299543
 20
-143.4906385274954
 30
0.0
 10
91.21527639863716
 20
-143.3721272428028
 30
0.0
 10
91.21527639863716
 20
-143.2494818435279
 30
0.0
 10
91.21527639863716
 20
-143.1140895909576
 30
0.0
 10
91.12845999240886
 20
-143.0190049555647
 30
0.0
 10
90.96550697595654
 20
-143.0190049555647
 30
0.0
  0
HATCH
  5
9E
330
95
100
AcDbEntity
  8
_U+30EC_U+30A4_U+30E4_U+30FC 1
 62
     7
420
 16777215
100
AcDbHatch
 10
0.0
 20
0.0
 30
0.0
210
0.0
220
0.0
230
1.0
  2
SOLID
 70
     1
 71
     0
 91
        3
 92
        1
 93
        1
 72
     4
 94
        3
 73
     0
 74
     1
 95
       29
 96
       25
 40
0.0
 40
0.0
 40
0.0
 40
0.0
 40
1.0
 40
1.0
 40
1.0
 40
2.0
 40
2.0
 40
2.0
 40
3.0
 40
3.0
 40
3.0
 40
4.0
 40
4.0
 40
4.0
 40
5.0
 40
5.0
 40
5.0
 40
6.0
 40
6.0
 40
6.0
 40
7.0
 40
7.0
 40
7.0
 40
8.0
 40
8.0
 40
8.0
 40
8.0
 10
90.96550697595654
 20
-144.4700791739519
 10
90.6988565853982
 20
-144.4700791739519
 10
90.44529755768382
 20
-144.3326198640905
 10
90.44529755768382
 20
-143.9836316914347
 10
90.44529755768382
 20
-143.7276610968806
 10
90.58689098212758
 20
-143.6325764614877
 10
90.69265541352476
 20
-143.5712537618502
 10
90.56794295695872
 20
-143.5119981195039
 10
90.49180634673469
 20
-143.3976209493937
 10
90.49180634673469
 20
-143.2367349902325
 10
90.49180634673469
 20
-142.9618163705096
 10
90.6905883562336
 20
-142.8264241179392
 10
90.96550697595654
 20
-142.8264241179392
 10
91.24903833439261
 20
-142.8264241179392
 10
91.43972436950118
 20
-142.9704291092227
 10
91.43972436950118
 20
-143.2367349902325
 10
91.43972436950118
 20
-143.3976209493937
 10
91.36100393766323
 20
-143.5119981195039
 10
91.23629148109718
 20
-143.5712537618502
 10
91.32517494461662
 20
-143.6218966654834
 10
91.48416610126091
 20
-143.7169813008763
 10
91.48416610126091
 20
-143.9794975768524
 10
91.48416610126091
 20
-144.353979456099
 10
91.20459660263289
 20
-144.4700791739519
 10
90.96550697595654
 20
-144.4700791739519
 97
        0
 97
        0
 92
        1
 93
        1
 72
     4
 94
        3
 73
     0
 74
     1
 95
       17
 96
       13
 40
0.0
 40
0.0
 40
0.0
 40
0.0
 40
1.0
 40
1.0
 40
1.0
 40
2.0
 40
2.0
 40
2.0
 40
3.0
 40
3.0
 40
3.0
 40
4.0
 40
4.0
 40
4.0
 40
4.0
 10
90.96550697595654
 20
-143.6790852505386
 10
90.82184649422163
 20
-143.6790852505386
 10
90.66922876422505
 20
-143.7659016567669
 10
90.66922876422505
 20
-143.9688177808481
 10
90.66922876422505
 20
-144.174145471769
 10
90.79635278763078
 20
-144.2754312790353
 10
90.96550697595654
 20
-144.2754312790353
 10
91.15154213216003
 20
-144.2754312790353
 10
91.26178518768803
 20
-144.1527858797604
 10
91.26178518768803
 20
-143.9750189527215
 10
91.26178518768803
 20
-143.7531548034714
 10
91.09883217123571
 20
-143.6790852505386
 10
90.96550697595654
 20
-143.6790852505386
 97
        0
 97
        0
 92
        1
 93
        1
 72
     4
 94
        3
 73
     0
 74
     1
 95
       17
 96
       13
 40
0.0
 40
0.0
 40
0.0
 40
0.0
 40
1.0
 40
1.0
 40
1.0
 40
2.0
 40
2.0
 40
2.0
 40
3.0
 40
3.0
 40
3.0
 40
4.0
 40
4.0
 40
4.0
 40
4.0
 10
90.96550697595654
 20
-143.0190049555647
 10
90.80048690221308
 20
-143.0190049555647
 10
90.71608206282446
 20
-143.1140895909576
 10
90.71608206282446
 20
-143.2494818435279
 10
90.71608206282446
 20
-143.3721272428028
 10
90.78774004891766
 20
-143.4906385274954
 10
90.96550697595654
 20
-143.4906385274954
 10
91.14327390299543
 20
-143.4906385274954
 10
91.21527639863716
 20
-143.3721272428028
 10
91.21527639863716
 20
-143.2494818435279
 10
91.21527639863716
 20
-143.1140895909576
 10
91.12845999240886
 20
-143.0190049555647
 10
90.96550697595654
 20
-143.0190049555647
 97
        0
 97
        0
 75
     2
 76
     1
 98
        0
  0
ENDBLK
  5
98
330
95
100
AcDbEntity
  8
0
100
AcDbBlockEnd
  0
BLOCK
  5
B1
330
AF
100
AcDbEntity
  8
0
100
AcDbBlockBegin
  2
block 4
 70
     0
 10
0.0
 20
0.0
 30
0.0
  3
block 4
  1

  0
SPLINE
  5
B3
330
AF
100
AcDbEntity
  8
_U+30EC_U+30A4_U+30E4_U+30FC 1
370
     0
100
AcDbSpline
210
0.0
220
0.0
230
1.0
 70
    11
 71
     3
 72
    29
 73
    25
 74
     0
 42
0.0000000001
 43
0.0000000001
 12
1.0
 22
0.0
 32
0.0
 13
1.0
 23
0.0
 33
0.0
 40
0.0
 40
0.0
 40
0.0
 40
0.0
 40
1.0
 40
1.0
 40
1.0
 40
2.0
 40
2.0
 40
2.0
 40
3.0
 40
3.0
 40
3.0
 40
4.0
 40
4.0
 40
4.0
 40
5.0
 40
5.0
 40
5.0
 40
6.0
 40
6.0
 40
6.0
 40
7.0
 40
7.0
 40
7.0
 40
8.0
 40
8.0
 40
8.0
 40
8.0
 10
102.3265706124392
 20
-142.6689832542633
 30
0.0
 10
102.5360324179424
 20
-142.7771592525002
 30
0.0
 10
102.5549804431113
 20
-142.9504475554082
 30
0.0
 10
102.5549804431113
 20
-143.0668917828097
 30
0.0
 10
102.5549804431113
 20
-143.2277777419708
 30
0.0
 10
102.5084716540604
 20
-143.3693711664146
 30
0.0
 10
102.3265706124392
 20
-143.4644558018075
 30
0.0
 10
102.1319227175226
 20
-143.5681531759135
 30
0.0
 10
101.8949001481374
 20
-143.5874457106309
 30
0.0
 10
101.7322916412336
 20
-143.5874457106309
 30
0.0
 10
101.5882866499501
 20
-143.5874457106309
 30
0.0
 10
101.3364501699784
 20
-143.5702202332047
 30
0.0
 10
101.1376681604795
 20
-143.4644558018075
 30
0.0
 10
100.9347520363983
 20
-143.3566243131192
 30
0.0
 10
100.9113253870986
 20
-143.195738353958
 30
0.0
 10
100.9113253870986
 20
-143.0668917828097
 30
0.0
 10
100.9113253870986
 20
-142.9080728809396
 30
0.0
 10
100.9557671188583
 20
-142.7644123992047
 30
0.0
 10
101.1376681604795
 20
-142.6689832542633
 30
0.0
 10
101.3302489981049
 20
-142.5697645042881
 30
0.0
 10
101.558658828777
 20
-142.5463378549884
 30
0.0
 10
101.7322916412336
 20
-142.5463378549884
 30
0.0
 10
101.9035128868505
 20
-142.5463378549884
 30
0.0
 10
102.1339897748137
 20
-142.567697446997
 30
0.0
 10
102.3265706124392
 20
-142.6689832542633
 30
0.0
  0
SPLINE
  5
B4
330
AF
100
AcDbEntity
  8
_U+30EC_U+30A4_U+30E4_U+30FC 1
370
     0
100
AcDbSpline
210
0.0
220
0.0
230
1.0
 70
    11
 71
     3
 72
    17
 73
    13
 74
     0
 42
0.0000000001
 43
0.0000000001
 12
1.0
 22
0.0
 32
0.0
 13
1.0
 23
0.0
 33
0.0
 40
0.0
 40
0.0
 40
0.0
 40
0.0
 40
1.0
 40
1.0
 40
1.0
 40
2.0
 40
2.0
 40
2.0
 40
3.0
 40
3.0
 40
3.0
 40
4.0
 40
4.0
 40
4.0
 40
4.0
 10
101.103906224724
 20
-143.0668917828097
 30
0.0
 10
101.103906224724
 20
-143.3166612054903
 30
0.0
 10
101.3874375831601
 20
-143.3631699945412
 30
0.0
 10
101.7322916412336
 20
-143.3631699945412
 30
0.0
 10
102.0516519927163
 20
-143.3631699945412
 30
0.0
 10
102.3603325481946
 20
-143.326996491946
 30
0.0
 10
102.3603325481946
 20
-143.0668917828097
 30
0.0
 10
102.3603325481946
 20
-142.8191894174202
 30
0.0
 10
102.0792127565983
 20
-142.7706135710782
 30
0.0
 10
101.7322916412336
 20
-142.7706135710782
 30
0.0
 10
101.4125867802024
 20
-142.7706135710782
 30
0.0
 10
101.103906224724
 20
-142.8088541309644
 30
0.0
 10
101.103906224724
 20
-143.0668917828097
 30
0.0
  0
HATCH
  5
B5
330
AF
100
AcDbEntity
  8
_U+30EC_U+30A4_U+30E4_U+30FC 1
 62
     7
420
 16777215
100
AcDbHatch
 10
0.0
 20
0.0
 30
0.0
210
0.0
220
0.0
230
1.0
  2
SOLID
 70
     1
 71
     0
 91
        2
 92
        1
 93
        1
 72
     4
 94
        3
 73
     0
 74
     1
 95
       29
 96
       25
 40
0.0
 40
0.0
 40
0.0
 40
0.0
 40
1.0
 40
1.0
 40
1.0
 40
2.0
 40
2.0
 40
2.0
 40
3.0
 40
3.0
 40
3.0
 40
4.0
 40
4.0
 40
4.0
 40
5.0
 40
5.0
 40
5.0
 40
6.0
 40
6.0
 40
6.0
 40
7.0
 40
7.0
 40
7.0
 40
8.0
 40
8.0
 40
8.0
 40
8.0
 10
102.3265706124392
 20
-142.6689832542633
 10
102.5360324179424
 20
-142.7771592525002
 10
102.5549804431113
 20
-142.9504475554082
 10
102.5549804431113
 20
-143.0668917828097
 10
102.5549804431113
 20
-143.2277777419708
 10
102.5084716540604
 20
-143.3693711664146
 10
102.3265706124392
 20
-143.4644558018075
 10
102.1319227175226
 20
-143.5681531759135
 10
101.8949001481374
 20
-143.5874457106309
 10
101.7322916412336
 20
-143.5874457106309
 10
101.5882866499501
 20
-143.5874457106309
 10
101.3364501699784
 20
-143.5702202332047
 10
101.1376681604795
 20
-143.4644558018075
 10
100.9347520363983
 20
-143.3566243131192
 10
100.9113253870986
 20
-143.195738353958
 10
100.9113253870986
 20
-143.0668917828097
 10
100.9113253870986
 20
-142.9080728809396
 10
100.9557671188583
 20
-142.7644123992047
 10
101.1376681604795
 20
-142.6689832542633
 10
101.3302489981049
 20
-142.5697645042881
 10
101.558658828777
 20
-142.5463378549884
 10
101.7322916412336
 20
-142.5463378549884
 10
101.9035128868505
 20
-142.5463378549884
 10
102.1339897748137
 20
-142.567697446997
 10
102.3265706124392
 20
-142.6689832542633
 97
        0
 97
        0
 92
        1
 93
        1
 72
     4
 94
        3
 73
     0
 74
     1
 95
       17
 96
       13
 40
0.0
 40
0.0
 40
0.0
 40
0.0
 40
1.0
 40
1.0
 40
1.0
 40
2.0
 40
2.0
 40
2.0
 40
3.0
 40
3.0
 40
3.0
 40
4.0
 40
4.0
 40
4.0
 40
4.0
 10
101.103906224724
 20
-143.0668917828097
 10
101.103906224724
 20
-143.3166612054903
 10
101.3874375831601
 20
-143.3631699945412
 10
101.7322916412336
 20
-143.3631699945412
 10
102.0516519927163
 20
-143.3631699945412
 10
102.3603325481946
 20
-143.326996491946
 10
102.3603325481946
 20
-143.0668917828097
 10
102.3603325481946
 20
-142.8191894174202
 10
102.0792127565983
 20
-142.7706135710782
 10
101.7322916412336
 20
-142.7706135710782
 10
101.4125867802024
 20
-142.7706135710782
 10
101.103906224724
 20
-142.8088541309644
 10
101.103906224724
 20
-143.0668917828097
 97
        0
 97
        0
 75
     2
 76
     1
 98
        0
  0
POLYLINE
  5
B6
330
AF
100
AcDbEntity
  8
_U+30EC_U+30A4_U+30E4_U+30FC 1
370
     0
100
AcDb2dPolyline
 66
     1
 10
0.0
 20
0.0
 30
0.0
  0
VERTEX
  5
B7
330
B6
100
AcDbEntity
  8
_U+30EC_U+30A4_U+30E4_U+30FC 1
370
     0
100
AcDbVertex
100
AcDb2dVertex
 10
102.5043375394781
 20
-142.3299858585147
 30
0.0
  0
VERTEX
  5
B8
330
B6
100
AcDbEntity
  8
_U+30EC_U+30A4_U+30E4_U+30FC 1
370
     0
100
AcDbVertex
100
AcDb2dVertex
 10
102.2525010595063
 20
-142.3299858585147
 30
0.0
  0
VERTEX
  5
B9
330
B6
100
AcDbEntity
  8
_U+30EC_U+30A4_U+30E4_U+30FC 1
370
     0
100
AcDbVertex
100
AcDb2dVertex
 10
102.2525010595063
 20
-142.078149378543
 30
0.0
  0
VERTEX
  5
BA
330
B6
100
AcDbEntity
  8
_U+30EC_U+30A4_U+30E4_U+30FC 1
370
     0
100
AcDbVertex
100
AcDb2dVertex
 10
102.5043375394781
 20
-142.078149378543
 30
0.0
  0
VERTEX
  5
BB
330
B6
100
AcDbEntity
  8
_U+30EC_U+30A4_U+30E4_U+30FC 1
370
     0
100
AcDbVertex
100
AcDb2dVertex
 10
102.5043375394781
 20
-142.3299858585147
 30
0.0
  0
SEQEND
  5
BC
330
B6
100
AcDbEntity
  8
_U+30EC_U+30A4_U+30E4_U+30FC 1
370
     0
  0
HATCH
  5
BD
330
AF
100
AcDbEntity
  8
_U+30EC_U+30A4_U+30E4_U+30FC 1
 62
     7
420
 16777215
100
AcDbHatch
 10
0.0
 20
0.0
 30
0.0
210
0.0
220
0.0
230
1.0
  2
SOLID
 70
     1
 71
     0
 91
        1
 92
        1
 93
        4
 72
     1
 10
102.5043375394781
 20
-142.3299858585147
 11
102.2525010595063
 21
-142.3299858585147
 72
     1
 10
102.2525010595063
 20
-142.3299858585147
 11
102.2525010595063
 21
-142.078149378543
 72
     1
 10
102.2525010595063
 20
-142.078149378543
 11
102.5043375394781
 21
-142.078149378543
 72
     1
 10
102.5043375394781
 20
-142.078149378543
 11
102.5043375394781
 21
-142.3299858585147
 97
        0
 75
     2
 76
     1
 98
        0
  0
SPLINE
  5
BE
330
AF
100
AcDbEntity
  8
_U+30EC_U+30A4_U+30E4_U+30FC 1
370
     0
100
AcDbSpline
210
0.0
220
0.0
230
1.0
 70
    11
 71
     3
 72
    26
 73
    22
 74
     0
 42
0.0000000001
 43
0.0000000001
 12
1.0
 22
0.0
 32
0.0
 13
1.0
 23
0.0
 33
0.0
 40
0.0
 40
0.0
 40
0.0
 40
0.0
 40
1.0
 40
1.0
 40
1.0
 40
2.0
 40
2.0
 40
2.0
 40
3.0
 40
3.0
 40
3.0
 40
4.0
 40
4.0
 40
4.0
 40
5.0
 40
5.0
 40
5.0
 40
6.0
 40
6.0
 40
6.0
 40
7.0
 40
7.0
 40
7.0
 40
7.0
 10
102.5043375394781
 20
-141.4308159368645
 30
0.0
 10
102.5043375394781
 20
-141.4308159368645
 30
0.0
 10
102.5043375394781
 20
-141.6678385062497
 30
0.0
 10
102.5043375394781
 20
-141.6678385062497
 30
0.0
 10
102.1953124744512
 20
-141.6423447996589
 30
0.0
 10
101.6771701134696
 20
-141.4497639620334
 30
0.0
 10
101.1714300962349
 20
-141.0435872043224
 30
0.0
 10
101.1714300962349
 20
-141.0435872043224
 30
0.0
 10
101.1714300962349
 20
-141.8814344263352
 30
0.0
 10
101.1714300962349
 20
-141.8814344263352
 30
0.0
 10
101.1714300962349
 20
-141.8814344263352
 30
0.0
 10
100.9599012334406
 20
-141.8814344263352
 30
0.0
 10
100.9599012334406
 20
-141.8814344263352
 30
0.0
 10
100.9599012334406
 20
-141.8814344263352
 30
0.0
 10
100.9599012334406
 20
-140.8065646349372
 30
0.0
 10
100.9599012334406
 20
-140.8065646349372
 30
0.0
 10
100.9599012334406
 20
-140.8065646349372
 30
0.0
 10
101.1714300962349
 20
-140.8065646349372
 30
0.0
 10
101.1714300962349
 20
-140.8065646349372
 30
0.0
 10
101.461507136093
 20
-141.1304036105507
 30
0.0
 10
102.0537190500074
 20
-141.3970540011091
 30
0.0
 10
102.5043375394781
 20
-141.4308159368645
 30
0.0
  0
HATCH
  5
BF
330
AF
100
AcDbEntity
  8
_U+30EC_U+30A4_U+30E4_U+30FC 1
 62
     7
420
 16777215
100
AcDbHatch
 10
0.0
 20
0.0
 30
0.0
210
0.0
220
0.0
230
1.0
  2
SOLID
 70
     1
 71
     0
 91
        1
 92
        1
 93
        1
 72
     4
 94
        3
 73
     0
 74
     1
 95
       26
 96
       22
 40
0.0
 40
0.0
 40
0.0
 40
0.0
 40
1.0
 40
1.0
 40
1.0
 40
2.0
 40
2.0
 40
2.0
 40
3.0
 40
3.0
 40
3.0
 40
4.0
 40
4.0
 40
4.0
 40
5.0
 40
5.0
 40
5.0
 40
6.0
 40
6.0
 40
6.0
 40
7.0
 40
7.0
 40
7.0
 40
7.0
 10
102.5043375394781
 20
-141.4308159368645
 10
102.5043375394781
 20
-141.4308159368645
 10
102.5043375394781
 20
-141.6678385062497
 10
102.5043375394781
 20
-141.6678385062497
 10
102.1953124744512
 20
-141.6423447996589
 10
101.6771701134696
 20
-141.4497639620334
 10
101.1714300962349
 20
-141.0435872043224
 10
101.1714300962349
 20
-141.0435872043224
 10
101.1714300962349
 20
-141.8814344263352
 10
101.1714300962349
 20
-141.8814344263352
 10
101.1714300962349
 20
-141.8814344263352
 10
100.9599012334406
 20
-141.8814344263352
 10
100.9599012334406
 20
-141.8814344263352
 10
100.9599012334406
 20
-141.8814344263352
 10
100.9599012334406
 20
-140.8065646349372
 10
100.9599012334406
 20
-140.8065646349372
 10
100.9599012334406
 20
-140.8065646349372
 10
101.1714300962349
 20
-140.8065646349372
 10
101.1714300962349
 20
-140.8065646349372
 10
101.461507136093
 20
-141.1304036105507
 10
102.0537190500074
 20
-141.3970540011091
 10
102.5043375394781
 20
-141.4308159368645
 97
        0
 97
        0
 75
     2
 76
     1
 98
        0
  0
ENDBLK
  5
B2
330
AF
100
AcDbEntity
  8
0
100
AcDbBlockEnd
  0
BLOCK
  5
D2
330
D0
100
AcDbEntity
  8
0
100
AcDbBlockBegin
  2
block 5
 70
     0
 10
0.0
 20
0.0
 30
0.0
  3
block 5
  1

  0
SPLINE
  5
D4
330
D0
100
AcDbEntity
  8
_U+30EC_U+30A4_U+30E4_U+30FC 1
370
     0
100
AcDbSpline
210
0.0
220
0.0
230
1.0
 70
    11
 71
     3
 72
    44
 73
    40
 74
     0
 42
0.0000000001
 43
0.0000000001
 12
1.0
 22
0.0
 32
0.0
 13
1.0
 23
0.0
 33
0.0
 40
0.0
 40
0.0
 40
0.0
 40
0.0
 40
1.0
 40
1.0
 40
1.0
 40
2.0
 40
2.0
 40
2.0
 40
3.0
 40
3.0
 40
3.0
 40
4.0
 40
4.0
 40
4.0
 40
5.0
 40
5.0
 40
5.0
 40
6.0
 40
6.0
 40
6.0
 40
7.0
 40
7.0
 40
7.0
 40
8.0
 40
8.0
 40
8.0
 40
9.0
 40
9.0
 40
9.0
 40
10.0
 40
10.0
 40
10.0
 40
11.0
 40
11.0
 40
11.0
 40
12.0
 40
12.0
 40
12.0
 40
13.0
 40
13.0
 40
13.0
 40
13.0
 10
102.275238689709
 20
-130.1825791775238
 30
0.0
 10
102.434057591579
 20
-130.4003092121916
 30
0.0
 10
102.5081271445119
 20
-130.4933267902933
 30
0.0
 10
102.6517876262468
 20
-130.5422471461839
 30
0.0
 10
102.6517876262468
 20
-130.5422471461839
 30
0.0
 10
102.6517876262468
 20
-129.7636555665174
 30
0.0
 10
102.6517876262468
 20
-129.7636555665174
 30
0.0
 10
102.6517876262468
 20
-129.7636555665174
 30
0.0
 10
102.8571153171677
 20
-129.7636555665174
 30
0.0
 10
102.8571153171677
 20
-129.7636555665174
 30
0.0
 10
102.8571153171677
 20
-129.7636555665174
 30
0.0
 10
102.8571153171677
 20
-130.791672059316
 30
0.0
 10
102.8571153171677
 20
-130.791672059316
 30
0.0
 10
102.4995144057987
 20
-130.7599771808517
 30
0.0
 10
102.4213107382836
 20
-130.6945203666319
 30
0.0
 10
102.1229654692609
 20
-130.309358691381
 30
0.0
 10
101.924183459762
 20
-130.053388096827
 30
0.0
 10
101.8563150787026
 20
-129.9879312826072
 30
0.0
 10
101.7188557688411
 20
-129.9879312826072
 30
0.0
 10
101.6003444841485
 20
-129.9879312826072
 30
0.0
 10
101.469430855709
 20
-130.0599337782489
 30
0.0
 10
101.469430855709
 20
-130.2566487304567
 30
0.0
 10
101.469430855709
 20
-130.516753439593
 30
0.0
 10
101.6999077436723
 20
-130.5253661783062
 30
0.0
 10
101.8163519710737
 20
-130.5295002928885
 30
0.0
 10
101.8163519710737
 20
-130.5295002928885
 30
0.0
 10
101.8163519710737
 20
-130.7537760089782
 30
0.0
 10
101.8163519710737
 20
-130.7537760089782
 30
0.0
 10
101.689227947668
 20
-130.7451632702651
 30
0.0
 10
101.5772623443974
 20
-130.7344834742608
 30
0.0
 10
101.4587510597048
 20
-130.6542127494545
 30
0.0
 10
101.2978651005436
 20
-130.544314203475
 30
0.0
 10
101.2641031647881
 20
-130.357934537723
 30
0.0
 10
101.2641031647881
 20
-130.2418348198701
 30
0.0
 10
101.2641031647881
 20
-129.9645046333075
 30
0.0
 10
101.4480712637005
 20
-129.7571098850954
 30
0.0
 10
101.7209228261323
 20
-129.7571098850954
 30
0.0
 10
101.9496771663529
 20
-129.7571098850954
 30
0.0
 10
102.0488959163281
 20
-129.8735541124969
 30
0.0
 10
102.275238689709
 20
-130.1825791775238
 30
0.0
  0
HATCH
  5
D5
330
D0
100
AcDbEntity
  8
_U+30EC_U+30A4_U+30E4_U+30FC 1
 62
     7
420
 16777215
100
AcDbHatch
 10
0.0
 20
0.0
 30
0.0
210
0.0
220
0.0
230
1.0
  2
SOLID
 70
     1
 71
     0
 91
        1
 92
        1
 93
        1
 72
     4
 94
        3
 73
     0
 74
     1
 95
       44
 96
       40
 40
0.0
 40
0.0
 40
0.0
 40
0.0
 40
1.0
 40
1.0
 40
1.0
 40
2.0
 40
2.0
 40
2.0
 40
3.0
 40
3.0
 40
3.0
 40
4.0
 40
4.0
 40
4.0
 40
5.0
 40
5.0
 40
5.0
 40
6.0
 40
6.0
 40
6.0
 40
7.0
 40
7.0
 40
7.0
 40
8.0
 40
8.0
 40
8.0
 40
9.0
 40
9.0
 40
9.0
 40
10.0
 40
10.0
 40
10.0
 40
11.0
 40
11.0
 40
11.0
 40
12.0
 40
12.0
 40
12.0
 40
13.0
 40
13.0
 40
13.0
 40
13.0
 10
102.275238689709
 20
-130.1825791775238
 10
102.434057591579
 20
-130.4003092121916
 10
102.5081271445119
 20
-130.4933267902933
 10
102.6517876262468
 20
-130.5422471461839
 10
102.6517876262468
 20
-130.5422471461839
 10
102.6517876262468
 20
-129.7636555665174
 10
102.6517876262468
 20
-129.7636555665174
 10
102.6517876262468
 20
-129.7636555665174
 10
102.8571153171677
 20
-129.7636555665174
 10
102.8571153171677
 20
-129.7636555665174
 10
102.8571153171677
 20
-129.7636555665174
 10
102.8571153171677
 20
-130.791672059316
 10
102.8571153171677
 20
-130.791672059316
 10
102.4995144057987
 20
-130.7599771808517
 10
102.4213107382836
 20
-130.6945203666319
 10
102.1229654692609
 20
-130.309358691381
 10
101.924183459762
 20
-130.053388096827
 10
101.8563150787026
 20
-129.9879312826072
 10
101.7188557688411
 20
-129.9879312826072
 10
101.6003444841485
 20
-129.9879312826072
 10
101.469430855709
 20
-130.0599337782489
 10
101.469430855709
 20
-130.2566487304567
 10
101.469430855709
 20
-130.516753439593
 10
101.6999077436723
 20
-130.5253661783062
 10
101.8163519710737
 20
-130.5295002928885
 10
101.8163519710737
 20
-130.5295002928885
 10
101.8163519710737
 20
-130.7537760089782
 10
101.8163519710737
 20
-130.7537760089782
 10
101.689227947668
 20
-130.7451632702651
 10
101.5772623443974
 20
-130.7344834742608
 10
101.4587510597048
 20
-130.6542127494545
 10
101.2978651005436
 20
-130.544314203475
 10
101.2641031647881
 20
-130.357934537723
 10
101.2641031647881
 20
-130.2418348198701
 10
101.2641031647881
 20
-129.9645046333075
 10
101.4480712637005
 20
-129.7571098850954
 10
101.7209228261323
 20
-129.7571098850954
 10
101.9496771663529
 20
-129.7571098850954
 10
102.0488959163281
 20
-129.8735541124969
 10
102.275238689709
 20
-130.1825791775238
 97
        0
 97
        0
 75
     2
 76
     1
 98
        0
  0
SPLINE
  5
D6
330
D0
100
AcDbEntity
  8
_U+30EC_U+30A4_U+30E4_U+30FC 1
370
     0
100
AcDbSpline
210
0.0
220
0.0
230
1.0
 70
    11
 71
     3
 72
    26
 73
    22
 74
     0
 42
0.0000000001
 43
0.0000000001
 12
1.0
 22
0.0
 32
0.0
 13
1.0
 23
0.0
 33
0.0
 40
0.0
 40
0.0
 40
0.0
 40
0.0
 40
1.0
 40
1.0
 40
1.0
 40
2.0
 40
2.0
 40
2.0
 40
3.0
 40
3.0
 40
3.0
 40
4.0
 40
4.0
 40
4.0
 40
5.0
 40
5.0
 40
5.0
 40
6.0
 40
6.0
 40
6.0
 40
7.0
 40
7.0
 40
7.0
 40
7.0
 10
102.8571153171677
 20
-129.1473279842062
 30
0.0
 10
102.8571153171677
 20
-129.1473279842062
 30
0.0
 10
101.7529622141451
 20
-129.1473279842062
 30
0.0
 10
101.7529622141451
 20
-129.1473279842062
 30
0.0
 10
101.7529622141451
 20
-129.1473279842062
 30
0.0
 10
101.7529622141451
 20
-129.4773681316932
 30
0.0
 10
101.7529622141451
 20
-129.4773681316932
 30
0.0
 10
101.7529622141451
 20
-129.4773681316932
 30
0.0
 10
101.6048231082793
 20
-129.4773681316932
 30
0.0
 10
101.6048231082793
 20
-129.4773681316932
 30
0.0
 10
101.5900091976928
 20
-129.1452609269151
 30
0.0
 10
101.4270561812405
 20
-129.0987521378642
 30
0.0
 10
101.3126790111302
 20
-129.069124316691
 30
0.0
 10
101.3126790111302
 20
-129.069124316691
 30
0.0
 10
101.3126790111302
 20
-128.9230522681165
 30
0.0
 10
101.3126790111302
 20
-128.9230522681165
 30
0.0
 10
101.3126790111302
 20
-128.9230522681165
 30
0.0
 10
102.8571153171677
 20
-128.9230522681165
 30
0.0
 10
102.8571153171677
 20
-128.9230522681165
 30
0.0
 10
102.8571153171677
 20
-128.9230522681165
 30
0.0
 10
102.8571153171677
 20
-129.1473279842062
 30
0.0
 10
102.8571153171677
 20
-129.1473279842062
 30
0.0
  0
HATCH
  5
D7
330
D0
100
AcDbEntity
  8
_U+30EC_U+30A4_U+30E4_U+30FC 1
 62
     7
420
 16777215
100
AcDbHatch
 10
0.0
 20
0.0
 30
0.0
210
0.0
220
0.0
230
1.0
  2
SOLID
 70
     1
 71
     0
 91
        1
 92
        1
 93
        1
 72
     4
 94
        3
 73
     0
 74
     1
 95
       26
 96
       22
 40
0.0
 40
0.0
 40
0.0
 40
0.0
 40
1.0
 40
1.0
 40
1.0
 40
2.0
 40
2.0
 40
2.0
 40
3.0
 40
3.0
 40
3.0
 40
4.0
 40
4.0
 40
4.0
 40
5.0
 40
5.0
 40
5.0
 40
6.0
 40
6.0
 40
6.0
 40
7.0
 40
7.0
 40
7.0
 40
7.0
 10
102.8571153171677
 20
-129.1473279842062
 10
102.8571153171677
 20
-129.1473279842062
 10
101.7529622141451
 20
-129.1473279842062
 10
101.7529622141451
 20
-129.1473279842062
 10
101.7529622141451
 20
-129.1473279842062
 10
101.7529622141451
 20
-129.4773681316932
 10
101.7529622141451
 20
-129.4773681316932
 10
101.7529622141451
 20
-129.4773681316932
 10
101.6048231082793
 20
-129.4773681316932
 10
101.6048231082793
 20
-129.4773681316932
 10
101.5900091976928
 20
-129.1452609269151
 10
101.4270561812405
 20
-129.0987521378642
 10
101.3126790111302
 20
-129.069124316691
 10
101.3126790111302
 20
-129.069124316691
 10
101.3126790111302
 20
-128.9230522681165
 10
101.3126790111302
 20
-128.9230522681165
 10
101.3126790111302
 20
-128.9230522681165
 10
102.8571153171677
 20
-128.9230522681165
 10
102.8571153171677
 20
-128.9230522681165
 10
102.8571153171677
 20
-128.9230522681165
 10
102.8571153171677
 20
-129.1473279842062
 10
102.8571153171677
 20
-129.1473279842062
 97
        0
 97
        0
 75
     2
 76
     1
 98
        0
  0
POLYLINE
  5
D8
330
D0
100
AcDbEntity
  8
_U+30EC_U+30A4_U+30E4_U+30FC 1
370
     0
100
AcDb2dPolyline
 66
     1
 10
0.0
 20
0.0
 30
0.0
  0
VERTEX
  5
D9
330
D8
100
AcDbEntity
  8
_U+30EC_U+30A4_U+30E4_U+30FC 1
370
     0
100
AcDbVertex
100
AcDb2dVertex
 10
102.8571153171677
 20
-128.3618462135693
 30
0.0
  0
VERTEX
  5
DA
330
D8
100
AcDbEntity
  8
_U+30EC_U+30A4_U+30E4_U+30FC 1
370
     0
100
AcDbVertex
100
AcDb2dVertex
 10
102.6052788371959
 20
-128.3618462135693
 30
0.0
  0
VERTEX
  5
DB
330
D8
100
AcDbEntity
  8
_U+30EC_U+30A4_U+30E4_U+30FC 1
370
     0
100
AcDbVertex
100
AcDb2dVertex
 10
102.6052788371959
 20
-128.1100097335975
 30
0.0
  0
VERTEX
  5
DC
330
D8
100
AcDbEntity
  8
_U+30EC_U+30A4_U+30E4_U+30FC 1
370
     0
100
AcDbVertex
100
AcDb2dVertex
 10
102.8571153171677
 20
-128.1100097335975
 30
0.0
  0
VERTEX
  5
DD
330
D8
100
AcDbEntity
  8
_U+30EC_U+30A4_U+30E4_U+30FC 1
370
     0
100
AcDbVertex
100
AcDb2dVertex
 10
102.8571153171677
 20
-128.3618462135693
 30
0.0
  0
SEQEND
  5
DE
330
D8
100
AcDbEntity
  8
_U+30EC_U+30A4_U+30E4_U+30FC 1
370
     0
  0
HATCH
  5
DF
330
D0
100
AcDbEntity
  8
_U+30EC_U+30A4_U+30E4_U+30FC 1
 62
     7
420
 16777215
100
AcDbHatch
 10
0.0
 20
0.0
 30
0.0
210
0.0
220
0.0
230
1.0
  2
SOLID
 70
     1
 71
     0
 91
        1
 92
        1
 93
        4
 72
     1
 10
102.8571153171677
 20
-128.3618462135693
 11
102.6052788371959
 21
-128.3618462135693
 72
     1
 10
102.6052788371959
 20
-128.3618462135693
 11
102.6052788371959
 21
-128.1100097335975
 72
     1
 10
102.6052788371959
 20
-128.1100097335975
 11
102.8571153171677
 21
-128.1100097335975
 72
     1
 10
102.8571153171677
 20
-128.1100097335975
 11
102.8571153171677
 21
-128.3618462135693
 97
        0
 75
     2
 76
     1
 98
        0
  0
SPLINE
  5
E0
330
D0
100
AcDbEntity
  8
_U+30EC_U+30A4_U+30E4_U+30FC 1
370
     0
100
AcDbSpline
210
0.0
220
0.0
230
1.0
 70
    11
 71
     3
 72
    53
 73
    49
 74
     0
 42
0.0000000001
 43
0.0000000001
 12
1.0
 22
0.0
 32
0.0
 13
1.0
 23
0.0
 33
0.0
 40
0.0
 40
0.0
 40
0.0
 40
0.0
 40
1.0
 40
1.0
 40
1.0
 40
2.0
 40
2.0
 40
2.0
 40
3.0
 40
3.0
 40
3.0
 40
4.0
 40
4.0
 40
4.0
 40
5.0
 40
5.0
 40
5.0
 40
6.0
 40
6.0
 40
6.0
 40
7.0
 40
7.0
 40
7.0
 40
8.0
 40
8.0
 40
8.0
 40
9.0
 40
9.0
 40
9.0
 40
10.0
 40
10.0
 40
10.0
 40
11.0
 40
11.0
 40
11.0
 40
12.0
 40
12.0
 40
12.0
 40
13.0
 40
13.0
 40
13.0
 40
14.0
 40
14.0
 40
14.0
 40
15.0
 40
15.0
 40
15.0
 40
16.0
 40
16.0
 40
16.0
 40
16.0
 10
102.9077582208008
 20
-127.3927408535685
 30
0.0
 10
102.9077582208008
 20
-127.4709445210837
 30
0.0
 10
102.8908772529231
 20
-127.5725748378985
 30
0.0
 10
102.8274874959945
 20
-127.6742051547134
 30
0.0
 10
102.7175889500151
 20
-127.8474934576215
 30
0.0
 10
102.586330812027
 20
-127.86885304963
 30
0.0
 10
102.4784993233387
 20
-127.8878010747989
 30
0.0
 10
102.4784993233387
 20
-127.8878010747989
 30
0.0
 10
102.4784993233387
 20
-127.6655924160003
 30
0.0
 10
102.4784993233387
 20
-127.6655924160003
 30
0.0
 10
102.6772813328376
 20
-127.6108153977848
 30
0.0
 10
102.7069091540108
 20
-127.4836913743791
 30
0.0
 10
102.7069091540108
 20
-127.3906737962773
 30
0.0
 10
102.7069091540108
 20
-127.2511474291247
 30
0.0
 10
102.6073458944871
 20
-127.0988742086767
 30
0.0
 10
102.3748019492327
 20
-127.0988742086767
 30
0.0
 10
102.1188313546786
 20
-127.0988742086767
 30
0.0
 10
102.0488959163281
 20
-127.2787081930067
 30
0.0
 10
102.0488959163281
 20
-127.3992865349905
 30
0.0
 10
102.0488959163281
 20
-127.4309814134548
 30
0.0
 10
102.0488959163281
 20
-127.5725748378985
 30
0.0
 10
102.1780869970249
 20
-127.661458301418
 30
0.0
 10
102.1780869970249
 20
-127.661458301418
 30
0.0
 10
102.1591389718561
 20
-127.8371581711657
 30
0.0
 10
102.1591389718561
 20
-127.8371581711657
 30
0.0
 10
102.1591389718561
 20
-127.8371581711657
 30
0.0
 10
101.3126790111302
 20
-127.716579829182
 30
0.0
 10
101.3126790111302
 20
-127.716579829182
 30
0.0
 10
101.3126790111302
 20
-127.716579829182
 30
0.0
 10
101.3126790111302
 20
-126.9379882495155
 30
0.0
 10
101.3126790111302
 20
-126.9379882495155
 30
0.0
 10
101.3126790111302
 20
-126.9379882495155
 30
0.0
 10
101.5073269060468
 20
-126.9379882495155
 30
0.0
 10
101.5073269060468
 20
-126.9379882495155
 30
0.0
 10
101.5073269060468
 20
-126.9379882495155
 30
0.0
 10
101.5073269060468
 20
-127.5536268127297
 30
0.0
 10
101.5073269060468
 20
-127.5536268127297
 30
0.0
 10
101.5073269060468
 20
-127.5536268127297
 30
0.0
 10
101.9303846316355
 20
-127.6190836269494
 30
0.0
 10
101.9303846316355
 20
-127.6190836269494
 30
0.0
 10
101.89662269588
 20
-127.557760927312
 30
0.0
 10
101.8563150787026
 20
-127.4754231452145
 30
0.0
 10
101.8563150787026
 20
-127.3569118605219
 30
0.0
 10
101.8563150787026
 20
-127.103008323259
 30
0.0
 10
102.0426947444546
 20
-126.8659857538738
 30
0.0
 10
102.3558539240638
 20
-126.8659857538738
 30
0.0
 10
102.6731472182553
 20
-126.8659857538738
 30
0.0
 10
102.9077582208008
 20
-127.0902614699636
 30
0.0
 10
102.9077582208008
 20
-127.3927408535685
 30
0.0
  0
HATCH
  5
E1
330
D0
100
AcDbEntity
  8
_U+30EC_U+30A4_U+30E4_U+30FC 1
 62
     7
420
 16777215
100
AcDbHatch
 10
0.0
 20
0.0
 30
0.0
210
0.0
220
0.0
230
1.0
  2
SOLID
 70
     1
 71
     0
 91
        1
 92
        1
 93
        1
 72
     4
 94
        3
 73
     0
 74
     1
 95
       53
 96
       49
 40
0.0
 40
0.0
 40
0.0
 40
0.0
 40
1.0
 40
1.0
 40
1.0
 40
2.0
 40
2.0
 40
2.0
 40
3.0
 40
3.0
 40
3.0
 40
4.0
 40
4.0
 40
4.0
 40
5.0
 40
5.0
 40
5.0
 40
6.0
 40
6.0
 40
6.0
 40
7.0
 40
7.0
 40
7.0
 40
8.0
 40
8.0
 40
8.0
 40
9.0
 40
9.0
 40
9.0
 40
10.0
 40
10.0
 40
10.0
 40
11.0
 40
11.0
 40
11.0
 40
12.0
 40
12.0
 40
12.0
 40
13.0
 40
13.0
 40
13.0
 40
14.0
 40
14.0
 40
14.0
 40
15.0
 40
15.0
 40
15.0
 40
16.0
 40
16.0
 40
16.0
 40
16.0
 10
102.9077582208008
 20
-127.3927408535685
 10
102.9077582208008
 20
-127.4709445210837
 10
102.8908772529231
 20
-127.5725748378985
 10
102.8274874959945
 20
-127.6742051547134
 10
102.7175889500151
 20
-127.8474934576215
 10
102.586330812027
 20
-127.86885304963
 10
102.4784993233387
 20
-127.8878010747989
 10
102.4784993233387
 20
-127.8878010747989
 10
102.4784993233387
 20
-127.6655924160003
 10
102.4784993233387
 20
-127.6655924160003
 10
102.6772813328376
 20
-127.6108153977848
 10
102.7069091540108
 20
-127.4836913743791
 10
102.7069091540108
 20
-127.3906737962773
 10
102.7069091540108
 20
-127.2511474291247
 10
102.6073458944871
 20
-127.0988742086767
 10
102.3748019492327
 20
-127.0988742086767
 10
102.1188313546786
 20
-127.0988742086767
 10
102.0488959163281
 20
-127.2787081930067
 10
102.0488959163281
 20
-127.3992865349905
 10
102.0488959163281
 20
-127.4309814134548
 10
102.0488959163281
 20
-127.5725748378985
 10
102.1780869970249
 20
-127.661458301418
 10
102.1780869970249
 20
-127.661458301418
 10
102.1591389718561
 20
-127.8371581711657
 10
102.1591389718561
 20
-127.8371581711657
 10
102.1591389718561
 20
-127.8371581711657
 10
101.3126790111302
 20
-127.716579829182
 10
101.3126790111302
 20
-127.716579829182
 10
101.3126790111302
 20
-127.716579829182
 10
101.3126790111302
 20
-126.9379882495155
 10
101.3126790111302
 20
-126.9379882495155
 10
101.3126790111302
 20
-126.9379882495155
 10
101.5073269060468
 20
-126.9379882495155
 10
101.5073269060468
 20
-126.9379882495155
 10
101.5073269060468
 20
-126.9379882495155
 10
101.5073269060468
 20
-127.5536268127297
 10
101.5073269060468
 20
-127.5536268127297
 10
101.5073269060468
 20
-127.5536268127297
 10
101.9303846316355
 20
-127.6190836269494
 10
101.9303846316355
 20
-127.6190836269494
 10
101.89662269588
 20
-127.557760927312
 10
101.8563150787026
 20
-127.4754231452145
 10
101.8563150787026
 20
-127.3569118605219
 10
101.8563150787026
 20
-127.103008323259
 10
102.0426947444546
 20
-126.8659857538738
 10
102.3558539240638
 20
-126.8659857538738
 10
102.6731472182553
 20
-126.8659857538738
 10
102.9077582208008
 20
-127.0902614699636
 10
102.9077582208008
 20
-127.3927408535685
 97
        0
 97
        0
 75
     2
 76
     1
 98
        0
  0
ENDBLK
  5
D3
330
D0
100
AcDbEntity
  8
0
100
AcDbBlockEnd
  0
BLOCK
  5
F0
330
EE
100
AcDbEntity
  8
0
100
AcDbBlockBegin
  2
block 6
 70
     0
 10
0.0
 20
0.0
 30
0.0
  3
block 6
  1

  0
SPLINE
  5
F2
330
EE
100
AcDbEntity
  8
_U+30EC_U+30A4_U+30E4_U+30FC 1
370
     0
100
AcDbSpline
210
0.0
220
0.0
230
1.0
 70
    11
 71
     3
 72
    26
 73
    22
 74
     0
 42
0.0000000001
 43
0.0000000001
 12
1.0
 22
0.0
 32
0.0
 13
1.0
 23
0.0
 33
0.0
 40
0.0
 40
0.0
 40
0.0
 40
0.0
 40
1.0
 40
1.0
 40
1.0
 40
2.0
 40
2.0
 40
2.0
 40
3.0
 40
3.0
 40
3.0
 40
4.0
 40
4.0
 40
4.0
 40
5.0
 40
5.0
 40
5.0
 40
6.0
 40
6.0
 40
6.0
 40
7.0
 40
7.0
 40
7.0
 40
7.0
 10
95.8663275584987
 20
-113.9196614298534
 30
0.0
 10
95.8663275584987
 20
-113.9196614298534
 30
0.0
 10
95.6293049891135
 20
-113.9196614298534
 30
0.0
 10
95.6293049891135
 20
-113.9196614298534
 30
0.0
 10
95.65479869570436
 20
-113.6108086196008
 30
0.0
 10
95.84737953332983
 20
-113.0924940038449
 30
0.0
 10
96.25355629104078
 20
-112.5869262413845
 30
0.0
 10
96.25355629104078
 20
-112.5869262413845
 30
0.0
 10
95.41570906902803
 20
-112.5869262413845
 30
0.0
 10
95.41570906902803
 20
-112.5869262413845
 30
0.0
 10
95.41570906902803
 20
-112.5869262413845
 30
0.0
 10
95.41570906902803
 20
-112.3753973785902
 30
0.0
 10
95.41570906902803
 20
-112.3753973785902
 30
0.0
 10
95.41570906902803
 20
-112.3753973785902
 30
0.0
 10
96.49057886042597
 20
-112.3753973785902
 30
0.0
 10
96.49057886042597
 20
-112.3753973785902
 30
0.0
 10
96.49057886042597
 20
-112.3753973785902
 30
0.0
 10
96.49057886042597
 20
-112.5869262413845
 30
0.0
 10
96.49057886042597
 20
-112.5869262413845
 30
0.0
 10
96.16673988481249
 20
-112.876658771694
 30
0.0
 10
95.90008949425415
 20
-113.4690429403827
 30
0.0
 10
95.8663275584987
 20
-113.9196614298534
 30
0.0
  0
HATCH
  5
F3
330
EE
100
AcDbEntity
  8
_U+30EC_U+30A4_U+30E4_U+30FC 1
 62
     7
420
 16777215
100
AcDbHatch
 10
0.0
 20
0.0
 30
0.0
210
0.0
220
0.0
230
1.0
  2
SOLID
 70
     1
 71
     0
 91
        1
 92
        1
 93
        1
 72
     4
 94
        3
 73
     0
 74
     1
 95
       26
 96
       22
 40
0.0
 40
0.0
 40
0.0
 40
0.0
 40
1.0
 40
1.0
 40
1.0
 40
2.0
 40
2.0
 40
2.0
 40
3.0
 40
3.0
 40
3.0
 40
4.0
 40
4.0
 40
4.0
 40
5.0
 40
5.0
 40
5.0
 40
6.0
 40
6.0
 40
6.0
 40
7.0
 40
7.0
 40
7.0
 40
7.0
 10
95.8663275584987
 20
-113.9196614298534
 10
95.8663275584987
 20
-113.9196614298534
 10
95.6293049891135
 20
-113.9196614298534
 10
95.6293049891135
 20
-113.9196614298534
 10
95.65479869570436
 20
-113.6108086196008
 10
95.84737953332983
 20
-113.0924940038449
 10
96.25355629104078
 20
-112.5869262413845
 10
96.25355629104078
 20
-112.5869262413845
 10
95.41570906902803
 20
-112.5869262413845
 10
95.41570906902803
 20
-112.5869262413845
 10
95.41570906902803
 20
-112.5869262413845
 10
95.41570906902803
 20
-112.3753973785902
 10
95.41570906902803
 20
-112.3753973785902
 10
95.41570906902803
 20
-112.3753973785902
 10
96.49057886042597
 20
-112.3753973785902
 10
96.49057886042597
 20
-112.3753973785902
 10
96.49057886042597
 20
-112.3753973785902
 10
96.49057886042597
 20
-112.5869262413845
 10
96.49057886042597
 20
-112.5869262413845
 10
96.16673988481249
 20
-112.876658771694
 10
95.90008949425415
 20
-113.4690429403827
 10
95.8663275584987
 20
-113.9196614298534
 97
        0
 97
        0
 75
     2
 76
     1
 98
        0
  0
ENDBLK
  5
F1
330
EE
100
AcDbEntity
  8
0
100
AcDbBlockEnd
  0
BLOCK
  5
FE
330
FC
100
AcDbEntity
  8
0
100
AcDbBlockBegin
  2
block 7
 70
     0
 10
0.0
 20
0.0
 30
0.0
  3
block 7
  1

  0
SPLINE
  5
100
330
FC
100
AcDbEntity
  8
_U+30EC_U+30A4_U+30E4_U+30FC 1
370
     0
100
AcDbSpline
210
0.0
220
0.0
230
1.0
 70
    11
 71
     3
 72
    26
 73
    22
 74
     0
 42
0.0000000001
 43
0.0000000001
 12
1.0
 22
0.0
 32
0.0
 13
1.0
 23
0.0
 33
0.0
 40
0.0
 40
0.0
 40
0.0
 40
0.0
 40
1.0
 40
1.0
 40
1.0
 40
2.0
 40
2.0
 40
2.0
 40
3.0
 40
3.0
 40
3.0
 40
4.0
 40
4.0
 40
4.0
 40
5.0
 40
5.0
 40
5.0
 40
6.0
 40
6.0
 40
6.0
 40
7.0
 40
7.0
 40
7.0
 40
7.0
 10
78.40675589402679
 20
-119.1692979302771
 30
0.0
 10
78.40675589402679
 20
-119.1692979302771
 30
0.0
 10
78.40675589402679
 20
-118.0649725724803
 30
0.0
 10
78.40675589402679
 20
-118.0649725724803
 30
0.0
 10
78.40675589402679
 20
-118.0649725724803
 30
0.0
 10
78.07671574653985
 20
-118.0649725724803
 30
0.0
 10
78.07671574653985
 20
-118.0649725724803
 30
0.0
 10
78.07671574653985
 20
-118.0649725724803
 30
0.0
 10
78.07671574653985
 20
-117.9170057213888
 30
0.0
 10
78.07671574653985
 20
-117.9170057213888
 30
0.0
 10
78.40882295131793
 20
-117.9021918108022
 30
0.0
 10
78.4553317403688
 20
-117.7392387943499
 30
0.0
 10
78.48495956154196
 20
-117.6250338790139
 30
0.0
 10
78.48495956154196
 20
-117.6250338790139
 30
0.0
 10
78.63103161011655
 20
-117.6250338790139
 30
0.0
 10
78.63103161011655
 20
-117.6250338790139
 30
0.0
 10
78.63103161011655
 20
-117.6250338790139
 30
0.0
 10
78.63103161011655
 20
-119.1692979302771
 30
0.0
 10
78.63103161011655
 20
-119.1692979302771
 30
0.0
 10
78.63103161011655
 20
-119.1692979302771
 30
0.0
 10
78.40675589402679
 20
-119.1692979302771
 30
0.0
 10
78.40675589402679
 20
-119.1692979302771
 30
0.0
  0
HATCH
  5
101
330
FC
100
AcDbEntity
  8
_U+30EC_U+30A4_U+30E4_U+30FC 1
 62
     7
420
 16777215
100
AcDbHatch
 10
0.0
 20
0.0
 30
0.0
210
0.0
220
0.0
230
1.0
  2
SOLID
 70
     1
 71
     0
 91
        1
 92
        1
 93
        1
 72
     4
 94
        3
 73
     0
 74
     1
 95
       26
 96
       22
 40
0.0
 40
0.0
 40
0.0
 40
0.0
 40
1.0
 40
1.0
 40
1.0
 40
2.0
 40
2.0
 40
2.0
 40
3.0
 40
3.0
 40
3.0
 40
4.0
 40
4.0
 40
4.0
 40
5.0
 40
5.0
 40
5.0
 40
6.0
 40
6.0
 40
6.0
 40
7.0
 40
7.0
 40
7.0
 40
7.0
 10
78.40675589402679
 20
-119.1692979302771
 10
78.40675589402679
 20
-119.1692979302771
 10
78.40675589402679
 20
-118.0649725724803
 10
78.40675589402679
 20
-118.0649725724803
 10
78.40675589402679
 20
-118.0649725724803
 10
78.07671574653985
 20
-118.0649725724803
 10
78.07671574653985
 20
-118.0649725724803
 10
78.07671574653985
 20
-118.0649725724803
 10
78.07671574653985
 20
-117.9170057213888
 10
78.07671574653985
 20
-117.9170057213888
 10
78.40882295131793
 20
-117.9021918108022
 10
78.4553317403688
 20
-117.7392387943499
 10
78.48495956154196
 20
-117.6250338790139
 10
78.48495956154196
 20
-117.6250338790139
 10
78.63103161011655
 20
-117.6250338790139
 10
78.63103161011655
 20
-117.6250338790139
 10
78.63103161011655
 20
-117.6250338790139
 10
78.63103161011655
 20
-119.1692979302771
 10
78.63103161011655
 20
-119.1692979302771
 10
78.63103161011655
 20
-119.1692979302771
 10
78.40675589402679
 20
-119.1692979302771
 10
78.40675589402679
 20
-119.1692979302771
 97
        0
 97
        0
 75
     2
 76
     1
 98
        0
  0
ENDBLK
  5
FF
330
FC
100
AcDbEntity
  8
0
100
AcDbBlockEnd
  0
ENDSEC
  0
SECTION
  2
ENTITIES
  0
POLYLINE
  5
41
330
1F
100
AcDbEntity
  8
_U+30EC_U+30A4_U+30E4_U+30FC 1
 62
     7
420
 16777215
370
    25
100
AcDb2dPolyline
 66
     1
 10
0.0
 20
0.0
 30
0.0
  0
VERTEX
  5
42
330
41
100
AcDbEntity
  8
_U+30EC_U+30A4_U+30E4_U+30FC 1
 62
     7
420
 16777215
370
    25
100
AcDbVertex
100
AcDb2dVertex
 10
81.45324708862121
 20
-117.5163455261764
 30
0.0
  0
VERTEX
  5
43
330
41
100
AcDbEntity
  8
_U+30EC_U+30A4_U+30E4_U+30FC 1
 62
     7
420
 16777215
370
    25
100
AcDbVertex
100
AcDb2dVertex
 10
81.45324708862121
 20
-141.0160374647459
 30
0.0
  0
SEQEND
  5
44
330
41
100
AcDbEntity
  8
_U+30EC_U+30A4_U+30E4_U+30FC 1
 62
     7
420
 16777215
370
    25
  0
POLYLINE
  5
45
330
1F
100
AcDbEntity
  8
_U+30EC_U+30A4_U+30E4_U+30FC 1
 62
     7
420
 16777215
370
    25
100
AcDb2dPolyline
 66
     1
 10
0.0
 20
0.0
 30
0.0
  0
VERTEX
  5
46
330
45
100
AcDbEntity
  8
_U+30EC_U+30A4_U+30E4_U+30FC 1
 62
     7
420
 16777215
370
    25
100
AcDbVertex
100
AcDb2dVertex
 10
82.4533720631059
 20
-140.0155596872185
 30
0.0
  0
VERTEX
  5
47
330
45
100
AcDbEntity
  8
_U+30EC_U+30A4_U+30E4_U+30FC 1
 62
     7
420
 16777215
370
    25
100
AcDbVertex
100
AcDb2dVertex
 10
92.45328125243141
 20
-140.0155596872185
 30
0.0
  0
SEQEND
  5
48
330
45
100
AcDbEntity
  8
_U+30EC_U+30A4_U+30E4_U+30FC 1
 62
     7
420
 16777215
370
    25
  0
POLYLINE
  5
49
330
1F
100
AcDbEntity
  8
_U+30EC_U+30A4_U+30E4_U+30FC 1
 62
     7
420
 16777215
370
    25
100
AcDb2dPolyline
 66
     1
 10
0.0
 20
0.0
 30
0.0
  0
VERTEX
  5
4A
330
49
100
AcDbEntity
  8
_U+30EC_U+30A4_U+30E4_U+30FC 1
 62
     7
420
 16777215
370
    25
100
AcDbVertex
100
AcDb2dVertex
 10
82.4533720631059
 20
-118.4416816370563
 30
0.0
  0
VERTEX
  5
4B
330
49
100
AcDbEntity
  8
_U+30EC_U+30A4_U+30E4_U+30FC 1
 62
     7
420
 16777215
370
    25
100
AcDbVertex
100
AcDb2dVertex
 10
89.4531179956386
 20
-118.4416816370563
 30
0.0
  0
SEQEND
  5
4C
330
49
100
AcDbEntity
  8
_U+30EC_U+30A4_U+30E4_U+30FC 1
 62
     7
420
 16777215
370
    25
  0
POLYLINE
  5
4D
330
1F
100
AcDbEntity
  8
_U+30EC_U+30A4_U+30E4_U+30FC 1
 62
     7
420
 16777215
370
    25
100
AcDb2dPolyline
 66
     1
 10
0.0
 20
0.0
 30
0.0
  0
VERTEX
  5
4E
330
4D
100
AcDbEntity
  8
_U+30EC_U+30A4_U+30E4_U+30FC 1
 62
     7
420
 16777215
370
    25
100
AcDbVertex
100
AcDb2dVertex
 10
81.45324708862121
 20
-117.4419446928616
 30
0.0
  0
VERTEX
  5
4F
330
4D
100
AcDbEntity
  8
_U+30EC_U+30A4_U+30E4_U+30FC 1
 62
     7
420
 16777215
370
    25
100
AcDbVertex
100
AcDb2dVertex
 10
89.08894550492943
 20
-117.4419446928616
 30
0.0
  0
SEQEND
  5
50
330
4D
100
AcDbEntity
  8
_U+30EC_U+30A4_U+30E4_U+30FC 1
 62
     7
420
 16777215
370
    25
  0
POLYLINE
  5
51
330
1F
100
AcDbEntity
  8
_U+30EC_U+30A4_U+30E4_U+30FC 1
 62
     7
420
 16777215
370
    25
100
AcDb2dPolyline
 66
     1
 10
0.0
 20
0.0
 30
0.0
  0
VERTEX
  5
52
330
51
100
AcDbEntity
  8
_U+30EC_U+30A4_U+30E4_U+30FC 1
 62
     7
420
 16777215
370
    25
100
AcDbVertex
100
AcDb2dVertex
 10
81.45324708862121
 20
-141.0160374647459
 30
0.0
  0
VERTEX
  5
53
330
51
100
AcDbEntity
  8
_U+30EC_U+30A4_U+30E4_U+30FC 1
 62
     7
420
 16777215
370
    25
100
AcDbVertex
100
AcDb2dVertex
 10
99.45302718496411
 20
-141.0160374647459
 30
0.0
  0
SEQEND
  5
54
330
51
100
AcDbEntity
  8
_U+30EC_U+30A4_U+30E4_U+30FC 1
 62
     7
420
 16777215
370
    25
  0
POLYLINE
  5
55
330
1F
100
AcDbEntity
  8
_U+30EC_U+30A4_U+30E4_U+30FC 1
 62
     7
420
 16777215
370
    25
100
AcDb2dPolyline
 66
     1
 10
0.0
 20
0.0
 30
0.0
  0
VERTEX
  5
56
330
55
100
AcDbEntity
  8
_U+30EC_U+30A4_U+30E4_U+30FC 1
 62
     7
420
 16777215
370
    25
100
AcDbVertex
100
AcDb2dVertex
 10
82.4533720631059
 20
-118.5161177481489
 30
0.0
  0
VERTEX
  5
57
330
55
100
AcDbEntity
  8
_U+30EC_U+30A4_U+30E4_U+30FC 1
 62
     7
420
 16777215
370
    25
100
AcDbVertex
100
AcDb2dVertex
 10
82.4533720631059
 20
-140.0155596872185
 30
0.0
  0
SEQEND
  5
58
330
55
100
AcDbEntity
  8
_U+30EC_U+30A4_U+30E4_U+30FC 1
 62
     7
420
 16777215
370
    25
  0
POLYLINE
  5
59
330
1F
100
AcDbEntity
  8
_U+30EC_U+30A4_U+30E4_U+30FC 1
 62
     7
420
 16777215
370
    25
100
AcDb2dPolyline
 66
     1
 10
0.0
 20
0.0
 30
0.0
  0
VERTEX
  5
5A
330
59
100
AcDbEntity
  8
_U+30EC_U+30A4_U+30E4_U+30FC 1
 62
     7
420
 16777215
370
    25
100
AcDbVertex
100
AcDb2dVertex
 10
92.75300124478491
 20
-140.3159852426989
 30
0.0
  0
VERTEX
  5
5B
330
59
100
AcDbEntity
  8
_U+30EC_U+30A4_U+30E4_U+30FC 1
 62
     7
420
 16777215
370
    25
100
AcDbVertex
100
AcDb2dVertex
 10
99.19878024700606
 20
-140.3159852426989
 30
0.0
  0
SEQEND
  5
5C
330
59
100
AcDbEntity
  8
_U+30EC_U+30A4_U+30E4_U+30FC 1
 62
     7
420
 16777215
370
    25
  0
POLYLINE
  5
5D
330
1F
100
AcDbEntity
  8
_U+30EC_U+30A4_U+30E4_U+30FC 1
 62
     7
420
 16777215
370
    25
100
AcDb2dPolyline
 66
     1
 10
0.0
 20
0.0
 30
0.0
  0
VERTEX
  5
5E
330
5D
100
AcDbEntity
  8
_U+30EC_U+30A4_U+30E4_U+30FC 1
 62
     7
420
 16777215
370
    25
100
AcDbVertex
100
AcDb2dVertex
 10
89.08894550492943
 20
-117.4419446928616
 30
0.0
  0
VERTEX
  5
5F
330
5D
100
AcDbEntity
  8
_U+30EC_U+30A4_U+30E4_U+30FC 1
 62
     7
420
 16777215
370
    25
100
AcDbVertex
100
AcDb2dVertex
 10
89.4531179956386
 20
-118.4416816370563
 30
0.0
  0
SEQEND
  5
60
330
5D
100
AcDbEntity
  8
_U+30EC_U+30A4_U+30E4_U+30FC 1
 62
     7
420
 16777215
370
    25
  0
POLYLINE
  5
61
330
1F
100
AcDbEntity
  8
_U+30EC_U+30A4_U+30E4_U+30FC 1
 62
     7
420
 16777215
370
    25
100
AcDb2dPolyline
 66
     1
 10
0.0
 20
0.0
 30
0.0
  0
VERTEX
  5
62
330
61
100
AcDbEntity
  8
_U+30EC_U+30A4_U+30E4_U+30FC 1
 62
     7
420
 16777215
370
    25
100
AcDbVertex
100
AcDb2dVertex
 10
99.19878024700606
 20
-140.3159852426989
 30
0.0
  0
VERTEX
  5
63
330
61
100
AcDbEntity
  8
_U+30EC_U+30A4_U+30E4_U+30FC 1
 62
     7
420
 16777215
370
    25
100
AcDbVertex
100
AcDb2dVertex
 10
99.45302718496411
 20
-141.0160374647459
 30
0.0
  0
SEQEND
  5
64
330
61
100
AcDbEntity
  8
_U+30EC_U+30A4_U+30E4_U+30FC 1
 62
     7
420
 16777215
370
    25
  0
POLYLINE
  5
65
330
1F
100
AcDbEntity
  8
_U+30EC_U+30A4_U+30E4_U+30FC 1
 62
     7
420
 16777215
370
    25
100
AcDb2dPolyline
 66
     1
 10
0.0
 20
0.0
 30
0.0
  0
VERTEX
  5
66
330
65
100
AcDbEntity
  8
_U+30EC_U+30A4_U+30E4_U+30FC 1
 62
     7
420
 16777215
370
    25
100
AcDbVertex
100
AcDb2dVertex
 10
92.45328125243141
 20
-140.0155596872185
 30
0.0
  0
VERTEX
  5
67
330
65
100
AcDbEntity
  8
_U+30EC_U+30A4_U+30E4_U+30FC 1
 62
     7
420
 16777215
370
    25
100
AcDbVertex
100
AcDb2dVertex
 10
92.75300124478491
 20
-140.3159852426989
 30
0.0
  0
SEQEND
  5
68
330
65
100
AcDbEntity
  8
_U+30EC_U+30A4_U+30E4_U+30FC 1
 62
     7
420
 16777215
370
    25
  0
SPLINE
  5
69
330
1F
100
AcDbEntity
  8
_U+30EC_U+30A4_U+30E4_U+30FC 1
 62
     7
420
 16777215
370
     9
100
AcDbSpline
210
0.0
220
0.0
230
1.0
 70
    11
 71
     3
 72
    17
 73
    13
 74
     0
 42
0.0000000001
 43
0.0000000001
 12
1.0
 22
0.0
 32
0.0
 13
1.0
 23
0.0
 33
0.0
 40
0.0
 40
0.0
 40
0.0
 40
0.0
 40
1.0
 40
1.0
 40
1.0
 40
2.0
 40
2.0
 40
2.0
 40
3.0
 40
3.0
 40
3.0
 40
4.0
 40
4.0
 40
4.0
 40
4.0
 10
81.55350653050782
 20
-119.7659741367251
 30
0.0
 10
81.55350653050782
 20
-119.7108702478502
 30
0.0
 10
81.50870375387306
 20
-119.6660674700835
 30
0.0
 10
81.45324708862121
 20
-119.6660674700835
 30
0.0
 10
81.39779042336936
 20
-119.6660674700835
 30
0.0
 10
81.35298764673459
 20
-119.7108702478502
 30
0.0
 10
81.35298764673459
 20
-119.7659741367251
 30
0.0
 10
81.35298764673459
 20
-119.8211133033782
 30
0.0
 10
81.39779042336936
 20
-119.8658808033668
 30
0.0
 10
81.45324708862121
 20
-119.8658808033668
 30
0.0
 10
81.50870375387306
 20
-119.8658808033668
 30
0.0
 10
81.55350653050782
 20
-119.8211133033782
 30
0.0
 10
81.55350653050782
 20
-119.7659741367251
 30
0.0
  0
SPLINE
  5
6A
330
1F
100
AcDbEntity
  8
_U+30EC_U+30A4_U+30E4_U+30FC 1
 62
     7
420
 16777215
370
     9
100
AcDbSpline
210
0.0
220
0.0
230
1.0
 70
    11
 71
     3
 72
    17
 73
    13
 74
     0
 42
0.0000000001
 43
0.0000000001
 12
1.0
 22
0.0
 32
0.0
 13
1.0
 23
0.0
 33
0.0
 40
0.0
 40
0.0
 40
0.0
 40
0.0
 40
1.0
 40
1.0
 40
1.0
 40
2.0
 40
2.0
 40
2.0
 40
3.0
 40
3.0
 40
3.0
 40
4.0
 40
4.0
 40
4.0
 40
4.0
 10
82.55327872722373
 20
-119.7659741367251
 30
0.0
 10
82.55327872722373
 20
-119.7108702478502
 30
0.0
 10
82.50847595058897
 20
-119.6660674700835
 30
0.0
 10
82.4533720631059
 20
-119.6660674700835
 30
0.0
 10
82.39823289784594
 20
-119.6660674700835
 30
0.0
 10
82.35346539898806
 20
-119.7108702478502
 30
0.0
 10
82.35346539898806
 20
-119.7659741367251
 30
0.0
 10
82.35346539898806
 20
-119.8211133033782
 30
0.0
 10
82.39823289784594
 20
-119.8658808033668
 30
0.0
 10
82.4533720631059
 20
-119.8658808033668
 30
0.0
 10
82.50847595058897
 20
-119.8658808033668
 30
0.0
 10
82.55327872722373
 20
-119.8211133033782
 30
0.0
 10
82.55327872722373
 20
-119.7659741367251
 30
0.0
  0
SPLINE
  5
6B
330
1F
100
AcDbEntity
  8
_U+30EC_U+30A4_U+30E4_U+30FC 1
 62
     7
420
 16777215
370
     9
100
AcDbSpline
210
0.0
220
0.0
230
1.0
 70
    11
 71
     3
 72
    17
 73
    13
 74
     0
 42
0.0000000001
 43
0.0000000001
 12
1.0
 22
0.0
 32
0.0
 13
1.0
 23
0.0
 33
0.0
 40
0.0
 40
0.0
 40
0.0
 40
0.0
 40
1.0
 40
1.0
 40
1.0
 40
2.0
 40
2.0
 40
2.0
 40
3.0
 40
3.0
 40
3.0
 40
4.0
 40
4.0
 40
4.0
 40
4.0
 10
81.55350653050782
 20
-113.4421855271951
 30
0.0
 10
81.55350653050782
 20
-113.3863760827646
 30
0.0
 10
81.50870375387306
 20
-113.3422788605534
 30
0.0
 10
81.45324708862121
 20
-113.3422788605534
 30
0.0
 10
81.39779042336936
 20
-113.3422788605534
 30
0.0
 10
81.35298764673459
 20
-113.3863760827646
 30
0.0
 10
81.35298764673459
 20
-113.4421855271951
 30
0.0
 10
81.35298764673459
 20
-113.49728941607
 30
0.0
 10
81.39779042336936
 20
-113.5420921938367
 30
0.0
 10
81.45324708862121
 20
-113.5420921938367
 30
0.0
 10
81.50870375387306
 20
-113.5420921938367
 30
0.0
 10
81.55350653050782
 20
-113.49728941607
 30
0.0
 10
81.55350653050782
 20
-113.4421855271951
 30
0.0
  0
SPLINE
  5
6C
330
1F
100
AcDbEntity
  8
_U+30EC_U+30A4_U+30E4_U+30FC 1
 62
     7
420
 16777215
370
     9
100
AcDbSpline
210
0.0
220
0.0
230
1.0
 70
    11
 71
     3
 72
    17
 73
    13
 74
     0
 42
0.0000000001
 43
0.0000000001
 12
1.0
 22
0.0
 32
0.0
 13
1.0
 23
0.0
 33
0.0
 40
0.0
 40
0.0
 40
0.0
 40
0.0
 40
1.0
 40
1.0
 40
1.0
 40
2.0
 40
2.0
 40
2.0
 40
3.0
 40
3.0
 40
3.0
 40
4.0
 40
4.0
 40
4.0
 40
4.0
 10
89.55302465975645
 20
-113.4421855271951
 30
0.0
 10
89.55302465975645
 20
-113.3863760827646
 30
0.0
 10
89.50822188312168
 20
-113.3422788605534
 30
0.0
 10
89.4531179956386
 20
-113.3422788605534
 30
0.0
 10
89.39797883037866
 20
-113.3422788605534
 30
0.0
 10
89.35321133152078
 20
-113.3863760827646
 30
0.0
 10
89.35321133152078
 20
-113.4421855271951
 30
0.0
 10
89.35321133152078
 20
-113.49728941607
 30
0.0
 10
89.39797883037866
 20
-113.5420921938367
 30
0.0
 10
89.4531179956386
 20
-113.5420921938367
 30
0.0
 10
89.50822188312168
 20
-113.5420921938367
 30
0.0
 10
89.55302465975645
 20
-113.49728941607
 30
0.0
 10
89.55302465975645
 20
-113.4421855271951
 30
0.0
  0
SPLINE
  5
6D
330
1F
100
AcDbEntity
  8
_U+30EC_U+30A4_U+30E4_U+30FC 1
 62
     7
420
 16777215
370
     9
100
AcDbSpline
210
0.0
220
0.0
230
1.0
 70
    11
 71
     3
 72
    17
 73
    13
 74
     0
 42
0.0000000001
 43
0.0000000001
 12
1.0
 22
0.0
 32
0.0
 13
1.0
 23
0.0
 33
0.0
 40
0.0
 40
0.0
 40
0.0
 40
0.0
 40
1.0
 40
1.0
 40
1.0
 40
2.0
 40
2.0
 40
2.0
 40
3.0
 40
3.0
 40
3.0
 40
4.0
 40
4.0
 40
4.0
 40
4.0
 10
103.5533631914669
 20
-118.4416816370563
 30
0.0
 10
103.5533631914669
 20
-118.3865777481811
 30
0.0
 10
103.5085956926091
 20
-118.3417749704147
 30
0.0
 10
103.4534565273491
 20
-118.3417749704147
 30
0.0
 10
103.398352639866
 20
-118.3417749704147
 30
0.0
 10
103.3535498632313
 20
-118.3865777481811
 30
0.0
 10
103.3535498632313
 20
-118.4416816370563
 30
0.0
 10
103.3535498632313
 20
-118.4968208037091
 30
0.0
 10
103.398352639866
 20
-118.5415883036979
 30
0.0
 10
103.4534565273491
 20
-118.5415883036979
 30
0.0
 10
103.5085956926091
 20
-118.5415883036979
 30
0.0
 10
103.5533631914669
 20
-118.4968208037091
 30
0.0
 10
103.5533631914669
 20
-118.4416816370563
 30
0.0
  0
SPLINE
  5
6E
330
1F
100
AcDbEntity
  8
_U+30EC_U+30A4_U+30E4_U+30FC 1
 62
     7
420
 16777215
370
     9
100
AcDbSpline
210
0.0
220
0.0
230
1.0
 70
    11
 71
     3
 72
    17
 73
    13
 74
     0
 42
0.0000000001
 43
0.0000000001
 12
1.0
 22
0.0
 32
0.0
 13
1.0
 23
0.0
 33
0.0
 40
0.0
 40
0.0
 40
0.0
 40
0.0
 40
1.0
 40
1.0
 40
1.0
 40
2.0
 40
2.0
 40
2.0
 40
3.0
 40
3.0
 40
3.0
 40
4.0
 40
4.0
 40
4.0
 40
4.0
 10
103.5533631914669
 20
-140.0155596872185
 30
0.0
 10
103.5533631914669
 20
-139.9604557983435
 30
0.0
 10
103.5085956926091
 20
-139.9156530205768
 30
0.0
 10
103.4534565273491
 20
-139.9156530205768
 30
0.0
 10
103.398352639866
 20
-139.9156530205768
 30
0.0
 10
103.3535498632313
 20
-139.9604557983435
 30
0.0
 10
103.3535498632313
 20
-140.0155596872185
 30
0.0
 10
103.3535498632313
 20
-140.0713691316489
 30
0.0
 10
103.398352639866
 20
-140.1161719094156
 30
0.0
 10
103.4534565273491
 20
-140.1161719094156
 30
0.0
 10
103.5085956926091
 20
-140.1161719094156
 30
0.0
 10
103.5533631914669
 20
-140.0713691316489
 30
0.0
 10
103.5533631914669
 20
-140.0155596872185
 30
0.0
  0
SPLINE
  5
6F
330
1F
100
AcDbEntity
  8
_U+30EC_U+30A4_U+30E4_U+30FC 1
 62
     7
420
 16777215
370
     9
100
AcDbSpline
210
0.0
220
0.0
230
1.0
 70
    11
 71
     3
 72
    17
 73
    13
 74
     0
 42
0.0000000001
 43
0.0000000001
 12
1.0
 22
0.0
 32
0.0
 13
1.0
 23
0.0
 33
0.0
 40
0.0
 40
0.0
 40
0.0
 40
0.0
 40
1.0
 40
1.0
 40
1.0
 40
2.0
 40
2.0
 40
2.0
 40
3.0
 40
3.0
 40
3.0
 40
4.0
 40
4.0
 40
4.0
 40
4.0
 10
103.5533631914669
 20
-140.3159852426989
 30
0.0
 10
103.5533631914669
 20
-140.2608460760458
 30
0.0
 10
103.5085956926091
 20
-140.2160785760572
 30
0.0
 10
103.4534565273491
 20
-140.2160785760572
 30
0.0
 10
103.398352639866
 20
-140.2160785760572
 30
0.0
 10
103.3535498632313
 20
-140.2608460760458
 30
0.0
 10
103.3535498632313
 20
-140.3159852426989
 30
0.0
 10
103.3535498632313
 20
-140.3710891315738
 30
0.0
 10
103.398352639866
 20
-140.4158919093405
 30
0.0
 10
103.4534565273491
 20
-140.4158919093405
 30
0.0
 10
103.5085956926091
 20
-140.4158919093405
 30
0.0
 10
103.5533631914669
 20
-140.3710891315738
 30
0.0
 10
103.5533631914669
 20
-140.3159852426989
 30
0.0
  0
SPLINE
  5
70
330
1F
100
AcDbEntity
  8
_U+30EC_U+30A4_U+30E4_U+30FC 1
 62
     7
420
 16777215
370
     9
100
AcDbSpline
210
0.0
220
0.0
230
1.0
 70
    11
 71
     3
 72
    17
 73
    13
 74
     0
 42
0.0000000001
 43
0.0000000001
 12
1.0
 22
0.0
 32
0.0
 13
1.0
 23
0.0
 33
0.0
 40
0.0
 40
0.0
 40
0.0
 40
0.0
 40
1.0
 40
1.0
 40
1.0
 40
2.0
 40
2.0
 40
2.0
 40
3.0
 40
3.0
 40
3.0
 40
4.0
 40
4.0
 40
4.0
 40
4.0
 10
103.5533631914669
 20
-141.0160374647459
 30
0.0
 10
103.5533631914669
 20
-140.9608982980928
 30
0.0
 10
103.5085956926091
 20
-140.9161307981042
 30
0.0
 10
103.4534565273491
 20
-140.9161307981042
 30
0.0
 10
103.398352639866
 20
-140.9161307981042
 30
0.0
 10
103.3535498632313
 20
-140.9608982980928
 30
0.0
 10
103.3535498632313
 20
-141.0160374647459
 30
0.0
 10
103.3535498632313
 20
-141.0711413536208
 30
0.0
 10
103.398352639866
 20
-141.1159441313875
 30
0.0
 10
103.4534565273491
 20
-141.1159441313875
 30
0.0
 10
103.5085956926091
 20
-141.1159441313875
 30
0.0
 10
103.5533631914669
 20
-141.0711413536208
 30
0.0
 10
103.5533631914669
 20
-141.0160374647459
 30
0.0
  0
SPLINE
  5
71
330
1F
100
AcDbEntity
  8
_U+30EC_U+30A4_U+30E4_U+30FC 1
 62
     7
420
 16777215
370
     9
100
AcDbSpline
210
0.0
220
0.0
230
1.0
 70
    11
 71
     3
 72
    17
 73
    13
 74
     0
 42
0.0000000001
 43
0.0000000001
 12
1.0
 22
0.0
 32
0.0
 13
1.0
 23
0.0
 33
0.0
 40
0.0
 40
0.0
 40
0.0
 40
0.0
 40
1.0
 40
1.0
 40
1.0
 40
2.0
 40
2.0
 40
2.0
 40
3.0
 40
3.0
 40
3.0
 40
4.0
 40
4.0
 40
4.0
 40
4.0
 10
99.55293384908195
 20
-145.0157966304128
 30
0.0
 10
99.55293384908195
 20
-144.9606574637597
 30
0.0
 10
99.50883662798475
 20
-144.9158899637711
 30
0.0
 10
99.45302718496411
 20
-144.9158899637711
 30
0.0
 10
99.39788801970417
 20
-144.9158899637711
 30
0.0
 10
99.35312052084629
 20
-144.9606574637597
 30
0.0
 10
99.35312052084629
 20
-145.0157966304128
 30
0.0
 10
99.35312052084629
 20
-145.0709005192877
 30
0.0
 10
99.39788801970417
 20
-145.1157032970544
 30
0.0
 10
99.45302718496411
 20
-145.1157032970544
 30
0.0
 10
99.50883662798475
 20
-145.1157032970544
 30
0.0
 10
99.55293384908195
 20
-145.0709005192877
 30
0.0
 10
99.55293384908195
 20
-145.0157966304128
 30
0.0
  0
SPLINE
  5
72
330
1F
100
AcDbEntity
  8
_U+30EC_U+30A4_U+30E4_U+30FC 1
 62
     7
420
 16777215
370
     9
100
AcDbSpline
210
0.0
220
0.0
230
1.0
 70
    11
 71
     3
 72
    17
 73
    13
 74
     0
 42
0.0000000001
 43
0.0000000001
 12
1.0
 22
0.0
 32
0.0
 13
1.0
 23
0.0
 33
0.0
 40
0.0
 40
0.0
 40
0.0
 40
0.0
 40
1.0
 40
1.0
 40
1.0
 40
2.0
 40
2.0
 40
2.0
 40
3.0
 40
3.0
 40
3.0
 40
4.0
 40
4.0
 40
4.0
 40
4.0
 10
81.55350653050782
 20
-145.0157966304128
 30
0.0
 10
81.55350653050782
 20
-144.9606574637597
 30
0.0
 10
81.50870375387306
 20
-144.9158899637711
 30
0.0
 10
81.45324708862121
 20
-144.9158899637711
 30
0.0
 10
81.39779042336936
 20
-144.9158899637711
 30
0.0
 10
81.35298764673459
 20
-144.9606574637597
 30
0.0
 10
81.35298764673459
 20
-145.0157966304128
 30
0.0
 10
81.35298764673459
 20
-145.0709005192877
 30
0.0
 10
81.39779042336936
 20
-145.1157032970544
 30
0.0
 10
81.45324708862121
 20
-145.1157032970544
 30
0.0
 10
81.50870375387306
 20
-145.1157032970544
 30
0.0
 10
81.55350653050782
 20
-145.0709005192877
 30
0.0
 10
81.55350653050782
 20
-145.0157966304128
 30
0.0
  0
SPLINE
  5
73
330
1F
100
AcDbEntity
  8
_U+30EC_U+30A4_U+30E4_U+30FC 1
 62
     7
420
 16777215
370
     9
100
AcDbSpline
210
0.0
220
0.0
230
1.0
 70
    11
 71
     3
 72
    17
 73
    13
 74
     0
 42
0.0000000001
 43
0.0000000001
 12
1.0
 22
0.0
 32
0.0
 13
1.0
 23
0.0
 33
0.0
 40
0.0
 40
0.0
 40
0.0
 40
0.0
 40
1.0
 40
1.0
 40
1.0
 40
2.0
 40
2.0
 40
2.0
 40
3.0
 40
3.0
 40
3.0
 40
4.0
 40
4.0
 40
4.0
 40
4.0
 10
99.55293384908195
 20
-114.5156530269268
 30
0.0
 10
99.55293384908195
 20
-114.4605491380516
 30
0.0
 10
99.50883662798475
 20
-114.4157463602849
 30
0.0
 10
99.45302718496411
 20
-114.4157463602849
 30
0.0
 10
99.39788801970417
 20
-114.4157463602849
 30
0.0
 10
99.35312052084629
 20
-114.4605491380516
 30
0.0
 10
99.35312052084629
 20
-114.5156530269268
 30
0.0
 10
99.35312052084629
 20
-114.5707921935796
 30
0.0
 10
99.39788801970417
 20
-114.6155596935685
 30
0.0
 10
99.45302718496411
 20
-114.6155596935685
 30
0.0
 10
99.50883662798475
 20
-114.6155596935685
 30
0.0
 10
99.55293384908195
 20
-114.5707921935796
 30
0.0
 10
99.55293384908195
 20
-114.5156530269268
 30
0.0
  0
SPLINE
  5
74
330
1F
100
AcDbEntity
  8
_U+30EC_U+30A4_U+30E4_U+30FC 1
 62
     7
420
 16777215
370
     9
100
AcDbSpline
210
0.0
220
0.0
230
1.0
 70
    11
 71
     3
 72
    17
 73
    13
 74
     0
 42
0.0000000001
 43
0.0000000001
 12
1.0
 22
0.0
 32
0.0
 13
1.0
 23
0.0
 33
0.0
 40
0.0
 40
0.0
 40
0.0
 40
0.0
 40
1.0
 40
1.0
 40
1.0
 40
2.0
 40
2.0
 40
2.0
 40
3.0
 40
3.0
 40
3.0
 40
4.0
 40
4.0
 40
4.0
 40
4.0
 10
92.55318791654923
 20
-114.5156530269268
 30
0.0
 10
92.55318791654923
 20
-114.4605491380516
 30
0.0
 10
92.50838513991448
 20
-114.4157463602849
 30
0.0
 10
92.45328125243141
 20
-114.4157463602849
 30
0.0
 10
92.39814442134465
 20
-114.4157463602849
 30
0.0
 10
92.35337458831357
 20
-114.4605491380516
 30
0.0
 10
92.35337458831357
 20
-114.5156530269268
 30
0.0
 10
92.35337458831357
 20
-114.5707921935796
 30
0.0
 10
92.39814442134465
 20
-114.6155596935685
 30
0.0
 10
92.45328125243141
 20
-114.6155596935685
 30
0.0
 10
92.50838513991448
 20
-114.6155596935685
 30
0.0
 10
92.55318791654923
 20
-114.5707921935796
 30
0.0
 10
92.55318791654923
 20
-114.5156530269268
 30
0.0
  0
POLYLINE
  5
75
330
1F
100
AcDbEntity
  8
_U+30EC_U+30A4_U+30E4_U+30FC 1
 62
     7
420
 16777215
370
     9
100
AcDb2dPolyline
 66
     1
 10
0.0
 20
0.0
 30
0.0
  0
VERTEX
  5
76
330
75
100
AcDbEntity
  8
_U+30EC_U+30A4_U+30E4_U+30FC 1
 62
     7
420
 16777215
370
     9
100
AcDbVertex
100
AcDb2dVertex
 10
81.45324708862121
 20
-113.4421855271951
 30
0.0
  0
VERTEX
  5
77
330
75
100
AcDbEntity
  8
_U+30EC_U+30A4_U+30E4_U+30FC 1
 62
     7
420
 16777215
370
     9
100
AcDbVertex
100
AcDb2dVertex
 10
89.4531179956386
 20
-113.4421855271951
 30
0.0
  0
SEQEND
  5
78
330
75
100
AcDbEntity
  8
_U+30EC_U+30A4_U+30E4_U+30FC 1
 62
     7
420
 16777215
370
     9
  0
POLYLINE
  5
79
330
1F
100
AcDbEntity
  8
_U+30EC_U+30A4_U+30E4_U+30FC 1
 62
     7
420
 16777215
370
     9
100
AcDb2dPolyline
 66
     1
 10
0.0
 20
0.0
 30
0.0
  0
VERTEX
  5
7A
330
79
100
AcDbEntity
  8
_U+30EC_U+30A4_U+30E4_U+30FC 1
 62
     7
420
 16777215
370
     9
100
AcDbVertex
100
AcDb2dVertex
 10
81.45324708862121
 20
-114.9021916379412
 30
0.0
  0
VERTEX
  5
7B
330
79
100
AcDbEntity
  8
_U+30EC_U+30A4_U+30E4_U+30FC 1
 62
     7
420
 16777215
370
     9
100
AcDbVertex
100
AcDb2dVertex
 10
81.45324708862121
 20
-112.4417077496673
 30
0.0
  0
SEQEND
  5
7C
330
79
100
AcDbEntity
  8
_U+30EC_U+30A4_U+30E4_U+30FC 1
 62
     7
420
 16777215
370
     9
  0
POLYLINE
  5
7D
330
1F
100
AcDbEntity
  8
_U+30EC_U+30A4_U+30E4_U+30FC 1
 62
     7
420
 16777215
370
     9
100
AcDb2dPolyline
 66
     1
 10
0.0
 20
0.0
 30
0.0
  0
VERTEX
  5
7E
330
7D
100
AcDbEntity
  8
_U+30EC_U+30A4_U+30E4_U+30FC 1
 62
     7
420
 16777215
370
     9
100
AcDbVertex
100
AcDb2dVertex
 10
89.4531179956386
 20
-114.9021916379412
 30
0.0
  0
VERTEX
  5
7F
330
7D
100
AcDbEntity
  8
_U+30EC_U+30A4_U+30E4_U+30FC 1
 62
     7
420
 16777215
370
     9
100
AcDbVertex
100
AcDb2dVertex
 10
89.4531179956386
 20
-112.4417077496673
 30
0.0
  0
SEQEND
  5
80
330
7D
100
AcDbEntity
  8
_U+30EC_U+30A4_U+30E4_U+30FC 1
 62
     7
420
 16777215
370
     9
  0
INSERT
  5
82
330
1F
100
AcDbEntity
  8
_U+30EC_U+30A4_U+30E4_U+30FC 1
100
AcDbBlockReference
  2
block 2
 10
0.0
 20
0.0
 30
0.0
  0
POLYLINE
  5
89
330
1F
100
AcDbEntity
  8
_U+30EC_U+30A4_U+30E4_U+30FC 1
 62
     7
420
 16777215
370
     9
100
AcDb2dPolyline
 66
     1
 10
0.0
 20
0.0
 30
0.0
  0
VERTEX
  5
8A
330
89
100
AcDbEntity
  8
_U+30EC_U+30A4_U+30E4_U+30FC 1
 62
     7
420
 16777215
370
     9
100
AcDbVertex
100
AcDb2dVertex
 10
81.45324708862121
 20
-145.0157966304128
 30
0.0
  0
VERTEX
  5
8B
330
89
100
AcDbEntity
  8
_U+30EC_U+30A4_U+30E4_U+30FC 1
 62
     7
420
 16777215
370
     9
100
AcDbVertex
100
AcDb2dVertex
 10
99.45302718496411
 20
-145.0157966304128
 30
0.0
  0
SEQEND
  5
8C
330
89
100
AcDbEntity
  8
_U+30EC_U+30A4_U+30E4_U+30FC 1
 62
     7
420
 16777215
370
     9
  0
POLYLINE
  5
8D
330
1F
100
AcDbEntity
  8
_U+30EC_U+30A4_U+30E4_U+30FC 1
 62
     7
420
 16777215
370
     9
100
AcDb2dPolyline
 66
     1
 10
0.0
 20
0.0
 30
0.0
  0
VERTEX
  5
8E
330
8D
100
AcDbEntity
  8
_U+30EC_U+30A4_U+30E4_U+30FC 1
 62
     7
420
 16777215
370
     9
100
AcDbVertex
100
AcDb2dVertex
 10
81.45324708862121
 20
-143.555755241889
 30
0.0
  0
VERTEX
  5
8F
330
8D
100
AcDbEntity
  8
_U+30EC_U+30A4_U+30E4_U+30FC 1
 62
     7
420
 16777215
370
     9
100
AcDbVertex
100
AcDb2dVertex
 10
81.45324708862121
 20
-146.0162391301627
 30
0.0
  0
SEQEND
  5
90
330
8D
100
AcDbEntity
  8
_U+30EC_U+30A4_U+30E4_U+30FC 1
 62
     7
420
 16777215
370
     9
  0
POLYLINE
  5
91
330
1F
100
AcDbEntity
  8
_U+30EC_U+30A4_U+30E4_U+30FC 1
 62
     7
420
 16777215
370
     9
100
AcDb2dPolyline
 66
     1
 10
0.0
 20
0.0
 30
0.0
  0
VERTEX
  5
92
330
91
100
AcDbEntity
  8
_U+30EC_U+30A4_U+30E4_U+30FC 1
 62
     7
420
 16777215
370
     9
100
AcDbVertex
100
AcDb2dVertex
 10
99.45302718496411
 20
-143.555755241889
 30
0.0
  0
VERTEX
  5
93
330
91
100
AcDbEntity
  8
_U+30EC_U+30A4_U+30E4_U+30FC 1
 62
     7
420
 16777215
370
     9
100
AcDbVertex
100
AcDb2dVertex
 10
99.45302718496411
 20
-146.0162391301627
 30
0.0
  0
SEQEND
  5
94
330
91
100
AcDbEntity
  8
_U+30EC_U+30A4_U+30E4_U+30FC 1
 62
     7
420
 16777215
370
     9
  0
INSERT
  5
96
330
1F
100
AcDbEntity
  8
_U+30EC_U+30A4_U+30E4_U+30FC 1
100
AcDbBlockReference
  2
block 3
 10
0.0
 20
0.0
 30
0.0
  0
POLYLINE
  5
9F
330
1F
100
AcDbEntity
  8
_U+30EC_U+30A4_U+30E4_U+30FC 1
 62
     7
420
 16777215
370
     9
100
AcDb2dPolyline
 66
     1
 10
0.0
 20
0.0
 30
0.0
  0
VERTEX
  5
A0
330
9F
100
AcDbEntity
  8
_U+30EC_U+30A4_U+30E4_U+30FC 1
 62
     7
420
 16777215
370
     9
100
AcDbVertex
100
AcDb2dVertex
 10
103.4534565273491
 20
-141.0160374647459
 30
0.0
  0
VERTEX
  5
A1
330
9F
100
AcDbEntity
  8
_U+30EC_U+30A4_U+30E4_U+30FC 1
 62
     7
420
 16777215
370
     9
100
AcDbVertex
100
AcDb2dVertex
 10
103.4534565273491
 20
-146.2739432967648
 30
0.0
  0
SEQEND
  5
A2
330
9F
100
AcDbEntity
  8
_U+30EC_U+30A4_U+30E4_U+30FC 1
 62
     7
420
 16777215
370
     9
  0
POLYLINE
  5
A3
330
1F
100
AcDbEntity
  8
_U+30EC_U+30A4_U+30E4_U+30FC 1
 62
     7
420
 16777215
370
     9
100
AcDb2dPolyline
 66
     1
 10
0.0
 20
0.0
 30
0.0
  0
VERTEX
  5
A4
330
A3
100
AcDbEntity
  8
_U+30EC_U+30A4_U+30E4_U+30FC 1
 62
     7
420
 16777215
370
     9
100
AcDbVertex
100
AcDb2dVertex
 10
103.4534565273491
 20
-141.0160374647459
 30
0.0
  0
VERTEX
  5
A5
330
A3
100
AcDbEntity
  8
_U+30EC_U+30A4_U+30E4_U+30FC 1
 62
     7
420
 16777215
370
     9
100
AcDbVertex
100
AcDb2dVertex
 10
103.4534565273491
 20
-140.3159852426989
 30
0.0
  0
SEQEND
  5
A6
330
A3
100
AcDbEntity
  8
_U+30EC_U+30A4_U+30E4_U+30FC 1
 62
     7
420
 16777215
370
     9
  0
POLYLINE
  5
A7
330
1F
100
AcDbEntity
  8
_U+30EC_U+30A4_U+30E4_U+30FC 1
 62
     7
420
 16777215
370
     9
100
AcDb2dPolyline
 66
     1
 10
0.0
 20
0.0
 30
0.0
  0
VERTEX
  5
A8
330
A7
100
AcDbEntity
  8
_U+30EC_U+30A4_U+30E4_U+30FC 1
 62
     7
420
 16777215
370
     9
100
AcDbVertex
100
AcDb2dVertex
 10
101.993415175709
 20
-141.0160374647459
 30
0.0
  0
VERTEX
  5
A9
330
A7
100
AcDbEntity
  8
_U+30EC_U+30A4_U+30E4_U+30FC 1
 62
     7
420
 16777215
370
     9
100
AcDbVertex
100
AcDb2dVertex
 10
104.453228724065
 20
-141.0160374647459
 30
0.0
  0
SEQEND
  5
AA
330
A7
100
AcDbEntity
  8
_U+30EC_U+30A4_U+30E4_U+30FC 1
 62
     7
420
 16777215
370
     9
  0
POLYLINE
  5
AB
330
1F
100
AcDbEntity
  8
_U+30EC_U+30A4_U+30E4_U+30FC 1
 62
     7
420
 16777215
370
     9
100
AcDb2dPolyline
 66
     1
 10
0.0
 20
0.0
 30
0.0
  0
VERTEX
  5
AC
330
AB
100
AcDbEntity
  8
_U+30EC_U+30A4_U+30E4_U+30FC 1
 62
     7
420
 16777215
370
     9
100
AcDbVertex
100
AcDb2dVertex
 10
101.7384979599902
 20
-140.3159852426989
 30
0.0
  0
VERTEX
  5
AD
330
AB
100
AcDbEntity
  8
_U+30EC_U+30A4_U+30E4_U+30FC 1
 62
     7
420
 16777215
370
     9
100
AcDbVertex
100
AcDb2dVertex
 10
104.453228724065
 20
-140.3159852426989
 30
0.0
  0
SEQEND
  5
AE
330
AB
100
AcDbEntity
  8
_U+30EC_U+30A4_U+30E4_U+30FC 1
 62
     7
420
 16777215
370
     9
  0
INSERT
  5
B0
330
1F
100
AcDbEntity
  8
_U+30EC_U+30A4_U+30E4_U+30FC 1
100
AcDbBlockReference
  2
block 4
 10
0.0
 20
0.0
 30
0.0
  0
POLYLINE
  5
C0
330
1F
100
AcDbEntity
  8
_U+30EC_U+30A4_U+30E4_U+30FC 1
 62
     7
420
 16777215
370
     9
100
AcDb2dPolyline
 66
     1
 10
0.0
 20
0.0
 30
0.0
  0
VERTEX
  5
C1
330
C0
100
AcDbEntity
  8
_U+30EC_U+30A4_U+30E4_U+30FC 1
 62
     7
420
 16777215
370
     9
100
AcDbVertex
100
AcDb2dVertex
 10
103.4534565273491
 20
-118.4857788592675
 30
0.0
  0
VERTEX
  5
C2
330
C0
100
AcDbEntity
  8
_U+30EC_U+30A4_U+30E4_U+30FC 1
 62
     7
420
 16777215
370
     9
100
AcDbVertex
100
AcDb2dVertex
 10
103.4534565273491
 20
-113.2278730272486
 30
0.0
  0
SEQEND
  5
C3
330
C0
100
AcDbEntity
  8
_U+30EC_U+30A4_U+30E4_U+30FC 1
 62
     7
420
 16777215
370
     9
  0
POLYLINE
  5
C4
330
1F
100
AcDbEntity
  8
_U+30EC_U+30A4_U+30E4_U+30FC 1
 62
     7
420
 16777215
370
     9
100
AcDb2dPolyline
 66
     1
 10
0.0
 20
0.0
 30
0.0
  0
VERTEX
  5
C5
330
C4
100
AcDbEntity
  8
_U+30EC_U+30A4_U+30E4_U+30FC 1
 62
     7
420
 16777215
370
     9
100
AcDbVertex
100
AcDb2dVertex
 10
103.4534565273491
 20
-141.0738930202872
 30
0.0
  0
VERTEX
  5
C6
330
C4
100
AcDbEntity
  8
_U+30EC_U+30A4_U+30E4_U+30FC 1
 62
     7
420
 16777215
370
     9
100
AcDbVertex
100
AcDb2dVertex
 10
103.4534565273491
 20
-118.5739733036899
 30
0.0
  0
SEQEND
  5
C7
330
C4
100
AcDbEntity
  8
_U+30EC_U+30A4_U+30E4_U+30FC 1
 62
     7
420
 16777215
370
     9
  0
POLYLINE
  5
C8
330
1F
100
AcDbEntity
  8
_U+30EC_U+30A4_U+30E4_U+30FC 1
 62
     7
420
 16777215
370
     9
100
AcDb2dPolyline
 66
     1
 10
0.0
 20
0.0
 30
0.0
  0
VERTEX
  5
C9
330
C8
100
AcDbEntity
  8
_U+30EC_U+30A4_U+30E4_U+30FC 1
 62
     7
420
 16777215
370
     9
100
AcDbVertex
100
AcDb2dVertex
 10
94.99299896541558
 20
-140.0155596872185
 30
0.0
  0
VERTEX
  5
CA
330
C8
100
AcDbEntity
  8
_U+30EC_U+30A4_U+30E4_U+30FC 1
 62
     7
420
 16777215
370
     9
100
AcDbVertex
100
AcDb2dVertex
 10
104.453228724065
 20
-140.0155596872185
 30
0.0
  0
SEQEND
  5
CB
330
C8
100
AcDbEntity
  8
_U+30EC_U+30A4_U+30E4_U+30FC 1
 62
     7
420
 16777215
370
     9
  0
POLYLINE
  5
CC
330
1F
100
AcDbEntity
  8
_U+30EC_U+30A4_U+30E4_U+30FC 1
 62
     7
420
 16777215
370
     9
100
AcDb2dPolyline
 66
     1
 10
0.0
 20
0.0
 30
0.0
  0
VERTEX
  5
CD
330
CC
100
AcDbEntity
  8
_U+30EC_U+30A4_U+30E4_U+30FC 1
 62
     7
420
 16777215
370
     9
100
AcDbVertex
100
AcDb2dVertex
 10
92.35750208820826
 20
-118.4416816370563
 30
0.0
  0
VERTEX
  5
CE
330
CC
100
AcDbEntity
  8
_U+30EC_U+30A4_U+30E4_U+30FC 1
 62
     7
420
 16777215
370
     9
100
AcDbVertex
100
AcDb2dVertex
 10
104.453228724065
 20
-118.4416816370563
 30
0.0
  0
SEQEND
  5
CF
330
CC
100
AcDbEntity
  8
_U+30EC_U+30A4_U+30E4_U+30FC 1
 62
     7
420
 16777215
370
     9
  0
INSERT
  5
D1
330
1F
100
AcDbEntity
  8
_U+30EC_U+30A4_U+30E4_U+30FC 1
100
AcDbBlockReference
  2
block 5
 10
0.0
 20
0.0
 30
0.0
  0
POLYLINE
  5
E2
330
1F
100
AcDbEntity
  8
_U+30EC_U+30A4_U+30E4_U+30FC 1
 62
     7
420
 16777215
370
     9
100
AcDb2dPolyline
 66
     1
 10
0.0
 20
0.0
 30
0.0
  0
VERTEX
  5
E3
330
E2
100
AcDbEntity
  8
_U+30EC_U+30A4_U+30E4_U+30FC 1
 62
     7
420
 16777215
370
     9
100
AcDbVertex
100
AcDb2dVertex
 10
99.45302718496411
 20
-114.5156530269268
 30
0.0
  0
VERTEX
  5
E4
330
E2
100
AcDbEntity
  8
_U+30EC_U+30A4_U+30E4_U+30FC 1
 62
     7
420
 16777215
370
     9
100
AcDbVertex
100
AcDb2dVertex
 10
92.45328125243141
 20
-114.5156530269268
 30
0.0
  0
SEQEND
  5
E5
330
E2
100
AcDbEntity
  8
_U+30EC_U+30A4_U+30E4_U+30FC 1
 62
     7
420
 16777215
370
     9
  0
POLYLINE
  5
E6
330
1F
100
AcDbEntity
  8
_U+30EC_U+30A4_U+30E4_U+30FC 1
 62
     7
420
 16777215
370
     9
100
AcDb2dPolyline
 66
     1
 10
0.0
 20
0.0
 30
0.0
  0
VERTEX
  5
E7
330
E6
100
AcDbEntity
  8
_U+30EC_U+30A4_U+30E4_U+30FC 1
 62
     7
420
 16777215
370
     9
100
AcDbVertex
100
AcDb2dVertex
 10
99.45302718496411
 20
-120.4756924698811
 30
0.0
  0
VERTEX
  5
E8
330
E6
100
AcDbEntity
  8
_U+30EC_U+30A4_U+30E4_U+30FC 1
 62
     7
420
 16777215
370
     9
100
AcDbVertex
100
AcDb2dVertex
 10
99.45302718496411
 20
-113.5158808049543
 30
0.0
  0
SEQEND
  5
E9
330
E6
100
AcDbEntity
  8
_U+30EC_U+30A4_U+30E4_U+30FC 1
 62
     7
420
 16777215
370
     9
  0
POLYLINE
  5
EA
330
1F
100
AcDbEntity
  8
_U+30EC_U+30A4_U+30E4_U+30FC 1
 62
     7
420
 16777215
370
     9
100
AcDb2dPolyline
 66
     1
 10
0.0
 20
0.0
 30
0.0
  0
VERTEX
  5
EB
330
EA
100
AcDbEntity
  8
_U+30EC_U+30A4_U+30E4_U+30FC 1
 62
     7
420
 16777215
370
     9
100
AcDbVertex
100
AcDb2dVertex
 10
92.45328125243141
 20
-119.4759202479089
 30
0.0
  0
VERTEX
  5
EC
330
EA
100
AcDbEntity
  8
_U+30EC_U+30A4_U+30E4_U+30FC 1
 62
     7
420
 16777215
370
     9
100
AcDbVertex
100
AcDb2dVertex
 10
92.45328125243141
 20
-113.5158808049543
 30
0.0
  0
SEQEND
  5
ED
330
EA
100
AcDbEntity
  8
_U+30EC_U+30A4_U+30E4_U+30FC 1
 62
     7
420
 16777215
370
     9
  0
INSERT
  5
EF
330
1F
100
AcDbEntity
  8
_U+30EC_U+30A4_U+30E4_U+30FC 1
100
AcDbBlockReference
  2
block 6
 10
0.0
 20
0.0
 30
0.0
  0
POLYLINE
  5
F4
330
1F
100
AcDbEntity
  8
_U+30EC_U+30A4_U+30E4_U+30FC 1
 62
     7
420
 16777215
370
     9
100
AcDb2dPolyline
 66
     1
 10
0.0
 20
0.0
 30
0.0
  0
VERTEX
  5
F5
330
F4
100
AcDbEntity
  8
_U+30EC_U+30A4_U+30E4_U+30FC 1
 62
     7
420
 16777215
370
     9
100
AcDbVertex
100
AcDb2dVertex
 10
81.45324708862121
 20
-119.7659741367251
 30
0.0
  0
VERTEX
  5
F6
330
F4
100
AcDbEntity
  8
_U+30EC_U+30A4_U+30E4_U+30FC 1
 62
     7
420
 16777215
370
     9
100
AcDbVertex
100
AcDb2dVertex
 10
77.6829346848099
 20
-119.7659741367251
 30
0.0
  0
SEQEND
  5
F7
330
F4
100
AcDbEntity
  8
_U+30EC_U+30A4_U+30E4_U+30FC 1
 62
     7
420
 16777215
370
     9
  0
POLYLINE
  5
F8
330
1F
100
AcDbEntity
  8
_U+30EC_U+30A4_U+30E4_U+30FC 1
 62
     7
420
 16777215
370
     9
100
AcDb2dPolyline
 66
     1
 10
0.0
 20
0.0
 30
0.0
  0
VERTEX
  5
F9
330
F8
100
AcDbEntity
  8
_U+30EC_U+30A4_U+30E4_U+30FC 1
 62
     7
420
 16777215
370
     9
100
AcDbVertex
100
AcDb2dVertex
 10
81.45324708862121
 20
-119.7659741367251
 30
0.0
  0
VERTEX
  5
FA
330
F8
100
AcDbEntity
  8
_U+30EC_U+30A4_U+30E4_U+30FC 1
 62
     7
420
 16777215
370
     9
100
AcDbVertex
100
AcDb2dVertex
 10
83.4531442598218
 20
-119.7659741367251
 30
0.0
  0
SEQEND
  5
FB
330
F8
100
AcDbEntity
  8
_U+30EC_U+30A4_U+30E4_U+30FC 1
 62
     7
420
 16777215
370
     9
  0
INSERT
  5
FD
330
1F
100
AcDbEntity
  8
_U+30EC_U+30A4_U+30E4_U+30FC 1
100
AcDbBlockReference
  2
block 7
 10
0.0
 20
0.0
 30
0.0
  0
ENDSEC
  0
SECTION
  2
OBJECTS
  0
DICTIONARY
  5
C
330
0
100
AcDbDictionary
281
     1
  3
ACAD_GROUP
350
D
  3
ACAD_LAYOUT
350
1A
  3
ACAD_MATERIAL
350
3B
  3
ACAD_MLEADERSTYLE
350
103
  3
ACAD_MLINESTYLE
350
17
  3
ACAD_PLOTSETTINGS
350
19
  3
ACAD_PLOTSTYLENAME
350
E
  3
ACAD_TABLESTYLE
350
102
  3
ACAD_VISUALSTYLE
350
2A
  0
SUN
  5
3F
330
29
100
AcDbSun
 90
        1
290
     0
 63
     7
421
 16777215
 40
1.0
291
     1
 91
  2455826
 92
 54000000
292
     0
 70
     2
 71
   256
280
     1
  0
DICTIONARY
  5
D
102
{ACAD_REACTORS
330
C
102
}
330
C
100
AcDbDictionary
281
     1
  0
DICTIONARY
  5
1A
102
{ACAD_REACTORS
330
C
102
}
330
C
100
AcDbDictionary
281
     1
  3
Layout1
350
1E
  3
Layout2
350
26
  3
Model
350
22
  0
DICTIONARY
  5
3B
102
{ACAD_REACTORS
330
C
102
}
330
C
100
AcDbDictionary
281
     1
  3
ByBlock
350
3D
  3
ByLayer
350
3C
  3
Global
350
3E
  0
DICTIONARY
  5
103
102
{ACAD_REACTORS
330
C
102
}
330
C
100
AcDbDictionary
281
     1
  0
DICTIONARY
  5
17
102
{ACAD_REACTORS
330
C
102
}
330
C
100
AcDbDictionary
281
     1
  3
Standard
350
18
  0
DICTIONARY
  5
19
102
{ACAD_REACTORS
330
C
102
}
330
C
100
AcDbDictionary
281
     1
  0
ACDBDICTIONARYWDFLT
  5
E
102
{ACAD_REACTORS
330
C
102
}
330
C
100
AcDbDictionary
281
     1
  3
Normal
350
F
100
AcDbDictionaryWithDefault
340
F
  0
DICTIONARY
  5
102
102
{ACAD_REACTORS
330
C
102
}
330
C
100
AcDbDictionary
281
     1
  0
DICTIONARY
  5
2A
102
{ACAD_REACTORS
330
C
102
}
330
C
100
AcDbDictionary
281
     1
  3
2dWireframe
350
2F
  3
3D Hidden
350
31
  3
3dWireframe
350
30
  3
Basic
350
32
  3
Brighten
350
36
  3
ColorChange
350
3A
  3
Conceptual
350
34
  3
Dim
350
35
  3
Facepattern
350
39
  3
Flat
350
2B
  3
FlatWithEdges
350
2C
  3
Gouraud
350
2D
  3
GouraudWithEdges
350
2E
  3
Linepattern
350
38
  3
Realistic
350
33
  3
Thicken
350
37
  0
LAYOUT
  5
1E
102
{ACAD_REACTORS
330
1A
102
}
330
1A
100
AcDbPlotSettings
  1

  2
none_device
  4

  6

 40
0.0
 41
0.0
 42
0.0
 43
0.0
 44
0.0
 45
0.0
 46
0.0
 47
0.0
 48
0.0
 49
0.0
140
0.0
141
0.0
142
1.0
143
1.0
 70
   688
 72
     0
 73
     0
 74
     5
  7

 75
    16
 76
     0
 77
     2
 78
   300
147
1.0
148
0.0
149
0.0
100
AcDbLayout
  1
Layout1
 70
     1
 71
     1
 10
0.0
 20
0.0
 11
12.0
 21
9.0
 12
0.0
 22
0.0
 32
0.0
 14
1.000000000000000E+20
 24
1.000000000000000E+20
 34
1.000000000000000E+20
 15
-1.000000000000000E+20
 25
-1.000000000000000E+20
 35
-1.000000000000000E+20
146
0.0
 13
0.0
 23
0.0
 33
0.0
 16
1.0
 26
0.0
 36
0.0
 17
0.0
 27
1.0
 37
0.0
 76
     0
330
1B
  0
LAYOUT
  5
26
102
{ACAD_REACTORS
330
1A
102
}
330
1A
100
AcDbPlotSettings
  1

  2
none_device
  4

  6

 40
0.0
 41
0.0
 42
0.0
 43
0.0
 44
0.0
 45
0.0
 46
0.0
 47
0.0
 48
0.0
 49
0.0
140
0.0
141
0.0
142
1.0
143
1.0
 70
   688
 72
     0
 73
     0
 74
     5
  7

 75
    16
 76
     0
 77
     2
 78
   300
147
1.0
148
0.0
149
0.0
100
AcDbLayout
  1
Layout2
 70
     1
 71
     2
 10
0.0
 20
0.0
 11
0.0
 21
0.0
 12
0.0
 22
0.0
 32
0.0
 14
0.0
 24
0.0
 34
0.0
 15
0.0
 25
0.0
 35
0.0
146
0.0
 13
0.0
 23
0.0
 33
0.0
 16
1.0
 26
0.0
 36
0.0
 17
0.0
 27
1.0
 37
0.0
 76
     0
330
23
  0
LAYOUT
  5
22
102
{ACAD_REACTORS
330
1A
102
}
330
1A
100
AcDbPlotSettings
  1

  2
none_device
  4

  6

 40
0.0
 41
0.0
 42
0.0
 43
0.0
 44
0.0
 45
0.0
 46
0.0
 47
0.0
 48
0.0
 49
0.0
140
0.0
141
0.0
142
1.0
143
1.0
 70
  1712
 72
     0
 73
     0
 74
     0
  7

 75
     0
 76
     0
 77
     2
 78
   300
147
1.0
148
0.0
149
0.0
100
AcDbLayout
  1
Model
 70
     1
 71
     0
 10
0.0
 20
0.0
 11
12.0
 21
9.0
 12
0.0
 22
0.0
 32
0.0
 14
1.000000000000000E+20
 24
1.000000000000000E+20
 34
1.000000000000000E+20
 15
-1.000000000000000E+20
 25
-1.000000000000000E+20
 35
-1.000000000000000E+20
146
0.0
 13
0.0
 23
0.0
 33
0.0
 16
1.0
 26
0.0
 36
0.0
 17
0.0
 27
1.0
 37
0.0
 76
     0
330
1F
331
29
  0
MATERIAL
  5
3D
102
{ACAD_REACTORS
330
3B
102
}
330
3B
100
AcDbMaterial
  1
ByBlock
 72
     1
 94
      127
  0
MATERIAL
  5
3C
102
{ACAD_REACTORS
330
3B
102
}
330
3B
100
AcDbMaterial
  1
ByLayer
 72
     1
 94
      127
  0
MATERIAL
  5
3E
102
{ACAD_REACTORS
330
3B
102
}
330
3B
100
AcDbMaterial
  1
Global
 72
     1
 94
      127
  0
MLINESTYLE
  5
18
102
{ACAD_REACTORS
330
17
102
}
330
17
100
AcDbMlineStyle
  2
Standard
 70
     0
  3

 62
   256
 51
90.0
 52
90.0
 71
     2
 49
0.5
 62
   256
  6
BYLAYER
 49
-0.5
 62
   256
  6
BYLAYER
  0
ACDBPLACEHOLDER
  5
F
102
{ACAD_REACTORS
330
E
102
}
330
E
  0
VISUALSTYLE
  5
2F
102
{ACAD_REACTORS
330
2A
102
}
330
2A
100
AcDbVisualStyle
  2
2dWireframe
 70
     4
177
     2
291
     0
 71
     0
176
     1
 72
     2
176
     1
 73
     0
176
     1
 90
        0
176
     1
 40
-0.6
176
     1
 41
-30.0
176
     1
 62
     5
 63
     7
421
 16777215
176
     1
 74
     1
176
     1
 91
        4
176
     1
 64
     7
176
     1
 65
   257
176
     1
 75
     1
176
     1
175
     1
176
     1
 42
1.0
176
     1
 92
        0
176
     1
 66
   257
176
     1
 43
1.0
176
     1
 76
     1
176
     1
 77
     6
176
     1
 78
     2
176
     1
 67
     7
176
     1
 79
     5
176
     1
170
     0
176
     1
171
     0
176
     1
290
     0
176
     1
 93
        1
176
     1
 44
0.0
176
     1
173
     0
176
     1
  0
VISUALSTYLE
  5
31
102
{ACAD_REACTORS
330
2A
102
}
330
2A
100
AcDbVisualStyle
  2
3D Hidden
 70
     6
177
     2
291
     0
 71
     1
176
     1
 72
     2
176
     1
 73
     2
176
     1
 90
        0
176
     1
 40
-0.6
176
     1
 41
-30.0
176
     1
 62
     5
 63
     7
421
 16777215
176
     1
 74
     2
176
     1
 91
        2
176
     1
 64
     7
176
     1
 65
   257
176
     1
 75
     2
176
     1
175
     1
176
     1
 42
40.0
176
     1
 92
        0
176
     1
 66
   257
176
     1
 43
1.0
176
     1
 76
     1
176
     1
 77
     6
176
     1
 78
     2
176
     1
 67
     7
176
     1
 79
     3
176
     1
170
     0
176
     1
171
     0
176
     1
290
     0
176
     1
 93
        1
176
     1
 44
0.0
176
     1
173
     0
176
     1
  0
VISUALSTYLE
  5
30
102
{ACAD_REACTORS
330
2A
102
}
330
2A
100
AcDbVisualStyle
  2
3dWireframe
 70
     5
177
     2
291
     0
 71
     0
176
     1
 72
     2
176
     1
 73
     0
176
     1
 90
        0
176
     1
 40
-0.6
176
     1
 41
-30.0
176
     1
 62
     5
 63
     7
421
 16777215
176
     1
 74
     1
176
     1
 91
        4
176
     1
 64
     7
176
     1
 65
   257
176
     1
 75
     1
176
     1
175
     1
176
     1
 42
1.0
176
     1
 92
        0
176
     1
 66
   257
176
     1
 43
1.0
176
     1
 76
     1
176
     1
 77
     6
176
     1
 78
     2
176
     1
 67
     7
176
     1
 79
     5
176
     1
170
     0
176
     1
171
     0
176
     1
290
     0
176
     1
 93
        1
176
     1
 44
0.0
176
     1
173
     0
176
     1
  0
VISUALSTYLE
  5
32
102
{ACAD_REACTORS
330
2A
102
}
330
2A
100
AcDbVisualStyle
  2
Basic
 70
     7
177
     2
291
     1
 71
     1
176
     1
 72
     0
176
     1
 73
     1
176
     1
 90
        0
176
     1
 40
-0.6
176
     1
 41
-30.0
176
     1
 62
     5
 63
     7
421
 16777215
176
     1
 74
     0
176
     1
 91
        4
176
     1
 64
     7
176
     1
 65
   257
176
     1
 75
     1
176
     1
175
     1
176
     1
 42
1.0
176
     1
 92
        8
176
     1
 66
     7
176
     1
 43
1.0
176
     1
 76
     1
176
     1
 77
     6
176
     1
 78
     2
176
     1
 67
     7
176
     1
 79
     5
176
     1
170
     0
176
     1
171
     0
176
     1
290
     0
176
     1
 93
        1
176
     1
 44
0.0
176
     1
173
     0
176
     1
  0
VISUALSTYLE
  5
36
102
{ACAD_REACTORS
330
2A
102
}
330
2A
100
AcDbVisualStyle
  2
Brighten
 70
    12
177
     2
291
     1
 71
     2
176
     1
 72
     2
176
     1
 73
     0
176
     1
 90
        0
176
     1
 40
-0.6
176
     1
 41
-30.0
176
     1
 62
     5
 63
     7
421
 16777215
176
     1
 74
     1
176
     1
 91
        4
176
     1
 64
     7
176
     1
 65
   257
176
     1
 75
     1
176
     1
175
     1
176
     1
 42
1.0
176
     1
 92
        8
176
     1
 66
     7
176
     1
 43
1.0
176
     1
 76
     1
176
     1
 77
     6
176
     1
 78
     2
176
     1
 67
     7
176
     1
 79
     5
176
     1
170
     0
176
     1
171
     0
176
     1
290
     0
176
     1
 93
        1
176
     1
 44
50.0
176
     1
173
     0
176
     1
  0
VISUALSTYLE
  5
3A
102
{ACAD_REACTORS
330
2A
102
}
330
2A
100
AcDbVisualStyle
  2
ColorChange
 70
    16
177
     2
291
     1
 71
     2
176
     1
 72
     2
176
     1
 73
     3
176
     1
 90
        0
176
     1
 40
-0.6
176
     1
 41
-30.0
176
     1
 62
     5
 63
     8
421
  8421504
176
     1
 74
     1
176
     1
 91
        4
176
     1
 64
     7
176
     1
 65
   257
176
     1
 75
     1
176
     1
175
     1
176
     1
 42
1.0
176
     1
 92
        8
176
     1
 66
     8
424
  8421504
176
     1
 43
1.0
176
     1
 76
     1
176
     1
 77
     6
176
     1
 78
     2
176
     1
 67
     7
176
     1
 79
     5
176
     1
170
     0
176
     1
171
     0
176
     1
290
     0
176
     1
 93
        1
176
     1
 44
0.0
176
     1
173
     0
176
     1
  0
VISUALSTYLE
  5
34
102
{ACAD_REACTORS
330
2A
102
}
330
2A
100
AcDbVisualStyle
  2
Conceptual
 70
     9
177
     2
291
     0
 71
     3
176
     1
 72
     2
176
     1
 73
     0
176
     1
 90
        0
176
     1
 40
-0.6
176
     1
 41
-30.0
176
     1
 62
     5
 63
     7
421
 16777215
176
     1
 74
     2
176
     1
 91
        2
176
     1
 64
     7
176
     1
 65
   257
176
     1
 75
     1
176
     1
175
     1
176
     1
 42
40.0
176
     1
 92
        8
176
     1
 66
     7
176
     1
 43
1.0
176
     1
 76
     1
176
     1
 77
     6
176
     1
 78
     2
176
     1
 67
     7
176
     1
 79
     3
176
     1
170
     0
176
     1
171
     0
176
     1
290
     0
176
     1
 93
        1
176
     1
 44
0.0
176
     1
173
     0
176
     1
  0
VISUALSTYLE
  5
35
102
{ACAD_REACTORS
330
2A
102
}
330
2A
100
AcDbVisualStyle
  2
Dim
 70
    11
177
     2
291
     1
 71
     2
176
     1
 72
     2
176
     1
 73
     0
176
     1
 90
        0
176
     1
 40
-0.6
176
     1
 41
-30.0
176
     1
 62
     5
 63
     7
421
 16777215
176
     1
 74
     1
176
     1
 91
        4
176
     1
 64
     7
176
     1
 65
   257
176
     1
 75
     1
176
     1
175
     1
176
     1
 42
1.0
176
     1
 92
        8
176
     1
 66
     7
176
     1
 43
1.0
176
     1
 76
     1
176
     1
 77
     6
176
     1
 78
     2
176
     1
 67
     7
176
     1
 79
     5
176
     1
170
     0
176
     1
171
     0
176
     1
290
     0
176
     1
 93
        1
176
     1
 44
-50.0
176
     1
173
     0
176
     1
  0
VISUALSTYLE
  5
39
102
{ACAD_REACTORS
330
2A
102
}
330
2A
100
AcDbVisualStyle
  2
Facepattern
 70
    15
177
     2
291
     1
 71
     2
176
     1
 72
     2
176
     1
 73
     0
176
     1
 90
        0
176
     1
 40
-0.6
176
     1
 41
-30.0
176
     1
 62
     5
 63
     7
421
 16777215
176
     1
 74
     1
176
     1
 91
        4
176
     1
 64
     7
176
     1
 65
   257
176
     1
 75
     1
176
     1
175
     1
176
     1
 42
1.0
176
     1
 92
        8
176
     1
 66
     7
176
     1
 43
1.0
176
     1
 76
     1
176
     1
 77
     6
176
     1
 78
     2
176
     1
 67
     7
176
     1
 79
     5
176
     1
170
     0
176
     1
171
     0
176
     1
290
     0
176
     1
 93
        1
176
     1
 44
0.0
176
     1
173
     0
176
     1
  0
VISUALSTYLE
  5
2B
102
{ACAD_REACTORS
330
2A
102
}
330
2A
100
AcDbVisualStyle
  2
Flat
 70
     0
177
     2
291
     1
 71
     2
176
     1
 72
     1
176
     1
 73
     1
176
     1
 90
        2
176
     1
 40
-0.6
176
     1
 41
30.0
176
     1
 62
     5
 63
     7
421
 16777215
176
     1
 74
     0
176
     1
 91
        4
176
     1
 64
     7
176
     1
 65
   257
176
     1
 75
     1
176
     1
175
     1
176
     1
 42
1.0
176
     1
 92
        8
176
     1
 66
     7
176
     1
 43
1.0
176
     1
 76
     1
176
     1
 77
     6
176
     1
 78
     2
176
     1
 67
     7
176
     1
 79
     5
176
     1
170
     0
176
     1
171
     0
176
     1
290
     0
176
     1
 93
       13
176
     1
 44
0.0
176
     1
173
     0
176
     1
  0
VISUALSTYLE
  5
2C
102
{ACAD_REACTORS
330
2A
102
}
330
2A
100
AcDbVisualStyle
  2
FlatWithEdges
 70
     1
177
     2
291
     1
 71
     2
176
     1
 72
     1
176
     1
 73
     1
176
     1
 90
        2
176
     1
 40
-0.6
176
     1
 41
30.0
176
     1
 62
     5
 63
     7
421
 16777215
176
     1
 74
     1
176
     1
 91
        4
176
     1
 64
     7
176
     1
 65
   257
176
     1
 75
     1
176
     1
175
     1
176
     1
 42
1.0
176
     1
 92
        0
176
     1
 66
   257
176
     1
 43
1.0
176
     1
 76
     1
176
     1
 77
     6
176
     1
 78
     2
176
     1
 67
     7
176
     1
 79
     5
176
     1
170
     0
176
     1
171
     0
176
     1
290
     0
176
     1
 93
       13
176
     1
 44
0.0
176
     1
173
     0
176
     1
  0
VISUALSTYLE
  5
2D
102
{ACAD_REACTORS
330
2A
102
}
330
2A
100
AcDbVisualStyle
  2
Gouraud
 70
     2
177
     2
291
     1
 71
     2
176
     1
 72
     2
176
     1
 73
     1
176
     1
 90
        2
176
     1
 40
-0.6
176
     1
 41
30.0
176
     1
 62
     5
 63
     7
421
 16777215
176
     1
 74
     0
176
     1
 91
        4
176
     1
 64
     7
176
     1
 65
   257
176
     1
 75
     1
176
     1
175
     1
176
     1
 42
1.0
176
     1
 92
        0
176
     1
 66
     7
176
     1
 43
1.0
176
     1
 76
     1
176
     1
 77
     6
176
     1
 78
     2
176
     1
 67
     7
176
     1
 79
     5
176
     1
170
     0
176
     1
171
     0
176
     1
290
     0
176
     1
 93
       13
176
     1
 44
0.0
176
     1
173
     0
176
     1
  0
VISUALSTYLE
  5
2E
102
{ACAD_REACTORS
330
2A
102
}
330
2A
100
AcDbVisualStyle
  2
GouraudWithEdges
 70
     3
177
     2
291
     1
 71
     2
176
     1
 72
     2
176
     1
 73
     1
176
     1
 90
        2
176
     1
 40
-0.6
176
     1
 41
30.0
176
     1
 62
     5
 63
     7
421
 16777215
176
     1
 74
     1
176
     1
 91
        4
176
     1
 64
     7
176
     1
 65
   257
176
     1
 75
     1
176
     1
175
     1
176
     1
 42
1.0
176
     1
 92
        0
176
     1
 66
   257
176
     1
 43
1.0
176
     1
 76
     1
176
     1
 77
     6
176
     1
 78
     2
176
     1
 67
     7
176
     1
 79
     5
176
     1
170
     0
176
     1
171
     0
176
     1
290
     0
176
     1
 93
       13
176
     1
 44
0.0
176
     1
173
     0
176
     1
  0
VISUALSTYLE
  5
38
102
{ACAD_REACTORS
330
2A
102
}
330
2A
100
AcDbVisualStyle
  2
Linepattern
 70
    14
177
     2
291
     1
 71
     2
176
     1
 72
     2
176
     1
 73
     0
176
     1
 90
        0
176
     1
 40
-0.6
176
     1
 41
-30.0
176
     1
 62
     5
 63
     7
421
 16777215
176
     1
 74
     1
176
     1
 91
        4
176
     1
 64
     7
176
     1
 65
   257
176
     1
 75
     7
176
     1
175
     7
176
     1
 42
1.0
176
     1
 92
        8
176
     1
 66
     7
176
     1
 43
1.0
176
     1
 76
     1
176
     1
 77
     6
176
     1
 78
     2
176
     1
 67
     7
176
     1
 79
     5
176
     1
170
     0
176
     1
171
     0
176
     1
290
     0
176
     1
 93
        1
176
     1
 44
0.0
176
     1
173
     0
176
     1
  0
VISUALSTYLE
  5
33
102
{ACAD_REACTORS
330
2A
102
}
330
2A
100
AcDbVisualStyle
  2
Realistic
 70
     8
177
     2
291
     0
 71
     2
176
     1
 72
     2
176
     1
 73
     0
176
     1
 90
        0
176
     1
 40
-0.6
176
     1
 41
-30.0
176
     1
 62
     5
 63
     7
421
 16777215
176
     1
 74
     1
176
     1
 91
        0
176
     1
 64
     7
176
     1
 65
   257
176
     1
 75
     1
176
     1
175
     1
176
     1
 42
1.0
176
     1
 92
        8
176
     1
 66
     8
424
  7895160
176
     1
 43
1.0
176
     1
 76
     1
176
     1
 77
     6
176
     1
 78
     2
176
     1
 67
     7
176
     1
 79
     5
176
     1
170
     0
176
     1
171
     0
176
     1
290
     0
176
     1
 93
       13
176
     1
 44
0.0
176
     1
173
     0
176
     1
  0
VISUALSTYLE
  5
37
102
{ACAD_REACTORS
330
2A
102
}
330
2A
100
AcDbVisualStyle
  2
Thicken
 70
    13
177
     2
291
     1
 71
     2
176
     1
 72
     2
176
     1
 73
     0
176
     1
 90
        0
176
     1
 40
-0.6
176
     1
 41
-30.0
176
     1
 62
     5
 63
     7
421
 16777215
176
     1
 74
     1
176
     1
 91
        4
176
     1
 64
     7
176
     1
 65
   257
176
     1
 75
     1
176
     1
175
     1
176
     1
 42
1.0
176
     1
 92
       12
176
     1
 66
     7
176
     1
 43
1.0
176
     1
 76
     1
176
     1
 77
     6
176
     1
 78
     2
176
     1
 67
     7
176
     1
 79
     5
176
     1
170
     0
176
     1
171
     0
176
     1
290
     0
176
     1
 93
        1
176
     1
 44
0.0
176
     1
173
     0
176
     1
  0
ENDSEC
  0
EOF
