  0
SECTION
  2
HEADER
  9
$ACADVER
  1
AC1024
  9
$ACADMAINTVER
 70
     6
  9
$DWGCODEPAGE
  3
UNDEFINED
  9
$INSBASE
 10
0.0
 20
0.0
 30
0.0
  9
$EXTMIN
 10
1.000000000000000E+20
 20
1.000000000000000E+20
 30
1.000000000000000E+20
  9
$EXTMAX
 10
-1.000000000000000E+20
 20
-1.000000000000000E+20
 30
-1.000000000000000E+20
  9
$LIMMIN
 10
0.0
 20
0.0
  9
$LIMMAX
 10
12.0
 20
9.0
  9
$ORTHOMODE
 70
     0
  9
$REGENMODE
 70
     1
  9
$FILLMODE
 70
     1
  9
$QTEXTMODE
 70
     0
  9
$MIRRTEXT
 70
     1
  9
$LTSCALE
 40
1.0
  9
$ATTMODE
 70
     1
  9
$TEXTSIZE
 40
0.2
  9
$TRACEWID
 40
0.05
  9
$TEXTSTYLE
  7
Standard
  9
$CLAYER
  8
0
  9
$CELTYPE
  6
ByLayer
  9
$CECOLOR
 62
   256
  9
$CELTSCALE
 40
1.0
  9
$DISPSILH
 70
     0
  9
$DIMSCALE
 40
1.0
  9
$DIMASZ
 40
0.18
  9
$DIMEXO
 40
0.0625
  9
$DIMDLI
 40
0.38
  9
$DIMRND
 40
0.0
  9
$DIMDLE
 40
0.0
  9
$DIMEXE
 40
0.18
  9
$DIMTP
 40
0.0
  9
$DIMTM
 40
0.0
  9
$DIMTXT
 40
0.18
  9
$DIMCEN
 40
0.09
  9
$DIMTSZ
 40
0.0
  9
$DIMTOL
 70
     0
  9
$DIMLIM
 70
     0
  9
$DIMTIH
 70
     1
  9
$DIMTOH
 70
     1
  9
$DIMSE1
 70
     0
  9
$DIMSE2
 70
     0
  9
$DIMTAD
 70
     0
  9
$DIMZIN
 70
     0
  9
$DIMBLK
  1

  9
$DIMASO
 70
     1
  9
$DIMSHO
 70
     1
  9
$DIMPOST
  1

  9
$DIMAPOST
  1

  9
$DIMALT
 70
     0
  9
$DIMALTD
 70
     2
  9
$DIMALTF
 40
25.4
  9
$DIMLFAC
 40
1.0
  9
$DIMTOFL
 70
     0
  9
$DIMTVP
 40
0.0
  9
$DIMTIX
 70
     0
  9
$DIMSOXD
 70
     0
  9
$DIMSAH
 70
     0
  9
$DIMBLK1
  1

  9
$DIMBLK2
  1

  9
$DIMSTYLE
  2
Standard
  9
$DIMCLRD
 70
     0
  9
$DIMCLRE
 70
     0
  9
$DIMCLRT
 70
     0
  9
$DIMTFAC
 40
1.0
  9
$DIMGAP
 40
0.09
  9
$DIMJUST
 70
     0
  9
$DIMSD1
 70
     0
  9
$DIMSD2
 70
     0
  9
$DIMTOLJ
 70
     1
  9
$DIMTZIN
 70
     0
  9
$DIMALTZ
 70
     0
  9
$DIMALTTZ
 70
     0
  9
$DIMUPT
 70
     0
  9
$DIMDEC
 70
     4
  9
$DIMTDEC
 70
     4
  9
$DIMALTU
 70
     2
  9
$DIMALTTD
 70
     2
  9
$DIMTXSTY
  7
Standard
  9
$DIMAUNIT
 70
     0
  9
$DIMADEC
 70
     0
  9
$DIMALTRND
 40
0.0
  9
$DIMAZIN
 70
     0
  9
$DIMDSEP
 70
    46
  9
$DIMATFIT
 70
     3
  9
$DIMFRAC
 70
     0
  9
$DIMLDRBLK
  1

  9
$DIMLUNIT
 70
     2
  9
$DIMLWD
 70
    -2
  9
$DIMLWE
 70
    -2
  9
$DIMTMOVE
 70
     0
  9
$DIMFXL
 40
1.0
  9
$DIMFXLON
 70
     0
  9
$DIMJOGANG
 40
0.7853981633974483
  9
$DIMTFILL
 70
     0
  9
$DIMTFILLCLR
 70
     0
  9
$DIMARCSYM
 70
     0
  9
$DIMLTYPE
  6

  9
$DIMLTEX1
  6

  9
$DIMLTEX2
  6

  9
$DIMTXTDIRECTION
 70
     0
  9
$LUNITS
 70
     2
  9
$LUPREC
 70
     4
  9
$SKETCHINC
 40
0.1
  9
$FILLETRAD
 40
0.5
  9
$AUNITS
 70
     0
  9
$AUPREC
 70
     0
  9
$MENU
  1
.
  9
$ELEVATION
 40
0.0
  9
$PELEVATION
 40
0.0
  9
$THICKNESS
 40
0.0
  9
$LIMCHECK
 70
     0
  9
$CHAMFERA
 40
0.5
  9
$CHAMFERB
 40
0.5
  9
$CHAMFERC
 40
1.0
  9
$CHAMFERD
 40
0.0
  9
$SKPOLY
 70
     0
  9
$TDCREATE
 40
2457917.593368056
  9
$TDUCREATE
 40
2457917.218368056
  9
$TDUPDATE
 40
2457917.593368056
  9
$TDUUPDATE
 40
2457917.218368056
  9
$TDINDWG
 40
0.0000000116
  9
$TDUSRTIMER
 40
0.0000000116
  9
$USRTIMER
 70
     1
  9
$ANGBASE
 50
0.0
  9
$ANGDIR
 70
     0
  9
$PDMODE
 70
     0
  9
$PDSIZE
 40
0.0
  9
$PLINEWID
 40
0.0
  9
$SPLFRAME
 70
     0
  9
$SPLINETYPE
 70
     6
  9
$SPLINESEGS
 70
     8
  9
$HANDSEED
  5
C4
  9
$SURFTAB1
 70
     6
  9
$SURFTAB2
 70
     6
  9
$SURFTYPE
 70
     6
  9
$SURFU
 70
     6
  9
$SURFV
 70
     6
  9
$UCSBASE
  2

  9
$UCSNAME
  2

  9
$UCSORG
 10
0.0
 20
0.0
 30
0.0
  9
$UCSXDIR
 10
1.0
 20
0.0
 30
0.0
  9
$UCSYDIR
 10
0.0
 20
1.0
 30
0.0
  9
$UCSORTHOREF
  2

  9
$UCSORTHOVIEW
 70
     0
  9
$UCSORGTOP
 10
0.0
 20
0.0
 30
0.0
  9
$UCSORGBOTTOM
 10
0.0
 20
0.0
 30
0.0
  9
$UCSORGLEFT
 10
0.0
 20
0.0
 30
0.0
  9
$UCSORGRIGHT
 10
0.0
 20
0.0
 30
0.0
  9
$UCSORGFRONT
 10
0.0
 20
0.0
 30
0.0
  9
$UCSORGBACK
 10
0.0
 20
0.0
 30
0.0
  9
$PUCSBASE
  2

  9
$PUCSNAME
  2

  9
$PUCSORG
 10
0.0
 20
0.0
 30
0.0
  9
$PUCSXDIR
 10
1.0
 20
0.0
 30
0.0
  9
$PUCSYDIR
 10
0.0
 20
1.0
 30
0.0
  9
$PUCSORTHOREF
  2

  9
$PUCSORTHOVIEW
 70
     0
  9
$PUCSORGTOP
 10
0.0
 20
0.0
 30
0.0
  9
$PUCSORGBOTTOM
 10
0.0
 20
0.0
 30
0.0
  9
$PUCSORGLEFT
 10
0.0
 20
0.0
 30
0.0
  9
$PUCSORGRIGHT
 10
0.0
 20
0.0
 30
0.0
  9
$PUCSORGFRONT
 10
0.0
 20
0.0
 30
0.0
  9
$PUCSORGBACK
 10
0.0
 20
0.0
 30
0.0
  9
$USERI1
 70
     0
  9
$USERI2
 70
     0
  9
$USERI3
 70
     0
  9
$USERI4
 70
     0
  9
$USERI5
 70
     0
  9
$USERR1
 40
0.0
  9
$USERR2
 40
0.0
  9
$USERR3
 40
0.0
  9
$USERR4
 40
0.0
  9
$USERR5
 40
0.0
  9
$WORLDVIEW
 70
     1
  9
$SHADEDGE
 70
     3
  9
$SHADEDIF
 70
    70
  9
$TILEMODE
 70
     1
  9
$MAXACTVP
 70
    64
  9
$PINSBASE
 10
0.0
 20
0.0
 30
0.0
  9
$PLIMCHECK
 70
     0
  9
$PEXTMIN
 10
1.000000000000000E+20
 20
1.000000000000000E+20
 30
1.000000000000000E+20
  9
$PEXTMAX
 10
-1.000000000000000E+20
 20
-1.000000000000000E+20
 30
-1.000000000000000E+20
  9
$PLIMMIN
 10
0.0
 20
0.0
  9
$PLIMMAX
 10
12.0
 20
9.0
  9
$UNITMODE
 70
     0
  9
$VISRETAIN
 70
     1
  9
$PLINEGEN
 70
     0
  9
$PSLTSCALE
 70
     1
  9
$TREEDEPTH
 70
  3020
  9
$CMLSTYLE
  2
Standard
  9
$CMLJUST
 70
     0
  9
$CMLSCALE
 40
1.0
  9
$PROXYGRAPHICS
 70
     1
  9
$MEASUREMENT
 70
     0
  9
$CELWEIGHT
370
    -1
  9
$ENDCAPS
280
     0
  9
$JOINSTYLE
280
     0
  9
$LWDISPLAY
290
     1
  9
$INSUNITS
 70
     1
  9
$HYPERLINKBASE
  1

  9
$STYLESHEET
  1

  9
$XEDIT
290
     1
  9
$CEPSNTYPE
380
     0
  9
$PSTYLEMODE
290
     1
  9
$FINGERPRINTGUID
  2
{5B5AA05C-DC1E-5413-C114-FD010CFED70A}
  9
$VERSIONGUID
  2
{FAEB1C32-E019-11D5-929B-00C0DF256EC4}
  9
$EXTNAMES
290
     1
  9
$PSVPSCALE
 40
0.0
  9
$OLESTARTUP
290
     0
  9
$SORTENTS
280
   127
  9
$INDEXCTL
280
     0
  9
$HIDETEXT
280
     1
  9
$XCLIPFRAME
280
     2
  9
$HALOGAP
280
     0
  9
$OBSCOLOR
 70
   257
  9
$OBSLTYPE
280
     0
  9
$INTERSECTIONDISPLAY
280
     0
  9
$INTERSECTIONCOLOR
 70
   257
  9
$DIMASSOC
280
     2
  9
$PROJECTNAME
  1

  9
$CAMERADISPLAY
290
     0
  9
$LENSLENGTH
 40
50.0
  9
$CAMERAHEIGHT
 40
0.0
  9
$STEPSPERSEC
 40
2.0
  9
$STEPSIZE
 40
6.0
  9
$3DDWFPREC
 40
2.0
  9
$PSOLWIDTH
 40
0.25
  9
$PSOLHEIGHT
 40
4.0
  9
$LOFTANG1
 40
1.570796326794897
  9
$LOFTANG2
 40
1.570796326794897
  9
$LOFTMAG1
 40
0.0
  9
$LOFTMAG2
 40
0.0
  9
$LOFTPARAM
 70
     7
  9
$LOFTNORMALS
280
     1
  9
$LATITUDE
 40
37.795
  9
$LONGITUDE
 40
-122.394
  9
$NORTHDIRECTION
 40
0.0
  9
$TIMEZONE
 70
 -8000
  9
$LIGHTGLYPHDISPLAY
280
     1
  9
$TILEMODELIGHTSYNCH
280
     1
  9
$CMATERIAL
347
3C
  9
$SOLIDHIST
280
     1
  9
$SHOWHIST
280
     1
  9
$DWFFRAME
280
     2
  9
$DGNFRAME
280
     2
  9
$REALWORLDSCALE
290
     1
  9
$INTERFERECOLOR
 62
   256
  9
$CSHADOW
280
     0
  9
$SHADOWPLANELOCATION
 40
0.0
  0
ENDSEC
  0
SECTION
  2
CLASSES
  0
CLASS
  1
ACDBDICTIONARYWDFLT
  2
AcDbDictionaryWithDefault
  3
ObjectDBX Classes
 90
        0
 91
        4
280
     0
281
     0
  0
CLASS
  1
VISUALSTYLE
  2
AcDbVisualStyle
  3
ObjectDBX Classes
 90
     4095
 91
        4
280
     0
281
     0
  0
CLASS
  1
MATERIAL
  2
AcDbMaterial
  3
ObjectDBX Classes
 90
     1153
 91
        4
280
     0
281
     0
  0
CLASS
  1
SUN
  2
AcDbSun
  3
SCENEOE
 90
     1024
 91
        4
280
     0
281
     0
  0
ENDSEC
  0
SECTION
  2
TABLES
  0
TABLE
  2
VPORT
  5
8
330
0
100
AcDbSymbolTable
 70
     1
  0
VPORT
  5
29
330
8
100
AcDbSymbolTableRecord
100
AcDbViewportTableRecord
  2
*Active
 70
     0
 10
0.0
 20
0.0
 11
1.0
 21
1.0
 12
0.0
 22
0.0
 13
0.0
 23
0.0
 14
0.5
 24
0.5
 15
0.5
 25
0.5
 16
0.0
 26
0.0
 36
1.0
 17
91.00082462281999
 27
-128.4993055234307
 37
0.0
 40
256.9986110468615
 41
0.7081814508812795
 42
50.0
 43
0.0
 44
0.0
 50
0.0
 51
0.0
 71
     0
 72
   100
 73
     1
 74
     3
 75
     0
 76
     0
 77
     0
 78
     0
281
     0
 65
     1
110
0.0
120
0.0
130
0.0
111
1.0
121
0.0
131
0.0
112
0.0
122
1.0
132
0.0
 79
     0
146
0.0
 60
     3
 61
     5
292
     1
282
     1
141
0.0
142
0.0
 63
   250
361
3F
  0
ENDTAB
  0
TABLE
  2
LTYPE
  5
5
330
0
100
AcDbSymbolTable
 70
     1
  0
LTYPE
  5
14
330
5
100
AcDbSymbolTableRecord
100
AcDbLinetypeTableRecord
  2
ByBlock
 70
     0
  3

 72
    65
 73
     0
 40
0.0
  0
LTYPE
  5
15
330
5
100
AcDbSymbolTableRecord
100
AcDbLinetypeTableRecord
  2
ByLayer
 70
     0
  3

 72
    65
 73
     0
 40
0.0
  0
LTYPE
  5
16
330
5
100
AcDbSymbolTableRecord
100
AcDbLinetypeTableRecord
  2
Continuous
 70
     0
  3
Solid line
 72
    65
 73
     0
 40
0.0
  0
ENDTAB
  0
TABLE
  2
LAYER
  5
2
330
0
100
AcDbSymbolTable
 70
     2
  0
LAYER
  5
10
330
2
100
AcDbSymbolTableRecord
100
AcDbLayerTableRecord
  2
0
 70
     0
 62
     7
  6
Continuous
370
    -3
390
F
347
3E
  0
LAYER
  5
40
330
2
100
AcDbSymbolTableRecord
100
AcDbLayerTableRecord
  2
_U+30EC_U+30A4_U+30E4_U+30FC 1
 70
     0
 62
     7
  6
Continuous
370
    -3
390
F
347
3E
  0
ENDTAB
  0
TABLE
  2
STYLE
  5
3
330
0
100
AcDbSymbolTable
 70
     1
  0
STYLE
  5
11
330
3
100
AcDbSymbolTableRecord
100
AcDbTextStyleTableRecord
  2
Standard
 70
     0
 40
0.0
 41
1.0
 50
0.0
 71
     0
 42
0.2
  3
txt
  4

  0
ENDTAB
  0
TABLE
  2
VIEW
  5
6
330
0
100
AcDbSymbolTable
 70
     0
  0
ENDTAB
  0
TABLE
  2
UCS
  5
7
330
0
100
AcDbSymbolTable
 70
     0
  0
ENDTAB
  0
TABLE
  2
APPID
  5
9
330
0
100
AcDbSymbolTable
 70
     1
  0
APPID
  5
12
330
9
100
AcDbSymbolTableRecord
100
AcDbRegAppTableRecord
  2
ACAD
 70
     0
  0
ENDTAB
  0
TABLE
  2
DIMSTYLE
  5
A
330
0
100
AcDbSymbolTable
 70
     1
100
AcDbDimStyleTable
  0
DIMSTYLE
105
27
330
A
100
AcDbSymbolTableRecord
100
AcDbDimStyleTableRecord
  2
Standard
 70
     0
178
     0
340
11
  0
ENDTAB
  0
TABLE
  2
BLOCK_RECORD
  5
1
330
0
100
AcDbSymbolTable
 70
     8
  0
BLOCK_RECORD
  5
1F
330
1
100
AcDbSymbolTableRecord
100
AcDbBlockTableRecord
  2
*Model_Space
340
22
 70
     0
280
     1
281
     0
  0
BLOCK_RECORD
  5
1B
330
1
100
AcDbSymbolTableRecord
100
AcDbBlockTableRecord
  2
*Paper_Space
340
1E
 70
     0
280
     1
281
     0
  0
BLOCK_RECORD
  5
23
330
1
100
AcDbSymbolTableRecord
100
AcDbBlockTableRecord
  2
*Paper_Space0
340
26
 70
     0
280
     1
281
     0
  0
BLOCK_RECORD
  5
41
330
1
100
AcDbSymbolTableRecord
100
AcDbBlockTableRecord
  2
block 2
340
0
102
{BLKREFS
331
42
102
}
 70
     0
280
     1
281
     0
  0
BLOCK_RECORD
  5
45
330
1
100
AcDbSymbolTableRecord
100
AcDbBlockTableRecord
  2
block 3
340
0
102
{BLKREFS
331
46
102
}
 70
     0
280
     1
281
     0
  0
BLOCK_RECORD
  5
68
330
1
100
AcDbSymbolTableRecord
100
AcDbBlockTableRecord
  2
block 4
340
0
102
{BLKREFS
331
69
102
}
 70
     0
280
     1
281
     0
  0
BLOCK_RECORD
  5
7A
330
1
100
AcDbSymbolTableRecord
100
AcDbBlockTableRecord
  2
block 5
340
0
102
{BLKREFS
331
7B
102
}
 70
     0
280
     1
281
     0
  0
BLOCK_RECORD
  5
80
330
1
100
AcDbSymbolTableRecord
100
AcDbBlockTableRecord
  2
block 6
340
0
102
{BLKREFS
331
81
102
}
 70
     0
280
     1
281
     0
  0
BLOCK_RECORD
  5
95
330
1
100
AcDbSymbolTableRecord
100
AcDbBlockTableRecord
  2
block 7
340
0
102
{BLKREFS
331
96
102
}
 70
     0
280
     1
281
     0
  0
BLOCK_RECORD
  5
A7
330
1
100
AcDbSymbolTableRecord
100
AcDbBlockTableRecord
  2
block 8
340
0
102
{BLKREFS
331
A8
102
}
 70
     0
280
     1
281
     0
  0
ENDTAB
  0
ENDSEC
  0
SECTION
  2
BLOCKS
  0
BLOCK
  5
20
330
1F
100
AcDbEntity
  8
0
100
AcDbBlockBegin
  2
*Model_Space
 70
     0
 10
0.0
 20
0.0
 30
0.0
  3
*Model_Space
  1

  0
ENDBLK
  5
21
330
1F
100
AcDbEntity
  8
0
100
AcDbBlockEnd
  0
BLOCK
  5
1C
330
1B
100
AcDbEntity
 67
     1
  8
0
100
AcDbBlockBegin
  2
*Paper_Space
 70
     0
 10
0.0
 20
0.0
 30
0.0
  3
*Paper_Space
  1

  0
ENDBLK
  5
1D
330
1B
100
AcDbEntity
 67
     1
  8
0
100
AcDbBlockEnd
  0
BLOCK
  5
24
330
23
100
AcDbEntity
  8
0
100
AcDbBlockBegin
  2
*Paper_Space0
 70
     0
 10
0.0
 20
0.0
 30
0.0
  3
*Paper_Space0
  1

  0
ENDBLK
  5
25
330
23
100
AcDbEntity
  8
0
100
AcDbBlockEnd
  0
BLOCK
  5
43
330
41
100
AcDbEntity
  8
0
100
AcDbBlockBegin
  2
block 2
 70
     0
 10
0.0
 20
0.0
 30
0.0
  3
block 2
  1

  0
INSERT
  5
46
330
41
100
AcDbEntity
  8
_U+30EC_U+30A4_U+30E4_U+30FC 1
100
AcDbBlockReference
  2
block 3
 10
0.0
 20
0.0
 30
0.0
  0
ENDBLK
  5
44
330
41
100
AcDbEntity
  8
0
100
AcDbBlockEnd
  0
BLOCK
  5
47
330
45
100
AcDbEntity
  8
0
100
AcDbBlockBegin
  2
block 3
 70
     0
 10
0.0
 20
0.0
 30
0.0
  3
block 3
  1

  0
SPLINE
  5
49
330
45
100
AcDbEntity
  8
_U+30EC_U+30A4_U+30E4_U+30FC 1
 62
   179
420
  2234388
370
     9
100
AcDbSpline
210
0.0
220
0.0
230
1.0
 70
    11
 71
     3
 72
    17
 73
    13
 74
     0
 42
0.0000000001
 43
0.0000000001
 12
1.0
 22
0.0
 32
0.0
 13
1.0
 23
0.0
 33
0.0
 40
0.0
 40
0.0
 40
0.0
 40
0.0
 40
1.0
 40
1.0
 40
1.0
 40
2.0
 40
2.0
 40
2.0
 40
3.0
 40
3.0
 40
3.0
 40
4.0
 40
4.0
 40
4.0
 40
4.0
 10
105.6927839702191
 20
-140.9009613536637
 30
0.0
 10
105.6927839702191
 20
-140.8458221870106
 30
0.0
 10
105.6479811935843
 20
-140.8010546870221
 30
0.0
 10
105.5928773061013
 20
-140.8010546870221
 30
0.0
 10
105.5377381408413
 20
-140.8010546870221
 30
0.0
 10
105.4929706419834
 20
-140.8458221870106
 30
0.0
 10
105.4929706419834
 20
-140.9009613536637
 30
0.0
 10
105.4929706419834
 20
-140.9560652425386
 30
0.0
 10
105.5377381408413
 20
-141.0008680203053
 30
0.0
 10
105.5928773061013
 20
-141.0008680203053
 30
0.0
 10
105.6479811935843
 20
-141.0008680203053
 30
0.0
 10
105.6927839702191
 20
-140.9560652425386
 30
0.0
 10
105.6927839702191
 20
-140.9009613536637
 30
0.0
  0
SPLINE
  5
4A
330
45
100
AcDbEntity
  8
_U+30EC_U+30A4_U+30E4_U+30FC 1
 62
   179
420
  2234388
370
     9
100
AcDbSpline
210
0.0
220
0.0
230
1.0
 70
    11
 71
     3
 72
    17
 73
    13
 74
     0
 42
0.0000000001
 43
0.0000000001
 12
1.0
 22
0.0
 32
0.0
 13
1.0
 23
0.0
 33
0.0
 40
0.0
 40
0.0
 40
0.0
 40
0.0
 40
1.0
 40
1.0
 40
1.0
 40
2.0
 40
2.0
 40
2.0
 40
3.0
 40
3.0
 40
3.0
 40
4.0
 40
4.0
 40
4.0
 40
4.0
 10
70.69352514090237
 20
-140.9009613536637
 30
0.0
 10
70.69352514090237
 20
-140.8458221870106
 30
0.0
 10
70.64875764204447
 20
-140.8010546870221
 30
0.0
 10
70.59294998235168
 20
-140.8010546870221
 30
0.0
 10
70.5378090337639
 20
-140.8010546870221
 30
0.0
 10
70.49304153490601
 20
-140.8458221870106
 30
0.0
 10
70.49304153490601
 20
-140.9009613536637
 30
0.0
 10
70.49304153490601
 20
-140.9560652425386
 30
0.0
 10
70.5378090337639
 20
-141.0008680203053
 30
0.0
 10
70.59294998235168
 20
-141.0008680203053
 30
0.0
 10
70.64875764204447
 20
-141.0008680203053
 30
0.0
 10
70.69352514090237
 20
-140.9560652425386
 30
0.0
 10
70.69352514090237
 20
-140.9009613536637
 30
0.0
  0
SPLINE
  5
4B
330
45
100
AcDbEntity
  8
_U+30EC_U+30A4_U+30E4_U+30FC 1
 62
   179
420
  2234388
370
     9
100
AcDbSpline
210
0.0
220
0.0
230
1.0
 70
    11
 71
     3
 72
    17
 73
    13
 74
     0
 42
0.0000000001
 43
0.0000000001
 12
1.0
 22
0.0
 32
0.0
 13
1.0
 23
0.0
 33
0.0
 40
0.0
 40
0.0
 40
0.0
 40
0.0
 40
1.0
 40
1.0
 40
1.0
 40
2.0
 40
2.0
 40
2.0
 40
3.0
 40
3.0
 40
3.0
 40
4.0
 40
4.0
 40
4.0
 40
4.0
 10
108.4929575098918
 20
-136.9005319102195
 30
0.0
 10
108.4929575098918
 20
-136.9556357990944
 30
0.0
 10
108.5377277506431
 20
-137.0004385768611
 30
0.0
 10
108.5928641740097
 20
-137.0004385768611
 30
0.0
 10
108.6479680614927
 20
-137.0004385768611
 30
0.0
 10
108.6927708381275
 20
-136.9556357990944
 30
0.0
 10
108.6927708381275
 20
-136.9005319102195
 30
0.0
 10
108.6927708381275
 20
-136.8453927435664
 30
0.0
 10
108.6479680614927
 20
-136.8006252435778
 30
0.0
 10
108.5928641740097
 20
-136.8006252435778
 30
0.0
 10
108.5377277506431
 20
-136.8006252435778
 30
0.0
 10
108.4929575098918
 20
-136.8453927435664
 30
0.0
 10
108.4929575098918
 20
-136.9005319102195
 30
0.0
  0
SPLINE
  5
4C
330
45
100
AcDbEntity
  8
_U+30EC_U+30A4_U+30E4_U+30FC 1
 62
   179
420
  2234388
370
     9
100
AcDbSpline
210
0.0
220
0.0
230
1.0
 70
    11
 71
     3
 72
    17
 73
    13
 74
     0
 42
0.0000000001
 43
0.0000000001
 12
1.0
 22
0.0
 32
0.0
 13
1.0
 23
0.0
 33
0.0
 40
0.0
 40
0.0
 40
0.0
 40
0.0
 40
1.0
 40
1.0
 40
1.0
 40
2.0
 40
2.0
 40
2.0
 40
3.0
 40
3.0
 40
3.0
 40
4.0
 40
4.0
 40
4.0
 40
4.0
 10
108.4929575098918
 20
-120.5006691365414
 30
0.0
 10
108.4929575098918
 20
-120.5557730254166
 30
0.0
 10
108.5377277506431
 20
-120.6005758031833
 30
0.0
 10
108.5928641740097
 20
-120.6005758031833
 30
0.0
 10
108.6479680614927
 20
-120.6005758031833
 30
0.0
 10
108.6927708381275
 20
-120.5557730254166
 30
0.0
 10
108.6927708381275
 20
-120.5006691365414
 30
0.0
 10
108.6927708381275
 20
-120.4448596921109
 30
0.0
 10
108.6479680614927
 20
-120.4000569143445
 30
0.0
 10
108.5928641740097
 20
-120.4000569143445
 30
0.0
 10
108.5377277506431
 20
-120.4000569143445
 30
0.0
 10
108.4929575098918
 20
-120.4448596921109
 30
0.0
 10
108.4929575098918
 20
-120.5006691365414
 30
0.0
  0
POLYLINE
  5
4D
330
45
100
AcDbEntity
  8
_U+30EC_U+30A4_U+30E4_U+30FC 1
 62
   179
420
  2234388
370
     9
100
AcDb2dPolyline
 66
     1
 10
0.0
 20
0.0
 30
0.0
  0
VERTEX
  5
4E
330
4D
100
AcDbEntity
  8
_U+30EC_U+30A4_U+30E4_U+30FC 1
 62
   179
420
  2234388
370
     9
100
AcDbVertex
100
AcDb2dVertex
 10
108.5928641740097
 20
-120.4000569143445
 30
0.0
  0
VERTEX
  5
4F
330
4D
100
AcDbEntity
  8
_U+30EC_U+30A4_U+30E4_U+30FC 1
 62
   179
420
  2234388
370
     9
100
AcDbVertex
100
AcDb2dVertex
 10
108.5928641740097
 20
-136.9005319102195
 30
0.0
  0
SEQEND
  5
50
330
4D
100
AcDbEntity
  8
_U+30EC_U+30A4_U+30E4_U+30FC 1
 62
   179
420
  2234388
370
     9
  0
POLYLINE
  5
51
330
45
100
AcDbEntity
  8
_U+30EC_U+30A4_U+30E4_U+30FC 1
 62
   179
420
  2234388
370
     9
100
AcDb2dPolyline
 66
     1
 10
0.0
 20
0.0
 30
0.0
  0
VERTEX
  5
52
330
51
100
AcDbEntity
  8
_U+30EC_U+30A4_U+30E4_U+30FC 1
 62
   179
420
  2234388
370
     9
100
AcDbVertex
100
AcDb2dVertex
 10
92.01643886588505
 20
-120.5006691365414
 30
0.0
  0
VERTEX
  5
53
330
51
100
AcDbEntity
  8
_U+30EC_U+30A4_U+30E4_U+30FC 1
 62
   179
420
  2234388
370
     9
100
AcDbVertex
100
AcDb2dVertex
 10
109.5926363707256
 20
-120.5006691365414
 30
0.0
  0
SEQEND
  5
54
330
51
100
AcDbEntity
  8
_U+30EC_U+30A4_U+30E4_U+30FC 1
 62
   179
420
  2234388
370
     9
  0
POLYLINE
  5
55
330
45
100
AcDbEntity
  8
_U+30EC_U+30A4_U+30E4_U+30FC 1
 62
   179
420
  2234388
370
     9
100
AcDb2dPolyline
 66
     1
 10
0.0
 20
0.0
 30
0.0
  0
VERTEX
  5
56
330
55
100
AcDbEntity
  8
_U+30EC_U+30A4_U+30E4_U+30FC 1
 62
   179
420
  2234388
370
     9
100
AcDbVertex
100
AcDb2dVertex
 10
107.1328228223695
 20
-136.9005319102195
 30
0.0
  0
VERTEX
  5
57
330
55
100
AcDbEntity
  8
_U+30EC_U+30A4_U+30E4_U+30FC 1
 62
   179
420
  2234388
370
     9
100
AcDbVertex
100
AcDb2dVertex
 10
109.5926363707256
 20
-136.9005319102195
 30
0.0
  0
SEQEND
  5
58
330
55
100
AcDbEntity
  8
_U+30EC_U+30A4_U+30E4_U+30FC 1
 62
   179
420
  2234388
370
     9
  0
SPLINE
  5
59
330
45
100
AcDbEntity
  8
_U+30EC_U+30A4_U+30E4_U+30FC 1
 62
   179
420
  2234388
370
     9
100
AcDbSpline
210
0.0
220
0.0
230
1.0
 70
    11
 71
     3
 72
    17
 73
    13
 74
     0
 42
0.0000000001
 43
0.0000000001
 12
1.0
 22
0.0
 32
0.0
 13
1.0
 23
0.0
 33
0.0
 40
0.0
 40
0.0
 40
0.0
 40
0.0
 40
1.0
 40
1.0
 40
1.0
 40
2.0
 40
2.0
 40
2.0
 40
3.0
 40
3.0
 40
3.0
 40
4.0
 40
4.0
 40
4.0
 40
4.0
 10
93.37657122887632
 20
-126.5006430239304
 30
0.0
 10
93.37657122887632
 20
-126.5557469128056
 30
0.0
 10
93.4213387277342
 20
-126.600549690572
 30
0.0
 10
93.47647789299415
 20
-126.600549690572
 30
0.0
 10
93.53158178047723
 20
-126.600549690572
 30
0.0
 10
93.57638455711198
 20
-126.5557469128056
 30
0.0
 10
93.57638455711198
 20
-126.5006430239304
 30
0.0
 10
93.57638455711198
 20
-126.4455038572776
 30
0.0
 10
93.53158178047723
 20
-126.4007363572887
 30
0.0
 10
93.47647789299415
 20
-126.4007363572887
 30
0.0
 10
93.4213387277342
 20
-126.4007363572887
 30
0.0
 10
93.37657122887632
 20
-126.4455038572776
 30
0.0
 10
93.37657122887632
 20
-126.5006430239304
 30
0.0
  0
SPLINE
  5
5A
330
45
100
AcDbEntity
  8
_U+30EC_U+30A4_U+30E4_U+30FC 1
 62
   179
420
  2234388
370
     9
100
AcDbSpline
210
0.0
220
0.0
230
1.0
 70
    11
 71
     3
 72
    17
 73
    13
 74
     0
 42
0.0000000001
 43
0.0000000001
 12
1.0
 22
0.0
 32
0.0
 13
1.0
 23
0.0
 33
0.0
 40
0.0
 40
0.0
 40
0.0
 40
0.0
 40
1.0
 40
1.0
 40
1.0
 40
2.0
 40
2.0
 40
2.0
 40
3.0
 40
3.0
 40
3.0
 40
4.0
 40
4.0
 40
4.0
 40
4.0
 10
93.37657122887632
 20
-120.5006691365414
 30
0.0
 10
93.37657122887632
 20
-120.5557730254166
 30
0.0
 10
93.4213387277342
 20
-120.6005758031833
 30
0.0
 10
93.47647789299415
 20
-120.6005758031833
 30
0.0
 10
93.53158178047723
 20
-120.6005758031833
 30
0.0
 10
93.57638455711198
 20
-120.5557730254166
 30
0.0
 10
93.57638455711198
 20
-120.5006691365414
 30
0.0
 10
93.57638455711198
 20
-120.4455299698886
 30
0.0
 10
93.53158178047723
 20
-120.4007624698997
 30
0.0
 10
93.47647789299415
 20
-120.4007624698997
 30
0.0
 10
93.4213387277342
 20
-120.4007624698997
 30
0.0
 10
93.37657122887632
 20
-120.4455299698886
 30
0.0
 10
93.37657122887632
 20
-120.5006691365414
 30
0.0
  0
POLYLINE
  5
5B
330
45
100
AcDbEntity
  8
_U+30EC_U+30A4_U+30E4_U+30FC 1
 62
   179
420
  2234388
370
     9
100
AcDb2dPolyline
 66
     1
 10
0.0
 20
0.0
 30
0.0
  0
VERTEX
  5
5C
330
5B
100
AcDbEntity
  8
_U+30EC_U+30A4_U+30E4_U+30FC 1
 62
   179
420
  2234388
370
     9
100
AcDbVertex
100
AcDb2dVertex
 10
93.47647789299415
 20
-120.5006691365414
 30
0.0
  0
VERTEX
  5
5D
330
5B
100
AcDbEntity
  8
_U+30EC_U+30A4_U+30E4_U+30FC 1
 62
   179
420
  2234388
370
     9
100
AcDbVertex
100
AcDb2dVertex
 10
93.47647789299415
 20
-126.5006430239304
 30
0.0
  0
SEQEND
  5
5E
330
5B
100
AcDbEntity
  8
_U+30EC_U+30A4_U+30E4_U+30FC 1
 62
   179
420
  2234388
370
     9
  0
POLYLINE
  5
5F
330
45
100
AcDbEntity
  8
_U+30EC_U+30A4_U+30E4_U+30FC 1
 62
   179
420
  2234388
370
     9
100
AcDb2dPolyline
 66
     1
 10
0.0
 20
0.0
 30
0.0
  0
VERTEX
  5
60
330
5F
100
AcDbEntity
  8
_U+30EC_U+30A4_U+30E4_U+30FC 1
 62
   179
420
  2234388
370
     9
100
AcDbVertex
100
AcDb2dVertex
 10
92.01643886588505
 20
-126.5006430239304
 30
0.0
  0
VERTEX
  5
61
330
5F
100
AcDbEntity
  8
_U+30EC_U+30A4_U+30E4_U+30FC 1
 62
   179
420
  2234388
370
     9
100
AcDbVertex
100
AcDb2dVertex
 10
94.47621481193318
 20
-126.5006430239304
 30
0.0
  0
SEQEND
  5
62
330
5F
100
AcDbEntity
  8
_U+30EC_U+30A4_U+30E4_U+30FC 1
 62
   179
420
  2234388
370
     9
  0
SPLINE
  5
63
330
45
100
AcDbEntity
  8
_U+30EC_U+30A4_U+30E4_U+30FC 1
 62
   179
420
  2234388
370
     9
100
AcDbSpline
210
0.0
220
0.0
230
1.0
 70
    11
 71
     3
 72
    17
 73
    13
 74
     0
 42
0.0000000001
 43
0.0000000001
 12
1.0
 22
0.0
 32
0.0
 13
1.0
 23
0.0
 33
0.0
 40
0.0
 40
0.0
 40
0.0
 40
0.0
 40
1.0
 40
1.0
 40
1.0
 40
2.0
 40
2.0
 40
2.0
 40
3.0
 40
3.0
 40
3.0
 40
4.0
 40
4.0
 40
4.0
 40
4.0
 10
108.4929575098918
 20
-135.9007596882469
 30
0.0
 10
108.4929575098918
 20
-135.9558635771218
 30
0.0
 10
108.5377277506431
 20
-136.0006663548886
 30
0.0
 10
108.5928641740097
 20
-136.0006663548886
 30
0.0
 10
108.6479680614927
 20
-136.0006663548886
 30
0.0
 10
108.6927708381275
 20
-135.9558635771218
 30
0.0
 10
108.6927708381275
 20
-135.9007596882469
 30
0.0
 10
108.6927708381275
 20
-135.8456205215938
 30
0.0
 10
108.6479680614927
 20
-135.8008530216053
 30
0.0
 10
108.5928641740097
 20
-135.8008530216053
 30
0.0
 10
108.5377277506431
 20
-135.8008530216053
 30
0.0
 10
108.4929575098918
 20
-135.8456205215938
 30
0.0
 10
108.4929575098918
 20
-135.9007596882469
 30
0.0
  0
POLYLINE
  5
64
330
45
100
AcDbEntity
  8
_U+30EC_U+30A4_U+30E4_U+30FC 1
 62
   179
420
  2234388
370
     9
100
AcDb2dPolyline
 66
     1
 10
0.0
 20
0.0
 30
0.0
  0
VERTEX
  5
65
330
64
100
AcDbEntity
  8
_U+30EC_U+30A4_U+30E4_U+30FC 1
 62
   179
420
  2234388
370
     9
100
AcDbVertex
100
AcDb2dVertex
 10
107.1328228223695
 20
-135.9007596882469
 30
0.0
  0
VERTEX
  5
66
330
64
100
AcDbEntity
  8
_U+30EC_U+30A4_U+30E4_U+30FC 1
 62
   179
420
  2234388
370
     9
100
AcDbVertex
100
AcDb2dVertex
 10
109.5926363707256
 20
-135.9007596882469
 30
0.0
  0
SEQEND
  5
67
330
64
100
AcDbEntity
  8
_U+30EC_U+30A4_U+30E4_U+30FC 1
 62
   179
420
  2234388
370
     9
  0
INSERT
  5
69
330
45
100
AcDbEntity
  8
_U+30EC_U+30A4_U+30E4_U+30FC 1
100
AcDbBlockReference
  2
block 4
 10
0.0
 20
0.0
 30
0.0
  0
INSERT
  5
7B
330
45
100
AcDbEntity
  8
_U+30EC_U+30A4_U+30E4_U+30FC 1
100
AcDbBlockReference
  2
block 5
 10
0.0
 20
0.0
 30
0.0
  0
INSERT
  5
81
330
45
100
AcDbEntity
  8
_U+30EC_U+30A4_U+30E4_U+30FC 1
100
AcDbBlockReference
  2
block 6
 10
0.0
 20
0.0
 30
0.0
  0
SPLINE
  5
87
330
45
100
AcDbEntity
  8
_U+30EC_U+30A4_U+30E4_U+30FC 1
 62
   179
420
  2234388
370
     9
100
AcDbSpline
210
0.0
220
0.0
230
1.0
 70
    11
 71
     3
 72
    17
 73
    13
 74
     0
 42
0.0000000001
 43
0.0000000001
 12
1.0
 22
0.0
 32
0.0
 13
1.0
 23
0.0
 33
0.0
 40
0.0
 40
0.0
 40
0.0
 40
0.0
 40
1.0
 40
1.0
 40
1.0
 40
2.0
 40
2.0
 40
2.0
 40
3.0
 40
3.0
 40
3.0
 40
4.0
 40
4.0
 40
4.0
 40
4.0
 10
86.67393473320816
 20
-117.6200269150395
 30
0.0
 10
86.61883084572507
 20
-117.6200269150395
 30
0.0
 10
86.57402806909032
 20
-117.6648296928059
 30
0.0
 10
86.57402806909032
 20
-117.7199335816812
 30
0.0
 10
86.57402806909032
 20
-117.7750727483339
 30
0.0
 10
86.61883084572507
 20
-117.8198402483228
 30
0.0
 10
86.67393473320816
 20
-117.8198402483228
 30
0.0
 10
86.7290738984681
 20
-117.8198402483228
 30
0.0
 10
86.77384139732598
 20
-117.7750727483339
 30
0.0
 10
86.77384139732598
 20
-117.7199335816812
 30
0.0
 10
86.77384139732598
 20
-117.6648296928059
 30
0.0
 10
86.7290738984681
 20
-117.6200269150395
 30
0.0
 10
86.67393473320816
 20
-117.6200269150395
 30
0.0
  0
POLYLINE
  5
88
330
45
100
AcDbEntity
  8
_U+30EC_U+30A4_U+30E4_U+30FC 1
 62
   179
420
  2234388
370
     9
100
AcDb2dPolyline
 66
     1
 10
0.0
 20
0.0
 30
0.0
  0
VERTEX
  5
89
330
88
100
AcDbEntity
  8
_U+30EC_U+30A4_U+30E4_U+30FC 1
 62
   179
420
  2234388
370
     9
100
AcDbVertex
100
AcDb2dVertex
 10
89.71046937796191
 20
-117.7199335816812
 30
0.0
  0
VERTEX
  5
8A
330
88
100
AcDbEntity
  8
_U+30EC_U+30A4_U+30E4_U+30FC 1
 62
   179
420
  2234388
370
     9
100
AcDbVertex
100
AcDb2dVertex
 10
86.67393473320816
 20
-117.7199335816812
 30
0.0
  0
SEQEND
  5
8B
330
88
100
AcDbEntity
  8
_U+30EC_U+30A4_U+30E4_U+30FC 1
 62
   179
420
  2234388
370
     9
  0
POLYLINE
  5
8C
330
45
100
AcDbEntity
  8
_U+30EC_U+30A4_U+30E4_U+30FC 1
 62
   179
420
  2234388
370
     9
100
AcDb2dPolyline
 66
     1
 10
0.0
 20
0.0
 30
0.0
  0
VERTEX
  5
8D
330
8C
100
AcDbEntity
  8
_U+30EC_U+30A4_U+30E4_U+30FC 1
 62
   179
420
  2234388
370
     9
100
AcDbVertex
100
AcDb2dVertex
 10
86.67393473320816
 20
-116.259927470935
 30
0.0
  0
VERTEX
  5
8E
330
8C
100
AcDbEntity
  8
_U+30EC_U+30A4_U+30E4_U+30FC 1
 62
   179
420
  2234388
370
     9
100
AcDbVertex
100
AcDb2dVertex
 10
86.67393473320816
 20
-118.7197058036534
 30
0.0
  0
SEQEND
  5
8F
330
8C
100
AcDbEntity
  8
_U+30EC_U+30A4_U+30E4_U+30FC 1
 62
   179
420
  2234388
370
     9
  0
SPLINE
  5
90
330
45
100
AcDbEntity
  8
_U+30EC_U+30A4_U+30E4_U+30FC 1
 62
   179
420
  2234388
370
     9
100
AcDbSpline
210
0.0
220
0.0
230
1.0
 70
    11
 71
     3
 72
    17
 73
    13
 74
     0
 42
0.0000000001
 43
0.0000000001
 12
1.0
 22
0.0
 32
0.0
 13
1.0
 23
0.0
 33
0.0
 40
0.0
 40
0.0
 40
0.0
 40
0.0
 40
1.0
 40
1.0
 40
1.0
 40
2.0
 40
2.0
 40
2.0
 40
3.0
 40
3.0
 40
3.0
 40
4.0
 40
4.0
 40
4.0
 40
4.0
 10
89.71046937796191
 20
-117.6200269150395
 30
0.0
 10
89.65533021270197
 20
-117.6200269150395
 30
0.0
 10
89.61056271384409
 20
-117.6648296928059
 30
0.0
 10
89.61056271384409
 20
-117.7199335816812
 30
0.0
 10
89.61056271384409
 20
-117.7750727483339
 30
0.0
 10
89.65533021270197
 20
-117.8198402483228
 30
0.0
 10
89.71046937796191
 20
-117.8198402483228
 30
0.0
 10
89.76557326544498
 20
-117.8198402483228
 30
0.0
 10
89.81037604207975
 20
-117.7750727483339
 30
0.0
 10
89.81037604207975
 20
-117.7199335816812
 30
0.0
 10
89.81037604207975
 20
-117.6648296928059
 30
0.0
 10
89.76557326544498
 20
-117.6200269150395
 30
0.0
 10
89.71046937796191
 20
-117.6200269150395
 30
0.0
  0
POLYLINE
  5
91
330
45
100
AcDbEntity
  8
_U+30EC_U+30A4_U+30E4_U+30FC 1
 62
   179
420
  2234388
370
     9
100
AcDb2dPolyline
 66
     1
 10
0.0
 20
0.0
 30
0.0
  0
VERTEX
  5
92
330
91
100
AcDbEntity
  8
_U+30EC_U+30A4_U+30E4_U+30FC 1
 62
   179
420
  2234388
370
     9
100
AcDbVertex
100
AcDb2dVertex
 10
89.71046937796191
 20
-116.259927470935
 30
0.0
  0
VERTEX
  5
93
330
91
100
AcDbEntity
  8
_U+30EC_U+30A4_U+30E4_U+30FC 1
 62
   179
420
  2234388
370
     9
100
AcDbVertex
100
AcDb2dVertex
 10
89.71046937796191
 20
-118.7197058036534
 30
0.0
  0
SEQEND
  5
94
330
91
100
AcDbEntity
  8
_U+30EC_U+30A4_U+30E4_U+30FC 1
 62
   179
420
  2234388
370
     9
  0
INSERT
  5
96
330
45
100
AcDbEntity
  8
_U+30EC_U+30A4_U+30E4_U+30FC 1
100
AcDbBlockReference
  2
block 7
 10
0.0
 20
0.0
 30
0.0
  0
POLYLINE
  5
9B
330
45
100
AcDbEntity
  8
_U+30EC_U+30A4_U+30E4_U+30FC 1
 62
   179
420
  2234388
370
     9
100
AcDb2dPolyline
 66
     1
 10
0.0
 20
0.0
 30
0.0
  0
VERTEX
  5
9C
330
9B
100
AcDbEntity
  8
_U+30EC_U+30A4_U+30E4_U+30FC 1
 62
   179
420
  2234388
370
     9
100
AcDbVertex
100
AcDb2dVertex
 10
70.59294998235168
 20
-140.9009613536637
 30
0.0
  0
VERTEX
  5
9D
330
9B
100
AcDbEntity
  8
_U+30EC_U+30A4_U+30E4_U+30FC 1
 62
   179
420
  2234388
370
     9
100
AcDbVertex
100
AcDb2dVertex
 10
105.5928773061013
 20
-140.9009613536637
 30
0.0
  0
SEQEND
  5
9E
330
9B
100
AcDbEntity
  8
_U+30EC_U+30A4_U+30E4_U+30FC 1
 62
   179
420
  2234388
370
     9
  0
POLYLINE
  5
9F
330
45
100
AcDbEntity
  8
_U+30EC_U+30A4_U+30E4_U+30FC 1
 62
   179
420
  2234388
370
     9
100
AcDb2dPolyline
 66
     1
 10
0.0
 20
0.0
 30
0.0
  0
VERTEX
  5
A0
330
9F
100
AcDbEntity
  8
_U+30EC_U+30A4_U+30E4_U+30FC 1
 62
   179
420
  2234388
370
     9
100
AcDbVertex
100
AcDb2dVertex
 10
70.59294998235168
 20
-138.4404774653901
 30
0.0
  0
VERTEX
  5
A1
330
9F
100
AcDbEntity
  8
_U+30EC_U+30A4_U+30E4_U+30FC 1
 62
   179
420
  2234388
370
     9
100
AcDbVertex
100
AcDb2dVertex
 10
70.59294998235168
 20
-141.9007335756363
 30
0.0
  0
SEQEND
  5
A2
330
9F
100
AcDbEntity
  8
_U+30EC_U+30A4_U+30E4_U+30FC 1
 62
   179
420
  2234388
370
     9
  0
POLYLINE
  5
A3
330
45
100
AcDbEntity
  8
_U+30EC_U+30A4_U+30E4_U+30FC 1
 62
   179
420
  2234388
370
     9
100
AcDb2dPolyline
 66
     1
 10
0.0
 20
0.0
 30
0.0
  0
VERTEX
  5
A4
330
A3
100
AcDbEntity
  8
_U+30EC_U+30A4_U+30E4_U+30FC 1
 62
   179
420
  2234388
370
     9
100
AcDbVertex
100
AcDb2dVertex
 10
105.5928773061013
 20
-139.44091996514
 30
0.0
  0
VERTEX
  5
A5
330
A3
100
AcDbEntity
  8
_U+30EC_U+30A4_U+30E4_U+30FC 1
 62
   179
420
  2234388
370
     9
100
AcDbVertex
100
AcDb2dVertex
 10
105.5928773061013
 20
-141.9007335756363
 30
0.0
  0
SEQEND
  5
A6
330
A3
100
AcDbEntity
  8
_U+30EC_U+30A4_U+30E4_U+30FC 1
 62
   179
420
  2234388
370
     9
  0
INSERT
  5
A8
330
45
100
AcDbEntity
  8
_U+30EC_U+30A4_U+30E4_U+30FC 1
100
AcDbBlockReference
  2
block 8
 10
0.0
 20
0.0
 30
0.0
  0
POLYLINE
  5
AF
330
45
100
AcDbEntity
  8
_U+30EC_U+30A4_U+30E4_U+30FC 1
 62
   179
420
  2234388
370
    25
100
AcDb2dPolyline
 66
     1
 10
0.0
 20
0.0
 30
0.0
  0
VERTEX
  5
B0
330
AF
100
AcDbEntity
  8
_U+30EC_U+30A4_U+30E4_U+30FC 1
 62
   179
420
  2234388
370
    25
100
AcDbVertex
100
AcDb2dVertex
 10
90.71020629690095
 20
-135.9007596882469
 30
0.0
  0
VERTEX
  5
B1
330
AF
100
AcDbEntity
  8
_U+30EC_U+30A4_U+30E4_U+30FC 1
 62
   179
420
  2234388
370
    25
100
AcDbVertex
100
AcDb2dVertex
 10
90.71020629690095
 20
-120.5006691365414
 30
0.0
  0
VERTEX
  5
B2
330
AF
100
AcDbEntity
  8
_U+30EC_U+30A4_U+30E4_U+30FC 1
 62
   179
420
  2234388
370
    25
100
AcDbVertex
100
AcDb2dVertex
 10
89.71046937796191
 20
-120.5006691365414
 30
0.0
  0
VERTEX
  5
B3
330
AF
100
AcDbEntity
  8
_U+30EC_U+30A4_U+30E4_U+30FC 1
 62
   179
420
  2234388
370
    25
100
AcDbVertex
100
AcDb2dVertex
 10
89.71046937796191
 20
-126.5006430239304
 30
0.0
  0
VERTEX
  5
B4
330
AF
100
AcDbEntity
  8
_U+30EC_U+30A4_U+30E4_U+30FC 1
 62
   179
420
  2234388
370
    25
100
AcDbVertex
100
AcDb2dVertex
 10
86.71048251005351
 20
-126.5006430239304
 30
0.0
  0
VERTEX
  5
B5
330
AF
100
AcDbEntity
  8
_U+30EC_U+30A4_U+30E4_U+30FC 1
 62
   179
420
  2234388
370
    25
100
AcDbVertex
100
AcDb2dVertex
 10
86.71048251005351
 20
-120.5006691365414
 30
0.0
  0
VERTEX
  5
B6
330
AF
100
AcDbEntity
  8
_U+30EC_U+30A4_U+30E4_U+30FC 1
 62
   179
420
  2234388
370
    25
100
AcDbVertex
100
AcDb2dVertex
 10
85.71071031333761
 20
-120.5006691365414
 30
0.0
  0
VERTEX
  5
B7
330
AF
100
AcDbEntity
  8
_U+30EC_U+30A4_U+30E4_U+30FC 1
 62
   179
420
  2234388
370
    25
100
AcDbVertex
100
AcDb2dVertex
 10
85.71071031333761
 20
-135.9007596882469
 30
0.0
  0
VERTEX
  5
B8
330
AF
100
AcDbEntity
  8
_U+30EC_U+30A4_U+30E4_U+30FC 1
 62
   179
420
  2234388
370
    25
100
AcDbVertex
100
AcDb2dVertex
 10
70.59294998235168
 20
-135.9007596882469
 30
0.0
  0
VERTEX
  5
B9
330
AF
100
AcDbEntity
  8
_U+30EC_U+30A4_U+30E4_U+30FC 1
 62
   179
420
  2234388
370
    25
100
AcDbVertex
100
AcDb2dVertex
 10
70.59294998235168
 20
-136.9005319102195
 30
0.0
  0
VERTEX
  5
BA
330
AF
100
AcDbEntity
  8
_U+30EC_U+30A4_U+30E4_U+30FC 1
 62
   179
420
  2234388
370
    25
100
AcDbVertex
100
AcDb2dVertex
 10
86.71048251005351
 20
-136.9005319102195
 30
0.0
  0
VERTEX
  5
BB
330
AF
100
AcDbEntity
  8
_U+30EC_U+30A4_U+30E4_U+30FC 1
 62
   179
420
  2234388
370
    25
100
AcDbVertex
100
AcDb2dVertex
 10
86.71048251005351
 20
-127.5005563570136
 30
0.0
  0
VERTEX
  5
BC
330
AF
100
AcDbEntity
  8
_U+30EC_U+30A4_U+30E4_U+30FC 1
 62
   179
420
  2234388
370
    25
100
AcDbVertex
100
AcDb2dVertex
 10
89.71046937796191
 20
-127.5005563570136
 30
0.0
  0
VERTEX
  5
BD
330
AF
100
AcDbEntity
  8
_U+30EC_U+30A4_U+30E4_U+30FC 1
 62
   179
420
  2234388
370
    25
100
AcDbVertex
100
AcDb2dVertex
 10
89.71046937796191
 20
-136.9005319102195
 30
0.0
  0
VERTEX
  5
BE
330
AF
100
AcDbEntity
  8
_U+30EC_U+30A4_U+30E4_U+30FC 1
 62
   179
420
  2234388
370
    25
100
AcDbVertex
100
AcDb2dVertex
 10
105.5928773061013
 20
-136.9005319102195
 30
0.0
  0
VERTEX
  5
BF
330
AF
100
AcDbEntity
  8
_U+30EC_U+30A4_U+30E4_U+30FC 1
 62
   179
420
  2234388
370
    25
100
AcDbVertex
100
AcDb2dVertex
 10
105.5928773061013
 20
-135.9007596882469
 30
0.0
  0
VERTEX
  5
C0
330
AF
100
AcDbEntity
  8
_U+30EC_U+30A4_U+30E4_U+30FC 1
 62
   179
420
  2234388
370
    25
100
AcDbVertex
100
AcDb2dVertex
 10
90.71020629690095
 20
-135.9007596882469
 30
0.0
  0
SEQEND
  5
C1
330
AF
100
AcDbEntity
  8
_U+30EC_U+30A4_U+30E4_U+30FC 1
 62
   179
420
  2234388
370
    25
  0
ENDBLK
  5
48
330
45
100
AcDbEntity
  8
0
100
AcDbBlockEnd
  0
BLOCK
  5
6A
330
68
100
AcDbEntity
  8
0
100
AcDbBlockBegin
  2
block 4
 70
     0
 10
0.0
 20
0.0
 30
0.0
  3
block 4
  1

  0
SPLINE
  5
6C
330
68
100
AcDbEntity
  8
_U+30EC_U+30A4_U+30E4_U+30FC 1
370
     0
100
AcDbSpline
210
0.0
220
0.0
230
1.0
 70
    11
 71
     3
 72
    26
 73
    22
 74
     0
 42
0.0000000001
 43
0.0000000001
 12
1.0
 22
0.0
 32
0.0
 13
1.0
 23
0.0
 33
0.0
 40
0.0
 40
0.0
 40
0.0
 40
0.0
 40
1.0
 40
1.0
 40
1.0
 40
2.0
 40
2.0
 40
2.0
 40
3.0
 40
3.0
 40
3.0
 40
4.0
 40
4.0
 40
4.0
 40
5.0
 40
5.0
 40
5.0
 40
6.0
 40
6.0
 40
6.0
 40
7.0
 40
7.0
 40
7.0
 40
7.0
 10
110.8363009705548
 20
-130.2638834309757
 30
0.0
 10
110.8363009705548
 20
-130.2638834309757
 30
0.0
 10
109.7324923770808
 20
-130.2638834309757
 30
0.0
 10
109.7324923770808
 20
-130.2638834309757
 30
0.0
 10
109.7324923770808
 20
-130.2638834309757
 30
0.0
 10
109.7324923770808
 20
-130.5939235784626
 30
0.0
 10
109.7324923770808
 20
-130.5939235784626
 30
0.0
 10
109.7324923770808
 20
-130.5939235784626
 30
0.0
 10
109.584353271215
 20
-130.5939235784626
 30
0.0
 10
109.584353271215
 20
-130.5939235784626
 30
0.0
 10
109.5691948510799
 20
-130.2618163736846
 30
0.0
 10
109.4065863441761
 20
-130.2153075846337
 30
0.0
 10
109.2922091740658
 20
-130.1856797634605
 30
0.0
 10
109.2922091740658
 20
-130.1856797634605
 30
0.0
 10
109.2922091740658
 20
-130.0396077148859
 30
0.0
 10
109.2922091740658
 20
-130.0396077148859
 30
0.0
 10
109.2922091740658
 20
-130.0396077148859
 30
0.0
 10
110.8363009705548
 20
-130.0396077148859
 30
0.0
 10
110.8363009705548
 20
-130.0396077148859
 30
0.0
 10
110.8363009705548
 20
-130.0396077148859
 30
0.0
 10
110.8363009705548
 20
-130.2638834309757
 30
0.0
 10
110.8363009705548
 20
-130.2638834309757
 30
0.0
  0
HATCH
  5
6D
330
68
100
AcDbEntity
  8
_U+30EC_U+30A4_U+30E4_U+30FC 1
 62
   179
420
  2234388
100
AcDbHatch
 10
0.0
 20
0.0
 30
0.0
210
0.0
220
0.0
230
1.0
  2
SOLID
 70
     1
 71
     0
 91
        1
 92
        1
 93
        1
 72
     4
 94
        3
 73
     0
 74
     1
 95
       26
 96
       22
 40
0.0
 40
0.0
 40
0.0
 40
0.0
 40
1.0
 40
1.0
 40
1.0
 40
2.0
 40
2.0
 40
2.0
 40
3.0
 40
3.0
 40
3.0
 40
4.0
 40
4.0
 40
4.0
 40
5.0
 40
5.0
 40
5.0
 40
6.0
 40
6.0
 40
6.0
 40
7.0
 40
7.0
 40
7.0
 40
7.0
 10
110.8363009705548
 20
-130.2638834309757
 10
110.8363009705548
 20
-130.2638834309757
 10
109.7324923770808
 20
-130.2638834309757
 10
109.7324923770808
 20
-130.2638834309757
 10
109.7324923770808
 20
-130.2638834309757
 10
109.7324923770808
 20
-130.5939235784626
 10
109.7324923770808
 20
-130.5939235784626
 10
109.7324923770808
 20
-130.5939235784626
 10
109.584353271215
 20
-130.5939235784626
 10
109.584353271215
 20
-130.5939235784626
 10
109.5691948510799
 20
-130.2618163736846
 10
109.4065863441761
 20
-130.2153075846337
 10
109.2922091740658
 20
-130.1856797634605
 10
109.2922091740658
 20
-130.1856797634605
 10
109.2922091740658
 20
-130.0396077148859
 10
109.2922091740658
 20
-130.0396077148859
 10
109.2922091740658
 20
-130.0396077148859
 10
110.8363009705548
 20
-130.0396077148859
 10
110.8363009705548
 20
-130.0396077148859
 10
110.8363009705548
 20
-130.0396077148859
 10
110.8363009705548
 20
-130.2638834309757
 10
110.8363009705548
 20
-130.2638834309757
 97
        0
 97
        0
 75
     2
 76
     1
 98
        0
  0
SPLINE
  5
6E
330
68
100
AcDbEntity
  8
_U+30EC_U+30A4_U+30E4_U+30FC 1
370
     0
100
AcDbSpline
210
0.0
220
0.0
230
1.0
 70
    11
 71
     3
 72
    53
 73
    49
 74
     0
 42
0.0000000001
 43
0.0000000001
 12
1.0
 22
0.0
 32
0.0
 13
1.0
 23
0.0
 33
0.0
 40
0.0
 40
0.0
 40
0.0
 40
0.0
 40
1.0
 40
1.0
 40
1.0
 40
2.0
 40
2.0
 40
2.0
 40
3.0
 40
3.0
 40
3.0
 40
4.0
 40
4.0
 40
4.0
 40
5.0
 40
5.0
 40
5.0
 40
6.0
 40
6.0
 40
6.0
 40
7.0
 40
7.0
 40
7.0
 40
8.0
 40
8.0
 40
8.0
 40
9.0
 40
9.0
 40
9.0
 40
10.0
 40
10.0
 40
10.0
 40
11.0
 40
11.0
 40
11.0
 40
12.0
 40
12.0
 40
12.0
 40
13.0
 40
13.0
 40
13.0
 40
14.0
 40
14.0
 40
14.0
 40
15.0
 40
15.0
 40
15.0
 40
16.0
 40
16.0
 40
16.0
 40
16.0
 10
110.8872883837365
 20
-129.0574109920412
 30
0.0
 10
110.8872883837365
 20
-129.1356146595564
 30
0.0
 10
110.8700629063103
 20
-129.2372449763712
 30
0.0
 10
110.8066731493817
 20
-129.3388752931861
 30
0.0
 10
110.6971191129507
 20
-129.5121635960942
 30
0.0
 10
110.5655164654142
 20
-129.5335231881027
 30
0.0
 10
110.4580294862744
 20
-129.5524712132716
 30
0.0
 10
110.4580294862744
 20
-129.5524712132716
 30
0.0
 10
110.4580294862744
 20
-129.330262554473
 30
0.0
 10
110.4580294862744
 20
-129.330262554473
 30
0.0
 10
110.6564669862248
 20
-129.2754855362575
 30
0.0
 10
110.6860948073979
 20
-129.1483615128518
 30
0.0
 10
110.6860948073979
 20
-129.0553439347501
 30
0.0
 10
110.6860948073979
 20
-128.9158175675974
 30
0.0
 10
110.5868760574227
 20
-128.7635443471494
 30
0.0
 10
110.3539876026198
 20
-128.7635443471494
 30
0.0
 10
110.0983615176143
 20
-128.7635443471494
 30
0.0
 10
110.0280815697152
 20
-128.9433783314794
 30
0.0
 10
110.0280815697152
 20
-129.0639566734632
 30
0.0
 10
110.0280815697152
 20
-129.0956515519275
 30
0.0
 10
110.0280815697152
 20
-129.2372449763712
 30
0.0
 10
110.1576171599606
 20
-129.3261284398907
 30
0.0
 10
110.1576171599606
 20
-129.3261284398907
 30
0.0
 10
110.1383246252432
 20
-129.5018283096384
 30
0.0
 10
110.1383246252432
 20
-129.5018283096384
 30
0.0
 10
110.1383246252432
 20
-129.5018283096384
 30
0.0
 10
109.2922091740658
 20
-129.3812499676547
 30
0.0
 10
109.2922091740658
 20
-129.3812499676547
 30
0.0
 10
109.2922091740658
 20
-129.3812499676547
 30
0.0
 10
109.2922091740658
 20
-128.6026583879882
 30
0.0
 10
109.2922091740658
 20
-128.6026583879882
 30
0.0
 10
109.2922091740658
 20
-128.6026583879882
 30
0.0
 10
109.4865125594339
 20
-128.6026583879882
 30
0.0
 10
109.4865125594339
 20
-128.6026583879882
 30
0.0
 10
109.4865125594339
 20
-128.6026583879882
 30
0.0
 10
109.4865125594339
 20
-129.2182969512024
 30
0.0
 10
109.4865125594339
 20
-129.2182969512024
 30
0.0
 10
109.4865125594339
 20
-129.2182969512024
 30
0.0
 10
109.9095702850226
 20
-129.2837537654221
 30
0.0
 10
109.9095702850226
 20
-129.2837537654221
 30
0.0
 10
109.8758083492672
 20
-129.2224310657847
 30
0.0
 10
109.8358452416383
 20
-129.1400932836872
 30
0.0
 10
109.8358452416383
 20
-129.0215819989946
 30
0.0
 10
109.8358452416383
 20
-128.7676784617317
 30
0.0
 10
110.0218803978418
 20
-128.5306558923465
 30
0.0
 10
110.3353840869995
 20
-128.5306558923465
 30
0.0
 10
110.6523328716425
 20
-128.5306558923465
 30
0.0
 10
110.8872883837365
 20
-128.7549316084363
 30
0.0
 10
110.8872883837365
 20
-129.0574109920412
 30
0.0
  0
HATCH
  5
6F
330
68
100
AcDbEntity
  8
_U+30EC_U+30A4_U+30E4_U+30FC 1
 62
   179
420
  2234388
100
AcDbHatch
 10
0.0
 20
0.0
 30
0.0
210
0.0
220
0.0
230
1.0
  2
SOLID
 70
     1
 71
     0
 91
        1
 92
        1
 93
        1
 72
     4
 94
        3
 73
     0
 74
     1
 95
       53
 96
       49
 40
0.0
 40
0.0
 40
0.0
 40
0.0
 40
1.0
 40
1.0
 40
1.0
 40
2.0
 40
2.0
 40
2.0
 40
3.0
 40
3.0
 40
3.0
 40
4.0
 40
4.0
 40
4.0
 40
5.0
 40
5.0
 40
5.0
 40
6.0
 40
6.0
 40
6.0
 40
7.0
 40
7.0
 40
7.0
 40
8.0
 40
8.0
 40
8.0
 40
9.0
 40
9.0
 40
9.0
 40
10.0
 40
10.0
 40
10.0
 40
11.0
 40
11.0
 40
11.0
 40
12.0
 40
12.0
 40
12.0
 40
13.0
 40
13.0
 40
13.0
 40
14.0
 40
14.0
 40
14.0
 40
15.0
 40
15.0
 40
15.0
 40
16.0
 40
16.0
 40
16.0
 40
16.0
 10
110.8872883837365
 20
-129.0574109920412
 10
110.8872883837365
 20
-129.1356146595564
 10
110.8700629063103
 20
-129.2372449763712
 10
110.8066731493817
 20
-129.3388752931861
 10
110.6971191129507
 20
-129.5121635960942
 10
110.5655164654142
 20
-129.5335231881027
 10
110.4580294862744
 20
-129.5524712132716
 10
110.4580294862744
 20
-129.5524712132716
 10
110.4580294862744
 20
-129.330262554473
 10
110.4580294862744
 20
-129.330262554473
 10
110.6564669862248
 20
-129.2754855362575
 10
110.6860948073979
 20
-129.1483615128518
 10
110.6860948073979
 20
-129.0553439347501
 10
110.6860948073979
 20
-128.9158175675974
 10
110.5868760574227
 20
-128.7635443471494
 10
110.3539876026198
 20
-128.7635443471494
 10
110.0983615176143
 20
-128.7635443471494
 10
110.0280815697152
 20
-128.9433783314794
 10
110.0280815697152
 20
-129.0639566734632
 10
110.0280815697152
 20
-129.0956515519275
 10
110.0280815697152
 20
-129.2372449763712
 10
110.1576171599606
 20
-129.3261284398907
 10
110.1576171599606
 20
-129.3261284398907
 10
110.1383246252432
 20
-129.5018283096384
 10
110.1383246252432
 20
-129.5018283096384
 10
110.1383246252432
 20
-129.5018283096384
 10
109.2922091740658
 20
-129.3812499676547
 10
109.2922091740658
 20
-129.3812499676547
 10
109.2922091740658
 20
-129.3812499676547
 10
109.2922091740658
 20
-128.6026583879882
 10
109.2922091740658
 20
-128.6026583879882
 10
109.2922091740658
 20
-128.6026583879882
 10
109.4865125594339
 20
-128.6026583879882
 10
109.4865125594339
 20
-128.6026583879882
 10
109.4865125594339
 20
-128.6026583879882
 10
109.4865125594339
 20
-129.2182969512024
 10
109.4865125594339
 20
-129.2182969512024
 10
109.4865125594339
 20
-129.2182969512024
 10
109.9095702850226
 20
-129.2837537654221
 10
109.9095702850226
 20
-129.2837537654221
 10
109.8758083492672
 20
-129.2224310657847
 10
109.8358452416383
 20
-129.1400932836872
 10
109.8358452416383
 20
-129.0215819989946
 10
109.8358452416383
 20
-128.7676784617317
 10
110.0218803978418
 20
-128.5306558923465
 10
110.3353840869995
 20
-128.5306558923465
 10
110.6523328716425
 20
-128.5306558923465
 10
110.8872883837365
 20
-128.7549316084363
 10
110.8872883837365
 20
-129.0574109920412
 97
        0
 97
        0
 75
     2
 76
     1
 98
        0
  0
POLYLINE
  5
70
330
68
100
AcDbEntity
  8
_U+30EC_U+30A4_U+30E4_U+30FC 1
370
     0
100
AcDb2dPolyline
 66
     1
 10
0.0
 20
0.0
 30
0.0
  0
VERTEX
  5
71
330
70
100
AcDbEntity
  8
_U+30EC_U+30A4_U+30E4_U+30FC 1
370
     0
100
AcDbVertex
100
AcDb2dVertex
 10
110.8363009705548
 20
-128.3015570425774
 30
0.0
  0
VERTEX
  5
72
330
70
100
AcDbEntity
  8
_U+30EC_U+30A4_U+30E4_U+30FC 1
370
     0
100
AcDbVertex
100
AcDb2dVertex
 10
110.5848090001316
 20
-128.3015570425774
 30
0.0
  0
VERTEX
  5
73
330
70
100
AcDbEntity
  8
_U+30EC_U+30A4_U+30E4_U+30FC 1
370
     0
100
AcDbVertex
100
AcDb2dVertex
 10
110.5848090001316
 20
-128.0497205626056
 30
0.0
  0
VERTEX
  5
74
330
70
100
AcDbEntity
  8
_U+30EC_U+30A4_U+30E4_U+30FC 1
370
     0
100
AcDbVertex
100
AcDb2dVertex
 10
110.8363009705548
 20
-128.0497205626056
 30
0.0
  0
VERTEX
  5
75
330
70
100
AcDbEntity
  8
_U+30EC_U+30A4_U+30E4_U+30FC 1
370
     0
100
AcDbVertex
100
AcDb2dVertex
 10
110.8363009705548
 20
-128.3015570425774
 30
0.0
  0
SEQEND
  5
76
330
70
100
AcDbEntity
  8
_U+30EC_U+30A4_U+30E4_U+30FC 1
370
     0
  0
HATCH
  5
77
330
68
100
AcDbEntity
  8
_U+30EC_U+30A4_U+30E4_U+30FC 1
 62
   179
420
  2234388
100
AcDbHatch
 10
0.0
 20
0.0
 30
0.0
210
0.0
220
0.0
230
1.0
  2
SOLID
 70
     1
 71
     0
 91
        1
 92
        1
 93
        4
 72
     1
 10
110.8363009705548
 20
-128.3015570425774
 11
110.5848090001316
 21
-128.3015570425774
 72
     1
 10
110.5848090001316
 20
-128.3015570425774
 11
110.5848090001316
 21
-128.0497205626056
 72
     1
 10
110.5848090001316
 20
-128.0497205626056
 11
110.8363009705548
 21
-128.0497205626056
 72
     1
 10
110.8363009705548
 20
-128.0497205626056
 11
110.8363009705548
 21
-128.3015570425774
 97
        0
 75
     2
 76
     1
 98
        0
  0
SPLINE
  5
78
330
68
100
AcDbEntity
  8
_U+30EC_U+30A4_U+30E4_U+30FC 1
370
     0
100
AcDbSpline
210
0.0
220
0.0
230
1.0
 70
    11
 71
     3
 72
    53
 73
    49
 74
     0
 42
0.0000000001
 43
0.0000000001
 12
1.0
 22
0.0
 32
0.0
 13
1.0
 23
0.0
 33
0.0
 40
0.0
 40
0.0
 40
0.0
 40
0.0
 40
1.0
 40
1.0
 40
1.0
 40
2.0
 40
2.0
 40
2.0
 40
3.0
 40
3.0
 40
3.0
 40
4.0
 40
4.0
 40
4.0
 40
5.0
 40
5.0
 40
5.0
 40
6.0
 40
6.0
 40
6.0
 40
7.0
 40
7.0
 40
7.0
 40
8.0
 40
8.0
 40
8.0
 40
9.0
 40
9.0
 40
9.0
 40
10.0
 40
10.0
 40
10.0
 40
11.0
 40
11.0
 40
11.0
 40
12.0
 40
12.0
 40
12.0
 40
13.0
 40
13.0
 40
13.0
 40
14.0
 40
14.0
 40
14.0
 40
15.0
 40
15.0
 40
15.0
 40
16.0
 40
16.0
 40
16.0
 40
16.0
 10
110.8872883837365
 20
-127.3324516825766
 30
0.0
 10
110.8872883837365
 20
-127.4106553500918
 30
0.0
 10
110.8700629063103
 20
-127.5122856669067
 30
0.0
 10
110.8066731493817
 20
-127.6139159837215
 30
0.0
 10
110.6971191129507
 20
-127.7872042866296
 30
0.0
 10
110.5655164654142
 20
-127.8085638786381
 30
0.0
 10
110.4580294862744
 20
-127.827511903807
 30
0.0
 10
110.4580294862744
 20
-127.827511903807
 30
0.0
 10
110.4580294862744
 20
-127.6053032450084
 30
0.0
 10
110.4580294862744
 20
-127.6053032450084
 30
0.0
 10
110.6564669862248
 20
-127.5505262267929
 30
0.0
 10
110.6860948073979
 20
-127.4234022033872
 30
0.0
 10
110.6860948073979
 20
-127.3303846252855
 30
0.0
 10
110.6860948073979
 20
-127.1908582581328
 30
0.0
 10
110.5868760574227
 20
-127.0385850376848
 30
0.0
 10
110.3539876026198
 20
-127.0385850376848
 30
0.0
 10
110.0983615176143
 20
-127.0385850376848
 30
0.0
 10
110.0280815697152
 20
-127.2184190220148
 30
0.0
 10
110.0280815697152
 20
-127.3389973639986
 30
0.0
 10
110.0280815697152
 20
-127.3706922424629
 30
0.0
 10
110.0280815697152
 20
-127.5122856669067
 30
0.0
 10
110.1576171599606
 20
-127.6011691304261
 30
0.0
 10
110.1576171599606
 20
-127.6011691304261
 30
0.0
 10
110.1383246252432
 20
-127.7768690001738
 30
0.0
 10
110.1383246252432
 20
-127.7768690001738
 30
0.0
 10
110.1383246252432
 20
-127.7768690001738
 30
0.0
 10
109.2922091740658
 20
-127.6562906581901
 30
0.0
 10
109.2922091740658
 20
-127.6562906581901
 30
0.0
 10
109.2922091740658
 20
-127.6562906581901
 30
0.0
 10
109.2922091740658
 20
-126.8776990785236
 30
0.0
 10
109.2922091740658
 20
-126.8776990785236
 30
0.0
 10
109.2922091740658
 20
-126.8776990785236
 30
0.0
 10
109.4865125594339
 20
-126.8776990785236
 30
0.0
 10
109.4865125594339
 20
-126.8776990785236
 30
0.0
 10
109.4865125594339
 20
-126.8776990785236
 30
0.0
 10
109.4865125594339
 20
-127.4933376417378
 30
0.0
 10
109.4865125594339
 20
-127.4933376417378
 30
0.0
 10
109.4865125594339
 20
-127.4933376417378
 30
0.0
 10
109.9095702850226
 20
-127.5587944559575
 30
0.0
 10
109.9095702850226
 20
-127.5587944559575
 30
0.0
 10
109.8758083492672
 20
-127.4974717563201
 30
0.0
 10
109.8358452416383
 20
-127.4151339742226
 30
0.0
 10
109.8358452416383
 20
-127.29662268953
 30
0.0
 10
109.8358452416383
 20
-127.0427191522671
 30
0.0
 10
110.0218803978418
 20
-126.8056965828819
 30
0.0
 10
110.3353840869995
 20
-126.8056965828819
 30
0.0
 10
110.6523328716425
 20
-126.8056965828819
 30
0.0
 10
110.8872883837365
 20
-127.0299722989717
 30
0.0
 10
110.8872883837365
 20
-127.3324516825766
 30
0.0
  0
HATCH
  5
79
330
68
100
AcDbEntity
  8
_U+30EC_U+30A4_U+30E4_U+30FC 1
 62
   179
420
  2234388
100
AcDbHatch
 10
0.0
 20
0.0
 30
0.0
210
0.0
220
0.0
230
1.0
  2
SOLID
 70
     1
 71
     0
 91
        1
 92
        1
 93
        1
 72
     4
 94
        3
 73
     0
 74
     1
 95
       53
 96
       49
 40
0.0
 40
0.0
 40
0.0
 40
0.0
 40
1.0
 40
1.0
 40
1.0
 40
2.0
 40
2.0
 40
2.0
 40
3.0
 40
3.0
 40
3.0
 40
4.0
 40
4.0
 40
4.0
 40
5.0
 40
5.0
 40
5.0
 40
6.0
 40
6.0
 40
6.0
 40
7.0
 40
7.0
 40
7.0
 40
8.0
 40
8.0
 40
8.0
 40
9.0
 40
9.0
 40
9.0
 40
10.0
 40
10.0
 40
10.0
 40
11.0
 40
11.0
 40
11.0
 40
12.0
 40
12.0
 40
12.0
 40
13.0
 40
13.0
 40
13.0
 40
14.0
 40
14.0
 40
14.0
 40
15.0
 40
15.0
 40
15.0
 40
16.0
 40
16.0
 40
16.0
 40
16.0
 10
110.8872883837365
 20
-127.3324516825766
 10
110.8872883837365
 20
-127.4106553500918
 10
110.8700629063103
 20
-127.5122856669067
 10
110.8066731493817
 20
-127.6139159837215
 10
110.6971191129507
 20
-127.7872042866296
 10
110.5655164654142
 20
-127.8085638786381
 10
110.4580294862744
 20
-127.827511903807
 10
110.4580294862744
 20
-127.827511903807
 10
110.4580294862744
 20
-127.6053032450084
 10
110.4580294862744
 20
-127.6053032450084
 10
110.6564669862248
 20
-127.5505262267929
 10
110.6860948073979
 20
-127.4234022033872
 10
110.6860948073979
 20
-127.3303846252855
 10
110.6860948073979
 20
-127.1908582581328
 10
110.5868760574227
 20
-127.0385850376848
 10
110.3539876026198
 20
-127.0385850376848
 10
110.0983615176143
 20
-127.0385850376848
 10
110.0280815697152
 20
-127.2184190220148
 10
110.0280815697152
 20
-127.3389973639986
 10
110.0280815697152
 20
-127.3706922424629
 10
110.0280815697152
 20
-127.5122856669067
 10
110.1576171599606
 20
-127.6011691304261
 10
110.1576171599606
 20
-127.6011691304261
 10
110.1383246252432
 20
-127.7768690001738
 10
110.1383246252432
 20
-127.7768690001738
 10
110.1383246252432
 20
-127.7768690001738
 10
109.2922091740658
 20
-127.6562906581901
 10
109.2922091740658
 20
-127.6562906581901
 10
109.2922091740658
 20
-127.6562906581901
 10
109.2922091740658
 20
-126.8776990785236
 10
109.2922091740658
 20
-126.8776990785236
 10
109.2922091740658
 20
-126.8776990785236
 10
109.4865125594339
 20
-126.8776990785236
 10
109.4865125594339
 20
-126.8776990785236
 10
109.4865125594339
 20
-126.8776990785236
 10
109.4865125594339
 20
-127.4933376417378
 10
109.4865125594339
 20
-127.4933376417378
 10
109.4865125594339
 20
-127.4933376417378
 10
109.9095702850226
 20
-127.5587944559575
 10
109.9095702850226
 20
-127.5587944559575
 10
109.8758083492672
 20
-127.4974717563201
 10
109.8358452416383
 20
-127.4151339742226
 10
109.8358452416383
 20
-127.29662268953
 10
109.8358452416383
 20
-127.0427191522671
 10
110.0218803978418
 20
-126.8056965828819
 10
110.3353840869995
 20
-126.8056965828819
 10
110.6523328716425
 20
-126.8056965828819
 10
110.8872883837365
 20
-127.0299722989717
 10
110.8872883837365
 20
-127.3324516825766
 97
        0
 97
        0
 75
     2
 76
     1
 98
        0
  0
ENDBLK
  5
6B
330
68
100
AcDbEntity
  8
0
100
AcDbBlockEnd
  0
BLOCK
  5
7C
330
7A
100
AcDbEntity
  8
0
100
AcDbBlockBegin
  2
block 5
 70
     0
 10
0.0
 20
0.0
 30
0.0
  3
block 5
  1

  0
SPLINE
  5
7E
330
7A
100
AcDbEntity
  8
_U+30EC_U+30A4_U+30E4_U+30FC 1
370
     0
100
AcDbSpline
210
0.0
220
0.0
230
1.0
 70
    11
 71
     3
 72
    26
 73
    22
 74
     0
 42
0.0000000001
 43
0.0000000001
 12
1.0
 22
0.0
 32
0.0
 13
1.0
 23
0.0
 33
0.0
 40
0.0
 40
0.0
 40
0.0
 40
0.0
 40
1.0
 40
1.0
 40
1.0
 40
2.0
 40
2.0
 40
2.0
 40
3.0
 40
3.0
 40
3.0
 40
4.0
 40
4.0
 40
4.0
 40
5.0
 40
5.0
 40
5.0
 40
6.0
 40
6.0
 40
6.0
 40
7.0
 40
7.0
 40
7.0
 40
7.0
 10
110.8363009705548
 20
-136.4306043495729
 30
0.0
 10
110.8363009705548
 20
-136.4306043495729
 30
0.0
 10
109.7324923770808
 20
-136.4306043495729
 30
0.0
 10
109.7324923770808
 20
-136.4306043495729
 30
0.0
 10
109.7324923770808
 20
-136.4306043495729
 30
0.0
 10
109.7324923770808
 20
-136.7606444970598
 30
0.0
 10
109.7324923770808
 20
-136.7606444970598
 30
0.0
 10
109.7324923770808
 20
-136.7606444970598
 30
0.0
 10
109.584353271215
 20
-136.7606444970598
 30
0.0
 10
109.584353271215
 20
-136.7606444970598
 30
0.0
 10
109.5691948510799
 20
-136.4285372922818
 30
0.0
 10
109.4065863441761
 20
-136.3820285032309
 30
0.0
 10
109.2922091740658
 20
-136.3524006820577
 30
0.0
 10
109.2922091740658
 20
-136.3524006820577
 30
0.0
 10
109.2922091740658
 20
-136.2063286334831
 30
0.0
 10
109.2922091740658
 20
-136.2063286334831
 30
0.0
 10
109.2922091740658
 20
-136.2063286334831
 30
0.0
 10
110.8363009705548
 20
-136.2063286334831
 30
0.0
 10
110.8363009705548
 20
-136.2063286334831
 30
0.0
 10
110.8363009705548
 20
-136.2063286334831
 30
0.0
 10
110.8363009705548
 20
-136.4306043495729
 30
0.0
 10
110.8363009705548
 20
-136.4306043495729
 30
0.0
  0
HATCH
  5
7F
330
7A
100
AcDbEntity
  8
_U+30EC_U+30A4_U+30E4_U+30FC 1
 62
   179
420
  2234388
100
AcDbHatch
 10
0.0
 20
0.0
 30
0.0
210
0.0
220
0.0
230
1.0
  2
SOLID
 70
     1
 71
     0
 91
        1
 92
        1
 93
        1
 72
     4
 94
        3
 73
     0
 74
     1
 95
       26
 96
       22
 40
0.0
 40
0.0
 40
0.0
 40
0.0
 40
1.0
 40
1.0
 40
1.0
 40
2.0
 40
2.0
 40
2.0
 40
3.0
 40
3.0
 40
3.0
 40
4.0
 40
4.0
 40
4.0
 40
5.0
 40
5.0
 40
5.0
 40
6.0
 40
6.0
 40
6.0
 40
7.0
 40
7.0
 40
7.0
 40
7.0
 10
110.8363009705548
 20
-136.4306043495729
 10
110.8363009705548
 20
-136.4306043495729
 10
109.7324923770808
 20
-136.4306043495729
 10
109.7324923770808
 20
-136.4306043495729
 10
109.7324923770808
 20
-136.4306043495729
 10
109.7324923770808
 20
-136.7606444970598
 10
109.7324923770808
 20
-136.7606444970598
 10
109.7324923770808
 20
-136.7606444970598
 10
109.584353271215
 20
-136.7606444970598
 10
109.584353271215
 20
-136.7606444970598
 10
109.5691948510799
 20
-136.4285372922818
 10
109.4065863441761
 20
-136.3820285032309
 10
109.2922091740658
 20
-136.3524006820577
 10
109.2922091740658
 20
-136.3524006820577
 10
109.2922091740658
 20
-136.2063286334831
 10
109.2922091740658
 20
-136.2063286334831
 10
109.2922091740658
 20
-136.2063286334831
 10
110.8363009705548
 20
-136.2063286334831
 10
110.8363009705548
 20
-136.2063286334831
 10
110.8363009705548
 20
-136.2063286334831
 10
110.8363009705548
 20
-136.4306043495729
 10
110.8363009705548
 20
-136.4306043495729
 97
        0
 97
        0
 75
     2
 76
     1
 98
        0
  0
ENDBLK
  5
7D
330
7A
100
AcDbEntity
  8
0
100
AcDbBlockEnd
  0
BLOCK
  5
82
330
80
100
AcDbEntity
  8
0
100
AcDbBlockBegin
  2
block 6
 70
     0
 10
0.0
 20
0.0
 30
0.0
  3
block 6
  1

  0
SPLINE
  5
84
330
80
100
AcDbEntity
  8
_U+30EC_U+30A4_U+30E4_U+30FC 1
370
     0
100
AcDbSpline
210
0.0
220
0.0
230
1.0
 70
    11
 71
     3
 72
    32
 73
    28
 74
     0
 42
0.0000000001
 43
0.0000000001
 12
1.0
 22
0.0
 32
0.0
 13
1.0
 23
0.0
 33
0.0
 40
0.0
 40
0.0
 40
0.0
 40
0.0
 40
1.0
 40
1.0
 40
1.0
 40
2.0
 40
2.0
 40
2.0
 40
3.0
 40
3.0
 40
3.0
 40
4.0
 40
4.0
 40
4.0
 40
5.0
 40
5.0
 40
5.0
 40
6.0
 40
6.0
 40
6.0
 40
7.0
 40
7.0
 40
7.0
 40
8.0
 40
8.0
 40
8.0
 40
9.0
 40
9.0
 40
9.0
 40
9.0
 10
95.87769637360003
 20
-123.4918592356201
 30
0.0
 10
95.87769637360003
 20
-124.0079345393105
 30
0.0
 10
95.32372501957185
 20
-124.0165472780237
 30
0.0
 10
95.11012909948636
 20
-124.0165472780237
 30
0.0
 10
94.87930770197462
 20
-124.0165472780237
 30
0.0
 10
94.2323187698447
 20
-123.9972547433062
 30
0.0
 10
94.2323187698447
 20
-123.4536186757338
 30
0.0
 10
94.2323187698447
 20
-123.2803303728258
 30
0.0
 10
94.30190969864675
 20
-123.0346950647274
 30
0.0
 10
94.63401690342484
 20
-122.9967990143897
 30
0.0
 10
94.63401690342484
 20
-122.9967990143897
 30
0.0
 10
94.63401690342484
 20
-123.2103949344752
 30
0.0
 10
94.63401690342484
 20
-123.2103949344752
 30
0.0
 10
94.57682831836969
 20
-123.2210747304795
 30
0.0
 10
94.42868921250394
 20
-123.2527696089438
 30
0.0
 10
94.42868921250394
 20
-123.455685733025
 30
0.0
 10
94.42868921250394
 20
-123.7478298301742
 30
0.0
 10
94.75666230269972
 20
-123.7877929378031
 30
0.0
 10
94.96198999362062
 20
-123.8005397910985
 30
0.0
 10
94.88344181655692
 20
-123.7075222129967
 30
0.0
 10
94.82418617421062
 20
-123.6396538319373
 30
0.0
 10
94.82418617421062
 20
-123.4577527903161
 30
0.0
 10
94.82418617421062
 20
-123.2779188059861
 30
0.0
 10
94.93236217244747
 20
-122.9754394223811
 30
0.0
 10
95.33888343970695
 20
-122.9754394223811
 30
0.0
 10
95.65789928164108
 20
-122.9754394223811
 30
0.0
 10
95.87769637360003
 20
-123.1745659414286
 30
0.0
 10
95.87769637360003
 20
-123.4918592356201
 30
0.0
  0
SPLINE
  5
85
330
80
100
AcDbEntity
  8
_U+30EC_U+30A4_U+30E4_U+30FC 1
370
     0
100
AcDbSpline
210
0.0
220
0.0
230
1.0
 70
    11
 71
     3
 72
    17
 73
    13
 74
     0
 42
0.0000000001
 43
0.0000000001
 12
1.0
 22
0.0
 32
0.0
 13
1.0
 23
0.0
 33
0.0
 40
0.0
 40
0.0
 40
0.0
 40
0.0
 40
1.0
 40
1.0
 40
1.0
 40
2.0
 40
2.0
 40
2.0
 40
3.0
 40
3.0
 40
3.0
 40
4.0
 40
4.0
 40
4.0
 40
4.0
 10
95.01917857867576
 20
-123.4749782677424
 30
0.0
 10
95.01917857867576
 20
-123.7371500341699
 30
0.0
 10
95.2307074414701
 20
-123.7750460845076
 30
0.0
 10
95.34715166887155
 20
-123.7750460845076
 30
0.0
 10
95.52285153861929
 20
-123.7750460845076
 30
0.0
 10
95.68546004552309
 20
-123.6799614491147
 30
0.0
 10
95.68546004552309
 20
-123.4959933502024
 30
0.0
 10
95.68546004552309
 20
-123.3754150082187
 30
0.0
 10
95.62620440317679
 20
-123.1997151384709
 30
0.0
 10
95.3409504969981
 20
-123.1997151384709
 30
0.0
 10
95.11633027135981
 20
-123.1997151384709
 30
0.0
 10
95.01917857867576
 20
-123.3392415056235
 30
0.0
 10
95.01917857867576
 20
-123.4749782677424
 30
0.0
  0
HATCH
  5
86
330
80
100
AcDbEntity
  8
_U+30EC_U+30A4_U+30E4_U+30FC 1
 62
   179
420
  2234388
100
AcDbHatch
 10
0.0
 20
0.0
 30
0.0
210
0.0
220
0.0
230
1.0
  2
SOLID
 70
     1
 71
     0
 91
        2
 92
        1
 93
        1
 72
     4
 94
        3
 73
     0
 74
     1
 95
       32
 96
       28
 40
0.0
 40
0.0
 40
0.0
 40
0.0
 40
1.0
 40
1.0
 40
1.0
 40
2.0
 40
2.0
 40
2.0
 40
3.0
 40
3.0
 40
3.0
 40
4.0
 40
4.0
 40
4.0
 40
5.0
 40
5.0
 40
5.0
 40
6.0
 40
6.0
 40
6.0
 40
7.0
 40
7.0
 40
7.0
 40
8.0
 40
8.0
 40
8.0
 40
9.0
 40
9.0
 40
9.0
 40
9.0
 10
95.87769637360003
 20
-123.4918592356201
 10
95.87769637360003
 20
-124.0079345393105
 10
95.32372501957185
 20
-124.0165472780237
 10
95.11012909948636
 20
-124.0165472780237
 10
94.87930770197462
 20
-124.0165472780237
 10
94.2323187698447
 20
-123.9972547433062
 10
94.2323187698447
 20
-123.4536186757338
 10
94.2323187698447
 20
-123.2803303728258
 10
94.30190969864675
 20
-123.0346950647274
 10
94.63401690342484
 20
-122.9967990143897
 10
94.63401690342484
 20
-122.9967990143897
 10
94.63401690342484
 20
-123.2103949344752
 10
94.63401690342484
 20
-123.2103949344752
 10
94.57682831836969
 20
-123.2210747304795
 10
94.42868921250394
 20
-123.2527696089438
 10
94.42868921250394
 20
-123.455685733025
 10
94.42868921250394
 20
-123.7478298301742
 10
94.75666230269972
 20
-123.7877929378031
 10
94.96198999362062
 20
-123.8005397910985
 10
94.88344181655692
 20
-123.7075222129967
 10
94.82418617421062
 20
-123.6396538319373
 10
94.82418617421062
 20
-123.4577527903161
 10
94.82418617421062
 20
-123.2779188059861
 10
94.93236217244747
 20
-122.9754394223811
 10
95.33888343970695
 20
-122.9754394223811
 10
95.65789928164108
 20
-122.9754394223811
 10
95.87769637360003
 20
-123.1745659414286
 10
95.87769637360003
 20
-123.4918592356201
 97
        0
 97
        0
 92
        1
 93
        1
 72
     4
 94
        3
 73
     0
 74
     1
 95
       17
 96
       13
 40
0.0
 40
0.0
 40
0.0
 40
0.0
 40
1.0
 40
1.0
 40
1.0
 40
2.0
 40
2.0
 40
2.0
 40
3.0
 40
3.0
 40
3.0
 40
4.0
 40
4.0
 40
4.0
 40
4.0
 10
95.01917857867576
 20
-123.4749782677424
 10
95.01917857867576
 20
-123.7371500341699
 10
95.2307074414701
 20
-123.7750460845076
 10
95.34715166887155
 20
-123.7750460845076
 10
95.52285153861929
 20
-123.7750460845076
 10
95.68546004552309
 20
-123.6799614491147
 10
95.68546004552309
 20
-123.4959933502024
 10
95.68546004552309
 20
-123.3754150082187
 10
95.62620440317679
 20
-123.1997151384709
 10
95.3409504969981
 20
-123.1997151384709
 10
95.11633027135981
 20
-123.1997151384709
 10
95.01917857867576
 20
-123.3392415056235
 10
95.01917857867576
 20
-123.4749782677424
 97
        0
 97
        0
 75
     2
 76
     1
 98
        0
  0
ENDBLK
  5
83
330
80
100
AcDbEntity
  8
0
100
AcDbBlockEnd
  0
BLOCK
  5
97
330
95
100
AcDbEntity
  8
0
100
AcDbBlockBegin
  2
block 7
 70
     0
 10
0.0
 20
0.0
 30
0.0
  3
block 7
  1

  0
SPLINE
  5
99
330
95
100
AcDbEntity
  8
_U+30EC_U+30A4_U+30E4_U+30FC 1
370
     0
100
AcDbSpline
210
0.0
220
0.0
230
1.0
 70
    11
 71
     3
 72
    62
 73
    58
 74
     0
 42
0.0000000001
 43
0.0000000001
 12
1.0
 22
0.0
 32
0.0
 13
1.0
 23
0.0
 33
0.0
 40
0.0
 40
0.0
 40
0.0
 40
0.0
 40
1.0
 40
1.0
 40
1.0
 40
2.0
 40
2.0
 40
2.0
 40
3.0
 40
3.0
 40
3.0
 40
4.0
 40
4.0
 40
4.0
 40
5.0
 40
5.0
 40
5.0
 40
6.0
 40
6.0
 40
6.0
 40
7.0
 40
7.0
 40
7.0
 40
8.0
 40
8.0
 40
8.0
 40
9.0
 40
9.0
 40
9.0
 40
10.0
 40
10.0
 40
10.0
 40
11.0
 40
11.0
 40
11.0
 40
12.0
 40
12.0
 40
12.0
 40
13.0
 40
13.0
 40
13.0
 40
14.0
 40
14.0
 40
14.0
 40
15.0
 40
15.0
 40
15.0
 40
16.0
 40
16.0
 40
16.0
 40
17.0
 40
17.0
 40
17.0
 40
18.0
 40
18.0
 40
18.0
 40
19.0
 40
19.0
 40
19.0
 40
19.0
 10
88.13139917501576
 20
-117.1911241026467
 30
0.0
 10
88.03597003007434
 20
-117.1911241026467
 30
0.0
 10
87.81823999540656
 20
-117.1701090201866
 30
0.0
 10
87.69318302929199
 20
-116.9840738639832
 30
0.0
 10
87.61911347635912
 20
-116.871763751164
 30
0.0
 10
87.61497936177682
 20
-116.7725450011888
 30
0.0
 10
87.61084524719452
 20
-116.6877956522517
 30
0.0
 10
87.61084524719452
 20
-116.6877956522517
 30
0.0
 10
87.83098684870198
 20
-116.6877956522517
 30
0.0
 10
87.83098684870198
 20
-116.6877956522517
 30
0.0
 10
87.83305390599313
 20
-116.7618652051845
 30
0.0
 10
87.84338919244888
 20
-116.9964762077301
 30
0.0
 10
88.12692055088495
 20
-116.9964762077301
 30
0.0
 10
88.2643798607464
 20
-116.9964762077301
 30
0.0
 10
88.41699759074298
 20
-116.926885278928
 30
0.0
 10
88.41699759074298
 20
-116.6984754482559
 30
0.0
 10
88.41699759074298
 20
-116.5820312208545
 30
0.0
 10
88.3787570308567
 20
-116.5334553745125
 30
0.0
 10
88.34706215239241
 20
-116.5017604960482
 30
0.0
 10
88.27299259945953
 20
-116.4276909431153
 30
0.0
 10
88.15654837205808
 20
-116.4149440898199
 30
0.0
 10
88.10177135384262
 20
-116.4149440898199
 30
0.0
 10
88.08247881912521
 20
-116.4149440898199
 30
0.0
 10
88.04664982607862
 20
-116.417011147111
 30
0.0
 10
88.01908906219663
 20
-116.4211452616933
 30
0.0
 10
88.01908906219663
 20
-116.4211452616933
 30
0.0
 10
88.01908906219663
 20
-116.2264973667767
 30
0.0
 10
88.01908906219663
 20
-116.2264973667767
 30
0.0
 10
88.05732962208289
 20
-116.2330430481987
 30
0.0
 10
88.09935978700294
 20
-116.2351101054898
 30
0.0
 10
88.10590546842492
 20
-116.2351101054898
 30
0.0
 10
88.17136228264467
 20
-116.2351101054898
 30
0.0
 10
88.37014429214358
 20
-116.2137505134813
 30
0.0
 10
88.37014429214358
 20
-115.9770724536446
 30
0.0
 10
88.37014429214358
 20
-115.7993055266057
 30
0.0
 10
88.23923066370409
 20
-115.7441839988417
 30
0.0
 10
88.12898760817609
 20
-115.7441839988417
 30
0.0
 10
87.86474878445743
 20
-115.7441839988417
 30
0.0
 10
87.85613604574431
 20
-115.9770724536446
 30
0.0
 10
87.85200193116201
 20
-116.0487304397378
 30
0.0
 10
87.85200193116201
 20
-116.0487304397378
 30
0.0
 10
87.64874129753227
 20
-116.0487304397378
 30
0.0
 10
87.64874129753227
 20
-116.0487304397378
 30
0.0
 10
87.6573540362454
 20
-115.9240179831718
 30
0.0
 10
87.68491480012739
 20
-115.547469046634
 30
0.0
 10
88.14173446147151
 20
-115.547469046634
 30
0.0
 10
88.36601017756128
 20
-115.547469046634
 30
0.0
 10
88.60716686152877
 20
-115.6745930700397
 30
0.0
 10
88.60716686152877
 20
-115.9705267722227
 30
0.0
 10
88.60716686152877
 20
-116.1569064379747
 30
0.0
 10
88.51208222613587
 20
-116.2392442200721
 30
0.0
 10
88.41251896661215
 20
-116.3005669197096
 30
0.0
 10
88.4738416662496
 20
-116.3281276835916
 30
0.0
 10
88.65574270787079
 20
-116.4083984083979
 30
0.0
 10
88.65574270787079
 20
-116.6857285949605
 30
0.0
 10
88.65574270787079
 20
-117.024036971612
 30
0.0
 10
88.40838485202985
 20
-117.1911241026467
 30
0.0
 10
88.13139917501576
 20
-117.1911241026467
 30
0.0
  0
HATCH
  5
9A
330
95
100
AcDbEntity
  8
_U+30EC_U+30A4_U+30E4_U+30FC 1
 62
   179
420
  2234388
100
AcDbHatch
 10
0.0
 20
0.0
 30
0.0
210
0.0
220
0.0
230
1.0
  2
SOLID
 70
     1
 71
     0
 91
        1
 92
        1
 93
        1
 72
     4
 94
        3
 73
     0
 74
     1
 95
       62
 96
       58
 40
0.0
 40
0.0
 40
0.0
 40
0.0
 40
1.0
 40
1.0
 40
1.0
 40
2.0
 40
2.0
 40
2.0
 40
3.0
 40
3.0
 40
3.0
 40
4.0
 40
4.0
 40
4.0
 40
5.0
 40
5.0
 40
5.0
 40
6.0
 40
6.0
 40
6.0
 40
7.0
 40
7.0
 40
7.0
 40
8.0
 40
8.0
 40
8.0
 40
9.0
 40
9.0
 40
9.0
 40
10.0
 40
10.0
 40
10.0
 40
11.0
 40
11.0
 40
11.0
 40
12.0
 40
12.0
 40
12.0
 40
13.0
 40
13.0
 40
13.0
 40
14.0
 40
14.0
 40
14.0
 40
15.0
 40
15.0
 40
15.0
 40
16.0
 40
16.0
 40
16.0
 40
17.0
 40
17.0
 40
17.0
 40
18.0
 40
18.0
 40
18.0
 40
19.0
 40
19.0
 40
19.0
 40
19.0
 10
88.13139917501576
 20
-117.1911241026467
 10
88.03597003007434
 20
-117.1911241026467
 10
87.81823999540656
 20
-117.1701090201866
 10
87.69318302929199
 20
-116.9840738639832
 10
87.61911347635912
 20
-116.871763751164
 10
87.61497936177682
 20
-116.7725450011888
 10
87.61084524719452
 20
-116.6877956522517
 10
87.61084524719452
 20
-116.6877956522517
 10
87.83098684870198
 20
-116.6877956522517
 10
87.83098684870198
 20
-116.6877956522517
 10
87.83305390599313
 20
-116.7618652051845
 10
87.84338919244888
 20
-116.9964762077301
 10
88.12692055088495
 20
-116.9964762077301
 10
88.2643798607464
 20
-116.9964762077301
 10
88.41699759074298
 20
-116.926885278928
 10
88.41699759074298
 20
-116.6984754482559
 10
88.41699759074298
 20
-116.5820312208545
 10
88.3787570308567
 20
-116.5334553745125
 10
88.34706215239241
 20
-116.5017604960482
 10
88.27299259945953
 20
-116.4276909431153
 10
88.15654837205808
 20
-116.4149440898199
 10
88.10177135384262
 20
-116.4149440898199
 10
88.08247881912521
 20
-116.4149440898199
 10
88.04664982607862
 20
-116.417011147111
 10
88.01908906219663
 20
-116.4211452616933
 10
88.01908906219663
 20
-116.4211452616933
 10
88.01908906219663
 20
-116.2264973667767
 10
88.01908906219663
 20
-116.2264973667767
 10
88.05732962208289
 20
-116.2330430481987
 10
88.09935978700294
 20
-116.2351101054898
 10
88.10590546842492
 20
-116.2351101054898
 10
88.17136228264467
 20
-116.2351101054898
 10
88.37014429214358
 20
-116.2137505134813
 10
88.37014429214358
 20
-115.9770724536446
 10
88.37014429214358
 20
-115.7993055266057
 10
88.23923066370409
 20
-115.7441839988417
 10
88.12898760817609
 20
-115.7441839988417
 10
87.86474878445743
 20
-115.7441839988417
 10
87.85613604574431
 20
-115.9770724536446
 10
87.85200193116201
 20
-116.0487304397378
 10
87.85200193116201
 20
-116.0487304397378
 10
87.64874129753227
 20
-116.0487304397378
 10
87.64874129753227
 20
-116.0487304397378
 10
87.6573540362454
 20
-115.9240179831718
 10
87.68491480012739
 20
-115.547469046634
 10
88.14173446147151
 20
-115.547469046634
 10
88.36601017756128
 20
-115.547469046634
 10
88.60716686152877
 20
-115.6745930700397
 10
88.60716686152877
 20
-115.9705267722227
 10
88.60716686152877
 20
-116.1569064379747
 10
88.51208222613587
 20
-116.2392442200721
 10
88.41251896661215
 20
-116.3005669197096
 10
88.4738416662496
 20
-116.3281276835916
 10
88.65574270787079
 20
-116.4083984083979
 10
88.65574270787079
 20
-116.6857285949605
 10
88.65574270787079
 20
-117.024036971612
 10
88.40838485202985
 20
-117.1911241026467
 10
88.13139917501576
 20
-117.1911241026467
 97
        0
 97
        0
 75
     2
 76
     1
 98
        0
  0
ENDBLK
  5
98
330
95
100
AcDbEntity
  8
0
100
AcDbBlockEnd
  0
BLOCK
  5
A9
330
A7
100
AcDbEntity
  8
0
100
AcDbBlockBegin
  2
block 8
 70
     0
 10
0.0
 20
0.0
 30
0.0
  3
block 8
  1

  0
SPLINE
  5
AB
330
A7
100
AcDbEntity
  8
_U+30EC_U+30A4_U+30E4_U+30FC 1
370
     0
100
AcDbSpline
210
0.0
220
0.0
230
1.0
 70
    11
 71
     3
 72
    62
 73
    58
 74
     0
 42
0.0000000001
 43
0.0000000001
 12
1.0
 22
0.0
 32
0.0
 13
1.0
 23
0.0
 33
0.0
 40
0.0
 40
0.0
 40
0.0
 40
0.0
 40
1.0
 40
1.0
 40
1.0
 40
2.0
 40
2.0
 40
2.0
 40
3.0
 40
3.0
 40
3.0
 40
4.0
 40
4.0
 40
4.0
 40
5.0
 40
5.0
 40
5.0
 40
6.0
 40
6.0
 40
6.0
 40
7.0
 40
7.0
 40
7.0
 40
8.0
 40
8.0
 40
8.0
 40
9.0
 40
9.0
 40
9.0
 40
10.0
 40
10.0
 40
10.0
 40
11.0
 40
11.0
 40
11.0
 40
12.0
 40
12.0
 40
12.0
 40
13.0
 40
13.0
 40
13.0
 40
14.0
 40
14.0
 40
14.0
 40
15.0
 40
15.0
 40
15.0
 40
16.0
 40
16.0
 40
16.0
 40
17.0
 40
17.0
 40
17.0
 40
18.0
 40
18.0
 40
18.0
 40
19.0
 40
19.0
 40
19.0
 40
19.0
 10
87.55951332446429
 20
-140.3552571263695
 30
0.0
 10
87.46408417952287
 20
-140.3552571263695
 30
0.0
 10
87.24635414485508
 20
-140.3342420439095
 30
0.0
 10
87.12129717874052
 20
-140.148206887706
 30
0.0
 10
87.04757213535616
 20
-140.0358967748869
 30
0.0
 10
87.04309351122534
 20
-139.9366780249117
 30
0.0
 10
87.03895939664304
 20
-139.8519286759745
 30
0.0
 10
87.03895939664304
 20
-139.8519286759745
 30
0.0
 10
87.2591009981505
 20
-139.8519286759745
 30
0.0
 10
87.2591009981505
 20
-139.8519286759745
 30
0.0
 10
87.26116805544166
 20
-139.9259982289074
 30
0.0
 10
87.2715033418974
 20
-140.1606092314529
 30
0.0
 10
87.55503470033347
 20
-140.1606092314529
 30
0.0
 10
87.69249401019493
 20
-140.1606092314529
 30
0.0
 10
87.8451117401915
 20
-140.0910183026509
 30
0.0
 10
87.8451117401915
 20
-139.8626084719788
 30
0.0
 10
87.8451117401915
 20
-139.7461642445774
 30
0.0
 10
87.80687118030524
 20
-139.6975883982353
 30
0.0
 10
87.77517630184093
 20
-139.665893519771
 30
0.0
 10
87.70110674890806
 20
-139.5918239668381
 30
0.0
 10
87.58466252150662
 20
-139.5790771135427
 30
0.0
 10
87.52988550329114
 20
-139.5790771135427
 30
0.0
 10
87.51059296857375
 20
-139.5790771135427
 30
0.0
 10
87.47476397552714
 20
-139.5811441708339
 30
0.0
 10
87.44720321164515
 20
-139.5852782854162
 30
0.0
 10
87.44720321164515
 20
-139.5852782854162
 30
0.0
 10
87.44720321164515
 20
-139.3906303904996
 30
0.0
 10
87.44720321164515
 20
-139.3906303904996
 30
0.0
 10
87.48544377153142
 20
-139.3971760719215
 30
0.0
 10
87.52747393645147
 20
-139.3992431292127
 30
0.0
 10
87.53401961787344
 20
-139.3992431292127
 30
0.0
 10
87.59947643209318
 20
-139.3992431292127
 30
0.0
 10
87.79825844159211
 20
-139.3778835372042
 30
0.0
 10
87.79825844159211
 20
-139.1412054773675
 30
0.0
 10
87.79825844159211
 20
-138.9634385503286
 30
0.0
 10
87.66734481315261
 20
-138.9083170225646
 30
0.0
 10
87.55710175762462
 20
-138.9083170225646
 30
0.0
 10
87.29286293390595
 20
-138.9083170225646
 30
0.0
 10
87.28425019519283
 20
-139.1412054773675
 30
0.0
 10
87.28011608061053
 20
-139.2128634634607
 30
0.0
 10
87.28011608061053
 20
-139.2128634634607
 30
0.0
 10
87.07685544698079
 20
-139.2128634634607
 30
0.0
 10
87.07685544698079
 20
-139.2128634634607
 30
0.0
 10
87.08546818569391
 20
-139.0881510068946
 30
0.0
 10
87.11302894957592
 20
-138.7116020703568
 30
0.0
 10
87.56984861092005
 20
-138.7116020703568
 30
0.0
 10
87.79412432700981
 20
-138.7116020703568
 30
0.0
 10
88.0352810109773
 20
-138.8387260937625
 30
0.0
 10
88.0352810109773
 20
-139.1346597959455
 30
0.0
 10
88.0352810109773
 20
-139.3210394616975
 30
0.0
 10
87.94019637558439
 20
-139.403377243795
 30
0.0
 10
87.84063311606067
 20
-139.4646999434324
 30
0.0
 10
87.90195581569813
 20
-139.4922607073144
 30
0.0
 10
88.08385685731932
 20
-139.5725314321208
 30
0.0
 10
88.08385685731932
 20
-139.8498616186834
 30
0.0
 10
88.08385685731932
 20
-140.1881699953349
 30
0.0
 10
87.83649900147837
 20
-140.3552571263695
 30
0.0
 10
87.55951332446429
 20
-140.3552571263695
 30
0.0
  0
HATCH
  5
AC
330
A7
100
AcDbEntity
  8
_U+30EC_U+30A4_U+30E4_U+30FC 1
 62
   179
420
  2234388
100
AcDbHatch
 10
0.0
 20
0.0
 30
0.0
210
0.0
220
0.0
230
1.0
  2
SOLID
 70
     1
 71
     0
 91
        1
 92
        1
 93
        1
 72
     4
 94
        3
 73
     0
 74
     1
 95
       62
 96
       58
 40
0.0
 40
0.0
 40
0.0
 40
0.0
 40
1.0
 40
1.0
 40
1.0
 40
2.0
 40
2.0
 40
2.0
 40
3.0
 40
3.0
 40
3.0
 40
4.0
 40
4.0
 40
4.0
 40
5.0
 40
5.0
 40
5.0
 40
6.0
 40
6.0
 40
6.0
 40
7.0
 40
7.0
 40
7.0
 40
8.0
 40
8.0
 40
8.0
 40
9.0
 40
9.0
 40
9.0
 40
10.0
 40
10.0
 40
10.0
 40
11.0
 40
11.0
 40
11.0
 40
12.0
 40
12.0
 40
12.0
 40
13.0
 40
13.0
 40
13.0
 40
14.0
 40
14.0
 40
14.0
 40
15.0
 40
15.0
 40
15.0
 40
16.0
 40
16.0
 40
16.0
 40
17.0
 40
17.0
 40
17.0
 40
18.0
 40
18.0
 40
18.0
 40
19.0
 40
19.0
 40
19.0
 40
19.0
 10
87.55951332446429
 20
-140.3552571263695
 10
87.46408417952287
 20
-140.3552571263695
 10
87.24635414485508
 20
-140.3342420439095
 10
87.12129717874052
 20
-140.148206887706
 10
87.04757213535616
 20
-140.0358967748869
 10
87.04309351122534
 20
-139.9366780249117
 10
87.03895939664304
 20
-139.8519286759745
 10
87.03895939664304
 20
-139.8519286759745
 10
87.2591009981505
 20
-139.8519286759745
 10
87.2591009981505
 20
-139.8519286759745
 10
87.26116805544166
 20
-139.9259982289074
 10
87.2715033418974
 20
-140.1606092314529
 10
87.55503470033347
 20
-140.1606092314529
 10
87.69249401019493
 20
-140.1606092314529
 10
87.8451117401915
 20
-140.0910183026509
 10
87.8451117401915
 20
-139.8626084719788
 10
87.8451117401915
 20
-139.7461642445774
 10
87.80687118030524
 20
-139.6975883982353
 10
87.77517630184093
 20
-139.665893519771
 10
87.70110674890806
 20
-139.5918239668381
 10
87.58466252150662
 20
-139.5790771135427
 10
87.52988550329114
 20
-139.5790771135427
 10
87.51059296857375
 20
-139.5790771135427
 10
87.47476397552714
 20
-139.5811441708339
 10
87.44720321164515
 20
-139.5852782854162
 10
87.44720321164515
 20
-139.5852782854162
 10
87.44720321164515
 20
-139.3906303904996
 10
87.44720321164515
 20
-139.3906303904996
 10
87.48544377153142
 20
-139.3971760719215
 10
87.52747393645147
 20
-139.3992431292127
 10
87.53401961787344
 20
-139.3992431292127
 10
87.59947643209318
 20
-139.3992431292127
 10
87.79825844159211
 20
-139.3778835372042
 10
87.79825844159211
 20
-139.1412054773675
 10
87.79825844159211
 20
-138.9634385503286
 10
87.66734481315261
 20
-138.9083170225646
 10
87.55710175762462
 20
-138.9083170225646
 10
87.29286293390595
 20
-138.9083170225646
 10
87.28425019519283
 20
-139.1412054773675
 10
87.28011608061053
 20
-139.2128634634607
 10
87.28011608061053
 20
-139.2128634634607
 10
87.07685544698079
 20
-139.2128634634607
 10
87.07685544698079
 20
-139.2128634634607
 10
87.08546818569391
 20
-139.0881510068946
 10
87.11302894957592
 20
-138.7116020703568
 10
87.56984861092005
 20
-138.7116020703568
 10
87.79412432700981
 20
-138.7116020703568
 10
88.0352810109773
 20
-138.8387260937625
 10
88.0352810109773
 20
-139.1346597959455
 10
88.0352810109773
 20
-139.3210394616975
 10
87.94019637558439
 20
-139.403377243795
 10
87.84063311606067
 20
-139.4646999434324
 10
87.90195581569813
 20
-139.4922607073144
 10
88.08385685731932
 20
-139.5725314321208
 10
88.08385685731932
 20
-139.8498616186834
 10
88.08385685731932
 20
-140.1881699953349
 10
87.83649900147837
 20
-140.3552571263695
 10
87.55951332446429
 20
-140.3552571263695
 97
        0
 97
        0
 75
     2
 76
     1
 98
        0
  0
SPLINE
  5
AD
330
A7
100
AcDbEntity
  8
_U+30EC_U+30A4_U+30E4_U+30FC 1
370
     0
100
AcDbSpline
210
0.0
220
0.0
230
1.0
 70
    11
 71
     3
 72
    53
 73
    49
 74
     0
 42
0.0000000001
 43
0.0000000001
 12
1.0
 22
0.0
 32
0.0
 13
1.0
 23
0.0
 33
0.0
 40
0.0
 40
0.0
 40
0.0
 40
0.0
 40
1.0
 40
1.0
 40
1.0
 40
2.0
 40
2.0
 40
2.0
 40
3.0
 40
3.0
 40
3.0
 40
4.0
 40
4.0
 40
4.0
 40
5.0
 40
5.0
 40
5.0
 40
6.0
 40
6.0
 40
6.0
 40
7.0
 40
7.0
 40
7.0
 40
8.0
 40
8.0
 40
8.0
 40
9.0
 40
9.0
 40
9.0
 40
10.0
 40
10.0
 40
10.0
 40
11.0
 40
11.0
 40
11.0
 40
12.0
 40
12.0
 40
12.0
 40
13.0
 40
13.0
 40
13.0
 40
14.0
 40
14.0
 40
14.0
 40
15.0
 40
15.0
 40
15.0
 40
16.0
 40
16.0
 40
16.0
 40
16.0
 10
88.72567814622136
 20
-140.3552571263695
 30
0.0
 10
88.64747447870619
 20
-140.3552571263695
 30
0.0
 10
88.54584416189132
 20
-140.3383761584918
 30
0.0
 10
88.44421384507645
 20
-140.2749864015632
 30
0.0
 10
88.27092554216838
 20
-140.1650878555837
 30
0.0
 10
88.24956595015983
 20
-140.0338297175957
 30
0.0
 10
88.23061792499097
 20
-139.9259982289074
 30
0.0
 10
88.23061792499097
 20
-139.9259982289074
 30
0.0
 10
88.45282658378957
 20
-139.9259982289074
 30
0.0
 10
88.45282658378957
 20
-139.9259982289074
 30
0.0
 10
88.50760360200505
 20
-140.1247802384063
 30
0.0
 10
88.63472762541076
 20
-140.1544080595795
 30
0.0
 10
88.72774520351251
 20
-140.1544080595795
 30
0.0
 10
88.86727157066512
 20
-140.1544080595795
 30
0.0
 10
89.01954479111318
 20
-140.0548448000557
 30
0.0
 10
89.01954479111318
 20
-139.8223008548014
 30
0.0
 10
89.01954479111318
 20
-139.5663302602473
 30
0.0
 10
88.83971080678313
 20
-139.4963948218967
 30
0.0
 10
88.71913246479939
 20
-139.4963948218967
 30
0.0
 10
88.6874375863351
 20
-139.4963948218967
 30
0.0
 10
88.54584416189132
 20
-139.4963948218967
 30
0.0
 10
88.45696069837187
 20
-139.6255859025936
 30
0.0
 10
88.45696069837187
 20
-139.6255859025936
 30
0.0
 10
88.28126082862413
 20
-139.6066378774247
 30
0.0
 10
88.28126082862413
 20
-139.6066378774247
 30
0.0
 10
88.28126082862413
 20
-139.6066378774247
 30
0.0
 10
88.40183917060787
 20
-138.7601779166989
 30
0.0
 10
88.40183917060787
 20
-138.7601779166989
 30
0.0
 10
88.40183917060787
 20
-138.7601779166989
 30
0.0
 10
89.18043075027434
 20
-138.7601779166989
 30
0.0
 10
89.18043075027434
 20
-138.7601779166989
 30
0.0
 10
89.18043075027434
 20
-138.7601779166989
 30
0.0
 10
89.18043075027434
 20
-138.9548258116155
 30
0.0
 10
89.18043075027434
 20
-138.9548258116155
 30
0.0
 10
89.18043075027434
 20
-138.9548258116155
 30
0.0
 10
88.56479218706019
 20
-138.9548258116155
 30
0.0
 10
88.56479218706019
 20
-138.9548258116155
 30
0.0
 10
88.56479218706019
 20
-138.9548258116155
 30
0.0
 10
88.49933537284045
 20
-139.3778835372042
 30
0.0
 10
88.49933537284045
 20
-139.3778835372042
 30
0.0
 10
88.56065807247789
 20
-139.3441216014487
 30
0.0
 10
88.64299585457536
 20
-139.3038139842713
 30
0.0
 10
88.76150713926796
 20
-139.3038139842713
 30
0.0
 10
89.01541067653088
 20
-139.3038139842713
 30
0.0
 10
89.25243324591607
 20
-139.4901936500233
 30
0.0
 10
89.25243324591607
 20
-139.8033528296325
 30
0.0
 10
89.25243324591607
 20
-140.120646123824
 30
0.0
 10
89.0281575298263
 20
-140.3552571263695
 30
0.0
 10
88.72567814622136
 20
-140.3552571263695
 30
0.0
  0
HATCH
  5
AE
330
A7
100
AcDbEntity
  8
_U+30EC_U+30A4_U+30E4_U+30FC 1
 62
   179
420
  2234388
100
AcDbHatch
 10
0.0
 20
0.0
 30
0.0
210
0.0
220
0.0
230
1.0
  2
SOLID
 70
     1
 71
     0
 91
        1
 92
        1
 93
        1
 72
     4
 94
        3
 73
     0
 74
     1
 95
       53
 96
       49
 40
0.0
 40
0.0
 40
0.0
 40
0.0
 40
1.0
 40
1.0
 40
1.0
 40
2.0
 40
2.0
 40
2.0
 40
3.0
 40
3.0
 40
3.0
 40
4.0
 40
4.0
 40
4.0
 40
5.0
 40
5.0
 40
5.0
 40
6.0
 40
6.0
 40
6.0
 40
7.0
 40
7.0
 40
7.0
 40
8.0
 40
8.0
 40
8.0
 40
9.0
 40
9.0
 40
9.0
 40
10.0
 40
10.0
 40
10.0
 40
11.0
 40
11.0
 40
11.0
 40
12.0
 40
12.0
 40
12.0
 40
13.0
 40
13.0
 40
13.0
 40
14.0
 40
14.0
 40
14.0
 40
15.0
 40
15.0
 40
15.0
 40
16.0
 40
16.0
 40
16.0
 40
16.0
 10
88.72567814622136
 20
-140.3552571263695
 10
88.64747447870619
 20
-140.3552571263695
 10
88.54584416189132
 20
-140.3383761584918
 10
88.44421384507645
 20
-140.2749864015632
 10
88.27092554216838
 20
-140.1650878555837
 10
88.24956595015983
 20
-140.0338297175957
 10
88.23061792499097
 20
-139.9259982289074
 10
88.23061792499097
 20
-139.9259982289074
 10
88.45282658378957
 20
-139.9259982289074
 10
88.45282658378957
 20
-139.9259982289074
 10
88.50760360200505
 20
-140.1247802384063
 10
88.63472762541076
 20
-140.1544080595795
 10
88.72774520351251
 20
-140.1544080595795
 10
88.86727157066512
 20
-140.1544080595795
 10
89.01954479111318
 20
-140.0548448000557
 10
89.01954479111318
 20
-139.8223008548014
 10
89.01954479111318
 20
-139.5663302602473
 10
88.83971080678313
 20
-139.4963948218967
 10
88.71913246479939
 20
-139.4963948218967
 10
88.6874375863351
 20
-139.4963948218967
 10
88.54584416189132
 20
-139.4963948218967
 10
88.45696069837187
 20
-139.6255859025936
 10
88.45696069837187
 20
-139.6255859025936
 10
88.28126082862413
 20
-139.6066378774247
 10
88.28126082862413
 20
-139.6066378774247
 10
88.28126082862413
 20
-139.6066378774247
 10
88.40183917060787
 20
-138.7601779166989
 10
88.40183917060787
 20
-138.7601779166989
 10
88.40183917060787
 20
-138.7601779166989
 10
89.18043075027434
 20
-138.7601779166989
 10
89.18043075027434
 20
-138.7601779166989
 10
89.18043075027434
 20
-138.7601779166989
 10
89.18043075027434
 20
-138.9548258116155
 10
89.18043075027434
 20
-138.9548258116155
 10
89.18043075027434
 20
-138.9548258116155
 10
88.56479218706019
 20
-138.9548258116155
 10
88.56479218706019
 20
-138.9548258116155
 10
88.56479218706019
 20
-138.9548258116155
 10
88.49933537284045
 20
-139.3778835372042
 10
88.49933537284045
 20
-139.3778835372042
 10
88.56065807247789
 20
-139.3441216014487
 10
88.64299585457536
 20
-139.3038139842713
 10
88.76150713926796
 20
-139.3038139842713
 10
89.01541067653088
 20
-139.3038139842713
 10
89.25243324591607
 20
-139.4901936500233
 10
89.25243324591607
 20
-139.8033528296325
 10
89.25243324591607
 20
-140.120646123824
 10
89.0281575298263
 20
-140.3552571263695
 10
88.72567814622136
 20
-140.3552571263695
 97
        0
 97
        0
 75
     2
 76
     1
 98
        0
  0
ENDBLK
  5
AA
330
A7
100
AcDbEntity
  8
0
100
AcDbBlockEnd
  0
ENDSEC
  0
SECTION
  2
ENTITIES
  0
INSERT
  5
42
330
1F
100
AcDbEntity
  8
_U+30EC_U+30A4_U+30E4_U+30FC 1
100
AcDbBlockReference
  2
block 2
 10
0.0
 20
0.0
 30
0.0
  0
ENDSEC
  0
SECTION
  2
OBJECTS
  0
DICTIONARY
  5
C
330
0
100
AcDbDictionary
281
     1
  3
ACAD_GROUP
350
D
  3
ACAD_LAYOUT
350
1A
  3
ACAD_MATERIAL
350
3B
  3
ACAD_MLEADERSTYLE
350
C3
  3
ACAD_MLINESTYLE
350
17
  3
ACAD_PLOTSETTINGS
350
19
  3
ACAD_PLOTSTYLENAME
350
E
  3
ACAD_TABLESTYLE
350
C2
  3
ACAD_VISUALSTYLE
350
2A
  0
SUN
  5
3F
330
29
100
AcDbSun
 90
        1
290
     0
 63
     7
421
 16777215
 40
1.0
291
     1
 91
  2455826
 92
 54000000
292
     0
 70
     2
 71
   256
280
     1
  0
DICTIONARY
  5
D
102
{ACAD_REACTORS
330
C
102
}
330
C
100
AcDbDictionary
281
     1
  0
DICTIONARY
  5
1A
102
{ACAD_REACTORS
330
C
102
}
330
C
100
AcDbDictionary
281
     1
  3
Layout1
350
1E
  3
Layout2
350
26
  3
Model
350
22
  0
DICTIONARY
  5
3B
102
{ACAD_REACTORS
330
C
102
}
330
C
100
AcDbDictionary
281
     1
  3
ByBlock
350
3D
  3
ByLayer
350
3C
  3
Global
350
3E
  0
DICTIONARY
  5
C3
102
{ACAD_REACTORS
330
C
102
}
330
C
100
AcDbDictionary
281
     1
  0
DICTIONARY
  5
17
102
{ACAD_REACTORS
330
C
102
}
330
C
100
AcDbDictionary
281
     1
  3
Standard
350
18
  0
DICTIONARY
  5
19
102
{ACAD_REACTORS
330
C
102
}
330
C
100
AcDbDictionary
281
     1
  0
ACDBDICTIONARYWDFLT
  5
E
102
{ACAD_REACTORS
330
C
102
}
330
C
100
AcDbDictionary
281
     1
  3
Normal
350
F
100
AcDbDictionaryWithDefault
340
F
  0
DICTIONARY
  5
C2
102
{ACAD_REACTORS
330
C
102
}
330
C
100
AcDbDictionary
281
     1
  0
DICTIONARY
  5
2A
102
{ACAD_REACTORS
330
C
102
}
330
C
100
AcDbDictionary
281
     1
  3
2dWireframe
350
2F
  3
3D Hidden
350
31
  3
3dWireframe
350
30
  3
Basic
350
32
  3
Brighten
350
36
  3
ColorChange
350
3A
  3
Conceptual
350
34
  3
Dim
350
35
  3
Facepattern
350
39
  3
Flat
350
2B
  3
FlatWithEdges
350
2C
  3
Gouraud
350
2D
  3
GouraudWithEdges
350
2E
  3
Linepattern
350
38
  3
Realistic
350
33
  3
Thicken
350
37
  0
LAYOUT
  5
1E
102
{ACAD_REACTORS
330
1A
102
}
330
1A
100
AcDbPlotSettings
  1

  2
none_device
  4

  6

 40
0.0
 41
0.0
 42
0.0
 43
0.0
 44
0.0
 45
0.0
 46
0.0
 47
0.0
 48
0.0
 49
0.0
140
0.0
141
0.0
142
1.0
143
1.0
 70
   688
 72
     0
 73
     0
 74
     5
  7

 75
    16
 76
     0
 77
     2
 78
   300
147
1.0
148
0.0
149
0.0
100
AcDbLayout
  1
Layout1
 70
     1
 71
     1
 10
0.0
 20
0.0
 11
12.0
 21
9.0
 12
0.0
 22
0.0
 32
0.0
 14
1.000000000000000E+20
 24
1.000000000000000E+20
 34
1.000000000000000E+20
 15
-1.000000000000000E+20
 25
-1.000000000000000E+20
 35
-1.000000000000000E+20
146
0.0
 13
0.0
 23
0.0
 33
0.0
 16
1.0
 26
0.0
 36
0.0
 17
0.0
 27
1.0
 37
0.0
 76
     0
330
1B
  0
LAYOUT
  5
26
102
{ACAD_REACTORS
330
1A
102
}
330
1A
100
AcDbPlotSettings
  1

  2
none_device
  4

  6

 40
0.0
 41
0.0
 42
0.0
 43
0.0
 44
0.0
 45
0.0
 46
0.0
 47
0.0
 48
0.0
 49
0.0
140
0.0
141
0.0
142
1.0
143
1.0
 70
   688
 72
     0
 73
     0
 74
     5
  7

 75
    16
 76
     0
 77
     2
 78
   300
147
1.0
148
0.0
149
0.0
100
AcDbLayout
  1
Layout2
 70
     1
 71
     2
 10
0.0
 20
0.0
 11
0.0
 21
0.0
 12
0.0
 22
0.0
 32
0.0
 14
0.0
 24
0.0
 34
0.0
 15
0.0
 25
0.0
 35
0.0
146
0.0
 13
0.0
 23
0.0
 33
0.0
 16
1.0
 26
0.0
 36
0.0
 17
0.0
 27
1.0
 37
0.0
 76
     0
330
23
  0
LAYOUT
  5
22
102
{ACAD_REACTORS
330
1A
102
}
330
1A
100
AcDbPlotSettings
  1

  2
none_device
  4

  6

 40
0.0
 41
0.0
 42
0.0
 43
0.0
 44
0.0
 45
0.0
 46
0.0
 47
0.0
 48
0.0
 49
0.0
140
0.0
141
0.0
142
1.0
143
1.0
 70
  1712
 72
     0
 73
     0
 74
     0
  7

 75
     0
 76
     0
 77
     2
 78
   300
147
1.0
148
0.0
149
0.0
100
AcDbLayout
  1
Model
 70
     1
 71
     0
 10
0.0
 20
0.0
 11
12.0
 21
9.0
 12
0.0
 22
0.0
 32
0.0
 14
1.000000000000000E+20
 24
1.000000000000000E+20
 34
1.000000000000000E+20
 15
-1.000000000000000E+20
 25
-1.000000000000000E+20
 35
-1.000000000000000E+20
146
0.0
 13
0.0
 23
0.0
 33
0.0
 16
1.0
 26
0.0
 36
0.0
 17
0.0
 27
1.0
 37
0.0
 76
     0
330
1F
331
29
  0
MATERIAL
  5
3D
102
{ACAD_REACTORS
330
3B
102
}
330
3B
100
AcDbMaterial
  1
ByBlock
 72
     1
 94
      127
  0
MATERIAL
  5
3C
102
{ACAD_REACTORS
330
3B
102
}
330
3B
100
AcDbMaterial
  1
ByLayer
 72
     1
 94
      127
  0
MATERIAL
  5
3E
102
{ACAD_REACTORS
330
3B
102
}
330
3B
100
AcDbMaterial
  1
Global
 72
     1
 94
      127
  0
MLINESTYLE
  5
18
102
{ACAD_REACTORS
330
17
102
}
330
17
100
AcDbMlineStyle
  2
Standard
 70
     0
  3

 62
   256
 51
90.0
 52
90.0
 71
     2
 49
0.5
 62
   256
  6
BYLAYER
 49
-0.5
 62
   256
  6
BYLAYER
  0
ACDBPLACEHOLDER
  5
F
102
{ACAD_REACTORS
330
E
102
}
330
E
  0
VISUALSTYLE
  5
2F
102
{ACAD_REACTORS
330
2A
102
}
330
2A
100
AcDbVisualStyle
  2
2dWireframe
 70
     4
177
     2
291
     0
 71
     0
176
     1
 72
     2
176
     1
 73
     0
176
     1
 90
        0
176
     1
 40
-0.6
176
     1
 41
-30.0
176
     1
 62
     5
 63
     7
421
 16777215
176
     1
 74
     1
176
     1
 91
        4
176
     1
 64
     7
176
     1
 65
   257
176
     1
 75
     1
176
     1
175
     1
176
     1
 42
1.0
176
     1
 92
        0
176
     1
 66
   257
176
     1
 43
1.0
176
     1
 76
     1
176
     1
 77
     6
176
     1
 78
     2
176
     1
 67
     7
176
     1
 79
     5
176
     1
170
     0
176
     1
171
     0
176
     1
290
     0
176
     1
 93
        1
176
     1
 44
0.0
176
     1
173
     0
176
     1
  0
VISUALSTYLE
  5
31
102
{ACAD_REACTORS
330
2A
102
}
330
2A
100
AcDbVisualStyle
  2
3D Hidden
 70
     6
177
     2
291
     0
 71
     1
176
     1
 72
     2
176
     1
 73
     2
176
     1
 90
        0
176
     1
 40
-0.6
176
     1
 41
-30.0
176
     1
 62
     5
 63
     7
421
 16777215
176
     1
 74
     2
176
     1
 91
        2
176
     1
 64
     7
176
     1
 65
   257
176
     1
 75
     2
176
     1
175
     1
176
     1
 42
40.0
176
     1
 92
        0
176
     1
 66
   257
176
     1
 43
1.0
176
     1
 76
     1
176
     1
 77
     6
176
     1
 78
     2
176
     1
 67
     7
176
     1
 79
     3
176
     1
170
     0
176
     1
171
     0
176
     1
290
     0
176
     1
 93
        1
176
     1
 44
0.0
176
     1
173
     0
176
     1
  0
VISUALSTYLE
  5
30
102
{ACAD_REACTORS
330
2A
102
}
330
2A
100
AcDbVisualStyle
  2
3dWireframe
 70
     5
177
     2
291
     0
 71
     0
176
     1
 72
     2
176
     1
 73
     0
176
     1
 90
        0
176
     1
 40
-0.6
176
     1
 41
-30.0
176
     1
 62
     5
 63
     7
421
 16777215
176
     1
 74
     1
176
     1
 91
        4
176
     1
 64
     7
176
     1
 65
   257
176
     1
 75
     1
176
     1
175
     1
176
     1
 42
1.0
176
     1
 92
        0
176
     1
 66
   257
176
     1
 43
1.0
176
     1
 76
     1
176
     1
 77
     6
176
     1
 78
     2
176
     1
 67
     7
176
     1
 79
     5
176
     1
170
     0
176
     1
171
     0
176
     1
290
     0
176
     1
 93
        1
176
     1
 44
0.0
176
     1
173
     0
176
     1
  0
VISUALSTYLE
  5
32
102
{ACAD_REACTORS
330
2A
102
}
330
2A
100
AcDbVisualStyle
  2
Basic
 70
     7
177
     2
291
     1
 71
     1
176
     1
 72
     0
176
     1
 73
     1
176
     1
 90
        0
176
     1
 40
-0.6
176
     1
 41
-30.0
176
     1
 62
     5
 63
     7
421
 16777215
176
     1
 74
     0
176
     1
 91
        4
176
     1
 64
     7
176
     1
 65
   257
176
     1
 75
     1
176
     1
175
     1
176
     1
 42
1.0
176
     1
 92
        8
176
     1
 66
     7
176
     1
 43
1.0
176
     1
 76
     1
176
     1
 77
     6
176
     1
 78
     2
176
     1
 67
     7
176
     1
 79
     5
176
     1
170
     0
176
     1
171
     0
176
     1
290
     0
176
     1
 93
        1
176
     1
 44
0.0
176
     1
173
     0
176
     1
  0
VISUALSTYLE
  5
36
102
{ACAD_REACTORS
330
2A
102
}
330
2A
100
AcDbVisualStyle
  2
Brighten
 70
    12
177
     2
291
     1
 71
     2
176
     1
 72
     2
176
     1
 73
     0
176
     1
 90
        0
176
     1
 40
-0.6
176
     1
 41
-30.0
176
     1
 62
     5
 63
     7
421
 16777215
176
     1
 74
     1
176
     1
 91
        4
176
     1
 64
     7
176
     1
 65
   257
176
     1
 75
     1
176
     1
175
     1
176
     1
 42
1.0
176
     1
 92
        8
176
     1
 66
     7
176
     1
 43
1.0
176
     1
 76
     1
176
     1
 77
     6
176
     1
 78
     2
176
     1
 67
     7
176
     1
 79
     5
176
     1
170
     0
176
     1
171
     0
176
     1
290
     0
176
     1
 93
        1
176
     1
 44
50.0
176
     1
173
     0
176
     1
  0
VISUALSTYLE
  5
3A
102
{ACAD_REACTORS
330
2A
102
}
330
2A
100
AcDbVisualStyle
  2
ColorChange
 70
    16
177
     2
291
     1
 71
     2
176
     1
 72
     2
176
     1
 73
     3
176
     1
 90
        0
176
     1
 40
-0.6
176
     1
 41
-30.0
176
     1
 62
     5
 63
     8
421
  8421504
176
     1
 74
     1
176
     1
 91
        4
176
     1
 64
     7
176
     1
 65
   257
176
     1
 75
     1
176
     1
175
     1
176
     1
 42
1.0
176
     1
 92
        8
176
     1
 66
     8
424
  8421504
176
     1
 43
1.0
176
     1
 76
     1
176
     1
 77
     6
176
     1
 78
     2
176
     1
 67
     7
176
     1
 79
     5
176
     1
170
     0
176
     1
171
     0
176
     1
290
     0
176
     1
 93
        1
176
     1
 44
0.0
176
     1
173
     0
176
     1
  0
VISUALSTYLE
  5
34
102
{ACAD_REACTORS
330
2A
102
}
330
2A
100
AcDbVisualStyle
  2
Conceptual
 70
     9
177
     2
291
     0
 71
     3
176
     1
 72
     2
176
     1
 73
     0
176
     1
 90
        0
176
     1
 40
-0.6
176
     1
 41
-30.0
176
     1
 62
     5
 63
     7
421
 16777215
176
     1
 74
     2
176
     1
 91
        2
176
     1
 64
     7
176
     1
 65
   257
176
     1
 75
     1
176
     1
175
     1
176
     1
 42
40.0
176
     1
 92
        8
176
     1
 66
     7
176
     1
 43
1.0
176
     1
 76
     1
176
     1
 77
     6
176
     1
 78
     2
176
     1
 67
     7
176
     1
 79
     3
176
     1
170
     0
176
     1
171
     0
176
     1
290
     0
176
     1
 93
        1
176
     1
 44
0.0
176
     1
173
     0
176
     1
  0
VISUALSTYLE
  5
35
102
{ACAD_REACTORS
330
2A
102
}
330
2A
100
AcDbVisualStyle
  2
Dim
 70
    11
177
     2
291
     1
 71
     2
176
     1
 72
     2
176
     1
 73
     0
176
     1
 90
        0
176
     1
 40
-0.6
176
     1
 41
-30.0
176
     1
 62
     5
 63
     7
421
 16777215
176
     1
 74
     1
176
     1
 91
        4
176
     1
 64
     7
176
     1
 65
   257
176
     1
 75
     1
176
     1
175
     1
176
     1
 42
1.0
176
     1
 92
        8
176
     1
 66
     7
176
     1
 43
1.0
176
     1
 76
     1
176
     1
 77
     6
176
     1
 78
     2
176
     1
 67
     7
176
     1
 79
     5
176
     1
170
     0
176
     1
171
     0
176
     1
290
     0
176
     1
 93
        1
176
     1
 44
-50.0
176
     1
173
     0
176
     1
  0
VISUALSTYLE
  5
39
102
{ACAD_REACTORS
330
2A
102
}
330
2A
100
AcDbVisualStyle
  2
Facepattern
 70
    15
177
     2
291
     1
 71
     2
176
     1
 72
     2
176
     1
 73
     0
176
     1
 90
        0
176
     1
 40
-0.6
176
     1
 41
-30.0
176
     1
 62
     5
 63
     7
421
 16777215
176
     1
 74
     1
176
     1
 91
        4
176
     1
 64
     7
176
     1
 65
   257
176
     1
 75
     1
176
     1
175
     1
176
     1
 42
1.0
176
     1
 92
        8
176
     1
 66
     7
176
     1
 43
1.0
176
     1
 76
     1
176
     1
 77
     6
176
     1
 78
     2
176
     1
 67
     7
176
     1
 79
     5
176
     1
170
     0
176
     1
171
     0
176
     1
290
     0
176
     1
 93
        1
176
     1
 44
0.0
176
     1
173
     0
176
     1
  0
VISUALSTYLE
  5
2B
102
{ACAD_REACTORS
330
2A
102
}
330
2A
100
AcDbVisualStyle
  2
Flat
 70
     0
177
     2
291
     1
 71
     2
176
     1
 72
     1
176
     1
 73
     1
176
     1
 90
        2
176
     1
 40
-0.6
176
     1
 41
30.0
176
     1
 62
     5
 63
     7
421
 16777215
176
     1
 74
     0
176
     1
 91
        4
176
     1
 64
     7
176
     1
 65
   257
176
     1
 75
     1
176
     1
175
     1
176
     1
 42
1.0
176
     1
 92
        8
176
     1
 66
     7
176
     1
 43
1.0
176
     1
 76
     1
176
     1
 77
     6
176
     1
 78
     2
176
     1
 67
     7
176
     1
 79
     5
176
     1
170
     0
176
     1
171
     0
176
     1
290
     0
176
     1
 93
       13
176
     1
 44
0.0
176
     1
173
     0
176
     1
  0
VISUALSTYLE
  5
2C
102
{ACAD_REACTORS
330
2A
102
}
330
2A
100
AcDbVisualStyle
  2
FlatWithEdges
 70
     1
177
     2
291
     1
 71
     2
176
     1
 72
     1
176
     1
 73
     1
176
     1
 90
        2
176
     1
 40
-0.6
176
     1
 41
30.0
176
     1
 62
     5
 63
     7
421
 16777215
176
     1
 74
     1
176
     1
 91
        4
176
     1
 64
     7
176
     1
 65
   257
176
     1
 75
     1
176
     1
175
     1
176
     1
 42
1.0
176
     1
 92
        0
176
     1
 66
   257
176
     1
 43
1.0
176
     1
 76
     1
176
     1
 77
     6
176
     1
 78
     2
176
     1
 67
     7
176
     1
 79
     5
176
     1
170
     0
176
     1
171
     0
176
     1
290
     0
176
     1
 93
       13
176
     1
 44
0.0
176
     1
173
     0
176
     1
  0
VISUALSTYLE
  5
2D
102
{ACAD_REACTORS
330
2A
102
}
330
2A
100
AcDbVisualStyle
  2
Gouraud
 70
     2
177
     2
291
     1
 71
     2
176
     1
 72
     2
176
     1
 73
     1
176
     1
 90
        2
176
     1
 40
-0.6
176
     1
 41
30.0
176
     1
 62
     5
 63
     7
421
 16777215
176
     1
 74
     0
176
     1
 91
        4
176
     1
 64
     7
176
     1
 65
   257
176
     1
 75
     1
176
     1
175
     1
176
     1
 42
1.0
176
     1
 92
        0
176
     1
 66
     7
176
     1
 43
1.0
176
     1
 76
     1
176
     1
 77
     6
176
     1
 78
     2
176
     1
 67
     7
176
     1
 79
     5
176
     1
170
     0
176
     1
171
     0
176
     1
290
     0
176
     1
 93
       13
176
     1
 44
0.0
176
     1
173
     0
176
     1
  0
VISUALSTYLE
  5
2E
102
{ACAD_REACTORS
330
2A
102
}
330
2A
100
AcDbVisualStyle
  2
GouraudWithEdges
 70
     3
177
     2
291
     1
 71
     2
176
     1
 72
     2
176
     1
 73
     1
176
     1
 90
        2
176
     1
 40
-0.6
176
     1
 41
30.0
176
     1
 62
     5
 63
     7
421
 16777215
176
     1
 74
     1
176
     1
 91
        4
176
     1
 64
     7
176
     1
 65
   257
176
     1
 75
     1
176
     1
175
     1
176
     1
 42
1.0
176
     1
 92
        0
176
     1
 66
   257
176
     1
 43
1.0
176
     1
 76
     1
176
     1
 77
     6
176
     1
 78
     2
176
     1
 67
     7
176
     1
 79
     5
176
     1
170
     0
176
     1
171
     0
176
     1
290
     0
176
     1
 93
       13
176
     1
 44
0.0
176
     1
173
     0
176
     1
  0
VISUALSTYLE
  5
38
102
{ACAD_REACTORS
330
2A
102
}
330
2A
100
AcDbVisualStyle
  2
Linepattern
 70
    14
177
     2
291
     1
 71
     2
176
     1
 72
     2
176
     1
 73
     0
176
     1
 90
        0
176
     1
 40
-0.6
176
     1
 41
-30.0
176
     1
 62
     5
 63
     7
421
 16777215
176
     1
 74
     1
176
     1
 91
        4
176
     1
 64
     7
176
     1
 65
   257
176
     1
 75
     7
176
     1
175
     7
176
     1
 42
1.0
176
     1
 92
        8
176
     1
 66
     7
176
     1
 43
1.0
176
     1
 76
     1
176
     1
 77
     6
176
     1
 78
     2
176
     1
 67
     7
176
     1
 79
     5
176
     1
170
     0
176
     1
171
     0
176
     1
290
     0
176
     1
 93
        1
176
     1
 44
0.0
176
     1
173
     0
176
     1
  0
VISUALSTYLE
  5
33
102
{ACAD_REACTORS
330
2A
102
}
330
2A
100
AcDbVisualStyle
  2
Realistic
 70
     8
177
     2
291
     0
 71
     2
176
     1
 72
     2
176
     1
 73
     0
176
     1
 90
        0
176
     1
 40
-0.6
176
     1
 41
-30.0
176
     1
 62
     5
 63
     7
421
 16777215
176
     1
 74
     1
176
     1
 91
        0
176
     1
 64
     7
176
     1
 65
   257
176
     1
 75
     1
176
     1
175
     1
176
     1
 42
1.0
176
     1
 92
        8
176
     1
 66
     8
424
  7895160
176
     1
 43
1.0
176
     1
 76
     1
176
     1
 77
     6
176
     1
 78
     2
176
     1
 67
     7
176
     1
 79
     5
176
     1
170
     0
176
     1
171
     0
176
     1
290
     0
176
     1
 93
       13
176
     1
 44
0.0
176
     1
173
     0
176
     1
  0
VISUALSTYLE
  5
37
102
{ACAD_REACTORS
330
2A
102
}
330
2A
100
AcDbVisualStyle
  2
Thicken
 70
    13
177
     2
291
     1
 71
     2
176
     1
 72
     2
176
     1
 73
     0
176
     1
 90
        0
176
     1
 40
-0.6
176
     1
 41
-30.0
176
     1
 62
     5
 63
     7
421
 16777215
176
     1
 74
     1
176
     1
 91
        4
176
     1
 64
     7
176
     1
 65
   257
176
     1
 75
     1
176
     1
175
     1
176
     1
 42
1.0
176
     1
 92
       12
176
     1
 66
     7
176
     1
 43
1.0
176
     1
 76
     1
176
     1
 77
     6
176
     1
 78
     2
176
     1
 67
     7
176
     1
 79
     5
176
     1
170
     0
176
     1
171
     0
176
     1
290
     0
176
     1
 93
        1
176
     1
 44
0.0
176
     1
173
     0
176
     1
  0
ENDSEC
  0
EOF
