  0
SECTION
  2
HEADER
  9
$ACADVER
  1
AC1024
  9
$ACADMAINTVER
 70
     6
  9
$DWGCODEPAGE
  3
UNDEFINED
  9
$INSBASE
 10
0.0
 20
0.0
 30
0.0
  9
$EXTMIN
 10
1.000000000000000E+20
 20
1.000000000000000E+20
 30
1.000000000000000E+20
  9
$EXTMAX
 10
-1.000000000000000E+20
 20
-1.000000000000000E+20
 30
-1.000000000000000E+20
  9
$LIMMIN
 10
0.0
 20
0.0
  9
$LIMMAX
 10
12.0
 20
9.0
  9
$ORTHOMODE
 70
     0
  9
$REGENMODE
 70
     1
  9
$FILLMODE
 70
     1
  9
$QTEXTMODE
 70
     0
  9
$MIRRTEXT
 70
     1
  9
$LTSCALE
 40
1.0
  9
$ATTMODE
 70
     1
  9
$TEXTSIZE
 40
0.2
  9
$TRACEWID
 40
0.05
  9
$TEXTSTYLE
  7
Standard
  9
$CLAYER
  8
0
  9
$CELTYPE
  6
ByLayer
  9
$CECOLOR
 62
   256
  9
$CELTSCALE
 40
1.0
  9
$DISPSILH
 70
     0
  9
$DIMSCALE
 40
1.0
  9
$DIMASZ
 40
0.18
  9
$DIMEXO
 40
0.0625
  9
$DIMDLI
 40
0.38
  9
$DIMRND
 40
0.0
  9
$DIMDLE
 40
0.0
  9
$DIMEXE
 40
0.18
  9
$DIMTP
 40
0.0
  9
$DIMTM
 40
0.0
  9
$DIMTXT
 40
0.18
  9
$DIMCEN
 40
0.09
  9
$DIMTSZ
 40
0.0
  9
$DIMTOL
 70
     0
  9
$DIMLIM
 70
     0
  9
$DIMTIH
 70
     1
  9
$DIMTOH
 70
     1
  9
$DIMSE1
 70
     0
  9
$DIMSE2
 70
     0
  9
$DIMTAD
 70
     0
  9
$DIMZIN
 70
     0
  9
$DIMBLK
  1

  9
$DIMASO
 70
     1
  9
$DIMSHO
 70
     1
  9
$DIMPOST
  1

  9
$DIMAPOST
  1

  9
$DIMALT
 70
     0
  9
$DIMALTD
 70
     2
  9
$DIMALTF
 40
25.4
  9
$DIMLFAC
 40
1.0
  9
$DIMTOFL
 70
     0
  9
$DIMTVP
 40
0.0
  9
$DIMTIX
 70
     0
  9
$DIMSOXD
 70
     0
  9
$DIMSAH
 70
     0
  9
$DIMBLK1
  1

  9
$DIMBLK2
  1

  9
$DIMSTYLE
  2
Standard
  9
$DIMCLRD
 70
     0
  9
$DIMCLRE
 70
     0
  9
$DIMCLRT
 70
     0
  9
$DIMTFAC
 40
1.0
  9
$DIMGAP
 40
0.09
  9
$DIMJUST
 70
     0
  9
$DIMSD1
 70
     0
  9
$DIMSD2
 70
     0
  9
$DIMTOLJ
 70
     1
  9
$DIMTZIN
 70
     0
  9
$DIMALTZ
 70
     0
  9
$DIMALTTZ
 70
     0
  9
$DIMUPT
 70
     0
  9
$DIMDEC
 70
     4
  9
$DIMTDEC
 70
     4
  9
$DIMALTU
 70
     2
  9
$DIMALTTD
 70
     2
  9
$DIMTXSTY
  7
Standard
  9
$DIMAUNIT
 70
     0
  9
$DIMADEC
 70
     0
  9
$DIMALTRND
 40
0.0
  9
$DIMAZIN
 70
     0
  9
$DIMDSEP
 70
    46
  9
$DIMATFIT
 70
     3
  9
$DIMFRAC
 70
     0
  9
$DIMLDRBLK
  1

  9
$DIMLUNIT
 70
     2
  9
$DIMLWD
 70
    -2
  9
$DIMLWE
 70
    -2
  9
$DIMTMOVE
 70
     0
  9
$DIMFXL
 40
1.0
  9
$DIMFXLON
 70
     0
  9
$DIMJOGANG
 40
0.7853981633974483
  9
$DIMTFILL
 70
     0
  9
$DIMTFILLCLR
 70
     0
  9
$DIMARCSYM
 70
     0
  9
$DIMLTYPE
  6

  9
$DIMLTEX1
  6

  9
$DIMLTEX2
  6

  9
$DIMTXTDIRECTION
 70
     0
  9
$LUNITS
 70
     2
  9
$LUPREC
 70
     4
  9
$SKETCHINC
 40
0.1
  9
$FILLETRAD
 40
0.5
  9
$AUNITS
 70
     0
  9
$AUPREC
 70
     0
  9
$MENU
  1
.
  9
$ELEVATION
 40
0.0
  9
$PELEVATION
 40
0.0
  9
$THICKNESS
 40
0.0
  9
$LIMCHECK
 70
     0
  9
$CHAMFERA
 40
0.5
  9
$CHAMFERB
 40
0.5
  9
$CHAMFERC
 40
1.0
  9
$CHAMFERD
 40
0.0
  9
$SKPOLY
 70
     0
  9
$TDCREATE
 40
2457917.593206019
  9
$TDUCREATE
 40
2457917.218206019
  9
$TDUPDATE
 40
2457917.593206019
  9
$TDUUPDATE
 40
2457917.218206019
  9
$TDINDWG
 40
0.0000000116
  9
$TDUSRTIMER
 40
0.0000000116
  9
$USRTIMER
 70
     1
  9
$ANGBASE
 50
0.0
  9
$ANGDIR
 70
     0
  9
$PDMODE
 70
     0
  9
$PDSIZE
 40
0.0
  9
$PLINEWID
 40
0.0
  9
$SPLFRAME
 70
     0
  9
$SPLINETYPE
 70
     6
  9
$SPLINESEGS
 70
     8
  9
$HANDSEED
  5
B8
  9
$SURFTAB1
 70
     6
  9
$SURFTAB2
 70
     6
  9
$SURFTYPE
 70
     6
  9
$SURFU
 70
     6
  9
$SURFV
 70
     6
  9
$UCSBASE
  2

  9
$UCSNAME
  2

  9
$UCSORG
 10
0.0
 20
0.0
 30
0.0
  9
$UCSXDIR
 10
1.0
 20
0.0
 30
0.0
  9
$UCSYDIR
 10
0.0
 20
1.0
 30
0.0
  9
$UCSORTHOREF
  2

  9
$UCSORTHOVIEW
 70
     0
  9
$UCSORGTOP
 10
0.0
 20
0.0
 30
0.0
  9
$UCSORGBOTTOM
 10
0.0
 20
0.0
 30
0.0
  9
$UCSORGLEFT
 10
0.0
 20
0.0
 30
0.0
  9
$UCSORGRIGHT
 10
0.0
 20
0.0
 30
0.0
  9
$UCSORGFRONT
 10
0.0
 20
0.0
 30
0.0
  9
$UCSORGBACK
 10
0.0
 20
0.0
 30
0.0
  9
$PUCSBASE
  2

  9
$PUCSNAME
  2

  9
$PUCSORG
 10
0.0
 20
0.0
 30
0.0
  9
$PUCSXDIR
 10
1.0
 20
0.0
 30
0.0
  9
$PUCSYDIR
 10
0.0
 20
1.0
 30
0.0
  9
$PUCSORTHOREF
  2

  9
$PUCSORTHOVIEW
 70
     0
  9
$PUCSORGTOP
 10
0.0
 20
0.0
 30
0.0
  9
$PUCSORGBOTTOM
 10
0.0
 20
0.0
 30
0.0
  9
$PUCSORGLEFT
 10
0.0
 20
0.0
 30
0.0
  9
$PUCSORGRIGHT
 10
0.0
 20
0.0
 30
0.0
  9
$PUCSORGFRONT
 10
0.0
 20
0.0
 30
0.0
  9
$PUCSORGBACK
 10
0.0
 20
0.0
 30
0.0
  9
$USERI1
 70
     0
  9
$USERI2
 70
     0
  9
$USERI3
 70
     0
  9
$USERI4
 70
     0
  9
$USERI5
 70
     0
  9
$USERR1
 40
0.0
  9
$USERR2
 40
0.0
  9
$USERR3
 40
0.0
  9
$USERR4
 40
0.0
  9
$USERR5
 40
0.0
  9
$WORLDVIEW
 70
     1
  9
$SHADEDGE
 70
     3
  9
$SHADEDIF
 70
    70
  9
$TILEMODE
 70
     1
  9
$MAXACTVP
 70
    64
  9
$PINSBASE
 10
0.0
 20
0.0
 30
0.0
  9
$PLIMCHECK
 70
     0
  9
$PEXTMIN
 10
1.000000000000000E+20
 20
1.000000000000000E+20
 30
1.000000000000000E+20
  9
$PEXTMAX
 10
-1.000000000000000E+20
 20
-1.000000000000000E+20
 30
-1.000000000000000E+20
  9
$PLIMMIN
 10
0.0
 20
0.0
  9
$PLIMMAX
 10
12.0
 20
9.0
  9
$UNITMODE
 70
     0
  9
$VISRETAIN
 70
     1
  9
$PLINEGEN
 70
     0
  9
$PSLTSCALE
 70
     1
  9
$TREEDEPTH
 70
  3020
  9
$CMLSTYLE
  2
Standard
  9
$CMLJUST
 70
     0
  9
$CMLSCALE
 40
1.0
  9
$PROXYGRAPHICS
 70
     1
  9
$MEASUREMENT
 70
     0
  9
$CELWEIGHT
370
    -1
  9
$ENDCAPS
280
     0
  9
$JOINSTYLE
280
     0
  9
$LWDISPLAY
290
     1
  9
$INSUNITS
 70
     1
  9
$HYPERLINKBASE
  1

  9
$STYLESHEET
  1

  9
$XEDIT
290
     1
  9
$CEPSNTYPE
380
     0
  9
$PSTYLEMODE
290
     1
  9
$FINGERPRINTGUID
  2
{69F59D78-EEA0-35AC-02F5-8BF62727FF40}
  9
$VERSIONGUID
  2
{FAEB1C32-E019-11D5-929B-00C0DF256EC4}
  9
$EXTNAMES
290
     1
  9
$PSVPSCALE
 40
0.0
  9
$OLESTARTUP
290
     0
  9
$SORTENTS
280
   127
  9
$INDEXCTL
280
     0
  9
$HIDETEXT
280
     1
  9
$XCLIPFRAME
280
     2
  9
$HALOGAP
280
     0
  9
$OBSCOLOR
 70
   257
  9
$OBSLTYPE
280
     0
  9
$INTERSECTIONDISPLAY
280
     0
  9
$INTERSECTIONCOLOR
 70
   257
  9
$DIMASSOC
280
     2
  9
$PROJECTNAME
  1

  9
$CAMERADISPLAY
290
     0
  9
$LENSLENGTH
 40
50.0
  9
$CAMERAHEIGHT
 40
0.0
  9
$STEPSPERSEC
 40
2.0
  9
$STEPSIZE
 40
6.0
  9
$3DDWFPREC
 40
2.0
  9
$PSOLWIDTH
 40
0.25
  9
$PSOLHEIGHT
 40
4.0
  9
$LOFTANG1
 40
1.570796326794897
  9
$LOFTANG2
 40
1.570796326794897
  9
$LOFTMAG1
 40
0.0
  9
$LOFTMAG2
 40
0.0
  9
$LOFTPARAM
 70
     7
  9
$LOFTNORMALS
280
     1
  9
$LATITUDE
 40
37.795
  9
$LONGITUDE
 40
-122.394
  9
$NORTHDIRECTION
 40
0.0
  9
$TIMEZONE
 70
 -8000
  9
$LIGHTGLYPHDISPLAY
280
     1
  9
$TILEMODELIGHTSYNCH
280
     1
  9
$CMATERIAL
347
3C
  9
$SOLIDHIST
280
     1
  9
$SHOWHIST
280
     1
  9
$DWFFRAME
280
     2
  9
$DGNFRAME
280
     2
  9
$REALWORLDSCALE
290
     1
  9
$INTERFERECOLOR
 62
   256
  9
$CSHADOW
280
     0
  9
$SHADOWPLANELOCATION
 40
0.0
  0
ENDSEC
  0
SECTION
  2
CLASSES
  0
CLASS
  1
ACDBDICTIONARYWDFLT
  2
AcDbDictionaryWithDefault
  3
ObjectDBX Classes
 90
        0
 91
        4
280
     0
281
     0
  0
CLASS
  1
VISUALSTYLE
  2
AcDbVisualStyle
  3
ObjectDBX Classes
 90
     4095
 91
        4
280
     0
281
     0
  0
CLASS
  1
MATERIAL
  2
AcDbMaterial
  3
ObjectDBX Classes
 90
     1153
 91
        4
280
     0
281
     0
  0
CLASS
  1
SUN
  2
AcDbSun
  3
SCENEOE
 90
     1024
 91
        4
280
     0
281
     0
  0
ENDSEC
  0
SECTION
  2
TABLES
  0
TABLE
  2
VPORT
  5
8
330
0
100
AcDbSymbolTable
 70
     1
  0
VPORT
  5
29
330
8
100
AcDbSymbolTableRecord
100
AcDbViewportTableRecord
  2
*Active
 70
     0
 10
0.0
 20
0.0
 11
1.0
 21
1.0
 12
0.0
 22
0.0
 13
0.0
 23
0.0
 14
0.5
 24
0.5
 15
0.5
 25
0.5
 16
0.0
 26
0.0
 36
1.0
 17
91.00082462281999
 27
-128.4993055234307
 37
0.0
 40
256.9986110468615
 41
0.7081814508812795
 42
50.0
 43
0.0
 44
0.0
 50
0.0
 51
0.0
 71
     0
 72
   100
 73
     1
 74
     3
 75
     0
 76
     0
 77
     0
 78
     0
281
     0
 65
     1
110
0.0
120
0.0
130
0.0
111
1.0
121
0.0
131
0.0
112
0.0
122
1.0
132
0.0
 79
     0
146
0.0
 60
     3
 61
     5
292
     1
282
     1
141
0.0
142
0.0
 63
   250
361
3F
  0
ENDTAB
  0
TABLE
  2
LTYPE
  5
5
330
0
100
AcDbSymbolTable
 70
     1
  0
LTYPE
  5
14
330
5
100
AcDbSymbolTableRecord
100
AcDbLinetypeTableRecord
  2
ByBlock
 70
     0
  3

 72
    65
 73
     0
 40
0.0
  0
LTYPE
  5
15
330
5
100
AcDbSymbolTableRecord
100
AcDbLinetypeTableRecord
  2
ByLayer
 70
     0
  3

 72
    65
 73
     0
 40
0.0
  0
LTYPE
  5
16
330
5
100
AcDbSymbolTableRecord
100
AcDbLinetypeTableRecord
  2
Continuous
 70
     0
  3
Solid line
 72
    65
 73
     0
 40
0.0
  0
ENDTAB
  0
TABLE
  2
LAYER
  5
2
330
0
100
AcDbSymbolTable
 70
     2
  0
LAYER
  5
10
330
2
100
AcDbSymbolTableRecord
100
AcDbLayerTableRecord
  2
0
 70
     0
 62
     7
  6
Continuous
370
    -3
390
F
347
3E
  0
LAYER
  5
40
330
2
100
AcDbSymbolTableRecord
100
AcDbLayerTableRecord
  2
_U+30EC_U+30A4_U+30E4_U+30FC 1
 70
     0
 62
     7
  6
Continuous
370
    -3
390
F
347
3E
  0
ENDTAB
  0
TABLE
  2
STYLE
  5
3
330
0
100
AcDbSymbolTable
 70
     1
  0
STYLE
  5
11
330
3
100
AcDbSymbolTableRecord
100
AcDbTextStyleTableRecord
  2
Standard
 70
     0
 40
0.0
 41
1.0
 50
0.0
 71
     0
 42
0.2
  3
txt
  4

  0
ENDTAB
  0
TABLE
  2
VIEW
  5
6
330
0
100
AcDbSymbolTable
 70
     0
  0
ENDTAB
  0
TABLE
  2
UCS
  5
7
330
0
100
AcDbSymbolTable
 70
     0
  0
ENDTAB
  0
TABLE
  2
APPID
  5
9
330
0
100
AcDbSymbolTable
 70
     1
  0
APPID
  5
12
330
9
100
AcDbSymbolTableRecord
100
AcDbRegAppTableRecord
  2
ACAD
 70
     0
  0
ENDTAB
  0
TABLE
  2
DIMSTYLE
  5
A
330
0
100
AcDbSymbolTable
 70
     1
100
AcDbDimStyleTable
  0
DIMSTYLE
105
27
330
A
100
AcDbSymbolTableRecord
100
AcDbDimStyleTableRecord
  2
Standard
 70
     0
178
     0
340
11
  0
ENDTAB
  0
TABLE
  2
BLOCK_RECORD
  5
1
330
0
100
AcDbSymbolTable
 70
     7
  0
BLOCK_RECORD
  5
1F
330
1
100
AcDbSymbolTableRecord
100
AcDbBlockTableRecord
  2
*Model_Space
340
22
 70
     0
280
     1
281
     0
  0
BLOCK_RECORD
  5
1B
330
1
100
AcDbSymbolTableRecord
100
AcDbBlockTableRecord
  2
*Paper_Space
340
1E
 70
     0
280
     1
281
     0
  0
BLOCK_RECORD
  5
23
330
1
100
AcDbSymbolTableRecord
100
AcDbBlockTableRecord
  2
*Paper_Space0
340
26
 70
     0
280
     1
281
     0
  0
BLOCK_RECORD
  5
41
330
1
100
AcDbSymbolTableRecord
100
AcDbBlockTableRecord
  2
block 2
340
0
102
{BLKREFS
331
42
102
}
 70
     0
280
     1
281
     0
  0
BLOCK_RECORD
  5
64
330
1
100
AcDbSymbolTableRecord
100
AcDbBlockTableRecord
  2
block 3
340
0
102
{BLKREFS
331
65
102
}
 70
     0
280
     1
281
     0
  0
BLOCK_RECORD
  5
6D
330
1
100
AcDbSymbolTableRecord
100
AcDbBlockTableRecord
  2
block 4
340
0
102
{BLKREFS
331
6E
102
}
 70
     0
280
     1
281
     0
  0
BLOCK_RECORD
  5
73
330
1
100
AcDbSymbolTableRecord
100
AcDbBlockTableRecord
  2
block 5
340
0
102
{BLKREFS
331
74
102
}
 70
     0
280
     1
281
     0
  0
BLOCK_RECORD
  5
88
330
1
100
AcDbSymbolTableRecord
100
AcDbBlockTableRecord
  2
block 6
340
0
102
{BLKREFS
331
89
102
}
 70
     0
280
     1
281
     0
  0
BLOCK_RECORD
  5
9B
330
1
100
AcDbSymbolTableRecord
100
AcDbBlockTableRecord
  2
block 7
340
0
102
{BLKREFS
331
9C
102
}
 70
     0
280
     1
281
     0
  0
ENDTAB
  0
ENDSEC
  0
SECTION
  2
BLOCKS
  0
BLOCK
  5
20
330
1F
100
AcDbEntity
  8
0
100
AcDbBlockBegin
  2
*Model_Space
 70
     0
 10
0.0
 20
0.0
 30
0.0
  3
*Model_Space
  1

  0
ENDBLK
  5
21
330
1F
100
AcDbEntity
  8
0
100
AcDbBlockEnd
  0
BLOCK
  5
1C
330
1B
100
AcDbEntity
 67
     1
  8
0
100
AcDbBlockBegin
  2
*Paper_Space
 70
     0
 10
0.0
 20
0.0
 30
0.0
  3
*Paper_Space
  1

  0
ENDBLK
  5
1D
330
1B
100
AcDbEntity
 67
     1
  8
0
100
AcDbBlockEnd
  0
BLOCK
  5
24
330
23
100
AcDbEntity
  8
0
100
AcDbBlockBegin
  2
*Paper_Space0
 70
     0
 10
0.0
 20
0.0
 30
0.0
  3
*Paper_Space0
  1

  0
ENDBLK
  5
25
330
23
100
AcDbEntity
  8
0
100
AcDbBlockEnd
  0
BLOCK
  5
43
330
41
100
AcDbEntity
  8
0
100
AcDbBlockBegin
  2
block 2
 70
     0
 10
0.0
 20
0.0
 30
0.0
  3
block 2
  1

  0
SPLINE
  5
45
330
41
100
AcDbEntity
  8
_U+30EC_U+30A4_U+30E4_U+30FC 1
 62
     7
420
 16777215
370
     9
100
AcDbSpline
210
0.0
220
0.0
230
1.0
 70
    11
 71
     3
 72
    17
 73
    13
 74
     0
 42
0.0000000001
 43
0.0000000001
 12
1.0
 22
0.0
 32
0.0
 13
1.0
 23
0.0
 33
0.0
 40
0.0
 40
0.0
 40
0.0
 40
0.0
 40
1.0
 40
1.0
 40
1.0
 40
2.0
 40
2.0
 40
2.0
 40
3.0
 40
3.0
 40
3.0
 40
4.0
 40
4.0
 40
4.0
 40
4.0
 10
104.220324841118
 20
-138.2816569098738
 30
0.0
 10
104.220324841118
 20
-138.2265177432214
 30
0.0
 10
104.1755573422601
 20
-138.1817502432322
 30
0.0
 10
104.1204181770002
 20
-138.1817502432322
 30
0.0
 10
104.0653142895171
 20
-138.1817502432322
 30
0.0
 10
104.0205115128823
 20
-138.2265177432214
 30
0.0
 10
104.0205115128823
 20
-138.2816569098738
 30
0.0
 10
104.0205115128823
 20
-138.3367607987494
 30
0.0
 10
104.0653142895171
 20
-138.3815635765155
 30
0.0
 10
104.1204181770002
 20
-138.3815635765155
 30
0.0
 10
104.1755573422601
 20
-138.3815635765155
 30
0.0
 10
104.220324841118
 20
-138.3367607987494
 30
0.0
 10
104.220324841118
 20
-138.2816569098738
 30
0.0
  0
SPLINE
  5
46
330
41
100
AcDbEntity
  8
_U+30EC_U+30A4_U+30E4_U+30FC 1
 62
     7
420
 16777215
370
     9
100
AcDbSpline
210
0.0
220
0.0
230
1.0
 70
    11
 71
     3
 72
    17
 73
    13
 74
     0
 42
0.0000000001
 43
0.0000000001
 12
1.0
 22
0.0
 32
0.0
 13
1.0
 23
0.0
 33
0.0
 40
0.0
 40
0.0
 40
0.0
 40
0.0
 40
1.0
 40
1.0
 40
1.0
 40
2.0
 40
2.0
 40
2.0
 40
3.0
 40
3.0
 40
3.0
 40
4.0
 40
4.0
 40
4.0
 40
4.0
 10
72.22126454637093
 20
-138.2816569098738
 30
0.0
 10
72.22126454637093
 20
-138.2265177432214
 30
0.0
 10
72.17646176973616
 20
-138.1817502432322
 30
0.0
 10
72.12065232671554
 20
-138.1817502432322
 30
0.0
 10
72.06554843923247
 20
-138.1817502432322
 30
0.0
 10
72.0207456625977
 20
-138.2265177432214
 30
0.0
 10
72.0207456625977
 20
-138.2816569098738
 30
0.0
 10
72.0207456625977
 20
-138.3367607987494
 30
0.0
 10
72.06554843923247
 20
-138.3815635765155
 30
0.0
 10
72.12065232671554
 20
-138.3815635765155
 30
0.0
 10
72.17646176973616
 20
-138.3815635765155
 30
0.0
 10
72.22126454637093
 20
-138.3367607987494
 30
0.0
 10
72.22126454637093
 20
-138.2816569098738
 30
0.0
  0
SPLINE
  5
47
330
41
100
AcDbEntity
  8
_U+30EC_U+30A4_U+30E4_U+30FC 1
 62
     7
420
 16777215
370
     9
100
AcDbSpline
210
0.0
220
0.0
230
1.0
 70
    11
 71
     3
 72
    17
 73
    13
 74
     0
 42
0.0000000001
 43
0.0000000001
 12
1.0
 22
0.0
 32
0.0
 13
1.0
 23
0.0
 33
0.0
 40
0.0
 40
0.0
 40
0.0
 40
0.0
 40
1.0
 40
1.0
 40
1.0
 40
2.0
 40
2.0
 40
2.0
 40
3.0
 40
3.0
 40
3.0
 40
4.0
 40
4.0
 40
4.0
 40
4.0
 10
107.0204983807907
 20
-134.2811921886521
 30
0.0
 10
107.0204983807907
 20
-134.3363313553045
 30
0.0
 10
107.0653011574255
 20
-134.3811341330712
 30
0.0
 10
107.1204050449086
 20
-134.3811341330712
 30
0.0
 10
107.1755442101685
 20
-134.3811341330712
 30
0.0
 10
107.2203117090264
 20
-134.3363313553045
 30
0.0
 10
107.2203117090264
 20
-134.2811921886521
 30
0.0
 10
107.2203117090264
 20
-134.2260882997765
 30
0.0
 10
107.1755442101685
 20
-134.1812855220105
 30
0.0
 10
107.1204050449086
 20
-134.1812855220105
 30
0.0
 10
107.0653011574255
 20
-134.1812855220105
 30
0.0
 10
107.0204983807907
 20
-134.2260882997765
 30
0.0
 10
107.0204983807907
 20
-134.2811921886521
 30
0.0
  0
SPLINE
  5
48
330
41
100
AcDbEntity
  8
_U+30EC_U+30A4_U+30E4_U+30FC 1
 62
     7
420
 16777215
370
     9
100
AcDbSpline
210
0.0
220
0.0
230
1.0
 70
    11
 71
     3
 72
    17
 73
    13
 74
     0
 42
0.0000000001
 43
0.0000000001
 12
1.0
 22
0.0
 32
0.0
 13
1.0
 23
0.0
 33
0.0
 40
0.0
 40
0.0
 40
0.0
 40
0.0
 40
1.0
 40
1.0
 40
1.0
 40
2.0
 40
2.0
 40
2.0
 40
3.0
 40
3.0
 40
3.0
 40
4.0
 40
4.0
 40
4.0
 40
4.0
 10
107.0204983807907
 20
-123.2780885802916
 30
0.0
 10
107.0204983807907
 20
-123.3332277469444
 30
0.0
 10
107.0653011574255
 20
-123.3779952469333
 30
0.0
 10
107.1204050449086
 20
-123.3779952469333
 30
0.0
 10
107.1755442101685
 20
-123.3779952469333
 30
0.0
 10
107.2203117090264
 20
-123.3332277469444
 30
0.0
 10
107.2203117090264
 20
-123.2780885802916
 30
0.0
 10
107.2203117090264
 20
-123.2222791358612
 30
0.0
 10
107.1755442101685
 20
-123.1775116358723
 30
0.0
 10
107.1204050449086
 20
-123.1775116358723
 30
0.0
 10
107.0653011574255
 20
-123.1775116358723
 30
0.0
 10
107.0204983807907
 20
-123.2222791358612
 30
0.0
 10
107.0204983807907
 20
-123.2780885802916
 30
0.0
  0
POLYLINE
  5
49
330
41
100
AcDbEntity
  8
_U+30EC_U+30A4_U+30E4_U+30FC 1
 62
     7
420
 16777215
370
     9
100
AcDb2dPolyline
 66
     1
 10
0.0
 20
0.0
 30
0.0
  0
VERTEX
  5
4A
330
49
100
AcDbEntity
  8
_U+30EC_U+30A4_U+30E4_U+30FC 1
 62
     7
420
 16777215
370
     9
100
AcDbVertex
100
AcDb2dVertex
 10
107.1204050449086
 20
-123.1775116358723
 30
0.0
  0
VERTEX
  5
4B
330
49
100
AcDbEntity
  8
_U+30EC_U+30A4_U+30E4_U+30FC 1
 62
     7
420
 16777215
370
     9
100
AcDbVertex
100
AcDb2dVertex
 10
107.1204050449086
 20
-134.2811921886521
 30
0.0
  0
SEQEND
  5
4C
330
49
100
AcDbEntity
  8
_U+30EC_U+30A4_U+30E4_U+30FC 1
 62
     7
420
 16777215
370
     9
  0
POLYLINE
  5
4D
330
41
100
AcDbEntity
  8
_U+30EC_U+30A4_U+30E4_U+30FC 1
 62
     7
420
 16777215
370
     9
100
AcDb2dPolyline
 66
     1
 10
0.0
 20
0.0
 30
0.0
  0
VERTEX
  5
4E
330
4D
100
AcDbEntity
  8
_U+30EC_U+30A4_U+30E4_U+30FC 1
 62
     7
420
 16777215
370
     9
100
AcDbVertex
100
AcDb2dVertex
 10
93.51436622536087
 20
-123.2780885802916
 30
0.0
  0
VERTEX
  5
4F
330
4D
100
AcDbEntity
  8
_U+30EC_U+30A4_U+30E4_U+30FC 1
 62
     7
420
 16777215
370
     9
100
AcDbVertex
100
AcDb2dVertex
 10
108.1201772416245
 20
-123.2780885802916
 30
0.0
  0
SEQEND
  5
50
330
4D
100
AcDbEntity
  8
_U+30EC_U+30A4_U+30E4_U+30FC 1
 62
     7
420
 16777215
370
     9
  0
POLYLINE
  5
51
330
41
100
AcDbEntity
  8
_U+30EC_U+30A4_U+30E4_U+30FC 1
 62
     7
420
 16777215
370
     9
100
AcDb2dPolyline
 66
     1
 10
0.0
 20
0.0
 30
0.0
  0
VERTEX
  5
52
330
51
100
AcDbEntity
  8
_U+30EC_U+30A4_U+30E4_U+30FC 1
 62
     7
420
 16777215
370
     9
100
AcDbVertex
100
AcDb2dVertex
 10
105.6603989710453
 20
-134.2811921886521
 30
0.0
  0
VERTEX
  5
53
330
51
100
AcDbEntity
  8
_U+30EC_U+30A4_U+30E4_U+30FC 1
 62
     7
420
 16777215
370
     9
100
AcDbVertex
100
AcDb2dVertex
 10
108.1201772416245
 20
-134.2811921886521
 30
0.0
  0
SEQEND
  5
54
330
51
100
AcDbEntity
  8
_U+30EC_U+30A4_U+30E4_U+30FC 1
 62
     7
420
 16777215
370
     9
  0
SPLINE
  5
55
330
41
100
AcDbEntity
  8
_U+30EC_U+30A4_U+30E4_U+30FC 1
 62
     7
420
 16777215
370
     9
100
AcDbSpline
210
0.0
220
0.0
230
1.0
 70
    11
 71
     3
 72
    17
 73
    13
 74
     0
 42
0.0000000001
 43
0.0000000001
 12
1.0
 22
0.0
 32
0.0
 13
1.0
 23
0.0
 33
0.0
 40
0.0
 40
0.0
 40
0.0
 40
0.0
 40
1.0
 40
1.0
 40
1.0
 40
2.0
 40
2.0
 40
2.0
 40
3.0
 40
3.0
 40
3.0
 40
4.0
 40
4.0
 40
4.0
 40
4.0
 10
94.87446563510629
 20
-129.2778860787918
 30
0.0
 10
94.87446563510629
 20
-129.3330252454448
 30
0.0
 10
94.91926841174106
 20
-129.3777927454334
 30
0.0
 10
94.974407577001
 20
-129.3777927454334
 30
0.0
 10
95.02951386513152
 20
-129.3777927454334
 30
0.0
 10
95.07431664289824
 20
-129.3330252454448
 30
0.0
 10
95.07431664289824
 20
-129.2778860787918
 30
0.0
 10
95.07431664289824
 20
-129.2227821899168
 30
0.0
 10
95.02951386513152
 20
-129.1779794121501
 30
0.0
 10
94.974407577001
 20
-129.1779794121501
 30
0.0
 10
94.91926841174106
 20
-129.1779794121501
 30
0.0
 10
94.87446563510629
 20
-129.2227821899168
 30
0.0
 10
94.87446563510629
 20
-129.2778860787918
 30
0.0
  0
SPLINE
  5
56
330
41
100
AcDbEntity
  8
_U+30EC_U+30A4_U+30E4_U+30FC 1
 62
     7
420
 16777215
370
     9
100
AcDbSpline
210
0.0
220
0.0
230
1.0
 70
    11
 71
     3
 72
    17
 73
    13
 74
     0
 42
0.0000000001
 43
0.0000000001
 12
1.0
 22
0.0
 32
0.0
 13
1.0
 23
0.0
 33
0.0
 40
0.0
 40
0.0
 40
0.0
 40
0.0
 40
1.0
 40
1.0
 40
1.0
 40
2.0
 40
2.0
 40
2.0
 40
3.0
 40
3.0
 40
3.0
 40
4.0
 40
4.0
 40
4.0
 40
4.0
 10
94.87446563510629
 20
-123.2780885802916
 30
0.0
 10
94.87446563510629
 20
-123.3332277469444
 30
0.0
 10
94.91926841174106
 20
-123.3779952469333
 30
0.0
 10
94.974407577001
 20
-123.3779952469333
 30
0.0
 10
95.02951386513152
 20
-123.3779952469333
 30
0.0
 10
95.07431664289824
 20
-123.3332277469444
 30
0.0
 10
95.07431664289824
 20
-123.2780885802916
 30
0.0
 10
95.07431664289824
 20
-123.2229846914164
 30
0.0
 10
95.02951386513152
 20
-123.17818191365
 30
0.0
 10
94.974407577001
 20
-123.17818191365
 30
0.0
 10
94.91926841174106
 20
-123.17818191365
 30
0.0
 10
94.87446563510629
 20
-123.2229846914164
 30
0.0
 10
94.87446563510629
 20
-123.2780885802916
 30
0.0
  0
POLYLINE
  5
57
330
41
100
AcDbEntity
  8
_U+30EC_U+30A4_U+30E4_U+30FC 1
 62
     7
420
 16777215
370
     9
100
AcDb2dPolyline
 66
     1
 10
0.0
 20
0.0
 30
0.0
  0
VERTEX
  5
58
330
57
100
AcDbEntity
  8
_U+30EC_U+30A4_U+30E4_U+30FC 1
 62
     7
420
 16777215
370
     9
100
AcDbVertex
100
AcDb2dVertex
 10
94.974407577001
 20
-123.2780885802916
 30
0.0
  0
VERTEX
  5
59
330
57
100
AcDbEntity
  8
_U+30EC_U+30A4_U+30E4_U+30FC 1
 62
     7
420
 16777215
370
     9
100
AcDbVertex
100
AcDb2dVertex
 10
94.974407577001
 20
-129.2778860787918
 30
0.0
  0
SEQEND
  5
5A
330
57
100
AcDbEntity
  8
_U+30EC_U+30A4_U+30E4_U+30FC 1
 62
     7
420
 16777215
370
     9
  0
POLYLINE
  5
5B
330
41
100
AcDbEntity
  8
_U+30EC_U+30A4_U+30E4_U+30FC 1
 62
     7
420
 16777215
370
     9
100
AcDb2dPolyline
 66
     1
 10
0.0
 20
0.0
 30
0.0
  0
VERTEX
  5
5C
330
5B
100
AcDbEntity
  8
_U+30EC_U+30A4_U+30E4_U+30FC 1
 62
     7
420
 16777215
370
     9
100
AcDbVertex
100
AcDb2dVertex
 10
93.51436622536087
 20
-129.2778860787918
 30
0.0
  0
VERTEX
  5
5D
330
5B
100
AcDbEntity
  8
_U+30EC_U+30A4_U+30E4_U+30FC 1
 62
     7
420
 16777215
370
     9
100
AcDbVertex
100
AcDb2dVertex
 10
95.97414449594004
 20
-129.2778860787918
 30
0.0
  0
SEQEND
  5
5E
330
5B
100
AcDbEntity
  8
_U+30EC_U+30A4_U+30E4_U+30FC 1
 62
     7
420
 16777215
370
     9
  0
SPLINE
  5
5F
330
41
100
AcDbEntity
  8
_U+30EC_U+30A4_U+30E4_U+30FC 1
 62
     7
420
 16777215
370
     9
100
AcDbSpline
210
0.0
220
0.0
230
1.0
 70
    11
 71
     3
 72
    17
 73
    13
 74
     0
 42
0.0000000001
 43
0.0000000001
 12
1.0
 22
0.0
 32
0.0
 13
1.0
 23
0.0
 33
0.0
 40
0.0
 40
0.0
 40
0.0
 40
0.0
 40
1.0
 40
1.0
 40
1.0
 40
2.0
 40
2.0
 40
2.0
 40
3.0
 40
3.0
 40
3.0
 40
4.0
 40
4.0
 40
4.0
 40
4.0
 10
107.0204983807907
 20
-133.28110246668
 30
0.0
 10
107.0204983807907
 20
-133.3362063555549
 30
0.0
 10
107.0653011574255
 20
-133.3810091333216
 30
0.0
 10
107.1204050449086
 20
-133.3810091333216
 30
0.0
 10
107.1755442101685
 20
-133.3810091333216
 30
0.0
 10
107.2203117090264
 20
-133.3362063555549
 30
0.0
 10
107.2203117090264
 20
-133.28110246668
 30
0.0
 10
107.2203117090264
 20
-133.2259633000268
 30
0.0
 10
107.1755442101685
 20
-133.1811958000383
 30
0.0
 10
107.1204050449086
 20
-133.1811958000383
 30
0.0
 10
107.0653011574255
 20
-133.1811958000383
 30
0.0
 10
107.0204983807907
 20
-133.2259633000268
 30
0.0
 10
107.0204983807907
 20
-133.28110246668
 30
0.0
  0
POLYLINE
  5
60
330
41
100
AcDbEntity
  8
_U+30EC_U+30A4_U+30E4_U+30FC 1
 62
     7
420
 16777215
370
     9
100
AcDb2dPolyline
 66
     1
 10
0.0
 20
0.0
 30
0.0
  0
VERTEX
  5
61
330
60
100
AcDbEntity
  8
_U+30EC_U+30A4_U+30E4_U+30FC 1
 62
     7
420
 16777215
370
     9
100
AcDbVertex
100
AcDb2dVertex
 10
105.6603989710453
 20
-133.28110246668
 30
0.0
  0
VERTEX
  5
62
330
60
100
AcDbEntity
  8
_U+30EC_U+30A4_U+30E4_U+30FC 1
 62
     7
420
 16777215
370
     9
100
AcDbVertex
100
AcDb2dVertex
 10
108.1201772416245
 20
-133.28110246668
 30
0.0
  0
SEQEND
  5
63
330
60
100
AcDbEntity
  8
_U+30EC_U+30A4_U+30E4_U+30FC 1
 62
     7
420
 16777215
370
     9
  0
INSERT
  5
65
330
41
100
AcDbEntity
  8
_U+30EC_U+30A4_U+30E4_U+30FC 1
100
AcDbBlockReference
  2
block 3
 10
0.0
 20
0.0
 30
0.0
  0
INSERT
  5
6E
330
41
100
AcDbEntity
  8
_U+30EC_U+30A4_U+30E4_U+30FC 1
100
AcDbBlockReference
  2
block 4
 10
0.0
 20
0.0
 30
0.0
  0
INSERT
  5
74
330
41
100
AcDbEntity
  8
_U+30EC_U+30A4_U+30E4_U+30FC 1
100
AcDbBlockReference
  2
block 5
 10
0.0
 20
0.0
 30
0.0
  0
SPLINE
  5
7A
330
41
100
AcDbEntity
  8
_U+30EC_U+30A4_U+30E4_U+30FC 1
 62
     7
420
 16777215
370
     9
100
AcDbSpline
210
0.0
220
0.0
230
1.0
 70
    11
 71
     3
 72
    17
 73
    13
 74
     0
 42
0.0000000001
 43
0.0000000001
 12
1.0
 22
0.0
 32
0.0
 13
1.0
 23
0.0
 33
0.0
 40
0.0
 40
0.0
 40
0.0
 40
0.0
 40
1.0
 40
1.0
 40
1.0
 40
2.0
 40
2.0
 40
2.0
 40
3.0
 40
3.0
 40
3.0
 40
4.0
 40
4.0
 40
4.0
 40
4.0
 10
85.20856643725948
 20
-120.3974816365673
 30
0.0
 10
85.1534625497764
 20
-120.3974816365673
 30
0.0
 10
85.10865977314164
 20
-120.4422491365562
 30
0.0
 10
85.10865977314164
 20
-120.497388303209
 30
0.0
 10
85.10865977314164
 20
-120.5524921920842
 30
0.0
 10
85.1534625497764
 20
-120.5972949698506
 30
0.0
 10
85.20856643725948
 20
-120.5972949698506
 30
0.0
 10
85.26370560251942
 20
-120.5972949698506
 30
0.0
 10
85.30847310137732
 20
-120.5524921920842
 30
0.0
 10
85.30847310137732
 20
-120.497388303209
 30
0.0
 10
85.30847310137732
 20
-120.4422491365562
 30
0.0
 10
85.26370560251942
 20
-120.3974816365673
 30
0.0
 10
85.20856643725948
 20
-120.3974816365673
 30
0.0
  0
POLYLINE
  5
7B
330
41
100
AcDbEntity
  8
_U+30EC_U+30A4_U+30E4_U+30FC 1
 62
     7
420
 16777215
370
     9
100
AcDb2dPolyline
 66
     1
 10
0.0
 20
0.0
 30
0.0
  0
VERTEX
  5
7C
330
7B
100
AcDbEntity
  8
_U+30EC_U+30A4_U+30E4_U+30FC 1
 62
     7
420
 16777215
370
     9
100
AcDbVertex
100
AcDb2dVertex
 10
91.2102687841433
 20
-120.497388303209
 30
0.0
  0
VERTEX
  5
7D
330
7B
100
AcDbEntity
  8
_U+30EC_U+30A4_U+30E4_U+30FC 1
 62
     7
420
 16777215
370
     9
100
AcDbVertex
100
AcDb2dVertex
 10
85.20856643725948
 20
-120.497388303209
 30
0.0
  0
SEQEND
  5
7E
330
7B
100
AcDbEntity
  8
_U+30EC_U+30A4_U+30E4_U+30FC 1
 62
     7
420
 16777215
370
     9
  0
POLYLINE
  5
7F
330
41
100
AcDbEntity
  8
_U+30EC_U+30A4_U+30E4_U+30FC 1
 62
     7
420
 16777215
370
     9
100
AcDb2dPolyline
 66
     1
 10
0.0
 20
0.0
 30
0.0
  0
VERTEX
  5
80
330
7F
100
AcDbEntity
  8
_U+30EC_U+30A4_U+30E4_U+30FC 1
 62
     7
420
 16777215
370
     9
100
AcDbVertex
100
AcDb2dVertex
 10
85.20856643725948
 20
-119.0373469146852
 30
0.0
  0
VERTEX
  5
81
330
7F
100
AcDbEntity
  8
_U+30EC_U+30A4_U+30E4_U+30FC 1
 62
     7
420
 16777215
370
     9
100
AcDbVertex
100
AcDb2dVertex
 10
85.20856643725948
 20
-121.4971605251812
 30
0.0
  0
SEQEND
  5
82
330
7F
100
AcDbEntity
  8
_U+30EC_U+30A4_U+30E4_U+30FC 1
 62
     7
420
 16777215
370
     9
  0
SPLINE
  5
83
330
41
100
AcDbEntity
  8
_U+30EC_U+30A4_U+30E4_U+30FC 1
 62
     7
420
 16777215
370
     9
100
AcDbSpline
210
0.0
220
0.0
230
1.0
 70
    11
 71
     3
 72
    17
 73
    13
 74
     0
 42
0.0000000001
 43
0.0000000001
 12
1.0
 22
0.0
 32
0.0
 13
1.0
 23
0.0
 33
0.0
 40
0.0
 40
0.0
 40
0.0
 40
0.0
 40
1.0
 40
1.0
 40
1.0
 40
2.0
 40
2.0
 40
2.0
 40
3.0
 40
3.0
 40
3.0
 40
4.0
 40
4.0
 40
4.0
 40
4.0
 10
91.2102687841433
 20
-120.3974816365673
 30
0.0
 10
91.15516489666022
 20
-120.3974816365673
 30
0.0
 10
91.11036212002546
 20
-120.4422491365562
 30
0.0
 10
91.11036212002546
 20
-120.497388303209
 30
0.0
 10
91.11036212002546
 20
-120.5524921920842
 30
0.0
 10
91.15516489666022
 20
-120.5972949698506
 30
0.0
 10
91.2102687841433
 20
-120.5972949698506
 30
0.0
 10
91.26540794940324
 20
-120.5972949698506
 30
0.0
 10
91.31017775495036
 20
-120.5524921920842
 30
0.0
 10
91.31017775495036
 20
-120.497388303209
 30
0.0
 10
91.31017775495036
 20
-120.4422491365562
 30
0.0
 10
91.26540794940324
 20
-120.3974816365673
 30
0.0
 10
91.2102687841433
 20
-120.3974816365673
 30
0.0
  0
POLYLINE
  5
84
330
41
100
AcDbEntity
  8
_U+30EC_U+30A4_U+30E4_U+30FC 1
 62
     7
420
 16777215
370
     9
100
AcDb2dPolyline
 66
     1
 10
0.0
 20
0.0
 30
0.0
  0
VERTEX
  5
85
330
84
100
AcDbEntity
  8
_U+30EC_U+30A4_U+30E4_U+30FC 1
 62
     7
420
 16777215
370
     9
100
AcDbVertex
100
AcDb2dVertex
 10
91.2102687841433
 20
-119.0373469146852
 30
0.0
  0
VERTEX
  5
86
330
84
100
AcDbEntity
  8
_U+30EC_U+30A4_U+30E4_U+30FC 1
 62
     7
420
 16777215
370
     9
100
AcDbVertex
100
AcDb2dVertex
 10
91.2102687841433
 20
-121.4971605251812
 30
0.0
  0
SEQEND
  5
87
330
84
100
AcDbEntity
  8
_U+30EC_U+30A4_U+30E4_U+30FC 1
 62
     7
420
 16777215
370
     9
  0
INSERT
  5
89
330
41
100
AcDbEntity
  8
_U+30EC_U+30A4_U+30E4_U+30FC 1
100
AcDbBlockReference
  2
block 6
 10
0.0
 20
0.0
 30
0.0
  0
POLYLINE
  5
8F
330
41
100
AcDbEntity
  8
_U+30EC_U+30A4_U+30E4_U+30FC 1
 62
     7
420
 16777215
370
     9
100
AcDb2dPolyline
 66
     1
 10
0.0
 20
0.0
 30
0.0
  0
VERTEX
  5
90
330
8F
100
AcDbEntity
  8
_U+30EC_U+30A4_U+30E4_U+30FC 1
 62
     7
420
 16777215
370
     9
100
AcDbVertex
100
AcDb2dVertex
 10
72.12065232671554
 20
-138.2816569098738
 30
0.0
  0
VERTEX
  5
91
330
8F
100
AcDbEntity
  8
_U+30EC_U+30A4_U+30E4_U+30FC 1
 62
     7
420
 16777215
370
     9
100
AcDbVertex
100
AcDb2dVertex
 10
104.1204181770002
 20
-138.2816569098738
 30
0.0
  0
SEQEND
  5
92
330
8F
100
AcDbEntity
  8
_U+30EC_U+30A4_U+30E4_U+30FC 1
 62
     7
420
 16777215
370
     9
  0
POLYLINE
  5
93
330
41
100
AcDbEntity
  8
_U+30EC_U+30A4_U+30E4_U+30FC 1
 62
     7
420
 16777215
370
     9
100
AcDb2dPolyline
 66
     1
 10
0.0
 20
0.0
 30
0.0
  0
VERTEX
  5
94
330
93
100
AcDbEntity
  8
_U+30EC_U+30A4_U+30E4_U+30FC 1
 62
     7
420
 16777215
370
     9
100
AcDbVertex
100
AcDb2dVertex
 10
72.12065232671554
 20
-135.8208202438225
 30
0.0
  0
VERTEX
  5
95
330
93
100
AcDbEntity
  8
_U+30EC_U+30A4_U+30E4_U+30FC 1
 62
     7
420
 16777215
370
     9
100
AcDbVertex
100
AcDb2dVertex
 10
72.12065232671554
 20
-139.2814291318464
 30
0.0
  0
SEQEND
  5
96
330
93
100
AcDbEntity
  8
_U+30EC_U+30A4_U+30E4_U+30FC 1
 62
     7
420
 16777215
370
     9
  0
POLYLINE
  5
97
330
41
100
AcDbEntity
  8
_U+30EC_U+30A4_U+30E4_U+30FC 1
 62
     7
420
 16777215
370
     9
100
AcDb2dPolyline
 66
     1
 10
0.0
 20
0.0
 30
0.0
  0
VERTEX
  5
98
330
97
100
AcDbEntity
  8
_U+30EC_U+30A4_U+30E4_U+30FC 1
 62
     7
420
 16777215
370
     9
100
AcDbVertex
100
AcDb2dVertex
 10
104.1204181770002
 20
-136.8216155213501
 30
0.0
  0
VERTEX
  5
99
330
97
100
AcDbEntity
  8
_U+30EC_U+30A4_U+30E4_U+30FC 1
 62
     7
420
 16777215
370
     9
100
AcDbVertex
100
AcDb2dVertex
 10
104.1204181770002
 20
-139.2814291318464
 30
0.0
  0
SEQEND
  5
9A
330
97
100
AcDbEntity
  8
_U+30EC_U+30A4_U+30E4_U+30FC 1
 62
     7
420
 16777215
370
     9
  0
INSERT
  5
9C
330
41
100
AcDbEntity
  8
_U+30EC_U+30A4_U+30E4_U+30FC 1
100
AcDbBlockReference
  2
block 7
 10
0.0
 20
0.0
 30
0.0
  0
POLYLINE
  5
A3
330
41
100
AcDbEntity
  8
_U+30EC_U+30A4_U+30E4_U+30FC 1
 62
     7
420
 16777215
370
    25
100
AcDb2dPolyline
 66
     1
 10
0.0
 20
0.0
 30
0.0
  0
VERTEX
  5
A4
330
A3
100
AcDbEntity
  8
_U+30EC_U+30A4_U+30E4_U+30FC 1
 62
     7
420
 16777215
370
    25
100
AcDbVertex
100
AcDb2dVertex
 10
92.2083123697922
 20
-133.28110246668
 30
0.0
  0
VERTEX
  5
A5
330
A3
100
AcDbEntity
  8
_U+30EC_U+30A4_U+30E4_U+30FC 1
 62
     7
420
 16777215
370
    25
100
AcDbVertex
100
AcDb2dVertex
 10
92.2083123697922
 20
-123.2780885802916
 30
0.0
  0
VERTEX
  5
A6
330
A3
100
AcDbEntity
  8
_U+30EC_U+30A4_U+30E4_U+30FC 1
 62
     7
420
 16777215
370
    25
100
AcDbVertex
100
AcDb2dVertex
 10
91.20854017307629
 20
-123.2780885802916
 30
0.0
  0
VERTEX
  5
A7
330
A3
100
AcDbEntity
  8
_U+30EC_U+30A4_U+30E4_U+30FC 1
 62
     7
420
 16777215
370
    25
100
AcDbVertex
100
AcDb2dVertex
 10
91.20854017307629
 20
-129.2778860787918
 30
0.0
  0
VERTEX
  5
A8
330
A3
100
AcDbEntity
  8
_U+30EC_U+30A4_U+30E4_U+30FC 1
 62
     7
420
 16777215
370
    25
100
AcDbVertex
100
AcDb2dVertex
 10
85.20856643725948
 20
-129.2778860787918
 30
0.0
  0
VERTEX
  5
A9
330
A3
100
AcDbEntity
  8
_U+30EC_U+30A4_U+30E4_U+30FC 1
 62
     7
420
 16777215
370
    25
100
AcDbVertex
100
AcDb2dVertex
 10
85.20856643725948
 20
-123.2780885802916
 30
0.0
  0
VERTEX
  5
AA
330
A3
100
AcDbEntity
  8
_U+30EC_U+30A4_U+30E4_U+30FC 1
 62
     7
420
 16777215
370
    25
100
AcDbVertex
100
AcDb2dVertex
 10
84.20879424054357
 20
-123.2780885802916
 30
0.0
  0
VERTEX
  5
AB
330
A3
100
AcDbEntity
  8
_U+30EC_U+30A4_U+30E4_U+30FC 1
 62
     7
420
 16777215
370
    25
100
AcDbVertex
100
AcDb2dVertex
 10
84.20879424054357
 20
-133.28110246668
 30
0.0
  0
VERTEX
  5
AC
330
A3
100
AcDbEntity
  8
_U+30EC_U+30A4_U+30E4_U+30FC 1
 62
     7
420
 16777215
370
    25
100
AcDbVertex
100
AcDb2dVertex
 10
72.12065232671554
 20
-133.28110246668
 30
0.0
  0
VERTEX
  5
AD
330
A3
100
AcDbEntity
  8
_U+30EC_U+30A4_U+30E4_U+30FC 1
 62
     7
420
 16777215
370
    25
100
AcDbVertex
100
AcDb2dVertex
 10
72.12065232671554
 20
-134.2811921886521
 30
0.0
  0
VERTEX
  5
AE
330
A3
100
AcDbEntity
  8
_U+30EC_U+30A4_U+30E4_U+30FC 1
 62
     7
420
 16777215
370
    25
100
AcDbVertex
100
AcDb2dVertex
 10
85.20856643725948
 20
-134.2811921886521
 30
0.0
  0
VERTEX
  5
AF
330
A3
100
AcDbEntity
  8
_U+30EC_U+30A4_U+30E4_U+30FC 1
 62
     7
420
 16777215
370
    25
100
AcDbVertex
100
AcDb2dVertex
 10
85.20856643725948
 20
-130.2780110785414
 30
0.0
  0
VERTEX
  5
B0
330
A3
100
AcDbEntity
  8
_U+30EC_U+30A4_U+30E4_U+30FC 1
 62
     7
420
 16777215
370
    25
100
AcDbVertex
100
AcDb2dVertex
 10
91.20854017307629
 20
-130.2780110785414
 30
0.0
  0
VERTEX
  5
B1
330
A3
100
AcDbEntity
  8
_U+30EC_U+30A4_U+30E4_U+30FC 1
 62
     7
420
 16777215
370
    25
100
AcDbVertex
100
AcDb2dVertex
 10
91.20854017307629
 20
-134.2811921886521
 30
0.0
  0
VERTEX
  5
B2
330
A3
100
AcDbEntity
  8
_U+30EC_U+30A4_U+30E4_U+30FC 1
 62
     7
420
 16777215
370
    25
100
AcDbVertex
100
AcDb2dVertex
 10
104.1204181770002
 20
-134.2811921886521
 30
0.0
  0
VERTEX
  5
B3
330
A3
100
AcDbEntity
  8
_U+30EC_U+30A4_U+30E4_U+30FC 1
 62
     7
420
 16777215
370
    25
100
AcDbVertex
100
AcDb2dVertex
 10
104.1204181770002
 20
-133.28110246668
 30
0.0
  0
VERTEX
  5
B4
330
A3
100
AcDbEntity
  8
_U+30EC_U+30A4_U+30E4_U+30FC 1
 62
     7
420
 16777215
370
    25
100
AcDbVertex
100
AcDb2dVertex
 10
92.2083123697922
 20
-133.28110246668
 30
0.0
  0
SEQEND
  5
B5
330
A3
100
AcDbEntity
  8
_U+30EC_U+30A4_U+30E4_U+30FC 1
 62
     7
420
 16777215
370
    25
  0
ENDBLK
  5
44
330
41
100
AcDbEntity
  8
0
100
AcDbBlockEnd
  0
BLOCK
  5
66
330
64
100
AcDbEntity
  8
0
100
AcDbBlockBegin
  2
block 3
 70
     0
 10
0.0
 20
0.0
 30
0.0
  3
block 3
  1

  0
SPLINE
  5
68
330
64
100
AcDbEntity
  8
_U+30EC_U+30A4_U+30E4_U+30FC 1
370
     0
100
AcDbSpline
210
0.0
220
0.0
230
1.0
 70
    11
 71
     3
 72
    26
 73
    22
 74
     0
 42
0.0000000001
 43
0.0000000001
 12
1.0
 22
0.0
 32
0.0
 13
1.0
 23
0.0
 33
0.0
 40
0.0
 40
0.0
 40
0.0
 40
0.0
 40
1.0
 40
1.0
 40
1.0
 40
2.0
 40
2.0
 40
2.0
 40
3.0
 40
3.0
 40
3.0
 40
4.0
 40
4.0
 40
4.0
 40
5.0
 40
5.0
 40
5.0
 40
6.0
 40
6.0
 40
6.0
 40
7.0
 40
7.0
 40
7.0
 40
7.0
 10
109.363867160159
 20
-128.9175401153401
 30
0.0
 10
109.363867160159
 20
-128.9175401153401
 30
0.0
 10
108.260058566685
 20
-128.9175401153401
 30
0.0
 10
108.260058566685
 20
-128.9175401153401
 30
0.0
 10
108.260058566685
 20
-128.9175401153401
 30
0.0
 10
108.260058566685
 20
-129.247580262827
 30
0.0
 10
108.260058566685
 20
-129.247580262827
 30
0.0
 10
108.260058566685
 20
-129.247580262827
 30
0.0
 10
108.1119194608193
 20
-129.247580262827
 30
0.0
 10
108.1119194608193
 20
-129.247580262827
 30
0.0
 10
108.0967610406841
 20
-128.9154730580489
 30
0.0
 10
107.9341525337803
 20
-128.868964268998
 30
0.0
 10
107.8197753636701
 20
-128.8393364478249
 30
0.0
 10
107.8197753636701
 20
-128.8393364478249
 30
0.0
 10
107.8197753636701
 20
-128.6932643992503
 30
0.0
 10
107.8197753636701
 20
-128.6932643992503
 30
0.0
 10
107.8197753636701
 20
-128.6932643992503
 30
0.0
 10
109.363867160159
 20
-128.6932643992503
 30
0.0
 10
109.363867160159
 20
-128.6932643992503
 30
0.0
 10
109.363867160159
 20
-128.6932643992503
 30
0.0
 10
109.363867160159
 20
-128.9175401153401
 30
0.0
 10
109.363867160159
 20
-128.9175401153401
 30
0.0
  0
HATCH
  5
69
330
64
100
AcDbEntity
  8
_U+30EC_U+30A4_U+30E4_U+30FC 1
 62
     7
420
 16777215
100
AcDbHatch
 10
0.0
 20
0.0
 30
0.0
210
0.0
220
0.0
230
1.0
  2
SOLID
 70
     1
 71
     0
 91
        1
 92
        1
 93
        1
 72
     4
 94
        3
 73
     0
 74
     1
 95
       26
 96
       22
 40
0.0
 40
0.0
 40
0.0
 40
0.0
 40
1.0
 40
1.0
 40
1.0
 40
2.0
 40
2.0
 40
2.0
 40
3.0
 40
3.0
 40
3.0
 40
4.0
 40
4.0
 40
4.0
 40
5.0
 40
5.0
 40
5.0
 40
6.0
 40
6.0
 40
6.0
 40
7.0
 40
7.0
 40
7.0
 40
7.0
 10
109.363867160159
 20
-128.9175401153401
 10
109.363867160159
 20
-128.9175401153401
 10
108.260058566685
 20
-128.9175401153401
 10
108.260058566685
 20
-128.9175401153401
 10
108.260058566685
 20
-128.9175401153401
 10
108.260058566685
 20
-129.247580262827
 10
108.260058566685
 20
-129.247580262827
 10
108.260058566685
 20
-129.247580262827
 10
108.1119194608193
 20
-129.247580262827
 10
108.1119194608193
 20
-129.247580262827
 10
108.0967610406841
 20
-128.9154730580489
 10
107.9341525337803
 20
-128.868964268998
 10
107.8197753636701
 20
-128.8393364478249
 10
107.8197753636701
 20
-128.8393364478249
 10
107.8197753636701
 20
-128.6932643992503
 10
107.8197753636701
 20
-128.6932643992503
 10
107.8197753636701
 20
-128.6932643992503
 10
109.363867160159
 20
-128.6932643992503
 10
109.363867160159
 20
-128.6932643992503
 10
109.363867160159
 20
-128.6932643992503
 10
109.363867160159
 20
-128.9175401153401
 10
109.363867160159
 20
-128.9175401153401
 97
        0
 97
        0
 75
     2
 76
     1
 98
        0
  0
SPLINE
  5
6A
330
64
100
AcDbEntity
  8
_U+30EC_U+30A4_U+30E4_U+30FC 1
370
     0
100
AcDbSpline
210
0.0
220
0.0
230
1.0
 70
    11
 71
     3
 72
    29
 73
    25
 74
     0
 42
0.0000000001
 43
0.0000000001
 12
1.0
 22
0.0
 32
0.0
 13
1.0
 23
0.0
 33
0.0
 40
0.0
 40
0.0
 40
0.0
 40
0.0
 40
1.0
 40
1.0
 40
1.0
 40
2.0
 40
2.0
 40
2.0
 40
3.0
 40
3.0
 40
3.0
 40
4.0
 40
4.0
 40
4.0
 40
5.0
 40
5.0
 40
5.0
 40
6.0
 40
6.0
 40
6.0
 40
7.0
 40
7.0
 40
7.0
 40
8.0
 40
8.0
 40
8.0
 40
8.0
 10
109.1861002331201
 20
-127.2942111226903
 30
0.0
 10
109.3955620386233
 20
-127.4023871209272
 30
0.0
 10
109.4148545733407
 20
-127.5756754238352
 30
0.0
 10
109.4148545733407
 20
-127.6921196512367
 30
0.0
 10
109.4148545733407
 20
-127.8530056103979
 30
0.0
 10
109.3680012747413
 20
-127.9945990348416
 30
0.0
 10
109.1861002331201
 20
-128.0896836702345
 30
0.0
 10
108.9917968477521
 20
-128.1933810443406
 30
0.0
 10
108.7547742783669
 20
-128.2126735790579
 30
0.0
 10
108.5921657714631
 20
-128.2126735790579
 30
0.0
 10
108.4481607801796
 20
-128.2126735790579
 30
0.0
 10
108.1959797906593
 20
-128.1954481016317
 30
0.0
 10
107.9975422907089
 20
-128.0896836702345
 30
0.0
 10
107.7942816570792
 20
-127.9818521815462
 30
0.0
 10
107.7708550077795
 20
-127.820966222385
 30
0.0
 10
107.7708550077795
 20
-127.6921196512367
 30
0.0
 10
107.7708550077795
 20
-127.5333007493667
 30
0.0
 10
107.8156412490878
 20
-127.3896402676318
 30
0.0
 10
107.9975422907089
 20
-127.2942111226903
 30
0.0
 10
108.1897786187859
 20
-127.1949923727151
 30
0.0
 10
108.4185329590065
 20
-127.1715657234154
 30
0.0
 10
108.5921657714631
 20
-127.1715657234154
 30
0.0
 10
108.7630425075315
 20
-127.1715657234154
 30
0.0
 10
108.9938639050432
 20
-127.192925315424
 30
0.0
 10
109.1861002331201
 20
-127.2942111226903
 30
0.0
  0
SPLINE
  5
6B
330
64
100
AcDbEntity
  8
_U+30EC_U+30A4_U+30E4_U+30FC 1
370
     0
100
AcDbSpline
210
0.0
220
0.0
230
1.0
 70
    11
 71
     3
 72
    17
 73
    13
 74
     0
 42
0.0000000001
 43
0.0000000001
 12
1.0
 22
0.0
 32
0.0
 13
1.0
 23
0.0
 33
0.0
 40
0.0
 40
0.0
 40
0.0
 40
0.0
 40
1.0
 40
1.0
 40
1.0
 40
2.0
 40
2.0
 40
2.0
 40
3.0
 40
3.0
 40
3.0
 40
4.0
 40
4.0
 40
4.0
 40
4.0
 10
107.9637803549535
 20
-127.6921196512367
 30
0.0
 10
107.9637803549535
 20
-127.9418890739173
 30
0.0
 10
108.246967203841
 20
-127.9883978629682
 30
0.0
 10
108.5921657714631
 20
-127.9883978629682
 30
0.0
 10
108.9111816133972
 20
-127.9883978629682
 30
0.0
 10
109.2198621688756
 20
-127.9522243603731
 30
0.0
 10
109.2198621688756
 20
-127.6921196512367
 30
0.0
 10
109.2198621688756
 20
-127.4444172858472
 30
0.0
 10
108.9387423772792
 20
-127.3958414395052
 30
0.0
 10
108.5921657714631
 20
-127.3958414395052
 30
0.0
 10
108.2724609104319
 20
-127.3958414395052
 30
0.0
 10
107.9637803549535
 20
-127.4340819993915
 30
0.0
 10
107.9637803549535
 20
-127.6921196512367
 30
0.0
  0
HATCH
  5
6C
330
64
100
AcDbEntity
  8
_U+30EC_U+30A4_U+30E4_U+30FC 1
 62
     7
420
 16777215
100
AcDbHatch
 10
0.0
 20
0.0
 30
0.0
210
0.0
220
0.0
230
1.0
  2
SOLID
 70
     1
 71
     0
 91
        2
 92
        1
 93
        1
 72
     4
 94
        3
 73
     0
 74
     1
 95
       29
 96
       25
 40
0.0
 40
0.0
 40
0.0
 40
0.0
 40
1.0
 40
1.0
 40
1.0
 40
2.0
 40
2.0
 40
2.0
 40
3.0
 40
3.0
 40
3.0
 40
4.0
 40
4.0
 40
4.0
 40
5.0
 40
5.0
 40
5.0
 40
6.0
 40
6.0
 40
6.0
 40
7.0
 40
7.0
 40
7.0
 40
8.0
 40
8.0
 40
8.0
 40
8.0
 10
109.1861002331201
 20
-127.2942111226903
 10
109.3955620386233
 20
-127.4023871209272
 10
109.4148545733407
 20
-127.5756754238352
 10
109.4148545733407
 20
-127.6921196512367
 10
109.4148545733407
 20
-127.8530056103979
 10
109.3680012747413
 20
-127.9945990348416
 10
109.1861002331201
 20
-128.0896836702345
 10
108.9917968477521
 20
-128.1933810443406
 10
108.7547742783669
 20
-128.2126735790579
 10
108.5921657714631
 20
-128.2126735790579
 10
108.4481607801796
 20
-128.2126735790579
 10
108.1959797906593
 20
-128.1954481016317
 10
107.9975422907089
 20
-128.0896836702345
 10
107.7942816570792
 20
-127.9818521815462
 10
107.7708550077795
 20
-127.820966222385
 10
107.7708550077795
 20
-127.6921196512367
 10
107.7708550077795
 20
-127.5333007493667
 10
107.8156412490878
 20
-127.3896402676318
 10
107.9975422907089
 20
-127.2942111226903
 10
108.1897786187859
 20
-127.1949923727151
 10
108.4185329590065
 20
-127.1715657234154
 10
108.5921657714631
 20
-127.1715657234154
 10
108.7630425075315
 20
-127.1715657234154
 10
108.9938639050432
 20
-127.192925315424
 10
109.1861002331201
 20
-127.2942111226903
 97
        0
 97
        0
 92
        1
 93
        1
 72
     4
 94
        3
 73
     0
 74
     1
 95
       17
 96
       13
 40
0.0
 40
0.0
 40
0.0
 40
0.0
 40
1.0
 40
1.0
 40
1.0
 40
2.0
 40
2.0
 40
2.0
 40
3.0
 40
3.0
 40
3.0
 40
4.0
 40
4.0
 40
4.0
 40
4.0
 10
107.9637803549535
 20
-127.6921196512367
 10
107.9637803549535
 20
-127.9418890739173
 10
108.246967203841
 20
-127.9883978629682
 10
108.5921657714631
 20
-127.9883978629682
 10
108.9111816133972
 20
-127.9883978629682
 10
109.2198621688756
 20
-127.9522243603731
 10
109.2198621688756
 20
-127.6921196512367
 10
109.2198621688756
 20
-127.4444172858472
 10
108.9387423772792
 20
-127.3958414395052
 10
108.5921657714631
 20
-127.3958414395052
 10
108.2724609104319
 20
-127.3958414395052
 10
107.9637803549535
 20
-127.4340819993915
 10
107.9637803549535
 20
-127.6921196512367
 97
        0
 97
        0
 75
     2
 76
     1
 98
        0
  0
ENDBLK
  5
67
330
64
100
AcDbEntity
  8
0
100
AcDbBlockEnd
  0
BLOCK
  5
6F
330
6D
100
AcDbEntity
  8
0
100
AcDbBlockBegin
  2
block 4
 70
     0
 10
0.0
 20
0.0
 30
0.0
  3
block 4
  1

  0
SPLINE
  5
71
330
6D
100
AcDbEntity
  8
_U+30EC_U+30A4_U+30E4_U+30FC 1
370
     0
100
AcDbSpline
210
0.0
220
0.0
230
1.0
 70
    11
 71
     3
 72
    26
 73
    22
 74
     0
 42
0.0000000001
 43
0.0000000001
 12
1.0
 22
0.0
 32
0.0
 13
1.0
 23
0.0
 33
0.0
 40
0.0
 40
0.0
 40
0.0
 40
0.0
 40
1.0
 40
1.0
 40
1.0
 40
2.0
 40
2.0
 40
2.0
 40
3.0
 40
3.0
 40
3.0
 40
4.0
 40
4.0
 40
4.0
 40
5.0
 40
5.0
 40
5.0
 40
6.0
 40
6.0
 40
6.0
 40
7.0
 40
7.0
 40
7.0
 40
7.0
 10
109.363867160159
 20
-133.8109537425889
 30
0.0
 10
109.363867160159
 20
-133.8109537425889
 30
0.0
 10
108.260058566685
 20
-133.8109537425889
 30
0.0
 10
108.260058566685
 20
-133.8109537425889
 30
0.0
 10
108.260058566685
 20
-133.8109537425889
 30
0.0
 10
108.260058566685
 20
-134.1409938900759
 30
0.0
 10
108.260058566685
 20
-134.1409938900759
 30
0.0
 10
108.260058566685
 20
-134.1409938900759
 30
0.0
 10
108.1119194608193
 20
-134.1409938900759
 30
0.0
 10
108.1119194608193
 20
-134.1409938900759
 30
0.0
 10
108.0967610406841
 20
-133.8088866852978
 30
0.0
 10
107.9341525337803
 20
-133.7623778962469
 30
0.0
 10
107.8197753636701
 20
-133.7327500750738
 30
0.0
 10
107.8197753636701
 20
-133.7327500750738
 30
0.0
 10
107.8197753636701
 20
-133.5866780264992
 30
0.0
 10
107.8197753636701
 20
-133.5866780264992
 30
0.0
 10
107.8197753636701
 20
-133.5866780264992
 30
0.0
 10
109.363867160159
 20
-133.5866780264992
 30
0.0
 10
109.363867160159
 20
-133.5866780264992
 30
0.0
 10
109.363867160159
 20
-133.5866780264992
 30
0.0
 10
109.363867160159
 20
-133.8109537425889
 30
0.0
 10
109.363867160159
 20
-133.8109537425889
 30
0.0
  0
HATCH
  5
72
330
6D
100
AcDbEntity
  8
_U+30EC_U+30A4_U+30E4_U+30FC 1
 62
     7
420
 16777215
100
AcDbHatch
 10
0.0
 20
0.0
 30
0.0
210
0.0
220
0.0
230
1.0
  2
SOLID
 70
     1
 71
     0
 91
        1
 92
        1
 93
        1
 72
     4
 94
        3
 73
     0
 74
     1
 95
       26
 96
       22
 40
0.0
 40
0.0
 40
0.0
 40
0.0
 40
1.0
 40
1.0
 40
1.0
 40
2.0
 40
2.0
 40
2.0
 40
3.0
 40
3.0
 40
3.0
 40
4.0
 40
4.0
 40
4.0
 40
5.0
 40
5.0
 40
5.0
 40
6.0
 40
6.0
 40
6.0
 40
7.0
 40
7.0
 40
7.0
 40
7.0
 10
109.363867160159
 20
-133.8109537425889
 10
109.363867160159
 20
-133.8109537425889
 10
108.260058566685
 20
-133.8109537425889
 10
108.260058566685
 20
-133.8109537425889
 10
108.260058566685
 20
-133.8109537425889
 10
108.260058566685
 20
-134.1409938900759
 10
108.260058566685
 20
-134.1409938900759
 10
108.260058566685
 20
-134.1409938900759
 10
108.1119194608193
 20
-134.1409938900759
 10
108.1119194608193
 20
-134.1409938900759
 10
108.0967610406841
 20
-133.8088866852978
 10
107.9341525337803
 20
-133.7623778962469
 10
107.8197753636701
 20
-133.7327500750738
 10
107.8197753636701
 20
-133.7327500750738
 10
107.8197753636701
 20
-133.5866780264992
 10
107.8197753636701
 20
-133.5866780264992
 10
107.8197753636701
 20
-133.5866780264992
 10
109.363867160159
 20
-133.5866780264992
 10
109.363867160159
 20
-133.5866780264992
 10
109.363867160159
 20
-133.5866780264992
 10
109.363867160159
 20
-133.8109537425889
 10
109.363867160159
 20
-133.8109537425889
 97
        0
 97
        0
 75
     2
 76
     1
 98
        0
  0
ENDBLK
  5
70
330
6D
100
AcDbEntity
  8
0
100
AcDbBlockEnd
  0
BLOCK
  5
75
330
73
100
AcDbEntity
  8
0
100
AcDbBlockBegin
  2
block 5
 70
     0
 10
0.0
 20
0.0
 30
0.0
  3
block 5
  1

  0
SPLINE
  5
77
330
73
100
AcDbEntity
  8
_U+30EC_U+30A4_U+30E4_U+30FC 1
370
     0
100
AcDbSpline
210
0.0
220
0.0
230
1.0
 70
    11
 71
     3
 72
    32
 73
    28
 74
     0
 42
0.0000000001
 43
0.0000000001
 12
1.0
 22
0.0
 32
0.0
 13
1.0
 23
0.0
 33
0.0
 40
0.0
 40
0.0
 40
0.0
 40
0.0
 40
1.0
 40
1.0
 40
1.0
 40
2.0
 40
2.0
 40
2.0
 40
3.0
 40
3.0
 40
3.0
 40
4.0
 40
4.0
 40
4.0
 40
5.0
 40
5.0
 40
5.0
 40
6.0
 40
6.0
 40
6.0
 40
7.0
 40
7.0
 40
7.0
 40
8.0
 40
8.0
 40
8.0
 40
9.0
 40
9.0
 40
9.0
 40
9.0
 10
97.3763129096837
 20
-126.2692952158285
 30
0.0
 10
97.3763129096837
 20
-126.7853705195189
 30
0.0
 10
96.82234155565553
 20
-126.7939832582321
 30
0.0
 10
96.60874563557005
 20
-126.7939832582321
 30
0.0
 10
96.3779242380583
 20
-126.7939832582321
 30
0.0
 10
95.73093530592838
 20
-126.7746907235147
 30
0.0
 10
95.73093530592838
 20
-126.2310546559422
 30
0.0
 10
95.73093530592838
 20
-126.0577663530342
 30
0.0
 10
95.80052623473043
 20
-125.8121310449359
 30
0.0
 10
96.13263343950851
 20
-125.7742349945981
 30
0.0
 10
96.13263343950851
 20
-125.7742349945981
 30
0.0
 10
96.13263343950851
 20
-125.9878309146836
 30
0.0
 10
96.13263343950851
 20
-125.9878309146836
 30
0.0
 10
96.07544485445337
 20
-125.9985107106879
 30
0.0
 10
95.92730574858763
 20
-126.0302055891522
 30
0.0
 10
95.92730574858763
 20
-126.2331217132334
 30
0.0
 10
95.92730574858763
 20
-126.5252658103826
 30
0.0
 10
96.25527883878341
 20
-126.5652289180115
 30
0.0
 10
96.4606065297043
 20
-126.5779757713069
 30
0.0
 10
96.3820583526406
 20
-126.4849581932052
 30
0.0
 10
96.3228027102943
 20
-126.4170898121457
 30
0.0
 10
96.3228027102943
 20
-126.2351887705245
 30
0.0
 10
96.3228027102943
 20
-126.0553547861945
 30
0.0
 10
96.43097870853114
 20
-125.7528754025896
 30
0.0
 10
96.83749997579064
 20
-125.7528754025896
 30
0.0
 10
97.15651581772477
 20
-125.7528754025896
 30
0.0
 10
97.3763129096837
 20
-125.952001921637
 30
0.0
 10
97.3763129096837
 20
-126.2692952158285
 30
0.0
  0
SPLINE
  5
78
330
73
100
AcDbEntity
  8
_U+30EC_U+30A4_U+30E4_U+30FC 1
370
     0
100
AcDbSpline
210
0.0
220
0.0
230
1.0
 70
    11
 71
     3
 72
    17
 73
    13
 74
     0
 42
0.0000000001
 43
0.0000000001
 12
1.0
 22
0.0
 32
0.0
 13
1.0
 23
0.0
 33
0.0
 40
0.0
 40
0.0
 40
0.0
 40
0.0
 40
1.0
 40
1.0
 40
1.0
 40
2.0
 40
2.0
 40
2.0
 40
3.0
 40
3.0
 40
3.0
 40
4.0
 40
4.0
 40
4.0
 40
4.0
 10
96.51779511475945
 20
-126.2524142479508
 30
0.0
 10
96.51779511475945
 20
-126.5145860143783
 30
0.0
 10
96.72932397755379
 20
-126.552482064716
 30
0.0
 10
96.84576820495523
 20
-126.552482064716
 30
0.0
 10
97.02146807470297
 20
-126.552482064716
 30
0.0
 10
97.18407658160676
 20
-126.4573974293232
 30
0.0
 10
97.18407658160676
 20
-126.2734293304108
 30
0.0
 10
97.18407658160676
 20
-126.1528509884271
 30
0.0
 10
97.12482093926046
 20
-125.9771511186793
 30
0.0
 10
96.83956703308178
 20
-125.9771511186793
 30
0.0
 10
96.61494680744349
 20
-125.9771511186793
 30
0.0
 10
96.51779511475945
 20
-126.1166774858319
 30
0.0
 10
96.51779511475945
 20
-126.2524142479508
 30
0.0
  0
HATCH
  5
79
330
73
100
AcDbEntity
  8
_U+30EC_U+30A4_U+30E4_U+30FC 1
 62
     7
420
 16777215
100
AcDbHatch
 10
0.0
 20
0.0
 30
0.0
210
0.0
220
0.0
230
1.0
  2
SOLID
 70
     1
 71
     0
 91
        2
 92
        1
 93
        1
 72
     4
 94
        3
 73
     0
 74
     1
 95
       32
 96
       28
 40
0.0
 40
0.0
 40
0.0
 40
0.0
 40
1.0
 40
1.0
 40
1.0
 40
2.0
 40
2.0
 40
2.0
 40
3.0
 40
3.0
 40
3.0
 40
4.0
 40
4.0
 40
4.0
 40
5.0
 40
5.0
 40
5.0
 40
6.0
 40
6.0
 40
6.0
 40
7.0
 40
7.0
 40
7.0
 40
8.0
 40
8.0
 40
8.0
 40
9.0
 40
9.0
 40
9.0
 40
9.0
 10
97.3763129096837
 20
-126.2692952158285
 10
97.3763129096837
 20
-126.7853705195189
 10
96.82234155565553
 20
-126.7939832582321
 10
96.60874563557005
 20
-126.7939832582321
 10
96.3779242380583
 20
-126.7939832582321
 10
95.73093530592838
 20
-126.7746907235147
 10
95.73093530592838
 20
-126.2310546559422
 10
95.73093530592838
 20
-126.0577663530342
 10
95.80052623473043
 20
-125.8121310449359
 10
96.13263343950851
 20
-125.7742349945981
 10
96.13263343950851
 20
-125.7742349945981
 10
96.13263343950851
 20
-125.9878309146836
 10
96.13263343950851
 20
-125.9878309146836
 10
96.07544485445337
 20
-125.9985107106879
 10
95.92730574858763
 20
-126.0302055891522
 10
95.92730574858763
 20
-126.2331217132334
 10
95.92730574858763
 20
-126.5252658103826
 10
96.25527883878341
 20
-126.5652289180115
 10
96.4606065297043
 20
-126.5779757713069
 10
96.3820583526406
 20
-126.4849581932052
 10
96.3228027102943
 20
-126.4170898121457
 10
96.3228027102943
 20
-126.2351887705245
 10
96.3228027102943
 20
-126.0553547861945
 10
96.43097870853114
 20
-125.7528754025896
 10
96.83749997579064
 20
-125.7528754025896
 10
97.15651581772477
 20
-125.7528754025896
 10
97.3763129096837
 20
-125.952001921637
 10
97.3763129096837
 20
-126.2692952158285
 97
        0
 97
        0
 92
        1
 93
        1
 72
     4
 94
        3
 73
     0
 74
     1
 95
       17
 96
       13
 40
0.0
 40
0.0
 40
0.0
 40
0.0
 40
1.0
 40
1.0
 40
1.0
 40
2.0
 40
2.0
 40
2.0
 40
3.0
 40
3.0
 40
3.0
 40
4.0
 40
4.0
 40
4.0
 40
4.0
 10
96.51779511475945
 20
-126.2524142479508
 10
96.51779511475945
 20
-126.5145860143783
 10
96.72932397755379
 20
-126.552482064716
 10
96.84576820495523
 20
-126.552482064716
 10
97.02146807470297
 20
-126.552482064716
 10
97.18407658160676
 20
-126.4573974293232
 10
97.18407658160676
 20
-126.2734293304108
 10
97.18407658160676
 20
-126.1528509884271
 10
97.12482093926046
 20
-125.9771511186793
 10
96.83956703308178
 20
-125.9771511186793
 10
96.61494680744349
 20
-125.9771511186793
 10
96.51779511475945
 20
-126.1166774858319
 10
96.51779511475945
 20
-126.2524142479508
 97
        0
 97
        0
 75
     2
 76
     1
 98
        0
  0
ENDBLK
  5
76
330
73
100
AcDbEntity
  8
0
100
AcDbBlockEnd
  0
BLOCK
  5
8A
330
88
100
AcDbEntity
  8
0
100
AcDbBlockBegin
  2
block 6
 70
     0
 10
0.0
 20
0.0
 30
0.0
  3
block 6
  1

  0
SPLINE
  5
8C
330
88
100
AcDbEntity
  8
_U+30EC_U+30A4_U+30E4_U+30FC 1
370
     0
100
AcDbSpline
210
0.0
220
0.0
230
1.0
 70
    11
 71
     3
 72
    32
 73
    28
 74
     0
 42
0.0000000001
 43
0.0000000001
 12
1.0
 22
0.0
 32
0.0
 13
1.0
 23
0.0
 33
0.0
 40
0.0
 40
0.0
 40
0.0
 40
0.0
 40
1.0
 40
1.0
 40
1.0
 40
2.0
 40
2.0
 40
2.0
 40
3.0
 40
3.0
 40
3.0
 40
4.0
 40
4.0
 40
4.0
 40
5.0
 40
5.0
 40
5.0
 40
6.0
 40
6.0
 40
6.0
 40
7.0
 40
7.0
 40
7.0
 40
8.0
 40
8.0
 40
8.0
 40
9.0
 40
9.0
 40
9.0
 40
9.0
 10
88.17205130174172
 20
-119.9687323376293
 30
0.0
 10
87.65597599805129
 20
-119.9687323376293
 30
0.0
 10
87.64736325933816
 20
-119.4147609836012
 30
0.0
 10
87.64736325933816
 20
-119.2008205539672
 30
0.0
 10
87.64736325933816
 20
-118.9703436660039
 30
0.0
 10
87.66665579405556
 20
-118.3230102243255
 30
0.0
 10
88.210291861628
 20
-118.3230102243255
 30
0.0
 10
88.38358016453606
 20
-118.3230102243255
 30
0.0
 10
88.62921547263437
 20
-118.3929456626761
 30
0.0
 10
88.66711152297212
 20
-118.7250528674542
 30
0.0
 10
88.66711152297212
 20
-118.7250528674542
 30
0.0
 10
88.45351560288663
 20
-118.7250528674542
 30
0.0
 10
88.45351560288663
 20
-118.7250528674542
 30
0.0
 10
88.44283580688236
 20
-118.667864282399
 30
0.0
 10
88.41114092841805
 20
-118.5197251765333
 30
0.0
 10
88.20822480433684
 20
-118.5197251765333
 30
0.0
 10
87.91608070718765
 20
-118.5197251765333
 30
0.0
 10
87.87611759955875
 20
-118.8476982667291
 30
0.0
 10
87.86337074626333
 20
-119.0526814481014
 30
0.0
 10
87.95638832436508
 20
-118.9744777805862
 30
0.0
 10
88.02425670542449
 20
-118.91522213824
 30
0.0
 10
88.2061577470457
 20
-118.91522213824
 30
0.0
 10
88.38599173137573
 20
-118.91522213824
 30
0.0
 10
88.68847111498066
 20
-119.0233981364768
 30
0.0
 10
88.68847111498066
 20
-119.4295748941878
 30
0.0
 10
88.68847111498066
 20
-119.7489352456704
 30
0.0
 10
88.48934459593322
 20
-119.9687323376293
 30
0.0
 10
88.17205130174172
 20
-119.9687323376293
 30
0.0
  0
SPLINE
  5
8D
330
88
100
AcDbEntity
  8
_U+30EC_U+30A4_U+30E4_U+30FC 1
370
     0
100
AcDbSpline
210
0.0
220
0.0
230
1.0
 70
    11
 71
     3
 72
    17
 73
    13
 74
     0
 42
0.0000000001
 43
0.0000000001
 12
1.0
 22
0.0
 32
0.0
 13
1.0
 23
0.0
 33
0.0
 40
0.0
 40
0.0
 40
0.0
 40
0.0
 40
1.0
 40
1.0
 40
1.0
 40
2.0
 40
2.0
 40
2.0
 40
3.0
 40
3.0
 40
3.0
 40
4.0
 40
4.0
 40
4.0
 40
4.0
 10
88.18893226961944
 20
-119.1098700331566
 30
0.0
 10
87.92676050319193
 20
-119.1098700331566
 30
0.0
 10
87.88886445285418
 20
-119.3213988959509
 30
0.0
 10
87.88886445285418
 20
-119.4378431233524
 30
0.0
 10
87.88886445285418
 20
-119.6135429931001
 30
0.0
 10
87.98394908824707
 20
-119.7764960095524
 30
0.0
 10
88.16791718715942
 20
-119.7764960095524
 30
0.0
 10
88.28849552914316
 20
-119.7764960095524
 30
0.0
 10
88.4641953988909
 20
-119.7172403672061
 30
0.0
 10
88.4641953988909
 20
-119.4316419514789
 30
0.0
 10
88.4641953988909
 20
-119.2073662353891
 30
0.0
 10
88.32466903173828
 20
-119.1098700331566
 30
0.0
 10
88.18893226961944
 20
-119.1098700331566
 30
0.0
  0
HATCH
  5
8E
330
88
100
AcDbEntity
  8
_U+30EC_U+30A4_U+30E4_U+30FC 1
 62
     7
420
 16777215
100
AcDbHatch
 10
0.0
 20
0.0
 30
0.0
210
0.0
220
0.0
230
1.0
  2
SOLID
 70
     1
 71
     0
 91
        2
 92
        1
 93
        1
 72
     4
 94
        3
 73
     0
 74
     1
 95
       32
 96
       28
 40
0.0
 40
0.0
 40
0.0
 40
0.0
 40
1.0
 40
1.0
 40
1.0
 40
2.0
 40
2.0
 40
2.0
 40
3.0
 40
3.0
 40
3.0
 40
4.0
 40
4.0
 40
4.0
 40
5.0
 40
5.0
 40
5.0
 40
6.0
 40
6.0
 40
6.0
 40
7.0
 40
7.0
 40
7.0
 40
8.0
 40
8.0
 40
8.0
 40
9.0
 40
9.0
 40
9.0
 40
9.0
 10
88.17205130174172
 20
-119.9687323376293
 10
87.65597599805129
 20
-119.9687323376293
 10
87.64736325933816
 20
-119.4147609836012
 10
87.64736325933816
 20
-119.2008205539672
 10
87.64736325933816
 20
-118.9703436660039
 10
87.66665579405556
 20
-118.3230102243255
 10
88.210291861628
 20
-118.3230102243255
 10
88.38358016453606
 20
-118.3230102243255
 10
88.62921547263437
 20
-118.3929456626761
 10
88.66711152297212
 20
-118.7250528674542
 10
88.66711152297212
 20
-118.7250528674542
 10
88.45351560288663
 20
-118.7250528674542
 10
88.45351560288663
 20
-118.7250528674542
 10
88.44283580688236
 20
-118.667864282399
 10
88.41114092841805
 20
-118.5197251765333
 10
88.20822480433684
 20
-118.5197251765333
 10
87.91608070718765
 20
-118.5197251765333
 10
87.87611759955875
 20
-118.8476982667291
 10
87.86337074626333
 20
-119.0526814481014
 10
87.95638832436508
 20
-118.9744777805862
 10
88.02425670542449
 20
-118.91522213824
 10
88.2061577470457
 20
-118.91522213824
 10
88.38599173137573
 20
-118.91522213824
 10
88.68847111498066
 20
-119.0233981364768
 10
88.68847111498066
 20
-119.4295748941878
 10
88.68847111498066
 20
-119.7489352456704
 10
88.48934459593322
 20
-119.9687323376293
 10
88.17205130174172
 20
-119.9687323376293
 97
        0
 97
        0
 92
        1
 93
        1
 72
     4
 94
        3
 73
     0
 74
     1
 95
       17
 96
       13
 40
0.0
 40
0.0
 40
0.0
 40
0.0
 40
1.0
 40
1.0
 40
1.0
 40
2.0
 40
2.0
 40
2.0
 40
3.0
 40
3.0
 40
3.0
 40
4.0
 40
4.0
 40
4.0
 40
4.0
 10
88.18893226961944
 20
-119.1098700331566
 10
87.92676050319193
 20
-119.1098700331566
 10
87.88886445285418
 20
-119.3213988959509
 10
87.88886445285418
 20
-119.4378431233524
 10
87.88886445285418
 20
-119.6135429931001
 10
87.98394908824707
 20
-119.7764960095524
 10
88.16791718715942
 20
-119.7764960095524
 10
88.28849552914316
 20
-119.7764960095524
 10
88.4641953988909
 20
-119.7172403672061
 10
88.4641953988909
 20
-119.4316419514789
 10
88.4641953988909
 20
-119.2073662353891
 10
88.32466903173828
 20
-119.1098700331566
 10
88.18893226961944
 20
-119.1098700331566
 97
        0
 97
        0
 75
     2
 76
     1
 98
        0
  0
ENDBLK
  5
8B
330
88
100
AcDbEntity
  8
0
100
AcDbBlockEnd
  0
BLOCK
  5
9D
330
9B
100
AcDbEntity
  8
0
100
AcDbBlockBegin
  2
block 7
 70
     0
 10
0.0
 20
0.0
 30
0.0
  3
block 7
  1

  0
SPLINE
  5
9F
330
9B
100
AcDbEntity
  8
_U+30EC_U+30A4_U+30E4_U+30FC 1
370
     0
100
AcDbSpline
210
0.0
220
0.0
230
1.0
 70
    11
 71
     3
 72
    62
 73
    58
 74
     0
 42
0.0000000001
 43
0.0000000001
 12
1.0
 22
0.0
 32
0.0
 13
1.0
 23
0.0
 33
0.0
 40
0.0
 40
0.0
 40
0.0
 40
0.0
 40
1.0
 40
1.0
 40
1.0
 40
2.0
 40
2.0
 40
2.0
 40
3.0
 40
3.0
 40
3.0
 40
4.0
 40
4.0
 40
4.0
 40
5.0
 40
5.0
 40
5.0
 40
6.0
 40
6.0
 40
6.0
 40
7.0
 40
7.0
 40
7.0
 40
8.0
 40
8.0
 40
8.0
 40
9.0
 40
9.0
 40
9.0
 40
10.0
 40
10.0
 40
10.0
 40
11.0
 40
11.0
 40
11.0
 40
12.0
 40
12.0
 40
12.0
 40
13.0
 40
13.0
 40
13.0
 40
14.0
 40
14.0
 40
14.0
 40
15.0
 40
15.0
 40
15.0
 40
16.0
 40
16.0
 40
16.0
 40
17.0
 40
17.0
 40
17.0
 40
18.0
 40
18.0
 40
18.0
 40
19.0
 40
19.0
 40
19.0
 40
19.0
 10
87.58776310744334
 20
-137.7356065193856
 30
0.0
 10
87.49233396250192
 20
-137.7356065193856
 30
0.0
 10
87.27460392783414
 20
-137.714935946474
 30
0.0
 10
87.14954696171957
 20
-137.5289007902706
 30
0.0
 10
87.07582191833521
 20
-137.4165906774514
 30
0.0
 10
87.0713432942044
 20
-137.3173719274762
 30
0.0
 10
87.0672091796221
 20
-137.2326225785391
 30
0.0
 10
87.0672091796221
 20
-137.2326225785391
 30
0.0
 10
87.28735078112956
 20
-137.2326225785391
 30
0.0
 10
87.28735078112956
 20
-137.2326225785391
 30
0.0
 10
87.2894178384207
 20
-137.3063476219234
 30
0.0
 10
87.29975312487646
 20
-137.5413031340175
 30
0.0
 10
87.58328448331251
 20
-137.5413031340175
 30
0.0
 10
87.72074379317398
 20
-137.5413031340175
 30
0.0
 10
87.87336152317056
 20
-137.4717122052154
 30
0.0
 10
87.87336152317056
 20
-137.2429578649948
 30
0.0
 10
87.87336152317056
 20
-137.1265136375934
 30
0.0
 10
87.83512096328428
 20
-137.0782823007999
 30
0.0
 10
87.80342608481998
 20
-137.0465874223356
 30
0.0
 10
87.7293565318871
 20
-136.9721733598542
 30
0.0
 10
87.61291230448566
 20
-136.9597710161073
 30
0.0
 10
87.55813528627019
 20
-136.9597710161073
 30
0.0
 10
87.53884275155279
 20
-136.9597710161073
 30
0.0
 10
87.5030137585062
 20
-136.9618380733984
 30
0.0
 10
87.47545299462419
 20
-136.9659721879807
 30
0.0
 10
87.47545299462419
 20
-136.9659721879807
 30
0.0
 10
87.47545299462419
 20
-136.7709797835156
 30
0.0
 10
87.47545299462419
 20
-136.7709797835156
 30
0.0
 10
87.51369355451047
 20
-136.7778699744861
 30
0.0
 10
87.55572371943052
 20
-136.7799370317773
 30
0.0
 10
87.56226940085249
 20
-136.7799370317773
 30
0.0
 10
87.62772621507224
 20
-136.7799370317773
 30
0.0
 10
87.82650822457116
 20
-136.7585774397687
 30
0.0
 10
87.82650822457116
 20
-136.5215548703835
 30
0.0
 10
87.82650822457116
 20
-136.3437879433446
 30
0.0
 10
87.69559459613166
 20
-136.2886664155806
 30
0.0
 10
87.58535154060367
 20
-136.2886664155806
 30
0.0
 10
87.321112716885
 20
-136.2886664155806
 30
0.0
 10
87.31249997817189
 20
-136.5215548703835
 30
0.0
 10
87.30836586358959
 20
-136.5932128564767
 30
0.0
 10
87.30836586358959
 20
-136.5932128564767
 30
0.0
 10
87.10510522995983
 20
-136.5932128564767
 30
0.0
 10
87.10510522995983
 20
-136.5932128564767
 30
0.0
 10
87.11371796867296
 20
-136.4685003999107
 30
0.0
 10
87.14127873255497
 20
-136.0922959729214
 30
0.0
 10
87.5980983938991
 20
-136.0922959729214
 30
0.0
 10
87.82237410998886
 20
-136.0922959729214
 30
0.0
 10
88.06353079395635
 20
-136.2190754867786
 30
0.0
 10
88.06353079395635
 20
-136.5153536985101
 30
0.0
 10
88.06353079395635
 20
-136.7013888547135
 30
0.0
 10
87.96844615856345
 20
-136.7840711463595
 30
0.0
 10
87.86888289903973
 20
-136.845393845997
 30
0.0
 10
87.93020559867718
 20
-136.872954609879
 30
0.0
 10
88.11210664029836
 20
-136.9528808251368
 30
0.0
 10
88.11210664029836
 20
-137.2305555212479
 30
0.0
 10
88.11210664029836
 20
-137.5688638978995
 30
0.0
 10
87.86474878445743
 20
-137.7356065193856
 30
0.0
 10
87.58776310744334
 20
-137.7356065193856
 30
0.0
  0
HATCH
  5
A0
330
9B
100
AcDbEntity
  8
_U+30EC_U+30A4_U+30E4_U+30FC 1
 62
     7
420
 16777215
100
AcDbHatch
 10
0.0
 20
0.0
 30
0.0
210
0.0
220
0.0
230
1.0
  2
SOLID
 70
     1
 71
     0
 91
        1
 92
        1
 93
        1
 72
     4
 94
        3
 73
     0
 74
     1
 95
       62
 96
       58
 40
0.0
 40
0.0
 40
0.0
 40
0.0
 40
1.0
 40
1.0
 40
1.0
 40
2.0
 40
2.0
 40
2.0
 40
3.0
 40
3.0
 40
3.0
 40
4.0
 40
4.0
 40
4.0
 40
5.0
 40
5.0
 40
5.0
 40
6.0
 40
6.0
 40
6.0
 40
7.0
 40
7.0
 40
7.0
 40
8.0
 40
8.0
 40
8.0
 40
9.0
 40
9.0
 40
9.0
 40
10.0
 40
10.0
 40
10.0
 40
11.0
 40
11.0
 40
11.0
 40
12.0
 40
12.0
 40
12.0
 40
13.0
 40
13.0
 40
13.0
 40
14.0
 40
14.0
 40
14.0
 40
15.0
 40
15.0
 40
15.0
 40
16.0
 40
16.0
 40
16.0
 40
17.0
 40
17.0
 40
17.0
 40
18.0
 40
18.0
 40
18.0
 40
19.0
 40
19.0
 40
19.0
 40
19.0
 10
87.58776310744334
 20
-137.7356065193856
 10
87.49233396250192
 20
-137.7356065193856
 10
87.27460392783414
 20
-137.714935946474
 10
87.14954696171957
 20
-137.5289007902706
 10
87.07582191833521
 20
-137.4165906774514
 10
87.0713432942044
 20
-137.3173719274762
 10
87.0672091796221
 20
-137.2326225785391
 10
87.0672091796221
 20
-137.2326225785391
 10
87.28735078112956
 20
-137.2326225785391
 10
87.28735078112956
 20
-137.2326225785391
 10
87.2894178384207
 20
-137.3063476219234
 10
87.29975312487646
 20
-137.5413031340175
 10
87.58328448331251
 20
-137.5413031340175
 10
87.72074379317398
 20
-137.5413031340175
 10
87.87336152317056
 20
-137.4717122052154
 10
87.87336152317056
 20
-137.2429578649948
 10
87.87336152317056
 20
-137.1265136375934
 10
87.83512096328428
 20
-137.0782823007999
 10
87.80342608481998
 20
-137.0465874223356
 10
87.7293565318871
 20
-136.9721733598542
 10
87.61291230448566
 20
-136.9597710161073
 10
87.55813528627019
 20
-136.9597710161073
 10
87.53884275155279
 20
-136.9597710161073
 10
87.5030137585062
 20
-136.9618380733984
 10
87.47545299462419
 20
-136.9659721879807
 10
87.47545299462419
 20
-136.9659721879807
 10
87.47545299462419
 20
-136.7709797835156
 10
87.47545299462419
 20
-136.7709797835156
 10
87.51369355451047
 20
-136.7778699744861
 10
87.55572371943052
 20
-136.7799370317773
 10
87.56226940085249
 20
-136.7799370317773
 10
87.62772621507224
 20
-136.7799370317773
 10
87.82650822457116
 20
-136.7585774397687
 10
87.82650822457116
 20
-136.5215548703835
 10
87.82650822457116
 20
-136.3437879433446
 10
87.69559459613166
 20
-136.2886664155806
 10
87.58535154060367
 20
-136.2886664155806
 10
87.321112716885
 20
-136.2886664155806
 10
87.31249997817189
 20
-136.5215548703835
 10
87.30836586358959
 20
-136.5932128564767
 10
87.30836586358959
 20
-136.5932128564767
 10
87.10510522995983
 20
-136.5932128564767
 10
87.10510522995983
 20
-136.5932128564767
 10
87.11371796867296
 20
-136.4685003999107
 10
87.14127873255497
 20
-136.0922959729214
 10
87.5980983938991
 20
-136.0922959729214
 10
87.82237410998886
 20
-136.0922959729214
 10
88.06353079395635
 20
-136.2190754867786
 10
88.06353079395635
 20
-136.5153536985101
 10
88.06353079395635
 20
-136.7013888547135
 10
87.96844615856345
 20
-136.7840711463595
 10
87.86888289903973
 20
-136.845393845997
 10
87.93020559867718
 20
-136.872954609879
 10
88.11210664029836
 20
-136.9528808251368
 10
88.11210664029836
 20
-137.2305555212479
 10
88.11210664029836
 20
-137.5688638978995
 10
87.86474878445743
 20
-137.7356065193856
 10
87.58776310744334
 20
-137.7356065193856
 97
        0
 97
        0
 75
     2
 76
     1
 98
        0
  0
SPLINE
  5
A1
330
9B
100
AcDbEntity
  8
_U+30EC_U+30A4_U+30E4_U+30FC 1
370
     0
100
AcDbSpline
210
0.0
220
0.0
230
1.0
 70
    11
 71
     3
 72
    44
 73
    40
 74
     0
 42
0.0000000001
 43
0.0000000001
 12
1.0
 22
0.0
 32
0.0
 13
1.0
 23
0.0
 33
0.0
 40
0.0
 40
0.0
 40
0.0
 40
0.0
 40
1.0
 40
1.0
 40
1.0
 40
2.0
 40
2.0
 40
2.0
 40
3.0
 40
3.0
 40
3.0
 40
4.0
 40
4.0
 40
4.0
 40
5.0
 40
5.0
 40
5.0
 40
6.0
 40
6.0
 40
6.0
 40
7.0
 40
7.0
 40
7.0
 40
8.0
 40
8.0
 40
8.0
 40
9.0
 40
9.0
 40
9.0
 40
10.0
 40
10.0
 40
10.0
 40
11.0
 40
11.0
 40
11.0
 40
12.0
 40
12.0
 40
12.0
 40
13.0
 40
13.0
 40
13.0
 40
13.0
 10
88.86589353247103
 20
-137.1030869882937
 30
0.0
 10
88.64816349780324
 20
-137.2622503997122
 30
0.0
 10
88.5551459197015
 20
-137.3359754430966
 30
0.0
 10
88.50622556381094
 20
-137.47998043438
 30
0.0
 10
88.50622556381094
 20
-137.47998043438
 30
0.0
 10
89.28481714347741
 20
-137.47998043438
 30
0.0
 10
89.28481714347741
 20
-137.47998043438
 30
0.0
 10
89.28481714347741
 20
-137.47998043438
 30
0.0
 10
89.28481714347741
 20
-137.6853081253009
 30
0.0
 10
89.28481714347741
 20
-137.6853081253009
 30
0.0
 10
89.28481714347741
 20
-137.6853081253009
 30
0.0
 10
88.25680065067885
 20
-137.6853081253009
 30
0.0
 10
88.25680065067885
 20
-137.6853081253009
 30
0.0
 10
88.28849552914316
 20
-137.327707213932
 30
0.0
 10
88.3539523433629
 20
-137.2491590368683
 30
0.0
 10
88.73911401861383
 20
-136.9508137678456
 30
0.0
 10
88.9950846131679
 20
-136.7523762678952
 30
0.0
 10
89.06054142738765
 20
-136.6841633772873
 30
0.0
 10
89.06054142738765
 20
-136.5470485769744
 30
0.0
 10
89.06054142738765
 20
-136.4285372922818
 30
0.0
 10
88.98853893174592
 20
-136.2976236638423
 30
0.0
 10
88.79182397953817
 20
-136.2976236638423
 30
0.0
 10
88.5317192704018
 20
-136.2976236638423
 30
0.0
 10
88.5234510412372
 20
-136.527756042257
 30
0.0
 10
88.51897241710637
 20
-136.6442002696584
 30
0.0
 10
88.51897241710637
 20
-136.6442002696584
 30
0.0
 10
88.2946967010166
 20
-136.6442002696584
 30
0.0
 10
88.2946967010166
 20
-136.6442002696584
 30
0.0
 10
88.30330943972973
 20
-136.5174207558012
 30
0.0
 10
88.31398923573401
 20
-136.4051106429821
 30
0.0
 10
88.39425996054032
 20
-136.2865993582895
 30
0.0
 10
88.5041585065198
 20
-136.1260579086768
 30
0.0
 10
88.69053817227181
 20
-136.0922959729214
 30
0.0
 10
88.80663789012473
 20
-136.0922959729214
 30
0.0
 10
89.08396807668734
 20
-136.0922959729214
 30
0.0
 10
89.29136282489938
 20
-136.2762640718337
 30
0.0
 10
89.29136282489938
 20
-136.5491156342655
 30
0.0
 10
89.29136282489938
 20
-136.7778699744861
 30
0.0
 10
89.17491859749794
 20
-136.8770887244613
 30
0.0
 10
88.86589353247103
 20
-137.1030869882937
 30
0.0
  0
HATCH
  5
A2
330
9B
100
AcDbEntity
  8
_U+30EC_U+30A4_U+30E4_U+30FC 1
 62
     7
420
 16777215
100
AcDbHatch
 10
0.0
 20
0.0
 30
0.0
210
0.0
220
0.0
230
1.0
  2
SOLID
 70
     1
 71
     0
 91
        1
 92
        1
 93
        1
 72
     4
 94
        3
 73
     0
 74
     1
 95
       44
 96
       40
 40
0.0
 40
0.0
 40
0.0
 40
0.0
 40
1.0
 40
1.0
 40
1.0
 40
2.0
 40
2.0
 40
2.0
 40
3.0
 40
3.0
 40
3.0
 40
4.0
 40
4.0
 40
4.0
 40
5.0
 40
5.0
 40
5.0
 40
6.0
 40
6.0
 40
6.0
 40
7.0
 40
7.0
 40
7.0
 40
8.0
 40
8.0
 40
8.0
 40
9.0
 40
9.0
 40
9.0
 40
10.0
 40
10.0
 40
10.0
 40
11.0
 40
11.0
 40
11.0
 40
12.0
 40
12.0
 40
12.0
 40
13.0
 40
13.0
 40
13.0
 40
13.0
 10
88.86589353247103
 20
-137.1030869882937
 10
88.64816349780324
 20
-137.2622503997122
 10
88.5551459197015
 20
-137.3359754430966
 10
88.50622556381094
 20
-137.47998043438
 10
88.50622556381094
 20
-137.47998043438
 10
89.28481714347741
 20
-137.47998043438
 10
89.28481714347741
 20
-137.47998043438
 10
89.28481714347741
 20
-137.47998043438
 10
89.28481714347741
 20
-137.6853081253009
 10
89.28481714347741
 20
-137.6853081253009
 10
89.28481714347741
 20
-137.6853081253009
 10
88.25680065067885
 20
-137.6853081253009
 10
88.25680065067885
 20
-137.6853081253009
 10
88.28849552914316
 20
-137.327707213932
 10
88.3539523433629
 20
-137.2491590368683
 10
88.73911401861383
 20
-136.9508137678456
 10
88.9950846131679
 20
-136.7523762678952
 10
89.06054142738765
 20
-136.6841633772873
 10
89.06054142738765
 20
-136.5470485769744
 10
89.06054142738765
 20
-136.4285372922818
 10
88.98853893174592
 20
-136.2976236638423
 10
88.79182397953817
 20
-136.2976236638423
 10
88.5317192704018
 20
-136.2976236638423
 10
88.5234510412372
 20
-136.527756042257
 10
88.51897241710637
 20
-136.6442002696584
 10
88.51897241710637
 20
-136.6442002696584
 10
88.2946967010166
 20
-136.6442002696584
 10
88.2946967010166
 20
-136.6442002696584
 10
88.30330943972973
 20
-136.5174207558012
 10
88.31398923573401
 20
-136.4051106429821
 10
88.39425996054032
 20
-136.2865993582895
 10
88.5041585065198
 20
-136.1260579086768
 10
88.69053817227181
 20
-136.0922959729214
 10
88.80663789012473
 20
-136.0922959729214
 10
89.08396807668734
 20
-136.0922959729214
 10
89.29136282489938
 20
-136.2762640718337
 10
89.29136282489938
 20
-136.5491156342655
 10
89.29136282489938
 20
-136.7778699744861
 10
89.17491859749794
 20
-136.8770887244613
 10
88.86589353247103
 20
-137.1030869882937
 97
        0
 97
        0
 75
     2
 76
     1
 98
        0
  0
ENDBLK
  5
9E
330
9B
100
AcDbEntity
  8
0
100
AcDbBlockEnd
  0
ENDSEC
  0
SECTION
  2
ENTITIES
  0
INSERT
  5
42
330
1F
100
AcDbEntity
  8
_U+30EC_U+30A4_U+30E4_U+30FC 1
100
AcDbBlockReference
  2
block 2
 10
0.0
 20
0.0
 30
0.0
  0
ENDSEC
  0
SECTION
  2
OBJECTS
  0
DICTIONARY
  5
C
330
0
100
AcDbDictionary
281
     1
  3
ACAD_GROUP
350
D
  3
ACAD_LAYOUT
350
1A
  3
ACAD_MATERIAL
350
3B
  3
ACAD_MLEADERSTYLE
350
B7
  3
ACAD_MLINESTYLE
350
17
  3
ACAD_PLOTSETTINGS
350
19
  3
ACAD_PLOTSTYLENAME
350
E
  3
ACAD_TABLESTYLE
350
B6
  3
ACAD_VISUALSTYLE
350
2A
  0
SUN
  5
3F
330
29
100
AcDbSun
 90
        1
290
     0
 63
     7
421
 16777215
 40
1.0
291
     1
 91
  2455826
 92
 54000000
292
     0
 70
     2
 71
   256
280
     1
  0
DICTIONARY
  5
D
102
{ACAD_REACTORS
330
C
102
}
330
C
100
AcDbDictionary
281
     1
  0
DICTIONARY
  5
1A
102
{ACAD_REACTORS
330
C
102
}
330
C
100
AcDbDictionary
281
     1
  3
Layout1
350
1E
  3
Layout2
350
26
  3
Model
350
22
  0
DICTIONARY
  5
3B
102
{ACAD_REACTORS
330
C
102
}
330
C
100
AcDbDictionary
281
     1
  3
ByBlock
350
3D
  3
ByLayer
350
3C
  3
Global
350
3E
  0
DICTIONARY
  5
B7
102
{ACAD_REACTORS
330
C
102
}
330
C
100
AcDbDictionary
281
     1
  0
DICTIONARY
  5
17
102
{ACAD_REACTORS
330
C
102
}
330
C
100
AcDbDictionary
281
     1
  3
Standard
350
18
  0
DICTIONARY
  5
19
102
{ACAD_REACTORS
330
C
102
}
330
C
100
AcDbDictionary
281
     1
  0
ACDBDICTIONARYWDFLT
  5
E
102
{ACAD_REACTORS
330
C
102
}
330
C
100
AcDbDictionary
281
     1
  3
Normal
350
F
100
AcDbDictionaryWithDefault
340
F
  0
DICTIONARY
  5
B6
102
{ACAD_REACTORS
330
C
102
}
330
C
100
AcDbDictionary
281
     1
  0
DICTIONARY
  5
2A
102
{ACAD_REACTORS
330
C
102
}
330
C
100
AcDbDictionary
281
     1
  3
2dWireframe
350
2F
  3
3D Hidden
350
31
  3
3dWireframe
350
30
  3
Basic
350
32
  3
Brighten
350
36
  3
ColorChange
350
3A
  3
Conceptual
350
34
  3
Dim
350
35
  3
Facepattern
350
39
  3
Flat
350
2B
  3
FlatWithEdges
350
2C
  3
Gouraud
350
2D
  3
GouraudWithEdges
350
2E
  3
Linepattern
350
38
  3
Realistic
350
33
  3
Thicken
350
37
  0
LAYOUT
  5
1E
102
{ACAD_REACTORS
330
1A
102
}
330
1A
100
AcDbPlotSettings
  1

  2
none_device
  4

  6

 40
0.0
 41
0.0
 42
0.0
 43
0.0
 44
0.0
 45
0.0
 46
0.0
 47
0.0
 48
0.0
 49
0.0
140
0.0
141
0.0
142
1.0
143
1.0
 70
   688
 72
     0
 73
     0
 74
     5
  7

 75
    16
 76
     0
 77
     2
 78
   300
147
1.0
148
0.0
149
0.0
100
AcDbLayout
  1
Layout1
 70
     1
 71
     1
 10
0.0
 20
0.0
 11
12.0
 21
9.0
 12
0.0
 22
0.0
 32
0.0
 14
1.000000000000000E+20
 24
1.000000000000000E+20
 34
1.000000000000000E+20
 15
-1.000000000000000E+20
 25
-1.000000000000000E+20
 35
-1.000000000000000E+20
146
0.0
 13
0.0
 23
0.0
 33
0.0
 16
1.0
 26
0.0
 36
0.0
 17
0.0
 27
1.0
 37
0.0
 76
     0
330
1B
  0
LAYOUT
  5
26
102
{ACAD_REACTORS
330
1A
102
}
330
1A
100
AcDbPlotSettings
  1

  2
none_device
  4

  6

 40
0.0
 41
0.0
 42
0.0
 43
0.0
 44
0.0
 45
0.0
 46
0.0
 47
0.0
 48
0.0
 49
0.0
140
0.0
141
0.0
142
1.0
143
1.0
 70
   688
 72
     0
 73
     0
 74
     5
  7

 75
    16
 76
     0
 77
     2
 78
   300
147
1.0
148
0.0
149
0.0
100
AcDbLayout
  1
Layout2
 70
     1
 71
     2
 10
0.0
 20
0.0
 11
0.0
 21
0.0
 12
0.0
 22
0.0
 32
0.0
 14
0.0
 24
0.0
 34
0.0
 15
0.0
 25
0.0
 35
0.0
146
0.0
 13
0.0
 23
0.0
 33
0.0
 16
1.0
 26
0.0
 36
0.0
 17
0.0
 27
1.0
 37
0.0
 76
     0
330
23
  0
LAYOUT
  5
22
102
{ACAD_REACTORS
330
1A
102
}
330
1A
100
AcDbPlotSettings
  1

  2
none_device
  4

  6

 40
0.0
 41
0.0
 42
0.0
 43
0.0
 44
0.0
 45
0.0
 46
0.0
 47
0.0
 48
0.0
 49
0.0
140
0.0
141
0.0
142
1.0
143
1.0
 70
  1712
 72
     0
 73
     0
 74
     0
  7

 75
     0
 76
     0
 77
     2
 78
   300
147
1.0
148
0.0
149
0.0
100
AcDbLayout
  1
Model
 70
     1
 71
     0
 10
0.0
 20
0.0
 11
12.0
 21
9.0
 12
0.0
 22
0.0
 32
0.0
 14
1.000000000000000E+20
 24
1.000000000000000E+20
 34
1.000000000000000E+20
 15
-1.000000000000000E+20
 25
-1.000000000000000E+20
 35
-1.000000000000000E+20
146
0.0
 13
0.0
 23
0.0
 33
0.0
 16
1.0
 26
0.0
 36
0.0
 17
0.0
 27
1.0
 37
0.0
 76
     0
330
1F
331
29
  0
MATERIAL
  5
3D
102
{ACAD_REACTORS
330
3B
102
}
330
3B
100
AcDbMaterial
  1
ByBlock
 72
     1
 94
      127
  0
MATERIAL
  5
3C
102
{ACAD_REACTORS
330
3B
102
}
330
3B
100
AcDbMaterial
  1
ByLayer
 72
     1
 94
      127
  0
MATERIAL
  5
3E
102
{ACAD_REACTORS
330
3B
102
}
330
3B
100
AcDbMaterial
  1
Global
 72
     1
 94
      127
  0
MLINESTYLE
  5
18
102
{ACAD_REACTORS
330
17
102
}
330
17
100
AcDbMlineStyle
  2
Standard
 70
     0
  3

 62
   256
 51
90.0
 52
90.0
 71
     2
 49
0.5
 62
   256
  6
BYLAYER
 49
-0.5
 62
   256
  6
BYLAYER
  0
ACDBPLACEHOLDER
  5
F
102
{ACAD_REACTORS
330
E
102
}
330
E
  0
VISUALSTYLE
  5
2F
102
{ACAD_REACTORS
330
2A
102
}
330
2A
100
AcDbVisualStyle
  2
2dWireframe
 70
     4
177
     2
291
     0
 71
     0
176
     1
 72
     2
176
     1
 73
     0
176
     1
 90
        0
176
     1
 40
-0.6
176
     1
 41
-30.0
176
     1
 62
     5
 63
     7
421
 16777215
176
     1
 74
     1
176
     1
 91
        4
176
     1
 64
     7
176
     1
 65
   257
176
     1
 75
     1
176
     1
175
     1
176
     1
 42
1.0
176
     1
 92
        0
176
     1
 66
   257
176
     1
 43
1.0
176
     1
 76
     1
176
     1
 77
     6
176
     1
 78
     2
176
     1
 67
     7
176
     1
 79
     5
176
     1
170
     0
176
     1
171
     0
176
     1
290
     0
176
     1
 93
        1
176
     1
 44
0.0
176
     1
173
     0
176
     1
  0
VISUALSTYLE
  5
31
102
{ACAD_REACTORS
330
2A
102
}
330
2A
100
AcDbVisualStyle
  2
3D Hidden
 70
     6
177
     2
291
     0
 71
     1
176
     1
 72
     2
176
     1
 73
     2
176
     1
 90
        0
176
     1
 40
-0.6
176
     1
 41
-30.0
176
     1
 62
     5
 63
     7
421
 16777215
176
     1
 74
     2
176
     1
 91
        2
176
     1
 64
     7
176
     1
 65
   257
176
     1
 75
     2
176
     1
175
     1
176
     1
 42
40.0
176
     1
 92
        0
176
     1
 66
   257
176
     1
 43
1.0
176
     1
 76
     1
176
     1
 77
     6
176
     1
 78
     2
176
     1
 67
     7
176
     1
 79
     3
176
     1
170
     0
176
     1
171
     0
176
     1
290
     0
176
     1
 93
        1
176
     1
 44
0.0
176
     1
173
     0
176
     1
  0
VISUALSTYLE
  5
30
102
{ACAD_REACTORS
330
2A
102
}
330
2A
100
AcDbVisualStyle
  2
3dWireframe
 70
     5
177
     2
291
     0
 71
     0
176
     1
 72
     2
176
     1
 73
     0
176
     1
 90
        0
176
     1
 40
-0.6
176
     1
 41
-30.0
176
     1
 62
     5
 63
     7
421
 16777215
176
     1
 74
     1
176
     1
 91
        4
176
     1
 64
     7
176
     1
 65
   257
176
     1
 75
     1
176
     1
175
     1
176
     1
 42
1.0
176
     1
 92
        0
176
     1
 66
   257
176
     1
 43
1.0
176
     1
 76
     1
176
     1
 77
     6
176
     1
 78
     2
176
     1
 67
     7
176
     1
 79
     5
176
     1
170
     0
176
     1
171
     0
176
     1
290
     0
176
     1
 93
        1
176
     1
 44
0.0
176
     1
173
     0
176
     1
  0
VISUALSTYLE
  5
32
102
{ACAD_REACTORS
330
2A
102
}
330
2A
100
AcDbVisualStyle
  2
Basic
 70
     7
177
     2
291
     1
 71
     1
176
     1
 72
     0
176
     1
 73
     1
176
     1
 90
        0
176
     1
 40
-0.6
176
     1
 41
-30.0
176
     1
 62
     5
 63
     7
421
 16777215
176
     1
 74
     0
176
     1
 91
        4
176
     1
 64
     7
176
     1
 65
   257
176
     1
 75
     1
176
     1
175
     1
176
     1
 42
1.0
176
     1
 92
        8
176
     1
 66
     7
176
     1
 43
1.0
176
     1
 76
     1
176
     1
 77
     6
176
     1
 78
     2
176
     1
 67
     7
176
     1
 79
     5
176
     1
170
     0
176
     1
171
     0
176
     1
290
     0
176
     1
 93
        1
176
     1
 44
0.0
176
     1
173
     0
176
     1
  0
VISUALSTYLE
  5
36
102
{ACAD_REACTORS
330
2A
102
}
330
2A
100
AcDbVisualStyle
  2
Brighten
 70
    12
177
     2
291
     1
 71
     2
176
     1
 72
     2
176
     1
 73
     0
176
     1
 90
        0
176
     1
 40
-0.6
176
     1
 41
-30.0
176
     1
 62
     5
 63
     7
421
 16777215
176
     1
 74
     1
176
     1
 91
        4
176
     1
 64
     7
176
     1
 65
   257
176
     1
 75
     1
176
     1
175
     1
176
     1
 42
1.0
176
     1
 92
        8
176
     1
 66
     7
176
     1
 43
1.0
176
     1
 76
     1
176
     1
 77
     6
176
     1
 78
     2
176
     1
 67
     7
176
     1
 79
     5
176
     1
170
     0
176
     1
171
     0
176
     1
290
     0
176
     1
 93
        1
176
     1
 44
50.0
176
     1
173
     0
176
     1
  0
VISUALSTYLE
  5
3A
102
{ACAD_REACTORS
330
2A
102
}
330
2A
100
AcDbVisualStyle
  2
ColorChange
 70
    16
177
     2
291
     1
 71
     2
176
     1
 72
     2
176
     1
 73
     3
176
     1
 90
        0
176
     1
 40
-0.6
176
     1
 41
-30.0
176
     1
 62
     5
 63
     8
421
  8421504
176
     1
 74
     1
176
     1
 91
        4
176
     1
 64
     7
176
     1
 65
   257
176
     1
 75
     1
176
     1
175
     1
176
     1
 42
1.0
176
     1
 92
        8
176
     1
 66
     8
424
  8421504
176
     1
 43
1.0
176
     1
 76
     1
176
     1
 77
     6
176
     1
 78
     2
176
     1
 67
     7
176
     1
 79
     5
176
     1
170
     0
176
     1
171
     0
176
     1
290
     0
176
     1
 93
        1
176
     1
 44
0.0
176
     1
173
     0
176
     1
  0
VISUALSTYLE
  5
34
102
{ACAD_REACTORS
330
2A
102
}
330
2A
100
AcDbVisualStyle
  2
Conceptual
 70
     9
177
     2
291
     0
 71
     3
176
     1
 72
     2
176
     1
 73
     0
176
     1
 90
        0
176
     1
 40
-0.6
176
     1
 41
-30.0
176
     1
 62
     5
 63
     7
421
 16777215
176
     1
 74
     2
176
     1
 91
        2
176
     1
 64
     7
176
     1
 65
   257
176
     1
 75
     1
176
     1
175
     1
176
     1
 42
40.0
176
     1
 92
        8
176
     1
 66
     7
176
     1
 43
1.0
176
     1
 76
     1
176
     1
 77
     6
176
     1
 78
     2
176
     1
 67
     7
176
     1
 79
     3
176
     1
170
     0
176
     1
171
     0
176
     1
290
     0
176
     1
 93
        1
176
     1
 44
0.0
176
     1
173
     0
176
     1
  0
VISUALSTYLE
  5
35
102
{ACAD_REACTORS
330
2A
102
}
330
2A
100
AcDbVisualStyle
  2
Dim
 70
    11
177
     2
291
     1
 71
     2
176
     1
 72
     2
176
     1
 73
     0
176
     1
 90
        0
176
     1
 40
-0.6
176
     1
 41
-30.0
176
     1
 62
     5
 63
     7
421
 16777215
176
     1
 74
     1
176
     1
 91
        4
176
     1
 64
     7
176
     1
 65
   257
176
     1
 75
     1
176
     1
175
     1
176
     1
 42
1.0
176
     1
 92
        8
176
     1
 66
     7
176
     1
 43
1.0
176
     1
 76
     1
176
     1
 77
     6
176
     1
 78
     2
176
     1
 67
     7
176
     1
 79
     5
176
     1
170
     0
176
     1
171
     0
176
     1
290
     0
176
     1
 93
        1
176
     1
 44
-50.0
176
     1
173
     0
176
     1
  0
VISUALSTYLE
  5
39
102
{ACAD_REACTORS
330
2A
102
}
330
2A
100
AcDbVisualStyle
  2
Facepattern
 70
    15
177
     2
291
     1
 71
     2
176
     1
 72
     2
176
     1
 73
     0
176
     1
 90
        0
176
     1
 40
-0.6
176
     1
 41
-30.0
176
     1
 62
     5
 63
     7
421
 16777215
176
     1
 74
     1
176
     1
 91
        4
176
     1
 64
     7
176
     1
 65
   257
176
     1
 75
     1
176
     1
175
     1
176
     1
 42
1.0
176
     1
 92
        8
176
     1
 66
     7
176
     1
 43
1.0
176
     1
 76
     1
176
     1
 77
     6
176
     1
 78
     2
176
     1
 67
     7
176
     1
 79
     5
176
     1
170
     0
176
     1
171
     0
176
     1
290
     0
176
     1
 93
        1
176
     1
 44
0.0
176
     1
173
     0
176
     1
  0
VISUALSTYLE
  5
2B
102
{ACAD_REACTORS
330
2A
102
}
330
2A
100
AcDbVisualStyle
  2
Flat
 70
     0
177
     2
291
     1
 71
     2
176
     1
 72
     1
176
     1
 73
     1
176
     1
 90
        2
176
     1
 40
-0.6
176
     1
 41
30.0
176
     1
 62
     5
 63
     7
421
 16777215
176
     1
 74
     0
176
     1
 91
        4
176
     1
 64
     7
176
     1
 65
   257
176
     1
 75
     1
176
     1
175
     1
176
     1
 42
1.0
176
     1
 92
        8
176
     1
 66
     7
176
     1
 43
1.0
176
     1
 76
     1
176
     1
 77
     6
176
     1
 78
     2
176
     1
 67
     7
176
     1
 79
     5
176
     1
170
     0
176
     1
171
     0
176
     1
290
     0
176
     1
 93
       13
176
     1
 44
0.0
176
     1
173
     0
176
     1
  0
VISUALSTYLE
  5
2C
102
{ACAD_REACTORS
330
2A
102
}
330
2A
100
AcDbVisualStyle
  2
FlatWithEdges
 70
     1
177
     2
291
     1
 71
     2
176
     1
 72
     1
176
     1
 73
     1
176
     1
 90
        2
176
     1
 40
-0.6
176
     1
 41
30.0
176
     1
 62
     5
 63
     7
421
 16777215
176
     1
 74
     1
176
     1
 91
        4
176
     1
 64
     7
176
     1
 65
   257
176
     1
 75
     1
176
     1
175
     1
176
     1
 42
1.0
176
     1
 92
        0
176
     1
 66
   257
176
     1
 43
1.0
176
     1
 76
     1
176
     1
 77
     6
176
     1
 78
     2
176
     1
 67
     7
176
     1
 79
     5
176
     1
170
     0
176
     1
171
     0
176
     1
290
     0
176
     1
 93
       13
176
     1
 44
0.0
176
     1
173
     0
176
     1
  0
VISUALSTYLE
  5
2D
102
{ACAD_REACTORS
330
2A
102
}
330
2A
100
AcDbVisualStyle
  2
Gouraud
 70
     2
177
     2
291
     1
 71
     2
176
     1
 72
     2
176
     1
 73
     1
176
     1
 90
        2
176
     1
 40
-0.6
176
     1
 41
30.0
176
     1
 62
     5
 63
     7
421
 16777215
176
     1
 74
     0
176
     1
 91
        4
176
     1
 64
     7
176
     1
 65
   257
176
     1
 75
     1
176
     1
175
     1
176
     1
 42
1.0
176
     1
 92
        0
176
     1
 66
     7
176
     1
 43
1.0
176
     1
 76
     1
176
     1
 77
     6
176
     1
 78
     2
176
     1
 67
     7
176
     1
 79
     5
176
     1
170
     0
176
     1
171
     0
176
     1
290
     0
176
     1
 93
       13
176
     1
 44
0.0
176
     1
173
     0
176
     1
  0
VISUALSTYLE
  5
2E
102
{ACAD_REACTORS
330
2A
102
}
330
2A
100
AcDbVisualStyle
  2
GouraudWithEdges
 70
     3
177
     2
291
     1
 71
     2
176
     1
 72
     2
176
     1
 73
     1
176
     1
 90
        2
176
     1
 40
-0.6
176
     1
 41
30.0
176
     1
 62
     5
 63
     7
421
 16777215
176
     1
 74
     1
176
     1
 91
        4
176
     1
 64
     7
176
     1
 65
   257
176
     1
 75
     1
176
     1
175
     1
176
     1
 42
1.0
176
     1
 92
        0
176
     1
 66
   257
176
     1
 43
1.0
176
     1
 76
     1
176
     1
 77
     6
176
     1
 78
     2
176
     1
 67
     7
176
     1
 79
     5
176
     1
170
     0
176
     1
171
     0
176
     1
290
     0
176
     1
 93
       13
176
     1
 44
0.0
176
     1
173
     0
176
     1
  0
VISUALSTYLE
  5
38
102
{ACAD_REACTORS
330
2A
102
}
330
2A
100
AcDbVisualStyle
  2
Linepattern
 70
    14
177
     2
291
     1
 71
     2
176
     1
 72
     2
176
     1
 73
     0
176
     1
 90
        0
176
     1
 40
-0.6
176
     1
 41
-30.0
176
     1
 62
     5
 63
     7
421
 16777215
176
     1
 74
     1
176
     1
 91
        4
176
     1
 64
     7
176
     1
 65
   257
176
     1
 75
     7
176
     1
175
     7
176
     1
 42
1.0
176
     1
 92
        8
176
     1
 66
     7
176
     1
 43
1.0
176
     1
 76
     1
176
     1
 77
     6
176
     1
 78
     2
176
     1
 67
     7
176
     1
 79
     5
176
     1
170
     0
176
     1
171
     0
176
     1
290
     0
176
     1
 93
        1
176
     1
 44
0.0
176
     1
173
     0
176
     1
  0
VISUALSTYLE
  5
33
102
{ACAD_REACTORS
330
2A
102
}
330
2A
100
AcDbVisualStyle
  2
Realistic
 70
     8
177
     2
291
     0
 71
     2
176
     1
 72
     2
176
     1
 73
     0
176
     1
 90
        0
176
     1
 40
-0.6
176
     1
 41
-30.0
176
     1
 62
     5
 63
     7
421
 16777215
176
     1
 74
     1
176
     1
 91
        0
176
     1
 64
     7
176
     1
 65
   257
176
     1
 75
     1
176
     1
175
     1
176
     1
 42
1.0
176
     1
 92
        8
176
     1
 66
     8
424
  7895160
176
     1
 43
1.0
176
     1
 76
     1
176
     1
 77
     6
176
     1
 78
     2
176
     1
 67
     7
176
     1
 79
     5
176
     1
170
     0
176
     1
171
     0
176
     1
290
     0
176
     1
 93
       13
176
     1
 44
0.0
176
     1
173
     0
176
     1
  0
VISUALSTYLE
  5
37
102
{ACAD_REACTORS
330
2A
102
}
330
2A
100
AcDbVisualStyle
  2
Thicken
 70
    13
177
     2
291
     1
 71
     2
176
     1
 72
     2
176
     1
 73
     0
176
     1
 90
        0
176
     1
 40
-0.6
176
     1
 41
-30.0
176
     1
 62
     5
 63
     7
421
 16777215
176
     1
 74
     1
176
     1
 91
        4
176
     1
 64
     7
176
     1
 65
   257
176
     1
 75
     1
176
     1
175
     1
176
     1
 42
1.0
176
     1
 92
       12
176
     1
 66
     7
176
     1
 43
1.0
176
     1
 76
     1
176
     1
 77
     6
176
     1
 78
     2
176
     1
 67
     7
176
     1
 79
     5
176
     1
170
     0
176
     1
171
     0
176
     1
290
     0
176
     1
 93
        1
176
     1
 44
0.0
176
     1
173
     0
176
     1
  0
ENDSEC
  0
EOF
