  0
SECTION
  2
HEADER
  9
$ACADVER
  1
AC1024
  9
$ACADMAINTVER
 70
     6
  9
$DWGCODEPAGE
  3
UNDEFINED
  9
$INSBASE
 10
0.0
 20
0.0
 30
0.0
  9
$EXTMIN
 10
1.000000000000000E+20
 20
1.000000000000000E+20
 30
1.000000000000000E+20
  9
$EXTMAX
 10
-1.000000000000000E+20
 20
-1.000000000000000E+20
 30
-1.000000000000000E+20
  9
$LIMMIN
 10
0.0
 20
0.0
  9
$LIMMAX
 10
12.0
 20
9.0
  9
$ORTHOMODE
 70
     0
  9
$REGENMODE
 70
     1
  9
$FILLMODE
 70
     1
  9
$QTEXTMODE
 70
     0
  9
$MIRRTEXT
 70
     1
  9
$LTSCALE
 40
1.0
  9
$ATTMODE
 70
     1
  9
$TEXTSIZE
 40
0.2
  9
$TRACEWID
 40
0.05
  9
$TEXTSTYLE
  7
Standard
  9
$CLAYER
  8
0
  9
$CELTYPE
  6
ByLayer
  9
$CECOLOR
 62
   256
  9
$CELTSCALE
 40
1.0
  9
$DISPSILH
 70
     0
  9
$DIMSCALE
 40
1.0
  9
$DIMASZ
 40
0.18
  9
$DIMEXO
 40
0.0625
  9
$DIMDLI
 40
0.38
  9
$DIMRND
 40
0.0
  9
$DIMDLE
 40
0.0
  9
$DIMEXE
 40
0.18
  9
$DIMTP
 40
0.0
  9
$DIMTM
 40
0.0
  9
$DIMTXT
 40
0.18
  9
$DIMCEN
 40
0.09
  9
$DIMTSZ
 40
0.0
  9
$DIMTOL
 70
     0
  9
$DIMLIM
 70
     0
  9
$DIMTIH
 70
     1
  9
$DIMTOH
 70
     1
  9
$DIMSE1
 70
     0
  9
$DIMSE2
 70
     0
  9
$DIMTAD
 70
     0
  9
$DIMZIN
 70
     0
  9
$DIMBLK
  1

  9
$DIMASO
 70
     1
  9
$DIMSHO
 70
     1
  9
$DIMPOST
  1

  9
$DIMAPOST
  1

  9
$DIMALT
 70
     0
  9
$DIMALTD
 70
     2
  9
$DIMALTF
 40
25.4
  9
$DIMLFAC
 40
1.0
  9
$DIMTOFL
 70
     0
  9
$DIMTVP
 40
0.0
  9
$DIMTIX
 70
     0
  9
$DIMSOXD
 70
     0
  9
$DIMSAH
 70
     0
  9
$DIMBLK1
  1

  9
$DIMBLK2
  1

  9
$DIMSTYLE
  2
Standard
  9
$DIMCLRD
 70
     0
  9
$DIMCLRE
 70
     0
  9
$DIMCLRT
 70
     0
  9
$DIMTFAC
 40
1.0
  9
$DIMGAP
 40
0.09
  9
$DIMJUST
 70
     0
  9
$DIMSD1
 70
     0
  9
$DIMSD2
 70
     0
  9
$DIMTOLJ
 70
     1
  9
$DIMTZIN
 70
     0
  9
$DIMALTZ
 70
     0
  9
$DIMALTTZ
 70
     0
  9
$DIMUPT
 70
     0
  9
$DIMDEC
 70
     4
  9
$DIMTDEC
 70
     4
  9
$DIMALTU
 70
     2
  9
$DIMALTTD
 70
     2
  9
$DIMTXSTY
  7
Standard
  9
$DIMAUNIT
 70
     0
  9
$DIMADEC
 70
     0
  9
$DIMALTRND
 40
0.0
  9
$DIMAZIN
 70
     0
  9
$DIMDSEP
 70
    46
  9
$DIMATFIT
 70
     3
  9
$DIMFRAC
 70
     0
  9
$DIMLDRBLK
  1

  9
$DIMLUNIT
 70
     2
  9
$DIMLWD
 70
    -2
  9
$DIMLWE
 70
    -2
  9
$DIMTMOVE
 70
     0
  9
$DIMFXL
 40
1.0
  9
$DIMFXLON
 70
     0
  9
$DIMJOGANG
 40
0.7853981633974483
  9
$DIMTFILL
 70
     0
  9
$DIMTFILLCLR
 70
     0
  9
$DIMARCSYM
 70
     0
  9
$DIMLTYPE
  6

  9
$DIMLTEX1
  6

  9
$DIMLTEX2
  6

  9
$DIMTXTDIRECTION
 70
     0
  9
$LUNITS
 70
     2
  9
$LUPREC
 70
     4
  9
$SKETCHINC
 40
0.1
  9
$FILLETRAD
 40
0.5
  9
$AUNITS
 70
     0
  9
$AUPREC
 70
     0
  9
$MENU
  1
.
  9
$ELEVATION
 40
0.0
  9
$PELEVATION
 40
0.0
  9
$THICKNESS
 40
0.0
  9
$LIMCHECK
 70
     0
  9
$CHAMFERA
 40
0.5
  9
$CHAMFERB
 40
0.5
  9
$CHAMFERC
 40
1.0
  9
$CHAMFERD
 40
0.0
  9
$SKPOLY
 70
     0
  9
$TDCREATE
 40
2457917.593182859
  9
$TDUCREATE
 40
2457917.21818287
  9
$TDUPDATE
 40
2457917.593182859
  9
$TDUUPDATE
 40
2457917.21818287
  9
$TDINDWG
 40
0.0000000116
  9
$TDUSRTIMER
 40
0.0000000116
  9
$USRTIMER
 70
     1
  9
$ANGBASE
 50
0.0
  9
$ANGDIR
 70
     0
  9
$PDMODE
 70
     0
  9
$PDSIZE
 40
0.0
  9
$PLINEWID
 40
0.0
  9
$SPLFRAME
 70
     0
  9
$SPLINETYPE
 70
     6
  9
$SPLINESEGS
 70
     8
  9
$HANDSEED
  5
AD
  9
$SURFTAB1
 70
     6
  9
$SURFTAB2
 70
     6
  9
$SURFTYPE
 70
     6
  9
$SURFU
 70
     6
  9
$SURFV
 70
     6
  9
$UCSBASE
  2

  9
$UCSNAME
  2

  9
$UCSORG
 10
0.0
 20
0.0
 30
0.0
  9
$UCSXDIR
 10
1.0
 20
0.0
 30
0.0
  9
$UCSYDIR
 10
0.0
 20
1.0
 30
0.0
  9
$UCSORTHOREF
  2

  9
$UCSORTHOVIEW
 70
     0
  9
$UCSORGTOP
 10
0.0
 20
0.0
 30
0.0
  9
$UCSORGBOTTOM
 10
0.0
 20
0.0
 30
0.0
  9
$UCSORGLEFT
 10
0.0
 20
0.0
 30
0.0
  9
$UCSORGRIGHT
 10
0.0
 20
0.0
 30
0.0
  9
$UCSORGFRONT
 10
0.0
 20
0.0
 30
0.0
  9
$UCSORGBACK
 10
0.0
 20
0.0
 30
0.0
  9
$PUCSBASE
  2

  9
$PUCSNAME
  2

  9
$PUCSORG
 10
0.0
 20
0.0
 30
0.0
  9
$PUCSXDIR
 10
1.0
 20
0.0
 30
0.0
  9
$PUCSYDIR
 10
0.0
 20
1.0
 30
0.0
  9
$PUCSORTHOREF
  2

  9
$PUCSORTHOVIEW
 70
     0
  9
$PUCSORGTOP
 10
0.0
 20
0.0
 30
0.0
  9
$PUCSORGBOTTOM
 10
0.0
 20
0.0
 30
0.0
  9
$PUCSORGLEFT
 10
0.0
 20
0.0
 30
0.0
  9
$PUCSORGRIGHT
 10
0.0
 20
0.0
 30
0.0
  9
$PUCSORGFRONT
 10
0.0
 20
0.0
 30
0.0
  9
$PUCSORGBACK
 10
0.0
 20
0.0
 30
0.0
  9
$USERI1
 70
     0
  9
$USERI2
 70
     0
  9
$USERI3
 70
     0
  9
$USERI4
 70
     0
  9
$USERI5
 70
     0
  9
$USERR1
 40
0.0
  9
$USERR2
 40
0.0
  9
$USERR3
 40
0.0
  9
$USERR4
 40
0.0
  9
$USERR5
 40
0.0
  9
$WORLDVIEW
 70
     1
  9
$SHADEDGE
 70
     3
  9
$SHADEDIF
 70
    70
  9
$TILEMODE
 70
     1
  9
$MAXACTVP
 70
    64
  9
$PINSBASE
 10
0.0
 20
0.0
 30
0.0
  9
$PLIMCHECK
 70
     0
  9
$PEXTMIN
 10
1.000000000000000E+20
 20
1.000000000000000E+20
 30
1.000000000000000E+20
  9
$PEXTMAX
 10
-1.000000000000000E+20
 20
-1.000000000000000E+20
 30
-1.000000000000000E+20
  9
$PLIMMIN
 10
0.0
 20
0.0
  9
$PLIMMAX
 10
12.0
 20
9.0
  9
$UNITMODE
 70
     0
  9
$VISRETAIN
 70
     1
  9
$PLINEGEN
 70
     0
  9
$PSLTSCALE
 70
     1
  9
$TREEDEPTH
 70
  3020
  9
$CMLSTYLE
  2
Standard
  9
$CMLJUST
 70
     0
  9
$CMLSCALE
 40
1.0
  9
$PROXYGRAPHICS
 70
     1
  9
$MEASUREMENT
 70
     0
  9
$CELWEIGHT
370
    -1
  9
$ENDCAPS
280
     0
  9
$JOINSTYLE
280
     0
  9
$LWDISPLAY
290
     1
  9
$INSUNITS
 70
     1
  9
$HYPERLINKBASE
  1

  9
$STYLESHEET
  1

  9
$XEDIT
290
     1
  9
$CEPSNTYPE
380
     0
  9
$PSTYLEMODE
290
     1
  9
$FINGERPRINTGUID
  2
{DCD2BDB8-1D54-3456-7971-E8DD7C3DA604}
  9
$VERSIONGUID
  2
{FAEB1C32-E019-11D5-929B-00C0DF256EC4}
  9
$EXTNAMES
290
     1
  9
$PSVPSCALE
 40
0.0
  9
$OLESTARTUP
290
     0
  9
$SORTENTS
280
   127
  9
$INDEXCTL
280
     0
  9
$HIDETEXT
280
     1
  9
$XCLIPFRAME
280
     2
  9
$HALOGAP
280
     0
  9
$OBSCOLOR
 70
   257
  9
$OBSLTYPE
280
     0
  9
$INTERSECTIONDISPLAY
280
     0
  9
$INTERSECTIONCOLOR
 70
   257
  9
$DIMASSOC
280
     2
  9
$PROJECTNAME
  1

  9
$CAMERADISPLAY
290
     0
  9
$LENSLENGTH
 40
50.0
  9
$CAMERAHEIGHT
 40
0.0
  9
$STEPSPERSEC
 40
2.0
  9
$STEPSIZE
 40
6.0
  9
$3DDWFPREC
 40
2.0
  9
$PSOLWIDTH
 40
0.25
  9
$PSOLHEIGHT
 40
4.0
  9
$LOFTANG1
 40
1.570796326794897
  9
$LOFTANG2
 40
1.570796326794897
  9
$LOFTMAG1
 40
0.0
  9
$LOFTMAG2
 40
0.0
  9
$LOFTPARAM
 70
     7
  9
$LOFTNORMALS
280
     1
  9
$LATITUDE
 40
37.795
  9
$LONGITUDE
 40
-122.394
  9
$NORTHDIRECTION
 40
0.0
  9
$TIMEZONE
 70
 -8000
  9
$LIGHTGLYPHDISPLAY
280
     1
  9
$TILEMODELIGHTSYNCH
280
     1
  9
$CMATERIAL
347
3C
  9
$SOLIDHIST
280
     1
  9
$SHOWHIST
280
     1
  9
$DWFFRAME
280
     2
  9
$DGNFRAME
280
     2
  9
$REALWORLDSCALE
290
     1
  9
$INTERFERECOLOR
 62
   256
  9
$CSHADOW
280
     0
  9
$SHADOWPLANELOCATION
 40
0.0
  0
ENDSEC
  0
SECTION
  2
CLASSES
  0
CLASS
  1
ACDBDICTIONARYWDFLT
  2
AcDbDictionaryWithDefault
  3
ObjectDBX Classes
 90
        0
 91
        4
280
     0
281
     0
  0
CLASS
  1
VISUALSTYLE
  2
AcDbVisualStyle
  3
ObjectDBX Classes
 90
     4095
 91
        4
280
     0
281
     0
  0
CLASS
  1
MATERIAL
  2
AcDbMaterial
  3
ObjectDBX Classes
 90
     1153
 91
        4
280
     0
281
     0
  0
CLASS
  1
SUN
  2
AcDbSun
  3
SCENEOE
 90
     1024
 91
        4
280
     0
281
     0
  0
ENDSEC
  0
SECTION
  2
TABLES
  0
TABLE
  2
VPORT
  5
8
330
0
100
AcDbSymbolTable
 70
     1
  0
VPORT
  5
29
330
8
100
AcDbSymbolTableRecord
100
AcDbViewportTableRecord
  2
*Active
 70
     0
 10
0.0
 20
0.0
 11
1.0
 21
1.0
 12
0.0
 22
0.0
 13
0.0
 23
0.0
 14
0.5
 24
0.5
 15
0.5
 25
0.5
 16
0.0
 26
0.0
 36
1.0
 17
91.00082462281999
 27
-128.4993055234307
 37
0.0
 40
256.9986110468615
 41
0.7081814508812795
 42
50.0
 43
0.0
 44
0.0
 50
0.0
 51
0.0
 71
     0
 72
   100
 73
     1
 74
     3
 75
     0
 76
     0
 77
     0
 78
     0
281
     0
 65
     1
110
0.0
120
0.0
130
0.0
111
1.0
121
0.0
131
0.0
112
0.0
122
1.0
132
0.0
 79
     0
146
0.0
 60
     3
 61
     5
292
     1
282
     1
141
0.0
142
0.0
 63
   250
361
3F
  0
ENDTAB
  0
TABLE
  2
LTYPE
  5
5
330
0
100
AcDbSymbolTable
 70
     1
  0
LTYPE
  5
14
330
5
100
AcDbSymbolTableRecord
100
AcDbLinetypeTableRecord
  2
ByBlock
 70
     0
  3

 72
    65
 73
     0
 40
0.0
  0
LTYPE
  5
15
330
5
100
AcDbSymbolTableRecord
100
AcDbLinetypeTableRecord
  2
ByLayer
 70
     0
  3

 72
    65
 73
     0
 40
0.0
  0
LTYPE
  5
16
330
5
100
AcDbSymbolTableRecord
100
AcDbLinetypeTableRecord
  2
Continuous
 70
     0
  3
Solid line
 72
    65
 73
     0
 40
0.0
  0
ENDTAB
  0
TABLE
  2
LAYER
  5
2
330
0
100
AcDbSymbolTable
 70
     2
  0
LAYER
  5
10
330
2
100
AcDbSymbolTableRecord
100
AcDbLayerTableRecord
  2
0
 70
     0
 62
     7
  6
Continuous
370
    -3
390
F
347
3E
  0
LAYER
  5
40
330
2
100
AcDbSymbolTableRecord
100
AcDbLayerTableRecord
  2
_U+30EC_U+30A4_U+30E4_U+30FC 1
 70
     0
 62
     7
  6
Continuous
370
    -3
390
F
347
3E
  0
ENDTAB
  0
TABLE
  2
STYLE
  5
3
330
0
100
AcDbSymbolTable
 70
     1
  0
STYLE
  5
11
330
3
100
AcDbSymbolTableRecord
100
AcDbTextStyleTableRecord
  2
Standard
 70
     0
 40
0.0
 41
1.0
 50
0.0
 71
     0
 42
0.2
  3
txt
  4

  0
ENDTAB
  0
TABLE
  2
VIEW
  5
6
330
0
100
AcDbSymbolTable
 70
     0
  0
ENDTAB
  0
TABLE
  2
UCS
  5
7
330
0
100
AcDbSymbolTable
 70
     0
  0
ENDTAB
  0
TABLE
  2
APPID
  5
9
330
0
100
AcDbSymbolTable
 70
     1
  0
APPID
  5
12
330
9
100
AcDbSymbolTableRecord
100
AcDbRegAppTableRecord
  2
ACAD
 70
     0
  0
ENDTAB
  0
TABLE
  2
DIMSTYLE
  5
A
330
0
100
AcDbSymbolTable
 70
     1
100
AcDbDimStyleTable
  0
DIMSTYLE
105
27
330
A
100
AcDbSymbolTableRecord
100
AcDbDimStyleTableRecord
  2
Standard
 70
     0
178
     0
340
11
  0
ENDTAB
  0
TABLE
  2
BLOCK_RECORD
  5
1
330
0
100
AcDbSymbolTable
 70
     6
  0
BLOCK_RECORD
  5
1F
330
1
100
AcDbSymbolTableRecord
100
AcDbBlockTableRecord
  2
*Model_Space
340
22
 70
     0
280
     1
281
     0
  0
BLOCK_RECORD
  5
1B
330
1
100
AcDbSymbolTableRecord
100
AcDbBlockTableRecord
  2
*Paper_Space
340
1E
 70
     0
280
     1
281
     0
  0
BLOCK_RECORD
  5
23
330
1
100
AcDbSymbolTableRecord
100
AcDbBlockTableRecord
  2
*Paper_Space0
340
26
 70
     0
280
     1
281
     0
  0
BLOCK_RECORD
  5
41
330
1
100
AcDbSymbolTableRecord
100
AcDbBlockTableRecord
  2
block 2
340
0
102
{BLKREFS
331
42
102
}
 70
     0
280
     1
281
     0
  0
BLOCK_RECORD
  5
5A
330
1
100
AcDbSymbolTableRecord
100
AcDbBlockTableRecord
  2
block 3
340
0
102
{BLKREFS
331
5B
102
}
 70
     0
280
     1
281
     0
  0
BLOCK_RECORD
  5
6B
330
1
100
AcDbSymbolTableRecord
100
AcDbBlockTableRecord
  2
block 4
340
0
102
{BLKREFS
331
6C
102
}
 70
     0
280
     1
281
     0
  0
BLOCK_RECORD
  5
7F
330
1
100
AcDbSymbolTableRecord
100
AcDbBlockTableRecord
  2
block 5
340
0
102
{BLKREFS
331
80
102
}
 70
     0
280
     1
281
     0
  0
BLOCK_RECORD
  5
92
330
1
100
AcDbSymbolTableRecord
100
AcDbBlockTableRecord
  2
block 6
340
0
102
{BLKREFS
331
93
102
}
 70
     0
280
     1
281
     0
  0
ENDTAB
  0
ENDSEC
  0
SECTION
  2
BLOCKS
  0
BLOCK
  5
20
330
1F
100
AcDbEntity
  8
0
100
AcDbBlockBegin
  2
*Model_Space
 70
     0
 10
0.0
 20
0.0
 30
0.0
  3
*Model_Space
  1

  0
ENDBLK
  5
21
330
1F
100
AcDbEntity
  8
0
100
AcDbBlockEnd
  0
BLOCK
  5
1C
330
1B
100
AcDbEntity
 67
     1
  8
0
100
AcDbBlockBegin
  2
*Paper_Space
 70
     0
 10
0.0
 20
0.0
 30
0.0
  3
*Paper_Space
  1

  0
ENDBLK
  5
1D
330
1B
100
AcDbEntity
 67
     1
  8
0
100
AcDbBlockEnd
  0
BLOCK
  5
24
330
23
100
AcDbEntity
  8
0
100
AcDbBlockBegin
  2
*Paper_Space0
 70
     0
 10
0.0
 20
0.0
 30
0.0
  3
*Paper_Space0
  1

  0
ENDBLK
  5
25
330
23
100
AcDbEntity
  8
0
100
AcDbBlockEnd
  0
BLOCK
  5
43
330
41
100
AcDbEntity
  8
0
100
AcDbBlockBegin
  2
block 2
 70
     0
 10
0.0
 20
0.0
 30
0.0
  3
block 2
  1

  0
SPLINE
  5
45
330
41
100
AcDbEntity
  8
_U+30EC_U+30A4_U+30E4_U+30FC 1
 62
     7
420
 16777215
370
     9
100
AcDbSpline
210
0.0
220
0.0
230
1.0
 70
    11
 71
     3
 72
    17
 73
    13
 74
     0
 42
0.0000000001
 43
0.0000000001
 12
1.0
 22
0.0
 32
0.0
 13
1.0
 23
0.0
 33
0.0
 40
0.0
 40
0.0
 40
0.0
 40
0.0
 40
1.0
 40
1.0
 40
1.0
 40
2.0
 40
2.0
 40
2.0
 40
3.0
 40
3.0
 40
3.0
 40
4.0
 40
4.0
 40
4.0
 40
4.0
 10
103.9867506804103
 20
-136.5177680214259
 30
0.0
 10
103.9867506804103
 20
-136.4626288547735
 30
0.0
 10
103.9419831815524
 20
-136.4178613547843
 30
0.0
 10
103.8868440162925
 20
-136.4178613547843
 30
0.0
 10
103.8317401288094
 20
-136.4178613547843
 30
0.0
 10
103.7869373521746
 20
-136.4626288547735
 30
0.0
 10
103.7869373521746
 20
-136.5177680214259
 30
0.0
 10
103.7869373521746
 20
-136.5728719103015
 30
0.0
 10
103.8317401288094
 20
-136.6176746880676
 30
0.0
 10
103.8868440162925
 20
-136.6176746880676
 30
0.0
 10
103.9419831815524
 20
-136.6176746880676
 30
0.0
 10
103.9867506804103
 20
-136.5728719103015
 30
0.0
 10
103.9867506804103
 20
-136.5177680214259
 30
0.0
  0
SPLINE
  5
46
330
41
100
AcDbEntity
  8
_U+30EC_U+30A4_U+30E4_U+30FC 1
 62
     7
420
 16777215
370
     9
100
AcDbSpline
210
0.0
220
0.0
230
1.0
 70
    11
 71
     3
 72
    17
 73
    13
 74
     0
 42
0.0000000001
 43
0.0000000001
 12
1.0
 22
0.0
 32
0.0
 13
1.0
 23
0.0
 33
0.0
 40
0.0
 40
0.0
 40
0.0
 40
0.0
 40
1.0
 40
1.0
 40
1.0
 40
2.0
 40
2.0
 40
2.0
 40
3.0
 40
3.0
 40
3.0
 40
4.0
 40
4.0
 40
4.0
 40
4.0
 10
71.98800788565514
 20
-136.5177680214259
 30
0.0
 10
71.98800788565514
 20
-136.4626288547735
 30
0.0
 10
71.94324038679724
 20
-136.4178613547843
 30
0.0
 10
71.88743094377662
 20
-136.4178613547843
 30
0.0
 10
71.83229177851668
 20
-136.4178613547843
 30
0.0
 10
71.78752427965878
 20
-136.4626288547735
 30
0.0
 10
71.78752427965878
 20
-136.5177680214259
 30
0.0
 10
71.78752427965878
 20
-136.5728719103015
 30
0.0
 10
71.83229177851668
 20
-136.6176746880676
 30
0.0
 10
71.88743094377662
 20
-136.6176746880676
 30
0.0
 10
71.94324038679724
 20
-136.6176746880676
 30
0.0
 10
71.98800788565514
 20
-136.5728719103015
 30
0.0
 10
71.98800788565514
 20
-136.5177680214259
 30
0.0
  0
SPLINE
  5
47
330
41
100
AcDbEntity
  8
_U+30EC_U+30A4_U+30E4_U+30FC 1
 62
     7
420
 16777215
370
     9
100
AcDbSpline
210
0.0
220
0.0
230
1.0
 70
    11
 71
     3
 72
    17
 73
    13
 74
     0
 42
0.0000000001
 43
0.0000000001
 12
1.0
 22
0.0
 32
0.0
 13
1.0
 23
0.0
 33
0.0
 40
0.0
 40
0.0
 40
0.0
 40
0.0
 40
1.0
 40
1.0
 40
1.0
 40
2.0
 40
2.0
 40
2.0
 40
3.0
 40
3.0
 40
3.0
 40
4.0
 40
4.0
 40
4.0
 40
4.0
 10
106.786924220083
 20
-132.5173033002042
 30
0.0
 10
106.786924220083
 20
-132.5724424668566
 30
0.0
 10
106.8317269967178
 20
-132.6172452446233
 30
0.0
 10
106.8868308842009
 20
-132.6172452446233
 30
0.0
 10
106.9419700494608
 20
-132.6172452446233
 30
0.0
 10
106.9867375483187
 20
-132.5724424668566
 30
0.0
 10
106.9867375483187
 20
-132.5173033002042
 30
0.0
 10
106.9867375483187
 20
-132.4621994113286
 30
0.0
 10
106.9419700494608
 20
-132.4173966335625
 30
0.0
 10
106.8868308842009
 20
-132.4173966335625
 30
0.0
 10
106.8317269967178
 20
-132.4173966335625
 30
0.0
 10
106.786924220083
 20
-132.4621994113286
 30
0.0
 10
106.786924220083
 20
-132.5173033002042
 30
0.0
  0
SPLINE
  5
48
330
41
100
AcDbEntity
  8
_U+30EC_U+30A4_U+30E4_U+30FC 1
 62
     7
420
 16777215
370
     9
100
AcDbSpline
210
0.0
220
0.0
230
1.0
 70
    11
 71
     3
 72
    17
 73
    13
 74
     0
 42
0.0000000001
 43
0.0000000001
 12
1.0
 22
0.0
 32
0.0
 13
1.0
 23
0.0
 33
0.0
 40
0.0
 40
0.0
 40
0.0
 40
0.0
 40
1.0
 40
1.0
 40
1.0
 40
2.0
 40
2.0
 40
2.0
 40
3.0
 40
3.0
 40
3.0
 40
4.0
 40
4.0
 40
4.0
 40
4.0
 10
106.786924220083
 20
-125.0140727465243
 30
0.0
 10
106.786924220083
 20
-125.0692119131771
 30
0.0
 10
106.8317269967178
 20
-125.113979413166
 30
0.0
 10
106.8868308842009
 20
-125.113979413166
 30
0.0
 10
106.9419700494608
 20
-125.113979413166
 30
0.0
 10
106.9867375483187
 20
-125.0692119131771
 30
0.0
 10
106.9867375483187
 20
-125.0140727465243
 30
0.0
 10
106.9867375483187
 20
-124.9582633020939
 30
0.0
 10
106.9419700494608
 20
-124.9134605243272
 30
0.0
 10
106.8868308842009
 20
-124.9134605243272
 30
0.0
 10
106.8317269967178
 20
-124.9134605243272
 30
0.0
 10
106.786924220083
 20
-124.9582633020939
 30
0.0
 10
106.786924220083
 20
-125.0140727465243
 30
0.0
  0
POLYLINE
  5
49
330
41
100
AcDbEntity
  8
_U+30EC_U+30A4_U+30E4_U+30FC 1
 62
     7
420
 16777215
370
     9
100
AcDb2dPolyline
 66
     1
 10
0.0
 20
0.0
 30
0.0
  0
VERTEX
  5
4A
330
49
100
AcDbEntity
  8
_U+30EC_U+30A4_U+30E4_U+30FC 1
 62
     7
420
 16777215
370
     9
100
AcDbVertex
100
AcDb2dVertex
 10
106.8868308842009
 20
-124.9134605243272
 30
0.0
  0
VERTEX
  5
4B
330
49
100
AcDbEntity
  8
_U+30EC_U+30A4_U+30E4_U+30FC 1
 62
     7
420
 16777215
370
     9
100
AcDbVertex
100
AcDb2dVertex
 10
106.8868308842009
 20
-132.5173033002042
 30
0.0
  0
SEQEND
  5
4C
330
49
100
AcDbEntity
  8
_U+30EC_U+30A4_U+30E4_U+30FC 1
 62
     7
420
 16777215
370
     9
  0
POLYLINE
  5
4D
330
41
100
AcDbEntity
  8
_U+30EC_U+30A4_U+30E4_U+30FC 1
 62
     7
420
 16777215
370
     9
100
AcDb2dPolyline
 66
     1
 10
0.0
 20
0.0
 30
0.0
  0
VERTEX
  5
4E
330
4D
100
AcDbEntity
  8
_U+30EC_U+30A4_U+30E4_U+30FC 1
 62
     7
420
 16777215
370
     9
100
AcDbVertex
100
AcDb2dVertex
 10
93.28110956464508
 20
-125.0140727465243
 30
0.0
  0
VERTEX
  5
4F
330
4D
100
AcDbEntity
  8
_U+30EC_U+30A4_U+30E4_U+30FC 1
 62
     7
420
 16777215
370
     9
100
AcDbVertex
100
AcDb2dVertex
 10
107.8866030809168
 20
-125.0140727465243
 30
0.0
  0
SEQEND
  5
50
330
4D
100
AcDbEntity
  8
_U+30EC_U+30A4_U+30E4_U+30FC 1
 62
     7
420
 16777215
370
     9
  0
POLYLINE
  5
51
330
41
100
AcDbEntity
  8
_U+30EC_U+30A4_U+30E4_U+30FC 1
 62
     7
420
 16777215
370
     9
100
AcDb2dPolyline
 66
     1
 10
0.0
 20
0.0
 30
0.0
  0
VERTEX
  5
52
330
51
100
AcDbEntity
  8
_U+30EC_U+30A4_U+30E4_U+30FC 1
 62
     7
420
 16777215
370
     9
100
AcDbVertex
100
AcDb2dVertex
 10
105.4268248103376
 20
-132.5173033002042
 30
0.0
  0
VERTEX
  5
53
330
51
100
AcDbEntity
  8
_U+30EC_U+30A4_U+30E4_U+30FC 1
 62
     7
420
 16777215
370
     9
100
AcDbVertex
100
AcDb2dVertex
 10
107.8866030809168
 20
-132.5173033002042
 30
0.0
  0
SEQEND
  5
54
330
51
100
AcDbEntity
  8
_U+30EC_U+30A4_U+30E4_U+30FC 1
 62
     7
420
 16777215
370
     9
  0
SPLINE
  5
55
330
41
100
AcDbEntity
  8
_U+30EC_U+30A4_U+30E4_U+30FC 1
 62
     7
420
 16777215
370
     9
100
AcDbSpline
210
0.0
220
0.0
230
1.0
 70
    11
 71
     3
 72
    17
 73
    13
 74
     0
 42
0.0000000001
 43
0.0000000001
 12
1.0
 22
0.0
 32
0.0
 13
1.0
 23
0.0
 33
0.0
 40
0.0
 40
0.0
 40
0.0
 40
0.0
 40
1.0
 40
1.0
 40
1.0
 40
2.0
 40
2.0
 40
2.0
 40
3.0
 40
3.0
 40
3.0
 40
4.0
 40
4.0
 40
4.0
 40
4.0
 10
106.786924220083
 20
-131.517213578232
 30
0.0
 10
106.786924220083
 20
-131.5723174671069
 30
0.0
 10
106.8317269967178
 20
-131.6171202448737
 30
0.0
 10
106.8868308842009
 20
-131.6171202448737
 30
0.0
 10
106.9419700494608
 20
-131.6171202448737
 30
0.0
 10
106.9867375483187
 20
-131.5723174671069
 30
0.0
 10
106.9867375483187
 20
-131.517213578232
 30
0.0
 10
106.9867375483187
 20
-131.462074411579
 30
0.0
 10
106.9419700494608
 20
-131.4173069115904
 30
0.0
 10
106.8868308842009
 20
-131.4173069115904
 30
0.0
 10
106.8317269967178
 20
-131.4173069115904
 30
0.0
 10
106.786924220083
 20
-131.462074411579
 30
0.0
 10
106.786924220083
 20
-131.517213578232
 30
0.0
  0
POLYLINE
  5
56
330
41
100
AcDbEntity
  8
_U+30EC_U+30A4_U+30E4_U+30FC 1
 62
     7
420
 16777215
370
     9
100
AcDb2dPolyline
 66
     1
 10
0.0
 20
0.0
 30
0.0
  0
VERTEX
  5
57
330
56
100
AcDbEntity
  8
_U+30EC_U+30A4_U+30E4_U+30FC 1
 62
     7
420
 16777215
370
     9
100
AcDbVertex
100
AcDb2dVertex
 10
105.4268248103376
 20
-131.517213578232
 30
0.0
  0
VERTEX
  5
58
330
56
100
AcDbEntity
  8
_U+30EC_U+30A4_U+30E4_U+30FC 1
 62
     7
420
 16777215
370
     9
100
AcDbVertex
100
AcDb2dVertex
 10
107.8866030809168
 20
-131.517213578232
 30
0.0
  0
SEQEND
  5
59
330
56
100
AcDbEntity
  8
_U+30EC_U+30A4_U+30E4_U+30FC 1
 62
     7
420
 16777215
370
     9
  0
INSERT
  5
5B
330
41
100
AcDbEntity
  8
_U+30EC_U+30A4_U+30E4_U+30FC 1
100
AcDbBlockReference
  2
block 3
 10
0.0
 20
0.0
 30
0.0
  0
INSERT
  5
6C
330
41
100
AcDbEntity
  8
_U+30EC_U+30A4_U+30E4_U+30FC 1
100
AcDbBlockReference
  2
block 4
 10
0.0
 20
0.0
 30
0.0
  0
SPLINE
  5
71
330
41
100
AcDbEntity
  8
_U+30EC_U+30A4_U+30E4_U+30FC 1
 62
     7
420
 16777215
370
     9
100
AcDbSpline
210
0.0
220
0.0
230
1.0
 70
    11
 71
     3
 72
    17
 73
    13
 74
     0
 42
0.0000000001
 43
0.0000000001
 12
1.0
 22
0.0
 32
0.0
 13
1.0
 23
0.0
 33
0.0
 40
0.0
 40
0.0
 40
0.0
 40
0.0
 40
1.0
 40
1.0
 40
1.0
 40
2.0
 40
2.0
 40
2.0
 40
3.0
 40
3.0
 40
3.0
 40
4.0
 40
4.0
 40
4.0
 40
4.0
 10
84.97534720097839
 20
-122.1334658028
 30
0.0
 10
84.92024116683749
 20
-122.1334658028
 30
0.0
 10
84.87543839020273
 20
-122.1782333027889
 30
0.0
 10
84.87543839020273
 20
-122.2333724694417
 30
0.0
 10
84.87543839020273
 20
-122.2884763583169
 30
0.0
 10
84.92024116683749
 20
-122.3332791360833
 30
0.0
 10
84.97534720097839
 20
-122.3332791360833
 30
0.0
 10
85.03048421958052
 20
-122.3332791360833
 30
0.0
 10
85.0752517184384
 20
-122.2884763583169
 30
0.0
 10
85.0752517184384
 20
-122.2333724694417
 30
0.0
 10
85.0752517184384
 20
-122.1782333027889
 30
0.0
 10
85.03048421958052
 20
-122.1334658028
 30
0.0
 10
84.97534720097839
 20
-122.1334658028
 30
0.0
  0
POLYLINE
  5
72
330
41
100
AcDbEntity
  8
_U+30EC_U+30A4_U+30E4_U+30FC 1
 62
     7
420
 16777215
370
     9
100
AcDb2dPolyline
 66
     1
 10
0.0
 20
0.0
 30
0.0
  0
VERTEX
  5
73
330
72
100
AcDbEntity
  8
_U+30EC_U+30A4_U+30E4_U+30FC 1
 62
     7
420
 16777215
370
     9
100
AcDbVertex
100
AcDb2dVertex
 10
90.97704740120437
 20
-122.2333724694417
 30
0.0
  0
VERTEX
  5
74
330
72
100
AcDbEntity
  8
_U+30EC_U+30A4_U+30E4_U+30FC 1
 62
     7
420
 16777215
370
     9
100
AcDbVertex
100
AcDb2dVertex
 10
84.97534720097839
 20
-122.2333724694417
 30
0.0
  0
SEQEND
  5
75
330
72
100
AcDbEntity
  8
_U+30EC_U+30A4_U+30E4_U+30FC 1
 62
     7
420
 16777215
370
     9
  0
POLYLINE
  5
76
330
41
100
AcDbEntity
  8
_U+30EC_U+30A4_U+30E4_U+30FC 1
 62
     7
420
 16777215
370
     9
100
AcDb2dPolyline
 66
     1
 10
0.0
 20
0.0
 30
0.0
  0
VERTEX
  5
77
330
76
100
AcDbEntity
  8
_U+30EC_U+30A4_U+30E4_U+30FC 1
 62
     7
420
 16777215
370
     9
100
AcDbVertex
100
AcDb2dVertex
 10
84.97534720097839
 20
-120.7733310809176
 30
0.0
  0
VERTEX
  5
78
330
76
100
AcDbEntity
  8
_U+30EC_U+30A4_U+30E4_U+30FC 1
 62
     7
420
 16777215
370
     9
100
AcDbVertex
100
AcDb2dVertex
 10
84.97534720097839
 20
-123.2331446914139
 30
0.0
  0
SEQEND
  5
79
330
76
100
AcDbEntity
  8
_U+30EC_U+30A4_U+30E4_U+30FC 1
 62
     7
420
 16777215
370
     9
  0
SPLINE
  5
7A
330
41
100
AcDbEntity
  8
_U+30EC_U+30A4_U+30E4_U+30FC 1
 62
     7
420
 16777215
370
     9
100
AcDbSpline
210
0.0
220
0.0
230
1.0
 70
    11
 71
     3
 72
    17
 73
    13
 74
     0
 42
0.0000000001
 43
0.0000000001
 12
1.0
 22
0.0
 32
0.0
 13
1.0
 23
0.0
 33
0.0
 40
0.0
 40
0.0
 40
0.0
 40
0.0
 40
1.0
 40
1.0
 40
1.0
 40
2.0
 40
2.0
 40
2.0
 40
3.0
 40
3.0
 40
3.0
 40
4.0
 40
4.0
 40
4.0
 40
4.0
 10
90.97704740120437
 20
-122.1334658028
 30
0.0
 10
90.92190823594443
 20
-122.1334658028
 30
0.0
 10
90.87714073708655
 20
-122.1782333027889
 30
0.0
 10
90.87714073708655
 20
-122.2333724694417
 30
0.0
 10
90.87714073708655
 20
-122.2884763583169
 30
0.0
 10
90.92190823594443
 20
-122.3332791360833
 30
0.0
 10
90.97704740120437
 20
-122.3332791360833
 30
0.0
 10
91.03215128868744
 20
-122.3332791360833
 30
0.0
 10
91.07695406532221
 20
-122.2884763583169
 30
0.0
 10
91.07695406532221
 20
-122.2333724694417
 30
0.0
 10
91.07695406532221
 20
-122.1782333027889
 30
0.0
 10
91.03215128868744
 20
-122.1334658028
 30
0.0
 10
90.97704740120437
 20
-122.1334658028
 30
0.0
  0
POLYLINE
  5
7B
330
41
100
AcDbEntity
  8
_U+30EC_U+30A4_U+30E4_U+30FC 1
 62
     7
420
 16777215
370
     9
100
AcDb2dPolyline
 66
     1
 10
0.0
 20
0.0
 30
0.0
  0
VERTEX
  5
7C
330
7B
100
AcDbEntity
  8
_U+30EC_U+30A4_U+30E4_U+30FC 1
 62
     7
420
 16777215
370
     9
100
AcDbVertex
100
AcDb2dVertex
 10
90.97704740120437
 20
-120.7733310809176
 30
0.0
  0
VERTEX
  5
7D
330
7B
100
AcDbEntity
  8
_U+30EC_U+30A4_U+30E4_U+30FC 1
 62
     7
420
 16777215
370
     9
100
AcDbVertex
100
AcDb2dVertex
 10
90.97704740120437
 20
-123.2331446914139
 30
0.0
  0
SEQEND
  5
7E
330
7B
100
AcDbEntity
  8
_U+30EC_U+30A4_U+30E4_U+30FC 1
 62
     7
420
 16777215
370
     9
  0
INSERT
  5
80
330
41
100
AcDbEntity
  8
_U+30EC_U+30A4_U+30E4_U+30FC 1
100
AcDbBlockReference
  2
block 5
 10
0.0
 20
0.0
 30
0.0
  0
POLYLINE
  5
86
330
41
100
AcDbEntity
  8
_U+30EC_U+30A4_U+30E4_U+30FC 1
 62
     7
420
 16777215
370
     9
100
AcDb2dPolyline
 66
     1
 10
0.0
 20
0.0
 30
0.0
  0
VERTEX
  5
87
330
86
100
AcDbEntity
  8
_U+30EC_U+30A4_U+30E4_U+30FC 1
 62
     7
420
 16777215
370
     9
100
AcDbVertex
100
AcDb2dVertex
 10
71.88743094377662
 20
-136.5177680214259
 30
0.0
  0
VERTEX
  5
88
330
86
100
AcDbEntity
  8
_U+30EC_U+30A4_U+30E4_U+30FC 1
 62
     7
420
 16777215
370
     9
100
AcDbVertex
100
AcDb2dVertex
 10
103.8868440162925
 20
-136.5177680214259
 30
0.0
  0
SEQEND
  5
89
330
86
100
AcDbEntity
  8
_U+30EC_U+30A4_U+30E4_U+30FC 1
 62
     7
420
 16777215
370
     9
  0
POLYLINE
  5
8A
330
41
100
AcDbEntity
  8
_U+30EC_U+30A4_U+30E4_U+30FC 1
 62
     7
420
 16777215
370
     9
100
AcDb2dPolyline
 66
     1
 10
0.0
 20
0.0
 30
0.0
  0
VERTEX
  5
8B
330
8A
100
AcDbEntity
  8
_U+30EC_U+30A4_U+30E4_U+30FC 1
 62
     7
420
 16777215
370
     9
100
AcDbVertex
100
AcDb2dVertex
 10
71.88743094377662
 20
-134.0569313553746
 30
0.0
  0
VERTEX
  5
8C
330
8A
100
AcDbEntity
  8
_U+30EC_U+30A4_U+30E4_U+30FC 1
 62
     7
420
 16777215
370
     9
100
AcDbVertex
100
AcDb2dVertex
 10
71.88743094377662
 20
-137.5175402433985
 30
0.0
  0
SEQEND
  5
8D
330
8A
100
AcDbEntity
  8
_U+30EC_U+30A4_U+30E4_U+30FC 1
 62
     7
420
 16777215
370
     9
  0
POLYLINE
  5
8E
330
41
100
AcDbEntity
  8
_U+30EC_U+30A4_U+30E4_U+30FC 1
 62
     7
420
 16777215
370
     9
100
AcDb2dPolyline
 66
     1
 10
0.0
 20
0.0
 30
0.0
  0
VERTEX
  5
8F
330
8E
100
AcDbEntity
  8
_U+30EC_U+30A4_U+30E4_U+30FC 1
 62
     7
420
 16777215
370
     9
100
AcDbVertex
100
AcDb2dVertex
 10
103.8868440162925
 20
-135.0577266329022
 30
0.0
  0
VERTEX
  5
90
330
8E
100
AcDbEntity
  8
_U+30EC_U+30A4_U+30E4_U+30FC 1
 62
     7
420
 16777215
370
     9
100
AcDbVertex
100
AcDb2dVertex
 10
103.8868440162925
 20
-137.5175402433985
 30
0.0
  0
SEQEND
  5
91
330
8E
100
AcDbEntity
  8
_U+30EC_U+30A4_U+30E4_U+30FC 1
 62
     7
420
 16777215
370
     9
  0
INSERT
  5
93
330
41
100
AcDbEntity
  8
_U+30EC_U+30A4_U+30E4_U+30FC 1
100
AcDbBlockReference
  2
block 6
 10
0.0
 20
0.0
 30
0.0
  0
POLYLINE
  5
9A
330
41
100
AcDbEntity
  8
_U+30EC_U+30A4_U+30E4_U+30FC 1
 62
     7
420
 16777215
370
    25
100
AcDb2dPolyline
 66
     1
 10
0.0
 20
0.0
 30
0.0
  0
VERTEX
  5
9B
330
9A
100
AcDbEntity
  8
_U+30EC_U+30A4_U+30E4_U+30FC 1
 62
     7
420
 16777215
370
    25
100
AcDbVertex
100
AcDb2dVertex
 10
90.97531879013736
 20
-132.5173033002042
 30
0.0
  0
VERTEX
  5
9C
330
9A
100
AcDbEntity
  8
_U+30EC_U+30A4_U+30E4_U+30FC 1
 62
     7
420
 16777215
370
    25
100
AcDbVertex
100
AcDb2dVertex
 10
103.8868440162925
 20
-132.5173033002042
 30
0.0
  0
VERTEX
  5
9D
330
9A
100
AcDbEntity
  8
_U+30EC_U+30A4_U+30E4_U+30FC 1
 62
     7
420
 16777215
370
    25
100
AcDbVertex
100
AcDb2dVertex
 10
103.8868440162925
 20
-131.517213578232
 30
0.0
  0
VERTEX
  5
9E
330
9A
100
AcDbEntity
  8
_U+30EC_U+30A4_U+30E4_U+30FC 1
 62
     7
420
 16777215
370
    25
100
AcDbVertex
100
AcDb2dVertex
 10
91.97509098685327
 20
-131.517213578232
 30
0.0
  0
VERTEX
  5
9F
330
9A
100
AcDbEntity
  8
_U+30EC_U+30A4_U+30E4_U+30FC 1
 62
     7
420
 16777215
370
    25
100
AcDbVertex
100
AcDb2dVertex
 10
91.97509098685327
 20
-125.0140727465243
 30
0.0
  0
VERTEX
  5
A0
330
9A
100
AcDbEntity
  8
_U+30EC_U+30A4_U+30E4_U+30FC 1
 62
     7
420
 16777215
370
    25
100
AcDbVertex
100
AcDb2dVertex
 10
90.97531879013736
 20
-125.0140727465243
 30
0.0
  0
VERTEX
  5
A1
330
9A
100
AcDbEntity
  8
_U+30EC_U+30A4_U+30E4_U+30FC 1
 62
     7
420
 16777215
370
    25
100
AcDbVertex
100
AcDb2dVertex
 10
90.97531879013736
 20
-131.517213578232
 30
0.0
  0
VERTEX
  5
A2
330
9A
100
AcDbEntity
  8
_U+30EC_U+30A4_U+30E4_U+30FC 1
 62
     7
420
 16777215
370
    25
100
AcDbVertex
100
AcDb2dVertex
 10
84.97534720097839
 20
-131.517213578232
 30
0.0
  0
VERTEX
  5
A3
330
9A
100
AcDbEntity
  8
_U+30EC_U+30A4_U+30E4_U+30FC 1
 62
     7
420
 16777215
370
    25
100
AcDbVertex
100
AcDb2dVertex
 10
84.97534720097839
 20
-125.0140727465243
 30
0.0
  0
VERTEX
  5
A4
330
9A
100
AcDbEntity
  8
_U+30EC_U+30A4_U+30E4_U+30FC 1
 62
     7
420
 16777215
370
    25
100
AcDbVertex
100
AcDb2dVertex
 10
83.97557497900617
 20
-125.0140727465243
 30
0.0
  0
VERTEX
  5
A5
330
9A
100
AcDbEntity
  8
_U+30EC_U+30A4_U+30E4_U+30FC 1
 62
     7
420
 16777215
370
    25
100
AcDbVertex
100
AcDb2dVertex
 10
83.97557497900617
 20
-131.517213578232
 30
0.0
  0
VERTEX
  5
A6
330
9A
100
AcDbEntity
  8
_U+30EC_U+30A4_U+30E4_U+30FC 1
 62
     7
420
 16777215
370
    25
100
AcDbVertex
100
AcDb2dVertex
 10
71.88743094377662
 20
-131.517213578232
 30
0.0
  0
VERTEX
  5
A7
330
9A
100
AcDbEntity
  8
_U+30EC_U+30A4_U+30E4_U+30FC 1
 62
     7
420
 16777215
370
    25
100
AcDbVertex
100
AcDb2dVertex
 10
71.88743094377662
 20
-132.5173033002042
 30
0.0
  0
VERTEX
  5
A8
330
9A
100
AcDbEntity
  8
_U+30EC_U+30A4_U+30E4_U+30FC 1
 62
     7
420
 16777215
370
    25
100
AcDbVertex
100
AcDb2dVertex
 10
84.97534720097839
 20
-132.5173033002042
 30
0.0
  0
VERTEX
  5
A9
330
9A
100
AcDbEntity
  8
_U+30EC_U+30A4_U+30E4_U+30FC 1
 62
     7
420
 16777215
370
    25
100
AcDbVertex
100
AcDb2dVertex
 10
90.97531879013736
 20
-132.5173033002042
 30
0.0
  0
SEQEND
  5
AA
330
9A
100
AcDbEntity
  8
_U+30EC_U+30A4_U+30E4_U+30FC 1
 62
     7
420
 16777215
370
    25
  0
ENDBLK
  5
44
330
41
100
AcDbEntity
  8
0
100
AcDbBlockEnd
  0
BLOCK
  5
5C
330
5A
100
AcDbEntity
  8
0
100
AcDbBlockBegin
  2
block 3
 70
     0
 10
0.0
 20
0.0
 30
0.0
  3
block 3
  1

  0
SPLINE
  5
5E
330
5A
100
AcDbEntity
  8
_U+30EC_U+30A4_U+30E4_U+30FC 1
370
     0
100
AcDbSpline
210
0.0
220
0.0
230
1.0
 70
    11
 71
     3
 72
    32
 73
    28
 74
     0
 42
0.0000000001
 43
0.0000000001
 12
1.0
 22
0.0
 32
0.0
 13
1.0
 23
0.0
 33
0.0
 40
0.0
 40
0.0
 40
0.0
 40
0.0
 40
1.0
 40
1.0
 40
1.0
 40
2.0
 40
2.0
 40
2.0
 40
3.0
 40
3.0
 40
3.0
 40
4.0
 40
4.0
 40
4.0
 40
5.0
 40
5.0
 40
5.0
 40
6.0
 40
6.0
 40
6.0
 40
7.0
 40
7.0
 40
7.0
 40
8.0
 40
8.0
 40
8.0
 40
9.0
 40
9.0
 40
9.0
 40
9.0
 10
109.1812770994408
 20
-129.1239013349065
 30
0.0
 10
109.1812770994408
 20
-129.6399766385969
 30
0.0
 10
108.6273057454126
 20
-129.6485893773101
 30
0.0
 10
108.4133653157786
 20
-129.6485893773101
 30
0.0
 10
108.1828884278154
 20
-129.6485893773101
 30
0.0
 10
107.5355549861369
 20
-129.6292968425927
 30
0.0
 10
107.5355549861369
 20
-129.0856607750202
 30
0.0
 10
107.5355549861369
 20
-128.9123724721122
 30
0.0
 10
107.6054904244875
 20
-128.6667371640139
 30
0.0
 10
107.9375976292656
 20
-128.6288411136761
 30
0.0
 10
107.9375976292656
 20
-128.6288411136761
 30
0.0
 10
107.9375976292656
 20
-128.8424370337616
 30
0.0
 10
107.9375976292656
 20
-128.8424370337616
 30
0.0
 10
107.8804090442105
 20
-128.8531168297659
 30
0.0
 10
107.7322699383447
 20
-128.8848117082302
 30
0.0
 10
107.7322699383447
 20
-129.0877278323114
 30
0.0
 10
107.7322699383447
 20
-129.3798719294606
 30
0.0
 10
108.0602430285405
 20
-129.4198350370895
 30
0.0
 10
108.2652262099129
 20
-129.4325818903849
 30
0.0
 10
108.1870225423977
 20
-129.3395643122832
 30
0.0
 10
108.1277669000514
 20
-129.2716959312237
 30
0.0
 10
108.1277669000514
 20
-129.0897948896026
 30
0.0
 10
108.1277669000514
 20
-128.9099609052725
 30
0.0
 10
108.2359428982882
 20
-128.6074815216676
 30
0.0
 10
108.6421196559992
 20
-128.6074815216676
 30
0.0
 10
108.9614800074819
 20
-128.6074815216676
 30
0.0
 10
109.1812770994408
 20
-128.806608040715
 30
0.0
 10
109.1812770994408
 20
-129.1239013349065
 30
0.0
  0
SPLINE
  5
5F
330
5A
100
AcDbEntity
  8
_U+30EC_U+30A4_U+30E4_U+30FC 1
370
     0
100
AcDbSpline
210
0.0
220
0.0
230
1.0
 70
    11
 71
     3
 72
    17
 73
    13
 74
     0
 42
0.0000000001
 43
0.0000000001
 12
1.0
 22
0.0
 32
0.0
 13
1.0
 23
0.0
 33
0.0
 40
0.0
 40
0.0
 40
0.0
 40
0.0
 40
1.0
 40
1.0
 40
1.0
 40
2.0
 40
2.0
 40
2.0
 40
3.0
 40
3.0
 40
3.0
 40
4.0
 40
4.0
 40
4.0
 40
4.0
 10
108.322414794968
 20
-129.1070203670288
 30
0.0
 10
108.322414794968
 20
-129.3691921334563
 30
0.0
 10
108.5339436577624
 20
-129.4070881837941
 30
0.0
 10
108.6503878851638
 20
-129.4070881837941
 30
0.0
 10
108.8260877549115
 20
-129.4070881837941
 30
0.0
 10
108.9890407713639
 20
-129.3120035484012
 30
0.0
 10
108.9890407713639
 20
-129.1280354494888
 30
0.0
 10
108.9890407713639
 20
-129.0074571075051
 30
0.0
 10
108.9297851290176
 20
-128.8317572377574
 30
0.0
 10
108.6441867132904
 20
-128.8317572377574
 30
0.0
 10
108.4199109972006
 20
-128.8317572377574
 30
0.0
 10
108.322414794968
 20
-128.97128360491
 30
0.0
 10
108.322414794968
 20
-129.1070203670288
 30
0.0
  0
HATCH
  5
60
330
5A
100
AcDbEntity
  8
_U+30EC_U+30A4_U+30E4_U+30FC 1
 62
     7
420
 16777215
100
AcDbHatch
 10
0.0
 20
0.0
 30
0.0
210
0.0
220
0.0
230
1.0
  2
SOLID
 70
     1
 71
     0
 91
        2
 92
        1
 93
        1
 72
     4
 94
        3
 73
     0
 74
     1
 95
       32
 96
       28
 40
0.0
 40
0.0
 40
0.0
 40
0.0
 40
1.0
 40
1.0
 40
1.0
 40
2.0
 40
2.0
 40
2.0
 40
3.0
 40
3.0
 40
3.0
 40
4.0
 40
4.0
 40
4.0
 40
5.0
 40
5.0
 40
5.0
 40
6.0
 40
6.0
 40
6.0
 40
7.0
 40
7.0
 40
7.0
 40
8.0
 40
8.0
 40
8.0
 40
9.0
 40
9.0
 40
9.0
 40
9.0
 10
109.1812770994408
 20
-129.1239013349065
 10
109.1812770994408
 20
-129.6399766385969
 10
108.6273057454126
 20
-129.6485893773101
 10
108.4133653157786
 20
-129.6485893773101
 10
108.1828884278154
 20
-129.6485893773101
 10
107.5355549861369
 20
-129.6292968425927
 10
107.5355549861369
 20
-129.0856607750202
 10
107.5355549861369
 20
-128.9123724721122
 10
107.6054904244875
 20
-128.6667371640139
 10
107.9375976292656
 20
-128.6288411136761
 10
107.9375976292656
 20
-128.6288411136761
 10
107.9375976292656
 20
-128.8424370337616
 10
107.9375976292656
 20
-128.8424370337616
 10
107.8804090442105
 20
-128.8531168297659
 10
107.7322699383447
 20
-128.8848117082302
 10
107.7322699383447
 20
-129.0877278323114
 10
107.7322699383447
 20
-129.3798719294606
 10
108.0602430285405
 20
-129.4198350370895
 10
108.2652262099129
 20
-129.4325818903849
 10
108.1870225423977
 20
-129.3395643122832
 10
108.1277669000514
 20
-129.2716959312237
 10
108.1277669000514
 20
-129.0897948896026
 10
108.1277669000514
 20
-128.9099609052725
 10
108.2359428982882
 20
-128.6074815216676
 10
108.6421196559992
 20
-128.6074815216676
 10
108.9614800074819
 20
-128.6074815216676
 10
109.1812770994408
 20
-128.806608040715
 10
109.1812770994408
 20
-129.1239013349065
 97
        0
 97
        0
 92
        1
 93
        1
 72
     4
 94
        3
 73
     0
 74
     1
 95
       17
 96
       13
 40
0.0
 40
0.0
 40
0.0
 40
0.0
 40
1.0
 40
1.0
 40
1.0
 40
2.0
 40
2.0
 40
2.0
 40
3.0
 40
3.0
 40
3.0
 40
4.0
 40
4.0
 40
4.0
 40
4.0
 10
108.322414794968
 20
-129.1070203670288
 10
108.322414794968
 20
-129.3691921334563
 10
108.5339436577624
 20
-129.4070881837941
 10
108.6503878851638
 20
-129.4070881837941
 10
108.8260877549115
 20
-129.4070881837941
 10
108.9890407713639
 20
-129.3120035484012
 10
108.9890407713639
 20
-129.1280354494888
 10
108.9890407713639
 20
-129.0074571075051
 10
108.9297851290176
 20
-128.8317572377574
 10
108.6441867132904
 20
-128.8317572377574
 10
108.4199109972006
 20
-128.8317572377574
 10
108.322414794968
 20
-128.97128360491
 10
108.322414794968
 20
-129.1070203670288
 97
        0
 97
        0
 75
     2
 76
     1
 98
        0
  0
POLYLINE
  5
61
330
5A
100
AcDbEntity
  8
_U+30EC_U+30A4_U+30E4_U+30FC 1
370
     0
100
AcDb2dPolyline
 66
     1
 10
0.0
 20
0.0
 30
0.0
  0
VERTEX
  5
62
330
61
100
AcDbEntity
  8
_U+30EC_U+30A4_U+30E4_U+30FC 1
370
     0
100
AcDbVertex
100
AcDb2dVertex
 10
109.1306341958076
 20
-128.3911295251939
 30
0.0
  0
VERTEX
  5
63
330
61
100
AcDbEntity
  8
_U+30EC_U+30A4_U+30E4_U+30FC 1
370
     0
100
AcDbVertex
100
AcDb2dVertex
 10
108.8787977158359
 20
-128.3911295251939
 30
0.0
  0
VERTEX
  5
64
330
61
100
AcDbEntity
  8
_U+30EC_U+30A4_U+30E4_U+30FC 1
370
     0
100
AcDbVertex
100
AcDb2dVertex
 10
108.8787977158359
 20
-128.1392930452221
 30
0.0
  0
VERTEX
  5
65
330
61
100
AcDbEntity
  8
_U+30EC_U+30A4_U+30E4_U+30FC 1
370
     0
100
AcDbVertex
100
AcDb2dVertex
 10
109.1306341958076
 20
-128.1392930452221
 30
0.0
  0
VERTEX
  5
66
330
61
100
AcDbEntity
  8
_U+30EC_U+30A4_U+30E4_U+30FC 1
370
     0
100
AcDbVertex
100
AcDb2dVertex
 10
109.1306341958076
 20
-128.3911295251939
 30
0.0
  0
SEQEND
  5
67
330
61
100
AcDbEntity
  8
_U+30EC_U+30A4_U+30E4_U+30FC 1
370
     0
  0
HATCH
  5
68
330
5A
100
AcDbEntity
  8
_U+30EC_U+30A4_U+30E4_U+30FC 1
 62
     7
420
 16777215
100
AcDbHatch
 10
0.0
 20
0.0
 30
0.0
210
0.0
220
0.0
230
1.0
  2
SOLID
 70
     1
 71
     0
 91
        1
 92
        1
 93
        4
 72
     1
 10
109.1306341958076
 20
-128.3911295251939
 11
108.8787977158359
 21
-128.3911295251939
 72
     1
 10
108.8787977158359
 20
-128.3911295251939
 11
108.8787977158359
 21
-128.1392930452221
 72
     1
 10
108.8787977158359
 20
-128.1392930452221
 11
109.1306341958076
 21
-128.1392930452221
 72
     1
 10
109.1306341958076
 20
-128.1392930452221
 11
109.1306341958076
 21
-128.3911295251939
 97
        0
 75
     2
 76
     1
 98
        0
  0
SPLINE
  5
69
330
5A
100
AcDbEntity
  8
_U+30EC_U+30A4_U+30E4_U+30FC 1
370
     0
100
AcDbSpline
210
0.0
220
0.0
230
1.0
 70
    11
 71
     3
 72
    53
 73
    49
 74
     0
 42
0.0000000001
 43
0.0000000001
 12
1.0
 22
0.0
 32
0.0
 13
1.0
 23
0.0
 33
0.0
 40
0.0
 40
0.0
 40
0.0
 40
0.0
 40
1.0
 40
1.0
 40
1.0
 40
2.0
 40
2.0
 40
2.0
 40
3.0
 40
3.0
 40
3.0
 40
4.0
 40
4.0
 40
4.0
 40
5.0
 40
5.0
 40
5.0
 40
6.0
 40
6.0
 40
6.0
 40
7.0
 40
7.0
 40
7.0
 40
8.0
 40
8.0
 40
8.0
 40
9.0
 40
9.0
 40
9.0
 40
10.0
 40
10.0
 40
10.0
 40
11.0
 40
11.0
 40
11.0
 40
12.0
 40
12.0
 40
12.0
 40
13.0
 40
13.0
 40
13.0
 40
14.0
 40
14.0
 40
14.0
 40
15.0
 40
15.0
 40
15.0
 40
16.0
 40
16.0
 40
16.0
 40
16.0
 10
109.1812770994408
 20
-127.4220241651931
 30
0.0
 10
109.1812770994408
 20
-127.5002278327083
 30
0.0
 10
109.1643961315631
 20
-127.6018581495232
 30
0.0
 10
109.1010063746345
 20
-127.703488466338
 30
0.0
 10
108.991107828655
 20
-127.8767767692461
 30
0.0
 10
108.859849690667
 20
-127.8981363612546
 30
0.0
 10
108.7520182019787
 20
-127.9170843864235
 30
0.0
 10
108.7520182019787
 20
-127.9170843864235
 30
0.0
 10
108.7520182019787
 20
-127.6948757276249
 30
0.0
 10
108.7520182019787
 20
-127.6948757276249
 30
0.0
 10
108.9508002114776
 20
-127.6400987094094
 30
0.0
 10
108.9804280326507
 20
-127.5129746860037
 30
0.0
 10
108.9804280326507
 20
-127.419957107902
 30
0.0
 10
108.9804280326507
 20
-127.2804307407493
 30
0.0
 10
108.880864773127
 20
-127.1281575203013
 30
0.0
 10
108.6483208278727
 20
-127.1281575203013
 30
0.0
 10
108.3923502333186
 20
-127.1281575203013
 30
0.0
 10
108.322414794968
 20
-127.3079915046313
 30
0.0
 10
108.322414794968
 20
-127.4285698466151
 30
0.0
 10
108.322414794968
 20
-127.4602647250794
 30
0.0
 10
108.322414794968
 20
-127.6018581495232
 30
0.0
 10
108.4516058756649
 20
-127.6907416130426
 30
0.0
 10
108.4516058756649
 20
-127.6907416130426
 30
0.0
 10
108.432657850496
 20
-127.8664414827903
 30
0.0
 10
108.432657850496
 20
-127.8664414827903
 30
0.0
 10
108.432657850496
 20
-127.8664414827903
 30
0.0
 10
107.5861978897701
 20
-127.7458631408066
 30
0.0
 10
107.5861978897701
 20
-127.7458631408066
 30
0.0
 10
107.5861978897701
 20
-127.7458631408066
 30
0.0
 10
107.5861978897701
 20
-126.9672715611401
 30
0.0
 10
107.5861978897701
 20
-126.9672715611401
 30
0.0
 10
107.5861978897701
 20
-126.9672715611401
 30
0.0
 10
107.7808457846867
 20
-126.9672715611401
 30
0.0
 10
107.7808457846867
 20
-126.9672715611401
 30
0.0
 10
107.7808457846867
 20
-126.9672715611401
 30
0.0
 10
107.7808457846867
 20
-127.5829101243543
 30
0.0
 10
107.7808457846867
 20
-127.5829101243543
 30
0.0
 10
107.7808457846867
 20
-127.5829101243543
 30
0.0
 10
108.2039035102754
 20
-127.648366938574
 30
0.0
 10
108.2039035102754
 20
-127.648366938574
 30
0.0
 10
108.17014157452
 20
-127.5870442389366
 30
0.0
 10
108.1298339573425
 20
-127.5047064568391
 30
0.0
 10
108.1298339573425
 20
-127.3861951721465
 30
0.0
 10
108.1298339573425
 20
-127.1322916348836
 30
0.0
 10
108.3162136230946
 20
-126.8952690654984
 30
0.0
 10
108.6293728027038
 20
-126.8952690654984
 30
0.0
 10
108.9466660968953
 20
-126.8952690654984
 30
0.0
 10
109.1812770994408
 20
-127.1195447815882
 30
0.0
 10
109.1812770994408
 20
-127.4220241651931
 30
0.0
  0
HATCH
  5
6A
330
5A
100
AcDbEntity
  8
_U+30EC_U+30A4_U+30E4_U+30FC 1
 62
     7
420
 16777215
100
AcDbHatch
 10
0.0
 20
0.0
 30
0.0
210
0.0
220
0.0
230
1.0
  2
SOLID
 70
     1
 71
     0
 91
        1
 92
        1
 93
        1
 72
     4
 94
        3
 73
     0
 74
     1
 95
       53
 96
       49
 40
0.0
 40
0.0
 40
0.0
 40
0.0
 40
1.0
 40
1.0
 40
1.0
 40
2.0
 40
2.0
 40
2.0
 40
3.0
 40
3.0
 40
3.0
 40
4.0
 40
4.0
 40
4.0
 40
5.0
 40
5.0
 40
5.0
 40
6.0
 40
6.0
 40
6.0
 40
7.0
 40
7.0
 40
7.0
 40
8.0
 40
8.0
 40
8.0
 40
9.0
 40
9.0
 40
9.0
 40
10.0
 40
10.0
 40
10.0
 40
11.0
 40
11.0
 40
11.0
 40
12.0
 40
12.0
 40
12.0
 40
13.0
 40
13.0
 40
13.0
 40
14.0
 40
14.0
 40
14.0
 40
15.0
 40
15.0
 40
15.0
 40
16.0
 40
16.0
 40
16.0
 40
16.0
 10
109.1812770994408
 20
-127.4220241651931
 10
109.1812770994408
 20
-127.5002278327083
 10
109.1643961315631
 20
-127.6018581495232
 10
109.1010063746345
 20
-127.703488466338
 10
108.991107828655
 20
-127.8767767692461
 10
108.859849690667
 20
-127.8981363612546
 10
108.7520182019787
 20
-127.9170843864235
 10
108.7520182019787
 20
-127.9170843864235
 10
108.7520182019787
 20
-127.6948757276249
 10
108.7520182019787
 20
-127.6948757276249
 10
108.9508002114776
 20
-127.6400987094094
 10
108.9804280326507
 20
-127.5129746860037
 10
108.9804280326507
 20
-127.419957107902
 10
108.9804280326507
 20
-127.2804307407493
 10
108.880864773127
 20
-127.1281575203013
 10
108.6483208278727
 20
-127.1281575203013
 10
108.3923502333186
 20
-127.1281575203013
 10
108.322414794968
 20
-127.3079915046313
 10
108.322414794968
 20
-127.4285698466151
 10
108.322414794968
 20
-127.4602647250794
 10
108.322414794968
 20
-127.6018581495232
 10
108.4516058756649
 20
-127.6907416130426
 10
108.4516058756649
 20
-127.6907416130426
 10
108.432657850496
 20
-127.8664414827903
 10
108.432657850496
 20
-127.8664414827903
 10
108.432657850496
 20
-127.8664414827903
 10
107.5861978897701
 20
-127.7458631408066
 10
107.5861978897701
 20
-127.7458631408066
 10
107.5861978897701
 20
-127.7458631408066
 10
107.5861978897701
 20
-126.9672715611401
 10
107.5861978897701
 20
-126.9672715611401
 10
107.5861978897701
 20
-126.9672715611401
 10
107.7808457846867
 20
-126.9672715611401
 10
107.7808457846867
 20
-126.9672715611401
 10
107.7808457846867
 20
-126.9672715611401
 10
107.7808457846867
 20
-127.5829101243543
 10
107.7808457846867
 20
-127.5829101243543
 10
107.7808457846867
 20
-127.5829101243543
 10
108.2039035102754
 20
-127.648366938574
 10
108.2039035102754
 20
-127.648366938574
 10
108.17014157452
 20
-127.5870442389366
 10
108.1298339573425
 20
-127.5047064568391
 10
108.1298339573425
 20
-127.3861951721465
 10
108.1298339573425
 20
-127.1322916348836
 10
108.3162136230946
 20
-126.8952690654984
 10
108.6293728027038
 20
-126.8952690654984
 10
108.9466660968953
 20
-126.8952690654984
 10
109.1812770994408
 20
-127.1195447815882
 10
109.1812770994408
 20
-127.4220241651931
 97
        0
 97
        0
 75
     2
 76
     1
 98
        0
  0
ENDBLK
  5
5D
330
5A
100
AcDbEntity
  8
0
100
AcDbBlockEnd
  0
BLOCK
  5
6D
330
6B
100
AcDbEntity
  8
0
100
AcDbBlockBegin
  2
block 4
 70
     0
 10
0.0
 20
0.0
 30
0.0
  3
block 4
  1

  0
SPLINE
  5
6F
330
6B
100
AcDbEntity
  8
_U+30EC_U+30A4_U+30E4_U+30FC 1
370
     0
100
AcDbSpline
210
0.0
220
0.0
230
1.0
 70
    11
 71
     3
 72
    26
 73
    22
 74
     0
 42
0.0000000001
 43
0.0000000001
 12
1.0
 22
0.0
 32
0.0
 13
1.0
 23
0.0
 33
0.0
 40
0.0
 40
0.0
 40
0.0
 40
0.0
 40
1.0
 40
1.0
 40
1.0
 40
2.0
 40
2.0
 40
2.0
 40
3.0
 40
3.0
 40
3.0
 40
4.0
 40
4.0
 40
4.0
 40
5.0
 40
5.0
 40
5.0
 40
6.0
 40
6.0
 40
6.0
 40
7.0
 40
7.0
 40
7.0
 40
7.0
 10
109.1306341958076
 20
-132.047064854141
 30
0.0
 10
109.1306341958076
 20
-132.047064854141
 30
0.0
 10
108.026481092785
 20
-132.047064854141
 30
0.0
 10
108.026481092785
 20
-132.047064854141
 30
0.0
 10
108.026481092785
 20
-132.047064854141
 30
0.0
 10
108.026481092785
 20
-132.3771050016279
 30
0.0
 10
108.026481092785
 20
-132.3771050016279
 30
0.0
 10
108.026481092785
 20
-132.3771050016279
 30
0.0
 10
107.8783419869193
 20
-132.3771050016279
 30
0.0
 10
107.8783419869193
 20
-132.3771050016279
 30
0.0
 10
107.8635280763327
 20
-132.0449977968499
 30
0.0
 10
107.7005750598804
 20
-131.998489007799
 30
0.0
 10
107.5861978897701
 20
-131.9688611866258
 30
0.0
 10
107.5861978897701
 20
-131.9688611866258
 30
0.0
 10
107.5861978897701
 20
-131.8227891380513
 30
0.0
 10
107.5861978897701
 20
-131.8227891380513
 30
0.0
 10
107.5861978897701
 20
-131.8227891380513
 30
0.0
 10
109.1306341958076
 20
-131.8227891380513
 30
0.0
 10
109.1306341958076
 20
-131.8227891380513
 30
0.0
 10
109.1306341958076
 20
-131.8227891380513
 30
0.0
 10
109.1306341958076
 20
-132.047064854141
 30
0.0
 10
109.1306341958076
 20
-132.047064854141
 30
0.0
  0
HATCH
  5
70
330
6B
100
AcDbEntity
  8
_U+30EC_U+30A4_U+30E4_U+30FC 1
 62
     7
420
 16777215
100
AcDbHatch
 10
0.0
 20
0.0
 30
0.0
210
0.0
220
0.0
230
1.0
  2
SOLID
 70
     1
 71
     0
 91
        1
 92
        1
 93
        1
 72
     4
 94
        3
 73
     0
 74
     1
 95
       26
 96
       22
 40
0.0
 40
0.0
 40
0.0
 40
0.0
 40
1.0
 40
1.0
 40
1.0
 40
2.0
 40
2.0
 40
2.0
 40
3.0
 40
3.0
 40
3.0
 40
4.0
 40
4.0
 40
4.0
 40
5.0
 40
5.0
 40
5.0
 40
6.0
 40
6.0
 40
6.0
 40
7.0
 40
7.0
 40
7.0
 40
7.0
 10
109.1306341958076
 20
-132.047064854141
 10
109.1306341958076
 20
-132.047064854141
 10
108.026481092785
 20
-132.047064854141
 10
108.026481092785
 20
-132.047064854141
 10
108.026481092785
 20
-132.047064854141
 10
108.026481092785
 20
-132.3771050016279
 10
108.026481092785
 20
-132.3771050016279
 10
108.026481092785
 20
-132.3771050016279
 10
107.8783419869193
 20
-132.3771050016279
 10
107.8783419869193
 20
-132.3771050016279
 10
107.8635280763327
 20
-132.0449977968499
 10
107.7005750598804
 20
-131.998489007799
 10
107.5861978897701
 20
-131.9688611866258
 10
107.5861978897701
 20
-131.9688611866258
 10
107.5861978897701
 20
-131.8227891380513
 10
107.5861978897701
 20
-131.8227891380513
 10
107.5861978897701
 20
-131.8227891380513
 10
109.1306341958076
 20
-131.8227891380513
 10
109.1306341958076
 20
-131.8227891380513
 10
109.1306341958076
 20
-131.8227891380513
 10
109.1306341958076
 20
-132.047064854141
 10
109.1306341958076
 20
-132.047064854141
 97
        0
 97
        0
 75
     2
 76
     1
 98
        0
  0
ENDBLK
  5
6E
330
6B
100
AcDbEntity
  8
0
100
AcDbBlockEnd
  0
BLOCK
  5
81
330
7F
100
AcDbEntity
  8
0
100
AcDbBlockBegin
  2
block 5
 70
     0
 10
0.0
 20
0.0
 30
0.0
  3
block 5
  1

  0
SPLINE
  5
83
330
7F
100
AcDbEntity
  8
_U+30EC_U+30A4_U+30E4_U+30FC 1
370
     0
100
AcDbSpline
210
0.0
220
0.0
230
1.0
 70
    11
 71
     3
 72
    32
 73
    28
 74
     0
 42
0.0000000001
 43
0.0000000001
 12
1.0
 22
0.0
 32
0.0
 13
1.0
 23
0.0
 33
0.0
 40
0.0
 40
0.0
 40
0.0
 40
0.0
 40
1.0
 40
1.0
 40
1.0
 40
2.0
 40
2.0
 40
2.0
 40
3.0
 40
3.0
 40
3.0
 40
4.0
 40
4.0
 40
4.0
 40
5.0
 40
5.0
 40
5.0
 40
6.0
 40
6.0
 40
6.0
 40
7.0
 40
7.0
 40
7.0
 40
8.0
 40
8.0
 40
8.0
 40
9.0
 40
9.0
 40
9.0
 40
9.0
 10
87.9388183373903
 20
-121.7047159526467
 30
0.0
 10
87.42274303369987
 20
-121.7047159526467
 30
0.0
 10
87.41413029498675
 20
-121.1507445986186
 30
0.0
 10
87.41413029498675
 20
-120.9368041689846
 30
0.0
 10
87.41413029498675
 20
-120.7063272810213
 30
0.0
 10
87.43342282970414
 20
-120.0589938393429
 30
0.0
 10
87.97705889727658
 20
-120.0589938393429
 30
0.0
 10
88.15034720018464
 20
-120.0589938393429
 30
0.0
 10
88.39598250828296
 20
-120.1289292776935
 30
0.0
 10
88.4338785586207
 20
-120.4610364824716
 30
0.0
 10
88.4338785586207
 20
-120.4610364824716
 30
0.0
 10
88.22028263853521
 20
-120.4610364824716
 30
0.0
 10
88.22028263853521
 20
-120.4610364824716
 30
0.0
 10
88.20960284253094
 20
-120.4038478974164
 30
0.0
 10
88.17790796406663
 20
-120.2557087915507
 30
0.0
 10
87.97499183998542
 20
-120.2557087915507
 30
0.0
 10
87.68284774283623
 20
-120.2557087915507
 30
0.0
 10
87.64288463520734
 20
-120.5836818817464
 30
0.0
 10
87.63013778191191
 20
-120.7886650631188
 30
0.0
 10
87.72315536001366
 20
-120.7104613956036
 30
0.0
 10
87.79102374107308
 20
-120.6512057532573
 30
0.0
 10
87.97292478269428
 20
-120.6512057532573
 30
0.0
 10
88.15275876702431
 20
-120.6512057532573
 30
0.0
 10
88.45523815062926
 20
-120.7593817514942
 30
0.0
 10
88.45523815062926
 20
-121.1655585092051
 30
0.0
 10
88.45523815062926
 20
-121.4849188606878
 30
0.0
 10
88.2561116315818
 20
-121.7047159526467
 30
0.0
 10
87.9388183373903
 20
-121.7047159526467
 30
0.0
  0
SPLINE
  5
84
330
7F
100
AcDbEntity
  8
_U+30EC_U+30A4_U+30E4_U+30FC 1
370
     0
100
AcDbSpline
210
0.0
220
0.0
230
1.0
 70
    11
 71
     3
 72
    17
 73
    13
 74
     0
 42
0.0000000001
 43
0.0000000001
 12
1.0
 22
0.0
 32
0.0
 13
1.0
 23
0.0
 33
0.0
 40
0.0
 40
0.0
 40
0.0
 40
0.0
 40
1.0
 40
1.0
 40
1.0
 40
2.0
 40
2.0
 40
2.0
 40
3.0
 40
3.0
 40
3.0
 40
4.0
 40
4.0
 40
4.0
 40
4.0
 10
87.95569930526803
 20
-120.845853648174
 30
0.0
 10
87.69352753884051
 20
-120.845853648174
 30
0.0
 10
87.65563148850276
 20
-121.0573825109683
 30
0.0
 10
87.65563148850276
 20
-121.1738267383697
 30
0.0
 10
87.65563148850276
 20
-121.3495266081175
 30
0.0
 10
87.75071612389566
 20
-121.5124796245698
 30
0.0
 10
87.934684222808
 20
-121.5124796245698
 30
0.0
 10
88.05526256479175
 20
-121.5124796245698
 30
0.0
 10
88.23096243453949
 20
-121.4532239822235
 30
0.0
 10
88.23096243453949
 20
-121.1676255664963
 30
0.0
 10
88.23096243453949
 20
-120.9433498504065
 30
0.0
 10
88.09143606738687
 20
-120.845853648174
 30
0.0
 10
87.95569930526803
 20
-120.845853648174
 30
0.0
  0
HATCH
  5
85
330
7F
100
AcDbEntity
  8
_U+30EC_U+30A4_U+30E4_U+30FC 1
 62
     7
420
 16777215
100
AcDbHatch
 10
0.0
 20
0.0
 30
0.0
210
0.0
220
0.0
230
1.0
  2
SOLID
 70
     1
 71
     0
 91
        2
 92
        1
 93
        1
 72
     4
 94
        3
 73
     0
 74
     1
 95
       32
 96
       28
 40
0.0
 40
0.0
 40
0.0
 40
0.0
 40
1.0
 40
1.0
 40
1.0
 40
2.0
 40
2.0
 40
2.0
 40
3.0
 40
3.0
 40
3.0
 40
4.0
 40
4.0
 40
4.0
 40
5.0
 40
5.0
 40
5.0
 40
6.0
 40
6.0
 40
6.0
 40
7.0
 40
7.0
 40
7.0
 40
8.0
 40
8.0
 40
8.0
 40
9.0
 40
9.0
 40
9.0
 40
9.0
 10
87.9388183373903
 20
-121.7047159526467
 10
87.42274303369987
 20
-121.7047159526467
 10
87.41413029498675
 20
-121.1507445986186
 10
87.41413029498675
 20
-120.9368041689846
 10
87.41413029498675
 20
-120.7063272810213
 10
87.43342282970414
 20
-120.0589938393429
 10
87.97705889727658
 20
-120.0589938393429
 10
88.15034720018464
 20
-120.0589938393429
 10
88.39598250828296
 20
-120.1289292776935
 10
88.4338785586207
 20
-120.4610364824716
 10
88.4338785586207
 20
-120.4610364824716
 10
88.22028263853521
 20
-120.4610364824716
 10
88.22028263853521
 20
-120.4610364824716
 10
88.20960284253094
 20
-120.4038478974164
 10
88.17790796406663
 20
-120.2557087915507
 10
87.97499183998542
 20
-120.2557087915507
 10
87.68284774283623
 20
-120.2557087915507
 10
87.64288463520734
 20
-120.5836818817464
 10
87.63013778191191
 20
-120.7886650631188
 10
87.72315536001366
 20
-120.7104613956036
 10
87.79102374107308
 20
-120.6512057532573
 10
87.97292478269428
 20
-120.6512057532573
 10
88.15275876702431
 20
-120.6512057532573
 10
88.45523815062926
 20
-120.7593817514942
 10
88.45523815062926
 20
-121.1655585092051
 10
88.45523815062926
 20
-121.4849188606878
 10
88.2561116315818
 20
-121.7047159526467
 10
87.9388183373903
 20
-121.7047159526467
 97
        0
 97
        0
 92
        1
 93
        1
 72
     4
 94
        3
 73
     0
 74
     1
 95
       17
 96
       13
 40
0.0
 40
0.0
 40
0.0
 40
0.0
 40
1.0
 40
1.0
 40
1.0
 40
2.0
 40
2.0
 40
2.0
 40
3.0
 40
3.0
 40
3.0
 40
4.0
 40
4.0
 40
4.0
 40
4.0
 10
87.95569930526803
 20
-120.845853648174
 10
87.69352753884051
 20
-120.845853648174
 10
87.65563148850276
 20
-121.0573825109683
 10
87.65563148850276
 20
-121.1738267383697
 10
87.65563148850276
 20
-121.3495266081175
 10
87.75071612389566
 20
-121.5124796245698
 10
87.934684222808
 20
-121.5124796245698
 10
88.05526256479175
 20
-121.5124796245698
 10
88.23096243453949
 20
-121.4532239822235
 10
88.23096243453949
 20
-121.1676255664963
 10
88.23096243453949
 20
-120.9433498504065
 10
88.09143606738687
 20
-120.845853648174
 10
87.95569930526803
 20
-120.845853648174
 97
        0
 97
        0
 75
     2
 76
     1
 98
        0
  0
ENDBLK
  5
82
330
7F
100
AcDbEntity
  8
0
100
AcDbBlockEnd
  0
BLOCK
  5
94
330
92
100
AcDbEntity
  8
0
100
AcDbBlockBegin
  2
block 6
 70
     0
 10
0.0
 20
0.0
 30
0.0
  3
block 6
  1

  0
SPLINE
  5
96
330
92
100
AcDbEntity
  8
_U+30EC_U+30A4_U+30E4_U+30FC 1
370
     0
100
AcDbSpline
210
0.0
220
0.0
230
1.0
 70
    11
 71
     3
 72
    62
 73
    58
 74
     0
 42
0.0000000001
 43
0.0000000001
 12
1.0
 22
0.0
 32
0.0
 13
1.0
 23
0.0
 33
0.0
 40
0.0
 40
0.0
 40
0.0
 40
0.0
 40
1.0
 40
1.0
 40
1.0
 40
2.0
 40
2.0
 40
2.0
 40
3.0
 40
3.0
 40
3.0
 40
4.0
 40
4.0
 40
4.0
 40
5.0
 40
5.0
 40
5.0
 40
6.0
 40
6.0
 40
6.0
 40
7.0
 40
7.0
 40
7.0
 40
8.0
 40
8.0
 40
8.0
 40
9.0
 40
9.0
 40
9.0
 40
10.0
 40
10.0
 40
10.0
 40
11.0
 40
11.0
 40
11.0
 40
12.0
 40
12.0
 40
12.0
 40
13.0
 40
13.0
 40
13.0
 40
14.0
 40
14.0
 40
14.0
 40
15.0
 40
15.0
 40
15.0
 40
16.0
 40
16.0
 40
16.0
 40
17.0
 40
17.0
 40
17.0
 40
18.0
 40
18.0
 40
18.0
 40
19.0
 40
19.0
 40
19.0
 40
19.0
 10
87.35418563354341
 20
-135.9717176309376
 30
0.0
 10
87.25875648860197
 20
-135.9717176309376
 30
0.0
 10
87.0410264539342
 20
-135.9510470580261
 30
0.0
 10
86.91596948781962
 20
-135.7650119018226
 30
0.0
 10
86.84224444443528
 20
-135.6527017890035
 30
0.0
 10
86.83776582030445
 20
-135.5534830390283
 30
0.0
 10
86.83363170572215
 20
-135.4687336900912
 30
0.0
 10
86.83363170572215
 20
-135.4687336900912
 30
0.0
 10
87.05377330722962
 20
-135.4687336900912
 30
0.0
 10
87.05377330722962
 20
-135.4687336900912
 30
0.0
 10
87.05584036452076
 20
-135.5424587334755
 30
0.0
 10
87.06617565097652
 20
-135.7774142455695
 30
0.0
 10
87.34970700941258
 20
-135.7774142455695
 30
0.0
 10
87.48716631927405
 20
-135.7774142455695
 30
0.0
 10
87.63978404927062
 20
-135.7078233167675
 30
0.0
 10
87.63978404927062
 20
-135.4790689765469
 30
0.0
 10
87.63978404927062
 20
-135.3626247491455
 30
0.0
 10
87.60154348938434
 20
-135.314393412352
 30
0.0
 10
87.56984861092005
 20
-135.2826985338877
 30
0.0
 10
87.49577905798716
 20
-135.2082844714063
 30
0.0
 10
87.37933483058572
 20
-135.1958821276594
 30
0.0
 10
87.32455781237026
 20
-135.1958821276594
 30
0.0
 10
87.30526527765285
 20
-135.1958821276594
 30
0.0
 10
87.26943628460626
 20
-135.1979491849505
 30
0.0
 10
87.24187552072426
 20
-135.2020832995328
 30
0.0
 10
87.24187552072426
 20
-135.2020832995328
 30
0.0
 10
87.24187552072426
 20
-135.0070908950677
 30
0.0
 10
87.24187552072426
 20
-135.0070908950677
 30
0.0
 10
87.28011608061053
 20
-135.0139810860382
 30
0.0
 10
87.32214624553058
 20
-135.0160481433293
 30
0.0
 10
87.32869192695256
 20
-135.0160481433293
 30
0.0
 10
87.3941487411723
 20
-135.0160481433293
 30
0.0
 10
87.59293075067121
 20
-134.9946885513208
 30
0.0
 10
87.59293075067121
 20
-134.7576659819356
 30
0.0
 10
87.59293075067121
 20
-134.5798990548967
 30
0.0
 10
87.46201712223173
 20
-134.5247775271327
 30
0.0
 10
87.35177406670373
 20
-134.5247775271327
 30
0.0
 10
87.08753524298507
 20
-134.5247775271327
 30
0.0
 10
87.07892250427194
 20
-134.7576659819356
 30
0.0
 10
87.07478838968964
 20
-134.8293239680288
 30
0.0
 10
87.07478838968964
 20
-134.8293239680288
 30
0.0
 10
86.8715277560599
 20
-134.8293239680288
 30
0.0
 10
86.8715277560599
 20
-134.8293239680288
 30
0.0
 10
86.88014049477303
 20
-134.7046115114627
 30
0.0
 10
86.90770125865502
 20
-134.3284070844735
 30
0.0
 10
87.36452091999915
 20
-134.3284070844735
 30
0.0
 10
87.58879663608892
 20
-134.3284070844735
 30
0.0
 10
87.8299533200564
 20
-134.4551865983306
 30
0.0
 10
87.8299533200564
 20
-134.7514648100621
 30
0.0
 10
87.8299533200564
 20
-134.9374999662656
 30
0.0
 10
87.73486868466351
 20
-135.0201822579116
 30
0.0
 10
87.63530542513979
 20
-135.0815049575491
 30
0.0
 10
87.69662812477723
 20
-135.1090657214311
 30
0.0
 10
87.87852916639842
 20
-135.1889919366889
 30
0.0
 10
87.87852916639842
 20
-135.4666666328
 30
0.0
 10
87.87852916639842
 20
-135.8049750094515
 30
0.0
 10
87.63117131055749
 20
-135.9717176309376
 30
0.0
 10
87.35418563354341
 20
-135.9717176309376
 30
0.0
  0
HATCH
  5
97
330
92
100
AcDbEntity
  8
_U+30EC_U+30A4_U+30E4_U+30FC 1
 62
     7
420
 16777215
100
AcDbHatch
 10
0.0
 20
0.0
 30
0.0
210
0.0
220
0.0
230
1.0
  2
SOLID
 70
     1
 71
     0
 91
        1
 92
        1
 93
        1
 72
     4
 94
        3
 73
     0
 74
     1
 95
       62
 96
       58
 40
0.0
 40
0.0
 40
0.0
 40
0.0
 40
1.0
 40
1.0
 40
1.0
 40
2.0
 40
2.0
 40
2.0
 40
3.0
 40
3.0
 40
3.0
 40
4.0
 40
4.0
 40
4.0
 40
5.0
 40
5.0
 40
5.0
 40
6.0
 40
6.0
 40
6.0
 40
7.0
 40
7.0
 40
7.0
 40
8.0
 40
8.0
 40
8.0
 40
9.0
 40
9.0
 40
9.0
 40
10.0
 40
10.0
 40
10.0
 40
11.0
 40
11.0
 40
11.0
 40
12.0
 40
12.0
 40
12.0
 40
13.0
 40
13.0
 40
13.0
 40
14.0
 40
14.0
 40
14.0
 40
15.0
 40
15.0
 40
15.0
 40
16.0
 40
16.0
 40
16.0
 40
17.0
 40
17.0
 40
17.0
 40
18.0
 40
18.0
 40
18.0
 40
19.0
 40
19.0
 40
19.0
 40
19.0
 10
87.35418563354341
 20
-135.9717176309376
 10
87.25875648860197
 20
-135.9717176309376
 10
87.0410264539342
 20
-135.9510470580261
 10
86.91596948781962
 20
-135.7650119018226
 10
86.84224444443528
 20
-135.6527017890035
 10
86.83776582030445
 20
-135.5534830390283
 10
86.83363170572215
 20
-135.4687336900912
 10
86.83363170572215
 20
-135.4687336900912
 10
87.05377330722962
 20
-135.4687336900912
 10
87.05377330722962
 20
-135.4687336900912
 10
87.05584036452076
 20
-135.5424587334755
 10
87.06617565097652
 20
-135.7774142455695
 10
87.34970700941258
 20
-135.7774142455695
 10
87.48716631927405
 20
-135.7774142455695
 10
87.63978404927062
 20
-135.7078233167675
 10
87.63978404927062
 20
-135.4790689765469
 10
87.63978404927062
 20
-135.3626247491455
 10
87.60154348938434
 20
-135.314393412352
 10
87.56984861092005
 20
-135.2826985338877
 10
87.49577905798716
 20
-135.2082844714063
 10
87.37933483058572
 20
-135.1958821276594
 10
87.32455781237026
 20
-135.1958821276594
 10
87.30526527765285
 20
-135.1958821276594
 10
87.26943628460626
 20
-135.1979491849505
 10
87.24187552072426
 20
-135.2020832995328
 10
87.24187552072426
 20
-135.2020832995328
 10
87.24187552072426
 20
-135.0070908950677
 10
87.24187552072426
 20
-135.0070908950677
 10
87.28011608061053
 20
-135.0139810860382
 10
87.32214624553058
 20
-135.0160481433293
 10
87.32869192695256
 20
-135.0160481433293
 10
87.3941487411723
 20
-135.0160481433293
 10
87.59293075067121
 20
-134.9946885513208
 10
87.59293075067121
 20
-134.7576659819356
 10
87.59293075067121
 20
-134.5798990548967
 10
87.46201712223173
 20
-134.5247775271327
 10
87.35177406670373
 20
-134.5247775271327
 10
87.08753524298507
 20
-134.5247775271327
 10
87.07892250427194
 20
-134.7576659819356
 10
87.07478838968964
 20
-134.8293239680288
 10
87.07478838968964
 20
-134.8293239680288
 10
86.8715277560599
 20
-134.8293239680288
 10
86.8715277560599
 20
-134.8293239680288
 10
86.88014049477303
 20
-134.7046115114627
 10
86.90770125865502
 20
-134.3284070844735
 10
87.36452091999915
 20
-134.3284070844735
 10
87.58879663608892
 20
-134.3284070844735
 10
87.8299533200564
 20
-134.4551865983306
 10
87.8299533200564
 20
-134.7514648100621
 10
87.8299533200564
 20
-134.9374999662656
 10
87.73486868466351
 20
-135.0201822579116
 10
87.63530542513979
 20
-135.0815049575491
 10
87.69662812477723
 20
-135.1090657214311
 10
87.87852916639842
 20
-135.1889919366889
 10
87.87852916639842
 20
-135.4666666328
 10
87.87852916639842
 20
-135.8049750094515
 10
87.63117131055749
 20
-135.9717176309376
 10
87.35418563354341
 20
-135.9717176309376
 97
        0
 97
        0
 75
     2
 76
     1
 98
        0
  0
SPLINE
  5
98
330
92
100
AcDbEntity
  8
_U+30EC_U+30A4_U+30E4_U+30FC 1
370
     0
100
AcDbSpline
210
0.0
220
0.0
230
1.0
 70
    11
 71
     3
 72
    44
 73
    40
 74
     0
 42
0.0000000001
 43
0.0000000001
 12
1.0
 22
0.0
 32
0.0
 13
1.0
 23
0.0
 33
0.0
 40
0.0
 40
0.0
 40
0.0
 40
0.0
 40
1.0
 40
1.0
 40
1.0
 40
2.0
 40
2.0
 40
2.0
 40
3.0
 40
3.0
 40
3.0
 40
4.0
 40
4.0
 40
4.0
 40
5.0
 40
5.0
 40
5.0
 40
6.0
 40
6.0
 40
6.0
 40
7.0
 40
7.0
 40
7.0
 40
8.0
 40
8.0
 40
8.0
 40
9.0
 40
9.0
 40
9.0
 40
10.0
 40
10.0
 40
10.0
 40
11.0
 40
11.0
 40
11.0
 40
12.0
 40
12.0
 40
12.0
 40
13.0
 40
13.0
 40
13.0
 40
13.0
 10
88.63231605857109
 20
-135.3391980998458
 30
0.0
 10
88.4145860239033
 20
-135.4983615112643
 30
0.0
 10
88.32156844580156
 20
-135.5720865546486
 30
0.0
 10
88.27264808991102
 20
-135.7160915459321
 30
0.0
 10
88.27264808991102
 20
-135.7160915459321
 30
0.0
 10
89.05123966957747
 20
-135.7160915459321
 30
0.0
 10
89.05123966957747
 20
-135.7160915459321
 30
0.0
 10
89.05123966957747
 20
-135.7160915459321
 30
0.0
 10
89.05123966957747
 20
-135.921419236853
 30
0.0
 10
89.05123966957747
 20
-135.921419236853
 30
0.0
 10
89.05123966957747
 20
-135.921419236853
 30
0.0
 10
88.02322317677893
 20
-135.921419236853
 30
0.0
 10
88.02322317677893
 20
-135.921419236853
 30
0.0
 10
88.05491805524322
 20
-135.563818325484
 30
0.0
 10
88.12037486946296
 20
-135.4852701484204
 30
0.0
 10
88.50553654471389
 20
-135.1869248793977
 30
0.0
 10
88.76150713926796
 20
-134.9884873794473
 30
0.0
 10
88.8269639534877
 20
-134.9202744888394
 30
0.0
 10
88.8269639534877
 20
-134.7831596885264
 30
0.0
 10
88.8269639534877
 20
-134.6646484038338
 30
0.0
 10
88.75496145784598
 20
-134.5337347753944
 30
0.0
 10
88.55824650563822
 20
-134.5337347753944
 30
0.0
 10
88.29814179650185
 20
-134.5337347753944
 30
0.0
 10
88.28987356733725
 20
-134.763867153809
 30
0.0
 10
88.28539494320643
 20
-134.8803113812105
 30
0.0
 10
88.28539494320643
 20
-134.8803113812105
 30
0.0
 10
88.06111922711666
 20
-134.8803113812105
 30
0.0
 10
88.06111922711666
 20
-134.8803113812105
 30
0.0
 10
88.06973196582979
 20
-134.7535318673533
 30
0.0
 10
88.08041176183407
 20
-134.6412217545341
 30
0.0
 10
88.16068248664038
 20
-134.5227104698415
 30
0.0
 10
88.27058103261986
 20
-134.3621690202289
 30
0.0
 10
88.45696069837187
 20
-134.3284070844735
 30
0.0
 10
88.57306041622479
 20
-134.3284070844735
 30
0.0
 10
88.8503906027874
 20
-134.3284070844735
 30
0.0
 10
89.05778535099945
 20
-134.5123751833858
 30
0.0
 10
89.05778535099945
 20
-134.7852267458176
 30
0.0
 10
89.05778535099945
 20
-135.0139810860382
 30
0.0
 10
88.94134112359801
 20
-135.1131998360134
 30
0.0
 10
88.63231605857109
 20
-135.3391980998458
 30
0.0
  0
HATCH
  5
99
330
92
100
AcDbEntity
  8
_U+30EC_U+30A4_U+30E4_U+30FC 1
 62
     7
420
 16777215
100
AcDbHatch
 10
0.0
 20
0.0
 30
0.0
210
0.0
220
0.0
230
1.0
  2
SOLID
 70
     1
 71
     0
 91
        1
 92
        1
 93
        1
 72
     4
 94
        3
 73
     0
 74
     1
 95
       44
 96
       40
 40
0.0
 40
0.0
 40
0.0
 40
0.0
 40
1.0
 40
1.0
 40
1.0
 40
2.0
 40
2.0
 40
2.0
 40
3.0
 40
3.0
 40
3.0
 40
4.0
 40
4.0
 40
4.0
 40
5.0
 40
5.0
 40
5.0
 40
6.0
 40
6.0
 40
6.0
 40
7.0
 40
7.0
 40
7.0
 40
8.0
 40
8.0
 40
8.0
 40
9.0
 40
9.0
 40
9.0
 40
10.0
 40
10.0
 40
10.0
 40
11.0
 40
11.0
 40
11.0
 40
12.0
 40
12.0
 40
12.0
 40
13.0
 40
13.0
 40
13.0
 40
13.0
 10
88.63231605857109
 20
-135.3391980998458
 10
88.4145860239033
 20
-135.4983615112643
 10
88.32156844580156
 20
-135.5720865546486
 10
88.27264808991102
 20
-135.7160915459321
 10
88.27264808991102
 20
-135.7160915459321
 10
89.05123966957747
 20
-135.7160915459321
 10
89.05123966957747
 20
-135.7160915459321
 10
89.05123966957747
 20
-135.7160915459321
 10
89.05123966957747
 20
-135.921419236853
 10
89.05123966957747
 20
-135.921419236853
 10
89.05123966957747
 20
-135.921419236853
 10
88.02322317677893
 20
-135.921419236853
 10
88.02322317677893
 20
-135.921419236853
 10
88.05491805524322
 20
-135.563818325484
 10
88.12037486946296
 20
-135.4852701484204
 10
88.50553654471389
 20
-135.1869248793977
 10
88.76150713926796
 20
-134.9884873794473
 10
88.8269639534877
 20
-134.9202744888394
 10
88.8269639534877
 20
-134.7831596885264
 10
88.8269639534877
 20
-134.6646484038338
 10
88.75496145784598
 20
-134.5337347753944
 10
88.55824650563822
 20
-134.5337347753944
 10
88.29814179650185
 20
-134.5337347753944
 10
88.28987356733725
 20
-134.763867153809
 10
88.28539494320643
 20
-134.8803113812105
 10
88.28539494320643
 20
-134.8803113812105
 10
88.06111922711666
 20
-134.8803113812105
 10
88.06111922711666
 20
-134.8803113812105
 10
88.06973196582979
 20
-134.7535318673533
 10
88.08041176183407
 20
-134.6412217545341
 10
88.16068248664038
 20
-134.5227104698415
 10
88.27058103261986
 20
-134.3621690202289
 10
88.45696069837187
 20
-134.3284070844735
 10
88.57306041622479
 20
-134.3284070844735
 10
88.8503906027874
 20
-134.3284070844735
 10
89.05778535099945
 20
-134.5123751833858
 10
89.05778535099945
 20
-134.7852267458176
 10
89.05778535099945
 20
-135.0139810860382
 10
88.94134112359801
 20
-135.1131998360134
 10
88.63231605857109
 20
-135.3391980998458
 97
        0
 97
        0
 75
     2
 76
     1
 98
        0
  0
ENDBLK
  5
95
330
92
100
AcDbEntity
  8
0
100
AcDbBlockEnd
  0
ENDSEC
  0
SECTION
  2
ENTITIES
  0
INSERT
  5
42
330
1F
100
AcDbEntity
  8
_U+30EC_U+30A4_U+30E4_U+30FC 1
100
AcDbBlockReference
  2
block 2
 10
0.0
 20
0.0
 30
0.0
  0
ENDSEC
  0
SECTION
  2
OBJECTS
  0
DICTIONARY
  5
C
330
0
100
AcDbDictionary
281
     1
  3
ACAD_GROUP
350
D
  3
ACAD_LAYOUT
350
1A
  3
ACAD_MATERIAL
350
3B
  3
ACAD_MLEADERSTYLE
350
AC
  3
ACAD_MLINESTYLE
350
17
  3
ACAD_PLOTSETTINGS
350
19
  3
ACAD_PLOTSTYLENAME
350
E
  3
ACAD_TABLESTYLE
350
AB
  3
ACAD_VISUALSTYLE
350
2A
  0
SUN
  5
3F
330
29
100
AcDbSun
 90
        1
290
     0
 63
     7
421
 16777215
 40
1.0
291
     1
 91
  2455826
 92
 54000000
292
     0
 70
     2
 71
   256
280
     1
  0
DICTIONARY
  5
D
102
{ACAD_REACTORS
330
C
102
}
330
C
100
AcDbDictionary
281
     1
  0
DICTIONARY
  5
1A
102
{ACAD_REACTORS
330
C
102
}
330
C
100
AcDbDictionary
281
     1
  3
Layout1
350
1E
  3
Layout2
350
26
  3
Model
350
22
  0
DICTIONARY
  5
3B
102
{ACAD_REACTORS
330
C
102
}
330
C
100
AcDbDictionary
281
     1
  3
ByBlock
350
3D
  3
ByLayer
350
3C
  3
Global
350
3E
  0
DICTIONARY
  5
AC
102
{ACAD_REACTORS
330
C
102
}
330
C
100
AcDbDictionary
281
     1
  0
DICTIONARY
  5
17
102
{ACAD_REACTORS
330
C
102
}
330
C
100
AcDbDictionary
281
     1
  3
Standard
350
18
  0
DICTIONARY
  5
19
102
{ACAD_REACTORS
330
C
102
}
330
C
100
AcDbDictionary
281
     1
  0
ACDBDICTIONARYWDFLT
  5
E
102
{ACAD_REACTORS
330
C
102
}
330
C
100
AcDbDictionary
281
     1
  3
Normal
350
F
100
AcDbDictionaryWithDefault
340
F
  0
DICTIONARY
  5
AB
102
{ACAD_REACTORS
330
C
102
}
330
C
100
AcDbDictionary
281
     1
  0
DICTIONARY
  5
2A
102
{ACAD_REACTORS
330
C
102
}
330
C
100
AcDbDictionary
281
     1
  3
2dWireframe
350
2F
  3
3D Hidden
350
31
  3
3dWireframe
350
30
  3
Basic
350
32
  3
Brighten
350
36
  3
ColorChange
350
3A
  3
Conceptual
350
34
  3
Dim
350
35
  3
Facepattern
350
39
  3
Flat
350
2B
  3
FlatWithEdges
350
2C
  3
Gouraud
350
2D
  3
GouraudWithEdges
350
2E
  3
Linepattern
350
38
  3
Realistic
350
33
  3
Thicken
350
37
  0
LAYOUT
  5
1E
102
{ACAD_REACTORS
330
1A
102
}
330
1A
100
AcDbPlotSettings
  1

  2
none_device
  4

  6

 40
0.0
 41
0.0
 42
0.0
 43
0.0
 44
0.0
 45
0.0
 46
0.0
 47
0.0
 48
0.0
 49
0.0
140
0.0
141
0.0
142
1.0
143
1.0
 70
   688
 72
     0
 73
     0
 74
     5
  7

 75
    16
 76
     0
 77
     2
 78
   300
147
1.0
148
0.0
149
0.0
100
AcDbLayout
  1
Layout1
 70
     1
 71
     1
 10
0.0
 20
0.0
 11
12.0
 21
9.0
 12
0.0
 22
0.0
 32
0.0
 14
1.000000000000000E+20
 24
1.000000000000000E+20
 34
1.000000000000000E+20
 15
-1.000000000000000E+20
 25
-1.000000000000000E+20
 35
-1.000000000000000E+20
146
0.0
 13
0.0
 23
0.0
 33
0.0
 16
1.0
 26
0.0
 36
0.0
 17
0.0
 27
1.0
 37
0.0
 76
     0
330
1B
  0
LAYOUT
  5
26
102
{ACAD_REACTORS
330
1A
102
}
330
1A
100
AcDbPlotSettings
  1

  2
none_device
  4

  6

 40
0.0
 41
0.0
 42
0.0
 43
0.0
 44
0.0
 45
0.0
 46
0.0
 47
0.0
 48
0.0
 49
0.0
140
0.0
141
0.0
142
1.0
143
1.0
 70
   688
 72
     0
 73
     0
 74
     5
  7

 75
    16
 76
     0
 77
     2
 78
   300
147
1.0
148
0.0
149
0.0
100
AcDbLayout
  1
Layout2
 70
     1
 71
     2
 10
0.0
 20
0.0
 11
0.0
 21
0.0
 12
0.0
 22
0.0
 32
0.0
 14
0.0
 24
0.0
 34
0.0
 15
0.0
 25
0.0
 35
0.0
146
0.0
 13
0.0
 23
0.0
 33
0.0
 16
1.0
 26
0.0
 36
0.0
 17
0.0
 27
1.0
 37
0.0
 76
     0
330
23
  0
LAYOUT
  5
22
102
{ACAD_REACTORS
330
1A
102
}
330
1A
100
AcDbPlotSettings
  1

  2
none_device
  4

  6

 40
0.0
 41
0.0
 42
0.0
 43
0.0
 44
0.0
 45
0.0
 46
0.0
 47
0.0
 48
0.0
 49
0.0
140
0.0
141
0.0
142
1.0
143
1.0
 70
  1712
 72
     0
 73
     0
 74
     0
  7

 75
     0
 76
     0
 77
     2
 78
   300
147
1.0
148
0.0
149
0.0
100
AcDbLayout
  1
Model
 70
     1
 71
     0
 10
0.0
 20
0.0
 11
12.0
 21
9.0
 12
0.0
 22
0.0
 32
0.0
 14
1.000000000000000E+20
 24
1.000000000000000E+20
 34
1.000000000000000E+20
 15
-1.000000000000000E+20
 25
-1.000000000000000E+20
 35
-1.000000000000000E+20
146
0.0
 13
0.0
 23
0.0
 33
0.0
 16
1.0
 26
0.0
 36
0.0
 17
0.0
 27
1.0
 37
0.0
 76
     0
330
1F
331
29
  0
MATERIAL
  5
3D
102
{ACAD_REACTORS
330
3B
102
}
330
3B
100
AcDbMaterial
  1
ByBlock
 72
     1
 94
      127
  0
MATERIAL
  5
3C
102
{ACAD_REACTORS
330
3B
102
}
330
3B
100
AcDbMaterial
  1
ByLayer
 72
     1
 94
      127
  0
MATERIAL
  5
3E
102
{ACAD_REACTORS
330
3B
102
}
330
3B
100
AcDbMaterial
  1
Global
 72
     1
 94
      127
  0
MLINESTYLE
  5
18
102
{ACAD_REACTORS
330
17
102
}
330
17
100
AcDbMlineStyle
  2
Standard
 70
     0
  3

 62
   256
 51
90.0
 52
90.0
 71
     2
 49
0.5
 62
   256
  6
BYLAYER
 49
-0.5
 62
   256
  6
BYLAYER
  0
ACDBPLACEHOLDER
  5
F
102
{ACAD_REACTORS
330
E
102
}
330
E
  0
VISUALSTYLE
  5
2F
102
{ACAD_REACTORS
330
2A
102
}
330
2A
100
AcDbVisualStyle
  2
2dWireframe
 70
     4
177
     2
291
     0
 71
     0
176
     1
 72
     2
176
     1
 73
     0
176
     1
 90
        0
176
     1
 40
-0.6
176
     1
 41
-30.0
176
     1
 62
     5
 63
     7
421
 16777215
176
     1
 74
     1
176
     1
 91
        4
176
     1
 64
     7
176
     1
 65
   257
176
     1
 75
     1
176
     1
175
     1
176
     1
 42
1.0
176
     1
 92
        0
176
     1
 66
   257
176
     1
 43
1.0
176
     1
 76
     1
176
     1
 77
     6
176
     1
 78
     2
176
     1
 67
     7
176
     1
 79
     5
176
     1
170
     0
176
     1
171
     0
176
     1
290
     0
176
     1
 93
        1
176
     1
 44
0.0
176
     1
173
     0
176
     1
  0
VISUALSTYLE
  5
31
102
{ACAD_REACTORS
330
2A
102
}
330
2A
100
AcDbVisualStyle
  2
3D Hidden
 70
     6
177
     2
291
     0
 71
     1
176
     1
 72
     2
176
     1
 73
     2
176
     1
 90
        0
176
     1
 40
-0.6
176
     1
 41
-30.0
176
     1
 62
     5
 63
     7
421
 16777215
176
     1
 74
     2
176
     1
 91
        2
176
     1
 64
     7
176
     1
 65
   257
176
     1
 75
     2
176
     1
175
     1
176
     1
 42
40.0
176
     1
 92
        0
176
     1
 66
   257
176
     1
 43
1.0
176
     1
 76
     1
176
     1
 77
     6
176
     1
 78
     2
176
     1
 67
     7
176
     1
 79
     3
176
     1
170
     0
176
     1
171
     0
176
     1
290
     0
176
     1
 93
        1
176
     1
 44
0.0
176
     1
173
     0
176
     1
  0
VISUALSTYLE
  5
30
102
{ACAD_REACTORS
330
2A
102
}
330
2A
100
AcDbVisualStyle
  2
3dWireframe
 70
     5
177
     2
291
     0
 71
     0
176
     1
 72
     2
176
     1
 73
     0
176
     1
 90
        0
176
     1
 40
-0.6
176
     1
 41
-30.0
176
     1
 62
     5
 63
     7
421
 16777215
176
     1
 74
     1
176
     1
 91
        4
176
     1
 64
     7
176
     1
 65
   257
176
     1
 75
     1
176
     1
175
     1
176
     1
 42
1.0
176
     1
 92
        0
176
     1
 66
   257
176
     1
 43
1.0
176
     1
 76
     1
176
     1
 77
     6
176
     1
 78
     2
176
     1
 67
     7
176
     1
 79
     5
176
     1
170
     0
176
     1
171
     0
176
     1
290
     0
176
     1
 93
        1
176
     1
 44
0.0
176
     1
173
     0
176
     1
  0
VISUALSTYLE
  5
32
102
{ACAD_REACTORS
330
2A
102
}
330
2A
100
AcDbVisualStyle
  2
Basic
 70
     7
177
     2
291
     1
 71
     1
176
     1
 72
     0
176
     1
 73
     1
176
     1
 90
        0
176
     1
 40
-0.6
176
     1
 41
-30.0
176
     1
 62
     5
 63
     7
421
 16777215
176
     1
 74
     0
176
     1
 91
        4
176
     1
 64
     7
176
     1
 65
   257
176
     1
 75
     1
176
     1
175
     1
176
     1
 42
1.0
176
     1
 92
        8
176
     1
 66
     7
176
     1
 43
1.0
176
     1
 76
     1
176
     1
 77
     6
176
     1
 78
     2
176
     1
 67
     7
176
     1
 79
     5
176
     1
170
     0
176
     1
171
     0
176
     1
290
     0
176
     1
 93
        1
176
     1
 44
0.0
176
     1
173
     0
176
     1
  0
VISUALSTYLE
  5
36
102
{ACAD_REACTORS
330
2A
102
}
330
2A
100
AcDbVisualStyle
  2
Brighten
 70
    12
177
     2
291
     1
 71
     2
176
     1
 72
     2
176
     1
 73
     0
176
     1
 90
        0
176
     1
 40
-0.6
176
     1
 41
-30.0
176
     1
 62
     5
 63
     7
421
 16777215
176
     1
 74
     1
176
     1
 91
        4
176
     1
 64
     7
176
     1
 65
   257
176
     1
 75
     1
176
     1
175
     1
176
     1
 42
1.0
176
     1
 92
        8
176
     1
 66
     7
176
     1
 43
1.0
176
     1
 76
     1
176
     1
 77
     6
176
     1
 78
     2
176
     1
 67
     7
176
     1
 79
     5
176
     1
170
     0
176
     1
171
     0
176
     1
290
     0
176
     1
 93
        1
176
     1
 44
50.0
176
     1
173
     0
176
     1
  0
VISUALSTYLE
  5
3A
102
{ACAD_REACTORS
330
2A
102
}
330
2A
100
AcDbVisualStyle
  2
ColorChange
 70
    16
177
     2
291
     1
 71
     2
176
     1
 72
     2
176
     1
 73
     3
176
     1
 90
        0
176
     1
 40
-0.6
176
     1
 41
-30.0
176
     1
 62
     5
 63
     8
421
  8421504
176
     1
 74
     1
176
     1
 91
        4
176
     1
 64
     7
176
     1
 65
   257
176
     1
 75
     1
176
     1
175
     1
176
     1
 42
1.0
176
     1
 92
        8
176
     1
 66
     8
424
  8421504
176
     1
 43
1.0
176
     1
 76
     1
176
     1
 77
     6
176
     1
 78
     2
176
     1
 67
     7
176
     1
 79
     5
176
     1
170
     0
176
     1
171
     0
176
     1
290
     0
176
     1
 93
        1
176
     1
 44
0.0
176
     1
173
     0
176
     1
  0
VISUALSTYLE
  5
34
102
{ACAD_REACTORS
330
2A
102
}
330
2A
100
AcDbVisualStyle
  2
Conceptual
 70
     9
177
     2
291
     0
 71
     3
176
     1
 72
     2
176
     1
 73
     0
176
     1
 90
        0
176
     1
 40
-0.6
176
     1
 41
-30.0
176
     1
 62
     5
 63
     7
421
 16777215
176
     1
 74
     2
176
     1
 91
        2
176
     1
 64
     7
176
     1
 65
   257
176
     1
 75
     1
176
     1
175
     1
176
     1
 42
40.0
176
     1
 92
        8
176
     1
 66
     7
176
     1
 43
1.0
176
     1
 76
     1
176
     1
 77
     6
176
     1
 78
     2
176
     1
 67
     7
176
     1
 79
     3
176
     1
170
     0
176
     1
171
     0
176
     1
290
     0
176
     1
 93
        1
176
     1
 44
0.0
176
     1
173
     0
176
     1
  0
VISUALSTYLE
  5
35
102
{ACAD_REACTORS
330
2A
102
}
330
2A
100
AcDbVisualStyle
  2
Dim
 70
    11
177
     2
291
     1
 71
     2
176
     1
 72
     2
176
     1
 73
     0
176
     1
 90
        0
176
     1
 40
-0.6
176
     1
 41
-30.0
176
     1
 62
     5
 63
     7
421
 16777215
176
     1
 74
     1
176
     1
 91
        4
176
     1
 64
     7
176
     1
 65
   257
176
     1
 75
     1
176
     1
175
     1
176
     1
 42
1.0
176
     1
 92
        8
176
     1
 66
     7
176
     1
 43
1.0
176
     1
 76
     1
176
     1
 77
     6
176
     1
 78
     2
176
     1
 67
     7
176
     1
 79
     5
176
     1
170
     0
176
     1
171
     0
176
     1
290
     0
176
     1
 93
        1
176
     1
 44
-50.0
176
     1
173
     0
176
     1
  0
VISUALSTYLE
  5
39
102
{ACAD_REACTORS
330
2A
102
}
330
2A
100
AcDbVisualStyle
  2
Facepattern
 70
    15
177
     2
291
     1
 71
     2
176
     1
 72
     2
176
     1
 73
     0
176
     1
 90
        0
176
     1
 40
-0.6
176
     1
 41
-30.0
176
     1
 62
     5
 63
     7
421
 16777215
176
     1
 74
     1
176
     1
 91
        4
176
     1
 64
     7
176
     1
 65
   257
176
     1
 75
     1
176
     1
175
     1
176
     1
 42
1.0
176
     1
 92
        8
176
     1
 66
     7
176
     1
 43
1.0
176
     1
 76
     1
176
     1
 77
     6
176
     1
 78
     2
176
     1
 67
     7
176
     1
 79
     5
176
     1
170
     0
176
     1
171
     0
176
     1
290
     0
176
     1
 93
        1
176
     1
 44
0.0
176
     1
173
     0
176
     1
  0
VISUALSTYLE
  5
2B
102
{ACAD_REACTORS
330
2A
102
}
330
2A
100
AcDbVisualStyle
  2
Flat
 70
     0
177
     2
291
     1
 71
     2
176
     1
 72
     1
176
     1
 73
     1
176
     1
 90
        2
176
     1
 40
-0.6
176
     1
 41
30.0
176
     1
 62
     5
 63
     7
421
 16777215
176
     1
 74
     0
176
     1
 91
        4
176
     1
 64
     7
176
     1
 65
   257
176
     1
 75
     1
176
     1
175
     1
176
     1
 42
1.0
176
     1
 92
        8
176
     1
 66
     7
176
     1
 43
1.0
176
     1
 76
     1
176
     1
 77
     6
176
     1
 78
     2
176
     1
 67
     7
176
     1
 79
     5
176
     1
170
     0
176
     1
171
     0
176
     1
290
     0
176
     1
 93
       13
176
     1
 44
0.0
176
     1
173
     0
176
     1
  0
VISUALSTYLE
  5
2C
102
{ACAD_REACTORS
330
2A
102
}
330
2A
100
AcDbVisualStyle
  2
FlatWithEdges
 70
     1
177
     2
291
     1
 71
     2
176
     1
 72
     1
176
     1
 73
     1
176
     1
 90
        2
176
     1
 40
-0.6
176
     1
 41
30.0
176
     1
 62
     5
 63
     7
421
 16777215
176
     1
 74
     1
176
     1
 91
        4
176
     1
 64
     7
176
     1
 65
   257
176
     1
 75
     1
176
     1
175
     1
176
     1
 42
1.0
176
     1
 92
        0
176
     1
 66
   257
176
     1
 43
1.0
176
     1
 76
     1
176
     1
 77
     6
176
     1
 78
     2
176
     1
 67
     7
176
     1
 79
     5
176
     1
170
     0
176
     1
171
     0
176
     1
290
     0
176
     1
 93
       13
176
     1
 44
0.0
176
     1
173
     0
176
     1
  0
VISUALSTYLE
  5
2D
102
{ACAD_REACTORS
330
2A
102
}
330
2A
100
AcDbVisualStyle
  2
Gouraud
 70
     2
177
     2
291
     1
 71
     2
176
     1
 72
     2
176
     1
 73
     1
176
     1
 90
        2
176
     1
 40
-0.6
176
     1
 41
30.0
176
     1
 62
     5
 63
     7
421
 16777215
176
     1
 74
     0
176
     1
 91
        4
176
     1
 64
     7
176
     1
 65
   257
176
     1
 75
     1
176
     1
175
     1
176
     1
 42
1.0
176
     1
 92
        0
176
     1
 66
     7
176
     1
 43
1.0
176
     1
 76
     1
176
     1
 77
     6
176
     1
 78
     2
176
     1
 67
     7
176
     1
 79
     5
176
     1
170
     0
176
     1
171
     0
176
     1
290
     0
176
     1
 93
       13
176
     1
 44
0.0
176
     1
173
     0
176
     1
  0
VISUALSTYLE
  5
2E
102
{ACAD_REACTORS
330
2A
102
}
330
2A
100
AcDbVisualStyle
  2
GouraudWithEdges
 70
     3
177
     2
291
     1
 71
     2
176
     1
 72
     2
176
     1
 73
     1
176
     1
 90
        2
176
     1
 40
-0.6
176
     1
 41
30.0
176
     1
 62
     5
 63
     7
421
 16777215
176
     1
 74
     1
176
     1
 91
        4
176
     1
 64
     7
176
     1
 65
   257
176
     1
 75
     1
176
     1
175
     1
176
     1
 42
1.0
176
     1
 92
        0
176
     1
 66
   257
176
     1
 43
1.0
176
     1
 76
     1
176
     1
 77
     6
176
     1
 78
     2
176
     1
 67
     7
176
     1
 79
     5
176
     1
170
     0
176
     1
171
     0
176
     1
290
     0
176
     1
 93
       13
176
     1
 44
0.0
176
     1
173
     0
176
     1
  0
VISUALSTYLE
  5
38
102
{ACAD_REACTORS
330
2A
102
}
330
2A
100
AcDbVisualStyle
  2
Linepattern
 70
    14
177
     2
291
     1
 71
     2
176
     1
 72
     2
176
     1
 73
     0
176
     1
 90
        0
176
     1
 40
-0.6
176
     1
 41
-30.0
176
     1
 62
     5
 63
     7
421
 16777215
176
     1
 74
     1
176
     1
 91
        4
176
     1
 64
     7
176
     1
 65
   257
176
     1
 75
     7
176
     1
175
     7
176
     1
 42
1.0
176
     1
 92
        8
176
     1
 66
     7
176
     1
 43
1.0
176
     1
 76
     1
176
     1
 77
     6
176
     1
 78
     2
176
     1
 67
     7
176
     1
 79
     5
176
     1
170
     0
176
     1
171
     0
176
     1
290
     0
176
     1
 93
        1
176
     1
 44
0.0
176
     1
173
     0
176
     1
  0
VISUALSTYLE
  5
33
102
{ACAD_REACTORS
330
2A
102
}
330
2A
100
AcDbVisualStyle
  2
Realistic
 70
     8
177
     2
291
     0
 71
     2
176
     1
 72
     2
176
     1
 73
     0
176
     1
 90
        0
176
     1
 40
-0.6
176
     1
 41
-30.0
176
     1
 62
     5
 63
     7
421
 16777215
176
     1
 74
     1
176
     1
 91
        0
176
     1
 64
     7
176
     1
 65
   257
176
     1
 75
     1
176
     1
175
     1
176
     1
 42
1.0
176
     1
 92
        8
176
     1
 66
     8
424
  7895160
176
     1
 43
1.0
176
     1
 76
     1
176
     1
 77
     6
176
     1
 78
     2
176
     1
 67
     7
176
     1
 79
     5
176
     1
170
     0
176
     1
171
     0
176
     1
290
     0
176
     1
 93
       13
176
     1
 44
0.0
176
     1
173
     0
176
     1
  0
VISUALSTYLE
  5
37
102
{ACAD_REACTORS
330
2A
102
}
330
2A
100
AcDbVisualStyle
  2
Thicken
 70
    13
177
     2
291
     1
 71
     2
176
     1
 72
     2
176
     1
 73
     0
176
     1
 90
        0
176
     1
 40
-0.6
176
     1
 41
-30.0
176
     1
 62
     5
 63
     7
421
 16777215
176
     1
 74
     1
176
     1
 91
        4
176
     1
 64
     7
176
     1
 65
   257
176
     1
 75
     1
176
     1
175
     1
176
     1
 42
1.0
176
     1
 92
       12
176
     1
 66
     7
176
     1
 43
1.0
176
     1
 76
     1
176
     1
 77
     6
176
     1
 78
     2
176
     1
 67
     7
176
     1
 79
     5
176
     1
170
     0
176
     1
171
     0
176
     1
290
     0
176
     1
 93
        1
176
     1
 44
0.0
176
     1
173
     0
176
     1
  0
ENDSEC
  0
EOF
