  0
SECTION
  2
HEADER
  9
$ACADVER
  1
AC1024
  9
$ACADMAINTVER
 70
     6
  9
$DWGCODEPAGE
  3
UNDEFINED
  9
$INSBASE
 10
0.0
 20
0.0
 30
0.0
  9
$EXTMIN
 10
1.000000000000000E+20
 20
1.000000000000000E+20
 30
1.000000000000000E+20
  9
$EXTMAX
 10
-1.000000000000000E+20
 20
-1.000000000000000E+20
 30
-1.000000000000000E+20
  9
$LIMMIN
 10
0.0
 20
0.0
  9
$LIMMAX
 10
12.0
 20
9.0
  9
$ORTHOMODE
 70
     0
  9
$REGENMODE
 70
     1
  9
$FILLMODE
 70
     1
  9
$QTEXTMODE
 70
     0
  9
$MIRRTEXT
 70
     1
  9
$LTSCALE
 40
1.0
  9
$ATTMODE
 70
     1
  9
$TEXTSIZE
 40
0.2
  9
$TRACEWID
 40
0.05
  9
$TEXTSTYLE
  7
Standard
  9
$CLAYER
  8
0
  9
$CELTYPE
  6
ByLayer
  9
$CECOLOR
 62
   256
  9
$CELTSCALE
 40
1.0
  9
$DISPSILH
 70
     0
  9
$DIMSCALE
 40
1.0
  9
$DIMASZ
 40
0.18
  9
$DIMEXO
 40
0.0625
  9
$DIMDLI
 40
0.38
  9
$DIMRND
 40
0.0
  9
$DIMDLE
 40
0.0
  9
$DIMEXE
 40
0.18
  9
$DIMTP
 40
0.0
  9
$DIMTM
 40
0.0
  9
$DIMTXT
 40
0.18
  9
$DIMCEN
 40
0.09
  9
$DIMTSZ
 40
0.0
  9
$DIMTOL
 70
     0
  9
$DIMLIM
 70
     0
  9
$DIMTIH
 70
     1
  9
$DIMTOH
 70
     1
  9
$DIMSE1
 70
     0
  9
$DIMSE2
 70
     0
  9
$DIMTAD
 70
     0
  9
$DIMZIN
 70
     0
  9
$DIMBLK
  1

  9
$DIMASO
 70
     1
  9
$DIMSHO
 70
     1
  9
$DIMPOST
  1

  9
$DIMAPOST
  1

  9
$DIMALT
 70
     0
  9
$DIMALTD
 70
     2
  9
$DIMALTF
 40
25.4
  9
$DIMLFAC
 40
1.0
  9
$DIMTOFL
 70
     0
  9
$DIMTVP
 40
0.0
  9
$DIMTIX
 70
     0
  9
$DIMSOXD
 70
     0
  9
$DIMSAH
 70
     0
  9
$DIMBLK1
  1

  9
$DIMBLK2
  1

  9
$DIMSTYLE
  2
Standard
  9
$DIMCLRD
 70
     0
  9
$DIMCLRE
 70
     0
  9
$DIMCLRT
 70
     0
  9
$DIMTFAC
 40
1.0
  9
$DIMGAP
 40
0.09
  9
$DIMJUST
 70
     0
  9
$DIMSD1
 70
     0
  9
$DIMSD2
 70
     0
  9
$DIMTOLJ
 70
     1
  9
$DIMTZIN
 70
     0
  9
$DIMALTZ
 70
     0
  9
$DIMALTTZ
 70
     0
  9
$DIMUPT
 70
     0
  9
$DIMDEC
 70
     4
  9
$DIMTDEC
 70
     4
  9
$DIMALTU
 70
     2
  9
$DIMALTTD
 70
     2
  9
$DIMTXSTY
  7
Standard
  9
$DIMAUNIT
 70
     0
  9
$DIMADEC
 70
     0
  9
$DIMALTRND
 40
0.0
  9
$DIMAZIN
 70
     0
  9
$DIMDSEP
 70
    46
  9
$DIMATFIT
 70
     3
  9
$DIMFRAC
 70
     0
  9
$DIMLDRBLK
  1

  9
$DIMLUNIT
 70
     2
  9
$DIMLWD
 70
    -2
  9
$DIMLWE
 70
    -2
  9
$DIMTMOVE
 70
     0
  9
$DIMFXL
 40
1.0
  9
$DIMFXLON
 70
     0
  9
$DIMJOGANG
 40
0.7853981633974483
  9
$DIMTFILL
 70
     0
  9
$DIMTFILLCLR
 70
     0
  9
$DIMARCSYM
 70
     0
  9
$DIMLTYPE
  6

  9
$DIMLTEX1
  6

  9
$DIMLTEX2
  6

  9
$DIMTXTDIRECTION
 70
     0
  9
$LUNITS
 70
     2
  9
$LUPREC
 70
     4
  9
$SKETCHINC
 40
0.1
  9
$FILLETRAD
 40
0.5
  9
$AUNITS
 70
     0
  9
$AUPREC
 70
     0
  9
$MENU
  1
.
  9
$ELEVATION
 40
0.0
  9
$PELEVATION
 40
0.0
  9
$THICKNESS
 40
0.0
  9
$LIMCHECK
 70
     0
  9
$CHAMFERA
 40
0.5
  9
$CHAMFERB
 40
0.5
  9
$CHAMFERC
 40
1.0
  9
$CHAMFERD
 40
0.0
  9
$SKPOLY
 70
     0
  9
$TDCREATE
 40
2457917.593032408
  9
$TDUCREATE
 40
2457917.218032408
  9
$TDUPDATE
 40
2457917.593032408
  9
$TDUUPDATE
 40
2457917.218032408
  9
$TDINDWG
 40
0.0000000116
  9
$TDUSRTIMER
 40
0.0000000116
  9
$USRTIMER
 70
     1
  9
$ANGBASE
 50
0.0
  9
$ANGDIR
 70
     0
  9
$PDMODE
 70
     0
  9
$PDSIZE
 40
0.0
  9
$PLINEWID
 40
0.0
  9
$SPLFRAME
 70
     0
  9
$SPLINETYPE
 70
     6
  9
$SPLINESEGS
 70
     8
  9
$HANDSEED
  5
88
  9
$SURFTAB1
 70
     6
  9
$SURFTAB2
 70
     6
  9
$SURFTYPE
 70
     6
  9
$SURFU
 70
     6
  9
$SURFV
 70
     6
  9
$UCSBASE
  2

  9
$UCSNAME
  2

  9
$UCSORG
 10
0.0
 20
0.0
 30
0.0
  9
$UCSXDIR
 10
1.0
 20
0.0
 30
0.0
  9
$UCSYDIR
 10
0.0
 20
1.0
 30
0.0
  9
$UCSORTHOREF
  2

  9
$UCSORTHOVIEW
 70
     0
  9
$UCSORGTOP
 10
0.0
 20
0.0
 30
0.0
  9
$UCSORGBOTTOM
 10
0.0
 20
0.0
 30
0.0
  9
$UCSORGLEFT
 10
0.0
 20
0.0
 30
0.0
  9
$UCSORGRIGHT
 10
0.0
 20
0.0
 30
0.0
  9
$UCSORGFRONT
 10
0.0
 20
0.0
 30
0.0
  9
$UCSORGBACK
 10
0.0
 20
0.0
 30
0.0
  9
$PUCSBASE
  2

  9
$PUCSNAME
  2

  9
$PUCSORG
 10
0.0
 20
0.0
 30
0.0
  9
$PUCSXDIR
 10
1.0
 20
0.0
 30
0.0
  9
$PUCSYDIR
 10
0.0
 20
1.0
 30
0.0
  9
$PUCSORTHOREF
  2

  9
$PUCSORTHOVIEW
 70
     0
  9
$PUCSORGTOP
 10
0.0
 20
0.0
 30
0.0
  9
$PUCSORGBOTTOM
 10
0.0
 20
0.0
 30
0.0
  9
$PUCSORGLEFT
 10
0.0
 20
0.0
 30
0.0
  9
$PUCSORGRIGHT
 10
0.0
 20
0.0
 30
0.0
  9
$PUCSORGFRONT
 10
0.0
 20
0.0
 30
0.0
  9
$PUCSORGBACK
 10
0.0
 20
0.0
 30
0.0
  9
$USERI1
 70
     0
  9
$USERI2
 70
     0
  9
$USERI3
 70
     0
  9
$USERI4
 70
     0
  9
$USERI5
 70
     0
  9
$USERR1
 40
0.0
  9
$USERR2
 40
0.0
  9
$USERR3
 40
0.0
  9
$USERR4
 40
0.0
  9
$USERR5
 40
0.0
  9
$WORLDVIEW
 70
     1
  9
$SHADEDGE
 70
     3
  9
$SHADEDIF
 70
    70
  9
$TILEMODE
 70
     1
  9
$MAXACTVP
 70
    64
  9
$PINSBASE
 10
0.0
 20
0.0
 30
0.0
  9
$PLIMCHECK
 70
     0
  9
$PEXTMIN
 10
1.000000000000000E+20
 20
1.000000000000000E+20
 30
1.000000000000000E+20
  9
$PEXTMAX
 10
-1.000000000000000E+20
 20
-1.000000000000000E+20
 30
-1.000000000000000E+20
  9
$PLIMMIN
 10
0.0
 20
0.0
  9
$PLIMMAX
 10
12.0
 20
9.0
  9
$UNITMODE
 70
     0
  9
$VISRETAIN
 70
     1
  9
$PLINEGEN
 70
     0
  9
$PSLTSCALE
 70
     1
  9
$TREEDEPTH
 70
  3020
  9
$CMLSTYLE
  2
Standard
  9
$CMLJUST
 70
     0
  9
$CMLSCALE
 40
1.0
  9
$PROXYGRAPHICS
 70
     1
  9
$MEASUREMENT
 70
     0
  9
$CELWEIGHT
370
    -1
  9
$ENDCAPS
280
     0
  9
$JOINSTYLE
280
     0
  9
$LWDISPLAY
290
     1
  9
$INSUNITS
 70
     1
  9
$HYPERLINKBASE
  1

  9
$STYLESHEET
  1

  9
$XEDIT
290
     1
  9
$CEPSNTYPE
380
     0
  9
$PSTYLEMODE
290
     1
  9
$FINGERPRINTGUID
  2
{34BC8348-736A-ECC3-E422-81BD4CB6D0C0}
  9
$VERSIONGUID
  2
{FAEB1C32-E019-11D5-929B-00C0DF256EC4}
  9
$EXTNAMES
290
     1
  9
$PSVPSCALE
 40
0.0
  9
$OLESTARTUP
290
     0
  9
$SORTENTS
280
   127
  9
$INDEXCTL
280
     0
  9
$HIDETEXT
280
     1
  9
$XCLIPFRAME
280
     2
  9
$HALOGAP
280
     0
  9
$OBSCOLOR
 70
   257
  9
$OBSLTYPE
280
     0
  9
$INTERSECTIONDISPLAY
280
     0
  9
$INTERSECTIONCOLOR
 70
   257
  9
$DIMASSOC
280
     2
  9
$PROJECTNAME
  1

  9
$CAMERADISPLAY
290
     0
  9
$LENSLENGTH
 40
50.0
  9
$CAMERAHEIGHT
 40
0.0
  9
$STEPSPERSEC
 40
2.0
  9
$STEPSIZE
 40
6.0
  9
$3DDWFPREC
 40
2.0
  9
$PSOLWIDTH
 40
0.25
  9
$PSOLHEIGHT
 40
4.0
  9
$LOFTANG1
 40
1.570796326794897
  9
$LOFTANG2
 40
1.570796326794897
  9
$LOFTMAG1
 40
0.0
  9
$LOFTMAG2
 40
0.0
  9
$LOFTPARAM
 70
     7
  9
$LOFTNORMALS
280
     1
  9
$LATITUDE
 40
37.795
  9
$LONGITUDE
 40
-122.394
  9
$NORTHDIRECTION
 40
0.0
  9
$TIMEZONE
 70
 -8000
  9
$LIGHTGLYPHDISPLAY
280
     1
  9
$TILEMODELIGHTSYNCH
280
     1
  9
$CMATERIAL
347
3C
  9
$SOLIDHIST
280
     1
  9
$SHOWHIST
280
     1
  9
$DWFFRAME
280
     2
  9
$DGNFRAME
280
     2
  9
$REALWORLDSCALE
290
     1
  9
$INTERFERECOLOR
 62
   256
  9
$CSHADOW
280
     0
  9
$SHADOWPLANELOCATION
 40
0.0
  0
ENDSEC
  0
SECTION
  2
CLASSES
  0
CLASS
  1
ACDBDICTIONARYWDFLT
  2
AcDbDictionaryWithDefault
  3
ObjectDBX Classes
 90
        0
 91
        4
280
     0
281
     0
  0
CLASS
  1
VISUALSTYLE
  2
AcDbVisualStyle
  3
ObjectDBX Classes
 90
     4095
 91
        4
280
     0
281
     0
  0
CLASS
  1
MATERIAL
  2
AcDbMaterial
  3
ObjectDBX Classes
 90
     1153
 91
        4
280
     0
281
     0
  0
CLASS
  1
SUN
  2
AcDbSun
  3
SCENEOE
 90
     1024
 91
        4
280
     0
281
     0
  0
ENDSEC
  0
SECTION
  2
TABLES
  0
TABLE
  2
VPORT
  5
8
330
0
100
AcDbSymbolTable
 70
     1
  0
VPORT
  5
29
330
8
100
AcDbSymbolTableRecord
100
AcDbViewportTableRecord
  2
*Active
 70
     0
 10
0.0
 20
0.0
 11
1.0
 21
1.0
 12
0.0
 22
0.0
 13
0.0
 23
0.0
 14
0.5
 24
0.5
 15
0.5
 25
0.5
 16
0.0
 26
0.0
 36
1.0
 17
91.00082462281999
 27
-128.4993055234307
 37
0.0
 40
256.9986110468615
 41
0.7081814508812795
 42
50.0
 43
0.0
 44
0.0
 50
0.0
 51
0.0
 71
     0
 72
   100
 73
     1
 74
     3
 75
     0
 76
     0
 77
     0
 78
     0
281
     0
 65
     1
110
0.0
120
0.0
130
0.0
111
1.0
121
0.0
131
0.0
112
0.0
122
1.0
132
0.0
 79
     0
146
0.0
 60
     3
 61
     5
292
     1
282
     1
141
0.0
142
0.0
 63
   250
361
3F
  0
ENDTAB
  0
TABLE
  2
LTYPE
  5
5
330
0
100
AcDbSymbolTable
 70
     1
  0
LTYPE
  5
14
330
5
100
AcDbSymbolTableRecord
100
AcDbLinetypeTableRecord
  2
ByBlock
 70
     0
  3

 72
    65
 73
     0
 40
0.0
  0
LTYPE
  5
15
330
5
100
AcDbSymbolTableRecord
100
AcDbLinetypeTableRecord
  2
ByLayer
 70
     0
  3

 72
    65
 73
     0
 40
0.0
  0
LTYPE
  5
16
330
5
100
AcDbSymbolTableRecord
100
AcDbLinetypeTableRecord
  2
Continuous
 70
     0
  3
Solid line
 72
    65
 73
     0
 40
0.0
  0
ENDTAB
  0
TABLE
  2
LAYER
  5
2
330
0
100
AcDbSymbolTable
 70
     2
  0
LAYER
  5
10
330
2
100
AcDbSymbolTableRecord
100
AcDbLayerTableRecord
  2
0
 70
     0
 62
     7
  6
Continuous
370
    -3
390
F
347
3E
  0
LAYER
  5
40
330
2
100
AcDbSymbolTableRecord
100
AcDbLayerTableRecord
  2
_U+30EC_U+30A4_U+30E4_U+30FC 1
 70
     0
 62
     7
  6
Continuous
370
    -3
390
F
347
3E
  0
ENDTAB
  0
TABLE
  2
STYLE
  5
3
330
0
100
AcDbSymbolTable
 70
     1
  0
STYLE
  5
11
330
3
100
AcDbSymbolTableRecord
100
AcDbTextStyleTableRecord
  2
Standard
 70
     0
 40
0.0
 41
1.0
 50
0.0
 71
     0
 42
0.2
  3
txt
  4

  0
ENDTAB
  0
TABLE
  2
VIEW
  5
6
330
0
100
AcDbSymbolTable
 70
     0
  0
ENDTAB
  0
TABLE
  2
UCS
  5
7
330
0
100
AcDbSymbolTable
 70
     0
  0
ENDTAB
  0
TABLE
  2
APPID
  5
9
330
0
100
AcDbSymbolTable
 70
     1
  0
APPID
  5
12
330
9
100
AcDbSymbolTableRecord
100
AcDbRegAppTableRecord
  2
ACAD
 70
     0
  0
ENDTAB
  0
TABLE
  2
DIMSTYLE
  5
A
330
0
100
AcDbSymbolTable
 70
     1
100
AcDbDimStyleTable
  0
DIMSTYLE
105
27
330
A
100
AcDbSymbolTableRecord
100
AcDbDimStyleTableRecord
  2
Standard
 70
     0
178
     0
340
11
  0
ENDTAB
  0
TABLE
  2
BLOCK_RECORD
  5
1
330
0
100
AcDbSymbolTable
 70
     4
  0
BLOCK_RECORD
  5
1F
330
1
100
AcDbSymbolTableRecord
100
AcDbBlockTableRecord
  2
*Model_Space
340
22
 70
     0
280
     1
281
     0
  0
BLOCK_RECORD
  5
1B
330
1
100
AcDbSymbolTableRecord
100
AcDbBlockTableRecord
  2
*Paper_Space
340
1E
 70
     0
280
     1
281
     0
  0
BLOCK_RECORD
  5
23
330
1
100
AcDbSymbolTableRecord
100
AcDbBlockTableRecord
  2
*Paper_Space0
340
26
 70
     0
280
     1
281
     0
  0
BLOCK_RECORD
  5
5A
330
1
100
AcDbSymbolTableRecord
100
AcDbBlockTableRecord
  2
block 2
340
0
102
{BLKREFS
331
5B
102
}
 70
     0
280
     1
281
     0
  0
BLOCK_RECORD
  5
6A
330
1
100
AcDbSymbolTableRecord
100
AcDbBlockTableRecord
  2
block 3
340
0
102
{BLKREFS
331
6B
102
}
 70
     0
280
     1
281
     0
  0
BLOCK_RECORD
  5
7E
330
1
100
AcDbSymbolTableRecord
100
AcDbBlockTableRecord
  2
block 4
340
0
102
{BLKREFS
331
7F
102
}
 70
     0
280
     1
281
     0
  0
ENDTAB
  0
ENDSEC
  0
SECTION
  2
BLOCKS
  0
BLOCK
  5
20
330
1F
100
AcDbEntity
  8
0
100
AcDbBlockBegin
  2
*Model_Space
 70
     0
 10
0.0
 20
0.0
 30
0.0
  3
*Model_Space
  1

  0
ENDBLK
  5
21
330
1F
100
AcDbEntity
  8
0
100
AcDbBlockEnd
  0
BLOCK
  5
1C
330
1B
100
AcDbEntity
 67
     1
  8
0
100
AcDbBlockBegin
  2
*Paper_Space
 70
     0
 10
0.0
 20
0.0
 30
0.0
  3
*Paper_Space
  1

  0
ENDBLK
  5
1D
330
1B
100
AcDbEntity
 67
     1
  8
0
100
AcDbBlockEnd
  0
BLOCK
  5
24
330
23
100
AcDbEntity
  8
0
100
AcDbBlockBegin
  2
*Paper_Space0
 70
     0
 10
0.0
 20
0.0
 30
0.0
  3
*Paper_Space0
  1

  0
ENDBLK
  5
25
330
23
100
AcDbEntity
  8
0
100
AcDbBlockEnd
  0
BLOCK
  5
5C
330
5A
100
AcDbEntity
  8
0
100
AcDbBlockBegin
  2
block 2
 70
     0
 10
0.0
 20
0.0
 30
0.0
  3
block 2
  1

  0
SPLINE
  5
5E
330
5A
100
AcDbEntity
  8
_U+30EC_U+30A4_U+30E4_U+30FC 1
370
     0
100
AcDbSpline
210
0.0
220
0.0
230
1.0
 70
    11
 71
     3
 72
    62
 73
    58
 74
     0
 42
0.0000000001
 43
0.0000000001
 12
1.0
 22
0.0
 32
0.0
 13
1.0
 23
0.0
 33
0.0
 40
0.0
 40
0.0
 40
0.0
 40
0.0
 40
1.0
 40
1.0
 40
1.0
 40
2.0
 40
2.0
 40
2.0
 40
3.0
 40
3.0
 40
3.0
 40
4.0
 40
4.0
 40
4.0
 40
5.0
 40
5.0
 40
5.0
 40
6.0
 40
6.0
 40
6.0
 40
7.0
 40
7.0
 40
7.0
 40
8.0
 40
8.0
 40
8.0
 40
9.0
 40
9.0
 40
9.0
 40
10.0
 40
10.0
 40
10.0
 40
11.0
 40
11.0
 40
11.0
 40
12.0
 40
12.0
 40
12.0
 40
13.0
 40
13.0
 40
13.0
 40
14.0
 40
14.0
 40
14.0
 40
15.0
 40
15.0
 40
15.0
 40
16.0
 40
16.0
 40
16.0
 40
17.0
 40
17.0
 40
17.0
 40
18.0
 40
18.0
 40
18.0
 40
19.0
 40
19.0
 40
19.0
 40
19.0
 10
97.55614689401375
 20
-132.3106146587626
 30
0.0
 10
97.55614689401375
 20
-132.4060438037041
 30
0.0
 10
97.53513181155373
 20
-132.6237738383718
 30
0.0
 10
97.34909665535022
 20
-132.7488308044864
 30
0.0
 10
97.23678654253109
 20
-132.8229003574193
 30
0.0
 10
97.13756779255588
 20
-132.8270344720016
 30
0.0
 10
97.05281844361875
 20
-132.8311685865839
 30
0.0
 10
97.05281844361875
 20
-132.8311685865839
 30
0.0
 10
97.05281844361875
 20
-132.6110269850764
 30
0.0
 10
97.05281844361875
 20
-132.6110269850764
 30
0.0
 10
97.12688799655162
 20
-132.6089599277853
 30
0.0
 10
97.36149899909714
 20
-132.5986246413295
 30
0.0
 10
97.36149899909714
 20
-132.3150932828935
 30
0.0
 10
97.36149899909714
 20
-132.177633973032
 30
0.0
 10
97.29190807029508
 20
-132.0250162430354
 30
0.0
 10
97.06349823962302
 20
-132.0250162430354
 30
0.0
 10
96.94705401222157
 20
-132.0250162430354
 30
0.0
 10
96.89847816587955
 20
-132.0632568029217
 30
0.0
 10
96.86678328741526
 20
-132.094951681386
 30
0.0
 10
96.79271373448238
 20
-132.1690212343188
 30
0.0
 10
96.77996688118695
 20
-132.2854654617203
 30
0.0
 10
96.77996688118695
 20
-132.3402424799358
 30
0.0
 10
96.77996688118695
 20
-132.3595350146532
 30
0.0
 10
96.78203393847811
 20
-132.3953640076998
 30
0.0
 10
96.78616805306041
 20
-132.4229247715818
 30
0.0
 10
96.78616805306041
 20
-132.4229247715818
 30
0.0
 10
96.5915201581438
 20
-132.4229247715818
 30
0.0
 10
96.5915201581438
 20
-132.4229247715818
 30
0.0
 10
96.59806583956576
 20
-132.3846842116955
 30
0.0
 10
96.60013289685692
 20
-132.3426540467755
 30
0.0
 10
96.60013289685692
 20
-132.3361083653535
 30
0.0
 10
96.60013289685692
 20
-132.2706515511337
 30
0.0
 10
96.57877330484837
 20
-132.0718695416348
 30
0.0
 10
96.3420952450117
 20
-132.0718695416348
 30
0.0
 10
96.16432831797282
 20
-132.0718695416348
 30
0.0
 10
96.10920679020882
 20
-132.2027831700743
 30
0.0
 10
96.10920679020882
 20
-132.3130262256023
 30
0.0
 10
96.10920679020882
 20
-132.577265049321
 30
0.0
 10
96.3420952450117
 20
-132.5858777880341
 30
0.0
 10
96.4137532311049
 20
-132.5900119026164
 30
0.0
 10
96.4137532311049
 20
-132.5900119026164
 30
0.0
 10
96.4137532311049
 20
-132.7932725362461
 30
0.0
 10
96.4137532311049
 20
-132.7932725362461
 30
0.0
 10
96.28904077453886
 20
-132.784659797533
 30
0.0
 10
95.91249183800105
 20
-132.757099033651
 30
0.0
 10
95.91249183800105
 20
-132.3002793723069
 30
0.0
 10
95.91249183800105
 20
-132.0760036562171
 30
0.0
 10
96.03961586140677
 20
-131.8348469722496
 30
0.0
 10
96.33554956358972
 20
-131.8348469722496
 30
0.0
 10
96.52192922934175
 20
-131.8348469722496
 30
0.0
 10
96.60426701143922
 20
-131.9299316076425
 30
0.0
 10
96.66558971107666
 20
-132.0294948671662
 30
0.0
 10
96.69315047495866
 20
-131.9681721675288
 30
0.0
 10
96.77342119976498
 20
-131.7862711259076
 30
0.0
 10
97.05075138632759
 20
-131.7862711259076
 30
0.0
 10
97.38905976297913
 20
-131.7862711259076
 30
0.0
 10
97.55614689401375
 20
-132.0336289817485
 30
0.0
 10
97.55614689401375
 20
-132.3106146587626
 30
0.0
  0
HATCH
  5
5F
330
5A
100
AcDbEntity
  8
_U+30EC_U+30A4_U+30E4_U+30FC 1
 62
     7
420
 16777215
100
AcDbHatch
 10
0.0
 20
0.0
 30
0.0
210
0.0
220
0.0
230
1.0
  2
SOLID
 70
     1
 71
     0
 91
        1
 92
        1
 93
        1
 72
     4
 94
        3
 73
     0
 74
     1
 95
       62
 96
       58
 40
0.0
 40
0.0
 40
0.0
 40
0.0
 40
1.0
 40
1.0
 40
1.0
 40
2.0
 40
2.0
 40
2.0
 40
3.0
 40
3.0
 40
3.0
 40
4.0
 40
4.0
 40
4.0
 40
5.0
 40
5.0
 40
5.0
 40
6.0
 40
6.0
 40
6.0
 40
7.0
 40
7.0
 40
7.0
 40
8.0
 40
8.0
 40
8.0
 40
9.0
 40
9.0
 40
9.0
 40
10.0
 40
10.0
 40
10.0
 40
11.0
 40
11.0
 40
11.0
 40
12.0
 40
12.0
 40
12.0
 40
13.0
 40
13.0
 40
13.0
 40
14.0
 40
14.0
 40
14.0
 40
15.0
 40
15.0
 40
15.0
 40
16.0
 40
16.0
 40
16.0
 40
17.0
 40
17.0
 40
17.0
 40
18.0
 40
18.0
 40
18.0
 40
19.0
 40
19.0
 40
19.0
 40
19.0
 10
97.55614689401375
 20
-132.3106146587626
 10
97.55614689401375
 20
-132.4060438037041
 10
97.53513181155373
 20
-132.6237738383718
 10
97.34909665535022
 20
-132.7488308044864
 10
97.23678654253109
 20
-132.8229003574193
 10
97.13756779255588
 20
-132.8270344720016
 10
97.05281844361875
 20
-132.8311685865839
 10
97.05281844361875
 20
-132.8311685865839
 10
97.05281844361875
 20
-132.6110269850764
 10
97.05281844361875
 20
-132.6110269850764
 10
97.12688799655162
 20
-132.6089599277853
 10
97.36149899909714
 20
-132.5986246413295
 10
97.36149899909714
 20
-132.3150932828935
 10
97.36149899909714
 20
-132.177633973032
 10
97.29190807029508
 20
-132.0250162430354
 10
97.06349823962302
 20
-132.0250162430354
 10
96.94705401222157
 20
-132.0250162430354
 10
96.89847816587955
 20
-132.0632568029217
 10
96.86678328741526
 20
-132.094951681386
 10
96.79271373448238
 20
-132.1690212343188
 10
96.77996688118695
 20
-132.2854654617203
 10
96.77996688118695
 20
-132.3402424799358
 10
96.77996688118695
 20
-132.3595350146532
 10
96.78203393847811
 20
-132.3953640076998
 10
96.78616805306041
 20
-132.4229247715818
 10
96.78616805306041
 20
-132.4229247715818
 10
96.5915201581438
 20
-132.4229247715818
 10
96.5915201581438
 20
-132.4229247715818
 10
96.59806583956576
 20
-132.3846842116955
 10
96.60013289685692
 20
-132.3426540467755
 10
96.60013289685692
 20
-132.3361083653535
 10
96.60013289685692
 20
-132.2706515511337
 10
96.57877330484837
 20
-132.0718695416348
 10
96.3420952450117
 20
-132.0718695416348
 10
96.16432831797282
 20
-132.0718695416348
 10
96.10920679020882
 20
-132.2027831700743
 10
96.10920679020882
 20
-132.3130262256023
 10
96.10920679020882
 20
-132.577265049321
 10
96.3420952450117
 20
-132.5858777880341
 10
96.4137532311049
 20
-132.5900119026164
 10
96.4137532311049
 20
-132.5900119026164
 10
96.4137532311049
 20
-132.7932725362461
 10
96.4137532311049
 20
-132.7932725362461
 10
96.28904077453886
 20
-132.784659797533
 10
95.91249183800105
 20
-132.757099033651
 10
95.91249183800105
 20
-132.3002793723069
 10
95.91249183800105
 20
-132.0760036562171
 10
96.03961586140677
 20
-131.8348469722496
 10
96.33554956358972
 20
-131.8348469722496
 10
96.52192922934175
 20
-131.8348469722496
 10
96.60426701143922
 20
-131.9299316076425
 10
96.66558971107666
 20
-132.0294948671662
 10
96.69315047495866
 20
-131.9681721675288
 10
96.77342119976498
 20
-131.7862711259076
 10
97.05075138632759
 20
-131.7862711259076
 10
97.38905976297913
 20
-131.7862711259076
 10
97.55614689401375
 20
-132.0336289817485
 10
97.55614689401375
 20
-132.3106146587626
 97
        0
 97
        0
 75
     2
 76
     1
 98
        0
  0
POLYLINE
  5
60
330
5A
100
AcDbEntity
  8
_U+30EC_U+30A4_U+30E4_U+30FC 1
370
     0
100
AcDb2dPolyline
 66
     1
 10
0.0
 20
0.0
 30
0.0
  0
VERTEX
  5
61
330
60
100
AcDbEntity
  8
_U+30EC_U+30A4_U+30E4_U+30FC 1
370
     0
100
AcDbVertex
100
AcDb2dVertex
 10
97.50550399038057
 20
-131.5654405053031
 30
0.0
  0
VERTEX
  5
62
330
60
100
AcDbEntity
  8
_U+30EC_U+30A4_U+30E4_U+30FC 1
370
     0
100
AcDbVertex
100
AcDb2dVertex
 10
97.2536675104088
 20
-131.5654405053031
 30
0.0
  0
VERTEX
  5
63
330
60
100
AcDbEntity
  8
_U+30EC_U+30A4_U+30E4_U+30FC 1
370
     0
100
AcDbVertex
100
AcDb2dVertex
 10
97.2536675104088
 20
-131.3136040253313
 30
0.0
  0
VERTEX
  5
64
330
60
100
AcDbEntity
  8
_U+30EC_U+30A4_U+30E4_U+30FC 1
370
     0
100
AcDbVertex
100
AcDb2dVertex
 10
97.50550399038057
 20
-131.3136040253313
 30
0.0
  0
VERTEX
  5
65
330
60
100
AcDbEntity
  8
_U+30EC_U+30A4_U+30E4_U+30FC 1
370
     0
100
AcDbVertex
100
AcDb2dVertex
 10
97.50550399038057
 20
-131.5654405053031
 30
0.0
  0
SEQEND
  5
66
330
60
100
AcDbEntity
  8
_U+30EC_U+30A4_U+30E4_U+30FC 1
370
     0
  0
HATCH
  5
67
330
5A
100
AcDbEntity
  8
_U+30EC_U+30A4_U+30E4_U+30FC 1
 62
     7
420
 16777215
100
AcDbHatch
 10
0.0
 20
0.0
 30
0.0
210
0.0
220
0.0
230
1.0
  2
SOLID
 70
     1
 71
     0
 91
        1
 92
        1
 93
        4
 72
     1
 10
97.50550399038057
 20
-131.5654405053031
 11
97.2536675104088
 21
-131.5654405053031
 72
     1
 10
97.2536675104088
 20
-131.5654405053031
 11
97.2536675104088
 21
-131.3136040253313
 72
     1
 10
97.2536675104088
 20
-131.3136040253313
 11
97.50550399038057
 21
-131.3136040253313
 72
     1
 10
97.50550399038057
 20
-131.3136040253313
 11
97.50550399038057
 21
-131.5654405053031
 97
        0
 75
     2
 76
     1
 98
        0
  0
SPLINE
  5
68
330
5A
100
AcDbEntity
  8
_U+30EC_U+30A4_U+30E4_U+30FC 1
370
     0
100
AcDbSpline
210
0.0
220
0.0
230
1.0
 70
    11
 71
     3
 72
    53
 73
    49
 74
     0
 42
0.0000000001
 43
0.0000000001
 12
1.0
 22
0.0
 32
0.0
 13
1.0
 23
0.0
 33
0.0
 40
0.0
 40
0.0
 40
0.0
 40
0.0
 40
1.0
 40
1.0
 40
1.0
 40
2.0
 40
2.0
 40
2.0
 40
3.0
 40
3.0
 40
3.0
 40
4.0
 40
4.0
 40
4.0
 40
5.0
 40
5.0
 40
5.0
 40
6.0
 40
6.0
 40
6.0
 40
7.0
 40
7.0
 40
7.0
 40
8.0
 40
8.0
 40
8.0
 40
9.0
 40
9.0
 40
9.0
 40
10.0
 40
10.0
 40
10.0
 40
11.0
 40
11.0
 40
11.0
 40
12.0
 40
12.0
 40
12.0
 40
13.0
 40
13.0
 40
13.0
 40
14.0
 40
14.0
 40
14.0
 40
15.0
 40
15.0
 40
15.0
 40
16.0
 40
16.0
 40
16.0
 40
16.0
 10
97.55614689401375
 20
-130.5963351453023
 30
0.0
 10
97.55614689401375
 20
-130.6745388128175
 30
0.0
 10
97.53926592613603
 20
-130.7761691296324
 30
0.0
 10
97.47587616920742
 20
-130.8777994464472
 30
0.0
 10
97.36597762322795
 20
-131.0510877493553
 30
0.0
 10
97.23471948523994
 20
-131.0724473413638
 30
0.0
 10
97.12688799655162
 20
-131.0913953665327
 30
0.0
 10
97.12688799655162
 20
-131.0913953665327
 30
0.0
 10
97.12688799655162
 20
-130.8691867077341
 30
0.0
 10
97.12688799655162
 20
-130.8691867077341
 30
0.0
 10
97.32567000605053
 20
-130.8144096895186
 30
0.0
 10
97.35529782722368
 20
-130.6872856661129
 30
0.0
 10
97.35529782722368
 20
-130.5942680880111
 30
0.0
 10
97.35529782722368
 20
-130.4547417208586
 30
0.0
 10
97.25573456769996
 20
-130.3024685004105
 30
0.0
 10
97.0231906224456
 20
-130.3024685004105
 30
0.0
 10
96.76722002789154
 20
-130.3024685004105
 30
0.0
 10
96.69728458954096
 20
-130.4823024847405
 30
0.0
 10
96.69728458954096
 20
-130.6028808267243
 30
0.0
 10
96.69728458954096
 20
-130.6345757051886
 30
0.0
 10
96.69728458954096
 20
-130.7761691296324
 30
0.0
 10
96.82647567023783
 20
-130.8650525931518
 30
0.0
 10
96.82647567023783
 20
-130.8650525931518
 30
0.0
 10
96.80752764506896
 20
-131.0407524628995
 30
0.0
 10
96.80752764506896
 20
-131.0407524628995
 30
0.0
 10
96.80752764506896
 20
-131.0407524628995
 30
0.0
 10
95.96106768434306
 20
-130.9201741209158
 30
0.0
 10
95.96106768434306
 20
-130.9201741209158
 30
0.0
 10
95.96106768434306
 20
-130.9201741209158
 30
0.0
 10
95.96106768434306
 20
-130.1415825412493
 30
0.0
 10
95.96106768434306
 20
-130.1415825412493
 30
0.0
 10
95.96106768434306
 20
-130.1415825412493
 30
0.0
 10
96.15571557925969
 20
-130.1415825412493
 30
0.0
 10
96.15571557925969
 20
-130.1415825412493
 30
0.0
 10
96.15571557925969
 20
-130.1415825412493
 30
0.0
 10
96.15571557925969
 20
-130.7572211044635
 30
0.0
 10
96.15571557925969
 20
-130.7572211044635
 30
0.0
 10
96.15571557925969
 20
-130.7572211044635
 30
0.0
 10
96.57877330484837
 20
-130.8226779186832
 30
0.0
 10
96.57877330484837
 20
-130.8226779186832
 30
0.0
 10
96.54501136909292
 20
-130.7613552190458
 30
0.0
 10
96.5047037519155
 20
-130.6790174369483
 30
0.0
 10
96.5047037519155
 20
-130.5605061522557
 30
0.0
 10
96.5047037519155
 20
-130.3066026149928
 30
0.0
 10
96.69108341766751
 20
-130.0695800456076
 30
0.0
 10
97.00424259727671
 20
-130.0695800456076
 30
0.0
 10
97.32153589146823
 20
-130.0695800456076
 30
0.0
 10
97.55614689401375
 20
-130.2938557616974
 30
0.0
 10
97.55614689401375
 20
-130.5963351453023
 30
0.0
  0
HATCH
  5
69
330
5A
100
AcDbEntity
  8
_U+30EC_U+30A4_U+30E4_U+30FC 1
 62
     7
420
 16777215
100
AcDbHatch
 10
0.0
 20
0.0
 30
0.0
210
0.0
220
0.0
230
1.0
  2
SOLID
 70
     1
 71
     0
 91
        1
 92
        1
 93
        1
 72
     4
 94
        3
 73
     0
 74
     1
 95
       53
 96
       49
 40
0.0
 40
0.0
 40
0.0
 40
0.0
 40
1.0
 40
1.0
 40
1.0
 40
2.0
 40
2.0
 40
2.0
 40
3.0
 40
3.0
 40
3.0
 40
4.0
 40
4.0
 40
4.0
 40
5.0
 40
5.0
 40
5.0
 40
6.0
 40
6.0
 40
6.0
 40
7.0
 40
7.0
 40
7.0
 40
8.0
 40
8.0
 40
8.0
 40
9.0
 40
9.0
 40
9.0
 40
10.0
 40
10.0
 40
10.0
 40
11.0
 40
11.0
 40
11.0
 40
12.0
 40
12.0
 40
12.0
 40
13.0
 40
13.0
 40
13.0
 40
14.0
 40
14.0
 40
14.0
 40
15.0
 40
15.0
 40
15.0
 40
16.0
 40
16.0
 40
16.0
 40
16.0
 10
97.55614689401375
 20
-130.5963351453023
 10
97.55614689401375
 20
-130.6745388128175
 10
97.53926592613603
 20
-130.7761691296324
 10
97.47587616920742
 20
-130.8777994464472
 10
97.36597762322795
 20
-131.0510877493553
 10
97.23471948523994
 20
-131.0724473413638
 10
97.12688799655162
 20
-131.0913953665327
 10
97.12688799655162
 20
-131.0913953665327
 10
97.12688799655162
 20
-130.8691867077341
 10
97.12688799655162
 20
-130.8691867077341
 10
97.32567000605053
 20
-130.8144096895186
 10
97.35529782722368
 20
-130.6872856661129
 10
97.35529782722368
 20
-130.5942680880111
 10
97.35529782722368
 20
-130.4547417208586
 10
97.25573456769996
 20
-130.3024685004105
 10
97.0231906224456
 20
-130.3024685004105
 10
96.76722002789154
 20
-130.3024685004105
 10
96.69728458954096
 20
-130.4823024847405
 10
96.69728458954096
 20
-130.6028808267243
 10
96.69728458954096
 20
-130.6345757051886
 10
96.69728458954096
 20
-130.7761691296324
 10
96.82647567023783
 20
-130.8650525931518
 10
96.82647567023783
 20
-130.8650525931518
 10
96.80752764506896
 20
-131.0407524628995
 10
96.80752764506896
 20
-131.0407524628995
 10
96.80752764506896
 20
-131.0407524628995
 10
95.96106768434306
 20
-130.9201741209158
 10
95.96106768434306
 20
-130.9201741209158
 10
95.96106768434306
 20
-130.9201741209158
 10
95.96106768434306
 20
-130.1415825412493
 10
95.96106768434306
 20
-130.1415825412493
 10
95.96106768434306
 20
-130.1415825412493
 10
96.15571557925969
 20
-130.1415825412493
 10
96.15571557925969
 20
-130.1415825412493
 10
96.15571557925969
 20
-130.1415825412493
 10
96.15571557925969
 20
-130.7572211044635
 10
96.15571557925969
 20
-130.7572211044635
 10
96.15571557925969
 20
-130.7572211044635
 10
96.57877330484837
 20
-130.8226779186832
 10
96.57877330484837
 20
-130.8226779186832
 10
96.54501136909292
 20
-130.7613552190458
 10
96.5047037519155
 20
-130.6790174369483
 10
96.5047037519155
 20
-130.5605061522557
 10
96.5047037519155
 20
-130.3066026149928
 10
96.69108341766751
 20
-130.0695800456076
 10
97.00424259727671
 20
-130.0695800456076
 10
97.32153589146823
 20
-130.0695800456076
 10
97.55614689401375
 20
-130.2938557616974
 10
97.55614689401375
 20
-130.5963351453023
 97
        0
 97
        0
 75
     2
 76
     1
 98
        0
  0
ENDBLK
  5
5D
330
5A
100
AcDbEntity
  8
0
100
AcDbBlockEnd
  0
BLOCK
  5
6C
330
6A
100
AcDbEntity
  8
0
100
AcDbBlockBegin
  2
block 3
 70
     0
 10
0.0
 20
0.0
 30
0.0
  3
block 3
  1

  0
SPLINE
  5
6E
330
6A
100
AcDbEntity
  8
_U+30EC_U+30A4_U+30E4_U+30FC 1
370
     0
100
AcDbSpline
210
0.0
220
0.0
230
1.0
 70
    11
 71
     3
 72
    26
 73
    22
 74
     0
 42
0.0000000001
 43
0.0000000001
 12
1.0
 22
0.0
 32
0.0
 13
1.0
 23
0.0
 33
0.0
 40
0.0
 40
0.0
 40
0.0
 40
0.0
 40
1.0
 40
1.0
 40
1.0
 40
2.0
 40
2.0
 40
2.0
 40
3.0
 40
3.0
 40
3.0
 40
4.0
 40
4.0
 40
4.0
 40
5.0
 40
5.0
 40
5.0
 40
6.0
 40
6.0
 40
6.0
 40
7.0
 40
7.0
 40
7.0
 40
7.0
 10
97.50550399038057
 20
-127.8867675461533
 30
0.0
 10
97.50550399038057
 20
-127.8867675461533
 30
0.0
 10
96.401350887358
 20
-127.8867675461533
 30
0.0
 10
96.401350887358
 20
-127.8867675461533
 30
0.0
 10
96.401350887358
 20
-127.8867675461533
 30
0.0
 10
96.401350887358
 20
-128.2168076936402
 30
0.0
 10
96.401350887358
 20
-128.2168076936402
 30
0.0
 10
96.401350887358
 20
-128.2168076936402
 30
0.0
 10
96.25321178149225
 20
-128.2168076936402
 30
0.0
 10
96.25321178149225
 20
-128.2168076936402
 30
0.0
 10
96.23839787090569
 20
-127.8847004888622
 30
0.0
 10
96.07544485445337
 20
-127.8381916998113
 30
0.0
 10
95.96106768434306
 20
-127.8085638786381
 30
0.0
 10
95.96106768434306
 20
-127.8085638786381
 30
0.0
 10
95.96106768434306
 20
-127.6624918300635
 30
0.0
 10
95.96106768434306
 20
-127.6624918300635
 30
0.0
 10
95.96106768434306
 20
-127.6624918300635
 30
0.0
 10
97.50550399038057
 20
-127.6624918300635
 30
0.0
 10
97.50550399038057
 20
-127.6624918300635
 30
0.0
 10
97.50550399038057
 20
-127.6624918300635
 30
0.0
 10
97.50550399038057
 20
-127.8867675461533
 30
0.0
 10
97.50550399038057
 20
-127.8867675461533
 30
0.0
  0
HATCH
  5
6F
330
6A
100
AcDbEntity
  8
_U+30EC_U+30A4_U+30E4_U+30FC 1
 62
     7
420
 16777215
100
AcDbHatch
 10
0.0
 20
0.0
 30
0.0
210
0.0
220
0.0
230
1.0
  2
SOLID
 70
     1
 71
     0
 91
        1
 92
        1
 93
        1
 72
     4
 94
        3
 73
     0
 74
     1
 95
       26
 96
       22
 40
0.0
 40
0.0
 40
0.0
 40
0.0
 40
1.0
 40
1.0
 40
1.0
 40
2.0
 40
2.0
 40
2.0
 40
3.0
 40
3.0
 40
3.0
 40
4.0
 40
4.0
 40
4.0
 40
5.0
 40
5.0
 40
5.0
 40
6.0
 40
6.0
 40
6.0
 40
7.0
 40
7.0
 40
7.0
 40
7.0
 10
97.50550399038057
 20
-127.8867675461533
 10
97.50550399038057
 20
-127.8867675461533
 10
96.401350887358
 20
-127.8867675461533
 10
96.401350887358
 20
-127.8867675461533
 10
96.401350887358
 20
-127.8867675461533
 10
96.401350887358
 20
-128.2168076936402
 10
96.401350887358
 20
-128.2168076936402
 10
96.401350887358
 20
-128.2168076936402
 10
96.25321178149225
 20
-128.2168076936402
 10
96.25321178149225
 20
-128.2168076936402
 10
96.23839787090569
 20
-127.8847004888622
 10
96.07544485445337
 20
-127.8381916998113
 10
95.96106768434306
 20
-127.8085638786381
 10
95.96106768434306
 20
-127.8085638786381
 10
95.96106768434306
 20
-127.6624918300635
 10
95.96106768434306
 20
-127.6624918300635
 10
95.96106768434306
 20
-127.6624918300635
 10
97.50550399038057
 20
-127.6624918300635
 10
97.50550399038057
 20
-127.6624918300635
 10
97.50550399038057
 20
-127.6624918300635
 10
97.50550399038057
 20
-127.8867675461533
 10
97.50550399038057
 20
-127.8867675461533
 97
        0
 97
        0
 75
     2
 76
     1
 98
        0
  0
ENDBLK
  5
6D
330
6A
100
AcDbEntity
  8
0
100
AcDbBlockEnd
  0
BLOCK
  5
80
330
7E
100
AcDbEntity
  8
0
100
AcDbBlockBegin
  2
block 4
 70
     0
 10
0.0
 20
0.0
 30
0.0
  3
block 4
  1

  0
SPLINE
  5
82
330
7E
100
AcDbEntity
  8
_U+30EC_U+30A4_U+30E4_U+30FC 1
370
     0
100
AcDbSpline
210
0.0
220
0.0
230
1.0
 70
    11
 71
     3
 72
    26
 73
    22
 74
     0
 42
0.0000000001
 43
0.0000000001
 12
1.0
 22
0.0
 32
0.0
 13
1.0
 23
0.0
 33
0.0
 40
0.0
 40
0.0
 40
0.0
 40
0.0
 40
1.0
 40
1.0
 40
1.0
 40
2.0
 40
2.0
 40
2.0
 40
3.0
 40
3.0
 40
3.0
 40
4.0
 40
4.0
 40
4.0
 40
5.0
 40
5.0
 40
5.0
 40
6.0
 40
6.0
 40
6.0
 40
7.0
 40
7.0
 40
7.0
 40
7.0
 10
88.14035642327741
 20
-125.9785291568734
 30
0.0
 10
88.14035642327741
 20
-125.9785291568734
 30
0.0
 10
88.14035642327741
 20
-124.8743760538509
 30
0.0
 10
88.14035642327741
 20
-124.8743760538509
 30
0.0
 10
88.14035642327741
 20
-124.8743760538509
 30
0.0
 10
87.81031627579048
 20
-124.8743760538509
 30
0.0
 10
87.81031627579048
 20
-124.8743760538509
 30
0.0
 10
87.81031627579048
 20
-124.8743760538509
 30
0.0
 10
87.81031627579048
 20
-124.7262369479851
 30
0.0
 10
87.81031627579048
 20
-124.7262369479851
 30
0.0
 10
88.14242348056857
 20
-124.7114230373985
 30
0.0
 10
88.18893226961944
 20
-124.5484700209462
 30
0.0
 10
88.2185600907926
 20
-124.4340928508359
 30
0.0
 10
88.2185600907926
 20
-124.4340928508359
 30
0.0
 10
88.36463213936717
 20
-124.4340928508359
 30
0.0
 10
88.36463213936717
 20
-124.4340928508359
 30
0.0
 10
88.36463213936717
 20
-124.4340928508359
 30
0.0
 10
88.36463213936717
 20
-125.9785291568734
 30
0.0
 10
88.36463213936717
 20
-125.9785291568734
 30
0.0
 10
88.36463213936717
 20
-125.9785291568734
 30
0.0
 10
88.14035642327741
 20
-125.9785291568734
 30
0.0
 10
88.14035642327741
 20
-125.9785291568734
 30
0.0
  0
HATCH
  5
83
330
7E
100
AcDbEntity
  8
_U+30EC_U+30A4_U+30E4_U+30FC 1
 62
     7
420
 16777215
100
AcDbHatch
 10
0.0
 20
0.0
 30
0.0
210
0.0
220
0.0
230
1.0
  2
SOLID
 70
     1
 71
     0
 91
        1
 92
        1
 93
        1
 72
     4
 94
        3
 73
     0
 74
     1
 95
       26
 96
       22
 40
0.0
 40
0.0
 40
0.0
 40
0.0
 40
1.0
 40
1.0
 40
1.0
 40
2.0
 40
2.0
 40
2.0
 40
3.0
 40
3.0
 40
3.0
 40
4.0
 40
4.0
 40
4.0
 40
5.0
 40
5.0
 40
5.0
 40
6.0
 40
6.0
 40
6.0
 40
7.0
 40
7.0
 40
7.0
 40
7.0
 10
88.14035642327741
 20
-125.9785291568734
 10
88.14035642327741
 20
-125.9785291568734
 10
88.14035642327741
 20
-124.8743760538509
 10
88.14035642327741
 20
-124.8743760538509
 10
88.14035642327741
 20
-124.8743760538509
 10
87.81031627579048
 20
-124.8743760538509
 10
87.81031627579048
 20
-124.8743760538509
 10
87.81031627579048
 20
-124.8743760538509
 10
87.81031627579048
 20
-124.7262369479851
 10
87.81031627579048
 20
-124.7262369479851
 10
88.14242348056857
 20
-124.7114230373985
 10
88.18893226961944
 20
-124.5484700209462
 10
88.2185600907926
 20
-124.4340928508359
 10
88.2185600907926
 20
-124.4340928508359
 10
88.36463213936717
 20
-124.4340928508359
 10
88.36463213936717
 20
-124.4340928508359
 10
88.36463213936717
 20
-124.4340928508359
 10
88.36463213936717
 20
-125.9785291568734
 10
88.36463213936717
 20
-125.9785291568734
 10
88.36463213936717
 20
-125.9785291568734
 10
88.14035642327741
 20
-125.9785291568734
 10
88.14035642327741
 20
-125.9785291568734
 97
        0
 97
        0
 75
     2
 76
     1
 98
        0
  0
SPLINE
  5
84
330
7E
100
AcDbEntity
  8
_U+30EC_U+30A4_U+30E4_U+30FC 1
370
     0
100
AcDbSpline
210
0.0
220
0.0
230
1.0
 70
    11
 71
     3
 72
    44
 73
    40
 74
     0
 42
0.0000000001
 43
0.0000000001
 12
1.0
 22
0.0
 32
0.0
 13
1.0
 23
0.0
 33
0.0
 40
0.0
 40
0.0
 40
0.0
 40
0.0
 40
1.0
 40
1.0
 40
1.0
 40
2.0
 40
2.0
 40
2.0
 40
3.0
 40
3.0
 40
3.0
 40
4.0
 40
4.0
 40
4.0
 40
5.0
 40
5.0
 40
5.0
 40
6.0
 40
6.0
 40
6.0
 40
7.0
 40
7.0
 40
7.0
 40
8.0
 40
8.0
 40
8.0
 40
9.0
 40
9.0
 40
9.0
 40
10.0
 40
10.0
 40
10.0
 40
11.0
 40
11.0
 40
11.0
 40
12.0
 40
12.0
 40
12.0
 40
13.0
 40
13.0
 40
13.0
 40
13.0
 10
89.45879446548253
 20
-125.3966525294147
 30
0.0
 10
89.24106443081473
 20
-125.5554714312847
 30
0.0
 10
89.148046852713
 20
-125.6295409842176
 30
0.0
 10
89.09912649682245
 20
-125.7732014659525
 30
0.0
 10
89.09912649682245
 20
-125.7732014659525
 30
0.0
 10
89.8777180764889
 20
-125.7732014659525
 30
0.0
 10
89.8777180764889
 20
-125.7732014659525
 30
0.0
 10
89.8777180764889
 20
-125.7732014659525
 30
0.0
 10
89.8777180764889
 20
-125.9785291568734
 30
0.0
 10
89.8777180764889
 20
-125.9785291568734
 30
0.0
 10
89.8777180764889
 20
-125.9785291568734
 30
0.0
 10
88.84970158369036
 20
-125.9785291568734
 30
0.0
 10
88.84970158369036
 20
-125.9785291568734
 30
0.0
 10
88.88139646215465
 20
-125.6209282455045
 30
0.0
 10
88.9468532763744
 20
-125.5427245779893
 30
0.0
 10
89.33201495162534
 20
-125.2443793089667
 30
0.0
 10
89.5879855461794
 20
-125.0455972994678
 30
0.0
 10
89.65344236039914
 20
-124.9777289184083
 30
0.0
 10
89.65344236039914
 20
-124.8402696085469
 30
0.0
 10
89.65344236039914
 20
-124.7217583238543
 30
0.0
 10
89.58143986475743
 20
-124.5908446954148
 30
0.0
 10
89.38472491254966
 20
-124.5908446954148
 30
0.0
 10
89.12462020341329
 20
-124.5908446954148
 30
0.0
 10
89.11600746470017
 20
-124.821321583378
 30
0.0
 10
89.11187335011788
 20
-124.9377658107795
 30
0.0
 10
89.11187335011788
 20
-124.9377658107795
 30
0.0
 10
88.88759763402811
 20
-124.9377658107795
 30
0.0
 10
88.88759763402811
 20
-124.9377658107795
 30
0.0
 10
88.89621037274122
 20
-124.8106417873737
 30
0.0
 10
88.9068901687455
 20
-124.6986761841031
 30
0.0
 10
88.98716089355183
 20
-124.5801648994105
 30
0.0
 10
89.0970594395313
 20
-124.4192789402494
 30
0.0
 10
89.2834391052833
 20
-124.3855170044939
 30
0.0
 10
89.39953882313623
 20
-124.3855170044939
 30
0.0
 10
89.67686900969885
 20
-124.3855170044939
 30
0.0
 10
89.88426375791089
 20
-124.5694851034063
 30
0.0
 10
89.88426375791089
 20
-124.842336665838
 30
0.0
 10
89.88426375791089
 20
-125.0710910060586
 30
0.0
 10
89.76781953050944
 20
-125.1703097560338
 30
0.0
 10
89.45879446548253
 20
-125.3966525294147
 30
0.0
  0
HATCH
  5
85
330
7E
100
AcDbEntity
  8
_U+30EC_U+30A4_U+30E4_U+30FC 1
 62
     7
420
 16777215
100
AcDbHatch
 10
0.0
 20
0.0
 30
0.0
210
0.0
220
0.0
230
1.0
  2
SOLID
 70
     1
 71
     0
 91
        1
 92
        1
 93
        1
 72
     4
 94
        3
 73
     0
 74
     1
 95
       44
 96
       40
 40
0.0
 40
0.0
 40
0.0
 40
0.0
 40
1.0
 40
1.0
 40
1.0
 40
2.0
 40
2.0
 40
2.0
 40
3.0
 40
3.0
 40
3.0
 40
4.0
 40
4.0
 40
4.0
 40
5.0
 40
5.0
 40
5.0
 40
6.0
 40
6.0
 40
6.0
 40
7.0
 40
7.0
 40
7.0
 40
8.0
 40
8.0
 40
8.0
 40
9.0
 40
9.0
 40
9.0
 40
10.0
 40
10.0
 40
10.0
 40
11.0
 40
11.0
 40
11.0
 40
12.0
 40
12.0
 40
12.0
 40
13.0
 40
13.0
 40
13.0
 40
13.0
 10
89.45879446548253
 20
-125.3966525294147
 10
89.24106443081473
 20
-125.5554714312847
 10
89.148046852713
 20
-125.6295409842176
 10
89.09912649682245
 20
-125.7732014659525
 10
89.09912649682245
 20
-125.7732014659525
 10
89.8777180764889
 20
-125.7732014659525
 10
89.8777180764889
 20
-125.7732014659525
 10
89.8777180764889
 20
-125.7732014659525
 10
89.8777180764889
 20
-125.9785291568734
 10
89.8777180764889
 20
-125.9785291568734
 10
89.8777180764889
 20
-125.9785291568734
 10
88.84970158369036
 20
-125.9785291568734
 10
88.84970158369036
 20
-125.9785291568734
 10
88.88139646215465
 20
-125.6209282455045
 10
88.9468532763744
 20
-125.5427245779893
 10
89.33201495162534
 20
-125.2443793089667
 10
89.5879855461794
 20
-125.0455972994678
 10
89.65344236039914
 20
-124.9777289184083
 10
89.65344236039914
 20
-124.8402696085469
 10
89.65344236039914
 20
-124.7217583238543
 10
89.58143986475743
 20
-124.5908446954148
 10
89.38472491254966
 20
-124.5908446954148
 10
89.12462020341329
 20
-124.5908446954148
 10
89.11600746470017
 20
-124.821321583378
 10
89.11187335011788
 20
-124.9377658107795
 10
89.11187335011788
 20
-124.9377658107795
 10
88.88759763402811
 20
-124.9377658107795
 10
88.88759763402811
 20
-124.9377658107795
 10
88.89621037274122
 20
-124.8106417873737
 10
88.9068901687455
 20
-124.6986761841031
 10
88.98716089355183
 20
-124.5801648994105
 10
89.0970594395313
 20
-124.4192789402494
 10
89.2834391052833
 20
-124.3855170044939
 10
89.39953882313623
 20
-124.3855170044939
 10
89.67686900969885
 20
-124.3855170044939
 10
89.88426375791089
 20
-124.5694851034063
 10
89.88426375791089
 20
-124.842336665838
 10
89.88426375791089
 20
-125.0710910060586
 10
89.76781953050944
 20
-125.1703097560338
 10
89.45879446548253
 20
-125.3966525294147
 97
        0
 97
        0
 75
     2
 76
     1
 98
        0
  0
ENDBLK
  5
81
330
7E
100
AcDbEntity
  8
0
100
AcDbBlockEnd
  0
ENDSEC
  0
SECTION
  2
ENTITIES
  0
SPLINE
  5
41
330
1F
100
AcDbEntity
  8
_U+30EC_U+30A4_U+30E4_U+30FC 1
 62
     7
420
 16777215
370
    25
100
AcDbSpline
210
0.0
220
0.0
230
1.0
 70
    11
 71
     3
 72
    47
 73
    43
 74
     0
 42
0.0000000001
 43
0.0000000001
 12
1.0
 22
0.0
 32
0.0
 13
1.0
 23
0.0
 33
0.0
 40
0.0
 40
0.0
 40
0.0
 40
0.0
 40
1.0
 40
1.0
 40
1.0
 40
2.0
 40
2.0
 40
2.0
 40
3.0
 40
3.0
 40
3.0
 40
4.0
 40
4.0
 40
4.0
 40
5.0
 40
5.0
 40
5.0
 40
6.0
 40
6.0
 40
6.0
 40
7.0
 40
7.0
 40
7.0
 40
8.0
 40
8.0
 40
8.0
 40
9.0
 40
9.0
 40
9.0
 40
10.0
 40
10.0
 40
10.0
 40
11.0
 40
11.0
 40
11.0
 40
12.0
 40
12.0
 40
12.0
 40
13.0
 40
13.0
 40
13.0
 40
14.0
 40
14.0
 40
14.0
 40
14.0
 10
88.78044134613336
 20
-133.2011630222555
 30
0.0
 10
90.14315131136773
 20
-133.2011630222555
 30
0.0
 10
91.47933238839002
 20
-133.0874980222837
 30
0.0
 10
92.7798499768049
 20
-132.8697635778935
 30
0.0
 10
92.7798499768049
 20
-132.8697635778935
 30
0.0
 10
93.78032775433296
 20
-131.4531138560255
 30
0.0
 10
93.78032775433296
 20
-131.4531138560255
 30
0.0
 10
93.78032775433296
 20
-131.4531138560255
 30
0.0
 10
92.78055553236042
 20
-131.4531138560255
 30
0.0
 10
92.78055553236042
 20
-131.4531138560255
 30
0.0
 10
92.78055553236042
 20
-131.4531138560255
 30
0.0
 10
92.78055553236042
 20
-129.7030185786852
 30
0.0
 10
92.78055553236042
 20
-129.7030185786852
 30
0.0
 10
92.78055553236042
 20
-129.7030185786852
 30
0.0
 10
94.78076785971894
 20
-129.7030185786852
 30
0.0
 10
94.78076785971894
 20
-129.7030185786852
 30
0.0
 10
94.78076785971894
 20
-129.1504274677123
 30
0.0
 10
94.3329164822557
 20
-128.7025760789356
 30
0.0
 10
93.78068053211008
 20
-128.7025760789356
 30
0.0
 10
93.78068053211008
 20
-128.7025760789356
 30
0.0
 10
88.77768967953689
 20
-128.7025760789356
 30
0.0
 10
88.77768967953689
 20
-128.7025760789356
 30
0.0
 10
88.77768967953689
 20
-128.7025760789356
 30
0.0
 10
83.78023980703246
 20
-128.7025760789356
 30
0.0
 10
83.78023980703246
 20
-128.7025760789356
 30
0.0
 10
83.22800148778789
 20
-128.7025760789356
 30
0.0
 10
82.78029122143217
 20
-129.1504274677123
 30
0.0
 10
82.78029122143217
 20
-129.7030185786852
 30
0.0
 10
82.78029122143217
 20
-129.7030185786852
 30
0.0
 10
84.78036478151715
 20
-129.7030185786852
 30
0.0
 10
84.78036478151715
 20
-129.7030185786852
 30
0.0
 10
84.78036478151715
 20
-129.7030185786852
 30
0.0
 10
84.78036478151715
 20
-131.4531138560255
 30
0.0
 10
84.78036478151715
 20
-131.4531138560255
 30
0.0
 10
84.78036478151715
 20
-131.4531138560255
 30
0.0
 10
83.78041619591684
 20
-131.4531138560255
 30
0.0
 10
83.78041619591684
 20
-131.4531138560255
 30
0.0
 10
83.78041619591684
 20
-131.4531138560255
 30
0.0
 10
84.78085867039343
 20
-132.8697635778935
 30
0.0
 10
84.78085867039343
 20
-132.8697635778935
 30
0.0
 10
86.0815503038767
 20
-133.0874980222837
 30
0.0
 10
87.41773138089899
 20
-133.2011630222555
 30
0.0
 10
88.78044134613336
 20
-133.2011630222555
 30
0.0
  0
SPLINE
  5
42
330
1F
100
AcDbEntity
  8
_U+30EC_U+30A4_U+30E4_U+30FC 1
 62
     7
420
 16777215
370
    25
100
AcDbSpline
210
0.0
220
0.0
230
1.0
 70
    11
 71
     3
 72
    23
 73
    19
 74
     0
 42
0.0000000001
 43
0.0000000001
 12
1.0
 22
0.0
 32
0.0
 13
1.0
 23
0.0
 33
0.0
 40
0.0
 40
0.0
 40
0.0
 40
0.0
 40
1.0
 40
1.0
 40
1.0
 40
2.0
 40
2.0
 40
2.0
 40
3.0
 40
3.0
 40
3.0
 40
4.0
 40
4.0
 40
4.0
 40
5.0
 40
5.0
 40
5.0
 40
6.0
 40
6.0
 40
6.0
 40
6.0
 10
88.78044134613336
 20
-132.2027666336158
 30
0.0
 10
87.67818720758754
 20
-132.2027666336158
 30
0.0
 10
86.59314862415806
 20
-132.1283658003011
 30
0.0
 10
85.53033504016159
 20
-131.9850674670038
 30
0.0
 10
85.53033504016159
 20
-131.9850674670038
 30
0.0
 10
85.53033504016159
 20
-129.7030185786852
 30
0.0
 10
85.53033504016159
 20
-129.7030185786852
 30
0.0
 10
85.53033504016159
 20
-129.7030185786852
 30
0.0
 10
88.78044134613336
 20
-129.7030185786852
 30
0.0
 10
88.78044134613336
 20
-129.7030185786852
 30
0.0
 10
88.78044134613336
 20
-129.7030185786852
 30
0.0
 10
92.03054997699229
 20
-129.7030185786852
 30
0.0
 10
92.03054997699229
 20
-129.7030185786852
 30
0.0
 10
92.03054997699229
 20
-129.7030185786852
 30
0.0
 10
92.03054997699229
 20
-131.9850674670038
 30
0.0
 10
92.03054997699229
 20
-131.9850674670038
 30
0.0
 10
90.96773406810864
 20
-132.1283658003011
 30
0.0
 10
89.88269548467918
 20
-132.2027666336158
 30
0.0
 10
88.78044134613336
 20
-132.2027666336158
 30
0.0
  0
SPLINE
  5
43
330
1F
100
AcDbEntity
  8
_U+30EC_U+30A4_U+30E4_U+30FC 1
 62
     7
420
 16777215
370
     9
100
AcDbSpline
210
0.0
220
0.0
230
1.0
 70
    11
 71
     3
 72
    17
 73
    13
 74
     0
 42
0.0000000001
 43
0.0000000001
 12
1.0
 22
0.0
 32
0.0
 13
1.0
 23
0.0
 33
0.0
 40
0.0
 40
0.0
 40
0.0
 40
0.0
 40
1.0
 40
1.0
 40
1.0
 40
2.0
 40
2.0
 40
2.0
 40
3.0
 40
3.0
 40
3.0
 40
4.0
 40
4.0
 40
4.0
 40
4.0
 10
98.00815527738143
 20
-128.7025760789356
 30
0.0
 10
98.00815527738143
 20
-128.7576799678105
 30
0.0
 10
98.05292277623931
 20
-128.802482745577
 30
0.0
 10
98.10806194149926
 20
-128.802482745577
 30
0.0
 10
98.16316582898233
 20
-128.802482745577
 30
0.0
 10
98.2079686056171
 20
-128.7576799678105
 30
0.0
 10
98.2079686056171
 20
-128.7025760789356
 30
0.0
 10
98.2079686056171
 20
-128.6474369122826
 30
0.0
 10
98.16316582898233
 20
-128.6026694122937
 30
0.0
 10
98.10806194149926
 20
-128.6026694122937
 30
0.0
 10
98.05292277623931
 20
-128.6026694122937
 30
0.0
 10
98.00815527738143
 20
-128.6474369122826
 30
0.0
 10
98.00815527738143
 20
-128.7025760789356
 30
0.0
  0
SPLINE
  5
44
330
1F
100
AcDbEntity
  8
_U+30EC_U+30A4_U+30E4_U+30FC 1
 62
     7
420
 16777215
370
     9
100
AcDbSpline
210
0.0
220
0.0
230
1.0
 70
    11
 71
     3
 72
    17
 73
    13
 74
     0
 42
0.0000000001
 43
0.0000000001
 12
1.0
 22
0.0
 32
0.0
 13
1.0
 23
0.0
 33
0.0
 40
0.0
 40
0.0
 40
0.0
 40
0.0
 40
1.0
 40
1.0
 40
1.0
 40
2.0
 40
2.0
 40
2.0
 40
3.0
 40
3.0
 40
3.0
 40
4.0
 40
4.0
 40
4.0
 40
4.0
 10
98.00815527738143
 20
-129.7030185786852
 30
0.0
 10
98.00815527738143
 20
-129.7581577453383
 30
0.0
 10
98.05292277623931
 20
-129.8029252453268
 30
0.0
 10
98.10806194149926
 20
-129.8029252453268
 30
0.0
 10
98.16316582898233
 20
-129.8029252453268
 30
0.0
 10
98.2079686056171
 20
-129.7581577453383
 30
0.0
 10
98.2079686056171
 20
-129.7030185786852
 30
0.0
 10
98.2079686056171
 20
-129.6472091342548
 30
0.0
 10
98.16316582898233
 20
-129.6024416342662
 30
0.0
 10
98.10806194149926
 20
-129.6024416342662
 30
0.0
 10
98.05292277623931
 20
-129.6024416342662
 30
0.0
 10
98.00815527738143
 20
-129.6472091342548
 30
0.0
 10
98.00815527738143
 20
-129.7030185786852
 30
0.0
  0
POLYLINE
  5
45
330
1F
100
AcDbEntity
  8
_U+30EC_U+30A4_U+30E4_U+30FC 1
 62
     7
420
 16777215
370
     9
100
AcDb2dPolyline
 66
     1
 10
0.0
 20
0.0
 30
0.0
  0
VERTEX
  5
46
330
45
100
AcDbEntity
  8
_U+30EC_U+30A4_U+30E4_U+30FC 1
 62
     7
420
 16777215
370
     9
100
AcDbVertex
100
AcDb2dVertex
 10
98.10806194149926
 20
-127.2018946904217
 30
0.0
  0
VERTEX
  5
47
330
45
100
AcDbEntity
  8
_U+30EC_U+30A4_U+30E4_U+30FC 1
 62
     7
420
 16777215
370
     9
100
AcDbVertex
100
AcDb2dVertex
 10
98.10806194149926
 20
-129.698185523131
 30
0.0
  0
SEQEND
  5
48
330
45
100
AcDbEntity
  8
_U+30EC_U+30A4_U+30E4_U+30FC 1
 62
     7
420
 16777215
370
     9
  0
POLYLINE
  5
49
330
1F
100
AcDbEntity
  8
_U+30EC_U+30A4_U+30E4_U+30FC 1
 62
     7
420
 16777215
370
     9
100
AcDb2dPolyline
 66
     1
 10
0.0
 20
0.0
 30
0.0
  0
VERTEX
  5
4A
330
49
100
AcDbEntity
  8
_U+30EC_U+30A4_U+30E4_U+30FC 1
 62
     7
420
 16777215
370
     9
100
AcDbVertex
100
AcDb2dVertex
 10
98.10806194149926
 20
-129.698185523131
 30
0.0
  0
VERTEX
  5
4B
330
49
100
AcDbEntity
  8
_U+30EC_U+30A4_U+30E4_U+30FC 1
 62
     7
420
 16777215
370
     9
100
AcDbVertex
100
AcDb2dVertex
 10
98.10806194149926
 20
-133.1894508000362
 30
0.0
  0
SEQEND
  5
4C
330
49
100
AcDbEntity
  8
_U+30EC_U+30A4_U+30E4_U+30FC 1
 62
     7
420
 16777215
370
     9
  0
POLYLINE
  5
4D
330
1F
100
AcDbEntity
  8
_U+30EC_U+30A4_U+30E4_U+30FC 1
 62
     7
420
 16777215
370
     9
100
AcDb2dPolyline
 66
     1
 10
0.0
 20
0.0
 30
0.0
  0
VERTEX
  5
4E
330
4D
100
AcDbEntity
  8
_U+30EC_U+30A4_U+30E4_U+30FC 1
 62
     7
420
 16777215
370
     9
100
AcDbVertex
100
AcDb2dVertex
 10
96.64766781209035
 20
-129.7030185786852
 30
0.0
  0
VERTEX
  5
4F
330
4D
100
AcDbEntity
  8
_U+30EC_U+30A4_U+30E4_U+30FC 1
 62
     7
420
 16777215
370
     9
100
AcDbVertex
100
AcDb2dVertex
 10
99.1077988604383
 20
-129.7030185786852
 30
0.0
  0
SEQEND
  5
50
330
4D
100
AcDbEntity
  8
_U+30EC_U+30A4_U+30E4_U+30FC 1
 62
     7
420
 16777215
370
     9
  0
POLYLINE
  5
51
330
1F
100
AcDbEntity
  8
_U+30EC_U+30A4_U+30E4_U+30FC 1
 62
     7
420
 16777215
370
     9
100
AcDb2dPolyline
 66
     1
 10
0.0
 20
0.0
 30
0.0
  0
VERTEX
  5
52
330
51
100
AcDbEntity
  8
_U+30EC_U+30A4_U+30E4_U+30FC 1
 62
     7
420
 16777215
370
     9
100
AcDbVertex
100
AcDb2dVertex
 10
96.64766781209035
 20
-128.7025760789356
 30
0.0
  0
VERTEX
  5
53
330
51
100
AcDbEntity
  8
_U+30EC_U+30A4_U+30E4_U+30FC 1
 62
     7
420
 16777215
370
     9
100
AcDbVertex
100
AcDb2dVertex
 10
99.1074813604464
 20
-128.7025760789356
 30
0.0
  0
SEQEND
  5
54
330
51
100
AcDbEntity
  8
_U+30EC_U+30A4_U+30E4_U+30FC 1
 62
     7
420
 16777215
370
     9
  0
SPLINE
  5
55
330
1F
100
AcDbEntity
  8
_U+30EC_U+30A4_U+30E4_U+30FC 1
 62
     7
420
 16777215
370
     9
100
AcDbSpline
210
0.0
220
0.0
230
1.0
 70
    11
 71
     3
 72
    17
 73
    13
 74
     0
 42
0.0000000001
 43
0.0000000001
 12
1.0
 22
0.0
 32
0.0
 13
1.0
 23
0.0
 33
0.0
 40
0.0
 40
0.0
 40
0.0
 40
0.0
 40
1.0
 40
1.0
 40
1.0
 40
2.0
 40
2.0
 40
2.0
 40
3.0
 40
3.0
 40
3.0
 40
4.0
 40
4.0
 40
4.0
 40
4.0
 10
98.00815527738143
 20
-133.1935783000349
 30
0.0
 10
98.00815527738143
 20
-133.248717466688
 30
0.0
 10
98.05292277623931
 20
-133.2934849666765
 30
0.0
 10
98.10806194149926
 20
-133.2934849666765
 30
0.0
 10
98.16316582898233
 20
-133.2934849666765
 30
0.0
 10
98.2079686056171
 20
-133.248717466688
 30
0.0
 10
98.2079686056171
 20
-133.1935783000349
 30
0.0
 10
98.2079686056171
 20
-133.13847441116
 30
0.0
 10
98.16316582898233
 20
-133.0936716333933
 30
0.0
 10
98.10806194149926
 20
-133.0936716333933
 30
0.0
 10
98.05292277623931
 20
-133.0936716333933
 30
0.0
 10
98.00815527738143
 20
-133.13847441116
 30
0.0
 10
98.00815527738143
 20
-133.1935783000349
 30
0.0
  0
POLYLINE
  5
56
330
1F
100
AcDbEntity
  8
_U+30EC_U+30A4_U+30E4_U+30FC 1
 62
     7
420
 16777215
370
     9
100
AcDb2dPolyline
 66
     1
 10
0.0
 20
0.0
 30
0.0
  0
VERTEX
  5
57
330
56
100
AcDbEntity
  8
_U+30EC_U+30A4_U+30E4_U+30FC 1
 62
     7
420
 16777215
370
     9
100
AcDbVertex
100
AcDb2dVertex
 10
96.64766781209035
 20
-133.1935783000349
 30
0.0
  0
VERTEX
  5
58
330
56
100
AcDbEntity
  8
_U+30EC_U+30A4_U+30E4_U+30FC 1
 62
     7
420
 16777215
370
     9
100
AcDbVertex
100
AcDb2dVertex
 10
99.1074813604464
 20
-133.1935783000349
 30
0.0
  0
SEQEND
  5
59
330
56
100
AcDbEntity
  8
_U+30EC_U+30A4_U+30E4_U+30FC 1
 62
     7
420
 16777215
370
     9
  0
INSERT
  5
5B
330
1F
100
AcDbEntity
  8
_U+30EC_U+30A4_U+30E4_U+30FC 1
100
AcDbBlockReference
  2
block 2
 10
0.0
 20
0.0
 30
0.0
  0
INSERT
  5
6B
330
1F
100
AcDbEntity
  8
_U+30EC_U+30A4_U+30E4_U+30FC 1
100
AcDbBlockReference
  2
block 3
 10
0.0
 20
0.0
 30
0.0
  0
SPLINE
  5
70
330
1F
100
AcDbEntity
  8
_U+30EC_U+30A4_U+30E4_U+30FC 1
 62
     7
420
 16777215
370
     9
100
AcDbSpline
210
0.0
220
0.0
230
1.0
 70
    11
 71
     3
 72
    17
 73
    13
 74
     0
 42
0.0000000001
 43
0.0000000001
 12
1.0
 22
0.0
 32
0.0
 13
1.0
 23
0.0
 33
0.0
 40
0.0
 40
0.0
 40
0.0
 40
0.0
 40
1.0
 40
1.0
 40
1.0
 40
2.0
 40
2.0
 40
2.0
 40
3.0
 40
3.0
 40
3.0
 40
4.0
 40
4.0
 40
4.0
 40
4.0
 10
82.77496427712362
 20
-126.4584155239409
 30
0.0
 10
82.71982511186367
 20
-126.4584155239409
 30
0.0
 10
82.67505761300578
 20
-126.5032183017076
 30
0.0
 10
82.67505761300578
 20
-126.5583221905825
 30
0.0
 10
82.67505761300578
 20
-126.6134613572356
 30
0.0
 10
82.71982511186367
 20
-126.658264135002
 30
0.0
 10
82.77496427712362
 20
-126.658264135002
 30
0.0
 10
82.83006816460669
 20
-126.658264135002
 30
0.0
 10
82.87487094124145
 20
-126.6134613572356
 30
0.0
 10
82.87487094124145
 20
-126.5583221905825
 30
0.0
 10
82.87487094124145
 20
-126.5032183017076
 30
0.0
 10
82.83006816460669
 20
-126.4584155239409
 30
0.0
 10
82.77496427712362
 20
-126.4584155239409
 30
0.0
  0
POLYLINE
  5
71
330
1F
100
AcDbEntity
  8
_U+30EC_U+30A4_U+30E4_U+30FC 1
 62
     7
420
 16777215
370
     9
100
AcDb2dPolyline
 66
     1
 10
0.0
 20
0.0
 30
0.0
  0
VERTEX
  5
72
330
71
100
AcDbEntity
  8
_U+30EC_U+30A4_U+30E4_U+30FC 1
 62
     7
420
 16777215
370
     9
100
AcDbVertex
100
AcDb2dVertex
 10
94.78076785971894
 20
-126.5583221905825
 30
0.0
  0
VERTEX
  5
73
330
71
100
AcDbEntity
  8
_U+30EC_U+30A4_U+30E4_U+30FC 1
 62
     7
420
 16777215
370
     9
100
AcDbVertex
100
AcDb2dVertex
 10
82.77496427712362
 20
-126.5583221905825
 30
0.0
  0
SEQEND
  5
74
330
71
100
AcDbEntity
  8
_U+30EC_U+30A4_U+30E4_U+30FC 1
 62
     7
420
 16777215
370
     9
  0
POLYLINE
  5
75
330
1F
100
AcDbEntity
  8
_U+30EC_U+30A4_U+30E4_U+30FC 1
 62
     7
420
 16777215
370
     9
100
AcDb2dPolyline
 66
     1
 10
0.0
 20
0.0
 30
0.0
  0
VERTEX
  5
76
330
75
100
AcDbEntity
  8
_U+30EC_U+30A4_U+30E4_U+30FC 1
 62
     7
420
 16777215
370
     9
100
AcDbVertex
100
AcDb2dVertex
 10
82.77496427712362
 20
-125.0983160798366
 30
0.0
  0
VERTEX
  5
77
330
75
100
AcDbEntity
  8
_U+30EC_U+30A4_U+30E4_U+30FC 1
 62
     7
420
 16777215
370
     9
100
AcDbVertex
100
AcDb2dVertex
 10
82.77496427712362
 20
-127.5580944125551
 30
0.0
  0
SEQEND
  5
78
330
75
100
AcDbEntity
  8
_U+30EC_U+30A4_U+30E4_U+30FC 1
 62
     7
420
 16777215
370
     9
  0
SPLINE
  5
79
330
1F
100
AcDbEntity
  8
_U+30EC_U+30A4_U+30E4_U+30FC 1
 62
     7
420
 16777215
370
     9
100
AcDbSpline
210
0.0
220
0.0
230
1.0
 70
    11
 71
     3
 72
    17
 73
    13
 74
     0
 42
0.0000000001
 43
0.0000000001
 12
1.0
 22
0.0
 32
0.0
 13
1.0
 23
0.0
 33
0.0
 40
0.0
 40
0.0
 40
0.0
 40
0.0
 40
1.0
 40
1.0
 40
1.0
 40
2.0
 40
2.0
 40
2.0
 40
3.0
 40
3.0
 40
3.0
 40
4.0
 40
4.0
 40
4.0
 40
4.0
 10
94.78076785971894
 20
-126.4584155239409
 30
0.0
 10
94.72566397223586
 20
-126.4584155239409
 30
0.0
 10
94.68086119560111
 20
-126.5032183017076
 30
0.0
 10
94.68086119560111
 20
-126.5583221905825
 30
0.0
 10
94.68086119560111
 20
-126.6134613572356
 30
0.0
 10
94.72566397223586
 20
-126.658264135002
 30
0.0
 10
94.78076785971894
 20
-126.658264135002
 30
0.0
 10
94.8359070249789
 20
-126.658264135002
 30
0.0
 10
94.88067452383677
 20
-126.6134613572356
 30
0.0
 10
94.88067452383677
 20
-126.5583221905825
 30
0.0
 10
94.88067452383677
 20
-126.5032183017076
 30
0.0
 10
94.8359070249789
 20
-126.4584155239409
 30
0.0
 10
94.78076785971894
 20
-126.4584155239409
 30
0.0
  0
POLYLINE
  5
7A
330
1F
100
AcDbEntity
  8
_U+30EC_U+30A4_U+30E4_U+30FC 1
 62
     7
420
 16777215
370
     9
100
AcDb2dPolyline
 66
     1
 10
0.0
 20
0.0
 30
0.0
  0
VERTEX
  5
7B
330
7A
100
AcDbEntity
  8
_U+30EC_U+30A4_U+30E4_U+30FC 1
 62
     7
420
 16777215
370
     9
100
AcDbVertex
100
AcDb2dVertex
 10
94.78076785971894
 20
-125.0983160798366
 30
0.0
  0
VERTEX
  5
7C
330
7A
100
AcDbEntity
  8
_U+30EC_U+30A4_U+30E4_U+30FC 1
 62
     7
420
 16777215
370
     9
100
AcDbVertex
100
AcDb2dVertex
 10
94.78076785971894
 20
-127.5580944125551
 30
0.0
  0
SEQEND
  5
7D
330
7A
100
AcDbEntity
  8
_U+30EC_U+30A4_U+30E4_U+30FC 1
 62
     7
420
 16777215
370
     9
  0
INSERT
  5
7F
330
1F
100
AcDbEntity
  8
_U+30EC_U+30A4_U+30E4_U+30FC 1
100
AcDbBlockReference
  2
block 4
 10
0.0
 20
0.0
 30
0.0
  0
ENDSEC
  0
SECTION
  2
OBJECTS
  0
DICTIONARY
  5
C
330
0
100
AcDbDictionary
281
     1
  3
ACAD_GROUP
350
D
  3
ACAD_LAYOUT
350
1A
  3
ACAD_MATERIAL
350
3B
  3
ACAD_MLEADERSTYLE
350
87
  3
ACAD_MLINESTYLE
350
17
  3
ACAD_PLOTSETTINGS
350
19
  3
ACAD_PLOTSTYLENAME
350
E
  3
ACAD_TABLESTYLE
350
86
  3
ACAD_VISUALSTYLE
350
2A
  0
SUN
  5
3F
330
29
100
AcDbSun
 90
        1
290
     0
 63
     7
421
 16777215
 40
1.0
291
     1
 91
  2455826
 92
 54000000
292
     0
 70
     2
 71
   256
280
     1
  0
DICTIONARY
  5
D
102
{ACAD_REACTORS
330
C
102
}
330
C
100
AcDbDictionary
281
     1
  0
DICTIONARY
  5
1A
102
{ACAD_REACTORS
330
C
102
}
330
C
100
AcDbDictionary
281
     1
  3
Layout1
350
1E
  3
Layout2
350
26
  3
Model
350
22
  0
DICTIONARY
  5
3B
102
{ACAD_REACTORS
330
C
102
}
330
C
100
AcDbDictionary
281
     1
  3
ByBlock
350
3D
  3
ByLayer
350
3C
  3
Global
350
3E
  0
DICTIONARY
  5
87
102
{ACAD_REACTORS
330
C
102
}
330
C
100
AcDbDictionary
281
     1
  0
DICTIONARY
  5
17
102
{ACAD_REACTORS
330
C
102
}
330
C
100
AcDbDictionary
281
     1
  3
Standard
350
18
  0
DICTIONARY
  5
19
102
{ACAD_REACTORS
330
C
102
}
330
C
100
AcDbDictionary
281
     1
  0
ACDBDICTIONARYWDFLT
  5
E
102
{ACAD_REACTORS
330
C
102
}
330
C
100
AcDbDictionary
281
     1
  3
Normal
350
F
100
AcDbDictionaryWithDefault
340
F
  0
DICTIONARY
  5
86
102
{ACAD_REACTORS
330
C
102
}
330
C
100
AcDbDictionary
281
     1
  0
DICTIONARY
  5
2A
102
{ACAD_REACTORS
330
C
102
}
330
C
100
AcDbDictionary
281
     1
  3
2dWireframe
350
2F
  3
3D Hidden
350
31
  3
3dWireframe
350
30
  3
Basic
350
32
  3
Brighten
350
36
  3
ColorChange
350
3A
  3
Conceptual
350
34
  3
Dim
350
35
  3
Facepattern
350
39
  3
Flat
350
2B
  3
FlatWithEdges
350
2C
  3
Gouraud
350
2D
  3
GouraudWithEdges
350
2E
  3
Linepattern
350
38
  3
Realistic
350
33
  3
Thicken
350
37
  0
LAYOUT
  5
1E
102
{ACAD_REACTORS
330
1A
102
}
330
1A
100
AcDbPlotSettings
  1

  2
none_device
  4

  6

 40
0.0
 41
0.0
 42
0.0
 43
0.0
 44
0.0
 45
0.0
 46
0.0
 47
0.0
 48
0.0
 49
0.0
140
0.0
141
0.0
142
1.0
143
1.0
 70
   688
 72
     0
 73
     0
 74
     5
  7

 75
    16
 76
     0
 77
     2
 78
   300
147
1.0
148
0.0
149
0.0
100
AcDbLayout
  1
Layout1
 70
     1
 71
     1
 10
0.0
 20
0.0
 11
12.0
 21
9.0
 12
0.0
 22
0.0
 32
0.0
 14
1.000000000000000E+20
 24
1.000000000000000E+20
 34
1.000000000000000E+20
 15
-1.000000000000000E+20
 25
-1.000000000000000E+20
 35
-1.000000000000000E+20
146
0.0
 13
0.0
 23
0.0
 33
0.0
 16
1.0
 26
0.0
 36
0.0
 17
0.0
 27
1.0
 37
0.0
 76
     0
330
1B
  0
LAYOUT
  5
26
102
{ACAD_REACTORS
330
1A
102
}
330
1A
100
AcDbPlotSettings
  1

  2
none_device
  4

  6

 40
0.0
 41
0.0
 42
0.0
 43
0.0
 44
0.0
 45
0.0
 46
0.0
 47
0.0
 48
0.0
 49
0.0
140
0.0
141
0.0
142
1.0
143
1.0
 70
   688
 72
     0
 73
     0
 74
     5
  7

 75
    16
 76
     0
 77
     2
 78
   300
147
1.0
148
0.0
149
0.0
100
AcDbLayout
  1
Layout2
 70
     1
 71
     2
 10
0.0
 20
0.0
 11
0.0
 21
0.0
 12
0.0
 22
0.0
 32
0.0
 14
0.0
 24
0.0
 34
0.0
 15
0.0
 25
0.0
 35
0.0
146
0.0
 13
0.0
 23
0.0
 33
0.0
 16
1.0
 26
0.0
 36
0.0
 17
0.0
 27
1.0
 37
0.0
 76
     0
330
23
  0
LAYOUT
  5
22
102
{ACAD_REACTORS
330
1A
102
}
330
1A
100
AcDbPlotSettings
  1

  2
none_device
  4

  6

 40
0.0
 41
0.0
 42
0.0
 43
0.0
 44
0.0
 45
0.0
 46
0.0
 47
0.0
 48
0.0
 49
0.0
140
0.0
141
0.0
142
1.0
143
1.0
 70
  1712
 72
     0
 73
     0
 74
     0
  7

 75
     0
 76
     0
 77
     2
 78
   300
147
1.0
148
0.0
149
0.0
100
AcDbLayout
  1
Model
 70
     1
 71
     0
 10
0.0
 20
0.0
 11
12.0
 21
9.0
 12
0.0
 22
0.0
 32
0.0
 14
1.000000000000000E+20
 24
1.000000000000000E+20
 34
1.000000000000000E+20
 15
-1.000000000000000E+20
 25
-1.000000000000000E+20
 35
-1.000000000000000E+20
146
0.0
 13
0.0
 23
0.0
 33
0.0
 16
1.0
 26
0.0
 36
0.0
 17
0.0
 27
1.0
 37
0.0
 76
     0
330
1F
331
29
  0
MATERIAL
  5
3D
102
{ACAD_REACTORS
330
3B
102
}
330
3B
100
AcDbMaterial
  1
ByBlock
 72
     1
 94
      127
  0
MATERIAL
  5
3C
102
{ACAD_REACTORS
330
3B
102
}
330
3B
100
AcDbMaterial
  1
ByLayer
 72
     1
 94
      127
  0
MATERIAL
  5
3E
102
{ACAD_REACTORS
330
3B
102
}
330
3B
100
AcDbMaterial
  1
Global
 72
     1
 94
      127
  0
MLINESTYLE
  5
18
102
{ACAD_REACTORS
330
17
102
}
330
17
100
AcDbMlineStyle
  2
Standard
 70
     0
  3

 62
   256
 51
90.0
 52
90.0
 71
     2
 49
0.5
 62
   256
  6
BYLAYER
 49
-0.5
 62
   256
  6
BYLAYER
  0
ACDBPLACEHOLDER
  5
F
102
{ACAD_REACTORS
330
E
102
}
330
E
  0
VISUALSTYLE
  5
2F
102
{ACAD_REACTORS
330
2A
102
}
330
2A
100
AcDbVisualStyle
  2
2dWireframe
 70
     4
177
     2
291
     0
 71
     0
176
     1
 72
     2
176
     1
 73
     0
176
     1
 90
        0
176
     1
 40
-0.6
176
     1
 41
-30.0
176
     1
 62
     5
 63
     7
421
 16777215
176
     1
 74
     1
176
     1
 91
        4
176
     1
 64
     7
176
     1
 65
   257
176
     1
 75
     1
176
     1
175
     1
176
     1
 42
1.0
176
     1
 92
        0
176
     1
 66
   257
176
     1
 43
1.0
176
     1
 76
     1
176
     1
 77
     6
176
     1
 78
     2
176
     1
 67
     7
176
     1
 79
     5
176
     1
170
     0
176
     1
171
     0
176
     1
290
     0
176
     1
 93
        1
176
     1
 44
0.0
176
     1
173
     0
176
     1
  0
VISUALSTYLE
  5
31
102
{ACAD_REACTORS
330
2A
102
}
330
2A
100
AcDbVisualStyle
  2
3D Hidden
 70
     6
177
     2
291
     0
 71
     1
176
     1
 72
     2
176
     1
 73
     2
176
     1
 90
        0
176
     1
 40
-0.6
176
     1
 41
-30.0
176
     1
 62
     5
 63
     7
421
 16777215
176
     1
 74
     2
176
     1
 91
        2
176
     1
 64
     7
176
     1
 65
   257
176
     1
 75
     2
176
     1
175
     1
176
     1
 42
40.0
176
     1
 92
        0
176
     1
 66
   257
176
     1
 43
1.0
176
     1
 76
     1
176
     1
 77
     6
176
     1
 78
     2
176
     1
 67
     7
176
     1
 79
     3
176
     1
170
     0
176
     1
171
     0
176
     1
290
     0
176
     1
 93
        1
176
     1
 44
0.0
176
     1
173
     0
176
     1
  0
VISUALSTYLE
  5
30
102
{ACAD_REACTORS
330
2A
102
}
330
2A
100
AcDbVisualStyle
  2
3dWireframe
 70
     5
177
     2
291
     0
 71
     0
176
     1
 72
     2
176
     1
 73
     0
176
     1
 90
        0
176
     1
 40
-0.6
176
     1
 41
-30.0
176
     1
 62
     5
 63
     7
421
 16777215
176
     1
 74
     1
176
     1
 91
        4
176
     1
 64
     7
176
     1
 65
   257
176
     1
 75
     1
176
     1
175
     1
176
     1
 42
1.0
176
     1
 92
        0
176
     1
 66
   257
176
     1
 43
1.0
176
     1
 76
     1
176
     1
 77
     6
176
     1
 78
     2
176
     1
 67
     7
176
     1
 79
     5
176
     1
170
     0
176
     1
171
     0
176
     1
290
     0
176
     1
 93
        1
176
     1
 44
0.0
176
     1
173
     0
176
     1
  0
VISUALSTYLE
  5
32
102
{ACAD_REACTORS
330
2A
102
}
330
2A
100
AcDbVisualStyle
  2
Basic
 70
     7
177
     2
291
     1
 71
     1
176
     1
 72
     0
176
     1
 73
     1
176
     1
 90
        0
176
     1
 40
-0.6
176
     1
 41
-30.0
176
     1
 62
     5
 63
     7
421
 16777215
176
     1
 74
     0
176
     1
 91
        4
176
     1
 64
     7
176
     1
 65
   257
176
     1
 75
     1
176
     1
175
     1
176
     1
 42
1.0
176
     1
 92
        8
176
     1
 66
     7
176
     1
 43
1.0
176
     1
 76
     1
176
     1
 77
     6
176
     1
 78
     2
176
     1
 67
     7
176
     1
 79
     5
176
     1
170
     0
176
     1
171
     0
176
     1
290
     0
176
     1
 93
        1
176
     1
 44
0.0
176
     1
173
     0
176
     1
  0
VISUALSTYLE
  5
36
102
{ACAD_REACTORS
330
2A
102
}
330
2A
100
AcDbVisualStyle
  2
Brighten
 70
    12
177
     2
291
     1
 71
     2
176
     1
 72
     2
176
     1
 73
     0
176
     1
 90
        0
176
     1
 40
-0.6
176
     1
 41
-30.0
176
     1
 62
     5
 63
     7
421
 16777215
176
     1
 74
     1
176
     1
 91
        4
176
     1
 64
     7
176
     1
 65
   257
176
     1
 75
     1
176
     1
175
     1
176
     1
 42
1.0
176
     1
 92
        8
176
     1
 66
     7
176
     1
 43
1.0
176
     1
 76
     1
176
     1
 77
     6
176
     1
 78
     2
176
     1
 67
     7
176
     1
 79
     5
176
     1
170
     0
176
     1
171
     0
176
     1
290
     0
176
     1
 93
        1
176
     1
 44
50.0
176
     1
173
     0
176
     1
  0
VISUALSTYLE
  5
3A
102
{ACAD_REACTORS
330
2A
102
}
330
2A
100
AcDbVisualStyle
  2
ColorChange
 70
    16
177
     2
291
     1
 71
     2
176
     1
 72
     2
176
     1
 73
     3
176
     1
 90
        0
176
     1
 40
-0.6
176
     1
 41
-30.0
176
     1
 62
     5
 63
     8
421
  8421504
176
     1
 74
     1
176
     1
 91
        4
176
     1
 64
     7
176
     1
 65
   257
176
     1
 75
     1
176
     1
175
     1
176
     1
 42
1.0
176
     1
 92
        8
176
     1
 66
     8
424
  8421504
176
     1
 43
1.0
176
     1
 76
     1
176
     1
 77
     6
176
     1
 78
     2
176
     1
 67
     7
176
     1
 79
     5
176
     1
170
     0
176
     1
171
     0
176
     1
290
     0
176
     1
 93
        1
176
     1
 44
0.0
176
     1
173
     0
176
     1
  0
VISUALSTYLE
  5
34
102
{ACAD_REACTORS
330
2A
102
}
330
2A
100
AcDbVisualStyle
  2
Conceptual
 70
     9
177
     2
291
     0
 71
     3
176
     1
 72
     2
176
     1
 73
     0
176
     1
 90
        0
176
     1
 40
-0.6
176
     1
 41
-30.0
176
     1
 62
     5
 63
     7
421
 16777215
176
     1
 74
     2
176
     1
 91
        2
176
     1
 64
     7
176
     1
 65
   257
176
     1
 75
     1
176
     1
175
     1
176
     1
 42
40.0
176
     1
 92
        8
176
     1
 66
     7
176
     1
 43
1.0
176
     1
 76
     1
176
     1
 77
     6
176
     1
 78
     2
176
     1
 67
     7
176
     1
 79
     3
176
     1
170
     0
176
     1
171
     0
176
     1
290
     0
176
     1
 93
        1
176
     1
 44
0.0
176
     1
173
     0
176
     1
  0
VISUALSTYLE
  5
35
102
{ACAD_REACTORS
330
2A
102
}
330
2A
100
AcDbVisualStyle
  2
Dim
 70
    11
177
     2
291
     1
 71
     2
176
     1
 72
     2
176
     1
 73
     0
176
     1
 90
        0
176
     1
 40
-0.6
176
     1
 41
-30.0
176
     1
 62
     5
 63
     7
421
 16777215
176
     1
 74
     1
176
     1
 91
        4
176
     1
 64
     7
176
     1
 65
   257
176
     1
 75
     1
176
     1
175
     1
176
     1
 42
1.0
176
     1
 92
        8
176
     1
 66
     7
176
     1
 43
1.0
176
     1
 76
     1
176
     1
 77
     6
176
     1
 78
     2
176
     1
 67
     7
176
     1
 79
     5
176
     1
170
     0
176
     1
171
     0
176
     1
290
     0
176
     1
 93
        1
176
     1
 44
-50.0
176
     1
173
     0
176
     1
  0
VISUALSTYLE
  5
39
102
{ACAD_REACTORS
330
2A
102
}
330
2A
100
AcDbVisualStyle
  2
Facepattern
 70
    15
177
     2
291
     1
 71
     2
176
     1
 72
     2
176
     1
 73
     0
176
     1
 90
        0
176
     1
 40
-0.6
176
     1
 41
-30.0
176
     1
 62
     5
 63
     7
421
 16777215
176
     1
 74
     1
176
     1
 91
        4
176
     1
 64
     7
176
     1
 65
   257
176
     1
 75
     1
176
     1
175
     1
176
     1
 42
1.0
176
     1
 92
        8
176
     1
 66
     7
176
     1
 43
1.0
176
     1
 76
     1
176
     1
 77
     6
176
     1
 78
     2
176
     1
 67
     7
176
     1
 79
     5
176
     1
170
     0
176
     1
171
     0
176
     1
290
     0
176
     1
 93
        1
176
     1
 44
0.0
176
     1
173
     0
176
     1
  0
VISUALSTYLE
  5
2B
102
{ACAD_REACTORS
330
2A
102
}
330
2A
100
AcDbVisualStyle
  2
Flat
 70
     0
177
     2
291
     1
 71
     2
176
     1
 72
     1
176
     1
 73
     1
176
     1
 90
        2
176
     1
 40
-0.6
176
     1
 41
30.0
176
     1
 62
     5
 63
     7
421
 16777215
176
     1
 74
     0
176
     1
 91
        4
176
     1
 64
     7
176
     1
 65
   257
176
     1
 75
     1
176
     1
175
     1
176
     1
 42
1.0
176
     1
 92
        8
176
     1
 66
     7
176
     1
 43
1.0
176
     1
 76
     1
176
     1
 77
     6
176
     1
 78
     2
176
     1
 67
     7
176
     1
 79
     5
176
     1
170
     0
176
     1
171
     0
176
     1
290
     0
176
     1
 93
       13
176
     1
 44
0.0
176
     1
173
     0
176
     1
  0
VISUALSTYLE
  5
2C
102
{ACAD_REACTORS
330
2A
102
}
330
2A
100
AcDbVisualStyle
  2
FlatWithEdges
 70
     1
177
     2
291
     1
 71
     2
176
     1
 72
     1
176
     1
 73
     1
176
     1
 90
        2
176
     1
 40
-0.6
176
     1
 41
30.0
176
     1
 62
     5
 63
     7
421
 16777215
176
     1
 74
     1
176
     1
 91
        4
176
     1
 64
     7
176
     1
 65
   257
176
     1
 75
     1
176
     1
175
     1
176
     1
 42
1.0
176
     1
 92
        0
176
     1
 66
   257
176
     1
 43
1.0
176
     1
 76
     1
176
     1
 77
     6
176
     1
 78
     2
176
     1
 67
     7
176
     1
 79
     5
176
     1
170
     0
176
     1
171
     0
176
     1
290
     0
176
     1
 93
       13
176
     1
 44
0.0
176
     1
173
     0
176
     1
  0
VISUALSTYLE
  5
2D
102
{ACAD_REACTORS
330
2A
102
}
330
2A
100
AcDbVisualStyle
  2
Gouraud
 70
     2
177
     2
291
     1
 71
     2
176
     1
 72
     2
176
     1
 73
     1
176
     1
 90
        2
176
     1
 40
-0.6
176
     1
 41
30.0
176
     1
 62
     5
 63
     7
421
 16777215
176
     1
 74
     0
176
     1
 91
        4
176
     1
 64
     7
176
     1
 65
   257
176
     1
 75
     1
176
     1
175
     1
176
     1
 42
1.0
176
     1
 92
        0
176
     1
 66
     7
176
     1
 43
1.0
176
     1
 76
     1
176
     1
 77
     6
176
     1
 78
     2
176
     1
 67
     7
176
     1
 79
     5
176
     1
170
     0
176
     1
171
     0
176
     1
290
     0
176
     1
 93
       13
176
     1
 44
0.0
176
     1
173
     0
176
     1
  0
VISUALSTYLE
  5
2E
102
{ACAD_REACTORS
330
2A
102
}
330
2A
100
AcDbVisualStyle
  2
GouraudWithEdges
 70
     3
177
     2
291
     1
 71
     2
176
     1
 72
     2
176
     1
 73
     1
176
     1
 90
        2
176
     1
 40
-0.6
176
     1
 41
30.0
176
     1
 62
     5
 63
     7
421
 16777215
176
     1
 74
     1
176
     1
 91
        4
176
     1
 64
     7
176
     1
 65
   257
176
     1
 75
     1
176
     1
175
     1
176
     1
 42
1.0
176
     1
 92
        0
176
     1
 66
   257
176
     1
 43
1.0
176
     1
 76
     1
176
     1
 77
     6
176
     1
 78
     2
176
     1
 67
     7
176
     1
 79
     5
176
     1
170
     0
176
     1
171
     0
176
     1
290
     0
176
     1
 93
       13
176
     1
 44
0.0
176
     1
173
     0
176
     1
  0
VISUALSTYLE
  5
38
102
{ACAD_REACTORS
330
2A
102
}
330
2A
100
AcDbVisualStyle
  2
Linepattern
 70
    14
177
     2
291
     1
 71
     2
176
     1
 72
     2
176
     1
 73
     0
176
     1
 90
        0
176
     1
 40
-0.6
176
     1
 41
-30.0
176
     1
 62
     5
 63
     7
421
 16777215
176
     1
 74
     1
176
     1
 91
        4
176
     1
 64
     7
176
     1
 65
   257
176
     1
 75
     7
176
     1
175
     7
176
     1
 42
1.0
176
     1
 92
        8
176
     1
 66
     7
176
     1
 43
1.0
176
     1
 76
     1
176
     1
 77
     6
176
     1
 78
     2
176
     1
 67
     7
176
     1
 79
     5
176
     1
170
     0
176
     1
171
     0
176
     1
290
     0
176
     1
 93
        1
176
     1
 44
0.0
176
     1
173
     0
176
     1
  0
VISUALSTYLE
  5
33
102
{ACAD_REACTORS
330
2A
102
}
330
2A
100
AcDbVisualStyle
  2
Realistic
 70
     8
177
     2
291
     0
 71
     2
176
     1
 72
     2
176
     1
 73
     0
176
     1
 90
        0
176
     1
 40
-0.6
176
     1
 41
-30.0
176
     1
 62
     5
 63
     7
421
 16777215
176
     1
 74
     1
176
     1
 91
        0
176
     1
 64
     7
176
     1
 65
   257
176
     1
 75
     1
176
     1
175
     1
176
     1
 42
1.0
176
     1
 92
        8
176
     1
 66
     8
424
  7895160
176
     1
 43
1.0
176
     1
 76
     1
176
     1
 77
     6
176
     1
 78
     2
176
     1
 67
     7
176
     1
 79
     5
176
     1
170
     0
176
     1
171
     0
176
     1
290
     0
176
     1
 93
       13
176
     1
 44
0.0
176
     1
173
     0
176
     1
  0
VISUALSTYLE
  5
37
102
{ACAD_REACTORS
330
2A
102
}
330
2A
100
AcDbVisualStyle
  2
Thicken
 70
    13
177
     2
291
     1
 71
     2
176
     1
 72
     2
176
     1
 73
     0
176
     1
 90
        0
176
     1
 40
-0.6
176
     1
 41
-30.0
176
     1
 62
     5
 63
     7
421
 16777215
176
     1
 74
     1
176
     1
 91
        4
176
     1
 64
     7
176
     1
 65
   257
176
     1
 75
     1
176
     1
175
     1
176
     1
 42
1.0
176
     1
 92
       12
176
     1
 66
     7
176
     1
 43
1.0
176
     1
 76
     1
176
     1
 77
     6
176
     1
 78
     2
176
     1
 67
     7
176
     1
 79
     5
176
     1
170
     0
176
     1
171
     0
176
     1
290
     0
176
     1
 93
        1
176
     1
 44
0.0
176
     1
173
     0
176
     1
  0
ENDSEC
  0
EOF
