  0
SECTION
  2
HEADER
  9
$ACADVER
  1
AC1024
  9
$ACADMAINTVER
 70
     6
  9
$DWGCODEPAGE
  3
UNDEFINED
  9
$INSBASE
 10
0.0
 20
0.0
 30
0.0
  9
$EXTMIN
 10
1.000000000000000E+20
 20
1.000000000000000E+20
 30
1.000000000000000E+20
  9
$EXTMAX
 10
-1.000000000000000E+20
 20
-1.000000000000000E+20
 30
-1.000000000000000E+20
  9
$LIMMIN
 10
0.0
 20
0.0
  9
$LIMMAX
 10
12.0
 20
9.0
  9
$ORTHOMODE
 70
     0
  9
$REGENMODE
 70
     1
  9
$FILLMODE
 70
     1
  9
$QTEXTMODE
 70
     0
  9
$MIRRTEXT
 70
     1
  9
$LTSCALE
 40
1.0
  9
$ATTMODE
 70
     1
  9
$TEXTSIZE
 40
0.2
  9
$TRACEWID
 40
0.05
  9
$TEXTSTYLE
  7
Standard
  9
$CLAYER
  8
0
  9
$CELTYPE
  6
ByLayer
  9
$CECOLOR
 62
   256
  9
$CELTSCALE
 40
1.0
  9
$DISPSILH
 70
     0
  9
$DIMSCALE
 40
1.0
  9
$DIMASZ
 40
0.18
  9
$DIMEXO
 40
0.0625
  9
$DIMDLI
 40
0.38
  9
$DIMRND
 40
0.0
  9
$DIMDLE
 40
0.0
  9
$DIMEXE
 40
0.18
  9
$DIMTP
 40
0.0
  9
$DIMTM
 40
0.0
  9
$DIMTXT
 40
0.18
  9
$DIMCEN
 40
0.09
  9
$DIMTSZ
 40
0.0
  9
$DIMTOL
 70
     0
  9
$DIMLIM
 70
     0
  9
$DIMTIH
 70
     1
  9
$DIMTOH
 70
     1
  9
$DIMSE1
 70
     0
  9
$DIMSE2
 70
     0
  9
$DIMTAD
 70
     0
  9
$DIMZIN
 70
     0
  9
$DIMBLK
  1

  9
$DIMASO
 70
     1
  9
$DIMSHO
 70
     1
  9
$DIMPOST
  1

  9
$DIMAPOST
  1

  9
$DIMALT
 70
     0
  9
$DIMALTD
 70
     2
  9
$DIMALTF
 40
25.4
  9
$DIMLFAC
 40
1.0
  9
$DIMTOFL
 70
     0
  9
$DIMTVP
 40
0.0
  9
$DIMTIX
 70
     0
  9
$DIMSOXD
 70
     0
  9
$DIMSAH
 70
     0
  9
$DIMBLK1
  1

  9
$DIMBLK2
  1

  9
$DIMSTYLE
  2
Standard
  9
$DIMCLRD
 70
     0
  9
$DIMCLRE
 70
     0
  9
$DIMCLRT
 70
     0
  9
$DIMTFAC
 40
1.0
  9
$DIMGAP
 40
0.09
  9
$DIMJUST
 70
     0
  9
$DIMSD1
 70
     0
  9
$DIMSD2
 70
     0
  9
$DIMTOLJ
 70
     1
  9
$DIMTZIN
 70
     0
  9
$DIMALTZ
 70
     0
  9
$DIMALTTZ
 70
     0
  9
$DIMUPT
 70
     0
  9
$DIMDEC
 70
     4
  9
$DIMTDEC
 70
     4
  9
$DIMALTU
 70
     2
  9
$DIMALTTD
 70
     2
  9
$DIMTXSTY
  7
Standard
  9
$DIMAUNIT
 70
     0
  9
$DIMADEC
 70
     0
  9
$DIMALTRND
 40
0.0
  9
$DIMAZIN
 70
     0
  9
$DIMDSEP
 70
    46
  9
$DIMATFIT
 70
     3
  9
$DIMFRAC
 70
     0
  9
$DIMLDRBLK
  1

  9
$DIMLUNIT
 70
     2
  9
$DIMLWD
 70
    -2
  9
$DIMLWE
 70
    -2
  9
$DIMTMOVE
 70
     0
  9
$DIMFXL
 40
1.0
  9
$DIMFXLON
 70
     0
  9
$DIMJOGANG
 40
0.7853981633974483
  9
$DIMTFILL
 70
     0
  9
$DIMTFILLCLR
 70
     0
  9
$DIMARCSYM
 70
     0
  9
$DIMLTYPE
  6

  9
$DIMLTEX1
  6

  9
$DIMLTEX2
  6

  9
$DIMTXTDIRECTION
 70
     0
  9
$LUNITS
 70
     2
  9
$LUPREC
 70
     4
  9
$SKETCHINC
 40
0.1
  9
$FILLETRAD
 40
0.5
  9
$AUNITS
 70
     0
  9
$AUPREC
 70
     0
  9
$MENU
  1
.
  9
$ELEVATION
 40
0.0
  9
$PELEVATION
 40
0.0
  9
$THICKNESS
 40
0.0
  9
$LIMCHECK
 70
     0
  9
$CHAMFERA
 40
0.5
  9
$CHAMFERB
 40
0.5
  9
$CHAMFERC
 40
1.0
  9
$CHAMFERD
 40
0.0
  9
$SKPOLY
 70
     0
  9
$TDCREATE
 40
2457917.593009248
  9
$TDUCREATE
 40
2457917.218009259
  9
$TDUPDATE
 40
2457917.593009248
  9
$TDUUPDATE
 40
2457917.218009259
  9
$TDINDWG
 40
0.0000000116
  9
$TDUSRTIMER
 40
0.0000000116
  9
$USRTIMER
 70
     1
  9
$ANGBASE
 50
0.0
  9
$ANGDIR
 70
     0
  9
$PDMODE
 70
     0
  9
$PDSIZE
 40
0.0
  9
$PLINEWID
 40
0.0
  9
$SPLFRAME
 70
     0
  9
$SPLINETYPE
 70
     6
  9
$SPLINESEGS
 70
     8
  9
$HANDSEED
  5
134
  9
$SURFTAB1
 70
     6
  9
$SURFTAB2
 70
     6
  9
$SURFTYPE
 70
     6
  9
$SURFU
 70
     6
  9
$SURFV
 70
     6
  9
$UCSBASE
  2

  9
$UCSNAME
  2

  9
$UCSORG
 10
0.0
 20
0.0
 30
0.0
  9
$UCSXDIR
 10
1.0
 20
0.0
 30
0.0
  9
$UCSYDIR
 10
0.0
 20
1.0
 30
0.0
  9
$UCSORTHOREF
  2

  9
$UCSORTHOVIEW
 70
     0
  9
$UCSORGTOP
 10
0.0
 20
0.0
 30
0.0
  9
$UCSORGBOTTOM
 10
0.0
 20
0.0
 30
0.0
  9
$UCSORGLEFT
 10
0.0
 20
0.0
 30
0.0
  9
$UCSORGRIGHT
 10
0.0
 20
0.0
 30
0.0
  9
$UCSORGFRONT
 10
0.0
 20
0.0
 30
0.0
  9
$UCSORGBACK
 10
0.0
 20
0.0
 30
0.0
  9
$PUCSBASE
  2

  9
$PUCSNAME
  2

  9
$PUCSORG
 10
0.0
 20
0.0
 30
0.0
  9
$PUCSXDIR
 10
1.0
 20
0.0
 30
0.0
  9
$PUCSYDIR
 10
0.0
 20
1.0
 30
0.0
  9
$PUCSORTHOREF
  2

  9
$PUCSORTHOVIEW
 70
     0
  9
$PUCSORGTOP
 10
0.0
 20
0.0
 30
0.0
  9
$PUCSORGBOTTOM
 10
0.0
 20
0.0
 30
0.0
  9
$PUCSORGLEFT
 10
0.0
 20
0.0
 30
0.0
  9
$PUCSORGRIGHT
 10
0.0
 20
0.0
 30
0.0
  9
$PUCSORGFRONT
 10
0.0
 20
0.0
 30
0.0
  9
$PUCSORGBACK
 10
0.0
 20
0.0
 30
0.0
  9
$USERI1
 70
     0
  9
$USERI2
 70
     0
  9
$USERI3
 70
     0
  9
$USERI4
 70
     0
  9
$USERI5
 70
     0
  9
$USERR1
 40
0.0
  9
$USERR2
 40
0.0
  9
$USERR3
 40
0.0
  9
$USERR4
 40
0.0
  9
$USERR5
 40
0.0
  9
$WORLDVIEW
 70
     1
  9
$SHADEDGE
 70
     3
  9
$SHADEDIF
 70
    70
  9
$TILEMODE
 70
     1
  9
$MAXACTVP
 70
    64
  9
$PINSBASE
 10
0.0
 20
0.0
 30
0.0
  9
$PLIMCHECK
 70
     0
  9
$PEXTMIN
 10
1.000000000000000E+20
 20
1.000000000000000E+20
 30
1.000000000000000E+20
  9
$PEXTMAX
 10
-1.000000000000000E+20
 20
-1.000000000000000E+20
 30
-1.000000000000000E+20
  9
$PLIMMIN
 10
0.0
 20
0.0
  9
$PLIMMAX
 10
12.0
 20
9.0
  9
$UNITMODE
 70
     0
  9
$VISRETAIN
 70
     1
  9
$PLINEGEN
 70
     0
  9
$PSLTSCALE
 70
     1
  9
$TREEDEPTH
 70
  3020
  9
$CMLSTYLE
  2
Standard
  9
$CMLJUST
 70
     0
  9
$CMLSCALE
 40
1.0
  9
$PROXYGRAPHICS
 70
     1
  9
$MEASUREMENT
 70
     0
  9
$CELWEIGHT
370
    -1
  9
$ENDCAPS
280
     0
  9
$JOINSTYLE
280
     0
  9
$LWDISPLAY
290
     1
  9
$INSUNITS
 70
     1
  9
$HYPERLINKBASE
  1

  9
$STYLESHEET
  1

  9
$XEDIT
290
     1
  9
$CEPSNTYPE
380
     0
  9
$PSTYLEMODE
290
     1
  9
$FINGERPRINTGUID
  2
{6B4CF58D-18D3-BE97-12AB-BFC47CFC1BE1}
  9
$VERSIONGUID
  2
{FAEB1C32-E019-11D5-929B-00C0DF256EC4}
  9
$EXTNAMES
290
     1
  9
$PSVPSCALE
 40
0.0
  9
$OLESTARTUP
290
     0
  9
$SORTENTS
280
   127
  9
$INDEXCTL
280
     0
  9
$HIDETEXT
280
     1
  9
$XCLIPFRAME
280
     2
  9
$HALOGAP
280
     0
  9
$OBSCOLOR
 70
   257
  9
$OBSLTYPE
280
     0
  9
$INTERSECTIONDISPLAY
280
     0
  9
$INTERSECTIONCOLOR
 70
   257
  9
$DIMASSOC
280
     2
  9
$PROJECTNAME
  1

  9
$CAMERADISPLAY
290
     0
  9
$LENSLENGTH
 40
50.0
  9
$CAMERAHEIGHT
 40
0.0
  9
$STEPSPERSEC
 40
2.0
  9
$STEPSIZE
 40
6.0
  9
$3DDWFPREC
 40
2.0
  9
$PSOLWIDTH
 40
0.25
  9
$PSOLHEIGHT
 40
4.0
  9
$LOFTANG1
 40
1.570796326794897
  9
$LOFTANG2
 40
1.570796326794897
  9
$LOFTMAG1
 40
0.0
  9
$LOFTMAG2
 40
0.0
  9
$LOFTPARAM
 70
     7
  9
$LOFTNORMALS
280
     1
  9
$LATITUDE
 40
37.795
  9
$LONGITUDE
 40
-122.394
  9
$NORTHDIRECTION
 40
0.0
  9
$TIMEZONE
 70
 -8000
  9
$LIGHTGLYPHDISPLAY
280
     1
  9
$TILEMODELIGHTSYNCH
280
     1
  9
$CMATERIAL
347
3C
  9
$SOLIDHIST
280
     1
  9
$SHOWHIST
280
     1
  9
$DWFFRAME
280
     2
  9
$DGNFRAME
280
     2
  9
$REALWORLDSCALE
290
     1
  9
$INTERFERECOLOR
 62
   256
  9
$CSHADOW
280
     0
  9
$SHADOWPLANELOCATION
 40
0.0
  0
ENDSEC
  0
SECTION
  2
CLASSES
  0
CLASS
  1
ACDBDICTIONARYWDFLT
  2
AcDbDictionaryWithDefault
  3
ObjectDBX Classes
 90
        0
 91
        4
280
     0
281
     0
  0
CLASS
  1
VISUALSTYLE
  2
AcDbVisualStyle
  3
ObjectDBX Classes
 90
     4095
 91
        4
280
     0
281
     0
  0
CLASS
  1
MATERIAL
  2
AcDbMaterial
  3
ObjectDBX Classes
 90
     1153
 91
        4
280
     0
281
     0
  0
CLASS
  1
SUN
  2
AcDbSun
  3
SCENEOE
 90
     1024
 91
        4
280
     0
281
     0
  0
ENDSEC
  0
SECTION
  2
TABLES
  0
TABLE
  2
VPORT
  5
8
330
0
100
AcDbSymbolTable
 70
     1
  0
VPORT
  5
29
330
8
100
AcDbSymbolTableRecord
100
AcDbViewportTableRecord
  2
*Active
 70
     0
 10
0.0
 20
0.0
 11
1.0
 21
1.0
 12
0.0
 22
0.0
 13
0.0
 23
0.0
 14
0.5
 24
0.5
 15
0.5
 25
0.5
 16
0.0
 26
0.0
 36
1.0
 17
91.00082462281999
 27
-128.4993055234307
 37
0.0
 40
256.9986110468615
 41
0.7081814508812795
 42
50.0
 43
0.0
 44
0.0
 50
0.0
 51
0.0
 71
     0
 72
   100
 73
     1
 74
     3
 75
     0
 76
     0
 77
     0
 78
     0
281
     0
 65
     1
110
0.0
120
0.0
130
0.0
111
1.0
121
0.0
131
0.0
112
0.0
122
1.0
132
0.0
 79
     0
146
0.0
 60
     3
 61
     5
292
     1
282
     1
141
0.0
142
0.0
 63
   250
361
3F
  0
ENDTAB
  0
TABLE
  2
LTYPE
  5
5
330
0
100
AcDbSymbolTable
 70
     2
  0
LTYPE
  5
14
330
5
100
AcDbSymbolTableRecord
100
AcDbLinetypeTableRecord
  2
ByBlock
 70
     0
  3

 72
    65
 73
     0
 40
0.0
  0
LTYPE
  5
15
330
5
100
AcDbSymbolTableRecord
100
AcDbLinetypeTableRecord
  2
ByLayer
 70
     0
  3

 72
    65
 73
     0
 40
0.0
  0
LTYPE
  5
16
330
5
100
AcDbSymbolTableRecord
100
AcDbLinetypeTableRecord
  2
Continuous
 70
     0
  3
Solid line
 72
    65
 73
     0
 40
0.0
  0
LTYPE
  5
77
330
5
100
AcDbSymbolTableRecord
100
AcDbLinetypeTableRecord
  2
AI-Linetype-1
 70
     0
  3
Adobe Illustrator Linetype No. 1
 72
    65
 73
     2
 40
1.411111110758333
 49
0.7055555553791667
 74
     0
 49
-0.7055555553791667
 74
     0
  0
ENDTAB
  0
TABLE
  2
LAYER
  5
2
330
0
100
AcDbSymbolTable
 70
     2
  0
LAYER
  5
10
330
2
100
AcDbSymbolTableRecord
100
AcDbLayerTableRecord
  2
0
 70
     0
 62
     7
  6
Continuous
370
    -3
390
F
347
3E
  0
LAYER
  5
40
330
2
100
AcDbSymbolTableRecord
100
AcDbLayerTableRecord
  2
_U+30EC_U+30A4_U+30E4_U+30FC 1
 70
     0
 62
     7
  6
Continuous
370
    -3
390
F
347
3E
  0
ENDTAB
  0
TABLE
  2
STYLE
  5
3
330
0
100
AcDbSymbolTable
 70
     1
  0
STYLE
  5
11
330
3
100
AcDbSymbolTableRecord
100
AcDbTextStyleTableRecord
  2
Standard
 70
     0
 40
0.0
 41
1.0
 50
0.0
 71
     0
 42
0.2
  3
txt
  4

  0
ENDTAB
  0
TABLE
  2
VIEW
  5
6
330
0
100
AcDbSymbolTable
 70
     0
  0
ENDTAB
  0
TABLE
  2
UCS
  5
7
330
0
100
AcDbSymbolTable
 70
     0
  0
ENDTAB
  0
TABLE
  2
APPID
  5
9
330
0
100
AcDbSymbolTable
 70
     1
  0
APPID
  5
12
330
9
100
AcDbSymbolTableRecord
100
AcDbRegAppTableRecord
  2
ACAD
 70
     0
  0
ENDTAB
  0
TABLE
  2
DIMSTYLE
  5
A
330
0
100
AcDbSymbolTable
 70
     1
100
AcDbDimStyleTable
  0
DIMSTYLE
105
27
330
A
100
AcDbSymbolTableRecord
100
AcDbDimStyleTableRecord
  2
Standard
 70
     0
178
     0
340
11
  0
ENDTAB
  0
TABLE
  2
BLOCK_RECORD
  5
1
330
0
100
AcDbSymbolTable
 70
     8
  0
BLOCK_RECORD
  5
1F
330
1
100
AcDbSymbolTableRecord
100
AcDbBlockTableRecord
  2
*Model_Space
340
22
 70
     0
280
     1
281
     0
  0
BLOCK_RECORD
  5
1B
330
1
100
AcDbSymbolTableRecord
100
AcDbBlockTableRecord
  2
*Paper_Space
340
1E
 70
     0
280
     1
281
     0
  0
BLOCK_RECORD
  5
23
330
1
100
AcDbSymbolTableRecord
100
AcDbBlockTableRecord
  2
*Paper_Space0
340
26
 70
     0
280
     1
281
     0
  0
BLOCK_RECORD
  5
92
330
1
100
AcDbSymbolTableRecord
100
AcDbBlockTableRecord
  2
block 2
340
0
102
{BLKREFS
331
93
102
}
 70
     0
280
     1
281
     0
  0
BLOCK_RECORD
  5
B5
330
1
100
AcDbSymbolTableRecord
100
AcDbBlockTableRecord
  2
block 3
340
0
102
{BLKREFS
331
B6
102
}
 70
     0
280
     1
281
     0
  0
BLOCK_RECORD
  5
C7
330
1
100
AcDbSymbolTableRecord
100
AcDbBlockTableRecord
  2
block 4
340
0
102
{BLKREFS
331
C8
102
}
 70
     0
280
     1
281
     0
  0
BLOCK_RECORD
  5
EA
330
1
100
AcDbSymbolTableRecord
100
AcDbBlockTableRecord
  2
block 5
340
0
102
{BLKREFS
331
EB
102
}
 70
     0
280
     1
281
     0
  0
BLOCK_RECORD
  5
F3
330
1
100
AcDbSymbolTableRecord
100
AcDbBlockTableRecord
  2
block 6
340
0
102
{BLKREFS
331
F4
102
}
 70
     0
280
     1
281
     0
  0
BLOCK_RECORD
  5
103
330
1
100
AcDbSymbolTableRecord
100
AcDbBlockTableRecord
  2
block 7
340
0
102
{BLKREFS
331
104
102
}
 70
     0
280
     1
281
     0
  0
BLOCK_RECORD
  5
109
330
1
100
AcDbSymbolTableRecord
100
AcDbBlockTableRecord
  2
block 8
340
0
102
{BLKREFS
331
10A
102
}
 70
     0
280
     1
281
     0
  0
ENDTAB
  0
ENDSEC
  0
SECTION
  2
BLOCKS
  0
BLOCK
  5
20
330
1F
100
AcDbEntity
  8
0
100
AcDbBlockBegin
  2
*Model_Space
 70
     0
 10
0.0
 20
0.0
 30
0.0
  3
*Model_Space
  1

  0
ENDBLK
  5
21
330
1F
100
AcDbEntity
  8
0
100
AcDbBlockEnd
  0
BLOCK
  5
1C
330
1B
100
AcDbEntity
 67
     1
  8
0
100
AcDbBlockBegin
  2
*Paper_Space
 70
     0
 10
0.0
 20
0.0
 30
0.0
  3
*Paper_Space
  1

  0
ENDBLK
  5
1D
330
1B
100
AcDbEntity
 67
     1
  8
0
100
AcDbBlockEnd
  0
BLOCK
  5
24
330
23
100
AcDbEntity
  8
0
100
AcDbBlockBegin
  2
*Paper_Space0
 70
     0
 10
0.0
 20
0.0
 30
0.0
  3
*Paper_Space0
  1

  0
ENDBLK
  5
25
330
23
100
AcDbEntity
  8
0
100
AcDbBlockEnd
  0
BLOCK
  5
94
330
92
100
AcDbEntity
  8
0
100
AcDbBlockBegin
  2
block 2
 70
     0
 10
0.0
 20
0.0
 30
0.0
  3
block 2
  1

  0
POLYLINE
  5
96
330
92
100
AcDbEntity
  8
_U+30EC_U+30A4_U+30E4_U+30FC 1
370
     0
100
AcDb2dPolyline
 66
     1
 10
0.0
 20
0.0
 30
0.0
  0
VERTEX
  5
97
330
96
100
AcDbEntity
  8
_U+30EC_U+30A4_U+30E4_U+30FC 1
370
     0
100
AcDbVertex
100
AcDb2dVertex
 10
79.90158282507669
 20
-122.0711018575031
 30
0.0
  0
VERTEX
  5
98
330
96
100
AcDbEntity
  8
_U+30EC_U+30A4_U+30E4_U+30FC 1
370
     0
100
AcDbVertex
100
AcDb2dVertex
 10
79.90158282507669
 20
-122.4180229728677
 30
0.0
  0
VERTEX
  5
99
330
96
100
AcDbEntity
  8
_U+30EC_U+30A4_U+30E4_U+30FC 1
370
     0
100
AcDbVertex
100
AcDb2dVertex
 10
79.71589217842173
 20
-122.4180229728677
 30
0.0
  0
VERTEX
  5
9A
330
96
100
AcDbEntity
  8
_U+30EC_U+30A4_U+30E4_U+30FC 1
370
     0
100
AcDbVertex
100
AcDb2dVertex
 10
79.71589217842173
 20
-122.0711018575031
 30
0.0
  0
VERTEX
  5
9B
330
96
100
AcDbEntity
  8
_U+30EC_U+30A4_U+30E4_U+30FC 1
370
     0
100
AcDbVertex
100
AcDb2dVertex
 10
79.15675318116568
 20
-122.0711018575031
 30
0.0
  0
VERTEX
  5
9C
330
96
100
AcDbEntity
  8
_U+30EC_U+30A4_U+30E4_U+30FC 1
370
     0
100
AcDbVertex
100
AcDb2dVertex
 10
79.15675318116568
 20
-121.8468261414133
 30
0.0
  0
VERTEX
  5
9D
330
96
100
AcDbEntity
  8
_U+30EC_U+30A4_U+30E4_U+30FC 1
370
     0
100
AcDbVertex
100
AcDb2dVertex
 10
79.73570147746192
 20
-120.8737589216045
 30
0.0
  0
VERTEX
  5
9E
330
96
100
AcDbEntity
  8
_U+30EC_U+30A4_U+30E4_U+30FC 1
370
     0
100
AcDbVertex
100
AcDb2dVertex
 10
79.90158282507669
 20
-120.8737589216045
 30
0.0
  0
VERTEX
  5
9F
330
96
100
AcDbEntity
  8
_U+30EC_U+30A4_U+30E4_U+30FC 1
370
     0
100
AcDbVertex
100
AcDb2dVertex
 10
79.90158282507669
 20
-121.8721475932299
 30
0.0
  0
VERTEX
  5
A0
330
96
100
AcDbEntity
  8
_U+30EC_U+30A4_U+30E4_U+30FC 1
370
     0
100
AcDbVertex
100
AcDb2dVertex
 10
80.07831622347001
 20
-121.8721475932299
 30
0.0
  0
VERTEX
  5
A1
330
96
100
AcDbEntity
  8
_U+30EC_U+30A4_U+30E4_U+30FC 1
370
     0
100
AcDbVertex
100
AcDb2dVertex
 10
80.07831622347001
 20
-122.0711018575031
 30
0.0
  0
VERTEX
  5
A2
330
96
100
AcDbEntity
  8
_U+30EC_U+30A4_U+30E4_U+30FC 1
370
     0
100
AcDbVertex
100
AcDb2dVertex
 10
79.90158282507669
 20
-122.0711018575031
 30
0.0
  0
SEQEND
  5
A3
330
96
100
AcDbEntity
  8
_U+30EC_U+30A4_U+30E4_U+30FC 1
370
     0
  0
POLYLINE
  5
A4
330
92
100
AcDbEntity
  8
_U+30EC_U+30A4_U+30E4_U+30FC 1
370
     0
100
AcDb2dPolyline
 66
     1
 10
0.0
 20
0.0
 30
0.0
  0
VERTEX
  5
A5
330
A4
100
AcDbEntity
  8
_U+30EC_U+30A4_U+30E4_U+30FC 1
370
     0
100
AcDbVertex
100
AcDb2dVertex
 10
79.71589217842173
 20
-121.2163736676126
 30
0.0
  0
VERTEX
  5
A6
330
A4
100
AcDbEntity
  8
_U+30EC_U+30A4_U+30E4_U+30FC 1
370
     0
100
AcDbVertex
100
AcDb2dVertex
 10
79.32625187903997
 20
-121.8721475932299
 30
0.0
  0
VERTEX
  5
A7
330
A4
100
AcDbEntity
  8
_U+30EC_U+30A4_U+30E4_U+30FC 1
370
     0
100
AcDbVertex
100
AcDb2dVertex
 10
79.71589217842173
 20
-121.8721475932299
 30
0.0
  0
VERTEX
  5
A8
330
A4
100
AcDbEntity
  8
_U+30EC_U+30A4_U+30E4_U+30FC 1
370
     0
100
AcDbVertex
100
AcDb2dVertex
 10
79.71589217842173
 20
-121.2163736676126
 30
0.0
  0
SEQEND
  5
A9
330
A4
100
AcDbEntity
  8
_U+30EC_U+30A4_U+30E4_U+30FC 1
370
     0
  0
HATCH
  5
AA
330
92
100
AcDbEntity
  8
_U+30EC_U+30A4_U+30E4_U+30FC 1
 62
   179
420
  2234388
100
AcDbHatch
 10
0.0
 20
0.0
 30
0.0
210
0.0
220
0.0
230
1.0
  2
SOLID
 70
     1
 71
     0
 91
        2
 92
        1
 93
       11
 72
     1
 10
79.90158282507669
 20
-122.0711018575031
 11
79.90158282507669
 21
-122.4180229728677
 72
     1
 10
79.90158282507669
 20
-122.4180229728677
 11
79.71589217842173
 21
-122.4180229728677
 72
     1
 10
79.71589217842173
 20
-122.4180229728677
 11
79.71589217842173
 21
-122.0711018575031
 72
     1
 10
79.71589217842173
 20
-122.0711018575031
 11
79.15675318116568
 21
-122.0711018575031
 72
     1
 10
79.15675318116568
 20
-122.0711018575031
 11
79.15675318116568
 21
-121.8468261414133
 72
     1
 10
79.15675318116568
 20
-121.8468261414133
 11
79.73570147746192
 21
-120.8737589216045
 72
     1
 10
79.73570147746192
 20
-120.8737589216045
 11
79.90158282507669
 21
-120.8737589216045
 72
     1
 10
79.90158282507669
 20
-120.8737589216045
 11
79.90158282507669
 21
-121.8721475932299
 72
     1
 10
79.90158282507669
 20
-121.8721475932299
 11
80.07831622347001
 21
-121.8721475932299
 72
     1
 10
80.07831622347001
 20
-121.8721475932299
 11
80.07831622347001
 21
-122.0711018575031
 72
     1
 10
80.07831622347001
 20
-122.0711018575031
 11
79.90158282507669
 21
-122.0711018575031
 97
        0
 92
        1
 93
        3
 72
     1
 10
79.71589217842173
 20
-121.2163736676126
 11
79.32625187903997
 21
-121.8721475932299
 72
     1
 10
79.32625187903997
 20
-121.8721475932299
 11
79.71589217842173
 21
-121.8721475932299
 72
     1
 10
79.71589217842173
 20
-121.8721475932299
 11
79.71589217842173
 21
-121.2163736676126
 97
        0
 75
     2
 76
     1
 98
        0
  0
POLYLINE
  5
AB
330
92
100
AcDbEntity
  8
_U+30EC_U+30A4_U+30E4_U+30FC 1
370
     0
100
AcDb2dPolyline
 66
     1
 10
0.0
 20
0.0
 30
0.0
  0
VERTEX
  5
AC
330
AB
100
AcDbEntity
  8
_U+30EC_U+30A4_U+30E4_U+30FC 1
370
     0
100
AcDbVertex
100
AcDb2dVertex
 10
80.24523109973036
 20
-122.4180229728677
 30
0.0
  0
VERTEX
  5
AD
330
AB
100
AcDbEntity
  8
_U+30EC_U+30A4_U+30E4_U+30FC 1
370
     0
100
AcDbVertex
100
AcDb2dVertex
 10
80.24523109973036
 20
-122.1663587476702
 30
0.0
  0
VERTEX
  5
AE
330
AB
100
AcDbEntity
  8
_U+30EC_U+30A4_U+30E4_U+30FC 1
370
     0
100
AcDbVertex
100
AcDb2dVertex
 10
80.45986054846142
 20
-122.1663587476702
 30
0.0
  0
VERTEX
  5
AF
330
AB
100
AcDbEntity
  8
_U+30EC_U+30A4_U+30E4_U+30FC 1
370
     0
100
AcDbVertex
100
AcDb2dVertex
 10
80.45986054846142
 20
-122.4180229728677
 30
0.0
  0
VERTEX
  5
B0
330
AB
100
AcDbEntity
  8
_U+30EC_U+30A4_U+30E4_U+30FC 1
370
     0
100
AcDbVertex
100
AcDb2dVertex
 10
80.24523109973036
 20
-122.4180229728677
 30
0.0
  0
SEQEND
  5
B1
330
AB
100
AcDbEntity
  8
_U+30EC_U+30A4_U+30E4_U+30FC 1
370
     0
  0
HATCH
  5
B2
330
92
100
AcDbEntity
  8
_U+30EC_U+30A4_U+30E4_U+30FC 1
 62
   179
420
  2234388
100
AcDbHatch
 10
0.0
 20
0.0
 30
0.0
210
0.0
220
0.0
230
1.0
  2
SOLID
 70
     1
 71
     0
 91
        1
 92
        1
 93
        4
 72
     1
 10
80.24523109973036
 20
-122.4180229728677
 11
80.24523109973036
 21
-122.1663587476702
 72
     1
 10
80.24523109973036
 20
-122.1663587476702
 11
80.45986054846142
 21
-122.1663587476702
 72
     1
 10
80.45986054846142
 20
-122.1663587476702
 11
80.45986054846142
 21
-122.4180229728677
 72
     1
 10
80.45986054846142
 20
-122.4180229728677
 11
80.24523109973036
 21
-122.4180229728677
 97
        0
 75
     2
 76
     1
 98
        0
  0
SPLINE
  5
B3
330
92
100
AcDbEntity
  8
_U+30EC_U+30A4_U+30E4_U+30FC 1
370
     0
100
AcDbSpline
210
0.0
220
0.0
230
1.0
 70
    11
 71
     3
 72
    44
 73
    40
 74
     0
 42
0.0000000001
 43
0.0000000001
 12
1.0
 22
0.0
 32
0.0
 13
1.0
 23
0.0
 33
0.0
 40
0.0
 40
0.0
 40
0.0
 40
0.0
 40
1.0
 40
1.0
 40
1.0
 40
2.0
 40
2.0
 40
2.0
 40
3.0
 40
3.0
 40
3.0
 40
4.0
 40
4.0
 40
4.0
 40
5.0
 40
5.0
 40
5.0
 40
6.0
 40
6.0
 40
6.0
 40
7.0
 40
7.0
 40
7.0
 40
8.0
 40
8.0
 40
8.0
 40
9.0
 40
9.0
 40
9.0
 40
10.0
 40
10.0
 40
10.0
 40
11.0
 40
11.0
 40
11.0
 40
12.0
 40
12.0
 40
12.0
 40
13.0
 40
13.0
 40
13.0
 40
13.0
 10
81.1662773777119
 20
-121.8363186001833
 30
0.0
 10
80.98058673105695
 20
-121.994965247279
 30
0.0
 10
80.90117728012193
 20
-122.0690348002119
 30
0.0
 10
80.85966387952467
 20
-122.2128675367211
 30
0.0
 10
80.85966387952467
 20
-122.2128675367211
 30
0.0
 10
81.52336152475806
 20
-122.2128675367211
 30
0.0
 10
81.52336152475806
 20
-122.2128675367211
 30
0.0
 10
81.52336152475806
 20
-122.2128675367211
 30
0.0
 10
81.52336152475806
 20
-122.4180229728677
 30
0.0
 10
81.52336152475806
 20
-122.4180229728677
 30
0.0
 10
81.52336152475806
 20
-122.4180229728677
 30
0.0
 10
80.64692923331049
 20
-122.4180229728677
 30
0.0
 10
80.64692923331049
 20
-122.4180229728677
 30
0.0
 10
80.6739732328697
 20
-122.0604220614988
 30
0.0
 10
80.72995603450501
 20
-121.9822183939836
 30
0.0
 10
81.05810137947506
 20
-121.683873124961
 30
0.0
 10
81.27634817846564
 20
-121.4850911154621
 30
0.0
 10
81.33215872532669
 20
-121.4173949891769
 30
0.0
 10
81.33215872532669
 20
-121.2799356793154
 30
0.0
 10
81.33215872532669
 20
-121.1614243946228
 30
0.0
 10
81.27083602568923
 20
-121.0303385114091
 30
0.0
 10
81.10323213033183
 20
-121.0303385114091
 30
0.0
 10
80.88136798108175
 20
-121.0303385114091
 30
0.0
 10
80.87413328056272
 20
-121.2608153993723
 30
0.0
 10
80.87051593030321
 20
-121.3772596267737
 30
0.0
 10
80.87051593030321
 20
-121.3772596267737
 30
0.0
 10
80.67931313087185
 20
-121.3772596267737
 30
0.0
 10
80.67931313087185
 20
-121.3772596267737
 30
0.0
 10
80.68654783139087
 20
-121.2503078581423
 30
0.0
 10
80.69567733442678
 20
-121.1381700000974
 30
0.0
 10
80.76406247980898
 20
-121.0196587154048
 30
0.0
 10
80.85794133178204
 20
-120.8589450110179
 30
0.0
 10
81.0165879788778
 20
-120.8250108204882
 30
0.0
 10
81.115806728853
 20
-120.8250108204882
 30
0.0
 10
81.35196802436687
 20
-120.8250108204882
 30
0.0
 10
81.5287014227602
 20
-121.0091511741748
 30
0.0
 10
81.5287014227602
 20
-121.2820027366066
 30
0.0
 10
81.5287014227602
 20
-121.5104125672786
 30
0.0
 10
81.429482672785
 20
-121.6099758268024
 30
0.0
 10
81.1662773777119
 20
-121.8363186001833
 30
0.0
  0
HATCH
  5
B4
330
92
100
AcDbEntity
  8
_U+30EC_U+30A4_U+30E4_U+30FC 1
 62
   179
420
  2234388
100
AcDbHatch
 10
0.0
 20
0.0
 30
0.0
210
0.0
220
0.0
230
1.0
  2
SOLID
 70
     1
 71
     0
 91
        1
 92
        1
 93
        1
 72
     4
 94
        3
 73
     0
 74
     1
 95
       44
 96
       40
 40
0.0
 40
0.0
 40
0.0
 40
0.0
 40
1.0
 40
1.0
 40
1.0
 40
2.0
 40
2.0
 40
2.0
 40
3.0
 40
3.0
 40
3.0
 40
4.0
 40
4.0
 40
4.0
 40
5.0
 40
5.0
 40
5.0
 40
6.0
 40
6.0
 40
6.0
 40
7.0
 40
7.0
 40
7.0
 40
8.0
 40
8.0
 40
8.0
 40
9.0
 40
9.0
 40
9.0
 40
10.0
 40
10.0
 40
10.0
 40
11.0
 40
11.0
 40
11.0
 40
12.0
 40
12.0
 40
12.0
 40
13.0
 40
13.0
 40
13.0
 40
13.0
 10
81.1662773777119
 20
-121.8363186001833
 10
80.98058673105695
 20
-121.994965247279
 10
80.90117728012193
 20
-122.0690348002119
 10
80.85966387952467
 20
-122.2128675367211
 10
80.85966387952467
 20
-122.2128675367211
 10
81.52336152475806
 20
-122.2128675367211
 10
81.52336152475806
 20
-122.2128675367211
 10
81.52336152475806
 20
-122.2128675367211
 10
81.52336152475806
 20
-122.4180229728677
 10
81.52336152475806
 20
-122.4180229728677
 10
81.52336152475806
 20
-122.4180229728677
 10
80.64692923331049
 20
-122.4180229728677
 10
80.64692923331049
 20
-122.4180229728677
 10
80.6739732328697
 20
-122.0604220614988
 10
80.72995603450501
 20
-121.9822183939836
 10
81.05810137947506
 20
-121.683873124961
 10
81.27634817846564
 20
-121.4850911154621
 10
81.33215872532669
 20
-121.4173949891769
 10
81.33215872532669
 20
-121.2799356793154
 10
81.33215872532669
 20
-121.1614243946228
 10
81.27083602568923
 20
-121.0303385114091
 10
81.10323213033183
 20
-121.0303385114091
 10
80.88136798108175
 20
-121.0303385114091
 10
80.87413328056272
 20
-121.2608153993723
 10
80.87051593030321
 20
-121.3772596267737
 10
80.87051593030321
 20
-121.3772596267737
 10
80.67931313087185
 20
-121.3772596267737
 10
80.67931313087185
 20
-121.3772596267737
 10
80.68654783139087
 20
-121.2503078581423
 10
80.69567733442678
 20
-121.1381700000974
 10
80.76406247980898
 20
-121.0196587154048
 10
80.85794133178204
 20
-120.8589450110179
 10
81.0165879788778
 20
-120.8250108204882
 10
81.115806728853
 20
-120.8250108204882
 10
81.35196802436687
 20
-120.8250108204882
 10
81.5287014227602
 20
-121.0091511741748
 10
81.5287014227602
 20
-121.2820027366066
 10
81.5287014227602
 20
-121.5104125672786
 10
81.429482672785
 20
-121.6099758268024
 10
81.1662773777119
 20
-121.8363186001833
 97
        0
 97
        0
 75
     2
 76
     1
 98
        0
  0
ENDBLK
  5
95
330
92
100
AcDbEntity
  8
0
100
AcDbBlockEnd
  0
BLOCK
  5
B7
330
B5
100
AcDbEntity
  8
0
100
AcDbBlockBegin
  2
block 3
 70
     0
 10
0.0
 20
0.0
 30
0.0
  3
block 3
  1

  0
SPLINE
  5
B9
330
B5
100
AcDbEntity
  8
_U+30EC_U+30A4_U+30E4_U+30FC 1
370
     0
100
AcDbSpline
210
0.0
220
0.0
230
1.0
 70
    11
 71
     3
 72
    26
 73
    22
 74
     0
 42
0.0000000001
 43
0.0000000001
 12
1.0
 22
0.0
 32
0.0
 13
1.0
 23
0.0
 33
0.0
 40
0.0
 40
0.0
 40
0.0
 40
0.0
 40
1.0
 40
1.0
 40
1.0
 40
2.0
 40
2.0
 40
2.0
 40
3.0
 40
3.0
 40
3.0
 40
4.0
 40
4.0
 40
4.0
 40
5.0
 40
5.0
 40
5.0
 40
6.0
 40
6.0
 40
6.0
 40
7.0
 40
7.0
 40
7.0
 40
7.0
 10
87.07323809672128
 20
-122.3191487324411
 30
0.0
 10
87.07323809672128
 20
-122.3191487324411
 30
0.0
 10
87.07323809672128
 20
-121.2148233746442
 30
0.0
 10
87.07323809672128
 20
-121.2148233746442
 30
0.0
 10
87.07323809672128
 20
-121.2148233746442
 30
0.0
 10
86.79177379557636
 20
-121.2148233746442
 30
0.0
 10
86.79177379557636
 20
-121.2148233746442
 30
0.0
 10
86.79177379557636
 20
-121.2148233746442
 30
0.0
 10
86.79177379557636
 20
-121.0668565235527
 30
0.0
 10
86.79177379557636
 20
-121.0668565235527
 30
0.0
 10
87.0749606444639
 20
-121.0520426129662
 30
0.0
 10
87.11457924254428
 20
-120.8890895965138
 30
0.0
 10
87.13990069436086
 20
-120.7748846811778
 30
0.0
 10
87.13990069436086
 20
-120.7748846811778
 30
0.0
 10
87.26426864137838
 20
-120.7748846811778
 30
0.0
 10
87.26426864137838
 20
-120.7748846811778
 30
0.0
 10
87.26426864137838
 20
-120.7748846811778
 30
0.0
 10
87.26426864137838
 20
-122.3191487324411
 30
0.0
 10
87.26426864137838
 20
-122.3191487324411
 30
0.0
 10
87.26426864137838
 20
-122.3191487324411
 30
0.0
 10
87.07323809672128
 20
-122.3191487324411
 30
0.0
 10
87.07323809672128
 20
-122.3191487324411
 30
0.0
  0
HATCH
  5
BA
330
B5
100
AcDbEntity
  8
_U+30EC_U+30A4_U+30E4_U+30FC 1
 62
   179
420
  2234388
100
AcDbHatch
 10
0.0
 20
0.0
 30
0.0
210
0.0
220
0.0
230
1.0
  2
SOLID
 70
     1
 71
     0
 91
        1
 92
        1
 93
        1
 72
     4
 94
        3
 73
     0
 74
     1
 95
       26
 96
       22
 40
0.0
 40
0.0
 40
0.0
 40
0.0
 40
1.0
 40
1.0
 40
1.0
 40
2.0
 40
2.0
 40
2.0
 40
3.0
 40
3.0
 40
3.0
 40
4.0
 40
4.0
 40
4.0
 40
5.0
 40
5.0
 40
5.0
 40
6.0
 40
6.0
 40
6.0
 40
7.0
 40
7.0
 40
7.0
 40
7.0
 10
87.07323809672128
 20
-122.3191487324411
 10
87.07323809672128
 20
-122.3191487324411
 10
87.07323809672128
 20
-121.2148233746442
 10
87.07323809672128
 20
-121.2148233746442
 10
87.07323809672128
 20
-121.2148233746442
 10
86.79177379557636
 20
-121.2148233746442
 10
86.79177379557636
 20
-121.2148233746442
 10
86.79177379557636
 20
-121.2148233746442
 10
86.79177379557636
 20
-121.0668565235527
 10
86.79177379557636
 20
-121.0668565235527
 10
87.0749606444639
 20
-121.0520426129662
 10
87.11457924254428
 20
-120.8890895965138
 10
87.13990069436086
 20
-120.7748846811778
 10
87.13990069436086
 20
-120.7748846811778
 10
87.26426864137838
 20
-120.7748846811778
 10
87.26426864137838
 20
-120.7748846811778
 10
87.26426864137838
 20
-120.7748846811778
 10
87.26426864137838
 20
-122.3191487324411
 10
87.26426864137838
 20
-122.3191487324411
 10
87.26426864137838
 20
-122.3191487324411
 10
87.07323809672128
 20
-122.3191487324411
 10
87.07323809672128
 20
-122.3191487324411
 97
        0
 97
        0
 75
     2
 76
     1
 98
        0
  0
SPLINE
  5
BB
330
B5
100
AcDbEntity
  8
_U+30EC_U+30A4_U+30E4_U+30FC 1
370
     0
100
AcDbSpline
210
0.0
220
0.0
230
1.0
 70
    11
 71
     3
 72
    44
 73
    40
 74
     0
 42
0.0000000001
 43
0.0000000001
 12
1.0
 22
0.0
 32
0.0
 13
1.0
 23
0.0
 33
0.0
 40
0.0
 40
0.0
 40
0.0
 40
0.0
 40
1.0
 40
1.0
 40
1.0
 40
2.0
 40
2.0
 40
2.0
 40
3.0
 40
3.0
 40
3.0
 40
4.0
 40
4.0
 40
4.0
 40
5.0
 40
5.0
 40
5.0
 40
6.0
 40
6.0
 40
6.0
 40
7.0
 40
7.0
 40
7.0
 40
8.0
 40
8.0
 40
8.0
 40
9.0
 40
9.0
 40
9.0
 40
10.0
 40
10.0
 40
10.0
 40
11.0
 40
11.0
 40
11.0
 40
12.0
 40
12.0
 40
12.0
 40
13.0
 40
13.0
 40
13.0
 40
13.0
 10
88.19582246058994
 20
-121.7374443597566
 30
0.0
 10
88.01013181393498
 20
-121.8960910068524
 30
0.0
 10
87.93072236299996
 20
-121.9701605597852
 30
0.0
 10
87.8892089624027
 20
-122.1139932962944
 30
0.0
 10
87.8892089624027
 20
-122.1139932962944
 30
0.0
 10
88.55290660763609
 20
-122.1139932962944
 30
0.0
 10
88.55290660763609
 20
-122.1139932962944
 30
0.0
 10
88.55290660763609
 20
-122.1139932962944
 30
0.0
 10
88.55290660763609
 20
-122.3191487324411
 30
0.0
 10
88.55290660763609
 20
-122.3191487324411
 30
0.0
 10
88.55290660763609
 20
-122.3191487324411
 30
0.0
 10
87.67647431618852
 20
-122.3191487324411
 30
0.0
 10
87.67647431618852
 20
-122.3191487324411
 30
0.0
 10
87.70351831574773
 20
-121.9615478210721
 30
0.0
 10
87.75932886260878
 20
-121.8833441535569
 30
0.0
 10
88.08764646235309
 20
-121.5849988845343
 30
0.0
 10
88.30572100656941
 20
-121.3862168750354
 30
0.0
 10
88.36170380820472
 20
-121.3185207487502
 30
0.0
 10
88.36170380820472
 20
-121.1810614388888
 30
0.0
 10
88.36170380820472
 20
-121.0625501541962
 30
0.0
 10
88.30038110856727
 20
-120.9314642709824
 30
0.0
 10
88.13277721320986
 20
-120.9314642709824
 30
0.0
 10
87.91091306395978
 20
-120.9314642709824
 30
0.0
 10
87.90367836344075
 20
-121.1619411589456
 30
0.0
 10
87.90006101318124
 20
-121.2783853863471
 30
0.0
 10
87.90006101318124
 20
-121.2783853863471
 30
0.0
 10
87.70885821374988
 20
-121.2783853863471
 30
0.0
 10
87.70885821374988
 20
-121.2783853863471
 30
0.0
 10
87.7160929142689
 20
-121.1514336177156
 30
0.0
 10
87.7252224173048
 20
-121.0392957596707
 30
0.0
 10
87.79360756268701
 20
-120.9207844749781
 30
0.0
 10
87.88748641466007
 20
-120.7600707705912
 30
0.0
 10
88.04613306175584
 20
-120.7261365800615
 30
0.0
 10
88.14535181173103
 20
-120.7261365800615
 30
0.0
 10
88.3815131072449
 20
-120.7261365800615
 30
0.0
 10
88.55824650563822
 20
-120.9102769337481
 30
0.0
 10
88.55824650563822
 20
-121.1831284961799
 30
0.0
 10
88.55824650563822
 20
-121.411538326852
 30
0.0
 10
88.45902775566303
 20
-121.5111015863757
 30
0.0
 10
88.19582246058994
 20
-121.7374443597566
 30
0.0
  0
HATCH
  5
BC
330
B5
100
AcDbEntity
  8
_U+30EC_U+30A4_U+30E4_U+30FC 1
 62
   179
420
  2234388
100
AcDbHatch
 10
0.0
 20
0.0
 30
0.0
210
0.0
220
0.0
230
1.0
  2
SOLID
 70
     1
 71
     0
 91
        1
 92
        1
 93
        1
 72
     4
 94
        3
 73
     0
 74
     1
 95
       44
 96
       40
 40
0.0
 40
0.0
 40
0.0
 40
0.0
 40
1.0
 40
1.0
 40
1.0
 40
2.0
 40
2.0
 40
2.0
 40
3.0
 40
3.0
 40
3.0
 40
4.0
 40
4.0
 40
4.0
 40
5.0
 40
5.0
 40
5.0
 40
6.0
 40
6.0
 40
6.0
 40
7.0
 40
7.0
 40
7.0
 40
8.0
 40
8.0
 40
8.0
 40
9.0
 40
9.0
 40
9.0
 40
10.0
 40
10.0
 40
10.0
 40
11.0
 40
11.0
 40
11.0
 40
12.0
 40
12.0
 40
12.0
 40
13.0
 40
13.0
 40
13.0
 40
13.0
 10
88.19582246058994
 20
-121.7374443597566
 10
88.01013181393498
 20
-121.8960910068524
 10
87.93072236299996
 20
-121.9701605597852
 10
87.8892089624027
 20
-122.1139932962944
 10
87.8892089624027
 20
-122.1139932962944
 10
88.55290660763609
 20
-122.1139932962944
 10
88.55290660763609
 20
-122.1139932962944
 10
88.55290660763609
 20
-122.1139932962944
 10
88.55290660763609
 20
-122.3191487324411
 10
88.55290660763609
 20
-122.3191487324411
 10
88.55290660763609
 20
-122.3191487324411
 10
87.67647431618852
 20
-122.3191487324411
 10
87.67647431618852
 20
-122.3191487324411
 10
87.70351831574773
 20
-121.9615478210721
 10
87.75932886260878
 20
-121.8833441535569
 10
88.08764646235309
 20
-121.5849988845343
 10
88.30572100656941
 20
-121.3862168750354
 10
88.36170380820472
 20
-121.3185207487502
 10
88.36170380820472
 20
-121.1810614388888
 10
88.36170380820472
 20
-121.0625501541962
 10
88.30038110856727
 20
-120.9314642709824
 10
88.13277721320986
 20
-120.9314642709824
 10
87.91091306395978
 20
-120.9314642709824
 10
87.90367836344075
 20
-121.1619411589456
 10
87.90006101318124
 20
-121.2783853863471
 10
87.90006101318124
 20
-121.2783853863471
 10
87.70885821374988
 20
-121.2783853863471
 10
87.70885821374988
 20
-121.2783853863471
 10
87.7160929142689
 20
-121.1514336177156
 10
87.7252224173048
 20
-121.0392957596707
 10
87.79360756268701
 20
-120.9207844749781
 10
87.88748641466007
 20
-120.7600707705912
 10
88.04613306175584
 20
-120.7261365800615
 10
88.14535181173103
 20
-120.7261365800615
 10
88.3815131072449
 20
-120.7261365800615
 10
88.55824650563822
 20
-120.9102769337481
 10
88.55824650563822
 20
-121.1831284961799
 10
88.55824650563822
 20
-121.411538326852
 10
88.45902775566303
 20
-121.5111015863757
 10
88.19582246058994
 20
-121.7374443597566
 97
        0
 97
        0
 75
     2
 76
     1
 98
        0
  0
POLYLINE
  5
BD
330
B5
100
AcDbEntity
  8
_U+30EC_U+30A4_U+30E4_U+30FC 1
370
     0
100
AcDb2dPolyline
 66
     1
 10
0.0
 20
0.0
 30
0.0
  0
VERTEX
  5
BE
330
BD
100
AcDbEntity
  8
_U+30EC_U+30A4_U+30E4_U+30FC 1
370
     0
100
AcDbVertex
100
AcDb2dVertex
 10
88.74324813319613
 20
-122.3191487324411
 30
0.0
  0
VERTEX
  5
BF
330
BD
100
AcDbEntity
  8
_U+30EC_U+30A4_U+30E4_U+30FC 1
370
     0
100
AcDbVertex
100
AcDb2dVertex
 10
88.74324813319613
 20
-122.0674845072435
 30
0.0
  0
VERTEX
  5
C0
330
BD
100
AcDbEntity
  8
_U+30EC_U+30A4_U+30E4_U+30FC 1
370
     0
100
AcDbVertex
100
AcDb2dVertex
 10
88.9578775819272
 20
-122.0674845072435
 30
0.0
  0
VERTEX
  5
C1
330
BD
100
AcDbEntity
  8
_U+30EC_U+30A4_U+30E4_U+30FC 1
370
     0
100
AcDbVertex
100
AcDb2dVertex
 10
88.9578775819272
 20
-122.3191487324411
 30
0.0
  0
VERTEX
  5
C2
330
BD
100
AcDbEntity
  8
_U+30EC_U+30A4_U+30E4_U+30FC 1
370
     0
100
AcDbVertex
100
AcDb2dVertex
 10
88.74324813319613
 20
-122.3191487324411
 30
0.0
  0
SEQEND
  5
C3
330
BD
100
AcDbEntity
  8
_U+30EC_U+30A4_U+30E4_U+30FC 1
370
     0
  0
HATCH
  5
C4
330
B5
100
AcDbEntity
  8
_U+30EC_U+30A4_U+30E4_U+30FC 1
 62
   179
420
  2234388
100
AcDbHatch
 10
0.0
 20
0.0
 30
0.0
210
0.0
220
0.0
230
1.0
  2
SOLID
 70
     1
 71
     0
 91
        1
 92
        1
 93
        4
 72
     1
 10
88.74324813319613
 20
-122.3191487324411
 11
88.74324813319613
 21
-122.0674845072435
 72
     1
 10
88.74324813319613
 20
-122.0674845072435
 11
88.9578775819272
 21
-122.0674845072435
 72
     1
 10
88.9578775819272
 20
-122.0674845072435
 11
88.9578775819272
 21
-122.3191487324411
 72
     1
 10
88.9578775819272
 20
-122.3191487324411
 11
88.74324813319613
 21
-122.3191487324411
 97
        0
 75
     2
 76
     1
 98
        0
  0
SPLINE
  5
C5
330
B5
100
AcDbEntity
  8
_U+30EC_U+30A4_U+30E4_U+30FC 1
370
     0
100
AcDbSpline
210
0.0
220
0.0
230
1.0
 70
    11
 71
     3
 72
    53
 73
    49
 74
     0
 42
0.0000000001
 43
0.0000000001
 12
1.0
 22
0.0
 32
0.0
 13
1.0
 23
0.0
 33
0.0
 40
0.0
 40
0.0
 40
0.0
 40
0.0
 40
1.0
 40
1.0
 40
1.0
 40
2.0
 40
2.0
 40
2.0
 40
3.0
 40
3.0
 40
3.0
 40
4.0
 40
4.0
 40
4.0
 40
5.0
 40
5.0
 40
5.0
 40
6.0
 40
6.0
 40
6.0
 40
7.0
 40
7.0
 40
7.0
 40
8.0
 40
8.0
 40
8.0
 40
9.0
 40
9.0
 40
9.0
 40
10.0
 40
10.0
 40
10.0
 40
11.0
 40
11.0
 40
11.0
 40
12.0
 40
12.0
 40
12.0
 40
13.0
 40
13.0
 40
13.0
 40
14.0
 40
14.0
 40
14.0
 40
15.0
 40
15.0
 40
15.0
 40
16.0
 40
16.0
 40
16.0
 40
16.0
 10
89.568693011462
 20
-122.3699638908485
 30
0.0
 10
89.50203041382241
 20
-122.3699638908485
 30
0.0
 10
89.41538626236839
 20
-122.3529106681965
 30
0.0
 10
89.3289143656886
 20
-122.2895209112679
 30
0.0
 10
89.18094751459712
 20
-122.1794501105142
 30
0.0
 10
89.16303301807383
 20
-122.0483642273004
 30
0.0
 10
89.14666881451889
 20
-121.9405327386121
 30
0.0
 10
89.14666881451889
 20
-121.9405327386121
 30
0.0
 10
89.33614906620764
 20
-121.9405327386121
 30
0.0
 10
89.33614906620764
 20
-121.9405327386121
 30
0.0
 10
89.38300236480703
 20
-122.139314748111
 30
0.0
 10
89.49117836304387
 20
-122.1689425692842
 30
0.0
 10
89.57058781397889
 20
-122.1689425692842
 30
0.0
 10
89.68961586299427
 20
-122.1689425692842
 30
0.0
 10
89.81932370801393
 20
-122.0695515645347
 30
0.0
 10
89.81932370801393
 20
-121.8368353645061
 30
0.0
 10
89.81932370801393
 20
-121.580864769952
 30
0.0
 10
89.66601695892031
 20
-121.5111015863757
 30
0.0
 10
89.56335311345985
 20
-121.5111015863757
 30
0.0
 10
89.53630911390064
 20
-121.5111015863757
 30
0.0
 10
89.41538626236839
 20
-121.5111015863757
 30
0.0
 10
89.33976641646714
 20
-121.6401204122983
 30
0.0
 10
89.33976641646714
 20
-121.6401204122983
 30
0.0
 10
89.19007701763304
 20
-121.6210001323552
 30
0.0
 10
89.19007701763304
 20
-121.6210001323552
 30
0.0
 10
89.19007701763304
 20
-121.6210001323552
 30
0.0
 10
89.29274086309348
 20
-120.7748846811778
 30
0.0
 10
89.29274086309348
 20
-120.7748846811778
 30
0.0
 10
89.29274086309348
 20
-120.7748846811778
 30
0.0
 10
89.95643850832687
 20
-120.7748846811778
 30
0.0
 10
89.95643850832687
 20
-120.7748846811778
 30
0.0
 10
89.95643850832687
 20
-120.7748846811778
 30
0.0
 10
89.95643850832687
 20
-120.9695325760944
 30
0.0
 10
89.95643850832687
 20
-120.9695325760944
 30
0.0
 10
89.95643850832687
 20
-120.9695325760944
 30
0.0
 10
89.43157821114906
 20
-120.9695325760944
 30
0.0
 10
89.43157821114906
 20
-120.9695325760944
 30
0.0
 10
89.43157821114906
 20
-120.9695325760944
 30
0.0
 10
89.375767664288
 20
-121.3925903016831
 30
0.0
 10
89.375767664288
 20
-121.3925903016831
 30
0.0
 10
89.4281331156638
 20
-121.3586561111534
 30
0.0
 10
89.49841306356291
 20
-121.3185207487502
 30
0.0
 10
89.59935436128072
 20
-121.3185207487502
 30
0.0
 10
89.81570635775441
 20
-121.3185207487502
 30
0.0
 10
90.01776120796431
 20
-121.504728159728
 30
0.0
 10
90.01776120796431
 20
-121.8177150845629
 30
0.0
 10
90.01776120796431
 20
-122.1351806335287
 30
0.0
 10
89.82655840853295
 20
-122.3699638908485
 30
0.0
 10
89.568693011462
 20
-122.3699638908485
 30
0.0
  0
HATCH
  5
C6
330
B5
100
AcDbEntity
  8
_U+30EC_U+30A4_U+30E4_U+30FC 1
 62
   179
420
  2234388
100
AcDbHatch
 10
0.0
 20
0.0
 30
0.0
210
0.0
220
0.0
230
1.0
  2
SOLID
 70
     1
 71
     0
 91
        1
 92
        1
 93
        1
 72
     4
 94
        3
 73
     0
 74
     1
 95
       53
 96
       49
 40
0.0
 40
0.0
 40
0.0
 40
0.0
 40
1.0
 40
1.0
 40
1.0
 40
2.0
 40
2.0
 40
2.0
 40
3.0
 40
3.0
 40
3.0
 40
4.0
 40
4.0
 40
4.0
 40
5.0
 40
5.0
 40
5.0
 40
6.0
 40
6.0
 40
6.0
 40
7.0
 40
7.0
 40
7.0
 40
8.0
 40
8.0
 40
8.0
 40
9.0
 40
9.0
 40
9.0
 40
10.0
 40
10.0
 40
10.0
 40
11.0
 40
11.0
 40
11.0
 40
12.0
 40
12.0
 40
12.0
 40
13.0
 40
13.0
 40
13.0
 40
14.0
 40
14.0
 40
14.0
 40
15.0
 40
15.0
 40
15.0
 40
16.0
 40
16.0
 40
16.0
 40
16.0
 10
89.568693011462
 20
-122.3699638908485
 10
89.50203041382241
 20
-122.3699638908485
 10
89.41538626236839
 20
-122.3529106681965
 10
89.3289143656886
 20
-122.2895209112679
 10
89.18094751459712
 20
-122.1794501105142
 10
89.16303301807383
 20
-122.0483642273004
 10
89.14666881451889
 20
-121.9405327386121
 10
89.14666881451889
 20
-121.9405327386121
 10
89.33614906620764
 20
-121.9405327386121
 10
89.33614906620764
 20
-121.9405327386121
 10
89.38300236480703
 20
-122.139314748111
 10
89.49117836304387
 20
-122.1689425692842
 10
89.57058781397889
 20
-122.1689425692842
 10
89.68961586299427
 20
-122.1689425692842
 10
89.81932370801393
 20
-122.0695515645347
 10
89.81932370801393
 20
-121.8368353645061
 10
89.81932370801393
 20
-121.580864769952
 10
89.66601695892031
 20
-121.5111015863757
 10
89.56335311345985
 20
-121.5111015863757
 10
89.53630911390064
 20
-121.5111015863757
 10
89.41538626236839
 20
-121.5111015863757
 10
89.33976641646714
 20
-121.6401204122983
 10
89.33976641646714
 20
-121.6401204122983
 10
89.19007701763304
 20
-121.6210001323552
 10
89.19007701763304
 20
-121.6210001323552
 10
89.19007701763304
 20
-121.6210001323552
 10
89.29274086309348
 20
-120.7748846811778
 10
89.29274086309348
 20
-120.7748846811778
 10
89.29274086309348
 20
-120.7748846811778
 10
89.95643850832687
 20
-120.7748846811778
 10
89.95643850832687
 20
-120.7748846811778
 10
89.95643850832687
 20
-120.7748846811778
 10
89.95643850832687
 20
-120.9695325760944
 10
89.95643850832687
 20
-120.9695325760944
 10
89.95643850832687
 20
-120.9695325760944
 10
89.43157821114906
 20
-120.9695325760944
 10
89.43157821114906
 20
-120.9695325760944
 10
89.43157821114906
 20
-120.9695325760944
 10
89.375767664288
 20
-121.3925903016831
 10
89.375767664288
 20
-121.3925903016831
 10
89.4281331156638
 20
-121.3586561111534
 10
89.49841306356291
 20
-121.3185207487502
 10
89.59935436128072
 20
-121.3185207487502
 10
89.81570635775441
 20
-121.3185207487502
 10
90.01776120796431
 20
-121.504728159728
 10
90.01776120796431
 20
-121.8177150845629
 10
90.01776120796431
 20
-122.1351806335287
 10
89.82655840853295
 20
-122.3699638908485
 10
89.568693011462
 20
-122.3699638908485
 97
        0
 97
        0
 75
     2
 76
     1
 98
        0
  0
ENDBLK
  5
B8
330
B5
100
AcDbEntity
  8
0
100
AcDbBlockEnd
  0
BLOCK
  5
C9
330
C7
100
AcDbEntity
  8
0
100
AcDbBlockBegin
  2
block 4
 70
     0
 10
0.0
 20
0.0
 30
0.0
  3
block 4
  1

  0
POLYLINE
  5
CB
330
C7
100
AcDbEntity
  8
_U+30EC_U+30A4_U+30E4_U+30FC 1
370
     0
100
AcDb2dPolyline
 66
     1
 10
0.0
 20
0.0
 30
0.0
  0
VERTEX
  5
CC
330
CB
100
AcDbEntity
  8
_U+30EC_U+30A4_U+30E4_U+30FC 1
370
     0
100
AcDbVertex
100
AcDb2dVertex
 10
73.52850068691302
 20
-129.3109700197556
 30
0.0
  0
VERTEX
  5
CD
330
CB
100
AcDbEntity
  8
_U+30EC_U+30A4_U+30E4_U+30FC 1
370
     0
100
AcDbVertex
100
AcDb2dVertex
 10
73.87542180227767
 20
-129.3109700197556
 30
0.0
  0
VERTEX
  5
CE
330
CB
100
AcDbEntity
  8
_U+30EC_U+30A4_U+30E4_U+30FC 1
370
     0
100
AcDbVertex
100
AcDb2dVertex
 10
73.87542180227767
 20
-129.4966606664106
 30
0.0
  0
VERTEX
  5
CF
330
CB
100
AcDbEntity
  8
_U+30EC_U+30A4_U+30E4_U+30FC 1
370
     0
100
AcDbVertex
100
AcDb2dVertex
 10
73.52850068691302
 20
-129.4966606664106
 30
0.0
  0
VERTEX
  5
D0
330
CB
100
AcDbEntity
  8
_U+30EC_U+30A4_U+30E4_U+30FC 1
370
     0
100
AcDbVertex
100
AcDb2dVertex
 10
73.52850068691302
 20
-130.0557996636666
 30
0.0
  0
VERTEX
  5
D1
330
CB
100
AcDbEntity
  8
_U+30EC_U+30A4_U+30E4_U+30FC 1
370
     0
100
AcDbVertex
100
AcDb2dVertex
 10
73.30422497082326
 20
-130.0557996636666
 30
0.0
  0
VERTEX
  5
D2
330
CB
100
AcDbEntity
  8
_U+30EC_U+30A4_U+30E4_U+30FC 1
370
     0
100
AcDbVertex
100
AcDb2dVertex
 10
72.33115775101443
 20
-129.4770236221446
 30
0.0
  0
VERTEX
  5
D3
330
CB
100
AcDbEntity
  8
_U+30EC_U+30A4_U+30E4_U+30FC 1
370
     0
100
AcDbVertex
100
AcDb2dVertex
 10
72.33115775101443
 20
-129.3109700197556
 30
0.0
  0
VERTEX
  5
D4
330
CB
100
AcDbEntity
  8
_U+30EC_U+30A4_U+30E4_U+30FC 1
370
     0
100
AcDbVertex
100
AcDb2dVertex
 10
73.32954642263984
 20
-129.3109700197556
 30
0.0
  0
VERTEX
  5
D5
330
CB
100
AcDbEntity
  8
_U+30EC_U+30A4_U+30E4_U+30FC 1
370
     0
100
AcDbVertex
100
AcDb2dVertex
 10
73.32954642263984
 20
-129.1342366213623
 30
0.0
  0
VERTEX
  5
D6
330
CB
100
AcDbEntity
  8
_U+30EC_U+30A4_U+30E4_U+30FC 1
370
     0
100
AcDbVertex
100
AcDb2dVertex
 10
73.52850068691302
 20
-129.1342366213623
 30
0.0
  0
VERTEX
  5
D7
330
CB
100
AcDbEntity
  8
_U+30EC_U+30A4_U+30E4_U+30FC 1
370
     0
100
AcDbVertex
100
AcDb2dVertex
 10
73.52850068691302
 20
-129.3109700197556
 30
0.0
  0
SEQEND
  5
D8
330
CB
100
AcDbEntity
  8
_U+30EC_U+30A4_U+30E4_U+30FC 1
370
     0
  0
POLYLINE
  5
D9
330
C7
100
AcDbEntity
  8
_U+30EC_U+30A4_U+30E4_U+30FC 1
370
     0
100
AcDb2dPolyline
 66
     1
 10
0.0
 20
0.0
 30
0.0
  0
VERTEX
  5
DA
330
D9
100
AcDbEntity
  8
_U+30EC_U+30A4_U+30E4_U+30FC 1
370
     0
100
AcDbVertex
100
AcDb2dVertex
 10
72.67377249702253
 20
-129.4966606664106
 30
0.0
  0
VERTEX
  5
DB
330
D9
100
AcDbEntity
  8
_U+30EC_U+30A4_U+30E4_U+30FC 1
370
     0
100
AcDbVertex
100
AcDb2dVertex
 10
73.32954642263984
 20
-129.8863009657923
 30
0.0
  0
VERTEX
  5
DC
330
D9
100
AcDbEntity
  8
_U+30EC_U+30A4_U+30E4_U+30FC 1
370
     0
100
AcDbVertex
100
AcDb2dVertex
 10
73.32954642263984
 20
-129.4966606664106
 30
0.0
  0
VERTEX
  5
DD
330
D9
100
AcDbEntity
  8
_U+30EC_U+30A4_U+30E4_U+30FC 1
370
     0
100
AcDbVertex
100
AcDb2dVertex
 10
72.67377249702253
 20
-129.4966606664106
 30
0.0
  0
SEQEND
  5
DE
330
D9
100
AcDbEntity
  8
_U+30EC_U+30A4_U+30E4_U+30FC 1
370
     0
  0
HATCH
  5
DF
330
C7
100
AcDbEntity
  8
_U+30EC_U+30A4_U+30E4_U+30FC 1
 62
   179
420
  2234388
100
AcDbHatch
 10
0.0
 20
0.0
 30
0.0
210
0.0
220
0.0
230
1.0
  2
SOLID
 70
     1
 71
     0
 91
        2
 92
        1
 93
       11
 72
     1
 10
73.52850068691302
 20
-129.3109700197556
 11
73.87542180227767
 21
-129.3109700197556
 72
     1
 10
73.87542180227767
 20
-129.3109700197556
 11
73.87542180227767
 21
-129.4966606664106
 72
     1
 10
73.87542180227767
 20
-129.4966606664106
 11
73.52850068691302
 21
-129.4966606664106
 72
     1
 10
73.52850068691302
 20
-129.4966606664106
 11
73.52850068691302
 21
-130.0557996636666
 72
     1
 10
73.52850068691302
 20
-130.0557996636666
 11
73.30422497082326
 21
-130.0557996636666
 72
     1
 10
73.30422497082326
 20
-130.0557996636666
 11
72.33115775101443
 21
-129.4770236221446
 72
     1
 10
72.33115775101443
 20
-129.4770236221446
 11
72.33115775101443
 21
-129.3109700197556
 72
     1
 10
72.33115775101443
 20
-129.3109700197556
 11
73.32954642263984
 21
-129.3109700197556
 72
     1
 10
73.32954642263984
 20
-129.3109700197556
 11
73.32954642263984
 21
-129.1342366213623
 72
     1
 10
73.32954642263984
 20
-129.1342366213623
 11
73.52850068691302
 21
-129.1342366213623
 72
     1
 10
73.52850068691302
 20
-129.1342366213623
 11
73.52850068691302
 21
-129.3109700197556
 97
        0
 92
        1
 93
        3
 72
     1
 10
72.67377249702253
 20
-129.4966606664106
 11
73.32954642263984
 21
-129.8863009657923
 72
     1
 10
73.32954642263984
 20
-129.8863009657923
 11
73.32954642263984
 21
-129.4966606664106
 72
     1
 10
73.32954642263984
 20
-129.4966606664106
 11
72.67377249702253
 21
-129.4966606664106
 97
        0
 75
     2
 76
     1
 98
        0
  0
POLYLINE
  5
E0
330
C7
100
AcDbEntity
  8
_U+30EC_U+30A4_U+30E4_U+30FC 1
370
     0
100
AcDb2dPolyline
 66
     1
 10
0.0
 20
0.0
 30
0.0
  0
VERTEX
  5
E1
330
E0
100
AcDbEntity
  8
_U+30EC_U+30A4_U+30E4_U+30FC 1
370
     0
100
AcDbVertex
100
AcDb2dVertex
 10
73.87542180227767
 20
-128.9674939998762
 30
0.0
  0
VERTEX
  5
E2
330
E0
100
AcDbEntity
  8
_U+30EC_U+30A4_U+30E4_U+30FC 1
370
     0
100
AcDbVertex
100
AcDb2dVertex
 10
73.62375757708017
 20
-128.9674939998762
 30
0.0
  0
VERTEX
  5
E3
330
E0
100
AcDbEntity
  8
_U+30EC_U+30A4_U+30E4_U+30FC 1
370
     0
100
AcDbVertex
100
AcDb2dVertex
 10
73.62375757708017
 20
-128.7526922963709
 30
0.0
  0
VERTEX
  5
E4
330
E0
100
AcDbEntity
  8
_U+30EC_U+30A4_U+30E4_U+30FC 1
370
     0
100
AcDbVertex
100
AcDb2dVertex
 10
73.87542180227767
 20
-128.7526922963709
 30
0.0
  0
VERTEX
  5
E5
330
E0
100
AcDbEntity
  8
_U+30EC_U+30A4_U+30E4_U+30FC 1
370
     0
100
AcDbVertex
100
AcDb2dVertex
 10
73.87542180227767
 20
-128.9674939998762
 30
0.0
  0
SEQEND
  5
E6
330
E0
100
AcDbEntity
  8
_U+30EC_U+30A4_U+30E4_U+30FC 1
370
     0
  0
HATCH
  5
E7
330
C7
100
AcDbEntity
  8
_U+30EC_U+30A4_U+30E4_U+30FC 1
 62
   179
420
  2234388
100
AcDbHatch
 10
0.0
 20
0.0
 30
0.0
210
0.0
220
0.0
230
1.0
  2
SOLID
 70
     1
 71
     0
 91
        1
 92
        1
 93
        4
 72
     1
 10
73.87542180227767
 20
-128.9674939998762
 11
73.62375757708017
 21
-128.9674939998762
 72
     1
 10
73.62375757708017
 20
-128.9674939998762
 11
73.62375757708017
 21
-128.7526922963709
 72
     1
 10
73.62375757708017
 20
-128.7526922963709
 11
73.87542180227767
 21
-128.7526922963709
 72
     1
 10
73.87542180227767
 20
-128.7526922963709
 11
73.87542180227767
 21
-128.9674939998762
 97
        0
 75
     2
 76
     1
 98
        0
  0
SPLINE
  5
E8
330
C7
100
AcDbEntity
  8
_U+30EC_U+30A4_U+30E4_U+30FC 1
370
     0
100
AcDbSpline
210
0.0
220
0.0
230
1.0
 70
    11
 71
     3
 72
    44
 73
    40
 74
     0
 42
0.0000000001
 43
0.0000000001
 12
1.0
 22
0.0
 32
0.0
 13
1.0
 23
0.0
 33
0.0
 40
0.0
 40
0.0
 40
0.0
 40
0.0
 40
1.0
 40
1.0
 40
1.0
 40
2.0
 40
2.0
 40
2.0
 40
3.0
 40
3.0
 40
3.0
 40
4.0
 40
4.0
 40
4.0
 40
5.0
 40
5.0
 40
5.0
 40
6.0
 40
6.0
 40
6.0
 40
7.0
 40
7.0
 40
7.0
 40
8.0
 40
8.0
 40
8.0
 40
9.0
 40
9.0
 40
9.0
 40
10.0
 40
10.0
 40
10.0
 40
11.0
 40
11.0
 40
11.0
 40
12.0
 40
12.0
 40
12.0
 40
13.0
 40
13.0
 40
13.0
 40
13.0
 10
73.29371742959324
 20
-128.0462754671204
 30
0.0
 10
73.452364076689
 20
-128.2319661137753
 30
0.0
 10
73.52643362962186
 20
-128.3113755647103
 30
0.0
 10
73.67026636613105
 20
-128.3528889653076
 30
0.0
 10
73.67026636613105
 20
-128.3528889653076
 30
0.0
 10
73.67026636613105
 20
-127.6891913200742
 30
0.0
 10
73.67026636613105
 20
-127.6891913200742
 30
0.0
 10
73.67026636613105
 20
-127.6891913200742
 30
0.0
 10
73.87542180227767
 20
-127.6891913200742
 30
0.0
 10
73.87542180227767
 20
-127.6891913200742
 30
0.0
 10
73.87542180227767
 20
-127.6891913200742
 30
0.0
 10
73.87542180227767
 20
-128.5656236115218
 30
0.0
 10
73.87542180227767
 20
-128.5656236115218
 30
0.0
 10
73.51782089090874
 20
-128.5385796119626
 30
0.0
 10
73.43961722339357
 20
-128.4825968103273
 30
0.0
 10
73.14127195437094
 20
-128.1544514653572
 30
0.0
 10
72.94248994487202
 20
-127.9362046663666
 30
0.0
 10
72.87479381858687
 20
-127.8803941195056
 30
0.0
 10
72.7373345087254
 20
-127.8803941195056
 30
0.0
 10
72.6188232240328
 20
-127.8803941195056
 30
0.0
 10
72.48756508604478
 20
-127.9417168191431
 30
0.0
 10
72.48756508604478
 20
-128.1093207145005
 30
0.0
 10
72.48756508604478
 20
-128.3311848637505
 30
0.0
 10
72.71821422878226
 20
-128.3384195642696
 30
0.0
 10
72.8346584561837
 20
-128.3420369145291
 30
0.0
 10
72.8346584561837
 20
-128.3420369145291
 30
0.0
 10
72.8346584561837
 20
-128.5332397139605
 30
0.0
 10
72.8346584561837
 20
-128.5332397139605
 30
0.0
 10
72.70770668755225
 20
-128.5260050134414
 30
0.0
 10
72.59556882950736
 20
-128.5168755104055
 30
0.0
 10
72.47705754481477
 20
-128.4484903650233
 30
0.0
 10
72.31634384042786
 20
-128.3546115130502
 30
0.0
 10
72.28240964989816
 20
-128.1959648659545
 30
0.0
 10
72.28240964989816
 20
-128.0967461159793
 30
0.0
 10
72.28240964989816
 20
-127.8605848204654
 30
0.0
 10
72.46655000358476
 20
-127.6838514220721
 30
0.0
 10
72.73940156601654
 20
-127.6838514220721
 30
0.0
 10
72.9678113966886
 20
-127.6838514220721
 30
0.0
 10
73.06737465621232
 20
-127.7830701720473
 30
0.0
 10
73.29371742959324
 20
-128.0462754671204
 30
0.0
  0
HATCH
  5
E9
330
C7
100
AcDbEntity
  8
_U+30EC_U+30A4_U+30E4_U+30FC 1
 62
   179
420
  2234388
100
AcDbHatch
 10
0.0
 20
0.0
 30
0.0
210
0.0
220
0.0
230
1.0
  2
SOLID
 70
     1
 71
     0
 91
        1
 92
        1
 93
        1
 72
     4
 94
        3
 73
     0
 74
     1
 95
       44
 96
       40
 40
0.0
 40
0.0
 40
0.0
 40
0.0
 40
1.0
 40
1.0
 40
1.0
 40
2.0
 40
2.0
 40
2.0
 40
3.0
 40
3.0
 40
3.0
 40
4.0
 40
4.0
 40
4.0
 40
5.0
 40
5.0
 40
5.0
 40
6.0
 40
6.0
 40
6.0
 40
7.0
 40
7.0
 40
7.0
 40
8.0
 40
8.0
 40
8.0
 40
9.0
 40
9.0
 40
9.0
 40
10.0
 40
10.0
 40
10.0
 40
11.0
 40
11.0
 40
11.0
 40
12.0
 40
12.0
 40
12.0
 40
13.0
 40
13.0
 40
13.0
 40
13.0
 10
73.29371742959324
 20
-128.0462754671204
 10
73.452364076689
 20
-128.2319661137753
 10
73.52643362962186
 20
-128.3113755647103
 10
73.67026636613105
 20
-128.3528889653076
 10
73.67026636613105
 20
-128.3528889653076
 10
73.67026636613105
 20
-127.6891913200742
 10
73.67026636613105
 20
-127.6891913200742
 10
73.67026636613105
 20
-127.6891913200742
 10
73.87542180227767
 20
-127.6891913200742
 10
73.87542180227767
 20
-127.6891913200742
 10
73.87542180227767
 20
-127.6891913200742
 10
73.87542180227767
 20
-128.5656236115218
 10
73.87542180227767
 20
-128.5656236115218
 10
73.51782089090874
 20
-128.5385796119626
 10
73.43961722339357
 20
-128.4825968103273
 10
73.14127195437094
 20
-128.1544514653572
 10
72.94248994487202
 20
-127.9362046663666
 10
72.87479381858687
 20
-127.8803941195056
 10
72.7373345087254
 20
-127.8803941195056
 10
72.6188232240328
 20
-127.8803941195056
 10
72.48756508604478
 20
-127.9417168191431
 10
72.48756508604478
 20
-128.1093207145005
 10
72.48756508604478
 20
-128.3311848637505
 10
72.71821422878226
 20
-128.3384195642696
 10
72.8346584561837
 20
-128.3420369145291
 10
72.8346584561837
 20
-128.3420369145291
 10
72.8346584561837
 20
-128.5332397139605
 10
72.8346584561837
 20
-128.5332397139605
 10
72.70770668755225
 20
-128.5260050134414
 10
72.59556882950736
 20
-128.5168755104055
 10
72.47705754481477
 20
-128.4484903650233
 10
72.31634384042786
 20
-128.3546115130502
 10
72.28240964989816
 20
-128.1959648659545
 10
72.28240964989816
 20
-128.0967461159793
 10
72.28240964989816
 20
-127.8605848204654
 10
72.46655000358476
 20
-127.6838514220721
 10
72.73940156601654
 20
-127.6838514220721
 10
72.9678113966886
 20
-127.6838514220721
 10
73.06737465621232
 20
-127.7830701720473
 10
73.29371742959324
 20
-128.0462754671204
 97
        0
 97
        0
 75
     2
 76
     1
 98
        0
  0
ENDBLK
  5
CA
330
C7
100
AcDbEntity
  8
0
100
AcDbBlockEnd
  0
BLOCK
  5
EC
330
EA
100
AcDbEntity
  8
0
100
AcDbBlockBegin
  2
block 5
 70
     0
 10
0.0
 20
0.0
 30
0.0
  3
block 5
  1

  0
SPLINE
  5
EE
330
EA
100
AcDbEntity
  8
_U+30EC_U+30A4_U+30E4_U+30FC 1
370
     0
100
AcDbSpline
210
0.0
220
0.0
230
1.0
 70
    11
 71
     3
 72
    26
 73
    22
 74
     0
 42
0.0000000001
 43
0.0000000001
 12
1.0
 22
0.0
 32
0.0
 13
1.0
 23
0.0
 33
0.0
 40
0.0
 40
0.0
 40
0.0
 40
0.0
 40
1.0
 40
1.0
 40
1.0
 40
2.0
 40
2.0
 40
2.0
 40
3.0
 40
3.0
 40
3.0
 40
4.0
 40
4.0
 40
4.0
 40
5.0
 40
5.0
 40
5.0
 40
6.0
 40
6.0
 40
6.0
 40
7.0
 40
7.0
 40
7.0
 40
7.0
 10
88.76529674430174
 20
-135.8979925875533
 30
0.0
 10
88.76529674430174
 20
-135.8979925875533
 30
0.0
 10
88.76529674430174
 20
-134.7938394845307
 30
0.0
 10
88.76529674430174
 20
-134.7938394845307
 30
0.0
 10
88.76529674430174
 20
-134.7938394845307
 30
0.0
 10
88.48383244315683
 20
-134.7938394845307
 30
0.0
 10
88.48383244315683
 20
-134.7938394845307
 30
0.0
 10
88.48383244315683
 20
-134.7938394845307
 30
0.0
 10
88.48383244315683
 20
-134.645700378665
 30
0.0
 10
88.48383244315683
 20
-134.645700378665
 30
0.0
 10
88.76701929204437
 20
-134.6308864680784
 30
0.0
 10
88.80663789012473
 20
-134.4679334516261
 30
0.0
 10
88.83195934194131
 20
-134.3535562815158
 30
0.0
 10
88.83195934194131
 20
-134.3535562815158
 30
0.0
 10
88.95632728895883
 20
-134.3535562815158
 30
0.0
 10
88.95632728895883
 20
-134.3535562815158
 30
0.0
 10
88.95632728895883
 20
-134.3535562815158
 30
0.0
 10
88.95632728895883
 20
-135.8979925875533
 30
0.0
 10
88.95632728895883
 20
-135.8979925875533
 30
0.0
 10
88.95632728895883
 20
-135.8979925875533
 30
0.0
 10
88.76529674430174
 20
-135.8979925875533
 30
0.0
 10
88.76529674430174
 20
-135.8979925875533
 30
0.0
  0
HATCH
  5
EF
330
EA
100
AcDbEntity
  8
_U+30EC_U+30A4_U+30E4_U+30FC 1
 62
   179
420
  2234388
100
AcDbHatch
 10
0.0
 20
0.0
 30
0.0
210
0.0
220
0.0
230
1.0
  2
SOLID
 70
     1
 71
     0
 91
        1
 92
        1
 93
        1
 72
     4
 94
        3
 73
     0
 74
     1
 95
       26
 96
       22
 40
0.0
 40
0.0
 40
0.0
 40
0.0
 40
1.0
 40
1.0
 40
1.0
 40
2.0
 40
2.0
 40
2.0
 40
3.0
 40
3.0
 40
3.0
 40
4.0
 40
4.0
 40
4.0
 40
5.0
 40
5.0
 40
5.0
 40
6.0
 40
6.0
 40
6.0
 40
7.0
 40
7.0
 40
7.0
 40
7.0
 10
88.76529674430174
 20
-135.8979925875533
 10
88.76529674430174
 20
-135.8979925875533
 10
88.76529674430174
 20
-134.7938394845307
 10
88.76529674430174
 20
-134.7938394845307
 10
88.76529674430174
 20
-134.7938394845307
 10
88.48383244315683
 20
-134.7938394845307
 10
88.48383244315683
 20
-134.7938394845307
 10
88.48383244315683
 20
-134.7938394845307
 10
88.48383244315683
 20
-134.645700378665
 10
88.48383244315683
 20
-134.645700378665
 10
88.76701929204437
 20
-134.6308864680784
 10
88.80663789012473
 20
-134.4679334516261
 10
88.83195934194131
 20
-134.3535562815158
 10
88.83195934194131
 20
-134.3535562815158
 10
88.95632728895883
 20
-134.3535562815158
 10
88.95632728895883
 20
-134.3535562815158
 10
88.95632728895883
 20
-134.3535562815158
 10
88.95632728895883
 20
-135.8979925875533
 10
88.95632728895883
 20
-135.8979925875533
 10
88.95632728895883
 20
-135.8979925875533
 10
88.76529674430174
 20
-135.8979925875533
 10
88.76529674430174
 20
-135.8979925875533
 97
        0
 97
        0
 75
     2
 76
     1
 98
        0
  0
SPLINE
  5
F0
330
EA
100
AcDbEntity
  8
_U+30EC_U+30A4_U+30E4_U+30FC 1
370
     0
100
AcDbSpline
210
0.0
220
0.0
230
1.0
 70
    11
 71
     3
 72
    29
 73
    25
 74
     0
 42
0.0000000001
 43
0.0000000001
 12
1.0
 22
0.0
 32
0.0
 13
1.0
 23
0.0
 33
0.0
 40
0.0
 40
0.0
 40
0.0
 40
0.0
 40
1.0
 40
1.0
 40
1.0
 40
2.0
 40
2.0
 40
2.0
 40
3.0
 40
3.0
 40
3.0
 40
4.0
 40
4.0
 40
4.0
 40
5.0
 40
5.0
 40
5.0
 40
6.0
 40
6.0
 40
6.0
 40
7.0
 40
7.0
 40
7.0
 40
8.0
 40
8.0
 40
8.0
 40
8.0
 10
90.14746905298396
 20
-135.7202256605144
 30
0.0
 10
90.0554850035278
 20
-135.9296874660176
 30
0.0
 10
89.90769040721058
 20
-135.9486354911865
 30
0.0
 10
89.80847165723539
 20
-135.9486354911865
 30
0.0
 10
89.6715291116967
 20
-135.9486354911865
 30
0.0
 10
89.55060626016443
 20
-135.9021267021356
 30
0.0
 10
89.46947426148681
 20
-135.7202256605144
 30
0.0
 10
89.38110756229014
 20
-135.5255777655978
 30
0.0
 10
89.36491561350947
 20
-135.2888997057611
 30
0.0
 10
89.36491561350947
 20
-135.1259466893088
 30
0.0
 10
89.36491561350947
 20
-134.9819416980254
 30
0.0
 10
89.37938501454752
 20
-134.7301052180536
 30
0.0
 10
89.46947426148681
 20
-134.5313232085547
 30
0.0
 10
89.56145831094297
 20
-134.3284070844735
 30
0.0
 10
89.69857311125591
 20
-134.3049804351738
 30
0.0
 10
89.80847165723539
 20
-134.3049804351738
 30
0.0
 10
89.94369165503144
 20
-134.3049804351738
 30
0.0
 10
90.06633705430633
 20
-134.3494221669335
 30
0.0
 10
90.14746905298396
 20
-134.5313232085547
 30
0.0
 10
90.23221840192112
 20
-134.7239040461801
 30
0.0
 10
90.25219995573556
 20
-134.9523138768522
 30
0.0
 10
90.25219995573556
 20
-135.1259466893088
 30
0.0
 10
90.25219995573556
 20
-135.2971679349257
 30
0.0
 10
90.234113204438
 20
-135.5276448228889
 30
0.0
 10
90.14746905298396
 20
-135.7202256605144
 30
0.0
  0
SPLINE
  5
F1
330
EA
100
AcDbEntity
  8
_U+30EC_U+30A4_U+30E4_U+30FC 1
370
     0
100
AcDbSpline
210
0.0
220
0.0
230
1.0
 70
    11
 71
     3
 72
    17
 73
    13
 74
     0
 42
0.0000000001
 43
0.0000000001
 12
1.0
 22
0.0
 32
0.0
 13
1.0
 23
0.0
 33
0.0
 40
0.0
 40
0.0
 40
0.0
 40
0.0
 40
1.0
 40
1.0
 40
1.0
 40
2.0
 40
2.0
 40
2.0
 40
3.0
 40
3.0
 40
3.0
 40
4.0
 40
4.0
 40
4.0
 40
4.0
 10
89.80847165723539
 20
-134.4975612727992
 30
0.0
 10
89.59573701102121
 20
-134.4975612727992
 30
0.0
 10
89.55611841294083
 20
-134.7810926312353
 30
0.0
 10
89.55611841294083
 20
-135.1259466893088
 30
0.0
 10
89.55611841294083
 20
-135.4453070407914
 30
0.0
 10
89.58677976275956
 20
-135.7539875962698
 30
0.0
 10
89.80847165723539
 20
-135.7539875962698
 30
0.0
 10
90.01948375570694
 20
-135.7539875962698
 30
0.0
 10
90.0609971563042
 20
-135.4728678046735
 30
0.0
 10
90.0609971563042
 20
-135.1259466893088
 30
0.0
 10
90.0609971563042
 20
-134.8062418282776
 30
0.0
 10
90.0284410039686
 20
-134.4975612727992
 30
0.0
 10
89.80847165723539
 20
-134.4975612727992
 30
0.0
  0
HATCH
  5
F2
330
EA
100
AcDbEntity
  8
_U+30EC_U+30A4_U+30E4_U+30FC 1
 62
   179
420
  2234388
100
AcDbHatch
 10
0.0
 20
0.0
 30
0.0
210
0.0
220
0.0
230
1.0
  2
SOLID
 70
     1
 71
     0
 91
        2
 92
        1
 93
        1
 72
     4
 94
        3
 73
     0
 74
     1
 95
       29
 96
       25
 40
0.0
 40
0.0
 40
0.0
 40
0.0
 40
1.0
 40
1.0
 40
1.0
 40
2.0
 40
2.0
 40
2.0
 40
3.0
 40
3.0
 40
3.0
 40
4.0
 40
4.0
 40
4.0
 40
5.0
 40
5.0
 40
5.0
 40
6.0
 40
6.0
 40
6.0
 40
7.0
 40
7.0
 40
7.0
 40
8.0
 40
8.0
 40
8.0
 40
8.0
 10
90.14746905298396
 20
-135.7202256605144
 10
90.0554850035278
 20
-135.9296874660176
 10
89.90769040721058
 20
-135.9486354911865
 10
89.80847165723539
 20
-135.9486354911865
 10
89.6715291116967
 20
-135.9486354911865
 10
89.55060626016443
 20
-135.9021267021356
 10
89.46947426148681
 20
-135.7202256605144
 10
89.38110756229014
 20
-135.5255777655978
 10
89.36491561350947
 20
-135.2888997057611
 10
89.36491561350947
 20
-135.1259466893088
 10
89.36491561350947
 20
-134.9819416980254
 10
89.37938501454752
 20
-134.7301052180536
 10
89.46947426148681
 20
-134.5313232085547
 10
89.56145831094297
 20
-134.3284070844735
 10
89.69857311125591
 20
-134.3049804351738
 10
89.80847165723539
 20
-134.3049804351738
 10
89.94369165503144
 20
-134.3049804351738
 10
90.06633705430633
 20
-134.3494221669335
 10
90.14746905298396
 20
-134.5313232085547
 10
90.23221840192112
 20
-134.7239040461801
 10
90.25219995573556
 20
-134.9523138768522
 10
90.25219995573556
 20
-135.1259466893088
 10
90.25219995573556
 20
-135.2971679349257
 10
90.234113204438
 20
-135.5276448228889
 10
90.14746905298396
 20
-135.7202256605144
 97
        0
 97
        0
 92
        1
 93
        1
 72
     4
 94
        3
 73
     0
 74
     1
 95
       17
 96
       13
 40
0.0
 40
0.0
 40
0.0
 40
0.0
 40
1.0
 40
1.0
 40
1.0
 40
2.0
 40
2.0
 40
2.0
 40
3.0
 40
3.0
 40
3.0
 40
4.0
 40
4.0
 40
4.0
 40
4.0
 10
89.80847165723539
 20
-134.4975612727992
 10
89.59573701102121
 20
-134.4975612727992
 10
89.55611841294083
 20
-134.7810926312353
 10
89.55611841294083
 20
-135.1259466893088
 10
89.55611841294083
 20
-135.4453070407914
 10
89.58677976275956
 20
-135.7539875962698
 10
89.80847165723539
 20
-135.7539875962698
 10
90.01948375570694
 20
-135.7539875962698
 10
90.0609971563042
 20
-135.4728678046735
 10
90.0609971563042
 20
-135.1259466893088
 10
90.0609971563042
 20
-134.8062418282776
 10
90.0284410039686
 20
-134.4975612727992
 10
89.80847165723539
 20
-134.4975612727992
 97
        0
 97
        0
 75
     2
 76
     1
 98
        0
  0
ENDBLK
  5
ED
330
EA
100
AcDbEntity
  8
0
100
AcDbBlockEnd
  0
BLOCK
  5
F5
330
F3
100
AcDbEntity
  8
0
100
AcDbBlockBegin
  2
block 6
 70
     0
 10
0.0
 20
0.0
 30
0.0
  3
block 6
  1

  0
SPLINE
  5
F7
330
F3
100
AcDbEntity
  8
_U+30EC_U+30A4_U+30E4_U+30FC 1
370
     0
100
AcDbSpline
210
0.0
220
0.0
230
1.0
 70
    11
 71
     3
 72
    26
 73
    22
 74
     0
 42
0.0000000001
 43
0.0000000001
 12
1.0
 22
0.0
 32
0.0
 13
1.0
 23
0.0
 33
0.0
 40
0.0
 40
0.0
 40
0.0
 40
0.0
 40
1.0
 40
1.0
 40
1.0
 40
2.0
 40
2.0
 40
2.0
 40
3.0
 40
3.0
 40
3.0
 40
4.0
 40
4.0
 40
4.0
 40
5.0
 40
5.0
 40
5.0
 40
6.0
 40
6.0
 40
6.0
 40
7.0
 40
7.0
 40
7.0
 40
7.0
 10
97.61264645997184
 20
-133.556361186229
 30
0.0
 10
97.61264645997184
 20
-133.556361186229
 30
0.0
 10
96.50849335694927
 20
-133.556361186229
 30
0.0
 10
96.50849335694927
 20
-133.556361186229
 30
0.0
 10
96.50849335694927
 20
-133.556361186229
 30
0.0
 10
96.50849335694927
 20
-133.8378254873739
 30
0.0
 10
96.50849335694927
 20
-133.8378254873739
 30
0.0
 10
96.50849335694927
 20
-133.8378254873739
 30
0.0
 10
96.36035425108352
 20
-133.8378254873739
 30
0.0
 10
96.36035425108352
 20
-133.8378254873739
 30
0.0
 10
96.34554034049695
 20
-133.5546386384864
 30
0.0
 10
96.18258732404463
 20
-133.515020040406
 30
0.0
 10
96.06821015393434
 20
-133.4898708433637
 30
0.0
 10
96.06821015393434
 20
-133.4898708433637
 30
0.0
 10
96.06821015393434
 20
-133.3651583867976
 30
0.0
 10
96.06821015393434
 20
-133.3651583867976
 30
0.0
 10
96.06821015393434
 20
-133.3651583867976
 30
0.0
 10
97.61264645997184
 20
-133.3651583867976
 30
0.0
 10
97.61264645997184
 20
-133.3651583867976
 30
0.0
 10
97.61264645997184
 20
-133.3651583867976
 30
0.0
 10
97.61264645997184
 20
-133.556361186229
 30
0.0
 10
97.61264645997184
 20
-133.556361186229
 30
0.0
  0
HATCH
  5
F8
330
F3
100
AcDbEntity
  8
_U+30EC_U+30A4_U+30E4_U+30FC 1
 62
   179
420
  2234388
100
AcDbHatch
 10
0.0
 20
0.0
 30
0.0
210
0.0
220
0.0
230
1.0
  2
SOLID
 70
     1
 71
     0
 91
        1
 92
        1
 93
        1
 72
     4
 94
        3
 73
     0
 74
     1
 95
       26
 96
       22
 40
0.0
 40
0.0
 40
0.0
 40
0.0
 40
1.0
 40
1.0
 40
1.0
 40
2.0
 40
2.0
 40
2.0
 40
3.0
 40
3.0
 40
3.0
 40
4.0
 40
4.0
 40
4.0
 40
5.0
 40
5.0
 40
5.0
 40
6.0
 40
6.0
 40
6.0
 40
7.0
 40
7.0
 40
7.0
 40
7.0
 10
97.61264645997184
 20
-133.556361186229
 10
97.61264645997184
 20
-133.556361186229
 10
96.50849335694927
 20
-133.556361186229
 10
96.50849335694927
 20
-133.556361186229
 10
96.50849335694927
 20
-133.556361186229
 10
96.50849335694927
 20
-133.8378254873739
 10
96.50849335694927
 20
-133.8378254873739
 10
96.50849335694927
 20
-133.8378254873739
 10
96.36035425108352
 20
-133.8378254873739
 10
96.36035425108352
 20
-133.8378254873739
 10
96.34554034049695
 20
-133.5546386384864
 10
96.18258732404463
 20
-133.515020040406
 10
96.06821015393434
 20
-133.4898708433637
 10
96.06821015393434
 20
-133.4898708433637
 10
96.06821015393434
 20
-133.3651583867976
 10
96.06821015393434
 20
-133.3651583867976
 10
96.06821015393434
 20
-133.3651583867976
 10
97.61264645997184
 20
-133.3651583867976
 10
97.61264645997184
 20
-133.3651583867976
 10
97.61264645997184
 20
-133.3651583867976
 10
97.61264645997184
 20
-133.556361186229
 10
97.61264645997184
 20
-133.556361186229
 97
        0
 97
        0
 75
     2
 76
     1
 98
        0
  0
POLYLINE
  5
F9
330
F3
100
AcDbEntity
  8
_U+30EC_U+30A4_U+30E4_U+30FC 1
370
     0
100
AcDb2dPolyline
 66
     1
 10
0.0
 20
0.0
 30
0.0
  0
VERTEX
  5
FA
330
F9
100
AcDbEntity
  8
_U+30EC_U+30A4_U+30E4_U+30FC 1
370
     0
100
AcDbVertex
100
AcDb2dVertex
 10
97.61264645997184
 20
-132.888357171639
 30
0.0
  0
VERTEX
  5
FB
330
F9
100
AcDbEntity
  8
_U+30EC_U+30A4_U+30E4_U+30FC 1
370
     0
100
AcDbVertex
100
AcDb2dVertex
 10
97.36080998000008
 20
-132.888357171639
 30
0.0
  0
VERTEX
  5
FC
330
F9
100
AcDbEntity
  8
_U+30EC_U+30A4_U+30E4_U+30FC 1
370
     0
100
AcDbVertex
100
AcDb2dVertex
 10
97.36080998000008
 20
-132.673727722908
 30
0.0
  0
VERTEX
  5
FD
330
F9
100
AcDbEntity
  8
_U+30EC_U+30A4_U+30E4_U+30FC 1
370
     0
100
AcDbVertex
100
AcDb2dVertex
 10
97.61264645997184
 20
-132.673727722908
 30
0.0
  0
VERTEX
  5
FE
330
F9
100
AcDbEntity
  8
_U+30EC_U+30A4_U+30E4_U+30FC 1
370
     0
100
AcDbVertex
100
AcDb2dVertex
 10
97.61264645997184
 20
-132.888357171639
 30
0.0
  0
SEQEND
  5
FF
330
F9
100
AcDbEntity
  8
_U+30EC_U+30A4_U+30E4_U+30FC 1
370
     0
  0
HATCH
  5
100
330
F3
100
AcDbEntity
  8
_U+30EC_U+30A4_U+30E4_U+30FC 1
 62
   179
420
  2234388
100
AcDbHatch
 10
0.0
 20
0.0
 30
0.0
210
0.0
220
0.0
230
1.0
  2
SOLID
 70
     1
 71
     0
 91
        1
 92
        1
 93
        4
 72
     1
 10
97.61264645997184
 20
-132.888357171639
 11
97.36080998000008
 21
-132.888357171639
 72
     1
 10
97.36080998000008
 20
-132.888357171639
 11
97.36080998000008
 21
-132.673727722908
 72
     1
 10
97.36080998000008
 20
-132.673727722908
 11
97.61264645997184
 21
-132.673727722908
 72
     1
 10
97.61264645997184
 20
-132.673727722908
 11
97.61264645997184
 21
-132.888357171639
 97
        0
 75
     2
 76
     1
 98
        0
  0
SPLINE
  5
101
330
F3
100
AcDbEntity
  8
_U+30EC_U+30A4_U+30E4_U+30FC 1
370
     0
100
AcDbSpline
210
0.0
220
0.0
230
1.0
 70
    11
 71
     3
 72
    44
 73
    40
 74
     0
 42
0.0000000001
 43
0.0000000001
 12
1.0
 22
0.0
 32
0.0
 13
1.0
 23
0.0
 33
0.0
 40
0.0
 40
0.0
 40
0.0
 40
0.0
 40
1.0
 40
1.0
 40
1.0
 40
2.0
 40
2.0
 40
2.0
 40
3.0
 40
3.0
 40
3.0
 40
4.0
 40
4.0
 40
4.0
 40
5.0
 40
5.0
 40
5.0
 40
6.0
 40
6.0
 40
6.0
 40
7.0
 40
7.0
 40
7.0
 40
8.0
 40
8.0
 40
8.0
 40
9.0
 40
9.0
 40
9.0
 40
10.0
 40
10.0
 40
10.0
 40
11.0
 40
11.0
 40
11.0
 40
12.0
 40
12.0
 40
12.0
 40
13.0
 40
13.0
 40
13.0
 40
13.0
 10
97.03076983251314
 20
-131.9671386388832
 30
0.0
 10
97.18958873438316
 20
-132.1528292855382
 30
0.0
 10
97.26365828731603
 20
-132.2320664816989
 30
0.0
 10
97.40731876905095
 20
-132.2737521370705
 30
0.0
 10
97.40731876905095
 20
-132.2737521370705
 30
0.0
 10
97.40731876905095
 20
-131.6102267466113
 30
0.0
 10
97.40731876905095
 20
-131.6102267466113
 30
0.0
 10
97.40731876905095
 20
-131.6102267466113
 30
0.0
 10
97.61264645997184
 20
-131.6102267466113
 30
0.0
 10
97.61264645997184
 20
-131.6102267466113
 30
0.0
 10
97.61264645997184
 20
-131.6102267466113
 30
0.0
 10
97.61264645997184
 20
-132.4866590380589
 30
0.0
 10
97.61264645997184
 20
-132.4866590380589
 30
0.0
 10
97.25504554860291
 20
-132.4594427837254
 30
0.0
 10
97.17684188108774
 20
-132.4036322368644
 30
0.0
 10
96.8784966120651
 20
-132.0753146371201
 30
0.0
 10
96.6797146025662
 20
-131.8572400929038
 30
0.0
 10
96.61184622150677
 20
-131.8010850364942
 30
0.0
 10
96.4743869116453
 20
-131.8010850364942
 30
0.0
 10
96.3558756269527
 20
-131.8010850364942
 30
0.0
 10
96.22496199851321
 20
-131.8624077361316
 30
0.0
 10
96.22496199851321
 20
-132.0301838862633
 30
0.0
 10
96.22496199851321
 20
-132.2520480355134
 30
0.0
 10
96.45543888647643
 20
-132.2592827360324
 30
0.0
 10
96.57188311387787
 20
-132.2627278315177
 30
0.0
 10
96.57188311387787
 20
-132.2627278315177
 30
0.0
 10
96.57188311387787
 20
-132.453930630949
 30
0.0
 10
96.57188311387787
 20
-132.453930630949
 30
0.0
 10
96.44475909047215
 20
-132.44669593043
 30
0.0
 10
96.33279348720153
 20
-132.4377386821683
 30
0.0
 10
96.21428220250894
 20
-132.3691812820119
 30
0.0
 10
96.05339624334776
 20
-132.2754746848131
 30
0.0
 10
96.01963430759231
 20
-132.1166557829431
 30
0.0
 10
96.01963430759231
 20
-132.0177815425164
 30
0.0
 10
96.01963430759231
 20
-131.7814479922283
 30
0.0
 10
96.20360240650466
 20
-131.6047145938349
 30
0.0
 10
96.47645396893644
 20
-131.6047145938349
 30
0.0
 10
96.70520830915703
 20
-131.6047145938349
 30
0.0
 10
96.80442705913224
 20
-131.7039333438101
 30
0.0
 10
97.03076983251314
 20
-131.9671386388832
 30
0.0
  0
HATCH
  5
102
330
F3
100
AcDbEntity
  8
_U+30EC_U+30A4_U+30E4_U+30FC 1
 62
   179
420
  2234388
100
AcDbHatch
 10
0.0
 20
0.0
 30
0.0
210
0.0
220
0.0
230
1.0
  2
SOLID
 70
     1
 71
     0
 91
        1
 92
        1
 93
        1
 72
     4
 94
        3
 73
     0
 74
     1
 95
       44
 96
       40
 40
0.0
 40
0.0
 40
0.0
 40
0.0
 40
1.0
 40
1.0
 40
1.0
 40
2.0
 40
2.0
 40
2.0
 40
3.0
 40
3.0
 40
3.0
 40
4.0
 40
4.0
 40
4.0
 40
5.0
 40
5.0
 40
5.0
 40
6.0
 40
6.0
 40
6.0
 40
7.0
 40
7.0
 40
7.0
 40
8.0
 40
8.0
 40
8.0
 40
9.0
 40
9.0
 40
9.0
 40
10.0
 40
10.0
 40
10.0
 40
11.0
 40
11.0
 40
11.0
 40
12.0
 40
12.0
 40
12.0
 40
13.0
 40
13.0
 40
13.0
 40
13.0
 10
97.03076983251314
 20
-131.9671386388832
 10
97.18958873438316
 20
-132.1528292855382
 10
97.26365828731603
 20
-132.2320664816989
 10
97.40731876905095
 20
-132.2737521370705
 10
97.40731876905095
 20
-132.2737521370705
 10
97.40731876905095
 20
-131.6102267466113
 10
97.40731876905095
 20
-131.6102267466113
 10
97.40731876905095
 20
-131.6102267466113
 10
97.61264645997184
 20
-131.6102267466113
 10
97.61264645997184
 20
-131.6102267466113
 10
97.61264645997184
 20
-131.6102267466113
 10
97.61264645997184
 20
-132.4866590380589
 10
97.61264645997184
 20
-132.4866590380589
 10
97.25504554860291
 20
-132.4594427837254
 10
97.17684188108774
 20
-132.4036322368644
 10
96.8784966120651
 20
-132.0753146371201
 10
96.6797146025662
 20
-131.8572400929038
 10
96.61184622150677
 20
-131.8010850364942
 10
96.4743869116453
 20
-131.8010850364942
 10
96.3558756269527
 20
-131.8010850364942
 10
96.22496199851321
 20
-131.8624077361316
 10
96.22496199851321
 20
-132.0301838862633
 10
96.22496199851321
 20
-132.2520480355134
 10
96.45543888647643
 20
-132.2592827360324
 10
96.57188311387787
 20
-132.2627278315177
 10
96.57188311387787
 20
-132.2627278315177
 10
96.57188311387787
 20
-132.453930630949
 10
96.57188311387787
 20
-132.453930630949
 10
96.44475909047215
 20
-132.44669593043
 10
96.33279348720153
 20
-132.4377386821683
 10
96.21428220250894
 20
-132.3691812820119
 10
96.05339624334776
 20
-132.2754746848131
 10
96.01963430759231
 20
-132.1166557829431
 10
96.01963430759231
 20
-132.0177815425164
 10
96.01963430759231
 20
-131.7814479922283
 10
96.20360240650466
 20
-131.6047145938349
 10
96.47645396893644
 20
-131.6047145938349
 10
96.70520830915703
 20
-131.6047145938349
 10
96.80442705913224
 20
-131.7039333438101
 10
97.03076983251314
 20
-131.9671386388832
 97
        0
 97
        0
 75
     2
 76
     1
 98
        0
  0
ENDBLK
  5
F6
330
F3
100
AcDbEntity
  8
0
100
AcDbBlockEnd
  0
BLOCK
  5
105
330
103
100
AcDbEntity
  8
0
100
AcDbBlockBegin
  2
block 7
 70
     0
 10
0.0
 20
0.0
 30
0.0
  3
block 7
  1

  0
SPLINE
  5
107
330
103
100
AcDbEntity
  8
_U+30EC_U+30A4_U+30E4_U+30FC 1
370
     0
100
AcDbSpline
210
0.0
220
0.0
230
1.0
 70
    11
 71
     3
 72
    62
 73
    58
 74
     0
 42
0.0000000001
 43
0.0000000001
 12
1.0
 22
0.0
 32
0.0
 13
1.0
 23
0.0
 33
0.0
 40
0.0
 40
0.0
 40
0.0
 40
0.0
 40
1.0
 40
1.0
 40
1.0
 40
2.0
 40
2.0
 40
2.0
 40
3.0
 40
3.0
 40
3.0
 40
4.0
 40
4.0
 40
4.0
 40
5.0
 40
5.0
 40
5.0
 40
6.0
 40
6.0
 40
6.0
 40
7.0
 40
7.0
 40
7.0
 40
8.0
 40
8.0
 40
8.0
 40
9.0
 40
9.0
 40
9.0
 40
10.0
 40
10.0
 40
10.0
 40
11.0
 40
11.0
 40
11.0
 40
12.0
 40
12.0
 40
12.0
 40
13.0
 40
13.0
 40
13.0
 40
14.0
 40
14.0
 40
14.0
 40
15.0
 40
15.0
 40
15.0
 40
16.0
 40
16.0
 40
16.0
 40
17.0
 40
17.0
 40
17.0
 40
18.0
 40
18.0
 40
18.0
 40
19.0
 40
19.0
 40
19.0
 40
19.0
 10
97.88377547466101
 20
-125.5999131630445
 30
0.0
 10
97.88377547466101
 20
-125.6810451617221
 30
0.0
 10
97.86276039220098
 20
-125.8667358083771
 30
0.0
 10
97.6767252359975
 20
-125.9731892588713
 30
0.0
 10
97.56441512317835
 20
-126.0362345062514
 30
0.0
 10
97.46519637320316
 20
-126.0398518565109
 30
0.0
 10
97.380447024266
 20
-126.0434692067704
 30
0.0
 10
97.380447024266
 20
-126.0434692067704
 30
0.0
 10
97.380447024266
 20
-125.8558837575985
 30
0.0
 10
97.380447024266
 20
-125.8558837575985
 30
0.0
 10
97.45451657719887
 20
-125.8541612098559
 30
0.0
 10
97.6891275797444
 20
-125.84503170682
 30
0.0
 10
97.6891275797444
 20
-125.6033582585297
 30
0.0
 10
97.6891275797444
 20
-125.4862250120312
 30
0.0
 10
97.61953665094234
 20
-125.3563449122373
 30
0.0
 10
97.39112682027027
 20
-125.3563449122373
 30
0.0
 10
97.27468259286883
 20
-125.3563449122373
 30
0.0
 10
97.22610674652681
 20
-125.3889010645729
 30
0.0
 10
97.19441186806252
 20
-125.4159450641321
 30
0.0
 10
97.12034231512965
 20
-125.4789903115122
 30
0.0
 10
97.10759546183422
 20
-125.5782090614874
 30
0.0
 10
97.10759546183422
 20
-125.6250623600868
 30
0.0
 10
97.10759546183422
 20
-125.6412543088675
 30
0.0
 10
97.10966251912537
 20
-125.6719156586862
 30
0.0
 10
97.11379663370766
 20
-125.6953423079859
 30
0.0
 10
97.11379663370766
 20
-125.6953423079859
 30
0.0
 10
96.91914873879105
 20
-125.6953423079859
 30
0.0
 10
96.91914873879105
 20
-125.6953423079859
 30
0.0
 10
96.92569442021302
 20
-125.6629584104246
 30
0.0
 10
96.92776147750418
 20
-125.6269571626037
 30
0.0
 10
96.92776147750418
 20
-125.6214450098273
 30
0.0
 10
96.92776147750418
 20
-125.5656344629662
 30
0.0
 10
96.90640188549563
 20
-125.3961357650919
 30
0.0
 10
96.66972382565896
 20
-125.3961357650919
 30
0.0
 10
96.49195689862007
 20
-125.3961357650919
 30
0.0
 10
96.43683537085607
 20
-125.5079291135883
 30
0.0
 10
96.43683537085607
 20
-125.6016357107871
 30
0.0
 10
96.43683537085607
 20
-125.8271172102967
 30
0.0
 10
96.66972382565896
 20
-125.8341796560415
 30
0.0
 10
96.74138181175216
 20
-125.837797006301
 30
0.0
 10
96.74138181175216
 20
-125.837797006301
 30
0.0
 10
96.74138181175216
 20
-126.0109130544348
 30
0.0
 10
96.74138181175216
 20
-126.0109130544348
 30
0.0
 10
96.61666935518612
 20
-126.00385060869
 30
0.0
 10
96.2401204186483
 20
-125.9802517046161
 30
0.0
 10
96.2401204186483
 20
-125.5907836600086
 30
0.0
 10
96.2401204186483
 20
-125.3997531153515
 30
0.0
 10
96.36724444205403
 20
-125.194080914882
 30
0.0
 10
96.663178144237
 20
-125.194080914882
 30
0.0
 10
96.84955780998901
 20
-125.194080914882
 30
0.0
 10
96.93189559208648
 20
-125.2752129135597
 30
0.0
 10
96.99321829172392
 20
-125.3599622624968
 30
0.0
 10
97.02077905560591
 20
-125.3077690658953
 30
0.0
 10
97.10104978041224
 20
-125.1525675142848
 30
0.0
 10
97.37837996697485
 20
-125.1525675142848
 30
0.0
 10
97.71668834362639
 20
-125.1525675142848
 30
0.0
 10
97.88377547466101
 20
-125.3635796127563
 30
0.0
 10
97.88377547466101
 20
-125.5999131630445
 30
0.0
  0
HATCH
  5
108
330
103
100
AcDbEntity
  8
_U+30EC_U+30A4_U+30E4_U+30FC 1
 62
   179
420
  2234388
100
AcDbHatch
 10
0.0
 20
0.0
 30
0.0
210
0.0
220
0.0
230
1.0
  2
SOLID
 70
     1
 71
     0
 91
        1
 92
        1
 93
        1
 72
     4
 94
        3
 73
     0
 74
     1
 95
       62
 96
       58
 40
0.0
 40
0.0
 40
0.0
 40
0.0
 40
1.0
 40
1.0
 40
1.0
 40
2.0
 40
2.0
 40
2.0
 40
3.0
 40
3.0
 40
3.0
 40
4.0
 40
4.0
 40
4.0
 40
5.0
 40
5.0
 40
5.0
 40
6.0
 40
6.0
 40
6.0
 40
7.0
 40
7.0
 40
7.0
 40
8.0
 40
8.0
 40
8.0
 40
9.0
 40
9.0
 40
9.0
 40
10.0
 40
10.0
 40
10.0
 40
11.0
 40
11.0
 40
11.0
 40
12.0
 40
12.0
 40
12.0
 40
13.0
 40
13.0
 40
13.0
 40
14.0
 40
14.0
 40
14.0
 40
15.0
 40
15.0
 40
15.0
 40
16.0
 40
16.0
 40
16.0
 40
17.0
 40
17.0
 40
17.0
 40
18.0
 40
18.0
 40
18.0
 40
19.0
 40
19.0
 40
19.0
 40
19.0
 10
97.88377547466101
 20
-125.5999131630445
 10
97.88377547466101
 20
-125.6810451617221
 10
97.86276039220098
 20
-125.8667358083771
 10
97.6767252359975
 20
-125.9731892588713
 10
97.56441512317835
 20
-126.0362345062514
 10
97.46519637320316
 20
-126.0398518565109
 10
97.380447024266
 20
-126.0434692067704
 10
97.380447024266
 20
-126.0434692067704
 10
97.380447024266
 20
-125.8558837575985
 10
97.380447024266
 20
-125.8558837575985
 10
97.45451657719887
 20
-125.8541612098559
 10
97.6891275797444
 20
-125.84503170682
 10
97.6891275797444
 20
-125.6033582585297
 10
97.6891275797444
 20
-125.4862250120312
 10
97.61953665094234
 20
-125.3563449122373
 10
97.39112682027027
 20
-125.3563449122373
 10
97.27468259286883
 20
-125.3563449122373
 10
97.22610674652681
 20
-125.3889010645729
 10
97.19441186806252
 20
-125.4159450641321
 10
97.12034231512965
 20
-125.4789903115122
 10
97.10759546183422
 20
-125.5782090614874
 10
97.10759546183422
 20
-125.6250623600868
 10
97.10759546183422
 20
-125.6412543088675
 10
97.10966251912537
 20
-125.6719156586862
 10
97.11379663370766
 20
-125.6953423079859
 10
97.11379663370766
 20
-125.6953423079859
 10
96.91914873879105
 20
-125.6953423079859
 10
96.91914873879105
 20
-125.6953423079859
 10
96.92569442021302
 20
-125.6629584104246
 10
96.92776147750418
 20
-125.6269571626037
 10
96.92776147750418
 20
-125.6214450098273
 10
96.92776147750418
 20
-125.5656344629662
 10
96.90640188549563
 20
-125.3961357650919
 10
96.66972382565896
 20
-125.3961357650919
 10
96.49195689862007
 20
-125.3961357650919
 10
96.43683537085607
 20
-125.5079291135883
 10
96.43683537085607
 20
-125.6016357107871
 10
96.43683537085607
 20
-125.8271172102967
 10
96.66972382565896
 20
-125.8341796560415
 10
96.74138181175216
 20
-125.837797006301
 10
96.74138181175216
 20
-125.837797006301
 10
96.74138181175216
 20
-126.0109130544348
 10
96.74138181175216
 20
-126.0109130544348
 10
96.61666935518612
 20
-126.00385060869
 10
96.2401204186483
 20
-125.9802517046161
 10
96.2401204186483
 20
-125.5907836600086
 10
96.2401204186483
 20
-125.3997531153515
 10
96.36724444205403
 20
-125.194080914882
 10
96.663178144237
 20
-125.194080914882
 10
96.84955780998901
 20
-125.194080914882
 10
96.93189559208648
 20
-125.2752129135597
 10
96.99321829172392
 20
-125.3599622624968
 10
97.02077905560591
 20
-125.3077690658953
 10
97.10104978041224
 20
-125.1525675142848
 10
97.37837996697485
 20
-125.1525675142848
 10
97.71668834362639
 20
-125.1525675142848
 10
97.88377547466101
 20
-125.3635796127563
 10
97.88377547466101
 20
-125.5999131630445
 97
        0
 97
        0
 75
     2
 76
     1
 98
        0
  0
ENDBLK
  5
106
330
103
100
AcDbEntity
  8
0
100
AcDbBlockEnd
  0
BLOCK
  5
10B
330
109
100
AcDbEntity
  8
0
100
AcDbBlockBegin
  2
block 8
 70
     0
 10
0.0
 20
0.0
 30
0.0
  3
block 8
  1

  0
SPLINE
  5
10D
330
109
100
AcDbEntity
  8
_U+30EC_U+30A4_U+30E4_U+30FC 1
370
     0
100
AcDbSpline
210
0.0
220
0.0
230
1.0
 70
    11
 71
     3
 72
   242
 73
   238
 74
     0
 42
0.0000000001
 43
0.0000000001
 12
1.0
 22
0.0
 32
0.0
 13
1.0
 23
0.0
 33
0.0
 40
0.0
 40
0.0
 40
0.0
 40
0.0
 40
1.0
 40
1.0
 40
1.0
 40
2.0
 40
2.0
 40
2.0
 40
3.0
 40
3.0
 40
3.0
 40
4.0
 40
4.0
 40
4.0
 40
5.0
 40
5.0
 40
5.0
 40
6.0
 40
6.0
 40
6.0
 40
7.0
 40
7.0
 40
7.0
 40
8.0
 40
8.0
 40
8.0
 40
9.0
 40
9.0
 40
9.0
 40
10.0
 40
10.0
 40
10.0
 40
11.0
 40
11.0
 40
11.0
 40
12.0
 40
12.0
 40
12.0
 40
13.0
 40
13.0
 40
13.0
 40
14.0
 40
14.0
 40
14.0
 40
15.0
 40
15.0
 40
15.0
 40
16.0
 40
16.0
 40
16.0
 40
17.0
 40
17.0
 40
17.0
 40
18.0
 40
18.0
 40
18.0
 40
19.0
 40
19.0
 40
19.0
 40
20.0
 40
20.0
 40
20.0
 40
21.0
 40
21.0
 40
21.0
 40
22.0
 40
22.0
 40
22.0
 40
23.0
 40
23.0
 40
23.0
 40
24.0
 40
24.0
 40
24.0
 40
25.0
 40
25.0
 40
25.0
 40
26.0
 40
26.0
 40
26.0
 40
27.0
 40
27.0
 40
27.0
 40
28.0
 40
28.0
 40
28.0
 40
29.0
 40
29.0
 40
29.0
 40
30.0
 40
30.0
 40
30.0
 40
31.0
 40
31.0
 40
31.0
 40
32.0
 40
32.0
 40
32.0
 40
33.0
 40
33.0
 40
33.0
 40
34.0
 40
34.0
 40
34.0
 40
35.0
 40
35.0
 40
35.0
 40
36.0
 40
36.0
 40
36.0
 40
37.0
 40
37.0
 40
37.0
 40
38.0
 40
38.0
 40
38.0
 40
39.0
 40
39.0
 40
39.0
 40
40.0
 40
40.0
 40
40.0
 40
41.0
 40
41.0
 40
41.0
 40
42.0
 40
42.0
 40
42.0
 40
43.0
 40
43.0
 40
43.0
 40
44.0
 40
44.0
 40
44.0
 40
45.0
 40
45.0
 40
45.0
 40
46.0
 40
46.0
 40
46.0
 40
47.0
 40
47.0
 40
47.0
 40
48.0
 40
48.0
 40
48.0
 40
49.0
 40
49.0
 40
49.0
 40
50.0
 40
50.0
 40
50.0
 40
51.0
 40
51.0
 40
51.0
 40
52.0
 40
52.0
 40
52.0
 40
53.0
 40
53.0
 40
53.0
 40
54.0
 40
54.0
 40
54.0
 40
55.0
 40
55.0
 40
55.0
 40
56.0
 40
56.0
 40
56.0
 40
57.0
 40
57.0
 40
57.0
 40
58.0
 40
58.0
 40
58.0
 40
59.0
 40
59.0
 40
59.0
 40
60.0
 40
60.0
 40
60.0
 40
61.0
 40
61.0
 40
61.0
 40
62.0
 40
62.0
 40
62.0
 40
63.0
 40
63.0
 40
63.0
 40
64.0
 40
64.0
 40
64.0
 40
65.0
 40
65.0
 40
65.0
 40
66.0
 40
66.0
 40
66.0
 40
67.0
 40
67.0
 40
67.0
 40
68.0
 40
68.0
 40
68.0
 40
69.0
 40
69.0
 40
69.0
 40
70.0
 40
70.0
 40
70.0
 40
71.0
 40
71.0
 40
71.0
 40
72.0
 40
72.0
 40
72.0
 40
73.0
 40
73.0
 40
73.0
 40
74.0
 40
74.0
 40
74.0
 40
75.0
 40
75.0
 40
75.0
 40
76.0
 40
76.0
 40
76.0
 40
77.0
 40
77.0
 40
77.0
 40
78.0
 40
78.0
 40
78.0
 40
79.0
 40
79.0
 40
79.0
 40
79.0
 10
102.5494682903349
 20
-122.1732489386407
 30
0.0
 10
102.5494682903349
 20
-122.1732489386407
 30
0.0
 10
102.3331162938612
 20
-122.1732489386407
 30
0.0
 10
102.3331162938612
 20
-122.1732489386407
 30
0.0
 10
102.3331162938612
 20
-122.1732489386407
 30
0.0
 10
102.096782743573
 20
-122.1732489386407
 30
0.0
 10
102.096782743573
 20
-122.1732489386407
 30
0.0
 10
102.096782743573
 20
-122.1732489386407
 30
0.0
 10
102.2049587418099
 20
-122.2156236131093
 30
0.0
 10
102.2049587418099
 20
-122.2156236131093
 30
0.0
 10
102.2139159900715
 20
-122.2199299824659
 30
0.0
 10
102.2249402956243
 20
-122.2261311543393
 30
0.0
 10
102.2249402956243
 20
-122.2388780076347
 30
0.0
 10
102.2249402956243
 20
-122.260065344869
 30
0.0
 10
102.1977240412909
 20
-122.2664387715167
 30
0.0
 10
102.1798095447676
 20
-122.270572886099
 30
0.0
 10
102.1705077869574
 20
-122.2938272806245
 30
0.0
 10
102.145358589915
 20
-122.3594563496185
 30
0.0
 10
102.1291666411344
 20
-122.4038980813782
 30
0.0
 10
102.1291666411344
 20
-122.4038980813782
 30
0.0
 10
102.3599880386461
 20
-122.4038980813782
 30
0.0
 10
102.3599880386461
 20
-122.4038980813782
 30
0.0
 10
102.4375026870642
 20
-122.4038980813782
 30
0.0
 10
102.6052788371959
 20
-122.3995917120216
 30
0.0
 10
102.7262016887282
 20
-122.3911512280828
 30
0.0
 10
102.7262016887282
 20
-122.3911512280828
 30
0.0
 10
102.7262016887282
 20
-122.5689181551217
 30
0.0
 10
102.7262016887282
 20
-122.5689181551217
 30
0.0
 10
102.6559217408291
 20
-122.5646117857651
 30
0.0
 10
102.6376627347573
 20
-122.5646117857651
 30
0.0
 10
102.4843559856636
 20
-122.5604776711828
 30
0.0
 10
102.4574842408787
 20
-122.714817948922
 30
0.0
 10
102.4195881905409
 20
-122.7952609285026
 30
0.0
 10
102.3816921402032
 20
-122.8650241120789
 30
0.0
 10
102.4843559856636
 20
-122.9242797544252
 30
0.0
 10
102.5746174873772
 20
-122.9919758807103
 30
0.0
 10
102.6628119317996
 20
-123.0744859175821
 30
0.0
 10
102.6628119317996
 20
-123.0744859175821
 30
0.0
 10
102.5618706340818
 20
-123.2415730486167
 30
0.0
 10
102.5618706340818
 20
-123.2415730486167
 30
0.0
 10
102.5422335898158
 20
-123.2226250234478
 30
0.0
 10
102.531209284263
 20
-123.214184539509
 30
0.0
 10
102.4357801393216
 20
-123.1294351905718
 30
0.0
 10
102.3944389934986
 20
-123.0913668854598
 30
0.0
 10
102.3437960898654
 20
-123.0555378924132
 30
0.0
 10
102.275238689709
 20
-123.0110961606535
 30
0.0
 10
102.0950601958304
 20
-123.1973035716312
 30
0.0
 10
101.9200493451797
 20
-123.2205579661567
 30
0.0
 10
101.6730359988873
 20
-123.2501857873298
 30
0.0
 10
101.6730359988873
 20
-123.2501857873298
 30
0.0
 10
101.5844970449164
 20
-123.0703518029998
 30
0.0
 10
101.5844970449164
 20
-123.0703518029998
 30
0.0
 10
101.8549370405085
 20
-123.0660454336432
 30
0.0
 10
102.0047986941169
 20
-123.0407239818266
 30
0.0
 10
102.1346787939108
 20
-122.9306531810729
 30
0.0
 10
102.033737496193
 20
-122.8798380226655
 30
0.0
 10
101.9579453955175
 20
-122.8524495135577
 30
0.0
 10
101.9272840456987
 20
-122.8397026602623
 30
0.0
 10
101.9110920969181
 20
-122.8672634241443
 30
0.0
 10
101.8983452436226
 20
-122.8862114493132
 30
0.0
 10
101.8749185943229
 20
-122.9201456398429
 30
0.0
 10
101.8749185943229
 20
-122.9201456398429
 30
0.0
 10
101.7071424441913
 20
-122.8376356029711
 30
0.0
 10
101.7071424441913
 20
-122.8376356029711
 30
0.0
 10
101.7774223920904
 20
-122.7571926233906
 30
0.0
 10
101.8297878434662
 20
-122.6619357332234
 30
0.0
 10
101.8783636898082
 20
-122.5604776711828
 30
0.0
 10
101.7160996924529
 20
-122.5646117857651
 30
0.0
 10
101.6981851959296
 20
-122.5646117857651
 30
0.0
 10
101.6279052480305
 20
-122.5689181551217
 30
0.0
 10
101.6279052480305
 20
-122.5689181551217
 30
0.0
 10
101.6279052480305
 20
-122.3911512280828
 30
0.0
 10
101.6279052480305
 20
-122.3911512280828
 30
0.0
 10
101.7467610422716
 20
-122.3975246547305
 30
0.0
 10
101.9255614979561
 20
-122.401831024087
 30
0.0
 10
101.9469210899647
 20
-122.401831024087
 30
0.0
 10
101.9613904910027
 20
-122.3678968335573
 30
0.0
 10
102.0082437896021
 20
-122.2473184915736
 30
0.0
 10
102.0244357383828
 20
-122.1732489386407
 30
0.0
 10
102.0082437896021
 20
-122.1732489386407
 30
0.0
 10
101.8570040977996
 20
-122.1796223652884
 30
0.0
 10
101.6909504954106
 20
-122.1923692185839
 30
0.0
 10
101.6909504954106
 20
-122.1923692185839
 30
0.0
 10
101.6909504954106
 20
-122.325694413863
 30
0.0
 10
101.6909504954106
 20
-122.325694413863
 30
0.0
 10
101.6496093495876
 20
-122.3510158656796
 30
0.0
 10
101.5989664459544
 20
-122.3827107441439
 30
0.0
 10
101.4852782949412
 20
-122.4483398131379
 30
0.0
 10
101.4852782949412
 20
-122.4483398131379
 30
0.0
 10
101.4852782949412
 20
-122.5942396069382
 30
0.0
 10
101.4852782949412
 20
-122.5942396069382
 30
0.0
 10
101.4852782949412
 20
-122.5942396069382
 30
0.0
 10
101.4852782949412
 20
-123.0619113190609
 30
0.0
 10
101.4852782949412
 20
-123.0619113190609
 30
0.0
 10
101.4852782949412
 20
-123.1886908329181
 30
0.0
 10
101.4546169451225
 20
-123.2479464752644
 30
0.0
 10
101.2131157516065
 20
-123.2395059913255
 30
0.0
 10
101.2131157516065
 20
-123.2395059913255
 30
0.0
 10
101.1249213071841
 20
-123.0322834978878
 30
0.0
 10
101.1249213071841
 20
-123.0322834978878
 30
0.0
 10
101.1790093063025
 20
-123.0448580964089
 30
0.0
 10
101.2203504521255
 20
-123.0491644657655
 30
0.0
 10
101.2544568974294
 20
-123.0491644657655
 30
0.0
 10
101.3195692021007
 20
-123.0491644657655
 30
0.0
 10
101.3285264503623
 20
-123.0259100712401
 30
0.0
 10
101.3285264503623
 20
-122.960281002246
 30
0.0
 10
101.3285264503623
 20
-122.960281002246
 30
0.0
 10
101.3285264503623
 20
-122.5308498500097
 30
0.0
 10
101.3285264503623
 20
-122.5308498500097
 30
0.0
 10
101.2454996491678
 20
-122.5709852124128
 30
0.0
 10
101.2310302481297
 20
-122.5773586390605
 30
0.0
 10
101.1914116500494
 20
-122.5964789190037
 30
0.0
 10
101.1879665545641
 20
-122.6174940014637
 30
0.0
 10
101.1841769495304
 20
-122.6471218226368
 30
0.0
 10
101.1679850007497
 20
-122.6471218226368
 30
0.0
 10
101.1607503002306
 20
-122.6471218226368
 30
0.0
 10
101.151793051969
 20
-122.6429877080545
 30
0.0
 10
101.1462808991926
 20
-122.6197333135291
 30
0.0
 10
101.1462808991926
 20
-122.6197333135291
 30
0.0
 10
101.1011501483358
 20
-122.4271524759036
 30
0.0
 10
101.1011501483358
 20
-122.4271524759036
 30
0.0
 10
101.2258626049019
 20
-122.3806436868528
 30
0.0
 10
101.2816731517629
 20
-122.3573892923273
 30
0.0
 10
101.3285264503623
 20
-122.336201955093
 30
0.0
 10
101.3285264503623
 20
-122.336201955093
 30
0.0
 10
101.3285264503623
 20
-121.9236517707344
 30
0.0
 10
101.3285264503623
 20
-121.9236517707344
 30
0.0
 10
101.3285264503623
 20
-121.9236517707344
 30
0.0
 10
101.2833956995055
 20
-121.9236517707344
 30
0.0
 10
101.2833956995055
 20
-121.9236517707344
 30
0.0
 10
101.2833956995055
 20
-121.9236517707344
 30
0.0
 10
101.2165608470917
 20
-121.9236517707344
 30
0.0
 10
101.2165608470917
 20
-121.9236517707344
 30
0.0
 10
101.159027752488
 20
-121.9236517707344
 30
0.0
 10
101.151793051969
 20
-121.9236517707344
 30
0.0
 10
101.1211317021503
 20
-121.9300251973821
 30
0.0
 10
101.1211317021503
 20
-121.9300251973821
 30
0.0
 10
101.1211317021503
 20
-121.7353773024655
 30
0.0
 10
101.1211317021503
 20
-121.7353773024655
 30
0.0
 10
101.14455835145
 20
-121.7417507291132
 30
0.0
 10
101.151793051969
 20
-121.7417507291132
 30
0.0
 10
101.2113932038638
 20
-121.7417507291132
 30
0.0
 10
101.2113932038638
 20
-121.7417507291132
 30
0.0
 10
101.3250813548771
 20
-121.7417507291132
 30
0.0
 10
101.3250813548771
 20
-121.7417507291132
 30
0.0
 10
101.3250813548771
 20
-121.6719875455369
 30
0.0
 10
101.3250813548771
 20
-121.5894775086651
 30
0.0
 10
101.3230142975859
 20
-121.5851711393086
 30
0.0
 10
101.3157795970669
 20
-121.4053371549785
 30
0.0
 10
101.3157795970669
 20
-121.3863891298097
 30
0.0
 10
101.3140570493243
 20
-121.3398803407588
 30
0.0
 10
101.3140570493243
 20
-121.3398803407588
 30
0.0
 10
101.4980251482366
 20
-121.3483208246977
 30
0.0
 10
101.4980251482366
 20
-121.3483208246977
 30
0.0
 10
101.5069823964983
 20
-121.3483208246977
 30
0.0
 10
101.5252414025701
 20
-121.3503878819888
 30
0.0
 10
101.5252414025701
 20
-121.3672688498665
 30
0.0
 10
101.5252414025701
 20
-121.3863891298097
 30
0.0
 10
101.5124945492747
 20
-121.3968966710397
 30
0.0
 10
101.4907904477176
 20
-121.4160169509828
 30
0.0
 10
101.4907904477176
 20
-121.466659854616
 30
0.0
 10
101.4852782949412
 20
-121.6952419400623
 30
0.0
 10
101.4873453522323
 20
-121.7417507291132
 30
0.0
 10
101.5972438982118
 20
-121.7417507291132
 30
0.0
 10
101.6079236942161
 20
-121.7417507291132
 30
0.0
 10
101.6909504954106
 20
-121.7333102451743
 30
0.0
 10
101.6909504954106
 20
-121.7333102451743
 30
0.0
 10
101.6909504954106
 20
-121.9279581400909
 30
0.0
 10
101.6909504954106
 20
-121.9279581400909
 30
0.0
 10
101.6585665978493
 20
-121.9257188280255
 30
0.0
 10
101.600688993697
 20
-121.9215847134432
 30
0.0
 10
101.4852782949412
 20
-121.9236517707344
 30
0.0
 10
101.4852782949412
 20
-121.9236517707344
 30
0.0
 10
101.4852782949412
 20
-122.2621324021602
 30
0.0
 10
101.4852782949412
 20
-122.2621324021602
 30
0.0
 10
101.5324761030891
 20
-122.2388780076347
 30
0.0
 10
101.5882866499501
 20
-122.2113172437527
 30
0.0
 10
101.6296277957731
 20
-122.1880628492273
 30
0.0
 10
101.6296277957731
 20
-122.1880628492273
 30
0.0
 10
101.6296277957731
 20
-122.0104681769627
 30
0.0
 10
101.6296277957731
 20
-122.0104681769627
 30
0.0
 10
101.7271239980057
 20
-122.0230427754838
 30
0.0
 10
101.8280652957235
 20
-122.0230427754838
 30
0.0
 10
101.9272840456987
 20
-122.0230427754838
 30
0.0
 10
101.9073024918843
 20
-121.9279581400909
 30
0.0
 10
101.8838758425846
 20
-121.8454481032192
 30
0.0
 10
101.8297878434662
 20
-121.71212290794
 30
0.0
 10
101.7918917931284
 20
-121.7141899652312
 30
0.0
 10
101.7216118452293
 20
-121.7184963345877
 30
0.0
 10
101.689227947668
 20
-121.7205633918789
 30
0.0
 10
101.689227947668
 20
-121.7205633918789
 30
0.0
 10
101.689227947668
 20
-121.5407294075489
 30
0.0
 10
101.689227947668
 20
-121.5407294075489
 30
0.0
 10
101.7956813981622
 20
-121.5491698914877
 30
0.0
 10
101.9434759944794
 20
-121.5534762608443
 30
0.0
 10
102.0137559423785
 20
-121.5534762608443
 30
0.0
 10
102.0137559423785
 20
-121.5534762608443
 30
0.0
 10
102.0840358902776
 20
-121.5534762608443
 30
0.0
 10
102.0840358902776
 20
-121.5534762608443
 30
0.0
 10
102.0840358902776
 20
-121.390523244392
 30
0.0
 10
102.0840358902776
 20
-121.3800157031619
 30
0.0
 10
102.082313342535
 20
-121.3250664301722
 30
0.0
 10
102.082313342535
 20
-121.3250664301722
 30
0.0
 10
102.2735161419664
 20
-121.3503878819888
 30
0.0
 10
102.2735161419664
 20
-121.3503878819888
 30
0.0
 10
102.2769612374516
 20
-121.3503878819888
 30
0.0
 10
102.2952202435234
 20
-121.35245493928
 30
0.0
 10
102.2952202435234
 20
-121.3693359071577
 30
0.0
 10
102.2952202435234
 20
-121.3841498177442
 30
0.0
 10
102.2859184857133
 20
-121.3927625564574
 30
0.0
 10
102.2624918364135
 20
-121.4075764670439
 30
0.0
 10
102.2573241931857
 20
-121.4730332812637
 30
0.0
 10
102.2552571358945
 20
-121.494220618498
 30
0.0
 10
102.2552571358945
 20
-121.5534762608443
 30
0.0
 10
102.2552571358945
 20
-121.5534762608443
 30
0.0
 10
102.3365613893464
 20
-121.5534762608443
 30
0.0
 10
102.3365613893464
 20
-121.5534762608443
 30
0.0
 10
102.4068413372455
 20
-121.5534762608443
 30
0.0
 10
102.5546359335627
 20
-121.5491698914877
 30
0.0
 10
102.661089384057
 20
-121.5407294075489
 30
0.0
 10
102.661089384057
 20
-121.5407294075489
 30
0.0
 10
102.661089384057
 20
-121.7205633918789
 30
0.0
 10
102.661089384057
 20
-121.7205633918789
 30
0.0
 10
102.6359401870146
 20
-121.7184963345877
 30
0.0
 10
102.5349988892968
 20
-121.7141899652312
 30
0.0
 10
102.5005479344443
 20
-121.71212290794
 30
0.0
 10
102.4881455906974
 20
-121.7629380663475
 30
0.0
 10
102.4592067886213
 20
-121.8750759243923
 30
0.0
 10
102.4033962417603
 20
-122.014602291545
 30
0.0
 10
102.4392252348069
 20
-122.014602291545
 30
0.0
 10
102.675558785095
 20
-121.9956542663761
 30
0.0
 10
102.7279242364708
 20
-121.9934149543107
 30
0.0
 10
102.7279242364708
 20
-121.9934149543107
 30
0.0
 10
102.7279242364708
 20
-122.1775553079973
 30
0.0
 10
102.7279242364708
 20
-122.1775553079973
 30
0.0
 10
102.7027750394285
 20
-122.1775553079973
 30
0.0
 10
102.6883056383904
 20
-122.1732489386407
 30
0.0
 10
102.5494682903349
 20
-122.1732489386407
 30
0.0
  0
SPLINE
  5
10E
330
109
100
AcDbEntity
  8
_U+30EC_U+30A4_U+30E4_U+30FC 1
370
     0
100
AcDbSpline
210
0.0
220
0.0
230
1.0
 70
    11
 71
     3
 72
    20
 73
    16
 74
     0
 42
0.0000000001
 43
0.0000000001
 12
1.0
 22
0.0
 32
0.0
 13
1.0
 23
0.0
 33
0.0
 40
0.0
 40
0.0
 40
0.0
 40
0.0
 40
1.0
 40
1.0
 40
1.0
 40
2.0
 40
2.0
 40
2.0
 40
3.0
 40
3.0
 40
3.0
 40
4.0
 40
4.0
 40
4.0
 40
5.0
 40
5.0
 40
5.0
 40
5.0
 10
102.0137559423785
 20
-121.7079887933577
 30
0.0
 10
102.0137559423785
 20
-121.7079887933577
 30
0.0
 10
101.9868841975936
 20
-121.7079887933577
 30
0.0
 10
101.9868841975936
 20
-121.7079887933577
 30
0.0
 10
102.0265027956739
 20
-121.8073797981072
 30
0.0
 10
102.0533745404589
 20
-121.8876505229135
 30
0.0
 10
102.082313342535
 20
-122.014602291545
 30
0.0
 10
102.082313342535
 20
-122.014602291545
 30
0.0
 10
102.2590467409283
 20
-122.014602291545
 30
0.0
 10
102.2590467409283
 20
-122.014602291545
 30
0.0
 10
102.2859184857133
 20
-121.9215847134432
 30
0.0
 10
102.3059000395277
 20
-121.8370076192803
 30
0.0
 10
102.3258815933421
 20
-121.7079887933577
 30
0.0
 10
102.3258815933421
 20
-121.7079887933577
 30
0.0
 10
102.0137559423785
 20
-121.7079887933577
 30
0.0
 10
102.0137559423785
 20
-121.7079887933577
 30
0.0
  0
SPLINE
  5
10F
330
109
100
AcDbEntity
  8
_U+30EC_U+30A4_U+30E4_U+30FC 1
370
     0
100
AcDbSpline
210
0.0
220
0.0
230
1.0
 70
    11
 71
     3
 72
    17
 73
    13
 74
     0
 42
0.0000000001
 43
0.0000000001
 12
1.0
 22
0.0
 32
0.0
 13
1.0
 23
0.0
 33
0.0
 40
0.0
 40
0.0
 40
0.0
 40
0.0
 40
1.0
 40
1.0
 40
1.0
 40
2.0
 40
2.0
 40
2.0
 40
3.0
 40
3.0
 40
3.0
 40
4.0
 40
4.0
 40
4.0
 40
4.0
 10
102.0678439414969
 20
-122.5584106138917
 30
0.0
 10
102.0533745404589
 20
-122.5878661802905
 30
0.0
 10
102.0103108468933
 20
-122.6810560131666
 30
0.0
 10
102.0010090890831
 20
-122.7000040383354
 30
0.0
 10
102.1636175959869
 20
-122.7592596806817
 30
0.0
 10
102.1815320925102
 20
-122.7656331073294
 30
0.0
 10
102.2428547921476
 20
-122.7931938712114
 30
0.0
 10
102.289708090747
 20
-122.7063774649831
 30
0.0
 10
102.3096896445615
 20
-122.6323079120503
 30
0.0
 10
102.3220919883084
 20
-122.5584106138917
 30
0.0
 10
102.3220919883084
 20
-122.5584106138917
 30
0.0
 10
102.0678439414969
 20
-122.5584106138917
 30
0.0
 10
102.0678439414969
 20
-122.5584106138917
 30
0.0
  0
HATCH
  5
110
330
109
100
AcDbEntity
  8
_U+30EC_U+30A4_U+30E4_U+30FC 1
 62
   179
420
  2234388
100
AcDbHatch
 10
0.0
 20
0.0
 30
0.0
210
0.0
220
0.0
230
1.0
  2
SOLID
 70
     1
 71
     0
 91
        3
 92
        1
 93
        1
 72
     4
 94
        3
 73
     0
 74
     1
 95
      242
 96
      238
 40
0.0
 40
0.0
 40
0.0
 40
0.0
 40
1.0
 40
1.0
 40
1.0
 40
2.0
 40
2.0
 40
2.0
 40
3.0
 40
3.0
 40
3.0
 40
4.0
 40
4.0
 40
4.0
 40
5.0
 40
5.0
 40
5.0
 40
6.0
 40
6.0
 40
6.0
 40
7.0
 40
7.0
 40
7.0
 40
8.0
 40
8.0
 40
8.0
 40
9.0
 40
9.0
 40
9.0
 40
10.0
 40
10.0
 40
10.0
 40
11.0
 40
11.0
 40
11.0
 40
12.0
 40
12.0
 40
12.0
 40
13.0
 40
13.0
 40
13.0
 40
14.0
 40
14.0
 40
14.0
 40
15.0
 40
15.0
 40
15.0
 40
16.0
 40
16.0
 40
16.0
 40
17.0
 40
17.0
 40
17.0
 40
18.0
 40
18.0
 40
18.0
 40
19.0
 40
19.0
 40
19.0
 40
20.0
 40
20.0
 40
20.0
 40
21.0
 40
21.0
 40
21.0
 40
22.0
 40
22.0
 40
22.0
 40
23.0
 40
23.0
 40
23.0
 40
24.0
 40
24.0
 40
24.0
 40
25.0
 40
25.0
 40
25.0
 40
26.0
 40
26.0
 40
26.0
 40
27.0
 40
27.0
 40
27.0
 40
28.0
 40
28.0
 40
28.0
 40
29.0
 40
29.0
 40
29.0
 40
30.0
 40
30.0
 40
30.0
 40
31.0
 40
31.0
 40
31.0
 40
32.0
 40
32.0
 40
32.0
 40
33.0
 40
33.0
 40
33.0
 40
34.0
 40
34.0
 40
34.0
 40
35.0
 40
35.0
 40
35.0
 40
36.0
 40
36.0
 40
36.0
 40
37.0
 40
37.0
 40
37.0
 40
38.0
 40
38.0
 40
38.0
 40
39.0
 40
39.0
 40
39.0
 40
40.0
 40
40.0
 40
40.0
 40
41.0
 40
41.0
 40
41.0
 40
42.0
 40
42.0
 40
42.0
 40
43.0
 40
43.0
 40
43.0
 40
44.0
 40
44.0
 40
44.0
 40
45.0
 40
45.0
 40
45.0
 40
46.0
 40
46.0
 40
46.0
 40
47.0
 40
47.0
 40
47.0
 40
48.0
 40
48.0
 40
48.0
 40
49.0
 40
49.0
 40
49.0
 40
50.0
 40
50.0
 40
50.0
 40
51.0
 40
51.0
 40
51.0
 40
52.0
 40
52.0
 40
52.0
 40
53.0
 40
53.0
 40
53.0
 40
54.0
 40
54.0
 40
54.0
 40
55.0
 40
55.0
 40
55.0
 40
56.0
 40
56.0
 40
56.0
 40
57.0
 40
57.0
 40
57.0
 40
58.0
 40
58.0
 40
58.0
 40
59.0
 40
59.0
 40
59.0
 40
60.0
 40
60.0
 40
60.0
 40
61.0
 40
61.0
 40
61.0
 40
62.0
 40
62.0
 40
62.0
 40
63.0
 40
63.0
 40
63.0
 40
64.0
 40
64.0
 40
64.0
 40
65.0
 40
65.0
 40
65.0
 40
66.0
 40
66.0
 40
66.0
 40
67.0
 40
67.0
 40
67.0
 40
68.0
 40
68.0
 40
68.0
 40
69.0
 40
69.0
 40
69.0
 40
70.0
 40
70.0
 40
70.0
 40
71.0
 40
71.0
 40
71.0
 40
72.0
 40
72.0
 40
72.0
 40
73.0
 40
73.0
 40
73.0
 40
74.0
 40
74.0
 40
74.0
 40
75.0
 40
75.0
 40
75.0
 40
76.0
 40
76.0
 40
76.0
 40
77.0
 40
77.0
 40
77.0
 40
78.0
 40
78.0
 40
78.0
 40
79.0
 40
79.0
 40
79.0
 40
79.0
 10
102.5494682903349
 20
-122.1732489386407
 10
102.5494682903349
 20
-122.1732489386407
 10
102.3331162938612
 20
-122.1732489386407
 10
102.3331162938612
 20
-122.1732489386407
 10
102.3331162938612
 20
-122.1732489386407
 10
102.096782743573
 20
-122.1732489386407
 10
102.096782743573
 20
-122.1732489386407
 10
102.096782743573
 20
-122.1732489386407
 10
102.2049587418099
 20
-122.2156236131093
 10
102.2049587418099
 20
-122.2156236131093
 10
102.2139159900715
 20
-122.2199299824659
 10
102.2249402956243
 20
-122.2261311543393
 10
102.2249402956243
 20
-122.2388780076347
 10
102.2249402956243
 20
-122.260065344869
 10
102.1977240412909
 20
-122.2664387715167
 10
102.1798095447676
 20
-122.270572886099
 10
102.1705077869574
 20
-122.2938272806245
 10
102.145358589915
 20
-122.3594563496185
 10
102.1291666411344
 20
-122.4038980813782
 10
102.1291666411344
 20
-122.4038980813782
 10
102.3599880386461
 20
-122.4038980813782
 10
102.3599880386461
 20
-122.4038980813782
 10
102.4375026870642
 20
-122.4038980813782
 10
102.6052788371959
 20
-122.3995917120216
 10
102.7262016887282
 20
-122.3911512280828
 10
102.7262016887282
 20
-122.3911512280828
 10
102.7262016887282
 20
-122.5689181551217
 10
102.7262016887282
 20
-122.5689181551217
 10
102.6559217408291
 20
-122.5646117857651
 10
102.6376627347573
 20
-122.5646117857651
 10
102.4843559856636
 20
-122.5604776711828
 10
102.4574842408787
 20
-122.714817948922
 10
102.4195881905409
 20
-122.7952609285026
 10
102.3816921402032
 20
-122.8650241120789
 10
102.4843559856636
 20
-122.9242797544252
 10
102.5746174873772
 20
-122.9919758807103
 10
102.6628119317996
 20
-123.0744859175821
 10
102.6628119317996
 20
-123.0744859175821
 10
102.5618706340818
 20
-123.2415730486167
 10
102.5618706340818
 20
-123.2415730486167
 10
102.5422335898158
 20
-123.2226250234478
 10
102.531209284263
 20
-123.214184539509
 10
102.4357801393216
 20
-123.1294351905718
 10
102.3944389934986
 20
-123.0913668854598
 10
102.3437960898654
 20
-123.0555378924132
 10
102.275238689709
 20
-123.0110961606535
 10
102.0950601958304
 20
-123.1973035716312
 10
101.9200493451797
 20
-123.2205579661567
 10
101.6730359988873
 20
-123.2501857873298
 10
101.6730359988873
 20
-123.2501857873298
 10
101.5844970449164
 20
-123.0703518029998
 10
101.5844970449164
 20
-123.0703518029998
 10
101.8549370405085
 20
-123.0660454336432
 10
102.0047986941169
 20
-123.0407239818266
 10
102.1346787939108
 20
-122.9306531810729
 10
102.033737496193
 20
-122.8798380226655
 10
101.9579453955175
 20
-122.8524495135577
 10
101.9272840456987
 20
-122.8397026602623
 10
101.9110920969181
 20
-122.8672634241443
 10
101.8983452436226
 20
-122.8862114493132
 10
101.8749185943229
 20
-122.9201456398429
 10
101.8749185943229
 20
-122.9201456398429
 10
101.7071424441913
 20
-122.8376356029711
 10
101.7071424441913
 20
-122.8376356029711
 10
101.7774223920904
 20
-122.7571926233906
 10
101.8297878434662
 20
-122.6619357332234
 10
101.8783636898082
 20
-122.5604776711828
 10
101.7160996924529
 20
-122.5646117857651
 10
101.6981851959296
 20
-122.5646117857651
 10
101.6279052480305
 20
-122.5689181551217
 10
101.6279052480305
 20
-122.5689181551217
 10
101.6279052480305
 20
-122.3911512280828
 10
101.6279052480305
 20
-122.3911512280828
 10
101.7467610422716
 20
-122.3975246547305
 10
101.9255614979561
 20
-122.401831024087
 10
101.9469210899647
 20
-122.401831024087
 10
101.9613904910027
 20
-122.3678968335573
 10
102.0082437896021
 20
-122.2473184915736
 10
102.0244357383828
 20
-122.1732489386407
 10
102.0082437896021
 20
-122.1732489386407
 10
101.8570040977996
 20
-122.1796223652884
 10
101.6909504954106
 20
-122.1923692185839
 10
101.6909504954106
 20
-122.1923692185839
 10
101.6909504954106
 20
-122.325694413863
 10
101.6909504954106
 20
-122.325694413863
 10
101.6496093495876
 20
-122.3510158656796
 10
101.5989664459544
 20
-122.3827107441439
 10
101.4852782949412
 20
-122.4483398131379
 10
101.4852782949412
 20
-122.4483398131379
 10
101.4852782949412
 20
-122.5942396069382
 10
101.4852782949412
 20
-122.5942396069382
 10
101.4852782949412
 20
-122.5942396069382
 10
101.4852782949412
 20
-123.0619113190609
 10
101.4852782949412
 20
-123.0619113190609
 10
101.4852782949412
 20
-123.1886908329181
 10
101.4546169451225
 20
-123.2479464752644
 10
101.2131157516065
 20
-123.2395059913255
 10
101.2131157516065
 20
-123.2395059913255
 10
101.1249213071841
 20
-123.0322834978878
 10
101.1249213071841
 20
-123.0322834978878
 10
101.1790093063025
 20
-123.0448580964089
 10
101.2203504521255
 20
-123.0491644657655
 10
101.2544568974294
 20
-123.0491644657655
 10
101.3195692021007
 20
-123.0491644657655
 10
101.3285264503623
 20
-123.0259100712401
 10
101.3285264503623
 20
-122.960281002246
 10
101.3285264503623
 20
-122.960281002246
 10
101.3285264503623
 20
-122.5308498500097
 10
101.3285264503623
 20
-122.5308498500097
 10
101.2454996491678
 20
-122.5709852124128
 10
101.2310302481297
 20
-122.5773586390605
 10
101.1914116500494
 20
-122.5964789190037
 10
101.1879665545641
 20
-122.6174940014637
 10
101.1841769495304
 20
-122.6471218226368
 10
101.1679850007497
 20
-122.6471218226368
 10
101.1607503002306
 20
-122.6471218226368
 10
101.151793051969
 20
-122.6429877080545
 10
101.1462808991926
 20
-122.6197333135291
 10
101.1462808991926
 20
-122.6197333135291
 10
101.1011501483358
 20
-122.4271524759036
 10
101.1011501483358
 20
-122.4271524759036
 10
101.2258626049019
 20
-122.3806436868528
 10
101.2816731517629
 20
-122.3573892923273
 10
101.3285264503623
 20
-122.336201955093
 10
101.3285264503623
 20
-122.336201955093
 10
101.3285264503623
 20
-121.9236517707344
 10
101.3285264503623
 20
-121.9236517707344
 10
101.3285264503623
 20
-121.9236517707344
 10
101.2833956995055
 20
-121.9236517707344
 10
101.2833956995055
 20
-121.9236517707344
 10
101.2833956995055
 20
-121.9236517707344
 10
101.2165608470917
 20
-121.9236517707344
 10
101.2165608470917
 20
-121.9236517707344
 10
101.159027752488
 20
-121.9236517707344
 10
101.151793051969
 20
-121.9236517707344
 10
101.1211317021503
 20
-121.9300251973821
 10
101.1211317021503
 20
-121.9300251973821
 10
101.1211317021503
 20
-121.7353773024655
 10
101.1211317021503
 20
-121.7353773024655
 10
101.14455835145
 20
-121.7417507291132
 10
101.151793051969
 20
-121.7417507291132
 10
101.2113932038638
 20
-121.7417507291132
 10
101.2113932038638
 20
-121.7417507291132
 10
101.3250813548771
 20
-121.7417507291132
 10
101.3250813548771
 20
-121.7417507291132
 10
101.3250813548771
 20
-121.6719875455369
 10
101.3250813548771
 20
-121.5894775086651
 10
101.3230142975859
 20
-121.5851711393086
 10
101.3157795970669
 20
-121.4053371549785
 10
101.3157795970669
 20
-121.3863891298097
 10
101.3140570493243
 20
-121.3398803407588
 10
101.3140570493243
 20
-121.3398803407588
 10
101.4980251482366
 20
-121.3483208246977
 10
101.4980251482366
 20
-121.3483208246977
 10
101.5069823964983
 20
-121.3483208246977
 10
101.5252414025701
 20
-121.3503878819888
 10
101.5252414025701
 20
-121.3672688498665
 10
101.5252414025701
 20
-121.3863891298097
 10
101.5124945492747
 20
-121.3968966710397
 10
101.4907904477176
 20
-121.4160169509828
 10
101.4907904477176
 20
-121.466659854616
 10
101.4852782949412
 20
-121.6952419400623
 10
101.4873453522323
 20
-121.7417507291132
 10
101.5972438982118
 20
-121.7417507291132
 10
101.6079236942161
 20
-121.7417507291132
 10
101.6909504954106
 20
-121.7333102451743
 10
101.6909504954106
 20
-121.7333102451743
 10
101.6909504954106
 20
-121.9279581400909
 10
101.6909504954106
 20
-121.9279581400909
 10
101.6585665978493
 20
-121.9257188280255
 10
101.600688993697
 20
-121.9215847134432
 10
101.4852782949412
 20
-121.9236517707344
 10
101.4852782949412
 20
-121.9236517707344
 10
101.4852782949412
 20
-122.2621324021602
 10
101.4852782949412
 20
-122.2621324021602
 10
101.5324761030891
 20
-122.2388780076347
 10
101.5882866499501
 20
-122.2113172437527
 10
101.6296277957731
 20
-122.1880628492273
 10
101.6296277957731
 20
-122.1880628492273
 10
101.6296277957731
 20
-122.0104681769627
 10
101.6296277957731
 20
-122.0104681769627
 10
101.7271239980057
 20
-122.0230427754838
 10
101.8280652957235
 20
-122.0230427754838
 10
101.9272840456987
 20
-122.0230427754838
 10
101.9073024918843
 20
-121.9279581400909
 10
101.8838758425846
 20
-121.8454481032192
 10
101.8297878434662
 20
-121.71212290794
 10
101.7918917931284
 20
-121.7141899652312
 10
101.7216118452293
 20
-121.7184963345877
 10
101.689227947668
 20
-121.7205633918789
 10
101.689227947668
 20
-121.7205633918789
 10
101.689227947668
 20
-121.5407294075489
 10
101.689227947668
 20
-121.5407294075489
 10
101.7956813981622
 20
-121.5491698914877
 10
101.9434759944794
 20
-121.5534762608443
 10
102.0137559423785
 20
-121.5534762608443
 10
102.0137559423785
 20
-121.5534762608443
 10
102.0840358902776
 20
-121.5534762608443
 10
102.0840358902776
 20
-121.5534762608443
 10
102.0840358902776
 20
-121.390523244392
 10
102.0840358902776
 20
-121.3800157031619
 10
102.082313342535
 20
-121.3250664301722
 10
102.082313342535
 20
-121.3250664301722
 10
102.2735161419664
 20
-121.3503878819888
 10
102.2735161419664
 20
-121.3503878819888
 10
102.2769612374516
 20
-121.3503878819888
 10
102.2952202435234
 20
-121.35245493928
 10
102.2952202435234
 20
-121.3693359071577
 10
102.2952202435234
 20
-121.3841498177442
 10
102.2859184857133
 20
-121.3927625564574
 10
102.2624918364135
 20
-121.4075764670439
 10
102.2573241931857
 20
-121.4730332812637
 10
102.2552571358945
 20
-121.494220618498
 10
102.2552571358945
 20
-121.5534762608443
 10
102.2552571358945
 20
-121.5534762608443
 10
102.3365613893464
 20
-121.5534762608443
 10
102.3365613893464
 20
-121.5534762608443
 10
102.4068413372455
 20
-121.5534762608443
 10
102.5546359335627
 20
-121.5491698914877
 10
102.661089384057
 20
-121.5407294075489
 10
102.661089384057
 20
-121.5407294075489
 10
102.661089384057
 20
-121.7205633918789
 10
102.661089384057
 20
-121.7205633918789
 10
102.6359401870146
 20
-121.7184963345877
 10
102.5349988892968
 20
-121.7141899652312
 10
102.5005479344443
 20
-121.71212290794
 10
102.4881455906974
 20
-121.7629380663475
 10
102.4592067886213
 20
-121.8750759243923
 10
102.4033962417603
 20
-122.014602291545
 10
102.4392252348069
 20
-122.014602291545
 10
102.675558785095
 20
-121.9956542663761
 10
102.7279242364708
 20
-121.9934149543107
 10
102.7279242364708
 20
-121.9934149543107
 10
102.7279242364708
 20
-122.1775553079973
 10
102.7279242364708
 20
-122.1775553079973
 10
102.7027750394285
 20
-122.1775553079973
 10
102.6883056383904
 20
-122.1732489386407
 10
102.5494682903349
 20
-122.1732489386407
 97
        0
 97
        0
 92
        1
 93
        1
 72
     4
 94
        3
 73
     0
 74
     1
 95
       20
 96
       16
 40
0.0
 40
0.0
 40
0.0
 40
0.0
 40
1.0
 40
1.0
 40
1.0
 40
2.0
 40
2.0
 40
2.0
 40
3.0
 40
3.0
 40
3.0
 40
4.0
 40
4.0
 40
4.0
 40
5.0
 40
5.0
 40
5.0
 40
5.0
 10
102.0137559423785
 20
-121.7079887933577
 10
102.0137559423785
 20
-121.7079887933577
 10
101.9868841975936
 20
-121.7079887933577
 10
101.9868841975936
 20
-121.7079887933577
 10
102.0265027956739
 20
-121.8073797981072
 10
102.0533745404589
 20
-121.8876505229135
 10
102.082313342535
 20
-122.014602291545
 10
102.082313342535
 20
-122.014602291545
 10
102.2590467409283
 20
-122.014602291545
 10
102.2590467409283
 20
-122.014602291545
 10
102.2859184857133
 20
-121.9215847134432
 10
102.3059000395277
 20
-121.8370076192803
 10
102.3258815933421
 20
-121.7079887933577
 10
102.3258815933421
 20
-121.7079887933577
 10
102.0137559423785
 20
-121.7079887933577
 10
102.0137559423785
 20
-121.7079887933577
 97
        0
 97
        0
 92
        1
 93
        1
 72
     4
 94
        3
 73
     0
 74
     1
 95
       17
 96
       13
 40
0.0
 40
0.0
 40
0.0
 40
0.0
 40
1.0
 40
1.0
 40
1.0
 40
2.0
 40
2.0
 40
2.0
 40
3.0
 40
3.0
 40
3.0
 40
4.0
 40
4.0
 40
4.0
 40
4.0
 10
102.0678439414969
 20
-122.5584106138917
 10
102.0533745404589
 20
-122.5878661802905
 10
102.0103108468933
 20
-122.6810560131666
 10
102.0010090890831
 20
-122.7000040383354
 10
102.1636175959869
 20
-122.7592596806817
 10
102.1815320925102
 20
-122.7656331073294
 10
102.2428547921476
 20
-122.7931938712114
 10
102.289708090747
 20
-122.7063774649831
 10
102.3096896445615
 20
-122.6323079120503
 10
102.3220919883084
 20
-122.5584106138917
 10
102.3220919883084
 20
-122.5584106138917
 10
102.0678439414969
 20
-122.5584106138917
 10
102.0678439414969
 20
-122.5584106138917
 97
        0
 97
        0
 75
     2
 76
     1
 98
        0
  0
SPLINE
  5
111
330
109
100
AcDbEntity
  8
_U+30EC_U+30A4_U+30E4_U+30FC 1
370
     0
100
AcDbSpline
210
0.0
220
0.0
230
1.0
 70
    11
 71
     3
 72
   203
 73
   199
 74
     0
 42
0.0000000001
 43
0.0000000001
 12
1.0
 22
0.0
 32
0.0
 13
1.0
 23
0.0
 33
0.0
 40
0.0
 40
0.0
 40
0.0
 40
0.0
 40
1.0
 40
1.0
 40
1.0
 40
2.0
 40
2.0
 40
2.0
 40
3.0
 40
3.0
 40
3.0
 40
4.0
 40
4.0
 40
4.0
 40
5.0
 40
5.0
 40
5.0
 40
6.0
 40
6.0
 40
6.0
 40
7.0
 40
7.0
 40
7.0
 40
8.0
 40
8.0
 40
8.0
 40
9.0
 40
9.0
 40
9.0
 40
10.0
 40
10.0
 40
10.0
 40
11.0
 40
11.0
 40
11.0
 40
12.0
 40
12.0
 40
12.0
 40
13.0
 40
13.0
 40
13.0
 40
14.0
 40
14.0
 40
14.0
 40
15.0
 40
15.0
 40
15.0
 40
16.0
 40
16.0
 40
16.0
 40
17.0
 40
17.0
 40
17.0
 40
18.0
 40
18.0
 40
18.0
 40
19.0
 40
19.0
 40
19.0
 40
20.0
 40
20.0
 40
20.0
 40
21.0
 40
21.0
 40
21.0
 40
22.0
 40
22.0
 40
22.0
 40
23.0
 40
23.0
 40
23.0
 40
24.0
 40
24.0
 40
24.0
 40
25.0
 40
25.0
 40
25.0
 40
26.0
 40
26.0
 40
26.0
 40
27.0
 40
27.0
 40
27.0
 40
28.0
 40
28.0
 40
28.0
 40
29.0
 40
29.0
 40
29.0
 40
30.0
 40
30.0
 40
30.0
 40
31.0
 40
31.0
 40
31.0
 40
32.0
 40
32.0
 40
32.0
 40
33.0
 40
33.0
 40
33.0
 40
34.0
 40
34.0
 40
34.0
 40
35.0
 40
35.0
 40
35.0
 40
36.0
 40
36.0
 40
36.0
 40
37.0
 40
37.0
 40
37.0
 40
38.0
 40
38.0
 40
38.0
 40
39.0
 40
39.0
 40
39.0
 40
40.0
 40
40.0
 40
40.0
 40
41.0
 40
41.0
 40
41.0
 40
42.0
 40
42.0
 40
42.0
 40
43.0
 40
43.0
 40
43.0
 40
44.0
 40
44.0
 40
44.0
 40
45.0
 40
45.0
 40
45.0
 40
46.0
 40
46.0
 40
46.0
 40
47.0
 40
47.0
 40
47.0
 40
48.0
 40
48.0
 40
48.0
 40
49.0
 40
49.0
 40
49.0
 40
50.0
 40
50.0
 40
50.0
 40
51.0
 40
51.0
 40
51.0
 40
52.0
 40
52.0
 40
52.0
 40
53.0
 40
53.0
 40
53.0
 40
54.0
 40
54.0
 40
54.0
 40
55.0
 40
55.0
 40
55.0
 40
56.0
 40
56.0
 40
56.0
 40
57.0
 40
57.0
 40
57.0
 40
58.0
 40
58.0
 40
58.0
 40
59.0
 40
59.0
 40
59.0
 40
60.0
 40
60.0
 40
60.0
 40
61.0
 40
61.0
 40
61.0
 40
62.0
 40
62.0
 40
62.0
 40
63.0
 40
63.0
 40
63.0
 40
64.0
 40
64.0
 40
64.0
 40
65.0
 40
65.0
 40
65.0
 40
66.0
 40
66.0
 40
66.0
 40
66.0
 10
103.9888291840722
 20
-122.2409450649259
 30
0.0
 10
103.9888291840722
 20
-122.2409450649259
 30
0.0
 10
103.5127169880107
 20
-122.2409450649259
 30
0.0
 10
103.5127169880107
 20
-122.2409450649259
 30
0.0
 10
103.5037597397491
 20
-122.2853867966856
 30
0.0
 10
103.49652503923
 20
-122.3170816751499
 30
0.0
 10
103.4855007336772
 20
-122.3553222350362
 30
0.0
 10
103.5072048352343
 20
-122.3553222350362
 30
0.0
 10
103.5199516885297
 20
-122.3573892923273
 30
0.0
 10
103.5254638413061
 20
-122.3573892923273
 30
0.0
 10
103.5254638413061
 20
-122.3573892923273
 30
0.0
 10
103.6856607813703
 20
-122.3573892923273
 30
0.0
 10
103.6856607813703
 20
-122.3573892923273
 30
0.0
 10
103.6856607813703
 20
-122.3573892923273
 30
0.0
 10
104.0050211328529
 20
-122.3573892923273
 30
0.0
 10
104.0050211328529
 20
-122.3573892923273
 30
0.0
 10
104.0484293359671
 20
-122.3573892923273
 30
0.0
 10
104.2899305294831
 20
-122.3446424390319
 30
0.0
 10
104.316802274268
 20
-122.3446424390319
 30
0.0
 10
104.3150797265254
 20
-122.3722032029139
 30
0.0
 10
104.3133571787828
 20
-122.3911512280828
 30
0.0
 10
104.3133571787828
 20
-122.4207790492559
 30
0.0
 10
104.3116346310401
 20
-122.4524739277202
 30
0.0
 10
104.3116346310401
 20
-122.5878661802905
 30
0.0
 10
104.3116346310401
 20
-122.6154269441725
 30
0.0
 10
104.3116346310401
 20
-122.6154269441725
 30
0.0
 10
104.3116346310401
 20
-122.8608899974966
 30
0.0
 10
104.3116346310401
 20
-122.8608899974966
 30
0.0
 10
104.3116346310401
 20
-122.9053317292563
 30
0.0
 10
104.3150797265254
 20
-123.1020466814641
 30
0.0
 10
104.3188693315592
 20
-123.2543199019121
 30
0.0
 10
104.3188693315592
 20
-123.2543199019121
 30
0.0
 10
104.1259439843852
 20
-123.2543199019121
 30
0.0
 10
104.1259439843852
 20
-123.2543199019121
 30
0.0
 10
104.1259439843852
 20
-123.2543199019121
 30
0.0
 10
104.1276665321278
 20
-123.2205579661567
 30
0.0
 10
104.1276665321278
 20
-123.2205579661567
 30
0.0
 10
104.1276665321278
 20
-123.2205579661567
 30
0.0
 10
103.5289089367914
 20
-123.2205579661567
 30
0.0
 10
103.5289089367914
 20
-123.2205579661567
 30
0.0
 10
103.5289089367914
 20
-123.2205579661567
 30
0.0
 10
103.530631484534
 20
-123.2543199019121
 30
0.0
 10
103.530631484534
 20
-123.2543199019121
 30
0.0
 10
103.530631484534
 20
-123.2543199019121
 30
0.0
 10
103.3449408378791
 20
-123.2543199019121
 30
0.0
 10
103.3449408378791
 20
-123.2543199019121
 30
0.0
 10
103.3487304429128
 20
-123.1993706289224
 30
0.0
 10
103.3487304429128
 20
-123.186623775627
 30
0.0
 10
103.3538980861407
 20
-123.0724188602909
 30
0.0
 10
103.3559651434318
 20
-123.0448580964089
 30
0.0
 10
103.3576876911745
 20
-122.911705155904
 30
0.0
 10
103.3576876911745
 20
-122.8925848759609
 30
0.0
 10
103.3576876911745
 20
-122.8925848759609
 30
0.0
 10
103.3576876911745
 20
-122.6894964971054
 30
0.0
 10
103.3576876911745
 20
-122.6894964971054
 30
0.0
 10
103.2384873873848
 20
-122.9390936650118
 30
0.0
 10
103.0944823961014
 20
-123.0703518029998
 30
0.0
 10
103.0042208943878
 20
-123.1358086172195
 30
0.0
 10
103.0042208943878
 20
-123.1358086172195
 30
0.0
 10
102.8564262980706
 20
-122.9962822500669
 30
0.0
 10
102.8564262980706
 20
-122.9962822500669
 30
0.0
 10
102.9318738891976
 20
-122.9454670916595
 30
0.0
 10
103.0545192884725
 20
-122.8586506854312
 30
0.0
 10
103.1719970445195
 20
-122.6641750452888
 30
0.0
 10
103.2495116929376
 20
-122.5372232766574
 30
0.0
 10
103.3053222397987
 20
-122.3933905401482
 30
0.0
 10
103.3342610418748
 20
-122.2409450649259
 30
0.0
 10
103.1392686374096
 20
-122.2431843769913
 30
0.0
 10
102.985961888316
 20
-122.249557803639
 30
0.0
 10
102.9050021444126
 20
-122.2516248609301
 30
0.0
 10
102.9050021444126
 20
-122.2516248609301
 30
0.0
 10
102.9050021444126
 20
-122.0738579338913
 30
0.0
 10
102.9050021444126
 20
-122.0738579338913
 30
0.0
 10
103.0727782945443
 20
-122.080231360539
 30
0.0
 10
103.3142794880603
 20
-122.0845377298955
 30
0.0
 10
103.4424370401116
 20
-122.0845377298955
 30
0.0
 10
103.4424370401116
 20
-122.0845377298955
 30
0.0
 10
103.6243380817328
 20
-122.0845377298955
 30
0.0
 10
103.6243380817328
 20
-122.0845377298955
 30
0.0
 10
103.6243380817328
 20
-122.0845377298955
 30
0.0
 10
103.6243380817328
 20
-121.976533986433
 30
0.0
 10
103.6243380817328
 20
-121.976533986433
 30
0.0
 10
103.6243380817328
 20
-121.976533986433
 30
0.0
 10
103.4999701347153
 20
-121.976533986433
 30
0.0
 10
103.4999701347153
 20
-121.976533986433
 30
0.0
 10
103.3559651434318
 20
-121.976533986433
 30
0.0
 10
103.2116156425999
 20
-121.9808403557895
 30
0.0
 10
103.0689886895105
 20
-121.9872137824372
 30
0.0
 10
103.0689886895105
 20
-121.9872137824372
 30
0.0
 10
103.0689886895105
 20
-121.815820282046
 30
0.0
 10
103.0689886895105
 20
-121.815820282046
 30
0.0
 10
103.2005913370471
 20
-121.8263278232761
 30
0.0
 10
103.3594102389171
 20
-121.8263278232761
 30
0.0
 10
103.4999701347153
 20
-121.8263278232761
 30
0.0
 10
103.4999701347153
 20
-121.8263278232761
 30
0.0
 10
103.6243380817328
 20
-121.8263278232761
 30
0.0
 10
103.6243380817328
 20
-121.8263278232761
 30
0.0
 10
103.6243380817328
 20
-121.8263278232761
 30
0.0
 10
103.6243380817328
 20
-121.7079887933577
 30
0.0
 10
103.6243380817328
 20
-121.7079887933577
 30
0.0
 10
103.6243380817328
 20
-121.7079887933577
 30
0.0
 10
103.5127169880107
 20
-121.7079887933577
 30
0.0
 10
103.5127169880107
 20
-121.7079887933577
 30
0.0
 10
103.4730983899303
 20
-121.7079887933577
 30
0.0
 10
103.2998100870223
 20
-121.7164292772966
 30
0.0
 10
103.2639810939757
 20
-121.7164292772966
 30
0.0
 10
103.0906927910676
 20
-121.7205633918789
 30
0.0
 10
103.0259249959449
 20
-121.72263044917
 30
0.0
 10
102.9590901435311
 20
-121.7248697612355
 30
0.0
 10
102.9590901435311
 20
-121.7248697612355
 30
0.0
 10
102.9590901435311
 20
-121.5407294075489
 30
0.0
 10
102.9590901435311
 20
-121.5407294075489
 30
0.0
 10
103.0565863457636
 20
-121.5491698914877
 30
0.0
 10
103.0944823961014
 20
-121.5491698914877
 30
0.0
 10
103.4207329385546
 20
-121.5577826302008
 30
0.0
 10
103.3666449394361
 20
-121.4625257400337
 30
0.0
 10
103.3432182901364
 20
-121.4349649761517
 30
0.0
 10
103.3125569403177
 20
-121.3989637283308
 30
0.0
 10
103.3125569403177
 20
-121.3989637283308
 30
0.0
 10
103.4620740843775
 20
-121.3164536914591
 30
0.0
 10
103.4620740843775
 20
-121.3164536914591
 30
0.0
 10
103.49652503923
 20
-121.35245493928
 30
0.0
 10
103.5344210895678
 20
-121.3948296137485
 30
0.0
 10
103.5974663369479
 20
-121.504728159728
 30
0.0
 10
103.5974663369479
 20
-121.504728159728
 30
0.0
 10
103.4999701347153
 20
-121.559849687492
 30
0.0
 10
103.4999701347153
 20
-121.559849687492
 30
0.0
 10
103.4999701347153
 20
-121.559849687492
 30
0.0
 10
103.5089273829769
 20
-121.559849687492
 30
0.0
 10
103.5089273829769
 20
-121.559849687492
 30
0.0
 10
103.5089273829769
 20
-121.559849687492
 30
0.0
 10
103.9543782292197
 20
-121.559849687492
 30
0.0
 10
103.9543782292197
 20
-121.559849687492
 30
0.0
 10
103.9543782292197
 20
-121.559849687492
 30
0.0
 10
103.8734184853164
 20
-121.5154079557323
 30
0.0
 10
103.8734184853164
 20
-121.5154079557323
 30
0.0
 10
103.8968451346161
 20
-121.4773396506203
 30
0.0
 10
103.9454209809581
 20
-121.3968966710397
 30
0.0
 10
103.9581678342535
 20
-121.3228271181068
 30
0.0
 10
103.9581678342535
 20
-121.3228271181068
 30
0.0
 10
104.1400688758747
 20
-121.3863891298097
 30
0.0
 10
104.1400688758747
 20
-121.3863891298097
 30
0.0
 10
104.1473035763937
 20
-121.3884561871008
 30
0.0
 10
104.1655625824656
 20
-121.3989637283308
 30
0.0
 10
104.1655625824656
 20
-121.4201510655651
 30
0.0
 10
104.1655625824656
 20
-121.4582193706771
 30
0.0
 10
104.109407526056
 20
-121.4582193706771
 30
0.0
 10
104.0932155772753
 20
-121.4582193706771
 30
0.0
 10
104.0842583290137
 20
-121.4773396506203
 30
0.0
 10
104.0646212847477
 20
-121.5174750130234
 30
0.0
 10
104.0391275781569
 20
-121.5577826302008
 30
0.0
 10
104.3801920311966
 20
-121.5514092035531
 30
0.0
 10
104.405341228239
 20
-121.5491698914877
 30
0.0
 10
104.4701090233616
 20
-121.5429687196143
 30
0.0
 10
104.4701090233616
 20
-121.5429687196143
 30
0.0
 10
104.4701090233616
 20
-121.7248697612355
 30
0.0
 10
104.4701090233616
 20
-121.7248697612355
 30
0.0
 10
104.453917074581
 20
-121.7248697612355
 30
0.0
 10
104.4322129730239
 20
-121.72263044917
 30
0.0
 10
104.2447997786263
 20
-121.7141899652312
 30
0.0
 10
104.2013915755122
 20
-121.71212290794
 30
0.0
 10
104.0139783811146
 20
-121.7079887933577
 30
0.0
 10
103.9760823307768
 20
-121.7079887933577
 30
0.0
 10
103.9760823307768
 20
-121.7079887933577
 30
0.0
 10
103.7921142318645
 20
-121.7079887933577
 30
0.0
 10
103.7921142318645
 20
-121.7079887933577
 30
0.0
 10
103.7921142318645
 20
-121.7079887933577
 30
0.0
 10
103.7921142318645
 20
-121.8263278232761
 30
0.0
 10
103.7921142318645
 20
-121.8263278232761
 30
0.0
 10
103.7921142318645
 20
-121.8263278232761
 30
0.0
 10
103.9399088281817
 20
-121.8263278232761
 30
0.0
 10
103.9399088281817
 20
-121.8263278232761
 30
0.0
 10
104.0790906857858
 20
-121.8263278232761
 30
0.0
 10
104.2413546831411
 20
-121.8263278232761
 30
0.0
 10
104.3746798784202
 20
-121.815820282046
 30
0.0
 10
104.3746798784202
 20
-121.815820282046
 30
0.0
 10
104.3746798784202
 20
-121.9872137824372
 30
0.0
 10
104.3746798784202
 20
-121.9872137824372
 30
0.0
 10
104.1962239322843
 20
-121.9787732984984
 30
0.0
 10
104.0284477821526
 20
-121.976533986433
 30
0.0
 10
103.9399088281817
 20
-121.976533986433
 30
0.0
 10
103.9399088281817
 20
-121.976533986433
 30
0.0
 10
103.7921142318645
 20
-121.976533986433
 30
0.0
 10
103.7921142318645
 20
-121.976533986433
 30
0.0
 10
103.7921142318645
 20
-121.976533986433
 30
0.0
 10
103.7921142318645
 20
-122.0845377298955
 30
0.0
 10
103.7921142318645
 20
-122.0845377298955
 30
0.0
 10
103.7921142318645
 20
-122.0845377298955
 30
0.0
 10
103.9888291840722
 20
-122.0845377298955
 30
0.0
 10
103.9888291840722
 20
-122.0845377298955
 30
0.0
 10
104.1025173350855
 20
-122.0845377298955
 30
0.0
 10
104.3474636240868
 20
-122.080231360539
 30
0.0
 10
104.5262640797712
 20
-122.0738579338913
 30
0.0
 10
104.5262640797712
 20
-122.0738579338913
 30
0.0
 10
104.5262640797712
 20
-122.2516248609301
 30
0.0
 10
104.5262640797712
 20
-122.2516248609301
 30
0.0
 10
104.3619330251248
 20
-122.2452514342824
 30
0.0
 10
104.0952826345665
 20
-122.2409450649259
 30
0.0
 10
103.9888291840722
 20
-122.2409450649259
 30
0.0
  0
POLYLINE
  5
112
330
109
100
AcDbEntity
  8
_U+30EC_U+30A4_U+30E4_U+30FC 1
370
     0
100
AcDb2dPolyline
 66
     1
 10
0.0
 20
0.0
 30
0.0
  0
VERTEX
  5
113
330
112
100
AcDbEntity
  8
_U+30EC_U+30A4_U+30E4_U+30FC 1
370
     0
100
AcDbVertex
100
AcDb2dVertex
 10
104.1293890798704
 20
-122.4969156594799
 30
0.0
  0
VERTEX
  5
114
330
112
100
AcDbEntity
  8
_U+30EC_U+30A4_U+30E4_U+30FC 1
370
     0
100
AcDbVertex
100
AcDb2dVertex
 10
103.5271863890488
 20
-122.4969156594799
 30
0.0
  0
VERTEX
  5
115
330
112
100
AcDbEntity
  8
_U+30EC_U+30A4_U+30E4_U+30FC 1
370
     0
100
AcDbVertex
100
AcDb2dVertex
 10
103.5271863890488
 20
-122.6049194029425
 30
0.0
  0
VERTEX
  5
116
330
112
100
AcDbEntity
  8
_U+30EC_U+30A4_U+30E4_U+30FC 1
370
     0
100
AcDbVertex
100
AcDb2dVertex
 10
104.1293890798704
 20
-122.6049194029425
 30
0.0
  0
VERTEX
  5
117
330
112
100
AcDbEntity
  8
_U+30EC_U+30A4_U+30E4_U+30FC 1
370
     0
100
AcDbVertex
100
AcDb2dVertex
 10
104.1293890798704
 20
-122.4969156594799
 30
0.0
  0
SEQEND
  5
118
330
112
100
AcDbEntity
  8
_U+30EC_U+30A4_U+30E4_U+30FC 1
370
     0
  0
POLYLINE
  5
119
330
109
100
AcDbEntity
  8
_U+30EC_U+30A4_U+30E4_U+30FC 1
370
     0
100
AcDb2dPolyline
 66
     1
 10
0.0
 20
0.0
 30
0.0
  0
VERTEX
  5
11A
330
119
100
AcDbEntity
  8
_U+30EC_U+30A4_U+30E4_U+30FC 1
370
     0
100
AcDbVertex
100
AcDb2dVertex
 10
104.1293890798704
 20
-122.7296318595086
 30
0.0
  0
VERTEX
  5
11B
330
119
100
AcDbEntity
  8
_U+30EC_U+30A4_U+30E4_U+30FC 1
370
     0
100
AcDbVertex
100
AcDb2dVertex
 10
103.5271863890488
 20
-122.7296318595086
 30
0.0
  0
VERTEX
  5
11C
330
119
100
AcDbEntity
  8
_U+30EC_U+30A4_U+30E4_U+30FC 1
370
     0
100
AcDbVertex
100
AcDb2dVertex
 10
103.5271863890488
 20
-122.8440090296189
 30
0.0
  0
VERTEX
  5
11D
330
119
100
AcDbEntity
  8
_U+30EC_U+30A4_U+30E4_U+30FC 1
370
     0
100
AcDbVertex
100
AcDb2dVertex
 10
104.1293890798704
 20
-122.8440090296189
 30
0.0
  0
VERTEX
  5
11E
330
119
100
AcDbEntity
  8
_U+30EC_U+30A4_U+30E4_U+30FC 1
370
     0
100
AcDbVertex
100
AcDb2dVertex
 10
104.1293890798704
 20
-122.7296318595086
 30
0.0
  0
SEQEND
  5
11F
330
119
100
AcDbEntity
  8
_U+30EC_U+30A4_U+30E4_U+30FC 1
370
     0
  0
POLYLINE
  5
120
330
109
100
AcDbEntity
  8
_U+30EC_U+30A4_U+30E4_U+30FC 1
370
     0
100
AcDb2dPolyline
 66
     1
 10
0.0
 20
0.0
 30
0.0
  0
VERTEX
  5
121
330
120
100
AcDbEntity
  8
_U+30EC_U+30A4_U+30E4_U+30FC 1
370
     0
100
AcDbVertex
100
AcDb2dVertex
 10
104.1293890798704
 20
-122.9730278555415
 30
0.0
  0
VERTEX
  5
122
330
120
100
AcDbEntity
  8
_U+30EC_U+30A4_U+30E4_U+30FC 1
370
     0
100
AcDbVertex
100
AcDb2dVertex
 10
103.5271863890488
 20
-122.9730278555415
 30
0.0
  0
VERTEX
  5
123
330
120
100
AcDbEntity
  8
_U+30EC_U+30A4_U+30E4_U+30FC 1
370
     0
100
AcDbVertex
100
AcDb2dVertex
 10
103.5271863890488
 20
-123.0872327708775
 30
0.0
  0
VERTEX
  5
124
330
120
100
AcDbEntity
  8
_U+30EC_U+30A4_U+30E4_U+30FC 1
370
     0
100
AcDbVertex
100
AcDb2dVertex
 10
104.1293890798704
 20
-123.0872327708775
 30
0.0
  0
VERTEX
  5
125
330
120
100
AcDbEntity
  8
_U+30EC_U+30A4_U+30E4_U+30FC 1
370
     0
100
AcDbVertex
100
AcDb2dVertex
 10
104.1293890798704
 20
-122.9730278555415
 30
0.0
  0
SEQEND
  5
126
330
120
100
AcDbEntity
  8
_U+30EC_U+30A4_U+30E4_U+30FC 1
370
     0
  0
HATCH
  5
127
330
109
100
AcDbEntity
  8
_U+30EC_U+30A4_U+30E4_U+30FC 1
 62
   179
420
  2234388
100
AcDbHatch
 10
0.0
 20
0.0
 30
0.0
210
0.0
220
0.0
230
1.0
  2
SOLID
 70
     1
 71
     0
 91
        4
 92
        1
 93
        1
 72
     4
 94
        3
 73
     0
 74
     1
 95
      203
 96
      199
 40
0.0
 40
0.0
 40
0.0
 40
0.0
 40
1.0
 40
1.0
 40
1.0
 40
2.0
 40
2.0
 40
2.0
 40
3.0
 40
3.0
 40
3.0
 40
4.0
 40
4.0
 40
4.0
 40
5.0
 40
5.0
 40
5.0
 40
6.0
 40
6.0
 40
6.0
 40
7.0
 40
7.0
 40
7.0
 40
8.0
 40
8.0
 40
8.0
 40
9.0
 40
9.0
 40
9.0
 40
10.0
 40
10.0
 40
10.0
 40
11.0
 40
11.0
 40
11.0
 40
12.0
 40
12.0
 40
12.0
 40
13.0
 40
13.0
 40
13.0
 40
14.0
 40
14.0
 40
14.0
 40
15.0
 40
15.0
 40
15.0
 40
16.0
 40
16.0
 40
16.0
 40
17.0
 40
17.0
 40
17.0
 40
18.0
 40
18.0
 40
18.0
 40
19.0
 40
19.0
 40
19.0
 40
20.0
 40
20.0
 40
20.0
 40
21.0
 40
21.0
 40
21.0
 40
22.0
 40
22.0
 40
22.0
 40
23.0
 40
23.0
 40
23.0
 40
24.0
 40
24.0
 40
24.0
 40
25.0
 40
25.0
 40
25.0
 40
26.0
 40
26.0
 40
26.0
 40
27.0
 40
27.0
 40
27.0
 40
28.0
 40
28.0
 40
28.0
 40
29.0
 40
29.0
 40
29.0
 40
30.0
 40
30.0
 40
30.0
 40
31.0
 40
31.0
 40
31.0
 40
32.0
 40
32.0
 40
32.0
 40
33.0
 40
33.0
 40
33.0
 40
34.0
 40
34.0
 40
34.0
 40
35.0
 40
35.0
 40
35.0
 40
36.0
 40
36.0
 40
36.0
 40
37.0
 40
37.0
 40
37.0
 40
38.0
 40
38.0
 40
38.0
 40
39.0
 40
39.0
 40
39.0
 40
40.0
 40
40.0
 40
40.0
 40
41.0
 40
41.0
 40
41.0
 40
42.0
 40
42.0
 40
42.0
 40
43.0
 40
43.0
 40
43.0
 40
44.0
 40
44.0
 40
44.0
 40
45.0
 40
45.0
 40
45.0
 40
46.0
 40
46.0
 40
46.0
 40
47.0
 40
47.0
 40
47.0
 40
48.0
 40
48.0
 40
48.0
 40
49.0
 40
49.0
 40
49.0
 40
50.0
 40
50.0
 40
50.0
 40
51.0
 40
51.0
 40
51.0
 40
52.0
 40
52.0
 40
52.0
 40
53.0
 40
53.0
 40
53.0
 40
54.0
 40
54.0
 40
54.0
 40
55.0
 40
55.0
 40
55.0
 40
56.0
 40
56.0
 40
56.0
 40
57.0
 40
57.0
 40
57.0
 40
58.0
 40
58.0
 40
58.0
 40
59.0
 40
59.0
 40
59.0
 40
60.0
 40
60.0
 40
60.0
 40
61.0
 40
61.0
 40
61.0
 40
62.0
 40
62.0
 40
62.0
 40
63.0
 40
63.0
 40
63.0
 40
64.0
 40
64.0
 40
64.0
 40
65.0
 40
65.0
 40
65.0
 40
66.0
 40
66.0
 40
66.0
 40
66.0
 10
103.9888291840722
 20
-122.2409450649259
 10
103.9888291840722
 20
-122.2409450649259
 10
103.5127169880107
 20
-122.2409450649259
 10
103.5127169880107
 20
-122.2409450649259
 10
103.5037597397491
 20
-122.2853867966856
 10
103.49652503923
 20
-122.3170816751499
 10
103.4855007336772
 20
-122.3553222350362
 10
103.5072048352343
 20
-122.3553222350362
 10
103.5199516885297
 20
-122.3573892923273
 10
103.5254638413061
 20
-122.3573892923273
 10
103.5254638413061
 20
-122.3573892923273
 10
103.6856607813703
 20
-122.3573892923273
 10
103.6856607813703
 20
-122.3573892923273
 10
103.6856607813703
 20
-122.3573892923273
 10
104.0050211328529
 20
-122.3573892923273
 10
104.0050211328529
 20
-122.3573892923273
 10
104.0484293359671
 20
-122.3573892923273
 10
104.2899305294831
 20
-122.3446424390319
 10
104.316802274268
 20
-122.3446424390319
 10
104.3150797265254
 20
-122.3722032029139
 10
104.3133571787828
 20
-122.3911512280828
 10
104.3133571787828
 20
-122.4207790492559
 10
104.3116346310401
 20
-122.4524739277202
 10
104.3116346310401
 20
-122.5878661802905
 10
104.3116346310401
 20
-122.6154269441725
 10
104.3116346310401
 20
-122.6154269441725
 10
104.3116346310401
 20
-122.8608899974966
 10
104.3116346310401
 20
-122.8608899974966
 10
104.3116346310401
 20
-122.9053317292563
 10
104.3150797265254
 20
-123.1020466814641
 10
104.3188693315592
 20
-123.2543199019121
 10
104.3188693315592
 20
-123.2543199019121
 10
104.1259439843852
 20
-123.2543199019121
 10
104.1259439843852
 20
-123.2543199019121
 10
104.1259439843852
 20
-123.2543199019121
 10
104.1276665321278
 20
-123.2205579661567
 10
104.1276665321278
 20
-123.2205579661567
 10
104.1276665321278
 20
-123.2205579661567
 10
103.5289089367914
 20
-123.2205579661567
 10
103.5289089367914
 20
-123.2205579661567
 10
103.5289089367914
 20
-123.2205579661567
 10
103.530631484534
 20
-123.2543199019121
 10
103.530631484534
 20
-123.2543199019121
 10
103.530631484534
 20
-123.2543199019121
 10
103.3449408378791
 20
-123.2543199019121
 10
103.3449408378791
 20
-123.2543199019121
 10
103.3487304429128
 20
-123.1993706289224
 10
103.3487304429128
 20
-123.186623775627
 10
103.3538980861407
 20
-123.0724188602909
 10
103.3559651434318
 20
-123.0448580964089
 10
103.3576876911745
 20
-122.911705155904
 10
103.3576876911745
 20
-122.8925848759609
 10
103.3576876911745
 20
-122.8925848759609
 10
103.3576876911745
 20
-122.6894964971054
 10
103.3576876911745
 20
-122.6894964971054
 10
103.2384873873848
 20
-122.9390936650118
 10
103.0944823961014
 20
-123.0703518029998
 10
103.0042208943878
 20
-123.1358086172195
 10
103.0042208943878
 20
-123.1358086172195
 10
102.8564262980706
 20
-122.9962822500669
 10
102.8564262980706
 20
-122.9962822500669
 10
102.9318738891976
 20
-122.9454670916595
 10
103.0545192884725
 20
-122.8586506854312
 10
103.1719970445195
 20
-122.6641750452888
 10
103.2495116929376
 20
-122.5372232766574
 10
103.3053222397987
 20
-122.3933905401482
 10
103.3342610418748
 20
-122.2409450649259
 10
103.1392686374096
 20
-122.2431843769913
 10
102.985961888316
 20
-122.249557803639
 10
102.9050021444126
 20
-122.2516248609301
 10
102.9050021444126
 20
-122.2516248609301
 10
102.9050021444126
 20
-122.0738579338913
 10
102.9050021444126
 20
-122.0738579338913
 10
103.0727782945443
 20
-122.080231360539
 10
103.3142794880603
 20
-122.0845377298955
 10
103.4424370401116
 20
-122.0845377298955
 10
103.4424370401116
 20
-122.0845377298955
 10
103.6243380817328
 20
-122.0845377298955
 10
103.6243380817328
 20
-122.0845377298955
 10
103.6243380817328
 20
-122.0845377298955
 10
103.6243380817328
 20
-121.976533986433
 10
103.6243380817328
 20
-121.976533986433
 10
103.6243380817328
 20
-121.976533986433
 10
103.4999701347153
 20
-121.976533986433
 10
103.4999701347153
 20
-121.976533986433
 10
103.3559651434318
 20
-121.976533986433
 10
103.2116156425999
 20
-121.9808403557895
 10
103.0689886895105
 20
-121.9872137824372
 10
103.0689886895105
 20
-121.9872137824372
 10
103.0689886895105
 20
-121.815820282046
 10
103.0689886895105
 20
-121.815820282046
 10
103.2005913370471
 20
-121.8263278232761
 10
103.3594102389171
 20
-121.8263278232761
 10
103.4999701347153
 20
-121.8263278232761
 10
103.4999701347153
 20
-121.8263278232761
 10
103.6243380817328
 20
-121.8263278232761
 10
103.6243380817328
 20
-121.8263278232761
 10
103.6243380817328
 20
-121.8263278232761
 10
103.6243380817328
 20
-121.7079887933577
 10
103.6243380817328
 20
-121.7079887933577
 10
103.6243380817328
 20
-121.7079887933577
 10
103.5127169880107
 20
-121.7079887933577
 10
103.5127169880107
 20
-121.7079887933577
 10
103.4730983899303
 20
-121.7079887933577
 10
103.2998100870223
 20
-121.7164292772966
 10
103.2639810939757
 20
-121.7164292772966
 10
103.0906927910676
 20
-121.7205633918789
 10
103.0259249959449
 20
-121.72263044917
 10
102.9590901435311
 20
-121.7248697612355
 10
102.9590901435311
 20
-121.7248697612355
 10
102.9590901435311
 20
-121.5407294075489
 10
102.9590901435311
 20
-121.5407294075489
 10
103.0565863457636
 20
-121.5491698914877
 10
103.0944823961014
 20
-121.5491698914877
 10
103.4207329385546
 20
-121.5577826302008
 10
103.3666449394361
 20
-121.4625257400337
 10
103.3432182901364
 20
-121.4349649761517
 10
103.3125569403177
 20
-121.3989637283308
 10
103.3125569403177
 20
-121.3989637283308
 10
103.4620740843775
 20
-121.3164536914591
 10
103.4620740843775
 20
-121.3164536914591
 10
103.49652503923
 20
-121.35245493928
 10
103.5344210895678
 20
-121.3948296137485
 10
103.5974663369479
 20
-121.504728159728
 10
103.5974663369479
 20
-121.504728159728
 10
103.4999701347153
 20
-121.559849687492
 10
103.4999701347153
 20
-121.559849687492
 10
103.4999701347153
 20
-121.559849687492
 10
103.5089273829769
 20
-121.559849687492
 10
103.5089273829769
 20
-121.559849687492
 10
103.5089273829769
 20
-121.559849687492
 10
103.9543782292197
 20
-121.559849687492
 10
103.9543782292197
 20
-121.559849687492
 10
103.9543782292197
 20
-121.559849687492
 10
103.8734184853164
 20
-121.5154079557323
 10
103.8734184853164
 20
-121.5154079557323
 10
103.8968451346161
 20
-121.4773396506203
 10
103.9454209809581
 20
-121.3968966710397
 10
103.9581678342535
 20
-121.3228271181068
 10
103.9581678342535
 20
-121.3228271181068
 10
104.1400688758747
 20
-121.3863891298097
 10
104.1400688758747
 20
-121.3863891298097
 10
104.1473035763937
 20
-121.3884561871008
 10
104.1655625824656
 20
-121.3989637283308
 10
104.1655625824656
 20
-121.4201510655651
 10
104.1655625824656
 20
-121.4582193706771
 10
104.109407526056
 20
-121.4582193706771
 10
104.0932155772753
 20
-121.4582193706771
 10
104.0842583290137
 20
-121.4773396506203
 10
104.0646212847477
 20
-121.5174750130234
 10
104.0391275781569
 20
-121.5577826302008
 10
104.3801920311966
 20
-121.5514092035531
 10
104.405341228239
 20
-121.5491698914877
 10
104.4701090233616
 20
-121.5429687196143
 10
104.4701090233616
 20
-121.5429687196143
 10
104.4701090233616
 20
-121.7248697612355
 10
104.4701090233616
 20
-121.7248697612355
 10
104.453917074581
 20
-121.7248697612355
 10
104.4322129730239
 20
-121.72263044917
 10
104.2447997786263
 20
-121.7141899652312
 10
104.2013915755122
 20
-121.71212290794
 10
104.0139783811146
 20
-121.7079887933577
 10
103.9760823307768
 20
-121.7079887933577
 10
103.9760823307768
 20
-121.7079887933577
 10
103.7921142318645
 20
-121.7079887933577
 10
103.7921142318645
 20
-121.7079887933577
 10
103.7921142318645
 20
-121.7079887933577
 10
103.7921142318645
 20
-121.8263278232761
 10
103.7921142318645
 20
-121.8263278232761
 10
103.7921142318645
 20
-121.8263278232761
 10
103.9399088281817
 20
-121.8263278232761
 10
103.9399088281817
 20
-121.8263278232761
 10
104.0790906857858
 20
-121.8263278232761
 10
104.2413546831411
 20
-121.8263278232761
 10
104.3746798784202
 20
-121.815820282046
 10
104.3746798784202
 20
-121.815820282046
 10
104.3746798784202
 20
-121.9872137824372
 10
104.3746798784202
 20
-121.9872137824372
 10
104.1962239322843
 20
-121.9787732984984
 10
104.0284477821526
 20
-121.976533986433
 10
103.9399088281817
 20
-121.976533986433
 10
103.9399088281817
 20
-121.976533986433
 10
103.7921142318645
 20
-121.976533986433
 10
103.7921142318645
 20
-121.976533986433
 10
103.7921142318645
 20
-121.976533986433
 10
103.7921142318645
 20
-122.0845377298955
 10
103.7921142318645
 20
-122.0845377298955
 10
103.7921142318645
 20
-122.0845377298955
 10
103.9888291840722
 20
-122.0845377298955
 10
103.9888291840722
 20
-122.0845377298955
 10
104.1025173350855
 20
-122.0845377298955
 10
104.3474636240868
 20
-122.080231360539
 10
104.5262640797712
 20
-122.0738579338913
 10
104.5262640797712
 20
-122.0738579338913
 10
104.5262640797712
 20
-122.2516248609301
 10
104.5262640797712
 20
-122.2516248609301
 10
104.3619330251248
 20
-122.2452514342824
 10
104.0952826345665
 20
-122.2409450649259
 10
103.9888291840722
 20
-122.2409450649259
 97
        0
 97
        0
 92
        1
 93
        4
 72
     1
 10
104.1293890798704
 20
-122.4969156594799
 11
103.5271863890488
 21
-122.4969156594799
 72
     1
 10
103.5271863890488
 20
-122.4969156594799
 11
103.5271863890488
 21
-122.6049194029425
 72
     1
 10
103.5271863890488
 20
-122.6049194029425
 11
104.1293890798704
 21
-122.6049194029425
 72
     1
 10
104.1293890798704
 20
-122.6049194029425
 11
104.1293890798704
 21
-122.4969156594799
 97
        0
 92
        1
 93
        4
 72
     1
 10
104.1293890798704
 20
-122.7296318595086
 11
103.5271863890488
 21
-122.7296318595086
 72
     1
 10
103.5271863890488
 20
-122.7296318595086
 11
103.5271863890488
 21
-122.8440090296189
 72
     1
 10
103.5271863890488
 20
-122.8440090296189
 11
104.1293890798704
 21
-122.8440090296189
 72
     1
 10
104.1293890798704
 20
-122.8440090296189
 11
104.1293890798704
 21
-122.7296318595086
 97
        0
 92
        1
 93
        4
 72
     1
 10
104.1293890798704
 20
-122.9730278555415
 11
103.5271863890488
 21
-122.9730278555415
 72
     1
 10
103.5271863890488
 20
-122.9730278555415
 11
103.5271863890488
 21
-123.0872327708775
 72
     1
 10
103.5271863890488
 20
-123.0872327708775
 11
104.1293890798704
 21
-123.0872327708775
 72
     1
 10
104.1293890798704
 20
-123.0872327708775
 11
104.1293890798704
 21
-122.9730278555415
 97
        0
 75
     2
 76
     1
 98
        0
  0
SPLINE
  5
128
330
109
100
AcDbEntity
  8
_U+30EC_U+30A4_U+30E4_U+30FC 1
370
     0
100
AcDbSpline
210
0.0
220
0.0
230
1.0
 70
    11
 71
     3
 72
    47
 73
    43
 74
     0
 42
0.0000000001
 43
0.0000000001
 12
1.0
 22
0.0
 32
0.0
 13
1.0
 23
0.0
 33
0.0
 40
0.0
 40
0.0
 40
0.0
 40
0.0
 40
1.0
 40
1.0
 40
1.0
 40
2.0
 40
2.0
 40
2.0
 40
3.0
 40
3.0
 40
3.0
 40
4.0
 40
4.0
 40
4.0
 40
5.0
 40
5.0
 40
5.0
 40
6.0
 40
6.0
 40
6.0
 40
7.0
 40
7.0
 40
7.0
 40
8.0
 40
8.0
 40
8.0
 40
9.0
 40
9.0
 40
9.0
 40
10.0
 40
10.0
 40
10.0
 40
11.0
 40
11.0
 40
11.0
 40
12.0
 40
12.0
 40
12.0
 40
13.0
 40
13.0
 40
13.0
 40
14.0
 40
14.0
 40
14.0
 40
14.0
 10
105.6717583286168
 20
-122.2176906704004
 30
0.0
 10
105.6717583286168
 20
-122.2176906704004
 30
0.0
 10
105.585286431937
 20
-122.2176906704004
 30
0.0
 10
105.585286431937
 20
-122.2176906704004
 30
0.0
 10
105.585286431937
 20
-122.3045070766287
 30
0.0
 10
105.5670274258652
 20
-122.693802866462
 30
0.0
 10
105.3992512757335
 20
-122.9137722131952
 30
0.0
 10
105.2697156854881
 20
-123.0829264015209
 30
0.0
 10
105.0929822870948
 20
-123.1528618398715
 30
0.0
 10
105.0206352819046
 20
-123.1802503489792
 30
0.0
 10
105.0206352819046
 20
-123.1802503489792
 30
0.0
 10
104.854926189064
 20
-123.0131632179446
 30
0.0
 10
104.854926189064
 20
-123.0131632179446
 30
0.0
 10
104.9376084807101
 20
-123.0004163646492
 30
0.0
 10
105.0874701343184
 20
-122.9771619701238
 30
0.0
 10
105.2480115839311
 20
-122.7888875018549
 30
0.0
 10
105.3110568313111
 20
-122.7170572609874
 30
0.0
 10
105.3992512757335
 20
-122.5773586390605
 30
0.0
 10
105.3992512757335
 20
-122.2176906704004
 30
0.0
 10
105.3992512757335
 20
-122.2176906704004
 30
0.0
 10
105.2028808330743
 20
-122.2176906704004
 30
0.0
 10
105.2028808330743
 20
-122.2176906704004
 30
0.0
 10
105.0440619312043
 20
-122.2176906704004
 30
0.0
 10
104.8855875388828
 20
-122.221997039757
 30
0.0
 10
104.7267686370128
 20
-122.2368109503436
 30
0.0
 10
104.7267686370128
 20
-122.2368109503436
 30
0.0
 10
104.7267686370128
 20
-122.0168416036104
 30
0.0
 10
104.7267686370128
 20
-122.0168416036104
 30
0.0
 10
104.8873100866254
 20
-122.031655514197
 30
0.0
 10
105.130533827884
 20
-122.0357896287793
 30
0.0
 10
105.2028808330743
 20
-122.0357896287793
 30
0.0
 10
105.2028808330743
 20
-122.0357896287793
 30
0.0
 10
105.6717583286168
 20
-122.0357896287793
 30
0.0
 10
105.6717583286168
 20
-122.0357896287793
 30
0.0
 10
105.6879502773975
 20
-122.0357896287793
 30
0.0
 10
105.9583902729896
 20
-122.0357896287793
 30
0.0
 10
106.1530381679062
 20
-122.0168416036104
 30
0.0
 10
106.1530381679062
 20
-122.0168416036104
 30
0.0
 10
106.1530381679062
 20
-122.2368109503436
 30
0.0
 10
106.1530381679062
 20
-122.2368109503436
 30
0.0
 10
105.9924967182936
 20
-122.221997039757
 30
0.0
 10
105.8322997782294
 20
-122.2176906704004
 30
0.0
 10
105.6717583286168
 20
-122.2176906704004
 30
0.0
  0
SPLINE
  5
129
330
109
100
AcDbEntity
  8
_U+30EC_U+30A4_U+30E4_U+30FC 1
370
     0
100
AcDbSpline
210
0.0
220
0.0
230
1.0
 70
    11
 71
     3
 72
    29
 73
    25
 74
     0
 42
0.0000000001
 43
0.0000000001
 12
1.0
 22
0.0
 32
0.0
 13
1.0
 23
0.0
 33
0.0
 40
0.0
 40
0.0
 40
0.0
 40
0.0
 40
1.0
 40
1.0
 40
1.0
 40
2.0
 40
2.0
 40
2.0
 40
3.0
 40
3.0
 40
3.0
 40
4.0
 40
4.0
 40
4.0
 40
5.0
 40
5.0
 40
5.0
 40
6.0
 40
6.0
 40
6.0
 40
7.0
 40
7.0
 40
7.0
 40
8.0
 40
8.0
 40
8.0
 40
8.0
 10
105.585286431937
 20
-121.6888685134146
 30
0.0
 10
105.585286431937
 20
-121.6888685134146
 30
0.0
 10
105.2838405769777
 20
-121.6888685134146
 30
0.0
 10
105.2838405769777
 20
-121.6888685134146
 30
0.0
 10
105.1884114320362
 20
-121.6888685134146
 30
0.0
 10
105.0692111282466
 20
-121.6952419400623
 30
0.0
 10
104.9775715883389
 20
-121.7079887933577
 30
0.0
 10
104.9775715883389
 20
-121.7079887933577
 30
0.0
 10
104.9775715883389
 20
-121.4730332812637
 30
0.0
 10
104.9775715883389
 20
-121.4730332812637
 30
0.0
 10
105.0785128860568
 20
-121.4878471918503
 30
0.0
 10
105.2352647306356
 20
-121.4921535612068
 30
0.0
 10
105.2838405769777
 20
-121.4921535612068
 30
0.0
 10
105.2838405769777
 20
-121.4921535612068
 30
0.0
 10
105.585286431937
 20
-121.4921535612068
 30
0.0
 10
105.585286431937
 20
-121.4921535612068
 30
0.0
 10
105.6014783807177
 20
-121.4921535612068
 30
0.0
 10
105.7744221740772
 20
-121.4921535612068
 30
0.0
 10
105.8953450256095
 20
-121.4730332812637
 30
0.0
 10
105.8953450256095
 20
-121.4730332812637
 30
0.0
 10
105.8953450256095
 20
-121.7079887933577
 30
0.0
 10
105.8953450256095
 20
-121.7079887933577
 30
0.0
 10
105.7616753207818
 20
-121.6888685134146
 30
0.0
 10
105.5994113234265
 20
-121.6888685134146
 30
0.0
 10
105.585286431937
 20
-121.6888685134146
 30
0.0
  0
HATCH
  5
12A
330
109
100
AcDbEntity
  8
_U+30EC_U+30A4_U+30E4_U+30FC 1
 62
   179
420
  2234388
100
AcDbHatch
 10
0.0
 20
0.0
 30
0.0
210
0.0
220
0.0
230
1.0
  2
SOLID
 70
     1
 71
     0
 91
        2
 92
        1
 93
        1
 72
     4
 94
        3
 73
     0
 74
     1
 95
       47
 96
       43
 40
0.0
 40
0.0
 40
0.0
 40
0.0
 40
1.0
 40
1.0
 40
1.0
 40
2.0
 40
2.0
 40
2.0
 40
3.0
 40
3.0
 40
3.0
 40
4.0
 40
4.0
 40
4.0
 40
5.0
 40
5.0
 40
5.0
 40
6.0
 40
6.0
 40
6.0
 40
7.0
 40
7.0
 40
7.0
 40
8.0
 40
8.0
 40
8.0
 40
9.0
 40
9.0
 40
9.0
 40
10.0
 40
10.0
 40
10.0
 40
11.0
 40
11.0
 40
11.0
 40
12.0
 40
12.0
 40
12.0
 40
13.0
 40
13.0
 40
13.0
 40
14.0
 40
14.0
 40
14.0
 40
14.0
 10
105.6717583286168
 20
-122.2176906704004
 10
105.6717583286168
 20
-122.2176906704004
 10
105.585286431937
 20
-122.2176906704004
 10
105.585286431937
 20
-122.2176906704004
 10
105.585286431937
 20
-122.3045070766287
 10
105.5670274258652
 20
-122.693802866462
 10
105.3992512757335
 20
-122.9137722131952
 10
105.2697156854881
 20
-123.0829264015209
 10
105.0929822870948
 20
-123.1528618398715
 10
105.0206352819046
 20
-123.1802503489792
 10
105.0206352819046
 20
-123.1802503489792
 10
104.854926189064
 20
-123.0131632179446
 10
104.854926189064
 20
-123.0131632179446
 10
104.9376084807101
 20
-123.0004163646492
 10
105.0874701343184
 20
-122.9771619701238
 10
105.2480115839311
 20
-122.7888875018549
 10
105.3110568313111
 20
-122.7170572609874
 10
105.3992512757335
 20
-122.5773586390605
 10
105.3992512757335
 20
-122.2176906704004
 10
105.3992512757335
 20
-122.2176906704004
 10
105.2028808330743
 20
-122.2176906704004
 10
105.2028808330743
 20
-122.2176906704004
 10
105.0440619312043
 20
-122.2176906704004
 10
104.8855875388828
 20
-122.221997039757
 10
104.7267686370128
 20
-122.2368109503436
 10
104.7267686370128
 20
-122.2368109503436
 10
104.7267686370128
 20
-122.0168416036104
 10
104.7267686370128
 20
-122.0168416036104
 10
104.8873100866254
 20
-122.031655514197
 10
105.130533827884
 20
-122.0357896287793
 10
105.2028808330743
 20
-122.0357896287793
 10
105.2028808330743
 20
-122.0357896287793
 10
105.6717583286168
 20
-122.0357896287793
 10
105.6717583286168
 20
-122.0357896287793
 10
105.6879502773975
 20
-122.0357896287793
 10
105.9583902729896
 20
-122.0357896287793
 10
106.1530381679062
 20
-122.0168416036104
 10
106.1530381679062
 20
-122.0168416036104
 10
106.1530381679062
 20
-122.2368109503436
 10
106.1530381679062
 20
-122.2368109503436
 10
105.9924967182936
 20
-122.221997039757
 10
105.8322997782294
 20
-122.2176906704004
 10
105.6717583286168
 20
-122.2176906704004
 97
        0
 97
        0
 92
        1
 93
        1
 72
     4
 94
        3
 73
     0
 74
     1
 95
       29
 96
       25
 40
0.0
 40
0.0
 40
0.0
 40
0.0
 40
1.0
 40
1.0
 40
1.0
 40
2.0
 40
2.0
 40
2.0
 40
3.0
 40
3.0
 40
3.0
 40
4.0
 40
4.0
 40
4.0
 40
5.0
 40
5.0
 40
5.0
 40
6.0
 40
6.0
 40
6.0
 40
7.0
 40
7.0
 40
7.0
 40
8.0
 40
8.0
 40
8.0
 40
8.0
 10
105.585286431937
 20
-121.6888685134146
 10
105.585286431937
 20
-121.6888685134146
 10
105.2838405769777
 20
-121.6888685134146
 10
105.2838405769777
 20
-121.6888685134146
 10
105.1884114320362
 20
-121.6888685134146
 10
105.0692111282466
 20
-121.6952419400623
 10
104.9775715883389
 20
-121.7079887933577
 10
104.9775715883389
 20
-121.7079887933577
 10
104.9775715883389
 20
-121.4730332812637
 10
104.9775715883389
 20
-121.4730332812637
 10
105.0785128860568
 20
-121.4878471918503
 10
105.2352647306356
 20
-121.4921535612068
 10
105.2838405769777
 20
-121.4921535612068
 10
105.2838405769777
 20
-121.4921535612068
 10
105.585286431937
 20
-121.4921535612068
 10
105.585286431937
 20
-121.4921535612068
 10
105.6014783807177
 20
-121.4921535612068
 10
105.7744221740772
 20
-121.4921535612068
 10
105.8953450256095
 20
-121.4730332812637
 10
105.8953450256095
 20
-121.4730332812637
 10
105.8953450256095
 20
-121.7079887933577
 10
105.8953450256095
 20
-121.7079887933577
 10
105.7616753207818
 20
-121.6888685134146
 10
105.5994113234265
 20
-121.6888685134146
 10
105.585286431937
 20
-121.6888685134146
 97
        0
 97
        0
 75
     2
 76
     1
 98
        0
  0
SPLINE
  5
12B
330
109
100
AcDbEntity
  8
_U+30EC_U+30A4_U+30E4_U+30FC 1
370
     0
100
AcDbSpline
210
0.0
220
0.0
230
1.0
 70
    11
 71
     3
 72
    29
 73
    25
 74
     0
 42
0.0000000001
 43
0.0000000001
 12
1.0
 22
0.0
 32
0.0
 13
1.0
 23
0.0
 33
0.0
 40
0.0
 40
0.0
 40
0.0
 40
0.0
 40
1.0
 40
1.0
 40
1.0
 40
2.0
 40
2.0
 40
2.0
 40
3.0
 40
3.0
 40
3.0
 40
4.0
 40
4.0
 40
4.0
 40
5.0
 40
5.0
 40
5.0
 40
6.0
 40
6.0
 40
6.0
 40
7.0
 40
7.0
 40
7.0
 40
8.0
 40
8.0
 40
8.0
 40
8.0
 10
107.2427218698907
 20
-122.3806436868528
 30
0.0
 10
107.2427218698907
 20
-122.3806436868528
 30
0.0
 10
106.8299994307578
 20
-122.3806436868528
 30
0.0
 10
106.8299994307578
 20
-122.3806436868528
 30
0.0
 10
106.8065727814581
 20
-122.3806436868528
 30
0.0
 10
106.536132785866
 20
-122.3806436868528
 30
0.0
 10
106.3556097824389
 20
-122.4059651386693
 30
0.0
 10
106.3556097824389
 20
-122.4059651386693
 30
0.0
 10
106.3556097824389
 20
-122.1754882507061
 30
0.0
 10
106.3556097824389
 20
-122.1754882507061
 30
0.0
 10
106.4910020350092
 20
-122.1987426452316
 30
0.0
 10
106.6532660323645
 20
-122.2008097025227
 30
0.0
 10
106.8299994307578
 20
-122.2008097025227
 30
0.0
 10
106.8299994307578
 20
-122.2008097025227
 30
0.0
 10
107.2427218698907
 20
-122.2008097025227
 30
0.0
 10
107.2427218698907
 20
-122.2008097025227
 30
0.0
 10
107.4015407717607
 20
-122.2008097025227
 30
0.0
 10
107.5603596736307
 20
-122.1987426452316
 30
0.0
 10
107.7171115182096
 20
-122.1754882507061
 30
0.0
 10
107.7171115182096
 20
-122.1754882507061
 30
0.0
 10
107.7171115182096
 20
-122.4059651386693
 30
0.0
 10
107.7171115182096
 20
-122.4059651386693
 30
0.0
 10
107.5603596736307
 20
-122.3827107441439
 30
0.0
 10
107.3491753203849
 20
-122.3806436868528
 30
0.0
 10
107.2427218698907
 20
-122.3806436868528
 30
0.0
  0
HATCH
  5
12C
330
109
100
AcDbEntity
  8
_U+30EC_U+30A4_U+30E4_U+30FC 1
 62
   179
420
  2234388
100
AcDbHatch
 10
0.0
 20
0.0
 30
0.0
210
0.0
220
0.0
230
1.0
  2
SOLID
 70
     1
 71
     0
 91
        1
 92
        1
 93
        1
 72
     4
 94
        3
 73
     0
 74
     1
 95
       29
 96
       25
 40
0.0
 40
0.0
 40
0.0
 40
0.0
 40
1.0
 40
1.0
 40
1.0
 40
2.0
 40
2.0
 40
2.0
 40
3.0
 40
3.0
 40
3.0
 40
4.0
 40
4.0
 40
4.0
 40
5.0
 40
5.0
 40
5.0
 40
6.0
 40
6.0
 40
6.0
 40
7.0
 40
7.0
 40
7.0
 40
8.0
 40
8.0
 40
8.0
 40
8.0
 10
107.2427218698907
 20
-122.3806436868528
 10
107.2427218698907
 20
-122.3806436868528
 10
106.8299994307578
 20
-122.3806436868528
 10
106.8299994307578
 20
-122.3806436868528
 10
106.8065727814581
 20
-122.3806436868528
 10
106.536132785866
 20
-122.3806436868528
 10
106.3556097824389
 20
-122.4059651386693
 10
106.3556097824389
 20
-122.4059651386693
 10
106.3556097824389
 20
-122.1754882507061
 10
106.3556097824389
 20
-122.1754882507061
 10
106.4910020350092
 20
-122.1987426452316
 10
106.6532660323645
 20
-122.2008097025227
 10
106.8299994307578
 20
-122.2008097025227
 10
106.8299994307578
 20
-122.2008097025227
 10
107.2427218698907
 20
-122.2008097025227
 10
107.2427218698907
 20
-122.2008097025227
 10
107.4015407717607
 20
-122.2008097025227
 10
107.5603596736307
 20
-122.1987426452316
 10
107.7171115182096
 20
-122.1754882507061
 10
107.7171115182096
 20
-122.1754882507061
 10
107.7171115182096
 20
-122.4059651386693
 10
107.7171115182096
 20
-122.4059651386693
 10
107.5603596736307
 20
-122.3827107441439
 10
107.3491753203849
 20
-122.3806436868528
 10
107.2427218698907
 20
-122.3806436868528
 97
        0
 97
        0
 75
     2
 76
     1
 98
        0
  0
SPLINE
  5
12D
330
109
100
AcDbEntity
  8
_U+30EC_U+30A4_U+30E4_U+30FC 1
370
     0
100
AcDbSpline
210
0.0
220
0.0
230
1.0
 70
    11
 71
     3
 72
    44
 73
    40
 74
     0
 42
0.0000000001
 43
0.0000000001
 12
1.0
 22
0.0
 32
0.0
 13
1.0
 23
0.0
 33
0.0
 40
0.0
 40
0.0
 40
0.0
 40
0.0
 40
1.0
 40
1.0
 40
1.0
 40
2.0
 40
2.0
 40
2.0
 40
3.0
 40
3.0
 40
3.0
 40
4.0
 40
4.0
 40
4.0
 40
5.0
 40
5.0
 40
5.0
 40
6.0
 40
6.0
 40
6.0
 40
7.0
 40
7.0
 40
7.0
 40
8.0
 40
8.0
 40
8.0
 40
9.0
 40
9.0
 40
9.0
 40
10.0
 40
10.0
 40
10.0
 40
11.0
 40
11.0
 40
11.0
 40
12.0
 40
12.0
 40
12.0
 40
13.0
 40
13.0
 40
13.0
 40
13.0
 10
109.1261555716768
 20
-121.9427720506775
 30
0.0
 10
109.0303819171869
 20
-122.3108805032765
 30
0.0
 10
108.9873182236212
 20
-122.4695271503722
 30
0.0
 10
108.8195420734896
 20
-122.7191243182786
 30
0.0
 10
108.6624457193622
 20
-122.949773461016
 30
0.0
 10
108.4605631239265
 20
-123.1358086172195
 30
0.0
 10
108.2225070258958
 20
-123.2289984500955
 30
0.0
 10
108.2225070258958
 20
-123.2289984500955
 30
0.0
 10
108.0585204807979
 20
-123.0491644657655
 30
0.0
 10
108.0585204807979
 20
-123.0491644657655
 30
0.0
 10
108.6049126247585
 20
-122.8968912453174
 30
0.0
 10
108.8863769259034
 20
-122.3405083244496
 30
0.0
 10
108.9404649250218
 20
-121.9003973762089
 30
0.0
 10
108.9404649250218
 20
-121.9003973762089
 30
0.0
 10
108.287619330567
 20
-121.9003973762089
 30
0.0
 10
108.287619330567
 20
-121.9003973762089
 30
0.0
 10
108.2080376248577
 20
-121.9003973762089
 30
0.0
 10
108.0512857802788
 20
-121.9047037455655
 30
0.0
 10
107.9179605849997
 20
-121.9236517707344
 30
0.0
 10
107.9179605849997
 20
-121.9236517707344
 30
0.0
 10
107.9179605849997
 20
-121.7036824240012
 30
0.0
 10
107.9179605849997
 20
-121.7036824240012
 30
0.0
 10
107.991685628384
 20
-121.7248697612355
 30
0.0
 10
108.2063150771151
 20
-121.7248697612355
 30
0.0
 10
108.2910644260522
 20
-121.7248697612355
 30
0.0
 10
108.2910644260522
 20
-121.7248697612355
 30
0.0
 10
108.6590006238769
 20
-121.7248697612355
 30
0.0
 10
108.6590006238769
 20
-121.7248697612355
 30
0.0
 10
108.695174126472
 20
-121.7248697612355
 30
0.0
 10
108.8953341741651
 20
-121.72263044917
 30
0.0
 10
108.9277180717264
 20
-121.7164292772966
 30
0.0
 10
108.9638915743215
 20
-121.7100558506489
 30
0.0
 10
108.9656141220642
 20
-121.7079887933577
 30
0.0
 10
109.01797957344
 20
-121.6676811761803
 30
0.0
 10
109.01797957344
 20
-121.6676811761803
 30
0.0
 10
109.1785210230526
 20
-121.8221937086938
 30
0.0
 10
109.1785210230526
 20
-121.8221937086938
 30
0.0
 10
109.1530273164617
 20
-121.8518215298669
 30
0.0
 10
109.1406249727148
 20
-121.8835164083312
 30
0.0
 10
109.1261555716768
 20
-121.9427720506775
 30
0.0
  0
SPLINE
  5
12E
330
109
100
AcDbEntity
  8
_U+30EC_U+30A4_U+30E4_U+30FC 1
370
     0
100
AcDbSpline
210
0.0
220
0.0
230
1.0
 70
    11
 71
     3
 72
    17
 73
    13
 74
     0
 42
0.0000000001
 43
0.0000000001
 12
1.0
 22
0.0
 32
0.0
 13
1.0
 23
0.0
 33
0.0
 40
0.0
 40
0.0
 40
0.0
 40
0.0
 40
1.0
 40
1.0
 40
1.0
 40
2.0
 40
2.0
 40
2.0
 40
3.0
 40
3.0
 40
3.0
 40
4.0
 40
4.0
 40
4.0
 40
4.0
 10
109.3046115178127
 20
-121.7438177864043
 30
0.0
 10
109.1964355195759
 20
-121.7438177864043
 30
0.0
 10
109.1099636228961
 20
-121.6423597243637
 30
0.0
 10
109.1099636228961
 20
-121.5154079557323
 30
0.0
 10
109.1099636228961
 20
-121.3884561871008
 30
0.0
 10
109.1964355195759
 20
-121.2847588129948
 30
0.0
 10
109.3046115178127
 20
-121.2847588129948
 30
0.0
 10
109.4127875160496
 20
-121.2847588129948
 30
0.0
 10
109.500981960472
 20
-121.3884561871008
 30
0.0
 10
109.500981960472
 20
-121.5154079557323
 30
0.0
 10
109.500981960472
 20
-121.6423597243637
 30
0.0
 10
109.4127875160496
 20
-121.7438177864043
 30
0.0
 10
109.3046115178127
 20
-121.7438177864043
 30
0.0
  0
SPLINE
  5
12F
330
109
100
AcDbEntity
  8
_U+30EC_U+30A4_U+30E4_U+30FC 1
370
     0
100
AcDbSpline
210
0.0
220
0.0
230
1.0
 70
    11
 71
     3
 72
    17
 73
    13
 74
     0
 42
0.0000000001
 43
0.0000000001
 12
1.0
 22
0.0
 32
0.0
 13
1.0
 23
0.0
 33
0.0
 40
0.0
 40
0.0
 40
0.0
 40
0.0
 40
1.0
 40
1.0
 40
1.0
 40
2.0
 40
2.0
 40
2.0
 40
3.0
 40
3.0
 40
3.0
 40
4.0
 40
4.0
 40
4.0
 40
4.0
 10
109.3028889700701
 20
-121.4137776389174
 30
0.0
 10
109.2560356714707
 20
-121.4137776389174
 30
0.0
 10
109.218139621133
 20
-121.4582193706771
 30
0.0
 10
109.218139621133
 20
-121.5133408984411
 30
0.0
 10
109.218139621133
 20
-121.570357228722
 30
0.0
 10
109.2560356714707
 20
-121.6191053298383
 30
0.0
 10
109.3063340655554
 20
-121.6191053298383
 30
0.0
 10
109.3569769691885
 20
-121.6191053298383
 30
0.0
 10
109.3910834144925
 20
-121.5682901714308
 30
0.0
 10
109.3910834144925
 20
-121.5154079557323
 30
0.0
 10
109.3910834144925
 20
-121.4582193706771
 30
0.0
 10
109.3514648164121
 20
-121.4137776389174
 30
0.0
 10
109.3028889700701
 20
-121.4137776389174
 30
0.0
  0
HATCH
  5
130
330
109
100
AcDbEntity
  8
_U+30EC_U+30A4_U+30E4_U+30FC 1
 62
   179
420
  2234388
100
AcDbHatch
 10
0.0
 20
0.0
 30
0.0
210
0.0
220
0.0
230
1.0
  2
SOLID
 70
     1
 71
     0
 91
        3
 92
        1
 93
        1
 72
     4
 94
        3
 73
     0
 74
     1
 95
       44
 96
       40
 40
0.0
 40
0.0
 40
0.0
 40
0.0
 40
1.0
 40
1.0
 40
1.0
 40
2.0
 40
2.0
 40
2.0
 40
3.0
 40
3.0
 40
3.0
 40
4.0
 40
4.0
 40
4.0
 40
5.0
 40
5.0
 40
5.0
 40
6.0
 40
6.0
 40
6.0
 40
7.0
 40
7.0
 40
7.0
 40
8.0
 40
8.0
 40
8.0
 40
9.0
 40
9.0
 40
9.0
 40
10.0
 40
10.0
 40
10.0
 40
11.0
 40
11.0
 40
11.0
 40
12.0
 40
12.0
 40
12.0
 40
13.0
 40
13.0
 40
13.0
 40
13.0
 10
109.1261555716768
 20
-121.9427720506775
 10
109.0303819171869
 20
-122.3108805032765
 10
108.9873182236212
 20
-122.4695271503722
 10
108.8195420734896
 20
-122.7191243182786
 10
108.6624457193622
 20
-122.949773461016
 10
108.4605631239265
 20
-123.1358086172195
 10
108.2225070258958
 20
-123.2289984500955
 10
108.2225070258958
 20
-123.2289984500955
 10
108.0585204807979
 20
-123.0491644657655
 10
108.0585204807979
 20
-123.0491644657655
 10
108.6049126247585
 20
-122.8968912453174
 10
108.8863769259034
 20
-122.3405083244496
 10
108.9404649250218
 20
-121.9003973762089
 10
108.9404649250218
 20
-121.9003973762089
 10
108.287619330567
 20
-121.9003973762089
 10
108.287619330567
 20
-121.9003973762089
 10
108.2080376248577
 20
-121.9003973762089
 10
108.0512857802788
 20
-121.9047037455655
 10
107.9179605849997
 20
-121.9236517707344
 10
107.9179605849997
 20
-121.9236517707344
 10
107.9179605849997
 20
-121.7036824240012
 10
107.9179605849997
 20
-121.7036824240012
 10
107.991685628384
 20
-121.7248697612355
 10
108.2063150771151
 20
-121.7248697612355
 10
108.2910644260522
 20
-121.7248697612355
 10
108.2910644260522
 20
-121.7248697612355
 10
108.6590006238769
 20
-121.7248697612355
 10
108.6590006238769
 20
-121.7248697612355
 10
108.695174126472
 20
-121.7248697612355
 10
108.8953341741651
 20
-121.72263044917
 10
108.9277180717264
 20
-121.7164292772966
 10
108.9638915743215
 20
-121.7100558506489
 10
108.9656141220642
 20
-121.7079887933577
 10
109.01797957344
 20
-121.6676811761803
 10
109.01797957344
 20
-121.6676811761803
 10
109.1785210230526
 20
-121.8221937086938
 10
109.1785210230526
 20
-121.8221937086938
 10
109.1530273164617
 20
-121.8518215298669
 10
109.1406249727148
 20
-121.8835164083312
 10
109.1261555716768
 20
-121.9427720506775
 97
        0
 97
        0
 92
        1
 93
        1
 72
     4
 94
        3
 73
     0
 74
     1
 95
       17
 96
       13
 40
0.0
 40
0.0
 40
0.0
 40
0.0
 40
1.0
 40
1.0
 40
1.0
 40
2.0
 40
2.0
 40
2.0
 40
3.0
 40
3.0
 40
3.0
 40
4.0
 40
4.0
 40
4.0
 40
4.0
 10
109.3046115178127
 20
-121.7438177864043
 10
109.1964355195759
 20
-121.7438177864043
 10
109.1099636228961
 20
-121.6423597243637
 10
109.1099636228961
 20
-121.5154079557323
 10
109.1099636228961
 20
-121.3884561871008
 10
109.1964355195759
 20
-121.2847588129948
 10
109.3046115178127
 20
-121.2847588129948
 10
109.4127875160496
 20
-121.2847588129948
 10
109.500981960472
 20
-121.3884561871008
 10
109.500981960472
 20
-121.5154079557323
 10
109.500981960472
 20
-121.6423597243637
 10
109.4127875160496
 20
-121.7438177864043
 10
109.3046115178127
 20
-121.7438177864043
 97
        0
 97
        0
 92
        1
 93
        1
 72
     4
 94
        3
 73
     0
 74
     1
 95
       17
 96
       13
 40
0.0
 40
0.0
 40
0.0
 40
0.0
 40
1.0
 40
1.0
 40
1.0
 40
2.0
 40
2.0
 40
2.0
 40
3.0
 40
3.0
 40
3.0
 40
4.0
 40
4.0
 40
4.0
 40
4.0
 10
109.3028889700701
 20
-121.4137776389174
 10
109.2560356714707
 20
-121.4137776389174
 10
109.218139621133
 20
-121.4582193706771
 10
109.218139621133
 20
-121.5133408984411
 10
109.218139621133
 20
-121.570357228722
 10
109.2560356714707
 20
-121.6191053298383
 10
109.3063340655554
 20
-121.6191053298383
 10
109.3569769691885
 20
-121.6191053298383
 10
109.3910834144925
 20
-121.5682901714308
 10
109.3910834144925
 20
-121.5154079557323
 10
109.3910834144925
 20
-121.4582193706771
 10
109.3514648164121
 20
-121.4137776389174
 10
109.3028889700701
 20
-121.4137776389174
 97
        0
 97
        0
 75
     2
 76
     1
 98
        0
  0
ENDBLK
  5
10C
330
109
100
AcDbEntity
  8
0
100
AcDbBlockEnd
  0
ENDSEC
  0
SECTION
  2
ENTITIES
  0
POLYLINE
  5
41
330
1F
100
AcDbEntity
  8
_U+30EC_U+30A4_U+30E4_U+30FC 1
 62
     7
420
 16777215
370
     9
100
AcDb2dPolyline
 66
     1
 10
0.0
 20
0.0
 30
0.0
  0
VERTEX
  5
42
330
41
100
AcDbEntity
  8
_U+30EC_U+30A4_U+30E4_U+30FC 1
 62
     7
420
 16777215
370
     9
100
AcDbVertex
100
AcDb2dVertex
 10
80.92545831310213
 20
-130.0165321897184
 30
0.0
  0
VERTEX
  5
43
330
41
100
AcDbEntity
  8
_U+30EC_U+30A4_U+30E4_U+30FC 1
 62
     7
420
 16777215
370
     9
100
AcDbVertex
100
AcDb2dVertex
 10
79.22549075656713
 20
-130.0165321897184
 30
0.0
  0
VERTEX
  5
44
330
41
100
AcDbEntity
  8
_U+30EC_U+30A4_U+30E4_U+30FC 1
 62
     7
420
 16777215
370
     9
100
AcDbVertex
100
AcDb2dVertex
 10
79.22549075656713
 20
-127.8168216347126
 30
0.0
  0
VERTEX
  5
45
330
41
100
AcDbEntity
  8
_U+30EC_U+30A4_U+30E4_U+30FC 1
 62
     7
420
 16777215
370
     9
100
AcDbVertex
100
AcDb2dVertex
 10
80.92545831310213
 20
-127.8168216347126
 30
0.0
  0
VERTEX
  5
46
330
41
100
AcDbEntity
  8
_U+30EC_U+30A4_U+30E4_U+30FC 1
 62
     7
420
 16777215
370
     9
100
AcDbVertex
100
AcDb2dVertex
 10
80.92545831310213
 20
-130.0165321897184
 30
0.0
  0
SEQEND
  5
47
330
41
100
AcDbEntity
  8
_U+30EC_U+30A4_U+30E4_U+30FC 1
 62
     7
420
 16777215
370
     9
  0
POLYLINE
  5
48
330
1F
100
AcDbEntity
  8
_U+30EC_U+30A4_U+30E4_U+30FC 1
 62
     7
420
 16777215
370
     9
100
AcDb2dPolyline
 66
     1
 10
0.0
 20
0.0
 30
0.0
  0
VERTEX
  5
49
330
48
100
AcDbEntity
  8
_U+30EC_U+30A4_U+30E4_U+30FC 1
 62
     7
420
 16777215
370
     9
100
AcDbVertex
100
AcDb2dVertex
 10
78.22039161554267
 20
-125.7707810796683
 30
0.0
  0
VERTEX
  5
4A
330
48
100
AcDbEntity
  8
_U+30EC_U+30A4_U+30E4_U+30FC 1
 62
     7
420
 16777215
370
     9
100
AcDbVertex
100
AcDb2dVertex
 10
78.22039161554267
 20
-121.7138366362381
 30
0.0
  0
VERTEX
  5
4B
330
48
100
AcDbEntity
  8
_U+30EC_U+30A4_U+30E4_U+30FC 1
 62
     7
420
 16777215
370
     9
100
AcDbVertex
100
AcDb2dVertex
 10
78.95727381896546
 20
-121.7138366362381
 30
0.0
  0
SEQEND
  5
4C
330
48
100
AcDbEntity
  8
_U+30EC_U+30A4_U+30E4_U+30FC 1
 62
     7
420
 16777215
370
     9
  0
POLYLINE
  5
4D
330
1F
100
AcDbEntity
  8
_U+30EC_U+30A4_U+30E4_U+30FC 1
 62
     7
420
 16777215
370
     9
100
AcDb2dPolyline
 66
     1
 10
0.0
 20
0.0
 30
0.0
  0
VERTEX
  5
4E
330
4D
100
AcDbEntity
  8
_U+30EC_U+30A4_U+30E4_U+30FC 1
 62
     7
420
 16777215
370
     9
100
AcDbVertex
100
AcDb2dVertex
 10
81.79413624659107
 20
-121.6693866362495
 30
0.0
  0
VERTEX
  5
4F
330
4D
100
AcDbEntity
  8
_U+30EC_U+30A4_U+30E4_U+30FC 1
 62
     7
420
 16777215
370
     9
100
AcDbVertex
100
AcDb2dVertex
 10
86.32133335331487
 20
-121.6693866362495
 30
0.0
  0
SEQEND
  5
50
330
4D
100
AcDbEntity
  8
_U+30EC_U+30A4_U+30E4_U+30FC 1
 62
     7
420
 16777215
370
     9
  0
POLYLINE
  5
51
330
1F
100
AcDbEntity
  8
_U+30EC_U+30A4_U+30E4_U+30FC 1
 62
     7
420
 16777215
370
     9
100
AcDb2dPolyline
 66
     1
 10
0.0
 20
0.0
 30
0.0
  0
VERTEX
  5
52
330
51
100
AcDbEntity
  8
_U+30EC_U+30A4_U+30E4_U+30FC 1
 62
     7
420
 16777215
370
     9
100
AcDbVertex
100
AcDb2dVertex
 10
82.42613761935625
 20
-121.6693866362495
 30
0.0
  0
VERTEX
  5
53
330
51
100
AcDbEntity
  8
_U+30EC_U+30A4_U+30E4_U+30FC 1
 62
     7
420
 16777215
370
     9
100
AcDbVertex
100
AcDb2dVertex
 10
82.42613761935625
 20
-125.6384894130347
 30
0.0
  0
SEQEND
  5
54
330
51
100
AcDbEntity
  8
_U+30EC_U+30A4_U+30E4_U+30FC 1
 62
     7
420
 16777215
370
     9
  0
POLYLINE
  5
55
330
1F
100
AcDbEntity
  8
_U+30EC_U+30A4_U+30E4_U+30FC 1
 62
     7
420
 16777215
370
     9
100
AcDb2dPolyline
 66
     1
 10
0.0
 20
0.0
 30
0.0
  0
VERTEX
  5
56
330
55
100
AcDbEntity
  8
_U+30EC_U+30A4_U+30E4_U+30FC 1
 62
     7
420
 16777215
370
     9
100
AcDbVertex
100
AcDb2dVertex
 10
90.44996213687367
 20
-121.5811921918271
 30
0.0
  0
VERTEX
  5
57
330
55
100
AcDbEntity
  8
_U+30EC_U+30A4_U+30E4_U+30FC 1
 62
     7
420
 16777215
370
     9
100
AcDbVertex
100
AcDb2dVertex
 10
94.3143250938411
 20
-121.5811921918271
 30
0.0
  0
VERTEX
  5
58
330
55
100
AcDbEntity
  8
_U+30EC_U+30A4_U+30E4_U+30FC 1
 62
     7
420
 16777215
370
     9
100
AcDbVertex
100
AcDb2dVertex
 10
94.3143250938411
 20
-128.3284199679178
 30
0.0
  0
SEQEND
  5
59
330
55
100
AcDbEntity
  8
_U+30EC_U+30A4_U+30E4_U+30FC 1
 62
     7
420
 16777215
370
     9
  0
POLYLINE
  5
5A
330
1F
100
AcDbEntity
  8
_U+30EC_U+30A4_U+30E4_U+30FC 1
 62
     7
420
 16777215
370
     9
100
AcDb2dPolyline
 66
     1
 10
0.0
 20
0.0
 30
0.0
  0
VERTEX
  5
5B
330
5A
100
AcDbEntity
  8
_U+30EC_U+30A4_U+30E4_U+30FC 1
 62
     7
420
 16777215
370
     9
100
AcDbVertex
100
AcDb2dVertex
 10
83.70721480889549
 20
-126.8184605238508
 30
0.0
  0
VERTEX
  5
5C
330
5A
100
AcDbEntity
  8
_U+30EC_U+30A4_U+30E4_U+30FC 1
 62
     7
420
 16777215
370
     9
100
AcDbVertex
100
AcDb2dVertex
 10
97.64193667561334
 20
-126.8184605238508
 30
0.0
  0
VERTEX
  5
5D
330
5A
100
AcDbEntity
  8
_U+30EC_U+30A4_U+30E4_U+30FC 1
 62
     7
420
 16777215
370
     9
100
AcDbVertex
100
AcDb2dVertex
 10
97.64193667561334
 20
-131.0100955228033
 30
0.0
  0
VERTEX
  5
5E
330
5A
100
AcDbEntity
  8
_U+30EC_U+30A4_U+30E4_U+30FC 1
 62
     7
420
 16777215
370
     9
100
AcDbVertex
100
AcDb2dVertex
 10
96.18672837940545
 20
-131.0100955228033
 30
0.0
  0
SEQEND
  5
5F
330
5A
100
AcDbEntity
  8
_U+30EC_U+30A4_U+30E4_U+30FC 1
 62
     7
420
 16777215
370
     9
  0
POLYLINE
  5
60
330
1F
100
AcDbEntity
  8
_U+30EC_U+30A4_U+30E4_U+30FC 1
 62
     7
420
 16777215
370
     9
100
AcDb2dPolyline
 66
     1
 10
0.0
 20
0.0
 30
0.0
  0
VERTEX
  5
61
330
60
100
AcDbEntity
  8
_U+30EC_U+30A4_U+30E4_U+30FC 1
 62
     7
420
 16777215
370
     9
100
AcDbVertex
100
AcDb2dVertex
 10
96.14263115830825
 20
-129.8132616342132
 30
0.0
  0
VERTEX
  5
62
330
60
100
AcDbEntity
  8
_U+30EC_U+30A4_U+30E4_U+30FC 1
 62
     7
420
 16777215
370
     9
100
AcDbVertex
100
AcDb2dVertex
 10
97.64193667561334
 20
-129.8132616342132
 30
0.0
  0
SEQEND
  5
63
330
60
100
AcDbEntity
  8
_U+30EC_U+30A4_U+30E4_U+30FC 1
 62
     7
420
 16777215
370
     9
  0
POLYLINE
  5
64
330
1F
100
AcDbEntity
  8
_U+30EC_U+30A4_U+30E4_U+30FC 1
 62
     7
420
 16777215
370
     9
100
AcDb2dPolyline
 66
     1
 10
0.0
 20
0.0
 30
0.0
  0
VERTEX
  5
65
330
64
100
AcDbEntity
  8
_U+30EC_U+30A4_U+30E4_U+30FC 1
 62
     7
420
 16777215
370
     9
100
AcDbVertex
100
AcDb2dVertex
 10
84.32732757085286
 20
-132.2530727447147
 30
0.0
  0
VERTEX
  5
66
330
64
100
AcDbEntity
  8
_U+30EC_U+30A4_U+30E4_U+30FC 1
 62
     7
420
 16777215
370
     9
100
AcDbVertex
100
AcDb2dVertex
 10
84.32732757085286
 20
-133.7523782998955
 30
0.0
  0
VERTEX
  5
67
330
64
100
AcDbEntity
  8
_U+30EC_U+30A4_U+30E4_U+30FC 1
 62
     7
420
 16777215
370
     9
100
AcDbVertex
100
AcDb2dVertex
 10
94.28779620562902
 20
-133.7523782998955
 30
0.0
  0
VERTEX
  5
68
330
64
100
AcDbEntity
  8
_U+30EC_U+30A4_U+30E4_U+30FC 1
 62
     7
420
 16777215
370
     9
100
AcDbVertex
100
AcDb2dVertex
 10
94.28779620562902
 20
-132.1648783002923
 30
0.0
  0
SEQEND
  5
69
330
64
100
AcDbEntity
  8
_U+30EC_U+30A4_U+30E4_U+30FC 1
 62
     7
420
 16777215
370
     9
  0
POLYLINE
  5
6A
330
1F
100
AcDbEntity
  8
_U+30EC_U+30A4_U+30E4_U+30FC 1
 62
     7
420
 16777215
370
     9
100
AcDb2dPolyline
 66
     1
 10
0.0
 20
0.0
 30
0.0
  0
VERTEX
  5
6B
330
6A
100
AcDbEntity
  8
_U+30EC_U+30A4_U+30E4_U+30FC 1
 62
     7
420
 16777215
370
     9
100
AcDbVertex
100
AcDb2dVertex
 10
77.09263164431422
 20
-126.8184605238508
 30
0.0
  0
VERTEX
  5
6C
330
6A
100
AcDbEntity
  8
_U+30EC_U+30A4_U+30E4_U+30FC 1
 62
     7
420
 16777215
370
     9
100
AcDbVertex
100
AcDb2dVertex
 10
73.12388174556547
 20
-126.8184605238508
 30
0.0
  0
VERTEX
  5
6D
330
6A
100
AcDbEntity
  8
_U+30EC_U+30A4_U+30E4_U+30FC 1
 62
     7
420
 16777215
370
     9
100
AcDbVertex
100
AcDb2dVertex
 10
73.12388174556547
 20
-127.3603624681599
 30
0.0
  0
SEQEND
  5
6E
330
6A
100
AcDbEntity
  8
_U+30EC_U+30A4_U+30E4_U+30FC 1
 62
     7
420
 16777215
370
     9
  0
POLYLINE
  5
6F
330
1F
100
AcDbEntity
  8
_U+30EC_U+30A4_U+30E4_U+30FC 1
 62
     7
420
 16777215
370
     9
100
AcDb2dPolyline
 66
     1
 10
0.0
 20
0.0
 30
0.0
  0
VERTEX
  5
70
330
6F
100
AcDbEntity
  8
_U+30EC_U+30A4_U+30E4_U+30FC 1
 62
     7
420
 16777215
370
     9
100
AcDbVertex
100
AcDb2dVertex
 10
73.16797896666267
 20
-130.3148763563104
 30
0.0
  0
VERTEX
  5
71
330
6F
100
AcDbEntity
  8
_U+30EC_U+30A4_U+30E4_U+30FC 1
 62
     7
420
 16777215
370
     9
100
AcDbVertex
100
AcDb2dVertex
 10
73.16797896666267
 20
-131.0218077450225
 30
0.0
  0
VERTEX
  5
72
330
6F
100
AcDbEntity
  8
_U+30EC_U+30A4_U+30E4_U+30FC 1
 62
     7
420
 16777215
370
     9
100
AcDbVertex
100
AcDb2dVertex
 10
77.04853442321702
 20
-131.0218077450225
 30
0.0
  0
SEQEND
  5
73
330
6F
100
AcDbEntity
  8
_U+30EC_U+30A4_U+30E4_U+30FC 1
 62
     7
420
 16777215
370
     9
  0
POLYLINE
  5
74
330
1F
100
AcDbEntity
  8
_U+30EC_U+30A4_U+30E4_U+30FC 1
  6
AI-Linetype-1
 62
   154
420
    23468
370
    25
100
AcDb2dPolyline
 66
     1
 10
0.0
 20
0.0
 30
0.0
  0
VERTEX
  5
75
330
74
100
AcDbEntity
  8
_U+30EC_U+30A4_U+30E4_U+30FC 1
  6
AI-Linetype-1
 62
   154
420
    23468
370
    25
100
AcDbVertex
100
AcDb2dVertex
 10
84.32506979313268
 20
-131.4593227449132
 30
0.0
  0
VERTEX
  5
76
330
74
100
AcDbEntity
  8
_U+30EC_U+30A4_U+30E4_U+30FC 1
  6
AI-Linetype-1
 62
   154
420
    23468
370
    25
100
AcDbVertex
100
AcDb2dVertex
 10
94.32533176022697
 20
-131.4593227449132
 30
0.0
  0
SEQEND
  5
78
330
74
100
AcDbEntity
  8
_U+30EC_U+30A4_U+30E4_U+30FC 1
  6
AI-Linetype-1
 62
   154
420
    23468
370
    25
  0
POLYLINE
  5
79
330
1F
100
AcDbEntity
  8
_U+30EC_U+30A4_U+30E4_U+30FC 1
 62
   179
420
  2234388
370
     9
100
AcDb2dPolyline
 66
     1
 10
0.0
 20
0.0
 30
0.0
  0
VERTEX
  5
7A
330
79
100
AcDbEntity
  8
_U+30EC_U+30A4_U+30E4_U+30FC 1
 62
   179
420
  2234388
370
     9
100
AcDbVertex
100
AcDb2dVertex
 10
109.636380814054
 20
-123.7423088579532
 30
0.0
  0
VERTEX
  5
7B
330
79
100
AcDbEntity
  8
_U+30EC_U+30A4_U+30E4_U+30FC 1
 62
   179
420
  2234388
370
     9
100
AcDbVertex
100
AcDb2dVertex
 10
96.4513117059887
 20
-123.7423088579532
 30
0.0
  0
VERTEX
  5
7C
330
79
100
AcDbEntity
  8
_U+30EC_U+30A4_U+30E4_U+30FC 1
 62
   179
420
  2234388
370
     9
100
AcDbVertex
100
AcDb2dVertex
 10
90.1013118679907
 20
-131.2829338560684
 30
0.0
  0
SEQEND
  5
7D
330
79
100
AcDbEntity
  8
_U+30EC_U+30A4_U+30E4_U+30FC 1
 62
   179
420
  2234388
370
     9
  0
SPLINE
  5
7E
330
1F
100
AcDbEntity
  8
_U+30EC_U+30A4_U+30E4_U+30FC 1
 62
   179
420
  2234388
370
     9
100
AcDbSpline
210
0.0
220
0.0
230
1.0
 70
    11
 71
     3
 72
    17
 73
    13
 74
     0
 42
0.0000000001
 43
0.0000000001
 12
1.0
 22
0.0
 32
0.0
 13
1.0
 23
0.0
 33
0.0
 40
0.0
 40
0.0
 40
0.0
 40
0.0
 40
1.0
 40
1.0
 40
1.0
 40
2.0
 40
2.0
 40
2.0
 40
3.0
 40
3.0
 40
3.0
 40
4.0
 40
4.0
 40
4.0
 40
4.0
 10
73.21207618775989
 20
-126.8184605238508
 30
0.0
 10
73.21207618775989
 20
-126.8673555238387
 30
0.0
 10
73.17263563321055
 20
-126.9066549682732
 30
0.0
 10
73.12388174556547
 20
-126.9066549682732
 30
0.0
 10
73.07512785792039
 20
-126.9066549682732
 30
0.0
 10
73.03568730337105
 20
-126.8673555238387
 30
0.0
 10
73.03568730337105
 20
-126.8184605238508
 30
0.0
 10
73.03568730337105
 20
-126.7695302460854
 30
0.0
 10
73.07512785792039
 20
-126.7302660794284
 30
0.0
 10
73.12388174556547
 20
-126.7302660794284
 30
0.0
 10
73.17263563321055
 20
-126.7302660794284
 30
0.0
 10
73.21207618775989
 20
-126.7695302460854
 30
0.0
 10
73.21207618775989
 20
-126.8184605238508
 30
0.0
  0
HATCH
  5
7F
330
1F
100
AcDbEntity
  8
_U+30EC_U+30A4_U+30E4_U+30FC 1
 62
   179
420
  2234388
100
AcDbHatch
 10
0.0
 20
0.0
 30
0.0
210
0.0
220
0.0
230
1.0
  2
SOLID
 70
     1
 71
     0
 91
        1
 92
        1
 93
        1
 72
     4
 94
        3
 73
     0
 74
     1
 95
       17
 96
       13
 40
0.0
 40
0.0
 40
0.0
 40
0.0
 40
1.0
 40
1.0
 40
1.0
 40
2.0
 40
2.0
 40
2.0
 40
3.0
 40
3.0
 40
3.0
 40
4.0
 40
4.0
 40
4.0
 40
4.0
 10
73.21207618775989
 20
-126.8184605238508
 10
73.21207618775989
 20
-126.8673555238387
 10
73.17263563321055
 20
-126.9066549682732
 10
73.12388174556547
 20
-126.9066549682732
 10
73.07512785792039
 20
-126.9066549682732
 10
73.03568730337105
 20
-126.8673555238387
 10
73.03568730337105
 20
-126.8184605238508
 10
73.03568730337105
 20
-126.7695302460854
 10
73.07512785792039
 20
-126.7302660794284
 10
73.12388174556547
 20
-126.7302660794284
 10
73.17263563321055
 20
-126.7302660794284
 10
73.21207618775989
 20
-126.7695302460854
 10
73.21207618775989
 20
-126.8184605238508
 97
        0
 97
        0
 75
     2
 76
     1
 98
        0
  0
SPLINE
  5
80
330
1F
100
AcDbEntity
  8
_U+30EC_U+30A4_U+30E4_U+30FC 1
 62
   179
420
  2234388
370
     9
100
AcDbSpline
210
0.0
220
0.0
230
1.0
 70
    11
 71
     3
 72
    17
 73
    13
 74
     0
 42
0.0000000001
 43
0.0000000001
 12
1.0
 22
0.0
 32
0.0
 13
1.0
 23
0.0
 33
0.0
 40
0.0
 40
0.0
 40
0.0
 40
0.0
 40
1.0
 40
1.0
 40
1.0
 40
2.0
 40
2.0
 40
2.0
 40
3.0
 40
3.0
 40
3.0
 40
4.0
 40
4.0
 40
4.0
 40
4.0
 10
78.30858605773709
 20
-121.7138366362381
 30
0.0
 10
78.30858605773709
 20
-121.7627669140038
 30
0.0
 10
78.26911022541087
 20
-121.8020310806605
 30
0.0
 10
78.22039161554267
 20
-121.8020310806605
 30
0.0
 10
78.17163772789759
 20
-121.8020310806605
 30
0.0
 10
78.13219717334825
 20
-121.7627669140038
 30
0.0
 10
78.13219717334825
 20
-121.7138366362381
 30
0.0
 10
78.13219717334825
 20
-121.6649416362506
 30
0.0
 10
78.17163772789759
 20
-121.6252894140383
 30
0.0
 10
78.22039161554267
 20
-121.6252894140383
 30
0.0
 10
78.26911022541087
 20
-121.6252894140383
 30
0.0
 10
78.30858605773709
 20
-121.6649416362506
 30
0.0
 10
78.30858605773709
 20
-121.7138366362381
 30
0.0
  0
HATCH
  5
81
330
1F
100
AcDbEntity
  8
_U+30EC_U+30A4_U+30E4_U+30FC 1
 62
   179
420
  2234388
100
AcDbHatch
 10
0.0
 20
0.0
 30
0.0
210
0.0
220
0.0
230
1.0
  2
SOLID
 70
     1
 71
     0
 91
        1
 92
        1
 93
        1
 72
     4
 94
        3
 73
     0
 74
     1
 95
       17
 96
       13
 40
0.0
 40
0.0
 40
0.0
 40
0.0
 40
1.0
 40
1.0
 40
1.0
 40
2.0
 40
2.0
 40
2.0
 40
3.0
 40
3.0
 40
3.0
 40
4.0
 40
4.0
 40
4.0
 40
4.0
 10
78.30858605773709
 20
-121.7138366362381
 10
78.30858605773709
 20
-121.7627669140038
 10
78.26911022541087
 20
-121.8020310806605
 10
78.22039161554267
 20
-121.8020310806605
 10
78.17163772789759
 20
-121.8020310806605
 10
78.13219717334825
 20
-121.7627669140038
 10
78.13219717334825
 20
-121.7138366362381
 10
78.13219717334825
 20
-121.6649416362506
 10
78.17163772789759
 20
-121.6252894140383
 10
78.22039161554267
 20
-121.6252894140383
 10
78.26911022541087
 20
-121.6252894140383
 10
78.30858605773709
 20
-121.6649416362506
 10
78.30858605773709
 20
-121.7138366362381
 97
        0
 97
        0
 75
     2
 76
     1
 98
        0
  0
SPLINE
  5
82
330
1F
100
AcDbEntity
  8
_U+30EC_U+30A4_U+30E4_U+30FC 1
 62
   179
420
  2234388
370
     9
100
AcDbSpline
210
0.0
220
0.0
230
1.0
 70
    11
 71
     3
 72
    17
 73
    13
 74
     0
 42
0.0000000001
 43
0.0000000001
 12
1.0
 22
0.0
 32
0.0
 13
1.0
 23
0.0
 33
0.0
 40
0.0
 40
0.0
 40
0.0
 40
0.0
 40
1.0
 40
1.0
 40
1.0
 40
2.0
 40
2.0
 40
2.0
 40
3.0
 40
3.0
 40
3.0
 40
4.0
 40
4.0
 40
4.0
 40
4.0
 10
82.51433206155068
 20
-121.6690691362496
 30
0.0
 10
82.51433206155068
 20
-121.7183169140148
 30
0.0
 10
82.47489150700133
 20
-121.7575810806719
 30
0.0
 10
82.42613761935625
 20
-121.7575810806719
 30
0.0
 10
82.37738373171119
 20
-121.7575810806719
 30
0.0
 10
82.33794317716185
 20
-121.7183169140148
 30
0.0
 10
82.33794317716185
 20
-121.6690691362496
 30
0.0
 10
82.33794317716185
 20
-121.6201388584839
 30
0.0
 10
82.37738373171119
 20
-121.5808746918272
 30
0.0
 10
82.42613761935625
 20
-121.5808746918272
 30
0.0
 10
82.47489150700133
 20
-121.5808746918272
 30
0.0
 10
82.51433206155068
 20
-121.6201388584839
 30
0.0
 10
82.51433206155068
 20
-121.6690691362496
 30
0.0
  0
HATCH
  5
83
330
1F
100
AcDbEntity
  8
_U+30EC_U+30A4_U+30E4_U+30FC 1
 62
   179
420
  2234388
100
AcDbHatch
 10
0.0
 20
0.0
 30
0.0
210
0.0
220
0.0
230
1.0
  2
SOLID
 70
     1
 71
     0
 91
        1
 92
        1
 93
        1
 72
     4
 94
        3
 73
     0
 74
     1
 95
       17
 96
       13
 40
0.0
 40
0.0
 40
0.0
 40
0.0
 40
1.0
 40
1.0
 40
1.0
 40
2.0
 40
2.0
 40
2.0
 40
3.0
 40
3.0
 40
3.0
 40
4.0
 40
4.0
 40
4.0
 40
4.0
 10
82.51433206155068
 20
-121.6690691362496
 10
82.51433206155068
 20
-121.7183169140148
 10
82.47489150700133
 20
-121.7575810806719
 10
82.42613761935625
 20
-121.7575810806719
 10
82.37738373171119
 20
-121.7575810806719
 10
82.33794317716185
 20
-121.7183169140148
 10
82.33794317716185
 20
-121.6690691362496
 10
82.33794317716185
 20
-121.6201388584839
 10
82.37738373171119
 20
-121.5808746918272
 10
82.42613761935625
 20
-121.5808746918272
 10
82.47489150700133
 20
-121.5808746918272
 10
82.51433206155068
 20
-121.6201388584839
 10
82.51433206155068
 20
-121.6690691362496
 97
        0
 97
        0
 75
     2
 76
     1
 98
        0
  0
SPLINE
  5
84
330
1F
100
AcDbEntity
  8
_U+30EC_U+30A4_U+30E4_U+30FC 1
 62
   179
420
  2234388
370
     9
100
AcDbSpline
210
0.0
220
0.0
230
1.0
 70
    11
 71
     3
 72
    17
 73
    13
 74
     0
 42
0.0000000001
 43
0.0000000001
 12
1.0
 22
0.0
 32
0.0
 13
1.0
 23
0.0
 33
0.0
 40
0.0
 40
0.0
 40
0.0
 40
0.0
 40
1.0
 40
1.0
 40
1.0
 40
2.0
 40
2.0
 40
2.0
 40
3.0
 40
3.0
 40
3.0
 40
4.0
 40
4.0
 40
4.0
 40
4.0
 10
97.73013111780774
 20
-126.8184605238508
 30
0.0
 10
97.73013111780774
 20
-126.8673555238387
 30
0.0
 10
97.69051664224392
 20
-126.9066549682732
 30
0.0
 10
97.64193667561334
 20
-126.9066549682732
 30
0.0
 10
97.59335917685264
 20
-126.9066549682732
 30
0.0
 10
97.55374223341892
 20
-126.8673555238387
 30
0.0
 10
97.55374223341892
 20
-126.8184605238508
 30
0.0
 10
97.55374223341892
 20
-126.7695302460854
 30
0.0
 10
97.59335917685264
 20
-126.7302660794284
 30
0.0
 10
97.64193667561334
 20
-126.7302660794284
 30
0.0
 10
97.69051664224392
 20
-126.7302660794284
 30
0.0
 10
97.73013111780774
 20
-126.7695302460854
 30
0.0
 10
97.73013111780774
 20
-126.8184605238508
 30
0.0
  0
HATCH
  5
85
330
1F
100
AcDbEntity
  8
_U+30EC_U+30A4_U+30E4_U+30FC 1
 62
   179
420
  2234388
100
AcDbHatch
 10
0.0
 20
0.0
 30
0.0
210
0.0
220
0.0
230
1.0
  2
SOLID
 70
     1
 71
     0
 91
        1
 92
        1
 93
        1
 72
     4
 94
        3
 73
     0
 74
     1
 95
       17
 96
       13
 40
0.0
 40
0.0
 40
0.0
 40
0.0
 40
1.0
 40
1.0
 40
1.0
 40
2.0
 40
2.0
 40
2.0
 40
3.0
 40
3.0
 40
3.0
 40
4.0
 40
4.0
 40
4.0
 40
4.0
 10
97.73013111780774
 20
-126.8184605238508
 10
97.73013111780774
 20
-126.8673555238387
 10
97.69051664224392
 20
-126.9066549682732
 10
97.64193667561334
 20
-126.9066549682732
 10
97.59335917685264
 20
-126.9066549682732
 10
97.55374223341892
 20
-126.8673555238387
 10
97.55374223341892
 20
-126.8184605238508
 10
97.55374223341892
 20
-126.7695302460854
 10
97.59335917685264
 20
-126.7302660794284
 10
97.64193667561334
 20
-126.7302660794284
 10
97.69051664224392
 20
-126.7302660794284
 10
97.73013111780774
 20
-126.7695302460854
 10
97.73013111780774
 20
-126.8184605238508
 97
        0
 97
        0
 75
     2
 76
     1
 98
        0
  0
SPLINE
  5
86
330
1F
100
AcDbEntity
  8
_U+30EC_U+30A4_U+30E4_U+30FC 1
 62
   179
420
  2234388
370
     9
100
AcDbSpline
210
0.0
220
0.0
230
1.0
 70
    11
 71
     3
 72
    17
 73
    13
 74
     0
 42
0.0000000001
 43
0.0000000001
 12
1.0
 22
0.0
 32
0.0
 13
1.0
 23
0.0
 33
0.0
 40
0.0
 40
0.0
 40
0.0
 40
0.0
 40
1.0
 40
1.0
 40
1.0
 40
2.0
 40
2.0
 40
2.0
 40
3.0
 40
3.0
 40
3.0
 40
4.0
 40
4.0
 40
4.0
 40
4.0
 10
97.73013111780774
 20
-129.8132616342132
 30
0.0
 10
97.73013111780774
 20
-129.8621919119792
 30
0.0
 10
97.69051664224392
 20
-129.9014560786356
 30
0.0
 10
97.64193667561334
 20
-129.9014560786356
 30
0.0
 10
97.59335917685264
 20
-129.9014560786356
 30
0.0
 10
97.55374223341892
 20
-129.8621919119792
 30
0.0
 10
97.55374223341892
 20
-129.8132616342132
 30
0.0
 10
97.55374223341892
 20
-129.7643313564478
 30
0.0
 10
97.59335917685264
 20
-129.7250671897908
 30
0.0
 10
97.64193667561334
 20
-129.7250671897908
 30
0.0
 10
97.69051664224392
 20
-129.7250671897908
 30
0.0
 10
97.73013111780774
 20
-129.7643313564478
 30
0.0
 10
97.73013111780774
 20
-129.8132616342132
 30
0.0
  0
HATCH
  5
87
330
1F
100
AcDbEntity
  8
_U+30EC_U+30A4_U+30E4_U+30FC 1
 62
   179
420
  2234388
100
AcDbHatch
 10
0.0
 20
0.0
 30
0.0
210
0.0
220
0.0
230
1.0
  2
SOLID
 70
     1
 71
     0
 91
        1
 92
        1
 93
        1
 72
     4
 94
        3
 73
     0
 74
     1
 95
       17
 96
       13
 40
0.0
 40
0.0
 40
0.0
 40
0.0
 40
1.0
 40
1.0
 40
1.0
 40
2.0
 40
2.0
 40
2.0
 40
3.0
 40
3.0
 40
3.0
 40
4.0
 40
4.0
 40
4.0
 40
4.0
 10
97.73013111780774
 20
-129.8132616342132
 10
97.73013111780774
 20
-129.8621919119792
 10
97.69051664224392
 20
-129.9014560786356
 10
97.64193667561334
 20
-129.9014560786356
 10
97.59335917685264
 20
-129.9014560786356
 10
97.55374223341892
 20
-129.8621919119792
 10
97.55374223341892
 20
-129.8132616342132
 10
97.55374223341892
 20
-129.7643313564478
 10
97.59335917685264
 20
-129.7250671897908
 10
97.64193667561334
 20
-129.7250671897908
 10
97.69051664224392
 20
-129.7250671897908
 10
97.73013111780774
 20
-129.7643313564478
 10
97.73013111780774
 20
-129.8132616342132
 97
        0
 97
        0
 75
     2
 76
     1
 98
        0
  0
SPLINE
  5
88
330
1F
100
AcDbEntity
  8
_U+30EC_U+30A4_U+30E4_U+30FC 1
 62
   179
420
  2234388
370
     9
100
AcDbSpline
210
0.0
220
0.0
230
1.0
 70
    11
 71
     3
 72
    17
 73
    13
 74
     0
 42
0.0000000001
 43
0.0000000001
 12
1.0
 22
0.0
 32
0.0
 13
1.0
 23
0.0
 33
0.0
 40
0.0
 40
0.0
 40
0.0
 40
0.0
 40
1.0
 40
1.0
 40
1.0
 40
2.0
 40
2.0
 40
2.0
 40
3.0
 40
3.0
 40
3.0
 40
4.0
 40
4.0
 40
4.0
 40
4.0
 10
94.37599064782344
 20
-133.7523782998955
 30
0.0
 10
94.37599064782344
 20
-133.8013085776608
 30
0.0
 10
94.33637370438971
 20
-133.8405727443179
 30
0.0
 10
94.28779620562902
 20
-133.8405727443179
 30
0.0
 10
94.23921870686834
 20
-133.8405727443179
 30
0.0
 10
94.19960176343461
 20
-133.8013085776608
 30
0.0
 10
94.19960176343461
 20
-133.7523782998955
 30
0.0
 10
94.19960176343461
 20
-133.7034832999076
 30
0.0
 10
94.23921870686834
 20
-133.6641838554731
 30
0.0
 10
94.28779620562902
 20
-133.6641838554731
 30
0.0
 10
94.33637370438971
 20
-133.6641838554731
 30
0.0
 10
94.37599064782344
 20
-133.7034832999076
 30
0.0
 10
94.37599064782344
 20
-133.7523782998955
 30
0.0
  0
HATCH
  5
89
330
1F
100
AcDbEntity
  8
_U+30EC_U+30A4_U+30E4_U+30FC 1
 62
   179
420
  2234388
100
AcDbHatch
 10
0.0
 20
0.0
 30
0.0
210
0.0
220
0.0
230
1.0
  2
SOLID
 70
     1
 71
     0
 91
        1
 92
        1
 93
        1
 72
     4
 94
        3
 73
     0
 74
     1
 95
       17
 96
       13
 40
0.0
 40
0.0
 40
0.0
 40
0.0
 40
1.0
 40
1.0
 40
1.0
 40
2.0
 40
2.0
 40
2.0
 40
3.0
 40
3.0
 40
3.0
 40
4.0
 40
4.0
 40
4.0
 40
4.0
 10
94.37599064782344
 20
-133.7523782998955
 10
94.37599064782344
 20
-133.8013085776608
 10
94.33637370438971
 20
-133.8405727443179
 10
94.28779620562902
 20
-133.8405727443179
 10
94.23921870686834
 20
-133.8405727443179
 10
94.19960176343461
 20
-133.8013085776608
 10
94.19960176343461
 20
-133.7523782998955
 10
94.19960176343461
 20
-133.7034832999076
 10
94.23921870686834
 20
-133.6641838554731
 10
94.28779620562902
 20
-133.6641838554731
 10
94.33637370438971
 20
-133.6641838554731
 10
94.37599064782344
 20
-133.7034832999076
 10
94.37599064782344
 20
-133.7523782998955
 97
        0
 97
        0
 75
     2
 76
     1
 98
        0
  0
SPLINE
  5
8A
330
1F
100
AcDbEntity
  8
_U+30EC_U+30A4_U+30E4_U+30FC 1
 62
   179
420
  2234388
370
     9
100
AcDbSpline
210
0.0
220
0.0
230
1.0
 70
    11
 71
     3
 72
    17
 73
    13
 74
     0
 42
0.0000000001
 43
0.0000000001
 12
1.0
 22
0.0
 32
0.0
 13
1.0
 23
0.0
 33
0.0
 40
0.0
 40
0.0
 40
0.0
 40
0.0
 40
1.0
 40
1.0
 40
1.0
 40
2.0
 40
2.0
 40
2.0
 40
3.0
 40
3.0
 40
3.0
 40
4.0
 40
4.0
 40
4.0
 40
4.0
 10
84.41552201304728
 20
-133.7082810776843
 30
0.0
 10
84.41552201304728
 20
-133.7572113554496
 30
0.0
 10
84.37608145849794
 20
-133.7964755221067
 30
0.0
 10
84.32732757085286
 20
-133.7964755221067
 30
0.0
 10
84.2785736832078
 20
-133.7964755221067
 30
0.0
 10
84.23913312865845
 20
-133.7572113554496
 30
0.0
 10
84.23913312865845
 20
-133.7082810776843
 30
0.0
 10
84.23913312865845
 20
-133.6593860776964
 30
0.0
 10
84.2785736832078
 20
-133.6200866332619
 30
0.0
 10
84.32732757085286
 20
-133.6200866332619
 30
0.0
 10
84.37608145849794
 20
-133.6200866332619
 30
0.0
 10
84.41552201304728
 20
-133.6593860776964
 30
0.0
 10
84.41552201304728
 20
-133.7082810776843
 30
0.0
  0
HATCH
  5
8B
330
1F
100
AcDbEntity
  8
_U+30EC_U+30A4_U+30E4_U+30FC 1
 62
   179
420
  2234388
100
AcDbHatch
 10
0.0
 20
0.0
 30
0.0
210
0.0
220
0.0
230
1.0
  2
SOLID
 70
     1
 71
     0
 91
        1
 92
        1
 93
        1
 72
     4
 94
        3
 73
     0
 74
     1
 95
       17
 96
       13
 40
0.0
 40
0.0
 40
0.0
 40
0.0
 40
1.0
 40
1.0
 40
1.0
 40
2.0
 40
2.0
 40
2.0
 40
3.0
 40
3.0
 40
3.0
 40
4.0
 40
4.0
 40
4.0
 40
4.0
 10
84.41552201304728
 20
-133.7082810776843
 10
84.41552201304728
 20
-133.7572113554496
 10
84.37608145849794
 20
-133.7964755221067
 10
84.32732757085286
 20
-133.7964755221067
 10
84.2785736832078
 20
-133.7964755221067
 10
84.23913312865845
 20
-133.7572113554496
 10
84.23913312865845
 20
-133.7082810776843
 10
84.23913312865845
 20
-133.6593860776964
 10
84.2785736832078
 20
-133.6200866332619
 10
84.32732757085286
 20
-133.6200866332619
 10
84.37608145849794
 20
-133.6200866332619
 10
84.41552201304728
 20
-133.6593860776964
 10
84.41552201304728
 20
-133.7082810776843
 97
        0
 97
        0
 75
     2
 76
     1
 98
        0
  0
SPLINE
  5
8C
330
1F
100
AcDbEntity
  8
_U+30EC_U+30A4_U+30E4_U+30FC 1
 62
   179
420
  2234388
370
     9
100
AcDbSpline
210
0.0
220
0.0
230
1.0
 70
    11
 71
     3
 72
    17
 73
    13
 74
     0
 42
0.0000000001
 43
0.0000000001
 12
1.0
 22
0.0
 32
0.0
 13
1.0
 23
0.0
 33
0.0
 40
0.0
 40
0.0
 40
0.0
 40
0.0
 40
1.0
 40
1.0
 40
1.0
 40
2.0
 40
2.0
 40
2.0
 40
3.0
 40
3.0
 40
3.0
 40
4.0
 40
4.0
 40
4.0
 40
4.0
 10
97.73013111780774
 20
-131.0100955228033
 30
0.0
 10
97.73013111780774
 20
-131.0590258005686
 30
0.0
 10
97.69051664224392
 20
-131.0982899672256
 30
0.0
 10
97.64193667561334
 20
-131.0982899672256
 30
0.0
 10
97.59335917685264
 20
-131.0982899672256
 30
0.0
 10
97.55374223341892
 20
-131.0590258005686
 30
0.0
 10
97.55374223341892
 20
-131.0100955228033
 30
0.0
 10
97.55374223341892
 20
-130.9611652450372
 30
0.0
 10
97.59335917685264
 20
-130.9219010783808
 30
0.0
 10
97.64193667561334
 20
-130.9219010783808
 30
0.0
 10
97.69051664224392
 20
-130.9219010783808
 30
0.0
 10
97.73013111780774
 20
-130.9611652450372
 30
0.0
 10
97.73013111780774
 20
-131.0100955228033
 30
0.0
  0
HATCH
  5
8D
330
1F
100
AcDbEntity
  8
_U+30EC_U+30A4_U+30E4_U+30FC 1
 62
   179
420
  2234388
100
AcDbHatch
 10
0.0
 20
0.0
 30
0.0
210
0.0
220
0.0
230
1.0
  2
SOLID
 70
     1
 71
     0
 91
        1
 92
        1
 93
        1
 72
     4
 94
        3
 73
     0
 74
     1
 95
       17
 96
       13
 40
0.0
 40
0.0
 40
0.0
 40
0.0
 40
1.0
 40
1.0
 40
1.0
 40
2.0
 40
2.0
 40
2.0
 40
3.0
 40
3.0
 40
3.0
 40
4.0
 40
4.0
 40
4.0
 40
4.0
 10
97.73013111780774
 20
-131.0100955228033
 10
97.73013111780774
 20
-131.0590258005686
 10
97.69051664224392
 20
-131.0982899672256
 10
97.64193667561334
 20
-131.0982899672256
 10
97.59335917685264
 20
-131.0982899672256
 10
97.55374223341892
 20
-131.0590258005686
 10
97.55374223341892
 20
-131.0100955228033
 10
97.55374223341892
 20
-130.9611652450372
 10
97.59335917685264
 20
-130.9219010783808
 10
97.64193667561334
 20
-130.9219010783808
 10
97.69051664224392
 20
-130.9219010783808
 10
97.73013111780774
 20
-130.9611652450372
 10
97.73013111780774
 20
-131.0100955228033
 97
        0
 97
        0
 75
     2
 76
     1
 98
        0
  0
SPLINE
  5
8E
330
1F
100
AcDbEntity
  8
_U+30EC_U+30A4_U+30E4_U+30FC 1
 62
   179
420
  2234388
370
     9
100
AcDbSpline
210
0.0
220
0.0
230
1.0
 70
    11
 71
     3
 72
    17
 73
    13
 74
     0
 42
0.0000000001
 43
0.0000000001
 12
1.0
 22
0.0
 32
0.0
 13
1.0
 23
0.0
 33
0.0
 40
0.0
 40
0.0
 40
0.0
 40
0.0
 40
1.0
 40
1.0
 40
1.0
 40
2.0
 40
2.0
 40
2.0
 40
3.0
 40
3.0
 40
3.0
 40
4.0
 40
4.0
 40
4.0
 40
4.0
 10
94.40251953603553
 20
-121.5808746918272
 30
0.0
 10
94.40251953603553
 20
-121.6301224695925
 30
0.0
 10
94.36322009259369
 20
-121.6693866362495
 30
0.0
 10
94.3143250938411
 20
-121.6693866362495
 30
0.0
 10
94.26574997643326
 20
-121.6693866362495
 30
0.0
 10
94.22613065164668
 20
-121.6301224695925
 30
0.0
 10
94.22613065164668
 20
-121.5808746918272
 30
0.0
 10
94.22613065164668
 20
-121.5319444140615
 30
0.0
 10
94.26574997643326
 20
-121.4926802474048
 30
0.0
 10
94.3143250938411
 20
-121.4926802474048
 30
0.0
 10
94.36322009259369
 20
-121.4926802474048
 30
0.0
 10
94.40251953603553
 20
-121.5319444140615
 30
0.0
 10
94.40251953603553
 20
-121.5808746918272
 30
0.0
  0
HATCH
  5
8F
330
1F
100
AcDbEntity
  8
_U+30EC_U+30A4_U+30E4_U+30FC 1
 62
   179
420
  2234388
100
AcDbHatch
 10
0.0
 20
0.0
 30
0.0
210
0.0
220
0.0
230
1.0
  2
SOLID
 70
     1
 71
     0
 91
        1
 92
        1
 93
        1
 72
     4
 94
        3
 73
     0
 74
     1
 95
       17
 96
       13
 40
0.0
 40
0.0
 40
0.0
 40
0.0
 40
1.0
 40
1.0
 40
1.0
 40
2.0
 40
2.0
 40
2.0
 40
3.0
 40
3.0
 40
3.0
 40
4.0
 40
4.0
 40
4.0
 40
4.0
 10
94.40251953603553
 20
-121.5808746918272
 10
94.40251953603553
 20
-121.6301224695925
 10
94.36322009259369
 20
-121.6693866362495
 10
94.3143250938411
 20
-121.6693866362495
 10
94.26574997643326
 20
-121.6693866362495
 10
94.22613065164668
 20
-121.6301224695925
 10
94.22613065164668
 20
-121.5808746918272
 10
94.22613065164668
 20
-121.5319444140615
 10
94.26574997643326
 20
-121.4926802474048
 10
94.3143250938411
 20
-121.4926802474048
 10
94.36322009259369
 20
-121.4926802474048
 10
94.40251953603553
 20
-121.5319444140615
 10
94.40251953603553
 20
-121.5808746918272
 97
        0
 97
        0
 75
     2
 76
     1
 98
        0
  0
SPLINE
  5
90
330
1F
100
AcDbEntity
  8
_U+30EC_U+30A4_U+30E4_U+30FC 1
 62
   179
420
  2234388
370
     9
100
AcDbSpline
210
0.0
220
0.0
230
1.0
 70
    11
 71
     3
 72
    17
 73
    13
 74
     0
 42
0.0000000001
 43
0.0000000001
 12
1.0
 22
0.0
 32
0.0
 13
1.0
 23
0.0
 33
0.0
 40
0.0
 40
0.0
 40
0.0
 40
0.0
 40
1.0
 40
1.0
 40
1.0
 40
2.0
 40
2.0
 40
2.0
 40
3.0
 40
3.0
 40
3.0
 40
4.0
 40
4.0
 40
4.0
 40
4.0
 10
73.2561734088571
 20
-131.0218077450225
 30
0.0
 10
73.2561734088571
 20
-131.0707380227879
 30
0.0
 10
73.21673285430775
 20
-131.1100021894449
 30
0.0
 10
73.16797896666267
 20
-131.1100021894449
 30
0.0
 10
73.1192250790176
 20
-131.1100021894449
 30
0.0
 10
73.07978452446827
 20
-131.0707380227879
 30
0.0
 10
73.07978452446827
 20
-131.0218077450225
 30
0.0
 10
73.07978452446827
 20
-130.9728774672565
 30
0.0
 10
73.1192250790176
 20
-130.9336133006001
 30
0.0
 10
73.16797896666267
 20
-130.9336133006001
 30
0.0
 10
73.21673285430775
 20
-130.9336133006001
 30
0.0
 10
73.2561734088571
 20
-130.9728774672565
 30
0.0
 10
73.2561734088571
 20
-131.0218077450225
 30
0.0
  0
HATCH
  5
91
330
1F
100
AcDbEntity
  8
_U+30EC_U+30A4_U+30E4_U+30FC 1
 62
   179
420
  2234388
100
AcDbHatch
 10
0.0
 20
0.0
 30
0.0
210
0.0
220
0.0
230
1.0
  2
SOLID
 70
     1
 71
     0
 91
        1
 92
        1
 93
        1
 72
     4
 94
        3
 73
     0
 74
     1
 95
       17
 96
       13
 40
0.0
 40
0.0
 40
0.0
 40
0.0
 40
1.0
 40
1.0
 40
1.0
 40
2.0
 40
2.0
 40
2.0
 40
3.0
 40
3.0
 40
3.0
 40
4.0
 40
4.0
 40
4.0
 40
4.0
 10
73.2561734088571
 20
-131.0218077450225
 10
73.2561734088571
 20
-131.0707380227879
 10
73.21673285430775
 20
-131.1100021894449
 10
73.16797896666267
 20
-131.1100021894449
 10
73.1192250790176
 20
-131.1100021894449
 10
73.07978452446827
 20
-131.0707380227879
 10
73.07978452446827
 20
-131.0218077450225
 10
73.07978452446827
 20
-130.9728774672565
 10
73.1192250790176
 20
-130.9336133006001
 10
73.16797896666267
 20
-130.9336133006001
 10
73.21673285430775
 20
-130.9336133006001
 10
73.2561734088571
 20
-130.9728774672565
 10
73.2561734088571
 20
-131.0218077450225
 97
        0
 97
        0
 75
     2
 76
     1
 98
        0
  0
INSERT
  5
93
330
1F
100
AcDbEntity
  8
_U+30EC_U+30A4_U+30E4_U+30FC 1
100
AcDbBlockReference
  2
block 2
 10
0.0
 20
0.0
 30
0.0
  0
INSERT
  5
B6
330
1F
100
AcDbEntity
  8
_U+30EC_U+30A4_U+30E4_U+30FC 1
100
AcDbBlockReference
  2
block 3
 10
0.0
 20
0.0
 30
0.0
  0
INSERT
  5
C8
330
1F
100
AcDbEntity
  8
_U+30EC_U+30A4_U+30E4_U+30FC 1
100
AcDbBlockReference
  2
block 4
 10
0.0
 20
0.0
 30
0.0
  0
INSERT
  5
EB
330
1F
100
AcDbEntity
  8
_U+30EC_U+30A4_U+30E4_U+30FC 1
100
AcDbBlockReference
  2
block 5
 10
0.0
 20
0.0
 30
0.0
  0
INSERT
  5
F4
330
1F
100
AcDbEntity
  8
_U+30EC_U+30A4_U+30E4_U+30FC 1
100
AcDbBlockReference
  2
block 6
 10
0.0
 20
0.0
 30
0.0
  0
INSERT
  5
104
330
1F
100
AcDbEntity
  8
_U+30EC_U+30A4_U+30E4_U+30FC 1
100
AcDbBlockReference
  2
block 7
 10
0.0
 20
0.0
 30
0.0
  0
INSERT
  5
10A
330
1F
100
AcDbEntity
  8
_U+30EC_U+30A4_U+30E4_U+30FC 1
100
AcDbBlockReference
  2
block 8
 10
0.0
 20
0.0
 30
0.0
  0
SPLINE
  5
131
330
1F
100
AcDbEntity
  8
_U+30EC_U+30A4_U+30E4_U+30FC 1
 62
     7
420
 16777215
370
     9
100
AcDbSpline
210
0.0
220
0.0
230
1.0
 70
    11
 71
     3
 72
    71
 73
    67
 74
     0
 42
0.0000000001
 43
0.0000000001
 12
1.0
 22
0.0
 32
0.0
 13
1.0
 23
0.0
 33
0.0
 40
0.0
 40
0.0
 40
0.0
 40
0.0
 40
1.0
 40
1.0
 40
1.0
 40
2.0
 40
2.0
 40
2.0
 40
3.0
 40
3.0
 40
3.0
 40
4.0
 40
4.0
 40
4.0
 40
5.0
 40
5.0
 40
5.0
 40
6.0
 40
6.0
 40
6.0
 40
7.0
 40
7.0
 40
7.0
 40
8.0
 40
8.0
 40
8.0
 40
9.0
 40
9.0
 40
9.0
 40
10.0
 40
10.0
 40
10.0
 40
11.0
 40
11.0
 40
11.0
 40
12.0
 40
12.0
 40
12.0
 40
13.0
 40
13.0
 40
13.0
 40
14.0
 40
14.0
 40
14.0
 40
15.0
 40
15.0
 40
15.0
 40
16.0
 40
16.0
 40
16.0
 40
17.0
 40
17.0
 40
17.0
 40
18.0
 40
18.0
 40
18.0
 40
19.0
 40
19.0
 40
19.0
 40
20.0
 40
20.0
 40
20.0
 40
21.0
 40
21.0
 40
21.0
 40
22.0
 40
22.0
 40
22.0
 40
22.0
 10
78.23915939284164
 20
-127.318664134837
 30
0.0
 10
78.23915939284164
 20
-127.0423685793506
 30
0.0
 10
78.46306942482867
 20
-126.8184605238508
 30
0.0
 10
78.73922188008399
 20
-126.8184605238508
 30
0.0
 10
78.73922188008399
 20
-126.8184605238508
 30
0.0
 10
79.12900603680643
 20
-126.8184605238508
 30
0.0
 10
79.12900603680643
 20
-126.8184605238508
 30
0.0
 10
79.12900603680643
 20
-126.8184605238508
 30
0.0
 10
82.43904928569353
 20
-126.8184605238508
 30
0.0
 10
82.43904928569353
 20
-126.8184605238508
 30
0.0
 10
82.43904928569353
 20
-126.8184605238508
 30
0.0
 10
82.43904928569353
 20
-127.8137171902688
 30
0.0
 10
82.43904928569353
 20
-127.8137171902688
 30
0.0
 10
82.43904928569353
 20
-127.8137171902688
 30
0.0
 10
81.93919846511244
 20
-127.8137171902688
 30
0.0
 10
81.93919846511244
 20
-127.8137171902688
 30
0.0
 10
81.93919846511244
 20
-127.8137171902688
 30
0.0
 10
81.93919846511244
 20
-129.8184474675451
 30
0.0
 10
81.93919846511244
 20
-129.8184474675451
 30
0.0
 10
81.93919846511244
 20
-129.8184474675451
 30
0.0
 10
87.3309127720028
 20
-129.8184474675451
 30
0.0
 10
87.3309127720028
 20
-129.8184474675451
 30
0.0
 10
87.3309127720028
 20
-129.8184474675451
 30
0.0
 10
87.33472497816636
 20
-129.8139671897687
 30
0.0
 10
87.33472497816636
 20
-129.8139671897687
 30
0.0
 10
87.33472497816636
 20
-129.8139671897687
 30
0.0
 10
87.53058498913096
 20
-130.0130749674965
 30
0.0
 10
87.53058498913096
 20
-130.0130749674965
 30
0.0
 10
87.53058498913096
 20
-130.0130749674965
 30
0.0
 10
87.73004553959785
 20
-129.8173891342125
 30
0.0
 10
87.73004553959785
 20
-129.8173891342125
 30
0.0
 10
87.73004553959785
 20
-129.8173891342125
 30
0.0
 10
87.74105220598372
 20
-129.8184474675451
 30
0.0
 10
87.74105220598372
 20
-129.8184474675451
 30
0.0
 10
88.09901580796242
 20
-129.8184474675451
 30
0.0
 10
89.90442659523588
 20
-129.8184474675451
 30
0.0
 10
90.50817046872199
 20
-129.8184474675451
 30
0.0
 10
90.50817046872199
 20
-129.8184474675451
 30
0.0
 10
90.50817046872199
 20
-129.8156605231019
 30
0.0
 10
90.50817046872199
 20
-129.8156605231019
 30
0.0
 10
90.50817046872199
 20
-129.8156605231019
 30
0.0
 10
90.70576129701435
 20
-130.0130749674965
 30
0.0
 10
90.70576129701435
 20
-130.0130749674965
 30
0.0
 10
90.70576129701435
 20
-130.0130749674965
 30
0.0
 10
90.90349323641423
 20
-129.8156605231019
 30
0.0
 10
90.90349323641423
 20
-129.8156605231019
 30
0.0
 10
90.90349323641423
 20
-129.8156605231019
 30
0.0
 10
90.90127073647093
 20
-129.8184474675451
 30
0.0
 10
90.90127073647093
 20
-129.8184474675451
 30
0.0
 10
92.22521042491664
 20
-129.8184474675451
 30
0.0
 10
93.12507595751471
 20
-129.8184474675451
 30
0.0
 10
93.12507595751471
 20
-129.8184474675451
 30
0.0
 10
93.12507595751471
 20
-129.8184474675451
 30
0.0
 10
94.32533176022697
 20
-130.4182402451734
 30
0.0
 10
94.32533176022697
 20
-130.4182402451734
 30
0.0
 10
94.32533176022697
 20
-130.4182402451734
 30
0.0
 10
94.32533176022697
 20
-131.0183505228012
 30
0.0
 10
94.32533176022697
 20
-131.0183505228012
 30
0.0
 10
94.32533176022697
 20
-131.0183505228012
 30
0.0
 10
78.23915939284164
 20
-131.0183505228012
 30
0.0
 10
78.23915939284164
 20
-131.0183505228012
 30
0.0
 10
78.23915939284164
 20
-131.0183505228012
 30
0.0
 10
78.23915939284164
 20
-127.4819649681296
 30
0.0
 10
78.23915939284164
 20
-127.4819649681296
 30
0.0
 10
78.23915939284164
 20
-127.4819649681296
 30
0.0
 10
78.23915939284164
 20
-127.318664134837
 30
0.0
 10
78.23915939284164
 20
-127.318664134837
 30
0.0
  0
ENDSEC
  0
SECTION
  2
OBJECTS
  0
DICTIONARY
  5
C
330
0
100
AcDbDictionary
281
     1
  3
ACAD_GROUP
350
D
  3
ACAD_LAYOUT
350
1A
  3
ACAD_MATERIAL
350
3B
  3
ACAD_MLEADERSTYLE
350
133
  3
ACAD_MLINESTYLE
350
17
  3
ACAD_PLOTSETTINGS
350
19
  3
ACAD_PLOTSTYLENAME
350
E
  3
ACAD_TABLESTYLE
350
132
  3
ACAD_VISUALSTYLE
350
2A
  0
SUN
  5
3F
330
29
100
AcDbSun
 90
        1
290
     0
 63
     7
421
 16777215
 40
1.0
291
     1
 91
  2455826
 92
 54000000
292
     0
 70
     2
 71
   256
280
     1
  0
DICTIONARY
  5
D
102
{ACAD_REACTORS
330
C
102
}
330
C
100
AcDbDictionary
281
     1
  0
DICTIONARY
  5
1A
102
{ACAD_REACTORS
330
C
102
}
330
C
100
AcDbDictionary
281
     1
  3
Layout1
350
1E
  3
Layout2
350
26
  3
Model
350
22
  0
DICTIONARY
  5
3B
102
{ACAD_REACTORS
330
C
102
}
330
C
100
AcDbDictionary
281
     1
  3
ByBlock
350
3D
  3
ByLayer
350
3C
  3
Global
350
3E
  0
DICTIONARY
  5
133
102
{ACAD_REACTORS
330
C
102
}
330
C
100
AcDbDictionary
281
     1
  0
DICTIONARY
  5
17
102
{ACAD_REACTORS
330
C
102
}
330
C
100
AcDbDictionary
281
     1
  3
Standard
350
18
  0
DICTIONARY
  5
19
102
{ACAD_REACTORS
330
C
102
}
330
C
100
AcDbDictionary
281
     1
  0
ACDBDICTIONARYWDFLT
  5
E
102
{ACAD_REACTORS
330
C
102
}
330
C
100
AcDbDictionary
281
     1
  3
Normal
350
F
100
AcDbDictionaryWithDefault
340
F
  0
DICTIONARY
  5
132
102
{ACAD_REACTORS
330
C
102
}
330
C
100
AcDbDictionary
281
     1
  0
DICTIONARY
  5
2A
102
{ACAD_REACTORS
330
C
102
}
330
C
100
AcDbDictionary
281
     1
  3
2dWireframe
350
2F
  3
3D Hidden
350
31
  3
3dWireframe
350
30
  3
Basic
350
32
  3
Brighten
350
36
  3
ColorChange
350
3A
  3
Conceptual
350
34
  3
Dim
350
35
  3
Facepattern
350
39
  3
Flat
350
2B
  3
FlatWithEdges
350
2C
  3
Gouraud
350
2D
  3
GouraudWithEdges
350
2E
  3
Linepattern
350
38
  3
Realistic
350
33
  3
Thicken
350
37
  0
LAYOUT
  5
1E
102
{ACAD_REACTORS
330
1A
102
}
330
1A
100
AcDbPlotSettings
  1

  2
none_device
  4

  6

 40
0.0
 41
0.0
 42
0.0
 43
0.0
 44
0.0
 45
0.0
 46
0.0
 47
0.0
 48
0.0
 49
0.0
140
0.0
141
0.0
142
1.0
143
1.0
 70
   688
 72
     0
 73
     0
 74
     5
  7

 75
    16
 76
     0
 77
     2
 78
   300
147
1.0
148
0.0
149
0.0
100
AcDbLayout
  1
Layout1
 70
     1
 71
     1
 10
0.0
 20
0.0
 11
12.0
 21
9.0
 12
0.0
 22
0.0
 32
0.0
 14
1.000000000000000E+20
 24
1.000000000000000E+20
 34
1.000000000000000E+20
 15
-1.000000000000000E+20
 25
-1.000000000000000E+20
 35
-1.000000000000000E+20
146
0.0
 13
0.0
 23
0.0
 33
0.0
 16
1.0
 26
0.0
 36
0.0
 17
0.0
 27
1.0
 37
0.0
 76
     0
330
1B
  0
LAYOUT
  5
26
102
{ACAD_REACTORS
330
1A
102
}
330
1A
100
AcDbPlotSettings
  1

  2
none_device
  4

  6

 40
0.0
 41
0.0
 42
0.0
 43
0.0
 44
0.0
 45
0.0
 46
0.0
 47
0.0
 48
0.0
 49
0.0
140
0.0
141
0.0
142
1.0
143
1.0
 70
   688
 72
     0
 73
     0
 74
     5
  7

 75
    16
 76
     0
 77
     2
 78
   300
147
1.0
148
0.0
149
0.0
100
AcDbLayout
  1
Layout2
 70
     1
 71
     2
 10
0.0
 20
0.0
 11
0.0
 21
0.0
 12
0.0
 22
0.0
 32
0.0
 14
0.0
 24
0.0
 34
0.0
 15
0.0
 25
0.0
 35
0.0
146
0.0
 13
0.0
 23
0.0
 33
0.0
 16
1.0
 26
0.0
 36
0.0
 17
0.0
 27
1.0
 37
0.0
 76
     0
330
23
  0
LAYOUT
  5
22
102
{ACAD_REACTORS
330
1A
102
}
330
1A
100
AcDbPlotSettings
  1

  2
none_device
  4

  6

 40
0.0
 41
0.0
 42
0.0
 43
0.0
 44
0.0
 45
0.0
 46
0.0
 47
0.0
 48
0.0
 49
0.0
140
0.0
141
0.0
142
1.0
143
1.0
 70
  1712
 72
     0
 73
     0
 74
     0
  7

 75
     0
 76
     0
 77
     2
 78
   300
147
1.0
148
0.0
149
0.0
100
AcDbLayout
  1
Model
 70
     1
 71
     0
 10
0.0
 20
0.0
 11
12.0
 21
9.0
 12
0.0
 22
0.0
 32
0.0
 14
1.000000000000000E+20
 24
1.000000000000000E+20
 34
1.000000000000000E+20
 15
-1.000000000000000E+20
 25
-1.000000000000000E+20
 35
-1.000000000000000E+20
146
0.0
 13
0.0
 23
0.0
 33
0.0
 16
1.0
 26
0.0
 36
0.0
 17
0.0
 27
1.0
 37
0.0
 76
     0
330
1F
331
29
  0
MATERIAL
  5
3D
102
{ACAD_REACTORS
330
3B
102
}
330
3B
100
AcDbMaterial
  1
ByBlock
 72
     1
 94
      127
  0
MATERIAL
  5
3C
102
{ACAD_REACTORS
330
3B
102
}
330
3B
100
AcDbMaterial
  1
ByLayer
 72
     1
 94
      127
  0
MATERIAL
  5
3E
102
{ACAD_REACTORS
330
3B
102
}
330
3B
100
AcDbMaterial
  1
Global
 72
     1
 94
      127
  0
MLINESTYLE
  5
18
102
{ACAD_REACTORS
330
17
102
}
330
17
100
AcDbMlineStyle
  2
Standard
 70
     0
  3

 62
   256
 51
90.0
 52
90.0
 71
     2
 49
0.5
 62
   256
  6
BYLAYER
 49
-0.5
 62
   256
  6
BYLAYER
  0
ACDBPLACEHOLDER
  5
F
102
{ACAD_REACTORS
330
E
102
}
330
E
  0
VISUALSTYLE
  5
2F
102
{ACAD_REACTORS
330
2A
102
}
330
2A
100
AcDbVisualStyle
  2
2dWireframe
 70
     4
177
     2
291
     0
 71
     0
176
     1
 72
     2
176
     1
 73
     0
176
     1
 90
        0
176
     1
 40
-0.6
176
     1
 41
-30.0
176
     1
 62
     5
 63
     7
421
 16777215
176
     1
 74
     1
176
     1
 91
        4
176
     1
 64
     7
176
     1
 65
   257
176
     1
 75
     1
176
     1
175
     1
176
     1
 42
1.0
176
     1
 92
        0
176
     1
 66
   257
176
     1
 43
1.0
176
     1
 76
     1
176
     1
 77
     6
176
     1
 78
     2
176
     1
 67
     7
176
     1
 79
     5
176
     1
170
     0
176
     1
171
     0
176
     1
290
     0
176
     1
 93
        1
176
     1
 44
0.0
176
     1
173
     0
176
     1
  0
VISUALSTYLE
  5
31
102
{ACAD_REACTORS
330
2A
102
}
330
2A
100
AcDbVisualStyle
  2
3D Hidden
 70
     6
177
     2
291
     0
 71
     1
176
     1
 72
     2
176
     1
 73
     2
176
     1
 90
        0
176
     1
 40
-0.6
176
     1
 41
-30.0
176
     1
 62
     5
 63
     7
421
 16777215
176
     1
 74
     2
176
     1
 91
        2
176
     1
 64
     7
176
     1
 65
   257
176
     1
 75
     2
176
     1
175
     1
176
     1
 42
40.0
176
     1
 92
        0
176
     1
 66
   257
176
     1
 43
1.0
176
     1
 76
     1
176
     1
 77
     6
176
     1
 78
     2
176
     1
 67
     7
176
     1
 79
     3
176
     1
170
     0
176
     1
171
     0
176
     1
290
     0
176
     1
 93
        1
176
     1
 44
0.0
176
     1
173
     0
176
     1
  0
VISUALSTYLE
  5
30
102
{ACAD_REACTORS
330
2A
102
}
330
2A
100
AcDbVisualStyle
  2
3dWireframe
 70
     5
177
     2
291
     0
 71
     0
176
     1
 72
     2
176
     1
 73
     0
176
     1
 90
        0
176
     1
 40
-0.6
176
     1
 41
-30.0
176
     1
 62
     5
 63
     7
421
 16777215
176
     1
 74
     1
176
     1
 91
        4
176
     1
 64
     7
176
     1
 65
   257
176
     1
 75
     1
176
     1
175
     1
176
     1
 42
1.0
176
     1
 92
        0
176
     1
 66
   257
176
     1
 43
1.0
176
     1
 76
     1
176
     1
 77
     6
176
     1
 78
     2
176
     1
 67
     7
176
     1
 79
     5
176
     1
170
     0
176
     1
171
     0
176
     1
290
     0
176
     1
 93
        1
176
     1
 44
0.0
176
     1
173
     0
176
     1
  0
VISUALSTYLE
  5
32
102
{ACAD_REACTORS
330
2A
102
}
330
2A
100
AcDbVisualStyle
  2
Basic
 70
     7
177
     2
291
     1
 71
     1
176
     1
 72
     0
176
     1
 73
     1
176
     1
 90
        0
176
     1
 40
-0.6
176
     1
 41
-30.0
176
     1
 62
     5
 63
     7
421
 16777215
176
     1
 74
     0
176
     1
 91
        4
176
     1
 64
     7
176
     1
 65
   257
176
     1
 75
     1
176
     1
175
     1
176
     1
 42
1.0
176
     1
 92
        8
176
     1
 66
     7
176
     1
 43
1.0
176
     1
 76
     1
176
     1
 77
     6
176
     1
 78
     2
176
     1
 67
     7
176
     1
 79
     5
176
     1
170
     0
176
     1
171
     0
176
     1
290
     0
176
     1
 93
        1
176
     1
 44
0.0
176
     1
173
     0
176
     1
  0
VISUALSTYLE
  5
36
102
{ACAD_REACTORS
330
2A
102
}
330
2A
100
AcDbVisualStyle
  2
Brighten
 70
    12
177
     2
291
     1
 71
     2
176
     1
 72
     2
176
     1
 73
     0
176
     1
 90
        0
176
     1
 40
-0.6
176
     1
 41
-30.0
176
     1
 62
     5
 63
     7
421
 16777215
176
     1
 74
     1
176
     1
 91
        4
176
     1
 64
     7
176
     1
 65
   257
176
     1
 75
     1
176
     1
175
     1
176
     1
 42
1.0
176
     1
 92
        8
176
     1
 66
     7
176
     1
 43
1.0
176
     1
 76
     1
176
     1
 77
     6
176
     1
 78
     2
176
     1
 67
     7
176
     1
 79
     5
176
     1
170
     0
176
     1
171
     0
176
     1
290
     0
176
     1
 93
        1
176
     1
 44
50.0
176
     1
173
     0
176
     1
  0
VISUALSTYLE
  5
3A
102
{ACAD_REACTORS
330
2A
102
}
330
2A
100
AcDbVisualStyle
  2
ColorChange
 70
    16
177
     2
291
     1
 71
     2
176
     1
 72
     2
176
     1
 73
     3
176
     1
 90
        0
176
     1
 40
-0.6
176
     1
 41
-30.0
176
     1
 62
     5
 63
     8
421
  8421504
176
     1
 74
     1
176
     1
 91
        4
176
     1
 64
     7
176
     1
 65
   257
176
     1
 75
     1
176
     1
175
     1
176
     1
 42
1.0
176
     1
 92
        8
176
     1
 66
     8
424
  8421504
176
     1
 43
1.0
176
     1
 76
     1
176
     1
 77
     6
176
     1
 78
     2
176
     1
 67
     7
176
     1
 79
     5
176
     1
170
     0
176
     1
171
     0
176
     1
290
     0
176
     1
 93
        1
176
     1
 44
0.0
176
     1
173
     0
176
     1
  0
VISUALSTYLE
  5
34
102
{ACAD_REACTORS
330
2A
102
}
330
2A
100
AcDbVisualStyle
  2
Conceptual
 70
     9
177
     2
291
     0
 71
     3
176
     1
 72
     2
176
     1
 73
     0
176
     1
 90
        0
176
     1
 40
-0.6
176
     1
 41
-30.0
176
     1
 62
     5
 63
     7
421
 16777215
176
     1
 74
     2
176
     1
 91
        2
176
     1
 64
     7
176
     1
 65
   257
176
     1
 75
     1
176
     1
175
     1
176
     1
 42
40.0
176
     1
 92
        8
176
     1
 66
     7
176
     1
 43
1.0
176
     1
 76
     1
176
     1
 77
     6
176
     1
 78
     2
176
     1
 67
     7
176
     1
 79
     3
176
     1
170
     0
176
     1
171
     0
176
     1
290
     0
176
     1
 93
        1
176
     1
 44
0.0
176
     1
173
     0
176
     1
  0
VISUALSTYLE
  5
35
102
{ACAD_REACTORS
330
2A
102
}
330
2A
100
AcDbVisualStyle
  2
Dim
 70
    11
177
     2
291
     1
 71
     2
176
     1
 72
     2
176
     1
 73
     0
176
     1
 90
        0
176
     1
 40
-0.6
176
     1
 41
-30.0
176
     1
 62
     5
 63
     7
421
 16777215
176
     1
 74
     1
176
     1
 91
        4
176
     1
 64
     7
176
     1
 65
   257
176
     1
 75
     1
176
     1
175
     1
176
     1
 42
1.0
176
     1
 92
        8
176
     1
 66
     7
176
     1
 43
1.0
176
     1
 76
     1
176
     1
 77
     6
176
     1
 78
     2
176
     1
 67
     7
176
     1
 79
     5
176
     1
170
     0
176
     1
171
     0
176
     1
290
     0
176
     1
 93
        1
176
     1
 44
-50.0
176
     1
173
     0
176
     1
  0
VISUALSTYLE
  5
39
102
{ACAD_REACTORS
330
2A
102
}
330
2A
100
AcDbVisualStyle
  2
Facepattern
 70
    15
177
     2
291
     1
 71
     2
176
     1
 72
     2
176
     1
 73
     0
176
     1
 90
        0
176
     1
 40
-0.6
176
     1
 41
-30.0
176
     1
 62
     5
 63
     7
421
 16777215
176
     1
 74
     1
176
     1
 91
        4
176
     1
 64
     7
176
     1
 65
   257
176
     1
 75
     1
176
     1
175
     1
176
     1
 42
1.0
176
     1
 92
        8
176
     1
 66
     7
176
     1
 43
1.0
176
     1
 76
     1
176
     1
 77
     6
176
     1
 78
     2
176
     1
 67
     7
176
     1
 79
     5
176
     1
170
     0
176
     1
171
     0
176
     1
290
     0
176
     1
 93
        1
176
     1
 44
0.0
176
     1
173
     0
176
     1
  0
VISUALSTYLE
  5
2B
102
{ACAD_REACTORS
330
2A
102
}
330
2A
100
AcDbVisualStyle
  2
Flat
 70
     0
177
     2
291
     1
 71
     2
176
     1
 72
     1
176
     1
 73
     1
176
     1
 90
        2
176
     1
 40
-0.6
176
     1
 41
30.0
176
     1
 62
     5
 63
     7
421
 16777215
176
     1
 74
     0
176
     1
 91
        4
176
     1
 64
     7
176
     1
 65
   257
176
     1
 75
     1
176
     1
175
     1
176
     1
 42
1.0
176
     1
 92
        8
176
     1
 66
     7
176
     1
 43
1.0
176
     1
 76
     1
176
     1
 77
     6
176
     1
 78
     2
176
     1
 67
     7
176
     1
 79
     5
176
     1
170
     0
176
     1
171
     0
176
     1
290
     0
176
     1
 93
       13
176
     1
 44
0.0
176
     1
173
     0
176
     1
  0
VISUALSTYLE
  5
2C
102
{ACAD_REACTORS
330
2A
102
}
330
2A
100
AcDbVisualStyle
  2
FlatWithEdges
 70
     1
177
     2
291
     1
 71
     2
176
     1
 72
     1
176
     1
 73
     1
176
     1
 90
        2
176
     1
 40
-0.6
176
     1
 41
30.0
176
     1
 62
     5
 63
     7
421
 16777215
176
     1
 74
     1
176
     1
 91
        4
176
     1
 64
     7
176
     1
 65
   257
176
     1
 75
     1
176
     1
175
     1
176
     1
 42
1.0
176
     1
 92
        0
176
     1
 66
   257
176
     1
 43
1.0
176
     1
 76
     1
176
     1
 77
     6
176
     1
 78
     2
176
     1
 67
     7
176
     1
 79
     5
176
     1
170
     0
176
     1
171
     0
176
     1
290
     0
176
     1
 93
       13
176
     1
 44
0.0
176
     1
173
     0
176
     1
  0
VISUALSTYLE
  5
2D
102
{ACAD_REACTORS
330
2A
102
}
330
2A
100
AcDbVisualStyle
  2
Gouraud
 70
     2
177
     2
291
     1
 71
     2
176
     1
 72
     2
176
     1
 73
     1
176
     1
 90
        2
176
     1
 40
-0.6
176
     1
 41
30.0
176
     1
 62
     5
 63
     7
421
 16777215
176
     1
 74
     0
176
     1
 91
        4
176
     1
 64
     7
176
     1
 65
   257
176
     1
 75
     1
176
     1
175
     1
176
     1
 42
1.0
176
     1
 92
        0
176
     1
 66
     7
176
     1
 43
1.0
176
     1
 76
     1
176
     1
 77
     6
176
     1
 78
     2
176
     1
 67
     7
176
     1
 79
     5
176
     1
170
     0
176
     1
171
     0
176
     1
290
     0
176
     1
 93
       13
176
     1
 44
0.0
176
     1
173
     0
176
     1
  0
VISUALSTYLE
  5
2E
102
{ACAD_REACTORS
330
2A
102
}
330
2A
100
AcDbVisualStyle
  2
GouraudWithEdges
 70
     3
177
     2
291
     1
 71
     2
176
     1
 72
     2
176
     1
 73
     1
176
     1
 90
        2
176
     1
 40
-0.6
176
     1
 41
30.0
176
     1
 62
     5
 63
     7
421
 16777215
176
     1
 74
     1
176
     1
 91
        4
176
     1
 64
     7
176
     1
 65
   257
176
     1
 75
     1
176
     1
175
     1
176
     1
 42
1.0
176
     1
 92
        0
176
     1
 66
   257
176
     1
 43
1.0
176
     1
 76
     1
176
     1
 77
     6
176
     1
 78
     2
176
     1
 67
     7
176
     1
 79
     5
176
     1
170
     0
176
     1
171
     0
176
     1
290
     0
176
     1
 93
       13
176
     1
 44
0.0
176
     1
173
     0
176
     1
  0
VISUALSTYLE
  5
38
102
{ACAD_REACTORS
330
2A
102
}
330
2A
100
AcDbVisualStyle
  2
Linepattern
 70
    14
177
     2
291
     1
 71
     2
176
     1
 72
     2
176
     1
 73
     0
176
     1
 90
        0
176
     1
 40
-0.6
176
     1
 41
-30.0
176
     1
 62
     5
 63
     7
421
 16777215
176
     1
 74
     1
176
     1
 91
        4
176
     1
 64
     7
176
     1
 65
   257
176
     1
 75
     7
176
     1
175
     7
176
     1
 42
1.0
176
     1
 92
        8
176
     1
 66
     7
176
     1
 43
1.0
176
     1
 76
     1
176
     1
 77
     6
176
     1
 78
     2
176
     1
 67
     7
176
     1
 79
     5
176
     1
170
     0
176
     1
171
     0
176
     1
290
     0
176
     1
 93
        1
176
     1
 44
0.0
176
     1
173
     0
176
     1
  0
VISUALSTYLE
  5
33
102
{ACAD_REACTORS
330
2A
102
}
330
2A
100
AcDbVisualStyle
  2
Realistic
 70
     8
177
     2
291
     0
 71
     2
176
     1
 72
     2
176
     1
 73
     0
176
     1
 90
        0
176
     1
 40
-0.6
176
     1
 41
-30.0
176
     1
 62
     5
 63
     7
421
 16777215
176
     1
 74
     1
176
     1
 91
        0
176
     1
 64
     7
176
     1
 65
   257
176
     1
 75
     1
176
     1
175
     1
176
     1
 42
1.0
176
     1
 92
        8
176
     1
 66
     8
424
  7895160
176
     1
 43
1.0
176
     1
 76
     1
176
     1
 77
     6
176
     1
 78
     2
176
     1
 67
     7
176
     1
 79
     5
176
     1
170
     0
176
     1
171
     0
176
     1
290
     0
176
     1
 93
       13
176
     1
 44
0.0
176
     1
173
     0
176
     1
  0
VISUALSTYLE
  5
37
102
{ACAD_REACTORS
330
2A
102
}
330
2A
100
AcDbVisualStyle
  2
Thicken
 70
    13
177
     2
291
     1
 71
     2
176
     1
 72
     2
176
     1
 73
     0
176
     1
 90
        0
176
     1
 40
-0.6
176
     1
 41
-30.0
176
     1
 62
     5
 63
     7
421
 16777215
176
     1
 74
     1
176
     1
 91
        4
176
     1
 64
     7
176
     1
 65
   257
176
     1
 75
     1
176
     1
175
     1
176
     1
 42
1.0
176
     1
 92
       12
176
     1
 66
     7
176
     1
 43
1.0
176
     1
 76
     1
176
     1
 77
     6
176
     1
 78
     2
176
     1
 67
     7
176
     1
 79
     5
176
     1
170
     0
176
     1
171
     0
176
     1
290
     0
176
     1
 93
        1
176
     1
 44
0.0
176
     1
173
     0
176
     1
  0
ENDSEC
  0
EOF
